  0
SECTION
  2
HEADER
  9
$ACADVER
  1
AC1015
  9
$ACADMAINTVER
 70
    20
  9
$DWGCODEPAGE
  3
ANSI_932
  9
$INSBASE
 10
0.0
 20
0.0
 30
0.0
  9
$EXTMIN
 10
9.999997526638502
 20
10.0
 30
0.0
  9
$EXTMAX
 10
326.2618799620687
 20
528.0051026421581
 30
0.0
  9
$LIMMIN
 10
0.0000015376081137
 20
-0.0000001931532552
  9
$LIMMAX
 10
792.0000015376082
 20
545.9999998068466
  9
$ORTHOMODE
 70
     1
  9
$REGENMODE
 70
     1
  9
$FILLMODE
 70
     1
  9
$QTEXTMODE
 70
     0
  9
$MIRRTEXT
 70
     1
  9
$LTSCALE
 40
1.0
  9
$ATTMODE
 70
     1
  9
$TEXTSIZE
 40
2.5
  9
$TRACEWID
 40
1.0
  9
$TEXTSTYLE
  7
STANDARD
  9
$CLAYER
  8
0
  9
$CELTYPE
  6
BYLAYER
  9
$CECOLOR
 62
   256
  9
$CELTSCALE
 40
1.0
  9
$DISPSILH
 70
     0
  9
$DIMSCALE
 40
1.0
  9
$DIMASZ
 40
3.0
  9
$DIMEXO
 40
1.0
  9
$DIMDLI
 40
10.0
  9
$DIMRND
 40
0.0
  9
$DIMDLE
 40
0.0
  9
$DIMEXE
 40
1.0
  9
$DIMTP
 40
0.0
  9
$DIMTM
 40
0.0
  9
$DIMTXT
 40
3.2
  9
$DIMCEN
 40
0.0
  9
$DIMTSZ
 40
0.0
  9
$DIMTOL
 70
     0
  9
$DIMLIM
 70
     0
  9
$DIMTIH
 70
     0
  9
$DIMTOH
 70
     0
  9
$DIMSE1
 70
     0
  9
$DIMSE2
 70
     0
  9
$DIMTAD
 70
     3
  9
$DIMZIN
 70
     8
  9
$DIMBLK
  1

  9
$DIMASO
 70
     1
  9
$DIMSHO
 70
     1
  9
$DIMPOST
  1

  9
$DIMAPOST
  1

  9
$DIMALT
 70
     0
  9
$DIMALTD
 70
     2
  9
$DIMALTF
 40
25.4
  9
$DIMLFAC
 40
1.0
  9
$DIMTOFL
 70
     1
  9
$DIMTVP
 40
0.0
  9
$DIMTIX
 70
     0
  9
$DIMSOXD
 70
     0
  9
$DIMSAH
 70
     1
  9
$DIMBLK1
  1
OPEN
  9
$DIMBLK2
  1
OPEN
  9
$DIMSTYLE
  2
STANDARD
  9
$DIMCLRD
 70
     0
  9
$DIMCLRE
 70
     0
  9
$DIMCLRT
 70
     0
  9
$DIMTFAC
 40
1.0
  9
$DIMGAP
 40
1.0
  9
$DIMJUST
 70
     0
  9
$DIMSD1
 70
     0
  9
$DIMSD2
 70
     0
  9
$DIMTOLJ
 70
     1
  9
$DIMTZIN
 70
     0
  9
$DIMALTZ
 70
     0
  9
$DIMALTTZ
 70
     0
  9
$DIMUPT
 70
     0
  9
$DIMDEC
 70
     4
  9
$DIMTDEC
 70
     4
  9
$DIMALTU
 70
     2
  9
$DIMALTTD
 70
     2
  9
$DIMTXSTY
  7
STANDARD
  9
$DIMAUNIT
 70
     0
  9
$DIMADEC
 70
     0
  9
$DIMALTRND
 40
0.0
  9
$DIMAZIN
 70
     0
  9
$DIMDSEP
 70
    46
  9
$DIMATFIT
 70
     3
  9
$DIMFRAC
 70
     0
  9
$DIMLDRBLK
  1
OPEN
  9
$DIMLUNIT
 70
     2
  9
$DIMLWD
 70
    -2
  9
$DIMLWE
 70
    -2
  9
$DIMTMOVE
 70
     0
  9
$LUNITS
 70
     2
  9
$LUPREC
 70
     4
  9
$SKETCHINC
 40
1.0
  9
$FILLETRAD
 40
10.0
  9
$AUNITS
 70
     0
  9
$AUPREC
 70
     0
  9
$MENU
  1
.
  9
$ELEVATION
 40
0.0
  9
$PELEVATION
 40
0.0
  9
$THICKNESS
 40
0.0
  9
$LIMCHECK
 70
     0
  9
$CHAMFERA
 40
10.0
  9
$CHAMFERB
 40
10.0
  9
$CHAMFERC
 40
20.0
  9
$CHAMFERD
 40
0.0
  9
$SKPOLY
 70
     0
  9
$TDCREATE
 40
2454173.716336979
  9
$TDUCREATE
 40
2454173.341336979
  9
$TDUPDATE
 40
2457192.700815799
  9
$TDUUPDATE
 40
2457192.325815799
  9
$TDINDWG
 40
0.0134891435
  9
$TDUSRTIMER
 40
0.0134891435
  9
$USRTIMER
 70
     1
  9
$ANGBASE
 50
0.0
  9
$ANGDIR
 70
     0
  9
$PDMODE
 70
     0
  9
$PDSIZE
 40
0.0
  9
$PLINEWID
 40
0.0
  9
$SPLFRAME
 70
     0
  9
$SPLINETYPE
 70
     6
  9
$SPLINESEGS
 70
     8
  9
$HANDSEED
  5
83C
  9
$SURFTAB1
 70
     6
  9
$SURFTAB2
 70
     6
  9
$SURFTYPE
 70
     6
  9
$SURFU
 70
     6
  9
$SURFV
 70
     6
  9
$UCSBASE
  2

  9
$UCSNAME
  2

  9
$UCSORG
 10
0.0
 20
0.0
 30
0.0
  9
$UCSXDIR
 10
1.0
 20
0.0
 30
0.0
  9
$UCSYDIR
 10
0.0
 20
1.0
 30
0.0
  9
$UCSORTHOREF
  2

  9
$UCSORTHOVIEW
 70
     0
  9
$UCSORGTOP
 10
0.0
 20
0.0
 30
0.0
  9
$UCSORGBOTTOM
 10
0.0
 20
0.0
 30
0.0
  9
$UCSORGLEFT
 10
0.0
 20
0.0
 30
0.0
  9
$UCSORGRIGHT
 10
0.0
 20
0.0
 30
0.0
  9
$UCSORGFRONT
 10
0.0
 20
0.0
 30
0.0
  9
$UCSORGBACK
 10
0.0
 20
0.0
 30
0.0
  9
$PUCSBASE
  2

  9
$PUCSNAME
  2

  9
$PUCSORG
 10
0.0
 20
0.0
 30
0.0
  9
$PUCSXDIR
 10
1.0
 20
0.0
 30
0.0
  9
$PUCSYDIR
 10
0.0
 20
1.0
 30
0.0
  9
$PUCSORTHOREF
  2

  9
$PUCSORTHOVIEW
 70
     0
  9
$PUCSORGTOP
 10
0.0
 20
0.0
 30
0.0
  9
$PUCSORGBOTTOM
 10
0.0
 20
0.0
 30
0.0
  9
$PUCSORGLEFT
 10
0.0
 20
0.0
 30
0.0
  9
$PUCSORGRIGHT
 10
0.0
 20
0.0
 30
0.0
  9
$PUCSORGFRONT
 10
0.0
 20
0.0
 30
0.0
  9
$PUCSORGBACK
 10
0.0
 20
0.0
 30
0.0
  9
$USERI1
 70
     0
  9
$USERI2
 70
     0
  9
$USERI3
 70
     0
  9
$USERI4
 70
     0
  9
$USERI5
 70
     0
  9
$USERR1
 40
0.0
  9
$USERR2
 40
0.0
  9
$USERR3
 40
0.0
  9
$USERR4
 40
0.0
  9
$USERR5
 40
0.0
  9
$WORLDVIEW
 70
     1
  9
$SHADEDGE
 70
     3
  9
$SHADEDIF
 70
    70
  9
$TILEMODE
 70
     1
  9
$MAXACTVP
 70
    48
  9
$PINSBASE
 10
0.0
 20
0.0
 30
0.0
  9
$PLIMCHECK
 70
     0
  9
$PEXTMIN
 10
1.000000000000000E+20
 20
1.000000000000000E+20
 30
1.000000000000000E+20
  9
$PEXTMAX
 10
-1.000000000000000E+20
 20
-1.000000000000000E+20
 30
-1.000000000000000E+20
  9
$PLIMMIN
 10
0.0
 20
0.0
  9
$PLIMMAX
 10
420.0
 20
297.0
  9
$UNITMODE
 70
     0
  9
$VISRETAIN
 70
     1
  9
$PLINEGEN
 70
     0
  9
$PSLTSCALE
 70
     1
  9
$TREEDEPTH
 70
  3020
  9
$CMLSTYLE
  2
STANDARD
  9
$CMLJUST
 70
     0
  9
$CMLSCALE
 40
20.0
  9
$PROXYGRAPHICS
 70
     1
  9
$MEASUREMENT
 70
     0
  9
$CELWEIGHT
370
    -1
  9
$ENDCAPS
280
     0
  9
$JOINSTYLE
280
     0
  9
$LWDISPLAY
290
     0
  9
$INSUNITS
 70
     0
  9
$HYPERLINKBASE
  1

  9
$STYLESHEET
  1

  9
$XEDIT
290
     1
  9
$CEPSNTYPE
380
     0
  9
$PSTYLEMODE
290
     1
  9
$FINGERPRINTGUID
  2
{E7281328-C24B-466A-A3F3-391955B3CB47}
  9
$VERSIONGUID
  2
{C54A08E7-6496-43D6-A602-7CEA489CCBAA}
  9
$EXTNAMES
290
     1
  9
$PSVPSCALE
 40
0.0
  9
$OLESTARTUP
290
     0
  0
ENDSEC
  0
SECTION
  2
CLASSES
  0
CLASS
  1
ACDBDICTIONARYWDFLT
  2
AcDbDictionaryWithDefault
  3
ObjectDBX Classes
 90
        0
280
     0
281
     0
  0
CLASS
  1
ACDBPLACEHOLDER
  2
AcDbPlaceHolder
  3
ObjectDBX Classes
 90
        0
280
     0
281
     0
  0
CLASS
  1
LAYOUT
  2
AcDbLayout
  3
ObjectDBX Classes
 90
        0
280
     0
281
     0
  0
CLASS
  1
DICTIONARYVAR
  2
AcDbDictionaryVar
  3
ObjectDBX Classes
 90
        0
280
     0
281
     0
  0
CLASS
  1
MATERIAL
  2
AcDbMaterial
  3
ObjectDBX Classes
 90
     1153
280
     0
281
     0
  0
CLASS
  1
VISUALSTYLE
  2
AcDbVisualStyle
  3
ObjectDBX Classes
 90
     4095
280
     0
281
     0
  0
CLASS
  1
TABLESTYLE
  2
AcDbTableStyle
  3
ObjectDBX Classes
 90
     4095
280
     0
281
     0
  0
CLASS
  1
SCALE
  2
AcDbScale
  3
ObjectDBX Classes
 90
     1153
280
     0
281
     0
  0
CLASS
  1
MLEADERSTYLE
  2
AcDbMLeaderStyle
  3
ACDB_MLEADERSTYLE_CLASS
 90
     4095
280
     0
281
     0
  0
CLASS
  1
ACDBSECTIONVIEWSTYLE
  2
AcDbSectionViewStyle
  3
ObjectDBX Classes
 90
     1025
280
     0
281
     0
  0
CLASS
  1
ACDBDETAILVIEWSTYLE
  2
AcDbDetailViewStyle
  3
ObjectDBX Classes
 90
     1025
280
     0
281
     0
  0
CLASS
  1
CELLSTYLEMAP
  2
AcDbCellStyleMap
  3
ObjectDBX Classes
 90
     1152
280
     0
281
     0
  0
ENDSEC
  0
SECTION
  2
TABLES
  0
TABLE
  2
VPORT
  5
8
330
0
100
AcDbSymbolTable
 70
     1
  0
VPORT
  5
786
330
8
100
AcDbSymbolTableRecord
100
AcDbViewportTableRecord
  2
*ACTIVE
 70
     0
 10
0.0
 20
0.0
 11
1.0
 21
1.0
 12
382.6799157412036
 22
269.0009776359464
 13
0.0
 23
0.0
 14
10.0
 24
10.0
 15
10.0
 25
10.0
 16
0.0
 26
0.0
 36
1.0
 17
0.0
 27
0.0
 37
0.0
 40
521.9796300059681
 41
2.35006605019815
 42
50.0
 43
0.0
 44
0.0
 50
0.0
 51
0.0
 71
     0
 72
   100
 73
     1
 74
     0
 75
     0
 76
     0
 77
     0
 78
     0
281
     0
 65
     1
110
0.0
120
0.0
130
0.0
111
1.0
121
0.0
131
0.0
112
0.0
122
1.0
132
0.0
 79
     0
146
0.0
1001
ACAD_NAV_VCDISPLAY
1070
     3
  0
ENDTAB
  0
TABLE
  2
LTYPE
  5
5
330
0
100
AcDbSymbolTable
 70
     4
  0
LTYPE
  5
12
330
5
100
AcDbSymbolTableRecord
100
AcDbLinetypeTableRecord
  2
BYBLOCK
 70
     0
  3

 72
    65
 73
     0
 40
0.0
  0
LTYPE
  5
13
330
5
100
AcDbSymbolTableRecord
100
AcDbLinetypeTableRecord
  2
BYLAYER
 70
     0
  3

 72
    65
 73
     0
 40
0.0
  0
LTYPE
  5
14
330
5
100
AcDbSymbolTableRecord
100
AcDbLinetypeTableRecord
  2
CONTINUOUS
 70
     0
  3
Solid line
 72
    65
 73
     0
 40
0.0
  0
LTYPE
  5
4B
330
5
100
AcDbSymbolTableRecord
100
AcDbLinetypeTableRecord
  2
DASHED
 70
     0
  3
Dashed __ __ __ __ __ __ __ __ __ __ __ __ __ _
 72
    65
 73
     2
 40
19.04999999999999
 49
12.7
 74
     0
 49
-6.349999999999998
 74
     0
  0
LTYPE
  5
4C
330
5
100
AcDbSymbolTableRecord
100
AcDbLinetypeTableRecord
  2
CENTER
 70
     0
  3
Center ____ _ ____ _ ____ _ ____ _ ____ _ ____
 72
    65
 73
     4
 40
50.8
 49
31.75
 74
     0
 49
-6.349999999999998
 74
     0
 49
6.349999999999998
 74
     0
 49
-6.349999999999998
 74
     0
  0
LTYPE
  5
4D
330
5
100
AcDbSymbolTableRecord
100
AcDbLinetypeTableRecord
  2
PHANTOM
 70
     0
  3
Phantom ______  __  __  ______  __  __  ______
 72
    65
 73
     6
 40
63.5
 49
31.75
 74
     0
 49
-6.349999999999998
 74
     0
 49
6.349999999999998
 74
     0
 49
-6.349999999999998
 74
     0
 49
6.349999999999998
 74
     0
 49
-6.349999999999998
 74
     0
  0
ENDTAB
  0
TABLE
  2
LAYER
  5
2
330
0
100
AcDbSymbolTable
 70
     8
  0
LAYER
  5
E
102
{ACAD_XDICTIONARY
360
7E0
102
}
330
2
100
AcDbSymbolTableRecord
100
AcDbLayerTableRecord
  2
0
 70
     0
 62
     7
  6
CONTINUOUS
370
    -3
390
78F
  0
LAYER
  5
4E
102
{ACAD_XDICTIONARY
360
7E2
102
}
330
2
100
AcDbSymbolTableRecord
100
AcDbLayerTableRecord
  2
4
 70
     0
 62
     1
  6
CENTER
370
    -3
390
78F
  0
LAYER
  5
4F
102
{ACAD_XDICTIONARY
360
7E4
102
}
330
2
100
AcDbSymbolTableRecord
100
AcDbLayerTableRecord
  2
5
 70
     0
 62
     6
  6
PHANTOM
370
    -3
390
78F
  0
LAYER
  5
50
102
{ACAD_XDICTIONARY
360
7E6
102
}
330
2
100
AcDbSymbolTableRecord
100
AcDbLayerTableRecord
  2
1
 70
     0
 62
     7
  6
CONTINUOUS
370
    -3
390
78F
  0
LAYER
  5
51
102
{ACAD_XDICTIONARY
360
7E8
102
}
330
2
100
AcDbSymbolTableRecord
100
AcDbLayerTableRecord
  2
2
 70
     0
 62
     4
  6
CONTINUOUS
370
    -3
390
78F
  0
LAYER
  5
52
102
{ACAD_XDICTIONARY
360
7EA
102
}
330
2
100
AcDbSymbolTableRecord
100
AcDbLayerTableRecord
  2
3
 70
     0
 62
     2
  6
DASHED
370
    -3
390
78F
  0
LAYER
  5
53
102
{ACAD_XDICTIONARY
360
7EC
102
}
330
2
100
AcDbSymbolTableRecord
100
AcDbLayerTableRecord
  2
6
 70
     0
 62
     5
  6
CONTINUOUS
370
    -3
390
78F
  0
LAYER
  5
54
102
{ACAD_XDICTIONARY
360
7EE
102
}
330
2
100
AcDbSymbolTableRecord
100
AcDbLayerTableRecord
  2
7
 70
     0
 62
     3
  6
CONTINUOUS
370
    -3
390
78F
  0
ENDTAB
  0
TABLE
  2
STYLE
  5
3
330
0
100
AcDbSymbolTable
 70
     1
  0
STYLE
  5
F
330
3
100
AcDbSymbolTableRecord
100
AcDbTextStyleTableRecord
  2
STANDARD
 70
     0
 40
0.0
 41
1.0
 50
0.0
 71
     0
 42
2.5
  3
simplex.shx
  4

  0
ENDTAB
  0
TABLE
  2
VIEW
  5
6
330
0
100
AcDbSymbolTable
 70
     0
  0
ENDTAB
  0
TABLE
  2
UCS
  5
7
330
0
100
AcDbSymbolTable
 70
     0
  0
ENDTAB
  0
TABLE
  2
APPID
  5
9
330
0
100
AcDbSymbolTable
 70
     5
  0
APPID
  5
10
330
9
100
AcDbSymbolTableRecord
100
AcDbRegAppTableRecord
  2
ACAD
 70
     0
  0
APPID
  5
3E
330
9
100
AcDbSymbolTableRecord
100
AcDbRegAppTableRecord
  2
CONTENTTABDATA
 70
     0
  0
APPID
  5
3F
330
9
100
AcDbSymbolTableRecord
100
AcDbRegAppTableRecord
  2
CONTENTCURRENTTAB
 70
     0
  0
APPID
  5
7FA
330
9
100
AcDbSymbolTableRecord
100
AcDbRegAppTableRecord
  2
ACAD_NAV_VCDISPLAY
 70
     0
  0
APPID
  5
833
330
9
100
AcDbSymbolTableRecord
100
AcDbRegAppTableRecord
  2
ACAD_MLEADERVER
 70
     0
  0
ENDTAB
  0
TABLE
  2
DIMSTYLE
  5
A
330
0
100
AcDbSymbolTable
 70
     1
100
AcDbDimStyleTable
 71
     0
  0
DIMSTYLE
105
1D
330
A
100
AcDbSymbolTableRecord
100
AcDbDimStyleTableRecord
  2
STANDARD
 70
     0
 41
3.0
 42
1.0
 43
10.0
 44
1.0
 73
     0
 74
     0
 77
     3
 78
     8
140
3.2
141
0.0
147
1.0
172
     1
173
     1
340
F
341
2E
343
2E
344
2E
  0
ENDTAB
  0
TABLE
  2
BLOCK_RECORD
  5
1
330
0
100
AcDbSymbolTable
 70
     1
  0
BLOCK_RECORD
  5
18
102
{ACAD_XDICTIONARY
360
789
102
}
330
1
100
AcDbSymbolTableRecord
100
AcDbBlockTableRecord
  2
*MODEL_SPACE
340
7DD
  0
BLOCK_RECORD
  5
15
102
{ACAD_XDICTIONARY
360
787
102
}
330
1
100
AcDbSymbolTableRecord
100
AcDbBlockTableRecord
  2
*PAPER_SPACE
340
7DE
  0
BLOCK_RECORD
  5
2E
330
1
100
AcDbSymbolTableRecord
100
AcDbBlockTableRecord
  2
_OPEN
340
0
  0
ENDTAB
  0
ENDSEC
  0
SECTION
  2
BLOCKS
  0
BLOCK
  5
19
330
18
100
AcDbEntity
  8
0
100
AcDbBlockBegin
  2
*MODEL_SPACE
 70
     0
 10
0.0
 20
0.0
 30
0.0
  3
*MODEL_SPACE
  1

  0
ENDBLK
  5
1A
330
18
100
AcDbEntity
  8
0
100
AcDbBlockEnd
  0
BLOCK
  5
16
330
15
100
AcDbEntity
 67
     1
  8
0
100
AcDbBlockBegin
  2
*PAPER_SPACE
 70
     0
 10
0.0
 20
0.0
 30
0.0
  3
*PAPER_SPACE
  1

  0
ENDBLK
  5
17
330
15
100
AcDbEntity
 67
     1
  8
0
100
AcDbBlockEnd
  0
BLOCK
  5
2F
330
2E
100
AcDbEntity
  8
0
100
AcDbBlockBegin
  2
_OPEN
 70
     0
 10
0.0
 20
0.0
 30
0.0
  3
_OPEN
  1

  0
LINE
  5
30
330
2E
100
AcDbEntity
  8
0
  6
ByBlock
 62
     0
100
AcDbLine
 10
-1.0
 20
0.1666666666666666
 30
0.0
 11
0.0
 21
0.0
 31
0.0
  0
LINE
  5
31
330
2E
100
AcDbEntity
  8
0
  6
ByBlock
 62
     0
100
AcDbLine
 10
0.0
 20
0.0
 30
0.0
 11
-1.0
 21
-0.1666666666666666
 31
0.0
  0
LINE
  5
32
330
2E
100
AcDbEntity
  8
0
  6
ByBlock
 62
     0
100
AcDbLine
 10
0.0
 20
0.0
 30
0.0
 11
-1.0
 21
0.0
 31
0.0
  0
ENDBLK
  5
33
330
2E
100
AcDbEntity
  8
0
100
AcDbBlockEnd
  0
ENDSEC
  0
SECTION
  2
ENTITIES
  0
TEXT
  5
63
330
18
100
AcDbEntity
  8
4
  6
CENTER
 48
0.25
100
AcDbText
 10
23.97950852663849
 20
10.0
 30
0.0
 40
1.399999999999999
  1
4
100
AcDbText
  0
TEXT
  5
66
330
18
100
AcDbEntity
  8
1
  6
Continuous
 48
0.25
100
AcDbText
 10
9.999997526638502
 20
10.00000076076889
 30
0.0
 40
1.399999999999999
  1
LAYER
100
AcDbText
  0
TEXT
  5
67
330
18
100
AcDbEntity
  8
2
  6
Continuous
 48
0.25
100
AcDbText
 10
19.9795085266385
 20
10.0
 30
0.0
 40
1.399999999999999
  1
2
100
AcDbText
  0
TEXT
  5
68
330
18
100
AcDbEntity
  8
3
  6
DASHED
 48
0.25
100
AcDbText
 10
21.9795085266385
 20
10.0
 30
0.0
 40
1.399999999999999
  1
3
100
AcDbText
  0
TEXT
  5
69
330
18
100
AcDbEntity
  8
1
  6
Continuous
 48
0.25
100
AcDbText
 10
17.9795085266385
 20
10.0
 30
0.0
 40
1.399999999999999
  1
1
100
AcDbText
  0
TEXT
  5
6A
330
18
100
AcDbEntity
  8
5
  6
PHANTOM
 48
0.25
100
AcDbText
 10
25.9795085266385
 20
10.0
 30
0.0
 40
1.399999999999999
  1
5
100
AcDbText
  0
TEXT
  5
6B
330
18
100
AcDbEntity
  8
6
  6
Continuous
 48
0.25
100
AcDbText
 10
27.9795085266385
 20
10.0
 30
0.0
 40
1.399999999999999
  1
6
100
AcDbText
  0
TEXT
  5
6C
330
18
100
AcDbEntity
  8
7
  6
Continuous
 48
0.25
100
AcDbText
 10
29.9795085266385
 20
10.0
 30
0.0
 40
1.399999999999999
  1
7
100
AcDbText
  0
LINE
  5
358
330
18
100
AcDbEntity
  8
1
  6
Continuous
100
AcDbLine
 10
325.1618796708438
 20
286.1970447624164
 30
0.0
 11
325.1618796708438
 21
106.7965701377518
 31
0.0
  0
LINE
  5
359
330
18
100
AcDbEntity
  8
1
  6
Continuous
100
AcDbLine
 10
322.1618795283517
 20
106.7965701377518
 30
0.0
 11
322.1618795283517
 21
286.1970447624161
 31
0.0
  0
LINE
  5
35A
330
18
100
AcDbEntity
  8
4
  6
CENTER
 48
0.2
100
AcDbLine
 10
224.5773514721564
 20
454.7965865243724
 30
0.0
 11
224.5773514721564
 21
98.79656990026465
 31
0.0
  0
LINE
  5
35B
330
18
100
AcDbEntity
  8
4
  6
CENTER
 48
0.2
100
AcDbLine
 10
57.20829591725567
 20
454.7965865243724
 30
0.0
 11
57.20829591725567
 21
98.79656990026465
 31
0.0
  0
LINE
  5
35C
330
18
100
AcDbEntity
  8
1
  6
Continuous
100
AcDbLine
 10
50.20829558477351
 20
101.7965699002645
 30
0.0
 11
50.20829558477351
 21
320.6194529070672
 31
0.0
  0
LINE
  5
35D
330
18
100
AcDbEntity
  8
1
  6
Continuous
100
AcDbLine
 10
64.20829624973783
 20
101.7965699002645
 30
0.0
 11
64.20829624973783
 21
321.2965772836966
 31
0.0
  0
LINE
  5
35E
330
18
100
AcDbEntity
  8
1
  6
Continuous
100
AcDbLine
 10
217.5773511396743
 20
101.7965699002645
 30
0.0
 11
217.5773511396743
 21
321.2965772836966
 31
0.0
  0
LINE
  5
35F
330
18
100
AcDbEntity
  8
1
  6
Continuous
100
AcDbLine
 10
231.5773518046386
 20
101.7965699002645
 30
0.0
 11
231.5773518046386
 21
320.6194529070672
 31
0.0
  0
LINE
  5
360
330
18
100
AcDbEntity
  8
1
  6
Continuous
100
AcDbLine
 10
126.9928234159612
 20
106.7965701377518
 30
0.0
 11
126.9928234159612
 21
286.1970447624161
 31
0.0
  0
LINE
  5
361
330
18
100
AcDbEntity
  8
1
  6
Continuous
100
AcDbLine
 10
123.9928232734688
 20
286.1970447624164
 30
0.0
 11
123.9928232734688
 21
106.7965701377518
 31
0.0
  0
LINE
  5
362
330
18
100
AcDbEntity
  8
1
  6
Continuous
100
AcDbLine
 10
145.3928239084444
 20
42.06323556520481
 30
0.0
 11
149.7928237359636
 21
42.06323556520481
 31
0.0
  0
LINE
  5
363
330
18
100
AcDbEntity
  8
1
  6
Continuous
100
AcDbLine
 10
145.2928242851645
 20
46.4632357741936
 30
0.0
 11
149.7928237359636
 21
46.4632357741936
 31
0.0
  0
LINE
  5
364
330
18
100
AcDbEntity
  8
1
  6
Continuous
100
AcDbLine
 10
149.7928237359636
 20
47.01323580031718
 30
0.0
 11
147.767824021251
 21
47.01323580031718
 31
0.0
  0
LINE
  5
365
330
18
100
AcDbEntity
  8
1
  6
Continuous
100
AcDbLine
 10
145.3928239084444
 20
39.26323543221192
 30
0.0
 11
149.7928237359636
 21
39.26323543221192
 31
0.0
  0
LINE
  5
366
330
18
100
AcDbEntity
  8
1
  6
Continuous
100
AcDbLine
 10
152.7928238784559
 20
51.26323600218136
 30
0.0
 11
142.2928233797327
 21
51.26323600218136
 31
0.0
  0
LINE
  5
367
330
18
100
AcDbEntity
  8
1
  6
Continuous
100
AcDbLine
 10
152.7928238784559
 20
37.26323533721711
 30
0.0
 11
123.9928232734688
 21
37.26323533721711
 31
0.0
  0
LINE
  5
368
330
18
100
AcDbEntity
  8
4
  6
CENTER
 48
0.2
100
AcDbLine
 10
120.9928232734688
 20
44.26323566969926
 30
0.0
 11
158.8928244071678
 21
44.26323566969926
 31
0.0
  0
LINE
  5
369
330
18
100
AcDbEntity
  8
1
  6
Continuous
100
AcDbLine
 10
153.8928242503478
 20
35.2632352422222
 30
0.0
 11
127.8928233767742
 21
35.2632352422222
 31
0.0
  0
LINE
  5
36A
330
18
100
AcDbEntity
  8
1
  6
Continuous
100
AcDbLine
 10
56.20829586975822
 20
101.8468224343455
 30
0.0
 11
56.20829586975822
 21
106.089463322979
 31
0.0
  0
LINE
  5
36B
330
18
100
AcDbEntity
  8
1
  6
Continuous
100
AcDbLine
 10
58.20829596475311
 20
101.8468224343455
 30
0.0
 11
58.20829596475311
 21
106.089463322979
 31
0.0
  0
LINE
  5
36C
330
18
100
AcDbEntity
  8
1
  6
Continuous
100
AcDbLine
 10
145.2928242851645
 20
101.7965699002645
 30
0.0
 11
145.2928242851645
 21
104.7965700427569
 31
0.0
  0
LINE
  5
36D
330
18
100
AcDbEntity
  8
1
  6
Continuous
100
AcDbLine
 10
142.7928241664209
 20
101.7965699002645
 30
0.0
 11
142.7928241664209
 21
104.7965700427569
 31
0.0
  0
LINE
  5
36E
330
18
100
AcDbEntity
  8
1
  6
Continuous
100
AcDbLine
 10
139.4928240096793
 20
101.7965699002645
 30
0.0
 11
139.4928240096793
 21
104.7965700427569
 31
0.0
  0
ARC
  5
36F
330
18
100
AcDbEntity
  8
1
  6
Continuous
100
AcDbCircle
 10
128.9928235109561
 20
106.7965701377518
 30
0.0
 40
5.000000237487257
100
AcDbArc
 50
180.0
 51
270.0
  0
TEXT
  5
371
330
18
100
AcDbEntity
  8
7
  6
Continuous
 48
0.25
100
AcDbText
 10
9.999999785209412
 20
18.00000014005103
 30
0.0
 40
3.0
  1
TYPE No.TEA-1180-U200-LI
100
AcDbText
  0
TEXT
  5
372
330
18
100
AcDbEntity
  8
7
  6
Continuous
 48
0.25
100
AcDbText
 10
9.999999785209412
 20
26.00000014005104
 30
0.0
 40
3.0
  1
CODE No.13445
100
AcDbText
  0
LINE
  5
37B
330
18
100
AcDbEntity
  8
1
  6
Continuous
100
AcDbLine
 10
50.20829558477351
 20
101.7965699002645
 30
0.0
 11
64.20829624973783
 21
101.7965699002645
 31
0.0
  0
LINE
  5
37C
330
18
100
AcDbEntity
  8
1
  6
Continuous
100
AcDbLine
 10
58.20829596475311
 20
101.8468224343455
 30
0.0
 11
56.20829586975822
 21
101.8468224343455
 31
0.0
  0
LINE
  5
37D
330
18
100
AcDbEntity
  8
1
  6
Continuous
100
AcDbLine
 10
145.3928239084444
 20
37.26323533721711
 30
0.0
 11
145.3928239084444
 21
43.53049508811803
 31
0.0
  0
LINE
  5
37E
330
18
100
AcDbEntity
  8
1
  6
Continuous
100
AcDbLine
 10
139.4928240096793
 20
37.26323533721704
 30
0.0
 11
139.4928240096793
 21
41.76323555095557
 31
0.0
  0
LINE
  5
37F
330
18
100
AcDbEntity
  8
1
  6
Continuous
100
AcDbLine
 10
143.8928238371983
 20
37.26323533721711
 30
0.0
 11
143.8928238371983
 21
39.76323545596068
 31
0.0
  0
LINE
  5
380
330
18
100
AcDbEntity
  8
4
  6
CENTER
 48
0.2
100
AcDbLine
 10
140.892823694706
 20
56.56323625391797
 30
0.0
 11
140.892823694706
 21
32.2632352422222
 31
0.0
  0
LINE
  5
381
330
18
100
AcDbEntity
  8
1
  6
Continuous
100
AcDbLine
 10
123.9928232734688
 20
51.26323600218136
 30
0.0
 11
123.9928232734688
 21
37.26323533721711
 31
0.0
  0
ARC
  5
382
330
18
100
AcDbEntity
  8
1
  6
Continuous
100
AcDbCircle
 10
128.7928231199883
 20
37.26323533722478
 30
0.0
 40
0.500000023748542
100
AcDbArc
 50
179.9842316394003
 51
270.0000000000195
  0
LINE
  5
383
330
18
100
AcDbEntity
  8
1
  6
Continuous
100
AcDbLine
 10
128.7928231199894
 20
36.76323531347993
 30
0.0
 11
128.9594897945706
 21
36.79183079404654
 31
0.0
  0
LINE
  5
384
330
18
100
AcDbEntity
  8
1
  6
Continuous
100
AcDbLine
 10
128.7928231199868
 20
36.76323531346837
 30
0.0
 11
126.8928230297417
 21
36.76323531346837
 31
0.0
  0
LINE
  5
385
330
18
100
AcDbEntity
  8
1
  6
Continuous
100
AcDbLine
 10
128.9594897945742
 20
36.791830794036
 30
0.0
 11
130.2928231912338
 21
37.26323533721615
 31
0.0
  0
ARC
  5
386
330
18
100
AcDbEntity
  8
1
  6
Continuous
100
AcDbCircle
 10
126.0928229917436
 20
36.3787053490421
 30
0.0
 40
0.2000000094994652
100
AcDbArc
 50
179.9999999999945
 51
240.0000000000009
  0
LINE
  5
387
330
18
100
AcDbEntity
  8
1
  6
Continuous
100
AcDbLine
 10
125.8928229822441
 20
36.3787053490421
 30
0.0
 11
125.8928229822441
 21
37.26323533721711
 31
0.0
  0
LINE
  5
388
330
18
100
AcDbEntity
  8
1
  6
Continuous
100
AcDbLine
 10
126.8928230297417
 20
36.26323528971965
 30
0.0
 11
126.8928230297417
 21
37.26323533721711
 31
0.0
  0
LINE
  5
389
330
18
100
AcDbEntity
  8
1
  6
Continuous
100
AcDbLine
 10
127.3670320210964
 20
35.41262147589149
 30
0.0
 11
125.9928229869935
 21
36.20550026005775
 31
0.0
  0
ARC
  5
38A
330
18
100
AcDbEntity
  8
1
  6
Continuous
100
AcDbCircle
 10
127.892823077239
 20
36.26323528971965
 30
0.0
 40
1.000000047497465
100
AcDbArc
 50
180.0000000000004
 51
270.000017162093
  0
LINE
  5
38B
330
18
100
AcDbEntity
  8
1
  6
Continuous
100
AcDbLine
 10
139.4928240096793
 20
51.26323600218136
 30
0.0
 11
123.9928232734688
 21
51.26323600218136
 31
0.0
  0
LINE
  5
38C
330
18
100
AcDbEntity
  8
1
  6
Continuous
100
AcDbLine
 10
128.2857166961833
 20
45.26323571719655
 30
0.0
 11
124.0430758075499
 21
45.26323571719655
 31
0.0
  0
LINE
  5
38D
330
18
100
AcDbEntity
  8
1
  6
Continuous
100
AcDbLine
 10
128.2857166961833
 20
43.26323562220165
 30
0.0
 11
124.0430758075499
 21
43.26323562220165
 31
0.0
  0
LINE
  5
38E
330
18
100
AcDbEntity
  8
1
  6
Continuous
100
AcDbLine
 10
124.0430758075499
 20
45.26323571719671
 30
0.0
 11
124.0430758075499
 21
43.2632356222018
 31
0.0
  0
LINE
  5
38F
330
18
100
AcDbEntity
  8
1
  6
Continuous
100
AcDbLine
 10
128.2857166961833
 20
45.26323571719671
 30
0.0
 11
128.2857166961833
 21
43.2632356222018
 31
0.0
  0
LINE
  5
390
330
18
100
AcDbEntity
  8
1
  6
Continuous
100
AcDbLine
 10
126.8928230297417
 20
51.26323600218136
 30
0.0
 11
126.8928230297417
 21
51.76323602635012
 31
0.0
  0
LINE
  5
391
330
18
100
AcDbEntity
  8
1
  6
Continuous
100
AcDbLine
 10
125.8928229822441
 20
51.26323600218136
 30
0.0
 11
125.8928229822441
 21
51.64776596660556
 31
0.0
  0
LINE
  5
392
330
18
100
AcDbEntity
  8
1
  6
Continuous
100
AcDbLine
 10
128.7928231199867
 20
51.56323601643061
 30
0.0
 11
128.7928231199867
 21
51.26323600218136
 31
0.0
  0
LINE
  5
393
330
18
100
AcDbEntity
  8
1
  6
Continuous
100
AcDbLine
 10
129.7928231674842
 20
56.56323625391793
 30
0.0
 11
130.8553799003328
 21
56.5632362539178
 31
0.0
  0
LINE
  5
394
330
18
100
AcDbEntity
  8
1
  6
Continuous
100
AcDbLine
 10
129.7928231674843
 20
53.06323608767678
 30
0.0
 11
129.7928231674842
 21
56.56323625391793
 31
0.0
  0
LINE
  5
395
330
18
100
AcDbEntity
  8
1
  6
Continuous
100
AcDbLine
 10
130.8553799003328
 20
56.5632362539178
 30
0.0
 11
131.2928232387304
 21
51.56323601643061
 31
0.0
  0
ARC
  5
396
330
18
100
AcDbEntity
  8
1
  6
Continuous
100
AcDbCircle
 10
129.492823153235
 20
53.06323608767678
 30
0.0
 40
0.3000000142492431
100
AcDbArc
 50
270.0
 51
359.9999999999975
  0
LINE
  5
397
330
18
100
AcDbEntity
  8
1
  6
Continuous
100
AcDbLine
 10
129.7928231674843
 20
54.56323615892296
 30
0.0
 11
131.0303572356859
 21
54.56323615892296
 31
0.0
  0
LINE
  5
398
330
18
100
AcDbEntity
  8
1
  6
Continuous
100
AcDbLine
 10
131.2722004321019
 20
51.7989557748055
 30
0.0
 11
130.7154729421181
 21
52.7632360734276
 31
0.0
  0
LINE
  5
399
330
18
100
AcDbEntity
  8
1
  6
Continuous
100
AcDbLine
 10
131.2928232387304
 20
51.56323601643061
 30
0.0
 11
128.7928231199867
 21
51.56323601643061
 31
0.0
  0
LINE
  5
39A
330
18
100
AcDbEntity
  8
1
  6
Continuous
100
AcDbLine
 10
125.9928229869937
 20
51.82097105559279
 30
0.0
 11
127.3591486254413
 21
52.60892608410344
 31
0.0
  0
ARC
  5
39B
330
18
100
AcDbEntity
  8
1
  6
Continuous
100
AcDbCircle
 10
126.0928229917439
 20
51.64776596660556
 30
0.0
 40
0.2000000094995301
100
AcDbArc
 50
119.9999999995636
 51
180.0
  0
ARC
  5
39C
330
18
100
AcDbEntity
  8
1
  6
Continuous
100
AcDbCircle
 10
127.892823077239
 20
51.76323602593011
 30
0.0
 40
1.000000047497437
100
AcDbArc
 50
90.0
 51
179.999999975934
  0
LINE
  5
39D
330
18
100
AcDbEntity
  8
1
  6
Continuous
100
AcDbLine
 10
127.892823077239
 20
52.76323607342754
 30
0.0
 11
130.715472942118
 21
52.76323607342754
 31
0.0
  0
LINE
  5
39E
330
18
100
AcDbEntity
  8
1
  6
Continuous
100
AcDbLine
 10
142.2928233797327
 20
51.26323600218133
 30
0.0
 11
142.2928233797327
 21
48.06323585018954
 31
0.0
  0
LINE
  5
39F
330
18
100
AcDbEntity
  8
1
  6
Continuous
100
AcDbLine
 10
139.4928240096793
 20
51.26323600218136
 30
0.0
 11
139.4928240096793
 21
46.76323578844288
 31
0.0
  0
LINE
  5
3A0
330
18
100
AcDbEntity
  8
1
  6
Continuous
100
AcDbLine
 10
139.4928240096793
 20
48.06323585018951
 30
0.0
 11
142.7928241664209
 21
48.06323585018951
 31
0.0
  0
LINE
  5
3A1
330
18
100
AcDbEntity
  8
1
  6
Continuous
100
AcDbLine
 10
139.4928240096793
 20
46.76323578844283
 30
0.0
 11
142.7928241664209
 21
46.76323578844283
 31
0.0
  0
LINE
  5
3A2
330
18
100
AcDbEntity
  8
1
  6
Continuous
100
AcDbLine
 10
142.7928241664209
 20
41.76323555095557
 30
0.0
 11
139.4928240096793
 21
41.76323555095557
 31
0.0
  0
ARC
  5
3A3
330
18
100
AcDbEntity
  8
1
  6
Continuous
100
AcDbCircle
 10
145.2599681573434
 20
43.49244636195011
 30
0.0
 40
0.1381968022917066
100
AcDbArc
 50
15.98124995972739
 51
76.24628761543661
  0
ARC
  5
3A4
330
18
100
AcDbEntity
  8
1
  6
Continuous
100
AcDbCircle
 10
148.1678240402499
 20
46.86323579319256
 30
0.0
 40
0.4000000189989775
100
AcDbArc
 50
180.0
 51
270.0
  0
LINE
  5
3A5
330
18
100
AcDbEntity
  8
1
  6
Continuous
100
AcDbLine
 10
147.767824021251
 20
46.86323579319256
 30
0.0
 11
147.767824021251
 21
48.06323585018954
 31
0.0
  0
LINE
  5
3A6
330
18
100
AcDbEntity
  8
1
  6
Continuous
100
AcDbLine
 10
145.2928242851645
 20
48.06323585018954
 30
0.0
 11
147.767824021251
 21
48.06323585018954
 31
0.0
  0
LINE
  5
3A7
330
18
100
AcDbEntity
  8
1
  6
Continuous
100
AcDbLine
 10
145.5064445251565
 20
42.06323556520478
 30
0.0
 11
145.5064445251565
 21
46.4632357741936
 31
0.0
  0
LINE
  5
3A8
330
18
100
AcDbEntity
  8
1
  6
Continuous
100
AcDbLine
 10
147.767824021251
 20
40.46323548920886
 30
0.0
 11
147.767824021251
 21
41.6632355462069
 31
0.0
  0
LINE
  5
3A9
330
18
100
AcDbEntity
  8
1
  6
Continuous
100
AcDbLine
 10
145.3928239084444
 20
40.46323548920886
 30
0.0
 11
147.767824021251
 21
40.46323548920886
 31
0.0
  0
ARC
  5
3AA
330
18
100
AcDbEntity
  8
1
  6
Continuous
100
AcDbCircle
 10
148.1678240402499
 20
41.66323554620579
 30
0.0
 40
0.4000000189989894
100
AcDbArc
 50
90.0
 51
179.9999999998415
  0
LINE
  5
3AB
330
18
100
AcDbEntity
  8
1
  6
Continuous
100
AcDbLine
 10
145.2928242851645
 20
39.76323545596068
 30
0.0
 11
145.2928242851645
 21
48.76323588343773
 31
0.0
  0
LINE
  5
3AC
330
18
100
AcDbEntity
  8
1
  6
Continuous
100
AcDbLine
 10
142.7928241664209
 20
46.76323578844283
 30
0.0
 11
142.7928241664209
 21
48.76323588343773
 31
0.0
  0
LINE
  5
3AD
330
18
100
AcDbEntity
  8
1
  6
Continuous
100
AcDbLine
 10
142.7928241664209
 20
39.76323545596068
 30
0.0
 11
142.7928241664209
 21
41.76323555095557
 31
0.0
  0
LINE
  5
3AE
330
18
100
AcDbEntity
  8
1
  6
Continuous
100
AcDbLine
 10
145.2928242851645
 20
39.76323545596068
 30
0.0
 11
142.7928241664209
 21
39.76323545596068
 31
0.0
  0
LINE
  5
3AF
330
18
100
AcDbEntity
  8
1
  6
Continuous
100
AcDbLine
 10
145.2928242851645
 20
48.76323588343773
 30
0.0
 11
142.7928241664209
 21
48.76323588343773
 31
0.0
  0
LINE
  5
3B0
330
18
100
AcDbEntity
  8
1
  6
Continuous
100
AcDbLine
 10
145.2928242851645
 20
101.7965699002645
 30
0.0
 11
128.9928235109561
 21
101.7965699002645
 31
0.0
  0
LINE
  5
3B1
330
18
100
AcDbEntity
  8
1
  6
Continuous
100
AcDbLine
 10
58.20829596475311
 20
106.089463322979
 30
0.0
 11
56.20829586975822
 21
106.089463322979
 31
0.0
  0
LINE
  5
3B2
330
18
100
AcDbEntity
  8
1
  6
Continuous
100
AcDbLine
 10
145.2928242851645
 20
104.7965700427569
 30
0.0
 11
128.9928235109561
 21
104.7965700427569
 31
0.0
  0
ARC
  5
3B3
330
18
100
AcDbEntity
  8
1
  6
Continuous
100
AcDbCircle
 10
128.9928235109561
 20
106.7965701377518
 30
0.0
 40
2.000000094994899
100
AcDbArc
 50
180.0000000000007
 51
270.0
  0
LINE
  5
3B4
330
18
100
AcDbEntity
  8
1
  6
Continuous
100
AcDbLine
 10
130.992823605951
 20
104.7965700427569
 30
0.0
 11
126.992823415961
 21
108.7965702327467
 31
0.0
  0
LINE
  5
3B5
330
18
100
AcDbEntity
  8
1
  6
Continuous
100
AcDbLine
 10
309.6618789346337
 20
101.7965699002645
 30
0.0
 11
309.6618789346337
 21
104.7965700427569
 31
0.0
  0
LINE
  5
3B6
330
18
100
AcDbEntity
  8
1
  6
Continuous
100
AcDbLine
 10
306.361878777892
 20
101.7965699002645
 30
0.0
 11
306.361878777892
 21
104.7965700427569
 31
0.0
  0
LINE
  5
3B7
330
18
100
AcDbEntity
  8
1
  6
Continuous
100
AcDbLine
 10
303.8618786591483
 20
101.7965699002645
 30
0.0
 11
303.8618786591483
 21
104.7965700427569
 31
0.0
  0
ARC
  5
3B8
330
18
100
AcDbEntity
  8
1
  6
Continuous
100
AcDbCircle
 10
320.1618794333568
 20
106.7965701377518
 30
0.0
 40
5.000000237487257
100
AcDbArc
 50
270.0
 51
0.000000000000007
  0
LINE
  5
3B9
330
18
100
AcDbEntity
  8
1
  6
Continuous
100
AcDbLine
 10
220.0773512584179
 20
101.7965699002645
 30
0.0
 11
220.0773512584179
 21
104.7965700427569
 31
0.0
  0
LINE
  5
3BA
330
18
100
AcDbEntity
  8
1
  6
Continuous
100
AcDbLine
 10
229.0773516858948
 20
101.7965699002645
 30
0.0
 11
229.0773516858948
 21
104.7965700427569
 31
0.0
  0
LINE
  5
3BB
330
18
100
AcDbEntity
  8
1
  6
Continuous
100
AcDbLine
 10
149.7928237359636
 20
51.26323600218135
 30
0.0
 11
149.7928237359636
 21
37.26323533721703
 31
0.0
  0
LINE
  5
3BC
330
18
100
AcDbEntity
  8
1
  6
Continuous
100
AcDbLine
 10
152.9928242694251
 20
38.76323540846318
 30
0.0
 11
153.4642288126066
 21
37.4299020118001
 31
0.0
  0
LINE
  5
3BD
330
18
100
AcDbEntity
  8
1
  6
Continuous
100
AcDbLine
 10
155.8928244071677
 20
51.64776596660556
 30
0.0
 11
155.8928244071677
 21
36.3787053490421
 31
0.0
  0
LINE
  5
3BE
330
18
100
AcDbEntity
  8
1
  6
Continuous
100
AcDbLine
 10
152.7928238784559
 20
37.26323533721711
 30
0.0
 11
152.7928238784559
 21
51.26323600218136
 31
0.0
  0
LINE
  5
3BF
330
18
100
AcDbEntity
  8
1
  6
Continuous
100
AcDbLine
 10
154.8928243596703
 20
51.76323602593011
 30
0.0
 11
154.8928243596703
 21
36.26323528928537
 31
0.0
  0
ARC
  5
3C0
330
18
100
AcDbEntity
  8
1
  6
Continuous
100
AcDbCircle
 10
152.9928242694251
 20
37.26323533721699
 30
0.0
 40
0.5000000237486968
100
AcDbArc
 50
250.5287793653277
 51
19.47122063451094
  0
LINE
  5
3C1
330
18
100
AcDbEntity
  8
1
  6
Continuous
100
AcDbLine
 10
152.8261575948406
 20
36.79183079403548
 30
0.0
 11
151.4928241981773
 21
37.26323533721711
 31
0.0
  0
ARC
  5
3C2
330
18
100
AcDbEntity
  8
1
  6
Continuous
100
AcDbCircle
 10
155.6928243976683
 20
36.3787053490421
 30
0.0
 40
0.2000000094994633
100
AcDbArc
 50
299.9999999999999
 51
0.0000000000053065
  0
LINE
  5
3C3
330
18
100
AcDbEntity
  8
1
  6
Continuous
100
AcDbLine
 10
155.7928244024179
 20
36.20550026005832
 30
0.0
 11
154.4283281961337
 21
35.41870246900884
 31
0.0
  0
ARC
  5
3C4
330
18
100
AcDbEntity
  8
1
  6
Continuous
100
AcDbCircle
 10
153.8928243121728
 20
36.26323528971965
 30
0.0
 40
1.00000004749745
100
AcDbArc
 50
269.9999964576848
 51
359.9999999751176
  0
LINE
  5
3C5
330
18
100
AcDbEntity
  8
1
  6
Continuous
100
AcDbLine
 10
152.9928242694251
 20
48.56323587393824
 30
0.0
 11
152.9928242694251
 21
51.56323601643061
 31
0.0
  0
LINE
  5
3C6
330
18
100
AcDbEntity
  8
1
  6
Continuous
100
AcDbLine
 10
149.7928237359636
 20
41.51323553908119
 30
0.0
 11
149.0209972607883
 21
41.51323553908119
 31
0.0
  0
LINE
  5
3C7
330
18
100
AcDbEntity
  8
1
  6
Continuous
100
AcDbLine
 10
149.2178467630715
 20
39.26323543221192
 30
0.0
 11
148.9728784935635
 21
42.06323556520478
 31
0.0
  0
LINE
  5
3C8
330
18
100
AcDbEntity
  8
1
  6
Continuous
100
AcDbLine
 10
152.8928242646749
 20
46.46323577419367
 30
0.0
 11
152.8928242646753
 21
42.06323556520485
 31
0.0
  0
LINE
  5
3C9
330
18
100
AcDbEntity
  8
1
  6
Continuous
100
AcDbLine
 10
152.7934182806426
 20
46.46323577419367
 30
0.0
 11
152.8928242646749
 21
46.46323577419367
 31
0.0
  0
LINE
  5
3CA
330
18
100
AcDbEntity
  8
1
  6
Continuous
100
AcDbLine
 10
152.7934182806426
 20
42.06323556520485
 30
0.0
 11
152.8928242646753
 21
42.06323556520485
 31
0.0
  0
LINE
  5
3CB
330
18
100
AcDbEntity
  8
1
  6
Continuous
100
AcDbLine
 10
152.9928242694251
 20
38.76323540846318
 30
0.0
 11
152.9928242694251
 21
40.56323549395869
 31
0.0
  0
LINE
  5
3CC
330
18
100
AcDbEntity
  8
1
  6
Continuous
100
AcDbLine
 10
153.2928242836744
 20
40.56323549395869
 30
0.0
 11
152.9928242694251
 21
40.56323549395869
 31
0.0
  0
LINE
  5
3CD
330
18
100
AcDbEntity
  8
1
  6
Continuous
100
AcDbLine
 10
152.9928242694251
 20
48.56323587393824
 30
0.0
 11
153.2928242836744
 21
48.56323587393824
 31
0.0
  0
LINE
  5
3CE
330
18
100
AcDbEntity
  8
1
  6
Continuous
100
AcDbLine
 10
153.2928242836744
 20
48.56323587393824
 30
0.0
 11
153.2928242836744
 21
40.56323549395869
 31
0.0
  0
LINE
  5
3CF
330
18
100
AcDbEntity
  8
1
  6
Continuous
100
AcDbLine
 10
151.9928242219277
 20
56.56323625391793
 30
0.0
 11
151.9928242219277
 21
53.06323608767678
 31
0.0
  0
LINE
  5
3D0
330
18
100
AcDbEntity
  8
1
  6
Continuous
100
AcDbLine
 10
154.4137473551051
 20
52.61683972691615
 30
0.0
 11
155.7928157875336
 21
51.82095613417482
 31
0.0
  0
ARC
  5
3D1
330
18
100
AcDbEntity
  8
1
  6
Continuous
100
AcDbCircle
 10
155.6928243976682
 20
51.64776596660556
 30
0.0
 40
0.2000000094995274
100
AcDbArc
 50
0.0
 51
60.00000000043631
  0
ARC
  5
3D2
330
18
100
AcDbEntity
  8
1
  6
Continuous
100
AcDbCircle
 10
152.2928242361768
 20
53.06323608767678
 30
0.0
 40
0.3000000142492368
100
AcDbArc
 50
180.000000000002
 51
270.0
  0
ARC
  5
3D3
330
18
100
AcDbEntity
  8
1
  6
Continuous
100
AcDbCircle
 10
153.8928243121728
 20
51.76323602593011
 30
0.0
 40
1.000000047497471
100
AcDbArc
 50
359.9999999999996
 51
90.0
  0
LINE
  5
3D4
330
18
100
AcDbEntity
  8
1
  6
Continuous
100
AcDbLine
 10
150.4928241506814
 20
51.56323601643061
 30
0.0
 11
150.9302674890804
 21
56.56323625391797
 31
0.0
  0
LINE
  5
3D5
330
18
100
AcDbEntity
  8
1
  6
Continuous
100
AcDbLine
 10
151.0701744472941
 20
52.76323607342754
 30
0.0
 11
150.5134469573104
 21
51.79895577480546
 31
0.0
  0
LINE
  5
3D6
330
18
100
AcDbEntity
  8
1
  6
Continuous
100
AcDbLine
 10
150.9302674890804
 20
56.56323625391797
 30
0.0
 11
151.9928242219277
 21
56.56323625391793
 31
0.0
  0
LINE
  5
3D7
330
18
100
AcDbEntity
  8
1
  6
Continuous
100
AcDbLine
 10
151.9928242219277
 20
54.563236158923
 30
0.0
 11
150.7552901537259
 21
54.563236158923
 31
0.0
  0
LINE
  5
3D8
330
18
100
AcDbEntity
  8
1
  6
Continuous
100
AcDbLine
 10
152.9928242694251
 20
51.56323601643061
 30
0.0
 11
150.4928241506814
 21
51.56323601643061
 31
0.0
  0
LINE
  5
3D9
330
18
100
AcDbEntity
  8
1
  6
Continuous
100
AcDbLine
 10
151.0701744472941
 20
52.76323607342754
 30
0.0
 11
153.8928243121728
 21
52.76323607342754
 31
0.0
  0
LINE
  5
3DA
330
18
100
AcDbEntity
  8
1
  6
Continuous
100
AcDbLine
 10
231.5773518046386
 20
101.7965699002645
 30
0.0
 11
217.5773511396743
 21
101.7965699002645
 31
0.0
  0
LINE
  5
3DB
330
18
100
AcDbEntity
  8
1
  6
Continuous
100
AcDbLine
 10
303.8618786591483
 20
101.7965699002645
 30
0.0
 11
320.1618794333568
 21
101.7965699002645
 31
0.0
  0
LINE
  5
3DC
330
18
100
AcDbEntity
  8
1
  6
Continuous
100
AcDbLine
 10
227.3273516027744
 20
108.7965702327467
 30
0.0
 11
221.8273513415384
 21
108.7965702327467
 31
0.0
  0
LINE
  5
3DD
330
18
100
AcDbEntity
  8
1
  6
Continuous
100
AcDbLine
 10
231.5773518046386
 20
104.7965700427569
 30
0.0
 11
217.5773511396743
 21
104.7965700427569
 31
0.0
  0
LINE
  5
3DE
330
18
100
AcDbEntity
  8
1
  6
Continuous
100
AcDbLine
 10
221.8273513415384
 20
104.7965700427569
 30
0.0
 11
221.8273513415384
 21
108.7965702327467
 31
0.0
  0
LINE
  5
3DF
330
18
100
AcDbEntity
  8
1
  6
Continuous
100
AcDbLine
 10
227.3273516027744
 20
104.7965700427569
 30
0.0
 11
227.3273516027744
 21
108.7965702327467
 31
0.0
  0
LINE
  5
3E0
330
18
100
AcDbEntity
  8
1
  6
Continuous
100
AcDbLine
 10
303.8618786591483
 20
104.7965700427569
 30
0.0
 11
320.1618794333568
 21
104.7965700427569
 31
0.0
  0
LINE
  5
3E1
330
18
100
AcDbEntity
  8
1
  6
Continuous
100
AcDbLine
 10
318.1618793383619
 20
104.7965700427569
 30
0.0
 11
322.1618795283517
 21
108.7965702327467
 31
0.0
  0
ARC
  5
3E2
330
18
100
AcDbEntity
  8
1
  6
Continuous
100
AcDbCircle
 10
320.1618794333568
 20
106.7965701377518
 30
0.0
 40
2.000000094994899
100
AcDbArc
 50
270.0
 51
359.9999999999992
  0
LINE
  5
3E3
330
18
100
AcDbEntity
  8
4
  6
CENTER
 48
0.2
100
AcDbLine
 10
120.9928232734688
 20
516.0051022146808
 30
0.0
 11
158.8928244071678
 21
516.0051022146808
 31
0.0
  0
LINE
  5
3E4
330
18
100
AcDbEntity
  8
4
  6
CENTER
 48
0.2
100
AcDbLine
 10
128.6428235878366
 20
351.2965787086203
 30
0.0
 11
153.1428238015753
 21
351.2965787086203
 31
0.0
  0
ARC
  5
3E5
330
18
100
AcDbEntity
  8
1
  6
Continuous
100
AcDbCircle
 10
149.8708294252742
 20
331.2821597639664
 30
0.0
 40
5.472671322622429
100
AcDbArc
 50
235.8395806821701
 51
269.1812831243022
  0
LINE
  5
3E6
330
18
100
AcDbEntity
  8
4
  6
CENTER
 48
0.2
100
AcDbLine
 10
122.8928229822441
 20
333.296577853666
 30
0.0
 11
158.7061566931183
 21
333.296577853666
 31
0.0
  0
ARC
  5
3E7
330
18
100
AcDbEntity
  8
1
  6
Continuous
100
AcDbCircle
 10
149.8708294252742
 20
335.3109959433656
 30
0.0
 40
5.472671322622429
100
AcDbArc
 50
90.81871687569778
 51
124.1604193178299
  0
ARC
  5
3E8
330
18
100
AcDbEntity
  8
1
  6
Continuous
100
AcDbCircle
 10
150.0273925212258
 20
345.7206993904162
 30
0.0
 40
2.220782649935622
100
AcDbArc
 50
156.5044769832905
 51
234.0161489734541
  0
LINE
  5
3E9
330
18
100
AcDbEntity
  8
1
  6
Continuous
100
AcDbLine
 10
133.8928233622239
 20
523.0051025471631
 30
0.0
 11
152.7928238784559
 21
523.0051025471631
 31
0.0
  0
LINE
  5
3EA
330
18
100
AcDbEntity
  8
1
  6
Continuous
100
AcDbLine
 10
152.6735656586359
 20
517.2551022740528
 30
0.0
 11
147.9831496760296
 21
517.2551022740528
 31
0.0
  0
LINE
  5
3EB
330
18
100
AcDbEntity
  8
1
  6
Continuous
100
AcDbLine
 10
152.6735656586359
 20
514.7551021553092
 30
0.0
 11
147.9831496760295
 21
514.7551021553092
 31
0.0
  0
LINE
  5
3EC
330
18
100
AcDbEntity
  8
1
  6
Continuous
100
AcDbLine
 10
152.7928238784559
 20
509.0051018821988
 30
0.0
 11
142.2928233797327
 21
509.0051018821988
 31
0.0
  0
LINE
  5
3ED
330
18
100
AcDbEntity
  8
1
  6
Continuous
100
AcDbLine
 10
153.8928242503478
 20
525.0051026421581
 30
0.0
 11
127.8928233767742
 21
525.0051026421581
 31
0.0
  0
ARC
  5
3EE
330
18
100
AcDbEntity
  8
1
  6
Continuous
100
AcDbCircle
 10
146.7928235934712
 20
445.7965862393876
 30
0.0
 40
3.000000142492352
100
AcDbArc
 50
359.9999999999992
 51
90.0
  0
ARC
  5
3EF
330
18
100
AcDbEntity
  8
1
  6
Continuous
100
AcDbCircle
 10
146.7928235934712
 20
445.7965862393876
 30
0.0
 40
6.000000284984706
100
AcDbArc
 50
0.0
 51
90.0
  0
LINE
  5
3F0
330
18
100
AcDbEntity
  8
1
  6
Continuous
100
AcDbLine
 10
149.7928237359636
 20
444.2107997264399
 30
0.0
 11
145.2070370805234
 21
448.7965863818801
 31
0.0
  0
LINE
  5
3F1
330
18
100
AcDbEntity
  8
1
  6
Continuous
100
AcDbLine
 10
143.6612574137084
 20
357.9200088085363
 30
0.0
 11
149.3928240984342
 21
364.7506239962585
 31
0.0
  0
LINE
  5
3F2
330
18
100
AcDbEntity
  8
1
  6
Continuous
100
AcDbLine
 10
126.8928230297417
 20
371.2965796585692
 30
0.0
 11
149.7928237359636
 21
371.2965796585692
 31
0.0
  0
ARC
  5
3F3
330
18
100
AcDbEntity
  8
1
  6
Continuous
100
AcDbCircle
 10
140.8928236947061
 20
350.2965786611227
 30
0.0
 40
8.000000379979217
100
AcDbArc
 50
332.5281675194984
 51
0.0
  0
ARC
  5
3F4
330
18
100
AcDbEntity
  8
1
  6
Continuous
100
AcDbCircle
 10
140.892823694706
 20
333.296577853666
 30
0.0
 40
12.40000058896838
100
AcDbArc
 50
50.88717533632706
 51
129.233628972789
  0
ARC
  5
3F5
330
18
100
AcDbEntity
  8
1
  6
Continuous
100
AcDbCircle
 10
140.8928236947061
 20
333.2965778536661
 30
0.0
 40
13.20000062696628
100
AcDbArc
 50
49.91379862671203
 51
82.71536234149326
  0
ARC
  5
3F6
330
18
100
AcDbEntity
  8
1
  6
Continuous
100
AcDbCircle
 10
140.8928236947061
 20
352.2965787561176
 30
0.0
 40
8.00000037997999
100
AcDbArc
 50
0.0
 51
60.76265216223967
  0
LINE
  5
3F7
330
18
100
AcDbEntity
  8
1
  6
Continuous
100
AcDbLine
 10
148.6428240628112
 20
299.2965762387527
 30
0.0
 11
147.3928240034393
 21
299.2965762387527
 31
0.0
  0
LINE
  5
3F8
330
18
100
AcDbEntity
  8
1
  6
Continuous
100
AcDbLine
 10
146.1428239440675
 20
297.7965761675065
 30
0.0
 11
148.6428240628112
 21
297.7965761675065
 31
0.0
  0
LINE
  5
3F9
330
18
100
AcDbEntity
  8
1
  6
Continuous
100
AcDbLine
 10
150.8928241696804
 20
293.296575953768
 30
0.0
 11
131.8571290677197
 21
293.296575953768
 31
0.0
  0
LINE
  5
3FA
330
18
100
AcDbEntity
  8
1
  6
Continuous
100
AcDbLine
 10
50.20829558477351
 20
451.7965865243724
 30
0.0
 11
50.20829558477351
 21
371.2965796585692
 31
0.0
  0
LINE
  5
3FB
330
18
100
AcDbEntity
  8
1
  6
Continuous
100
AcDbLine
 10
64.20829624973783
 20
451.7965865243724
 30
0.0
 11
64.20829624973783
 21
371.2965796585692
 31
0.0
  0
LINE
  5
3FC
330
18
100
AcDbEntity
  8
1
  6
Continuous
100
AcDbLine
 10
48.20829548977862
 20
371.2965796585692
 30
0.0
 11
48.20829548977862
 21
294.2965760012654
 31
0.0
  0
LINE
  5
3FD
330
18
100
AcDbEntity
  8
1
  6
Continuous
100
AcDbLine
 10
65.708296320984
 20
371.2965796585692
 30
0.0
 11
65.708296320984
 21
321.2965772836966
 31
0.0
  0
LINE
  5
3FE
330
18
100
AcDbEntity
  8
4
  6
CENTER
 48
0.2
100
AcDbLine
 10
140.892823694706
 20
290.296575953768
 30
0.0
 11
140.892823694706
 21
374.2965796585691
 31
0.0
  0
LINE
  5
3FF
330
18
100
AcDbEntity
  8
1
  6
Continuous
100
AcDbLine
 10
138.1243899757031
 20
357.9200088085376
 30
0.0
 11
132.3928232909777
 21
364.750623996253
 31
0.0
  0
ARC
  5
400
330
18
100
AcDbEntity
  8
1
  6
Continuous
100
AcDbCircle
 10
140.8928236947061
 20
352.2965787561176
 30
0.0
 40
8.000000379980061
100
AcDbArc
 50
119.2373478377603
 51
180.0
  0
ARC
  5
401
330
18
100
AcDbEntity
  8
1
  6
Continuous
100
AcDbCircle
 10
140.8928236947061
 20
352.2965787561176
 30
0.0
 40
6.267949490143116
100
AcDbArc
 50
0.0
 51
63.78882006303665
  0
ARC
  5
402
330
18
100
AcDbEntity
  8
1
  6
Continuous
100
AcDbCircle
 10
140.8928236947061
 20
352.2965787561177
 30
0.0
 40
6.267949490143177
100
AcDbArc
 50
116.2111799369632
 51
180.0
  0
LINE
  5
403
330
18
100
AcDbEntity
  8
1
  6
Continuous
100
AcDbLine
 10
131.2722004321019
 20
345.2965784236355
 30
0.0
 11
131.2722004321019
 21
371.2965796585692
 31
0.0
  0
LINE
  5
404
330
18
100
AcDbEntity
  8
1
  6
Continuous
100
AcDbLine
 10
126.8928230297417
 20
371.2965796585692
 30
0.0
 11
126.8928230297417
 21
340.5965781861482
 31
0.0
  0
LINE
  5
405
330
18
100
AcDbEntity
  8
1
  6
Continuous
100
AcDbLine
 10
130.7154729421178
 20
345.2965784236355
 30
0.0
 11
130.7154729421178
 21
371.2965796585692
 31
0.0
  0
LINE
  5
406
330
18
100
AcDbEntity
  8
1
  6
Continuous
100
AcDbLine
 10
131.2928232387304
 20
321.2965772836968
 30
0.0
 11
131.2928232387304
 21
371.2965796585692
 31
0.0
  0
LINE
  5
407
330
18
100
AcDbEntity
  8
1
  6
Continuous
100
AcDbLine
 10
59.9082960454988
 20
316.356580100817
 30
0.0
 11
59.9082960454988
 21
312.556579920327
 31
0.0
  0
LINE
  5
408
330
18
100
AcDbEntity
  8
1
  6
Continuous
100
AcDbLine
 10
54.50829578901255
 20
312.556579920327
 30
0.0
 11
54.50829578901255
 21
316.3565801008171
 31
0.0
  0
LINE
  5
409
330
18
100
AcDbEntity
  8
1
  6
Continuous
100
AcDbLine
 10
49.70829556102478
 20
293.8479366504763
 30
0.0
 11
49.70829556102478
 21
319.2965771887017
 31
0.0
  0
LINE
  5
40A
330
18
100
AcDbEntity
  8
1
  6
Continuous
100
AcDbLine
 10
62.70829624973782
 20
293.5540450299311
 30
0.0
 11
51.7082955847735
 21
293.5540450299311
 31
0.0
  0
LINE
  5
40B
330
18
100
AcDbEntity
  8
1
  6
Continuous
100
AcDbLine
 10
62.70829624973782
 20
288.3018037403865
 30
0.0
 11
51.7082955847735
 21
288.3018037403865
 31
0.0
  0
LINE
  5
40C
330
18
100
AcDbEntity
  8
1
  6
Continuous
100
AcDbLine
 10
59.9082960454988
 20
312.556579920327
 30
0.0
 11
54.50829578901255
 21
312.556579920327
 31
0.0
  0
LINE
  5
40D
330
18
100
AcDbEntity
  8
1
  6
Continuous
100
AcDbLine
 10
54.50829578901255
 20
310.0765798025332
 30
0.0
 11
59.9082960454988
 21
310.076579802533
 31
0.0
  0
LINE
  5
40E
330
18
100
AcDbEntity
  8
1
  6
Continuous
100
AcDbLine
 10
59.9082960454988
 20
306.276579622043
 30
0.0
 11
54.50829578901255
 21
306.276579622043
 31
0.0
  0
ARC
  5
40F
330
18
100
AcDbEntity
  8
1
  6
Continuous
100
AcDbCircle
 10
50.74457021172441
 20
294.3716748685718
 30
0.0
 40
1.161105883532274
100
AcDbArc
 50
206.8122545566651
 51
242.4924563460385
  0
ARC
  5
410
330
18
100
AcDbEntity
  8
1
  6
Continuous
100
AcDbCircle
 10
49.20829553727606
 20
294.2965760012654
 30
0.0
 40
1.000000047497429
100
AcDbArc
 50
180.0
 51
270.0
  0
LINE
  5
411
330
18
100
AcDbEntity
  8
1
  6
Continuous
100
AcDbLine
 10
50.20829558477351
 20
293.296575953768
 30
0.0
 11
49.20829553727606
 21
293.296575953768
 31
0.0
  0
LINE
  5
412
330
18
100
AcDbEntity
  8
1
  6
Continuous
100
AcDbLine
 10
54.50829578901255
 20
306.276579622043
 30
0.0
 11
54.50829578901255
 21
310.0765798025332
 31
0.0
  0
LINE
  5
413
330
18
100
AcDbEntity
  8
1
  6
Continuous
100
AcDbLine
 10
59.9082960454988
 20
310.076579802533
 30
0.0
 11
59.9082960454988
 21
306.276579622043
 31
0.0
  0
LINE
  5
414
330
18
100
AcDbEntity
  8
1
  6
Continuous
100
AcDbLine
 10
64.88876906762789
 20
326.2965748395612
 30
0.0
 11
49.36241407634135
 21
326.2965748395612
 31
0.0
  0
LINE
  5
415
330
18
100
AcDbEntity
  8
1
  6
Continuous
100
AcDbLine
 10
49.36241407634089
 20
328.2965749345561
 30
0.0
 11
64.55417219184164
 21
328.2965749345561
 31
0.0
  0
LINE
  5
416
330
18
100
AcDbEntity
  8
1
  6
Continuous
100
AcDbLine
 10
64.55417774082889
 20
338.2965754095307
 30
0.0
 11
49.36241407634089
 21
338.2965754095307
 31
0.0
  0
LINE
  5
417
330
18
100
AcDbEntity
  8
1
  6
Continuous
100
AcDbLine
 10
49.36241407634089
 20
340.2965755045255
 30
0.0
 11
64.55417219184164
 21
340.2965755045255
 31
0.0
  0
LINE
  5
418
330
18
100
AcDbEntity
  8
4
  6
CENTER
 48
0.2
100
AcDbLine
 10
71.708296320984
 20
333.296577853666
 30
0.0
 11
45.2082954897786
 21
333.296577853666
 31
0.0
  0
LINE
  5
419
330
18
100
AcDbEntity
  8
4
  6
CENTER
 48
0.2
100
AcDbLine
 10
56.20829591725566
 20
351.2965787086203
 30
0.0
 11
45.2082954897786
 21
351.2965787086203
 31
0.0
  0
LINE
  5
41A
330
18
100
AcDbEntity
  8
1
  6
Continuous
100
AcDbLine
 10
59.9082960454988
 20
318.836580218611
 30
0.0
 11
54.50829578901255
 21
318.836580218611
 31
0.0
  0
LINE
  5
41B
330
18
100
AcDbEntity
  8
1
  6
Continuous
100
AcDbLine
 10
54.50829578901255
 20
316.3565801008171
 30
0.0
 11
59.9082960454988
 21
316.356580100817
 31
0.0
  0
LINE
  5
41C
330
18
100
AcDbEntity
  8
1
  6
Continuous
100
AcDbLine
 10
67.5082964064793
 20
321.2965772836966
 30
0.0
 11
51.70829565601969
 21
321.2965772836966
 31
0.0
  0
ARC
  5
41D
330
18
100
AcDbEntity
  8
1
  6
Continuous
100
AcDbCircle
 10
49.19511841304757
 20
324.9809828763675
 30
0.0
 40
1.326186281283027
100
AcDbArc
 50
82.75294748884233
 51
130.021884973907
  0
LINE
  5
41E
330
18
100
AcDbEntity
  8
1
  6
Continuous
100
AcDbLine
 10
54.50829578901255
 20
318.836580218611
 30
0.0
 11
54.50829578901255
 21
321.2965772836966
 31
0.0
  0
ARC
  5
41F
330
18
100
AcDbEntity
  8
1
  6
Continuous
100
AcDbCircle
 10
51.70829565601969
 20
319.2965771887017
 30
0.0
 40
2.000000094994899
100
AcDbArc
 50
90.0
 51
180.0000000000004
  0
ARC
  5
420
330
18
100
AcDbEntity
  8
1
  6
Continuous
100
AcDbCircle
 10
49.19511841304757
 20
329.6121668977497
 30
0.0
 40
1.326186281283027
100
AcDbArc
 50
229.9781150260928
 51
277.247052511151
  0
ARC
  5
421
330
18
100
AcDbEntity
  8
1
  6
Continuous
100
AcDbCircle
 10
49.19511841304757
 20
336.9809834463368
 30
0.0
 40
1.326186281283027
100
AcDbArc
 50
82.75294748885556
 51
130.021884973907
  0
ARC
  5
422
330
18
100
AcDbEntity
  8
1
  6
Continuous
100
AcDbCircle
 10
49.19511841304757
 20
341.6121674677191
 30
0.0
 40
1.326186281283027
100
AcDbArc
 50
229.9781150260928
 51
277.2470525111444
  0
LINE
  5
423
330
18
100
AcDbEntity
  8
1
  6
Continuous
100
AcDbLine
 10
67.50829640647943
 20
325.2965774736884
 30
0.0
 11
67.50829640647943
 21
341.2965782336456
 31
0.0
  0
ARC
  5
424
330
18
100
AcDbEntity
  8
1
  6
Continuous
100
AcDbCircle
 10
64.72147062960494
 20
324.9809825235524
 30
0.0
 40
1.326186281283027
100
AcDbArc
 50
49.97811502609291
 51
82.75294747772576
  0
LINE
  5
425
330
18
100
AcDbEntity
  8
1
  6
Continuous
100
AcDbLine
 10
59.9082960454988
 20
321.2965772836966
 30
0.0
 11
59.9082960454988
 21
318.836580218611
 31
0.0
  0
LINE
  5
426
330
18
100
AcDbEntity
  8
1
  6
Continuous
100
AcDbLine
 10
67.5082964064793
 20
321.2965772836966
 30
0.0
 11
69.34021485233859
 21
322.9226385917984
 31
0.0
  0
ARC
  5
427
330
18
100
AcDbEntity
  8
1
  6
Continuous
100
AcDbCircle
 10
69.00829647772559
 20
323.2965773786915
 30
0.0
 40
0.5000000237487346
100
AcDbArc
 50
311.5931433216902
 51
48.40685667844798
  0
LINE
  5
428
330
18
100
AcDbEntity
  8
1
  6
Continuous
100
AcDbLine
 10
69.34021485233859
 20
323.6705161655866
 30
0.0
 11
67.50829640647943
 21
325.2965774736884
 31
0.0
  0
ARC
  5
429
330
18
100
AcDbEntity
  8
1
  6
Continuous
100
AcDbCircle
 10
64.72147062960494
 20
329.6121665449346
 30
0.0
 40
1.326186281283027
100
AcDbArc
 50
262.7528266569697
 51
310.0218849739071
  0
ARC
  5
42A
330
18
100
AcDbEntity
  8
1
  6
Continuous
100
AcDbCircle
 10
64.72147062960494
 20
336.9809830935219
 30
0.0
 40
1.326186281283027
100
AcDbArc
 50
49.97811502609291
 51
97.24693167725565
  0
ARC
  5
42B
330
18
100
AcDbEntity
  8
1
  6
Continuous
100
AcDbCircle
 10
64.72147062960494
 20
341.612167114904
 30
0.0
 40
1.326186281283027
100
AcDbArc
 50
262.7528266569764
 51
310.0218849739071
  0
LINE
  5
42C
330
18
100
AcDbEntity
  8
1
  6
Continuous
100
AcDbLine
 10
67.50829640647953
 20
345.2965784236355
 30
0.0
 11
65.708296320984
 21
345.2965784236355
 31
0.0
  0
ARC
  5
42D
330
18
100
AcDbEntity
  8
1
  6
Continuous
100
AcDbCircle
 10
69.00829647772559
 20
343.2965783286405
 30
0.0
 40
0.5000000237487253
100
AcDbArc
 50
311.5931433215414
 51
48.4068566782932
  0
LINE
  5
42E
330
18
100
AcDbEntity
  8
1
  6
Continuous
100
AcDbLine
 10
67.50829640647943
 20
341.2965782336456
 30
0.0
 11
69.34021485233756
 21
342.9226395417464
 31
0.0
  0
LINE
  5
42F
330
18
100
AcDbEntity
  8
1
  6
Continuous
100
AcDbLine
 10
69.34021485233859
 20
343.6705171155336
 30
0.0
 11
67.50829640647953
 21
345.2965784236355
 31
0.0
  0
LINE
  5
430
330
18
100
AcDbEntity
  8
1
  6
Continuous
100
AcDbLine
 10
143.8928238371983
 20
308.2965766662298
 30
0.0
 11
143.8928238371983
 21
320.0315857045802
 31
0.0
  0
LINE
  5
431
330
18
100
AcDbEntity
  8
1
  6
Continuous
100
AcDbLine
 10
137.8928235522135
 20
320.0315857045802
 30
0.0
 11
137.8928235522135
 21
308.2965766662298
 31
0.0
  0
LINE
  5
432
330
18
100
AcDbEntity
  8
1
  6
Continuous
100
AcDbLine
 10
134.8928234097213
 20
322.8294860700059
 30
0.0
 11
134.8928234097213
 21
299.7965762625014
 31
0.0
  0
LINE
  5
433
330
18
100
AcDbEntity
  8
1
  6
Continuous
100
AcDbLine
 10
146.8928239796907
 20
299.7965762625014
 30
0.0
 11
146.8928239796907
 21
322.8294860700058
 31
0.0
  0
LINE
  5
434
330
18
100
AcDbEntity
  8
1
  6
Continuous
100
AcDbLine
 10
136.3928234809674
 20
298.5465762031296
 30
0.0
 11
136.3928234809674
 21
321.3483556941509
 31
0.0
  0
LINE
  5
435
330
18
100
AcDbEntity
  8
1
  6
Continuous
100
AcDbLine
 10
145.3928239084444
 20
298.5465762031296
 30
0.0
 11
145.3928239084444
 21
321.3483556941509
 31
0.0
  0
LINE
  5
436
330
18
100
AcDbEntity
  8
1
  6
Continuous
100
AcDbLine
 10
126.8928230297417
 20
325.9965775211839
 30
0.0
 11
126.8928230297416
 21
297.2965761437578
 31
0.0
  0
LINE
  5
437
330
18
100
AcDbEntity
  8
1
  6
Continuous
100
AcDbLine
 10
128.9928235109561
 20
321.2965772836966
 30
0.0
 11
128.9928235109561
 21
294.5107536562963
 31
0.0
  0
LINE
  5
438
330
18
100
AcDbEntity
  8
1
  6
Continuous
100
AcDbLine
 10
131.9928236534484
 20
294.510753656296
 30
0.0
 11
131.9928236534484
 21
343.2965813803984
 31
0.0
  0
ARC
  5
439
330
18
100
AcDbEntity
  8
1
  6
Continuous
100
AcDbCircle
 10
126.4928233922125
 20
294.510753656296
 30
0.0
 40
2.500000118743311
100
AcDbArc
 50
314.9999999994478
 51
0.0000000000048853
  0
ARC
  5
43A
330
18
100
AcDbEntity
  8
1
  6
Continuous
100
AcDbCircle
 10
130.8928232197315
 20
297.2965761437578
 30
0.0
 40
4.000000189989798
100
AcDbArc
 50
180.0
 51
240.0885618770633
  0
ARC
  5
43B
330
18
100
AcDbEntity
  8
1
  6
Continuous
100
AcDbCircle
 10
126.4928233922128
 20
294.5107536562959
 30
0.0
 40
5.500000261235456
100
AcDbArc
 50
314.9999999994552
 51
0.0000000000012213
  0
ARC
  5
43C
330
18
100
AcDbEntity
  8
1
  6
Continuous
100
AcDbCircle
 10
129.4928235347043
 20
286.1970447624164
 30
0.0
 40
5.500000261235459
100
AcDbArc
 50
135.0000000001867
 51
179.9999999999995
  0
ARC
  5
43D
330
18
100
AcDbEntity
  8
1
  6
Continuous
100
AcDbCircle
 10
129.4928235347039
 20
286.1970447624162
 30
0.0
 40
2.500000118742836
100
AcDbArc
 50
135.0000000010578
 51
180.0000000000023
  0
LINE
  5
43E
330
18
100
AcDbEntity
  8
1
  6
Continuous
100
AcDbLine
 10
127.7250564977744
 20
287.9648117992804
 30
0.0
 11
130.3819108734602
 21
290.6216661749746
 31
0.0
  0
LINE
  5
43F
330
18
100
AcDbEntity
  8
1
  6
Continuous
100
AcDbLine
 10
128.2605904291429
 20
292.7429866193317
 30
0.0
 11
125.603736053457
 21
290.086132243638
 31
0.0
  0
ARC
  5
440
330
18
100
AcDbEntity
  8
1
  6
Continuous
100
AcDbCircle
 10
133.1428233266007
 20
298.5465762031296
 30
0.0
 40
0.7500000356231147
100
AcDbArc
 50
90.0
 51
270.0
  0
ARC
  5
441
330
18
100
AcDbEntity
  8
1
  6
Continuous
100
AcDbCircle
 10
135.6428234453444
 20
298.5465762031296
 30
0.0
 40
0.7500000356230862
100
AcDbArc
 50
270.0
 51
0.0
  0
ARC
  5
442
330
18
100
AcDbEntity
  8
1
  6
Continuous
100
AcDbCircle
 10
134.3928233859725
 20
299.7965762625014
 30
0.0
 40
0.5000000237487213
100
AcDbArc
 50
270.0
 51
359.9999999999983
  0
LINE
  5
443
330
18
100
AcDbEntity
  8
1
  6
Continuous
100
AcDbLine
 10
133.1428233266007
 20
297.7965761675065
 30
0.0
 11
135.6428234453444
 21
297.7965761675065
 31
0.0
  0
LINE
  5
444
330
18
100
AcDbEntity
  8
1
  6
Continuous
100
AcDbLine
 10
134.3928233859725
 20
299.2965762387527
 30
0.0
 11
133.1428233266007
 21
299.2965762387527
 31
0.0
  0
ARC
  5
445
330
18
100
AcDbEntity
  8
1
  6
Continuous
100
AcDbCircle
 10
147.3928240034393
 20
299.7965762625014
 30
0.0
 40
0.5000000237487418
100
AcDbArc
 50
180.0000000000015
 51
269.9999999999934
  0
ARC
  5
446
330
18
100
AcDbEntity
  8
1
  6
Continuous
100
AcDbCircle
 10
146.1428239440675
 20
298.5465762031296
 30
0.0
 40
0.7500000356230695
100
AcDbArc
 50
180.0
 51
270.0
  0
LINE
  5
447
330
18
100
AcDbEntity
  8
1
  6
Continuous
100
AcDbLine
 10
136.3928234809674
 20
308.2965766662298
 30
0.0
 11
137.8928235522135
 21
308.2965766662298
 31
0.0
  0
LINE
  5
448
330
18
100
AcDbEntity
  8
1
  6
Continuous
100
AcDbLine
 10
143.8928238371983
 20
308.2965766662298
 30
0.0
 11
145.3928239084444
 21
308.2965766662298
 31
0.0
  0
ARC
  5
449
330
18
100
AcDbEntity
  8
1
  6
Continuous
100
AcDbCircle
 10
134.8943923127458
 20
339.9033233645586
 30
0.0
 40
3.643345624041161
100
AcDbArc
 50
218.0745321683265
 51
235.7788592387001
  0
ARC
  5
44A
330
18
100
AcDbEntity
  8
1
  6
Continuous
100
AcDbCircle
 10
144.4428238633219
 20
336.846578022282
 30
0.0
 40
0.5000000237487311
100
AcDbArc
 50
0.0000000000008142
 51
90.0
  0
ARC
  5
44B
330
18
100
AcDbEntity
  8
1
  6
Continuous
100
AcDbCircle
 10
137.3428235260899
 20
336.846578022282
 30
0.0
 40
0.5000000237487311
100
AcDbArc
 50
90.0
 51
179.999999999999
  0
CIRCLE
  5
44C
330
18
100
AcDbEntity
  8
1
  6
Continuous
100
AcDbCircle
 10
140.892823694706
 20
333.296577853666
 30
0.0
 40
6.875000326544981
  0
ARC
  5
44D
330
18
100
AcDbEntity
  8
1
  6
Continuous
100
AcDbCircle
 10
140.892823694706
 20
333.296577853666
 30
0.0
 40
9.000000427477054
100
AcDbArc
 50
155.6853215326033
 51
168.312531016258
  0
LINE
  5
44E
330
18
100
AcDbEntity
  8
1
  6
Continuous
100
AcDbLine
 10
126.8928230297417
 20
337.9965780911533
 30
0.0
 11
126.8928230297417
 21
328.5965776161788
 31
0.0
  0
LINE
  5
44F
330
18
100
AcDbEntity
  8
1
  6
Continuous
100
AcDbLine
 10
129.7928231674843
 20
321.2965772836968
 30
0.0
 11
129.7928231674843
 21
345.2965784236354
 31
0.0
  0
LINE
  5
450
330
18
100
AcDbEntity
  8
1
  6
Continuous
100
AcDbLine
 10
131.0303572356859
 20
325.2965774736876
 30
0.0
 11
131.0303572356859
 21
341.2965782336456
 31
0.0
  0
ARC
  5
451
330
18
100
AcDbEntity
  8
1
  6
Continuous
100
AcDbCircle
 10
131.9300972548306
 20
331.264536460738
 30
0.0
 40
5.449509780563701
100
AcDbArc
 50
272.3473596068442
 51
304.1315329156084
  0
ARC
  5
452
330
18
100
AcDbEntity
  8
1
  6
Continuous
100
AcDbCircle
 10
126.5928230297416
 20
325.9965775211839
 30
0.0
 40
0.3
100
AcDbArc
 50
0.0
 51
90.00000000000651
  0
ARC
  5
453
330
18
100
AcDbEntity
  8
1
  6
Continuous
100
AcDbCircle
 10
126.0928229822442
 20
326.4965775211838
 30
0.0
 40
0.2
100
AcDbArc
 50
180.0
 51
270.0
  0
ARC
  5
454
330
18
100
AcDbEntity
  8
1
  6
Continuous
100
AcDbCircle
 10
132.1428232791033
 20
325.9692333891319
 30
0.0
 40
0.1500000071246184
100
AcDbArc
 50
180.0000000000023
 51
274.0037745602281
  0
LINE
  5
455
330
18
100
AcDbEntity
  8
1
  6
Continuous
100
AcDbLine
 10
131.0303572356859
 20
325.2965774736864
 30
0.0
 11
130.8700851391714
 21
323.6705161655844
 31
0.0
  0
ARC
  5
456
330
18
100
AcDbEntity
  8
1
  6
Continuous
100
AcDbCircle
 10
135.6168441294034
 20
323.2965773786789
 30
0.0
 40
4.761465229076089
100
AcDbArc
 50
175.4956723662481
 51
184.504327633425
  0
LINE
  5
457
330
18
100
AcDbEntity
  8
1
  6
Continuous
100
AcDbLine
 10
130.8700851391714
 20
322.9226385918004
 30
0.0
 11
131.0303572356859
 21
321.2965772836966
 31
0.0
  0
LINE
  5
458
330
18
100
AcDbEntity
  8
1
  6
Continuous
100
AcDbLine
 10
126.5928230297416
 20
326.2965775211839
 30
0.0
 11
126.0928229822442
 21
326.2965775211838
 31
0.0
  0
LINE
  5
459
330
18
100
AcDbEntity
  8
1
  6
Continuous
100
AcDbLine
 10
129.7928231674843
 20
325.2965774736864
 30
0.0
 11
131.0303572356859
 21
325.2965774736864
 31
0.0
  0
LINE
  5
45A
330
18
100
AcDbEntity
  8
1
  6
Continuous
100
AcDbLine
 10
131.2928232387304
 20
321.2965772836968
 30
0.0
 11
126.8928230297417
 21
321.2965772836968
 31
0.0
  0
ARC
  5
45B
330
18
100
AcDbEntity
  8
1
  6
Continuous
100
AcDbCircle
 10
132.1428232791033
 20
328.8421535492192
 30
0.0
 40
0.1500000071246552
100
AcDbArc
 50
140.9601494368651
 51
179.9999999999963
  0
LINE
  5
45C
330
18
100
AcDbEntity
  8
1
  6
Continuous
100
AcDbLine
 10
131.992646456344
 20
331.4730784551053
 30
0.0
 11
131.9928236534484
 21
331.4730791517993
 31
0.0
  0
LINE
  5
45D
330
18
100
AcDbEntity
  8
1
  6
Continuous
100
AcDbLine
 10
131.9928236534484
 20
331.4730791517992
 30
0.0
 11
132.2697397906675
 21
331.4741679155681
 31
0.0
  0
LINE
  5
45E
330
18
100
AcDbEntity
  8
1
  6
Continuous
100
AcDbLine
 10
132.4209488204256
 20
331.3707643641844
 30
0.0
 11
132.9069681794115
 21
329.8749505842839
 31
0.0
  0
ARC
  5
45F
330
18
100
AcDbEntity
  8
1
  6
Continuous
100
AcDbCircle
 10
132.2782903362055
 20
331.3244118128262
 30
0.0
 40
0.1500000071246083
100
AcDbArc
 50
18.00000000015051
 51
93.26783904990739
  0
ARC
  5
460
330
18
100
AcDbEntity
  8
1
  6
Continuous
100
AcDbCircle
 10
132.7643096951913
 20
329.8285980329258
 30
0.0
 40
0.1500000071246206
100
AcDbArc
 50
302.7321609503489
 51
17.99999999996877
  0
ARC
  5
461
330
18
100
AcDbEntity
  8
1
  6
Continuous
100
AcDbCircle
 10
134.8943923127458
 20
326.6898323427733
 30
0.0
 40
3.643345624041161
100
AcDbArc
 50
124.2211407612997
 51
141.9254678316733
  0
ARC
  5
462
330
18
100
AcDbEntity
  8
1
  6
Continuous
100
AcDbCircle
 10
140.892823694706
 20
333.296577853666
 30
0.0
 40
9.000000427477054
100
AcDbArc
 50
191.6874689837418
 51
204.3146784673966
  0
LINE
  5
463
330
18
100
AcDbEntity
  8
1
  6
Continuous
100
AcDbLine
 10
131.9928236534484
 20
335.1200765555329
 30
0.0
 11
132.2697397906675
 21
335.118987791764
 31
0.0
  0
ARC
  5
464
330
18
100
AcDbEntity
  8
1
  6
Continuous
100
AcDbCircle
 10
126.5928230297416
 20
328.5965776161788
 30
0.0
 40
0.3
100
AcDbArc
 50
269.9999999999934
 51
0.0000000000000891
  0
ARC
  5
465
330
18
100
AcDbEntity
  8
1
  6
Continuous
100
AcDbCircle
 10
126.0928229822442
 20
328.0965776161788
 30
0.0
 40
0.2
100
AcDbArc
 50
90.0
 51
180.0
  0
ARC
  5
466
330
18
100
AcDbEntity
  8
1
  6
Continuous
100
AcDbCircle
 10
132.7643096951913
 20
336.7645576744062
 30
0.0
 40
0.1500000071246206
100
AcDbArc
 50
342.0000000000312
 51
57.26783904965099
  0
ARC
  5
467
330
18
100
AcDbEntity
  8
1
  6
Continuous
100
AcDbCircle
 10
132.2782903362055
 20
335.2687438945058
 30
0.0
 40
0.1500000071246083
100
AcDbArc
 50
266.7321609500926
 51
341.9999999998494
  0
LINE
  5
468
330
18
100
AcDbEntity
  8
1
  6
Continuous
100
AcDbLine
 10
131.992646456344
 20
335.1200772522267
 30
0.0
 11
131.9928236534484
 21
335.1200765555328
 31
0.0
  0
LINE
  5
469
330
18
100
AcDbEntity
  8
1
  6
Continuous
100
AcDbLine
 10
125.8928229822441
 20
326.4965775211838
 30
0.0
 11
125.8928229822441
 21
328.0965776161788
 31
0.0
  0
LINE
  5
46A
330
18
100
AcDbEntity
  8
1
  6
Continuous
100
AcDbLine
 10
126.0928229822442
 20
328.2965776161788
 30
0.0
 11
126.5928230297416
 21
328.2965776161788
 31
0.0
  0
LINE
  5
46B
330
18
100
AcDbEntity
  8
1
  6
Continuous
100
AcDbLine
 10
132.4209488204256
 20
335.2223913431477
 30
0.0
 11
132.9069681794115
 21
336.7182051230483
 31
0.0
  0
LINE
  5
46C
330
18
100
AcDbEntity
  8
1
  6
Continuous
100
AcDbLine
 10
145.3423344734175
 20
325.8344551454903
 30
0.0
 11
146.614749674434
 21
326.7589189023094
 31
0.0
  0
ARC
  5
46D
330
18
100
AcDbEntity
  8
1
  6
Continuous
100
AcDbCircle
 10
140.892823694706
 20
333.296577853666
 30
0.0
 40
9.000000427477054
100
AcDbArc
 50
299.6109458261715
 51
312.3796344516486
  0
LINE
  5
46E
330
18
100
AcDbEntity
  8
1
  6
Continuous
100
AcDbLine
 10
135.170897714978
 20
326.7589189023096
 30
0.0
 11
136.4433129159948
 21
325.8344551454907
 31
0.0
  0
ARC
  5
46F
330
18
100
AcDbEntity
  8
1
  6
Continuous
100
AcDbCircle
 10
140.892823694706
 20
333.296577853666
 30
0.0
 40
9.000000427477054
100
AcDbArc
 50
227.6832639375005
 51
240.3874669276231
  0
LINE
  5
470
330
18
100
AcDbEntity
  8
1
  6
Continuous
100
AcDbLine
 10
140.1064278526758
 20
324.6442369529979
 30
0.0
 11
141.6792195367362
 21
324.6442369529979
 31
0.0
  0
ARC
  5
471
330
18
100
AcDbEntity
  8
1
  6
Continuous
100
AcDbCircle
 10
140.892823694706
 20
333.296577853666
 30
0.0
 40
10.40029732749311
100
AcDbArc
 50
260.3069214513424
 51
279.6778933853079
  0
ARC
  5
472
330
18
100
AcDbEntity
  8
1
  6
Continuous
100
AcDbCircle
 10
140.892823694706
 20
333.296577853666
 30
0.0
 40
9.000000427477054
100
AcDbArc
 50
263.6115529015912
 51
276.3851722183238
  0
ARC
  5
473
330
18
100
AcDbEntity
  8
1
  6
Continuous
100
AcDbCircle
 10
140.892823694706
 20
333.2965778536659
 30
0.0
 40
12.10000057472363
100
AcDbArc
 50
251.490594868433
 51
288.5094051315669
  0
ARC
  5
474
330
18
100
AcDbEntity
  8
1
  6
Continuous
100
AcDbCircle
 10
140.892823694706
 20
333.2965617020926
 30
0.0
 40
13.59998489225372
100
AcDbArc
 50
257.2563997677777
 51
282.7436002322222
  0
ARC
  5
475
330
18
100
AcDbEntity
  8
1
  6
Continuous
100
AcDbCircle
 10
140.892823694706
 20
333.4371629252722
 30
0.0
 40
12.52434246490339
100
AcDbArc
 50
249.630574250585
 51
290.3694257494148
  0
ARC
  5
476
330
18
100
AcDbEntity
  8
1
  6
Continuous
100
AcDbCircle
 10
136.8928234809675
 20
321.3483556941509
 30
0.0
 40
0.5
100
AcDbArc
 50
71.49059486843317
 51
180.0
  0
ARC
  5
477
330
18
100
AcDbEntity
  8
1
  6
Continuous
100
AcDbCircle
 10
136.3551451239628
 20
325.7131025905703
 30
0.0
 40
0.1500000071246096
100
AcDbArc
 50
338.7321609505522
 51
53.99999999995522
  0
ARC
  5
478
330
18
100
AcDbEntity
  8
1
  6
Continuous
100
AcDbCircle
 10
140.892823694706
 20
333.296577853666
 30
0.0
 40
10.40029732749311
100
AcDbArc
 50
224.3105031766174
 51
243.6885361511549
  0
ARC
  5
479
330
18
100
AcDbEntity
  8
1
  6
Continuous
100
AcDbCircle
 10
137.6885074579581
 20
321.8880340905794
 30
0.0
 40
0.1500000071246725
100
AcDbArc
 50
254.311547328872
 51
306.0008541980662
  0
ARC
  5
47A
330
18
100
AcDbEntity
  8
1
  6
Continuous
100
AcDbCircle
 10
136.7793962115097
 20
322.1834222406095
 30
0.0
 40
0.1500000071246338
100
AcDbArc
 50
197.9991457990996
 51
249.6884526710858
  0
ARC
  5
47B
330
18
100
AcDbEntity
  8
1
  6
Continuous
100
AcDbCircle
 10
141.9601880256135
 20
324.1151009389185
 30
0.0
 40
5.679060630672282
100
AcDbArc
 50
164.2283456708799
 51
200.383503161526
  0
ARC
  5
47C
330
18
100
AcDbEntity
  8
1
  6
Continuous
100
AcDbCircle
 10
140.8928236947047
 20
333.296577853663
 30
0.0
 40
12.00000056996614
100
AcDbArc
 50
249.6884526711136
 51
254.3115473288926
  0
ARC
  5
47D
330
18
100
AcDbEntity
  8
1
  6
Continuous
100
AcDbCircle
 10
134.6209125464134
 20
326.5051973268498
 30
0.0
 40
5.693186199843784
100
AcDbArc
 50
303.6628937455908
 51
339.7252574220463
  0
ARC
  5
47E
330
18
100
AcDbEntity
  8
1
  6
Continuous
100
AcDbCircle
 10
135.8928234572186
 20
322.8294860700059
 30
0.0
 40
1.000000047497444
100
AcDbArc
 50
66.40180377637378
 51
180.0
  0
ARC
  5
47F
330
18
100
AcDbEntity
  8
1
  6
Continuous
100
AcDbCircle
 10
144.8928239084444
 20
321.3483556941509
 30
0.0
 40
0.5
100
AcDbArc
 50
0.0
 51
108.5094051315671
  0
ARC
  5
480
330
18
100
AcDbEntity
  8
1
  6
Continuous
100
AcDbCircle
 10
145.4305022654491
 20
325.7131025905703
 30
0.0
 40
0.1500000071246206
100
AcDbArc
 50
126.0000000000503
 51
201.2678390491171
  0
ARC
  5
481
330
18
100
AcDbEntity
  8
1
  6
Continuous
100
AcDbCircle
 10
140.892823694706
 20
333.296577853666
 30
0.0
 40
10.40029732749311
100
AcDbArc
 50
296.304109167466
 51
315.6772295230303
  0
ARC
  5
482
330
18
100
AcDbEntity
  8
1
  6
Continuous
100
AcDbCircle
 10
140.8928236947034
 20
333.2965778536739
 30
0.0
 40
12.00000056997766
100
AcDbArc
 50
285.6884526711075
 51
290.3115473288863
  0
ARC
  5
483
330
18
100
AcDbEntity
  8
1
  6
Continuous
100
AcDbCircle
 10
141.6792195367362
 20
324.4942369458733
 30
0.0
 40
0.1500000071246165
100
AcDbArc
 50
14.73216095052589
 51
90.0
  0
ARC
  5
484
330
18
100
AcDbEntity
  8
1
  6
Continuous
100
AcDbCircle
 10
147.1259898931536
 20
326.4745919037204
 30
0.0
 40
5.646257044496617
100
AcDbArc
 50
200.1196552597774
 51
236.4921935724439
  0
ARC
  5
485
330
18
100
AcDbEntity
  8
1
  6
Continuous
100
AcDbCircle
 10
139.8013856826672
 20
324.1160703310918
 30
0.0
 40
5.701969416251553
100
AcDbArc
 50
339.6916210957437
 51
15.69653007186125
  0
ARC
  5
486
330
18
100
AcDbEntity
  8
1
  6
Continuous
100
AcDbCircle
 10
145.0062511779023
 20
322.1834222406095
 30
0.0
 40
0.1500000071246355
100
AcDbArc
 50
290.3115473289141
 51
342.0008542009
  0
ARC
  5
487
330
18
100
AcDbEntity
  8
1
  6
Continuous
100
AcDbCircle
 10
144.0971399314538
 20
321.8880340905794
 30
0.0
 40
0.1500000071246725
100
AcDbArc
 50
233.9991458019337
 51
285.6884526711279
  0
ARC
  5
488
330
18
100
AcDbEntity
  8
1
  6
Continuous
100
AcDbCircle
 10
145.8928239321932
 20
322.8294860700059
 30
0.0
 40
1.000000047497449
100
AcDbArc
 50
359.9999999999992
 51
113.674129135261
  0
LINE
  5
489
330
18
100
AcDbEntity
  8
1
  6
Continuous
100
AcDbLine
 10
137.3428235260899
 20
329.2465776613014
 30
0.0
 11
144.4428238633219
 21
329.2465776613014
 31
0.0
  0
ARC
  5
48A
330
18
100
AcDbEntity
  8
1
  6
Continuous
100
AcDbCircle
 10
135.0827299229464
 20
326.637566347389
 30
0.0
 40
0.1500000071246204
100
AcDbArc
 50
54.00000000006246
 51
129.2678390492778
  0
ARC
  5
48B
330
18
100
AcDbEntity
  8
1
  6
Continuous
100
AcDbCircle
 10
137.3428235260899
 20
329.7465776850501
 30
0.0
 40
0.5000000237487311
100
AcDbArc
 50
180.0000000000007
 51
270.0
  0
LINE
  5
48C
330
18
100
AcDbEntity
  8
1
  6
Continuous
100
AcDbLine
 10
136.8428235023412
 20
336.846578022282
 30
0.0
 11
136.8428235023412
 21
329.7465776850501
 31
0.0
  0
ARC
  5
48D
330
18
100
AcDbEntity
  8
1
  6
Continuous
100
AcDbCircle
 10
146.7029174664655
 20
326.637566347389
 30
0.0
 40
0.1500000071246293
100
AcDbArc
 50
50.73216095039937
 51
125.999999999932
  0
ARC
  5
48E
330
18
100
AcDbEntity
  8
1
  6
Continuous
100
AcDbCircle
 10
144.4428238633219
 20
329.7465776850501
 30
0.0
 40
0.5000000237487311
100
AcDbArc
 50
270.0
 51
359.9999999999992
  0
LINE
  5
48F
330
18
100
AcDbEntity
  8
1
  6
Continuous
100
AcDbLine
 10
144.9428238870707
 20
329.7465776850501
 30
0.0
 11
144.9428238870707
 21
336.846578022282
 31
0.0
  0
ARC
  5
490
330
18
100
AcDbEntity
  8
1
  6
Continuous
100
AcDbCircle
 10
131.9300972548306
 20
335.328619246594
 30
0.0
 40
5.449509780563701
100
AcDbArc
 50
55.86846708439161
 51
87.65264039315571
  0
ARC
  5
491
330
18
100
AcDbEntity
  8
1
  6
Continuous
100
AcDbCircle
 10
132.8705443890618
 20
343.1422537512706
 30
0.0
 40
0.3004600640480603
100
AcDbArc
 50
180.2897947212196
 51
306.6796404877338
  0
ARC
  5
492
330
18
100
AcDbEntity
  8
1
  6
Continuous
100
AcDbCircle
 10
140.8928236947061
 20
350.2965786611227
 30
0.0
 40
8.00000037997972
100
AcDbArc
 50
180.0
 51
207.4776172390907
  0
ARC
  5
493
330
18
100
AcDbEntity
  8
1
  6
Continuous
100
AcDbCircle
 10
140.892823694706
 20
333.296577853666
 30
0.0
 40
13.20000062696635
100
AcDbArc
 50
97.28463765850669
 51
130.0862013732879
  0
ARC
  5
494
330
18
100
AcDbEntity
  8
1
  6
Continuous
100
AcDbCircle
 10
135.6168441294034
 20
343.2965783286532
 30
0.0
 40
4.761465229076089
100
AcDbArc
 50
175.4956723665748
 51
184.5043276337517
  0
ARC
  5
495
330
18
100
AcDbEntity
  8
1
  6
Continuous
100
AcDbCircle
 10
126.5928230297416
 20
337.9965780911533
 30
0.0
 40
0.3
100
AcDbArc
 50
0.0
 51
90.00000000000651
  0
ARC
  5
496
330
18
100
AcDbEntity
  8
1
  6
Continuous
100
AcDbCircle
 10
126.5928230297416
 20
340.5965781861482
 30
0.0
 40
0.3
100
AcDbArc
 50
269.9999999999934
 51
0.0
  0
ARC
  5
497
330
18
100
AcDbEntity
  8
1
  6
Continuous
100
AcDbCircle
 10
126.0928229822442
 20
338.4965780911532
 30
0.0
 40
0.2
100
AcDbArc
 50
180.0
 51
270.0
  0
ARC
  5
498
330
18
100
AcDbEntity
  8
1
  6
Continuous
100
AcDbCircle
 10
126.0928229822442
 20
340.0965781861483
 30
0.0
 40
0.2
100
AcDbArc
 50
90.0
 51
180.0
  0
ARC
  5
499
330
18
100
AcDbEntity
  8
1
  6
Continuous
100
AcDbCircle
 10
136.5513346429014
 20
341.4431977403483
 30
0.0
 40
4.15972412702868
100
AcDbArc
 50
181.3962688568249
 51
189.5460571150248
  0
ARC
  5
49A
330
18
100
AcDbEntity
  8
1
  6
Continuous
100
AcDbCircle
 10
141.2347744188224
 20
341.3787247353458
 30
0.0
 40
8.842028054219042
100
AcDbArc
 50
168.5053483558838
 51
180.2390009521555
  0
ARC
  5
49B
330
18
100
AcDbEntity
  8
1
  6
Continuous
100
AcDbCircle
 10
132.1428232791033
 20
337.7510021581129
 30
0.0
 40
0.1500000071246552
100
AcDbArc
 50
180.0000000000035
 51
219.0398505631348
  0
ARC
  5
49C
330
18
100
AcDbEntity
  8
1
  6
Continuous
100
AcDbCircle
 10
132.1428232791033
 20
340.6239223182002
 30
0.0
 40
0.1500000071246184
100
AcDbArc
 50
85.9962254397719
 51
179.9999999999974
  0
LINE
  5
49D
330
18
100
AcDbEntity
  8
1
  6
Continuous
100
AcDbLine
 10
131.9928236534484
 20
343.2965813803984
 30
0.0
 11
131.2928232387304
 21
343.2965813803987
 31
0.0
  0
LINE
  5
49E
330
18
100
AcDbEntity
  8
1
  6
Continuous
100
AcDbLine
 10
132.3928232909771
 20
341.3418374230613
 30
0.0
 11
132.3928232909771
 21
343.3955881857984
 31
0.0
  0
LINE
  5
49F
330
18
100
AcDbEntity
  8
1
  6
Continuous
100
AcDbLine
 10
125.8928229822441
 20
338.4965780911532
 30
0.0
 11
125.8928229822441
 21
340.0965781861483
 31
0.0
  0
LINE
  5
4A0
330
18
100
AcDbEntity
  8
1
  6
Continuous
100
AcDbLine
 10
126.0928229822442
 20
340.2965781861482
 30
0.0
 11
126.5928230297416
 21
340.2965781861482
 31
0.0
  0
LINE
  5
4A1
330
18
100
AcDbEntity
  8
1
  6
Continuous
100
AcDbLine
 10
126.5928230297416
 20
338.2965780911533
 30
0.0
 11
126.0928229822442
 21
338.2965780911532
 31
0.0
  0
LINE
  5
4A2
330
18
100
AcDbEntity
  8
1
  6
Continuous
100
AcDbLine
 10
129.7928231674843
 20
341.2965782336456
 30
0.0
 11
131.0303572356859
 21
341.2965782336456
 31
0.0
  0
LINE
  5
4A3
330
18
100
AcDbEntity
  8
1
  6
Continuous
100
AcDbLine
 10
130.8700851391714
 20
343.6705171155317
 30
0.0
 11
131.0303572356859
 21
345.2965784236355
 31
0.0
  0
LINE
  5
4A4
330
18
100
AcDbEntity
  8
1
  6
Continuous
100
AcDbLine
 10
131.0303572356859
 20
341.2965782336456
 30
0.0
 11
130.8700851391714
 21
342.9226395417478
 31
0.0
  0
LINE
  5
4A5
330
18
100
AcDbEntity
  8
1
  6
Continuous
100
AcDbLine
 10
129.7928231674843
 20
345.2965784236354
 30
0.0
 11
131.2722003853774
 21
345.2965784236355
 31
0.0
  0
LINE
  5
4A6
330
18
100
AcDbEntity
  8
1
  6
Continuous
100
AcDbLine
 10
132.8928233147264
 20
352.2965787561176
 30
0.0
 11
132.8928233147264
 21
350.2965786611227
 31
0.0
  0
ARC
  5
4A7
330
18
100
AcDbEntity
  8
1
  6
Continuous
100
AcDbCircle
 10
140.8928236947061
 20
350.2965786611227
 30
0.0
 40
6.267949490142352
100
AcDbArc
 50
333.3600964791141
 51
0.0
  0
ARC
  5
4A8
330
18
100
AcDbEntity
  8
1
  6
Continuous
100
AcDbCircle
 10
140.8928236947061
 20
350.2965786611227
 30
0.0
 40
6.267949490142846
100
AcDbArc
 50
180.0
 51
206.6399443723328
  0
LINE
  5
4A9
330
18
100
AcDbEntity
  8
1
  6
Continuous
100
AcDbLine
 10
140.1064278526758
 20
341.9489187543342
 30
0.0
 11
141.6792195367362
 21
341.9489187543341
 31
0.0
  0
ARC
  5
4AA
330
18
100
AcDbEntity
  8
1
  6
Continuous
100
AcDbCircle
 10
140.892823694706
 20
333.296577853666
 30
0.0
 40
9.000000427477054
100
AcDbArc
 50
83.61482778167617
 51
96.38844709840878
  0
ARC
  5
4AB
330
18
100
AcDbEntity
  8
1
  6
Continuous
100
AcDbCircle
 10
140.892823694706
 20
333.296577853666
 30
0.0
 40
10.40029732749311
100
AcDbArc
 50
80.32210661469202
 51
99.6930785486576
  0
ARC
  5
4AC
330
18
100
AcDbEntity
  8
1
  6
Continuous
100
AcDbCircle
 10
140.892823694706
 20
350.2965786611227
 30
0.0
 40
4.250000201864109
100
AcDbArc
 50
246.8074931556132
 51
293.1925068443943
  0
LINE
  5
4AD
330
18
100
AcDbEntity
  8
1
  6
Continuous
100
AcDbLine
 10
144.4428238633219
 20
337.3465780460307
 30
0.0
 11
137.3428235260899
 21
337.3465780460307
 31
0.0
  0
ARC
  5
4AE
330
18
100
AcDbEntity
  8
1
  6
Continuous
100
AcDbCircle
 10
131.7582548681862
 20
345.7206993904162
 30
0.0
 40
2.220782649935622
100
AcDbArc
 50
305.9838510265458
 51
23.49552301670938
  0
ARC
  5
4AF
330
18
100
AcDbEntity
  8
1
  6
Continuous
100
AcDbCircle
 10
133.2595368275236
 20
346.6593267339058
 30
0.0
 40
2.192588900028543
100
AcDbArc
 50
302.6495720881046
 51
22.15383540358804
  0
ARC
  5
4B0
330
18
100
AcDbEntity
  8
1
  6
Continuous
100
AcDbCircle
 10
134.6209125464134
 20
340.0879583804823
 30
0.0
 40
5.693186199843784
100
AcDbArc
 50
20.27474257795359
 51
56.3371062544091
  0
ARC
  5
4B1
330
18
100
AcDbEntity
  8
1
  6
Continuous
100
AcDbCircle
 10
141.9601880256135
 20
342.4780547684136
 30
0.0
 40
5.679060630672282
100
AcDbArc
 50
159.6164968384739
 51
195.77165432912
  0
ARC
  5
4B2
330
18
100
AcDbEntity
  8
1
  6
Continuous
100
AcDbCircle
 10
137.6885074579581
 20
344.7051216167527
 30
0.0
 40
0.1500000071246725
100
AcDbArc
 50
53.99914580193378
 51
105.6884526711278
  0
ARC
  5
4B3
330
18
100
AcDbEntity
  8
1
  6
Continuous
100
AcDbCircle
 10
140.1064278526758
 20
342.0989187614588
 30
0.0
 40
0.1500000071246127
100
AcDbArc
 50
194.7321609505262
 51
270.0
  0
ARC
  5
4B4
330
18
100
AcDbEntity
  8
1
  6
Continuous
100
AcDbCircle
 10
136.7793962115097
 20
344.4097334667224
 30
0.0
 40
0.1500000071246338
100
AcDbArc
 50
110.3115473289141
 51
162.0008542009002
  0
ARC
  5
4B5
330
18
100
AcDbEntity
  8
1
  6
Continuous
100
AcDbCircle
 10
136.3551451239628
 20
340.8800531167618
 30
0.0
 40
0.1500000071246096
100
AcDbArc
 50
306.0000000000447
 51
21.26783904944766
  0
ARC
  5
4B6
330
18
100
AcDbEntity
  8
1
  6
Continuous
100
AcDbCircle
 10
135.0827299229464
 20
339.9555893599431
 30
0.0
 40
0.1500000071246204
100
AcDbArc
 50
230.7321609507221
 51
305.9999999999375
  0
LINE
  5
4B7
330
18
100
AcDbEntity
  8
1
  6
Continuous
100
AcDbLine
 10
135.170897714978
 20
339.8342368050224
 30
0.0
 11
136.4433129159948
 21
340.7587005618413
 31
0.0
  0
ARC
  5
4B8
330
18
100
AcDbEntity
  8
1
  6
Continuous
100
AcDbCircle
 10
140.892823694706
 20
333.296577853666
 30
0.0
 40
9.000000427477054
100
AcDbArc
 50
119.6125330723767
 51
132.3167360624994
  0
ARC
  5
4B9
330
18
100
AcDbEntity
  8
1
  6
Continuous
100
AcDbCircle
 10
140.892823694706
 20
333.296577853666
 30
0.0
 40
10.40029732749311
100
AcDbArc
 50
116.3114638488449
 51
135.6894968233824
  0
ARC
  5
4BA
330
18
100
AcDbEntity
  8
1
  6
Continuous
100
AcDbCircle
 10
140.8928236947047
 20
333.2965778536691
 30
0.0
 40
12.00000056996614
100
AcDbArc
 50
105.6884526711073
 51
110.3115473288863
  0
ARC
  5
4BB
330
18
100
AcDbEntity
  8
1
  6
Continuous
100
AcDbCircle
 10
139.8013856826672
 20
342.4770853762403
 30
0.0
 40
5.701969416251553
100
AcDbArc
 50
344.3034699281387
 51
20.30837890425622
  0
ARC
  5
4BC
330
18
100
AcDbEntity
  8
1
  6
Continuous
100
AcDbCircle
 10
147.1259898931536
 20
340.1185638036117
 30
0.0
 40
5.646257044496617
100
AcDbArc
 50
123.507806427556
 51
159.8803447402224
  0
ARC
  5
4BD
330
18
100
AcDbEntity
  8
1
  6
Continuous
100
AcDbCircle
 10
148.5261105618883
 20
346.6593267339058
 30
0.0
 40
2.192588900028543
100
AcDbArc
 50
157.8461645964119
 51
237.3504279118953
  0
ARC
  5
4BE
330
18
100
AcDbEntity
  8
1
  6
Continuous
100
AcDbCircle
 10
145.0062511779023
 20
344.4097334667224
 30
0.0
 40
0.1500000071246355
100
AcDbArc
 50
17.99914579910001
 51
69.68845267108583
  0
ARC
  5
4BF
330
18
100
AcDbEntity
  8
1
  6
Continuous
100
AcDbCircle
 10
144.0971399314538
 20
344.7051216167527
 30
0.0
 40
0.1500000071246725
100
AcDbArc
 50
74.31154732887208
 51
126.0008541980661
  0
ARC
  5
4C0
330
18
100
AcDbEntity
  8
1
  6
Continuous
100
AcDbCircle
 10
146.7029174664655
 20
339.9555893599431
 30
0.0
 40
0.1500000071246293
100
AcDbArc
 50
234.0000000000678
 51
309.2678390496006
  0
ARC
  5
4C1
330
18
100
AcDbEntity
  8
1
  6
Continuous
100
AcDbCircle
 10
145.4305022654491
 20
340.8800531167618
 30
0.0
 40
0.1500000071246206
100
AcDbArc
 50
158.7321609508828
 51
233.9999999999496
  0
ARC
  5
4C2
330
18
100
AcDbEntity
  8
1
  6
Continuous
100
AcDbCircle
 10
140.8928236947034
 20
333.2965778536582
 30
0.0
 40
12.00000056997766
100
AcDbArc
 50
69.68845267111361
 51
74.31154732889237
  0
LINE
  5
4C3
330
18
100
AcDbEntity
  8
1
  6
Continuous
100
AcDbLine
 10
145.3423344734175
 20
340.7587005618417
 30
0.0
 11
146.614749674434
 21
339.8342368050228
 31
0.0
  0
ARC
  5
4C4
330
18
100
AcDbEntity
  8
1
  6
Continuous
100
AcDbCircle
 10
140.892823694706
 20
333.296577853666
 30
0.0
 40
9.000000427477054
100
AcDbArc
 50
47.62036554835137
 51
60.38905417382847
  0
ARC
  5
4C5
330
18
100
AcDbEntity
  8
1
  6
Continuous
100
AcDbCircle
 10
140.892823694706
 20
333.296577853666
 30
0.0
 40
10.40029732749311
100
AcDbArc
 50
44.3227704769696
 51
63.69589083253387
  0
ARC
  5
4C6
330
18
100
AcDbEntity
  8
1
  6
Continuous
100
AcDbCircle
 10
141.6792195367362
 20
342.0989187614588
 30
0.0
 40
0.1500000071246165
100
AcDbArc
 50
270.0
 51
345.2678390494739
  0
ARC
  5
4C7
330
18
100
AcDbEntity
  8
1
  6
Continuous
100
AcDbCircle
 10
140.892823694706
 20
352.2965787561176
 30
0.0
 40
2.250000106869249
100
AcDbArc
 50
359.9999999999996
 51
180.0
  0
ARC
  5
4C8
330
18
100
AcDbEntity
  8
1
  6
Continuous
100
AcDbCircle
 10
140.892823694706
 20
350.2965786611227
 30
0.0
 40
2.250000106869264
100
AcDbArc
 50
179.9999999999995
 51
0.0
  0
LINE
  5
4C9
330
18
100
AcDbEntity
  8
1
  6
Continuous
100
AcDbLine
 10
138.6428235878366
 20
352.2965787561176
 30
0.0
 11
138.6428235878366
 21
350.2965786611227
 31
0.0
  0
LINE
  5
4CA
330
18
100
AcDbEntity
  8
1
  6
Continuous
100
AcDbLine
 10
134.6248742045634
 20
352.2965787561176
 30
0.0
 11
134.6248742045634
 21
350.2965786611227
 31
0.0
  0
LINE
  5
4CB
330
18
100
AcDbEntity
  8
1
  6
Continuous
100
AcDbLine
 10
147.1607731848486
 20
350.2965786611227
 30
0.0
 11
147.1607731848486
 21
352.2965787561176
 31
0.0
  0
LINE
  5
4CC
330
18
100
AcDbEntity
  8
1
  6
Continuous
100
AcDbLine
 10
143.1428238015752
 20
350.2965786611227
 30
0.0
 11
143.1428238015752
 21
352.2965787561176
 31
0.0
  0
LINE
  5
4CD
330
18
100
AcDbEntity
  8
1
  6
Continuous
100
AcDbLine
 10
65.708296320984
 20
371.2965796585692
 30
0.0
 11
48.20829548977862
 21
371.2965796585693
 31
0.0
  0
LINE
  5
4CE
330
18
100
AcDbEntity
  8
1
  6
Continuous
100
AcDbLine
 10
132.3928232909777
 20
364.750623996253
 30
0.0
 11
132.3928232909776
 21
371.2965796585692
 31
0.0
  0
LINE
  5
4CF
330
18
100
AcDbEntity
  8
1
  6
Continuous
100
AcDbLine
 10
147.8928240271874
 20
365.2965793735867
 30
0.0
 11
147.8928240271881
 21
371.2965796585692
 31
0.0
  0
LINE
  5
4D0
330
18
100
AcDbEntity
  8
1
  6
Continuous
100
AcDbLine
 10
133.8928233622237
 20
365.2965793735845
 30
0.0
 11
133.8928233622237
 21
371.2965796585692
 31
0.0
  0
ARC
  5
4D1
330
18
100
AcDbEntity
  8
1
  6
Continuous
100
AcDbCircle
 10
140.892823694706
 20
352.2965787561178
 30
0.0
 40
8.00000037997982
100
AcDbArc
 50
71.97740841628069
 51
108.0225915837192
  0
ARC
  5
4D2
330
18
100
AcDbEntity
  8
1
  6
Continuous
100
AcDbCircle
 10
140.892823694706
 20
352.2965787561177
 30
0.0
 40
6.267949490143037
100
AcDbArc
 50
78.53246784263053
 51
101.4675321573631
  0
LINE
  5
4D3
330
18
100
AcDbEntity
  8
1
  6
Continuous
100
AcDbLine
 10
139.6466763112332
 20
358.4394044503462
 30
0.0
 11
133.8928233622237
 21
365.2965793735845
 31
0.0
  0
LINE
  5
4D4
330
18
100
AcDbEntity
  8
1
  6
Continuous
100
AcDbLine
 10
142.1389710781783
 20
358.4394044503456
 30
0.0
 11
147.8928240271874
 21
365.2965793735867
 31
0.0
  0
LINE
  5
4D5
330
18
100
AcDbEntity
  8
1
  6
Continuous
100
AcDbLine
 10
64.20829624973783
 20
448.7965863818798
 30
0.0
 11
50.20829558477351
 21
448.7965863818798
 31
0.0
  0
LINE
  5
4D6
330
18
100
AcDbEntity
  8
1
  6
Continuous
100
AcDbLine
 10
59.95829604787366
 20
444.2107997264398
 30
0.0
 11
54.45829578663768
 21
444.2107997264398
 31
0.0
  0
LINE
  5
4D7
330
18
100
AcDbEntity
  8
1
  6
Continuous
100
AcDbLine
 10
50.20829558477351
 20
451.7965865243724
 30
0.0
 11
64.20829624973783
 21
451.7965865243724
 31
0.0
  0
LINE
  5
4D8
330
18
100
AcDbEntity
  8
1
  6
Continuous
100
AcDbLine
 10
52.70829570351715
 20
448.7965863818798
 30
0.0
 11
52.70829570351715
 21
451.7965865243724
 31
0.0
  0
LINE
  5
4D9
330
18
100
AcDbEntity
  8
1
  6
Continuous
100
AcDbLine
 10
54.45829578663768
 20
444.2107997264399
 30
0.0
 11
54.45829578663768
 21
448.7965863818798
 31
0.0
  0
LINE
  5
4DA
330
18
100
AcDbEntity
  8
1
  6
Continuous
100
AcDbLine
 10
61.70829613099421
 20
448.7965863818798
 30
0.0
 11
61.70829613099421
 21
451.7965865243724
 31
0.0
  0
LINE
  5
4DB
330
18
100
AcDbEntity
  8
1
  6
Continuous
100
AcDbLine
 10
59.95829604787366
 20
444.2107997264399
 30
0.0
 11
59.95829604787366
 21
448.7965863818798
 31
0.0
  0
LINE
  5
4DC
330
18
100
AcDbEntity
  8
1
  6
Continuous
100
AcDbLine
 10
146.7928235934712
 20
448.7965863818801
 30
0.0
 11
136.4928231042474
 21
448.7965863818801
 31
0.0
  0
LINE
  5
4DD
330
18
100
AcDbEntity
  8
1
  6
Continuous
100
AcDbLine
 10
136.4928231042474
 20
451.7965865243724
 30
0.0
 11
146.7928235934712
 21
451.7965865243724
 31
0.0
  0
LINE
  5
4DE
330
18
100
AcDbEntity
  8
1
  6
Continuous
100
AcDbLine
 10
138.992823222991
 20
451.7965865243724
 30
0.0
 11
138.992823222991
 21
448.7965863818801
 31
0.0
  0
LINE
  5
4DF
330
18
100
AcDbEntity
  8
1
  6
Continuous
100
AcDbLine
 10
136.4928231042474
 20
448.7965863818801
 30
0.0
 11
136.4928231042474
 21
451.7965865243724
 31
0.0
  0
LINE
  5
4E0
330
18
100
AcDbEntity
  8
1
  6
Continuous
100
AcDbLine
 10
142.2928233797327
 20
448.7965863818801
 30
0.0
 11
142.2928233797327
 21
451.7965865243724
 31
0.0
  0
LINE
  5
4E1
330
18
100
AcDbEntity
  8
4
  6
CENTER
 48
0.2
100
AcDbLine
 10
140.892823694706
 20
503.7051016304623
 30
0.0
 11
140.892823694706
 21
528.0051026421581
 31
0.0
  0
LINE
  5
4E2
330
18
100
AcDbEntity
  8
1
  6
Continuous
100
AcDbLine
 10
130.8553799003328
 20
503.7051016304625
 30
0.0
 11
131.2928232387304
 21
508.7051018679495
 31
0.0
  0
ARC
  5
4E3
330
18
100
AcDbEntity
  8
1
  6
Continuous
100
AcDbCircle
 10
127.892823077239
 20
508.5051018584501
 30
0.0
 40
1.000000047497437
100
AcDbArc
 50
180.0000000240658
 51
270.0
  0
LINE
  5
4E4
330
18
100
AcDbEntity
  8
1
  6
Continuous
100
AcDbLine
 10
131.2722004321019
 20
508.4693821095746
 30
0.0
 11
130.7154729421181
 21
507.5051018109526
 31
0.0
  0
ARC
  5
4E5
330
18
100
AcDbEntity
  8
1
  6
Continuous
100
AcDbCircle
 10
129.492823153235
 20
507.2051017967035
 30
0.0
 40
0.3000000142492431
100
AcDbArc
 50
0.0000000000024427
 51
90.0
  0
LINE
  5
4E6
330
18
100
AcDbEntity
  8
1
  6
Continuous
100
AcDbLine
 10
129.7928231674842
 20
503.7051016304625
 30
0.0
 11
130.8553799003328
 21
503.7051016304625
 31
0.0
  0
LINE
  5
4E7
330
18
100
AcDbEntity
  8
1
  6
Continuous
100
AcDbLine
 10
129.7928231674843
 20
507.2051017967035
 30
0.0
 11
129.7928231674842
 21
503.7051016304625
 31
0.0
  0
LINE
  5
4E8
330
18
100
AcDbEntity
  8
1
  6
Continuous
100
AcDbLine
 10
129.7928231674843
 20
505.7051017254573
 30
0.0
 11
131.0303572356859
 21
505.7051017254573
 31
0.0
  0
LINE
  5
4E9
330
18
100
AcDbEntity
  8
1
  6
Continuous
100
AcDbLine
 10
127.892823077239
 20
507.5051018109526
 30
0.0
 11
130.715472942118
 21
507.5051018109526
 31
0.0
  0
LINE
  5
4EA
330
18
100
AcDbEntity
  8
1
  6
Continuous
100
AcDbLine
 10
136.4928231042474
 20
513.8051021101865
 30
0.0
 11
131.9928236534484
 21
513.8051021101865
 31
0.0
  0
LINE
  5
4EB
330
18
100
AcDbEntity
  8
1
  6
Continuous
100
AcDbLine
 10
136.4928231042474
 20
516.0051022146808
 30
0.0
 11
133.0052439647562
 21
516.0051022146808
 31
0.0
  0
LINE
  5
4EC
330
18
100
AcDbEntity
  8
1
  6
Continuous
100
AcDbLine
 10
132.6552892940213
 20
520.0051024046707
 30
0.0
 11
136.4928231042474
 21
520.0051024046707
 31
0.0
  0
LINE
  5
4ED
330
18
100
AcDbEntity
  8
1
  6
Continuous
100
AcDbLine
 10
128.7928231199867
 20
509.0051018821993
 30
0.0
 11
139.4928240096793
 21
509.0051018821993
 31
0.0
  0
LINE
  5
4EE
330
18
100
AcDbEntity
  8
1
  6
Continuous
100
AcDbLine
 10
133.0052439647471
 20
516.0051022146807
 30
0.0
 11
132.6561179199108
 21
519.9956311674148
 31
0.0
  0
LINE
  5
4EF
330
18
100
AcDbEntity
  8
1
  6
Continuous
100
AcDbLine
 10
131.9928236534484
 20
523.0051025471631
 30
0.0
 11
131.9928236534484
 21
509.0051018821988
 31
0.0
  0
LINE
  5
4F0
330
18
100
AcDbEntity
  8
1
  6
Continuous
100
AcDbLine
 10
128.4928231057376
 20
519.7051023904216
 30
0.0
 11
128.4928231057376
 21
511.7051020104419
 31
0.0
  0
LINE
  5
4F1
330
18
100
AcDbEntity
  8
1
  6
Continuous
100
AcDbLine
 10
123.9928232734688
 20
509.0051018821988
 30
0.0
 11
123.9928232734688
 21
523.0051025471631
 31
0.0
  0
LINE
  5
4F2
330
18
100
AcDbEntity
  8
1
  6
Continuous
100
AcDbLine
 10
128.9928235109561
 20
523.0051025471631
 30
0.0
 11
128.9928235109561
 21
509.0051018821988
 31
0.0
  0
LINE
  5
4F3
330
18
100
AcDbEntity
  8
1
  6
Continuous
100
AcDbLine
 10
125.8928229822441
 20
523.8896325353381
 30
0.0
 11
125.8928229822441
 21
508.6205719177748
 31
0.0
  0
LINE
  5
4F4
330
18
100
AcDbEntity
  8
1
  6
Continuous
100
AcDbLine
 10
126.8928230297417
 20
524.0051025946606
 30
0.0
 11
126.8928230297417
 21
508.5051018580301
 31
0.0
  0
LINE
  5
4F5
330
18
100
AcDbEntity
  8
1
  6
Continuous
100
AcDbLine
 10
125.8928229822441
 20
509.0051018821988
 30
0.0
 11
123.9928232734688
 21
509.0051018821988
 31
0.0
  0
LINE
  5
4F6
330
18
100
AcDbEntity
  8
1
  6
Continuous
100
AcDbLine
 10
132.8133828246265
 20
518.2051023191753
 30
0.0
 11
131.9928236534484
 21
518.2051023191753
 31
0.0
  0
LINE
  5
4F7
330
18
100
AcDbEntity
  8
1
  6
Continuous
100
AcDbLine
 10
128.9928235109561
 20
513.8051021101865
 30
0.0
 11
128.8928231247371
 21
513.8051021101865
 31
0.0
  0
LINE
  5
4F8
330
18
100
AcDbEntity
  8
1
  6
Continuous
100
AcDbLine
 10
128.8928231247366
 20
518.2051023191753
 30
0.0
 11
128.8928231247371
 21
513.8050021101864
 31
0.0
  0
LINE
  5
4F9
330
18
100
AcDbEntity
  8
1
  6
Continuous
100
AcDbLine
 10
128.8928231247366
 20
518.2051023191753
 30
0.0
 11
128.99206174177
 21
518.2051023191753
 31
0.0
  0
LINE
  5
4FA
330
18
100
AcDbEntity
  8
1
  6
Continuous
100
AcDbLine
 10
128.4928231057376
 20
511.7051020104419
 30
0.0
 11
128.7928231199867
 21
511.7051020104419
 31
0.0
  0
ARC
  5
4FB
330
18
100
AcDbEntity
  8
1
  6
Continuous
100
AcDbCircle
 10
126.0928229917439
 20
508.6205719177748
 30
0.0
 40
0.2000000094995301
100
AcDbArc
 50
180.0
 51
240.0000000004363
  0
LINE
  5
4FC
330
18
100
AcDbEntity
  8
1
  6
Continuous
100
AcDbLine
 10
125.9928229869937
 20
508.4473668287875
 30
0.0
 11
127.3928230534925
 21
507.6390764135303
 31
0.0
  0
LINE
  5
4FD
330
18
100
AcDbEntity
  8
1
  6
Continuous
100
AcDbLine
 10
128.7928231199867
 20
508.7051018679495
 30
0.0
 11
128.7928231199867
 21
511.7051020104419
 31
0.0
  0
LINE
  5
4FE
330
18
100
AcDbEntity
  8
1
  6
Continuous
100
AcDbLine
 10
131.2928232387304
 20
508.7051018679495
 30
0.0
 11
128.7928231199867
 21
508.7051018679495
 31
0.0
  0
LINE
  5
4FF
330
18
100
AcDbEntity
  8
1
  6
Continuous
100
AcDbLine
 10
125.8928229822575
 20
523.0051025471631
 30
0.0
 11
123.9928232734688
 21
523.0051025471631
 31
0.0
  0
LINE
  5
500
330
18
100
AcDbEntity
  8
1
  6
Continuous
100
AcDbLine
 10
132.5585862976904
 20
521.0051024521683
 30
0.0
 11
131.9928236534484
 21
521.0051024521683
 31
0.0
  0
LINE
  5
501
330
18
100
AcDbEntity
  8
1
  6
Continuous
100
AcDbLine
 10
132.6552892940213
 20
520.0051024046707
 30
0.0
 11
132.3928232909773
 21
523.0051025471633
 31
0.0
  0
LINE
  5
502
330
18
100
AcDbEntity
  8
1
  6
Continuous
100
AcDbLine
 10
132.3928232909773
 20
523.0051025471633
 30
0.0
 11
128.2928230962383
 21
523.0051025471631
 31
0.0
  0
ARC
  5
503
330
18
100
AcDbEntity
  8
1
  6
Continuous
100
AcDbCircle
 10
126.0928229917436
 20
523.8896325353381
 30
0.0
 40
0.2000000094994652
100
AcDbArc
 50
119.999999999999
 51
180.0000000000052
  0
ARC
  5
504
330
18
100
AcDbEntity
  8
1
  6
Continuous
100
AcDbCircle
 10
128.7928231199867
 20
523.0051025471633
 30
0.0
 40
0.5000000237487005
100
AcDbArc
 50
70.52877936514772
 51
199.4712206345361
  0
ARC
  5
505
330
18
100
AcDbEntity
  8
1
  6
Continuous
100
AcDbCircle
 10
127.892823077239
 20
524.0051025946606
 30
0.0
 40
1.000000047497465
100
AcDbArc
 50
89.99998283790686
 51
179.9999999999995
  0
LINE
  5
506
330
18
100
AcDbEntity
  8
1
  6
Continuous
100
AcDbLine
 10
127.3070519404293
 20
524.8155791645103
 30
0.0
 11
125.9928229869935
 21
524.0628376243225
 31
0.0
  0
LINE
  5
507
330
18
100
AcDbEntity
  8
1
  6
Continuous
100
AcDbLine
 10
128.9594897945731
 20
523.4765070903446
 30
0.0
 11
130.2928231912329
 21
523.0051025471631
 31
0.0
  0
LINE
  5
508
330
18
100
AcDbEntity
  8
1
  6
Continuous
100
AcDbLine
 10
128.7928231199867
 20
519.7051023904216
 30
0.0
 11
128.7928231199867
 21
521.5051024759169
 31
0.0
  0
LINE
  5
509
330
18
100
AcDbEntity
  8
1
  6
Continuous
100
AcDbLine
 10
128.7928231199867
 20
519.7051023904216
 30
0.0
 11
128.4928231057376
 21
519.7051023904216
 31
0.0
  0
LINE
  5
50A
330
18
100
AcDbEntity
  8
1
  6
Continuous
100
AcDbLine
 10
128.7928231199867
 20
521.5051024759169
 30
0.0
 11
128.3214185768064
 21
522.8384358725803
 31
0.0
  0
LINE
  5
50B
330
18
100
AcDbEntity
  8
1
  6
Continuous
100
AcDbLine
 10
136.4928231042474
 20
511.5051020009425
 30
0.0
 11
136.4928231042474
 21
520.5051024284195
 31
0.0
  0
LINE
  5
50C
330
18
100
AcDbEntity
  8
1
  6
Continuous
100
AcDbLine
 10
142.2928233797327
 20
512.2051020341906
 30
0.0
 11
138.992823222991
 21
512.2051020341906
 31
0.0
  0
LINE
  5
50D
330
18
100
AcDbEntity
  8
1
  6
Continuous
100
AcDbLine
 10
142.2928233797327
 20
513.5051020959373
 30
0.0
 11
138.992823222991
 21
513.5051020959373
 31
0.0
  0
LINE
  5
50E
330
18
100
AcDbEntity
  8
1
  6
Continuous
100
AcDbLine
 10
138.992823222991
 20
513.5051020959373
 30
0.0
 11
138.992823222991
 21
511.5051020009425
 31
0.0
  0
ARC
  5
50F
330
18
100
AcDbEntity
  8
1
  6
Continuous
100
AcDbCircle
 10
133.6178233491619
 20
513.4051020911877
 30
0.0
 40
0.4000000189989775
100
AcDbArc
 50
0.0000000000012213
 51
90.0
  0
LINE
  5
510
330
18
100
AcDbEntity
  8
1
  6
Continuous
100
AcDbLine
 10
136.4928231042474
 20
512.2051020341906
 30
0.0
 11
134.0178233681609
 21
512.2051020341906
 31
0.0
  0
LINE
  5
511
330
18
100
AcDbEntity
  8
1
  6
Continuous
100
AcDbLine
 10
134.0178233681609
 20
513.4051020911877
 30
0.0
 11
134.0178233681609
 21
512.2051020341906
 31
0.0
  0
LINE
  5
512
330
18
100
AcDbEntity
  8
1
  6
Continuous
100
AcDbLine
 10
136.2792028642554
 20
516.0051022146808
 30
0.0
 11
136.2792028642554
 21
513.8051021101865
 31
0.0
  0
LINE
  5
513
330
18
100
AcDbEntity
  8
1
  6
Continuous
100
AcDbLine
 10
136.4928231042474
 20
511.5051020009425
 30
0.0
 11
138.992823222991
 21
511.5051020009425
 31
0.0
  0
LINE
  5
514
330
18
100
AcDbEntity
  8
1
  6
Continuous
100
AcDbLine
 10
139.4928240096793
 20
509.0051018821993
 30
0.0
 11
139.4928240096793
 21
512.2051020341906
 31
0.0
  0
LINE
  5
515
330
18
100
AcDbEntity
  8
1
  6
Continuous
100
AcDbLine
 10
147.9831496760295
 20
517.2551022740528
 30
0.0
 11
147.9831496760295
 21
514.7551021553092
 31
0.0
  0
LINE
  5
516
330
18
100
AcDbEntity
  8
1
  6
Continuous
100
AcDbLine
 10
142.2928233797327
 20
509.0051018821988
 30
0.0
 11
142.2928233797327
 21
513.5051020959373
 31
0.0
  0
LINE
  5
517
330
18
100
AcDbEntity
  8
1
  6
Continuous
100
AcDbLine
 10
138.992823222991
 20
518.5051023334247
 30
0.0
 11
142.2928233797327
 21
518.5051023334247
 31
0.0
  0
LINE
  5
518
330
18
100
AcDbEntity
  8
1
  6
Continuous
100
AcDbLine
 10
142.2928233797327
 20
520.0051024046707
 30
0.0
 11
138.992823222991
 21
520.0051024046707
 31
0.0
  0
ARC
  5
519
330
18
100
AcDbEntity
  8
1
  6
Continuous
100
AcDbCircle
 10
300.3050958977652
 20
587.5726176549144
 30
0.0
 40
174.2885449509919
100
AcDbArc
 50
201.7441950054469
 51
202.8099808605784
  0
LINE
  5
51A
330
18
100
AcDbEntity
  8
1
  6
Continuous
100
AcDbLine
 10
138.992823222991
 20
520.5051024284195
 30
0.0
 11
138.992823222991
 21
518.5051023334247
 31
0.0
  0
LINE
  5
51B
330
18
100
AcDbEntity
  8
1
  6
Continuous
100
AcDbLine
 10
139.2190813838962
 20
520.0051024046707
 30
0.0
 11
139.2190813838966
 21
518.5051023334247
 31
0.0
  0
LINE
  5
51C
330
18
100
AcDbEntity
  8
1
  6
Continuous
100
AcDbLine
 10
136.4928231042474
 20
520.5051024284195
 30
0.0
 11
138.992823222991
 21
520.5051024284195
 31
0.0
  0
LINE
  5
51D
330
18
100
AcDbEntity
  8
1
  6
Continuous
100
AcDbLine
 10
133.8928233622237
 20
520.0051024046707
 30
0.0
 11
133.8928233622239
 21
523.0051025471631
 31
0.0
  0
LINE
  5
51E
330
18
100
AcDbEntity
  8
1
  6
Continuous
100
AcDbLine
 10
142.2920616351212
 20
520.3692540522995
 30
0.0
 11
142.1389710781777
 21
520.005102404672
 31
0.0
  0
LINE
  5
51F
330
18
100
AcDbEntity
  8
1
  6
Continuous
100
AcDbLine
 10
142.2928233797327
 20
523.0051025471631
 30
0.0
 11
142.2928233797327
 21
518.5051023334247
 31
0.0
  0
LINE
  5
520
330
18
100
AcDbEntity
  8
1
  6
Continuous
100
AcDbLine
 10
299.3618792083492
 20
371.2965796585692
 30
0.0
 11
299.3618792083492
 21
445.7965862393876
 31
0.0
  0
LINE
  5
521
330
18
100
AcDbEntity
  8
1
  6
Continuous
100
AcDbLine
 10
296.3618790658568
 20
445.7965862393876
 30
0.0
 11
296.3618790658568
 21
371.2965796585693
 31
0.0
  0
LINE
  5
522
330
18
100
AcDbEntity
  8
1
  6
Continuous
100
AcDbLine
 10
217.5773511396743
 20
451.7965865243724
 30
0.0
 11
217.5773511396743
 21
371.2965796585692
 31
0.0
  0
LINE
  5
523
330
18
100
AcDbEntity
  8
1
  6
Continuous
100
AcDbLine
 10
231.5773518046386
 20
451.7965865243724
 30
0.0
 11
231.5773518046386
 21
371.2965796585692
 31
0.0
  0
LINE
  5
524
330
18
100
AcDbEntity
  8
1
  6
Continuous
100
AcDbLine
 10
152.7928238784559
 20
445.7965862393876
 30
0.0
 11
152.7928238784559
 21
371.2965796585693
 31
0.0
  0
LINE
  5
525
330
18
100
AcDbEntity
  8
1
  6
Continuous
100
AcDbLine
 10
149.7928237359636
 20
323.2965804304494
 30
0.0
 11
149.7928237359636
 21
445.7965862393876
 31
0.0
  0
LINE
  5
526
330
18
100
AcDbEntity
  8
1
  6
Continuous
100
AcDbLine
 10
154.8928243596703
 20
371.2965796585692
 30
0.0
 11
154.8928243596703
 21
340.5965781861482
 31
0.0
  0
LINE
  5
527
330
18
100
AcDbEntity
  8
1
  6
Continuous
100
AcDbLine
 10
151.0701744472941
 20
345.2965784236355
 30
0.0
 11
151.0701744472941
 21
371.2965796585692
 31
0.0
  0
LINE
  5
528
330
18
100
AcDbEntity
  8
1
  6
Continuous
100
AcDbLine
 10
150.5134469573084
 20
345.2965784236355
 30
0.0
 11
150.5134469573084
 21
371.2965796585692
 31
0.0
  0
LINE
  5
529
330
18
100
AcDbEntity
  8
1
  6
Continuous
100
AcDbLine
 10
150.4928241506814
 20
321.2965772836968
 30
0.0
 11
150.4928241506814
 21
371.2965796585692
 31
0.0
  0
LINE
  5
52A
330
18
100
AcDbEntity
  8
1
  6
Continuous
100
AcDbLine
 10
216.0773510684281
 20
371.2965796585692
 30
0.0
 11
216.0773510684281
 21
321.2965772836966
 31
0.0
  0
LINE
  5
52B
330
18
100
AcDbEntity
  8
1
  6
Continuous
100
AcDbLine
 10
233.5773518996335
 20
371.2965796585692
 30
0.0
 11
233.5773518996335
 21
294.2965760012654
 31
0.0
  0
LINE
  5
52C
330
18
100
AcDbEntity
  8
4
  6
CENTER
 48
0.2
100
AcDbLine
 10
210.0773510684281
 20
333.296577853666
 30
0.0
 11
236.5773518996335
 21
333.296577853666
 31
0.0
  0
LINE
  5
52D
330
18
100
AcDbEntity
  8
1
  6
Continuous
100
AcDbLine
 10
154.8928243596703
 20
325.9965775211839
 30
0.0
 11
154.8928243596703
 21
297.2965761437578
 31
0.0
  0
LINE
  5
52E
330
18
100
AcDbEntity
  8
1
  6
Continuous
100
AcDbLine
 10
151.492824198179
 20
293.3418319692605
 30
0.0
 11
151.492824198179
 21
321.2965772836966
 31
0.0
  0
ARC
  5
52F
330
18
100
AcDbEntity
  8
1
  6
Continuous
100
AcDbCircle
 10
150.8928241696804
 20
297.2965761437578
 30
0.0
 40
4.000000189989805
100
AcDbArc
 50
270.0
 51
0.0
  0
ARC
  5
530
330
18
100
AcDbEntity
  8
1
  6
Continuous
100
AcDbCircle
 10
148.6428240628112
 20
298.5465762031296
 30
0.0
 40
0.7500000356230795
100
AcDbArc
 50
270.0
 51
90.0
  0
LINE
  5
531
330
18
100
AcDbEntity
  8
1
  6
Continuous
100
AcDbLine
 10
154.8928243596703
 20
337.9965780911533
 30
0.0
 11
154.8928243596703
 21
328.5965776161788
 31
0.0
  0
ARC
  5
532
330
18
100
AcDbEntity
  8
1
  6
Continuous
100
AcDbCircle
 10
146.8842053801938
 20
339.9146916125376
 30
0.0
 40
3.656626038470009
100
AcDbArc
 50
304.2123246673337
 51
321.8533488635446
  0
ARC
  5
533
330
18
100
AcDbEntity
  8
1
  6
Continuous
100
AcDbCircle
 10
140.892823694706
 20
333.296577853666
 30
0.0
 40
9.000000427477054
100
AcDbArc
 50
11.68746510962991
 51
24.31153788285707
  0
LINE
  5
534
330
18
100
AcDbEntity
  8
1
  6
Continuous
100
AcDbLine
 10
151.9928242219277
 20
321.2965772836968
 30
0.0
 11
151.9928242219276
 21
345.2965784236355
 31
0.0
  0
LINE
  5
535
330
18
100
AcDbEntity
  8
1
  6
Continuous
100
AcDbLine
 10
150.7552901537258
 20
325.2965774736864
 30
0.0
 11
150.7552901537258
 21
341.2965782336456
 31
0.0
  0
ARC
  5
536
330
18
100
AcDbEntity
  8
1
  6
Continuous
100
AcDbCircle
 10
155.6928244071676
 20
326.4965775211838
 30
0.0
 40
0.2
100
AcDbArc
 50
270.0
 51
0.000000000000007
  0
ARC
  5
537
330
18
100
AcDbEntity
  8
1
  6
Continuous
100
AcDbCircle
 10
155.1928243596703
 20
325.9965775211839
 30
0.0
 40
0.3
100
AcDbArc
 50
89.99999999999348
 51
180.0
  0
LINE
  5
538
330
18
100
AcDbEntity
  8
1
  6
Continuous
100
AcDbLine
 10
150.7552901537258
 20
325.2965774736864
 30
0.0
 11
150.9155622502426
 21
323.6705161655867
 31
0.0
  0
ARC
  5
539
330
18
100
AcDbEntity
  8
1
  6
Continuous
100
AcDbCircle
 10
146.1688032610379
 20
323.2965773786854
 30
0.0
 40
4.761465228050381
100
AcDbArc
 50
355.4956723655227
 51
4.504327635443675
  0
LINE
  5
53A
330
18
100
AcDbEntity
  8
1
  6
Continuous
100
AcDbLine
 10
150.9155622502426
 20
322.9226385918004
 30
0.0
 11
150.7552901537258
 21
321.2965772836966
 31
0.0
  0
LINE
  5
53B
330
18
100
AcDbEntity
  8
1
  6
Continuous
100
AcDbLine
 10
155.1928243596703
 20
326.2965775211839
 30
0.0
 11
155.6928244071676
 21
326.2965775211838
 31
0.0
  0
LINE
  5
53C
330
18
100
AcDbEntity
  8
1
  6
Continuous
100
AcDbLine
 10
150.7552901537259
 20
325.2965774736864
 30
0.0
 11
151.9928242219277
 21
325.2965774736864
 31
0.0
  0
LINE
  5
53D
330
18
100
AcDbEntity
  8
1
  6
Continuous
100
AcDbLine
 10
150.4928241506814
 20
323.2965804304494
 30
0.0
 11
149.7928237359636
 21
323.2965804304494
 31
0.0
  0
LINE
  5
53E
330
18
100
AcDbEntity
  8
1
  6
Continuous
100
AcDbLine
 10
154.8928243596703
 20
321.2965772836968
 30
0.0
 11
150.4928241506814
 21
321.2965772836968
 31
0.0
  0
ARC
  5
53F
330
18
100
AcDbEntity
  8
1
  6
Continuous
100
AcDbCircle
 10
149.6428241103087
 20
328.8421535492192
 30
0.0
 40
0.1500000071246552
100
AcDbArc
 50
0.000000000003671
 51
39.03985056313489
  0
LINE
  5
540
330
18
100
AcDbEntity
  8
1
  6
Continuous
100
AcDbLine
 10
148.8786792100005
 20
329.8749505842839
 30
0.0
 11
149.3646985689866
 21
331.3707643641843
 31
0.0
  0
LINE
  5
541
330
18
100
AcDbEntity
  8
1
  6
Continuous
100
AcDbLine
 10
149.5159075987445
 20
331.4741679155681
 30
0.0
 11
149.7930169302145
 21
331.473079260591
 31
0.0
  0
ARC
  5
542
330
18
100
AcDbEntity
  8
1
  6
Continuous
100
AcDbCircle
 10
149.5073570532063
 20
331.3244118128262
 30
0.0
 40
0.1500000071246287
100
AcDbArc
 50
86.73216095009262
 51
161.9999999998452
  0
ARC
  5
543
330
18
100
AcDbEntity
  8
1
  6
Continuous
100
AcDbCircle
 10
149.0213376942207
 20
329.8285980329258
 30
0.0
 40
0.1500000071246183
100
AcDbArc
 50
162.0000000000304
 51
237.2678390488844
  0
ARC
  5
544
330
18
100
AcDbEntity
  8
1
  6
Continuous
100
AcDbCircle
 10
146.8842053801938
 20
326.6784640947945
 30
0.0
 40
3.656626038470009
100
AcDbArc
 50
38.14665113645536
 51
55.78767533266628
  0
ARC
  5
545
330
18
100
AcDbEntity
  8
1
  6
Continuous
100
AcDbCircle
 10
140.892823694706
 20
333.296577853666
 30
0.0
 40
9.000000427477054
100
AcDbArc
 50
335.6884621171428
 51
348.31253489037
  0
ARC
  5
546
330
18
100
AcDbEntity
  8
1
  6
Continuous
100
AcDbCircle
 10
155.6928244071676
 20
328.0965776161788
 30
0.0
 40
0.2
100
AcDbArc
 50
0.000000000000007
 51
90.0
  0
LINE
  5
547
330
18
100
AcDbEntity
  8
1
  6
Continuous
100
AcDbLine
 10
155.8928244071677
 20
326.4965775211838
 30
0.0
 11
155.8928244071677
 21
328.0965776161788
 31
0.0
  0
ARC
  5
548
330
18
100
AcDbEntity
  8
1
  6
Continuous
100
AcDbCircle
 10
155.1928243596703
 20
328.5965776161788
 30
0.0
 40
0.3
100
AcDbArc
 50
179.9999999999998
 51
270.0000000000065
  0
LINE
  5
549
330
18
100
AcDbEntity
  8
1
  6
Continuous
100
AcDbLine
 10
155.6928244071676
 20
328.2965776161788
 30
0.0
 11
155.1928243596703
 21
328.2965776161788
 31
0.0
  0
ARC
  5
54A
330
18
100
AcDbEntity
  8
1
  6
Continuous
100
AcDbCircle
 10
149.0213376942207
 20
336.7645576744062
 30
0.0
 40
0.1500000071246183
100
AcDbArc
 50
122.7321609511154
 51
197.9999999999694
  0
ARC
  5
54B
330
18
100
AcDbEntity
  8
1
  6
Continuous
100
AcDbCircle
 10
149.5073570532063
 20
335.2687438945058
 30
0.0
 40
0.1500000071246287
100
AcDbArc
 50
198.0000000001547
 51
273.2678390499073
  0
LINE
  5
54C
330
18
100
AcDbEntity
  8
1
  6
Continuous
100
AcDbLine
 10
149.5159075987445
 20
335.118987791764
 30
0.0
 11
149.7930169302145
 21
335.120076446741
 31
0.0
  0
LINE
  5
54D
330
18
100
AcDbEntity
  8
1
  6
Continuous
100
AcDbLine
 10
148.8786792100005
 20
336.7182051230483
 30
0.0
 11
149.3646985689866
 21
335.2223913431478
 31
0.0
  0
ARC
  5
54E
330
18
100
AcDbEntity
  8
1
  6
Continuous
100
AcDbCircle
 10
149.6428241103087
 20
337.7510021581129
 30
0.0
 40
0.1500000071246552
100
AcDbArc
 50
320.9601494368651
 51
359.9999999999964
  0
ARC
  5
54F
330
18
100
AcDbEntity
  8
1
  6
Continuous
100
AcDbCircle
 10
146.1688032610379
 20
343.2965783286466
 30
0.0
 40
4.761465228050381
100
AcDbArc
 50
355.4956723645563
 51
4.504327634477231
  0
ARC
  5
550
330
18
100
AcDbEntity
  8
1
  6
Continuous
100
AcDbCircle
 10
155.6928244071676
 20
340.0965781861483
 30
0.0
 40
0.2
100
AcDbArc
 50
0.000000000000007
 51
90.0
  0
ARC
  5
551
330
18
100
AcDbEntity
  8
1
  6
Continuous
100
AcDbCircle
 10
155.6928244071676
 20
338.4965780911532
 30
0.0
 40
0.2
100
AcDbArc
 50
270.0
 51
0.000000000000007
  0
LINE
  5
552
330
18
100
AcDbEntity
  8
1
  6
Continuous
100
AcDbLine
 10
155.8928244071677
 20
338.4965780911532
 30
0.0
 11
155.8928244071677
 21
340.0965781861483
 31
0.0
  0
ARC
  5
553
330
18
100
AcDbEntity
  8
1
  6
Continuous
100
AcDbCircle
 10
155.1928243596703
 20
340.5965781861482
 30
0.0
 40
0.3
100
AcDbArc
 50
180.0
 51
270.0000000000065
  0
LINE
  5
554
330
18
100
AcDbEntity
  8
1
  6
Continuous
100
AcDbLine
 10
155.6928244071676
 20
340.2965781861482
 30
0.0
 11
155.1928243596703
 21
340.2965781861482
 31
0.0
  0
ARC
  5
555
330
18
100
AcDbEntity
  8
1
  6
Continuous
100
AcDbCircle
 10
155.1928243596703
 20
337.9965780911533
 30
0.0
 40
0.3
100
AcDbArc
 50
89.99999999999348
 51
180.0
  0
LINE
  5
556
330
18
100
AcDbEntity
  8
1
  6
Continuous
100
AcDbLine
 10
155.1928243596704
 20
338.2965780911533
 30
0.0
 11
155.6928244071676
 21
338.2965780911532
 31
0.0
  0
ARC
  5
557
330
18
100
AcDbEntity
  8
1
  6
Continuous
100
AcDbCircle
 10
145.2343127465106
 20
341.4431977403483
 30
0.0
 40
4.15972412702868
100
AcDbArc
 50
350.3628691319814
 51
358.6037311431749
  0
LINE
  5
558
330
18
100
AcDbEntity
  8
1
  6
Continuous
100
AcDbLine
 10
149.3928240984348
 20
341.3418374230613
 30
0.0
 11
149.3928240984348
 21
343.3955881857985
 31
0.0
  0
ARC
  5
559
330
18
100
AcDbEntity
  8
1
  6
Continuous
100
AcDbCircle
 10
148.9151030003502
 20
343.1422537512706
 30
0.0
 40
0.3004600640480603
100
AcDbArc
 50
228.3331868512702
 51
359.7102052787803
  0
ARC
  5
55A
330
18
100
AcDbEntity
  8
1
  6
Continuous
100
AcDbCircle
 10
140.5508729705896
 20
341.3787247353458
 30
0.0
 40
8.842028054219042
100
AcDbArc
 50
359.7609990478444
 51
11.49465164411612
  0
LINE
  5
55B
330
18
100
AcDbEntity
  8
1
  6
Continuous
100
AcDbLine
 10
150.7552901537259
 20
341.2965782336456
 30
0.0
 11
151.9928242219277
 21
341.2965782336456
 31
0.0
  0
LINE
  5
55C
330
18
100
AcDbEntity
  8
1
  6
Continuous
100
AcDbLine
 10
150.7552901537258
 20
341.2965782336456
 30
0.0
 11
150.9155622502426
 21
342.9226395417454
 31
0.0
  0
LINE
  5
55D
330
18
100
AcDbEntity
  8
1
  6
Continuous
100
AcDbLine
 10
150.9155622502426
 20
343.6705171155317
 30
0.0
 11
150.7552901537258
 21
345.2965784236355
 31
0.0
  0
LINE
  5
55E
330
18
100
AcDbEntity
  8
1
  6
Continuous
100
AcDbLine
 10
150.5134470088651
 20
345.2965784236355
 30
0.0
 11
151.9928242219276
 21
345.2965784236355
 31
0.0
  0
LINE
  5
55F
330
18
100
AcDbEntity
  8
1
  6
Continuous
100
AcDbLine
 10
148.8928240746855
 20
350.2965786611227
 30
0.0
 11
148.8928240746855
 21
352.2965787561176
 31
0.0
  0
LINE
  5
560
330
18
100
AcDbEntity
  8
1
  6
Continuous
100
AcDbLine
 10
221.8773513439133
 20
316.356580100817
 30
0.0
 11
221.8773513439133
 21
312.556579920327
 31
0.0
  0
LINE
  5
561
330
18
100
AcDbEntity
  8
1
  6
Continuous
100
AcDbLine
 10
229.1028261527786
 20
309.6784045871853
 30
0.0
 11
225.3269200264119
 21
321.2965772836966
 31
0.0
  0
LINE
  5
562
330
18
100
AcDbEntity
  8
1
  6
Continuous
100
AcDbLine
 10
232.0773518283873
 20
293.8479366504763
 30
0.0
 11
232.0773518283873
 21
319.2965771887017
 31
0.0
  0
LINE
  5
563
330
18
100
AcDbEntity
  8
1
  6
Continuous
100
AcDbLine
 10
219.0773511396743
 20
287.1537533887484
 30
0.0
 11
230.0773518046385
 21
287.1537533887484
 31
0.0
  0
LINE
  5
564
330
18
100
AcDbEntity
  8
1
  6
Continuous
100
AcDbLine
 10
219.0773511396743
 20
292.4059946782932
 30
0.0
 11
230.0773518046385
 21
292.4059946782932
 31
0.0
  0
ARC
  5
565
330
18
100
AcDbEntity
  8
1
  6
Continuous
100
AcDbCircle
 10
232.577351852136
 20
294.2965760012654
 30
0.0
 40
1.000000047497429
100
AcDbArc
 50
270.0
 51
0.0
  0
ARC
  5
566
330
18
100
AcDbEntity
  8
1
  6
Continuous
100
AcDbCircle
 10
231.0410771776877
 20
294.3716748685718
 30
0.0
 40
1.161105883532274
100
AcDbArc
 50
297.5075436539615
 51
333.1877454433348
  0
LINE
  5
567
330
18
100
AcDbEntity
  8
1
  6
Continuous
100
AcDbLine
 10
231.5773518046386
 20
293.296575953768
 30
0.0
 11
232.577351852136
 21
293.296575953768
 31
0.0
  0
LINE
  5
568
330
18
100
AcDbEntity
  8
1
  6
Continuous
100
AcDbLine
 10
221.8773513439133
 20
312.556579920327
 30
0.0
 11
227.2773516003994
 21
312.556579920327
 31
0.0
  0
LINE
  5
569
330
18
100
AcDbEntity
  8
1
  6
Continuous
100
AcDbLine
 10
227.2773516003994
 20
310.0765798025332
 30
0.0
 11
221.8773513439133
 21
310.076579802533
 31
0.0
  0
LINE
  5
56A
330
18
100
AcDbEntity
  8
1
  6
Continuous
100
AcDbLine
 10
221.8773513439133
 20
306.276579622043
 30
0.0
 11
227.2773516003994
 21
306.276579622043
 31
0.0
  0
LINE
  5
56B
330
18
100
AcDbEntity
  8
1
  6
Continuous
100
AcDbLine
 10
221.8773513439133
 20
310.076579802533
 30
0.0
 11
221.8773513439133
 21
306.276579622043
 31
0.0
  0
LINE
  5
56C
330
18
100
AcDbEntity
  8
1
  6
Continuous
100
AcDbLine
 10
227.2773516003994
 20
306.276579622043
 30
0.0
 11
227.2773516003994
 21
310.0765798025332
 31
0.0
  0
ARC
  5
56D
330
18
100
AcDbEntity
  8
1
  6
Continuous
100
AcDbCircle
 10
231.004894380584
 20
310.2965767612248
 30
0.0
 40
2.000000094994895
100
AcDbArc
 50
198.0041616059829
 51
270.0
  0
LINE
  5
56E
330
18
100
AcDbEntity
  8
1
  6
Continuous
100
AcDbLine
 10
231.5773518046386
 20
308.2965766662298
 30
0.0
 11
231.004894380584
 21
308.2965766662298
 31
0.0
  0
LINE
  5
56F
330
18
100
AcDbEntity
  8
1
  6
Continuous
100
AcDbLine
 10
227.2773516003994
 20
312.556579920327
 30
0.0
 11
227.2773516003994
 21
315.2952493637356
 31
0.0
  0
LINE
  5
570
330
18
100
AcDbEntity
  8
1
  6
Continuous
100
AcDbLine
 10
214.2773509829325
 20
325.2965774736884
 30
0.0
 11
214.2773509829325
 21
341.2965782336456
 31
0.0
  0
LINE
  5
571
330
18
100
AcDbEntity
  8
1
  6
Continuous
100
AcDbLine
 10
232.4232333130713
 20
328.2965749345561
 30
0.0
 11
217.2314751975704
 21
328.2965749345561
 31
0.0
  0
LINE
  5
572
330
18
100
AcDbEntity
  8
1
  6
Continuous
100
AcDbLine
 10
216.8968783217842
 20
326.2965748395612
 30
0.0
 11
232.4232333130706
 21
326.2965748395612
 31
0.0
  0
LINE
  5
573
330
18
100
AcDbEntity
  8
1
  6
Continuous
100
AcDbLine
 10
221.8773513439133
 20
318.836580218611
 30
0.0
 11
226.1264190725647
 21
318.836580218611
 31
0.0
  0
LINE
  5
574
330
18
100
AcDbEntity
  8
1
  6
Continuous
100
AcDbLine
 10
226.932419110848
 20
316.356580100817
 30
0.0
 11
221.8773513439133
 21
316.356580100817
 31
0.0
  0
LINE
  5
575
330
18
100
AcDbEntity
  8
1
  6
Continuous
100
AcDbLine
 10
214.2773509829328
 20
321.2965772836966
 30
0.0
 11
230.0773517333924
 21
321.2965772836966
 31
0.0
  0
ARC
  5
576
330
18
100
AcDbEntity
  8
1
  6
Continuous
100
AcDbCircle
 10
217.064176759807
 20
324.9809825235524
 30
0.0
 40
1.326186281283027
100
AcDbArc
 50
97.24705252227423
 51
130.021884973907
  0
ARC
  5
577
330
18
100
AcDbEntity
  8
1
  6
Continuous
100
AcDbCircle
 10
212.7773509116865
 20
323.2965773786915
 30
0.0
 40
0.5000000237487346
100
AcDbArc
 50
131.5931433215519
 51
228.4068566783098
  0
LINE
  5
578
330
18
100
AcDbEntity
  8
1
  6
Continuous
100
AcDbLine
 10
214.2773509829328
 20
321.2965772836966
 30
0.0
 11
212.4454325370735
 21
322.9226385917984
 31
0.0
  0
LINE
  5
579
330
18
100
AcDbEntity
  8
1
  6
Continuous
100
AcDbLine
 10
212.4454325370735
 20
323.6705161655866
 30
0.0
 11
214.2773509829325
 21
325.2965774736884
 31
0.0
  0
LINE
  5
57A
330
18
100
AcDbEntity
  8
1
  6
Continuous
100
AcDbLine
 10
221.8773513439133
 20
321.2965772836966
 30
0.0
 11
221.8773513439133
 21
318.836580218611
 31
0.0
  0
ARC
  5
57B
330
18
100
AcDbEntity
  8
1
  6
Continuous
100
AcDbCircle
 10
217.064176759807
 20
329.6121665449346
 30
0.0
 40
1.326186281283027
100
AcDbArc
 50
229.9781150260928
 51
277.2471733430302
  0
ARC
  5
57C
330
18
100
AcDbEntity
  8
1
  6
Continuous
100
AcDbCircle
 10
232.5905289763644
 20
324.9809828763675
 30
0.0
 40
1.326186281283027
100
AcDbArc
 50
49.97811502609284
 51
97.24705251115764
  0
ARC
  5
57D
330
18
100
AcDbEntity
  8
1
  6
Continuous
100
AcDbCircle
 10
230.0773517333924
 20
319.2965771887017
 30
0.0
 40
2.000000094994899
100
AcDbArc
 50
359.9999999999996
 51
90.0
  0
ARC
  5
57E
330
18
100
AcDbEntity
  8
1
  6
Continuous
100
AcDbCircle
 10
232.5905289763644
 20
329.6121668977497
 30
0.0
 40
1.326186281283027
100
AcDbArc
 50
262.7529474888489
 51
310.0218849739071
  0
LINE
  5
57F
330
18
100
AcDbEntity
  8
1
  6
Continuous
100
AcDbLine
 10
232.4232333130713
 20
340.2965755045255
 30
0.0
 11
217.2314751975704
 21
340.2965755045255
 31
0.0
  0
LINE
  5
580
330
18
100
AcDbEntity
  8
1
  6
Continuous
100
AcDbLine
 10
217.2314696485832
 20
338.2965754095307
 30
0.0
 11
232.4232333130713
 21
338.2965754095307
 31
0.0
  0
LINE
  5
581
330
18
100
AcDbEntity
  8
4
  6
CENTER
 48
0.2
100
AcDbLine
 10
225.5773514721564
 20
351.2965787086203
 30
0.0
 11
236.5773518996335
 21
351.2965787086203
 31
0.0
  0
ARC
  5
582
330
18
100
AcDbEntity
  8
1
  6
Continuous
100
AcDbCircle
 10
217.064176759807
 20
341.612167114904
 30
0.0
 40
1.326186281283027
100
AcDbArc
 50
229.9781150260928
 51
277.2471733430236
  0
ARC
  5
583
330
18
100
AcDbEntity
  8
1
  6
Continuous
100
AcDbCircle
 10
217.064176759807
 20
336.9809830935219
 30
0.0
 40
1.326186281283027
100
AcDbArc
 50
82.75306832274436
 51
130.021884973907
  0
LINE
  5
584
330
18
100
AcDbEntity
  8
1
  6
Continuous
100
AcDbLine
 10
214.2773509829325
 20
345.2965784236355
 30
0.0
 11
216.0773510684281
 21
345.2965784236355
 31
0.0
  0
ARC
  5
585
330
18
100
AcDbEntity
  8
1
  6
Continuous
100
AcDbCircle
 10
212.7773509116865
 20
343.2965783286405
 30
0.0
 40
0.5000000237487253
100
AcDbArc
 50
131.5931433217067
 51
228.4068566784585
  0
LINE
  5
586
330
18
100
AcDbEntity
  8
1
  6
Continuous
100
AcDbLine
 10
212.4454325370735
 20
343.6705171155336
 30
0.0
 11
214.2773509829325
 21
345.2965784236355
 31
0.0
  0
LINE
  5
587
330
18
100
AcDbEntity
  8
1
  6
Continuous
100
AcDbLine
 10
214.2773509829325
 20
341.2965782336456
 30
0.0
 11
212.4454325370745
 21
342.9226395417464
 31
0.0
  0
ARC
  5
588
330
18
100
AcDbEntity
  8
1
  6
Continuous
100
AcDbCircle
 10
232.5905289763644
 20
341.6121674677191
 30
0.0
 40
1.326186281283027
100
AcDbArc
 50
262.7529474888555
 51
310.0218849739071
  0
ARC
  5
589
330
18
100
AcDbEntity
  8
1
  6
Continuous
100
AcDbCircle
 10
232.5905289763644
 20
336.9809834463368
 30
0.0
 40
1.326186281283027
100
AcDbArc
 50
49.97811502609284
 51
97.24705251114443
  0
LINE
  5
58A
330
18
100
AcDbEntity
  8
1
  6
Continuous
100
AcDbLine
 10
149.3928240984342
 20
364.7506239962585
 30
0.0
 11
149.3928240984342
 21
371.2965796585692
 31
0.0
  0
LINE
  5
58B
330
18
100
AcDbEntity
  8
1
  6
Continuous
100
AcDbLine
 10
150.4928241506814
 20
371.2965796585692
 30
0.0
 11
154.8928243596703
 21
371.2965796585692
 31
0.0
  0
LINE
  5
58C
330
18
100
AcDbEntity
  8
1
  6
Continuous
100
AcDbLine
 10
216.0773510684281
 20
371.2965796585692
 30
0.0
 11
233.5773518996335
 21
371.2965796585693
 31
0.0
  0
LINE
  5
58D
330
18
100
AcDbEntity
  8
1
  6
Continuous
100
AcDbLine
 10
294.2618785846427
 20
371.2965796585692
 30
0.0
 11
294.2618785846427
 21
340.5965781861482
 31
0.0
  0
LINE
  5
58E
330
18
100
AcDbEntity
  8
1
  6
Continuous
100
AcDbLine
 10
322.261879914571
 20
371.2965796585692
 30
0.0
 11
322.261879914571
 21
340.5965781861482
 31
0.0
  0
LINE
  5
58F
330
18
100
AcDbEntity
  8
4
  6
CENTER
 48
0.2
100
AcDbLine
 10
308.2618792496067
 20
290.296575953768
 30
0.0
 11
308.2618792496067
 21
374.2965796585691
 31
0.0
  0
LINE
  5
590
330
18
100
AcDbEntity
  8
1
  6
Continuous
100
AcDbLine
 10
302.261878964622
 20
299.7965762625014
 30
0.0
 11
302.261878964622
 21
322.8294860700058
 31
0.0
  0
LINE
  5
591
330
18
100
AcDbEntity
  8
1
  6
Continuous
100
AcDbLine
 10
303.7618790358682
 20
321.348355661156
 30
0.0
 11
303.7618790358682
 21
298.5465762031296
 31
0.0
  0
LINE
  5
592
330
18
100
AcDbEntity
  8
1
  6
Continuous
100
AcDbLine
 10
312.7618794633452
 20
298.5465762031296
 30
0.0
 11
312.7618794633452
 21
321.348355661156
 31
0.0
  0
LINE
  5
593
330
18
100
AcDbEntity
  8
1
  6
Continuous
100
AcDbLine
 10
314.2618795345916
 20
322.8294860700059
 30
0.0
 11
314.2618795345916
 21
299.7965762625014
 31
0.0
  0
LINE
  5
594
330
18
100
AcDbEntity
  8
1
  6
Continuous
100
AcDbLine
 10
322.261879914571
 20
325.9965775211839
 30
0.0
 11
322.2618799145712
 21
297.2965761437578
 31
0.0
  0
LINE
  5
595
330
18
100
AcDbEntity
  8
1
  6
Continuous
100
AcDbLine
 10
294.2618785846427
 20
325.9965775211839
 30
0.0
 11
294.2618785846424
 21
297.2965761437578
 31
0.0
  0
ARC
  5
596
330
18
100
AcDbEntity
  8
1
  6
Continuous
100
AcDbCircle
 10
303.0118790002453
 20
298.5465762031296
 30
0.0
 40
0.7500000356230692
100
AcDbArc
 50
270.0
 51
0.0
  0
LINE
  5
597
330
18
100
AcDbEntity
  8
1
  6
Continuous
100
AcDbLine
 10
298.2618787746322
 20
293.296575953768
 30
0.0
 11
318.2618797245812
 21
293.296575953768
 31
0.0
  0
ARC
  5
598
330
18
100
AcDbEntity
  8
1
  6
Continuous
100
AcDbCircle
 10
298.2618787746322
 20
297.2965761437578
 30
0.0
 40
4.000000189989805
100
AcDbArc
 50
180.0
 51
270.0
  0
ARC
  5
599
330
18
100
AcDbEntity
  8
1
  6
Continuous
100
AcDbCircle
 10
300.5118788815017
 20
298.5465762031296
 30
0.0
 40
0.7500000356230795
100
AcDbArc
 50
90.0
 51
270.0
  0
LINE
  5
59A
330
18
100
AcDbEntity
  8
1
  6
Continuous
100
AcDbLine
 10
300.5118788815017
 20
299.2965762387527
 30
0.0
 11
301.7618789408735
 21
299.2965762387527
 31
0.0
  0
LINE
  5
59B
330
18
100
AcDbEntity
  8
1
  6
Continuous
100
AcDbLine
 10
303.0118790002453
 20
297.7965761675065
 30
0.0
 11
300.5118788815017
 21
297.7965761675065
 31
0.0
  0
ARC
  5
59C
330
18
100
AcDbEntity
  8
1
  6
Continuous
100
AcDbCircle
 10
301.7618789408735
 20
299.7965762625014
 30
0.0
 40
0.5000000237487418
100
AcDbArc
 50
270.0
 51
359.9999999999975
  0
ARC
  5
59D
330
18
100
AcDbEntity
  8
1
  6
Continuous
100
AcDbCircle
 10
318.2618797245812
 20
297.2965761437578
 30
0.0
 40
4.000000189989798
100
AcDbArc
 50
270.0
 51
0.000000000000007
  0
ARC
  5
59E
330
18
100
AcDbEntity
  8
1
  6
Continuous
100
AcDbCircle
 10
322.6618795520999
 20
294.5107536562959
 30
0.0
 40
5.500000261235456
100
AcDbArc
 50
192.7536502059933
 51
225.0000000005446
  0
LINE
  5
59F
330
18
100
AcDbEntity
  8
1
  6
Continuous
100
AcDbLine
 10
320.8941125151699
 20
292.7429866193317
 30
0.0
 11
323.5509668908558
 21
290.086132243638
 31
0.0
  0
ARC
  5
5A0
330
18
100
AcDbEntity
  8
1
  6
Continuous
100
AcDbCircle
 10
319.6618794096085
 20
286.1970447624164
 30
0.0
 40
5.500000261235459
100
AcDbArc
 50
0.0000000000004141
 51
44.99999999981322
  0
ARC
  5
5A1
330
18
100
AcDbEntity
  8
1
  6
Continuous
100
AcDbCircle
 10
319.661879409609
 20
286.1970447624162
 30
0.0
 40
2.500000118742836
100
AcDbArc
 50
359.9999999999975
 51
44.99999999894213
  0
LINE
  5
5A2
330
18
100
AcDbEntity
  8
1
  6
Continuous
100
AcDbLine
 10
321.4296464465384
 20
287.9648117992804
 30
0.0
 11
318.7727920708526
 21
290.6216661749746
 31
0.0
  0
ARC
  5
5A3
330
18
100
AcDbEntity
  8
1
  6
Continuous
100
AcDbCircle
 10
322.6618795520999
 20
294.510753656296
 30
0.0
 40
2.500000118743311
100
AcDbArc
 50
195.8158610656814
 51
225.000000000552
  0
LINE
  5
5A4
330
18
100
AcDbEntity
  8
1
  6
Continuous
100
AcDbLine
 10
316.0118796177122
 20
297.7965761675065
 30
0.0
 11
313.5118794989683
 21
297.7965761675065
 31
0.0
  0
LINE
  5
5A5
330
18
100
AcDbEntity
  8
1
  6
Continuous
100
AcDbLine
 10
314.7618795583401
 20
299.2965762387527
 30
0.0
 11
316.0118796177122
 21
299.2965762387527
 31
0.0
  0
ARC
  5
5A6
330
18
100
AcDbEntity
  8
1
  6
Continuous
100
AcDbCircle
 10
313.5118794989683
 20
298.5465762031296
 30
0.0
 40
0.7500000356230882
100
AcDbArc
 50
180.0000000000015
 51
270.0
  0
ARC
  5
5A7
330
18
100
AcDbEntity
  8
1
  6
Continuous
100
AcDbCircle
 10
316.0118796177122
 20
298.5465762031296
 30
0.0
 40
0.7500000356231153
100
AcDbArc
 50
270.0
 51
90.0
  0
ARC
  5
5A8
330
18
100
AcDbEntity
  8
1
  6
Continuous
100
AcDbCircle
 10
314.7618795583401
 20
299.7965762625014
 30
0.0
 40
0.5000000237487213
100
AcDbArc
 50
180.0000000000023
 51
269.9999999999934
  0
CIRCLE
  5
5A9
330
18
100
AcDbEntity
  8
1
  6
Continuous
100
AcDbCircle
 10
308.2618792496067
 20
333.296577853666
 30
0.0
 40
8.100000384729355
  0
ARC
  5
5AA
330
18
100
AcDbEntity
  8
1
  6
Continuous
100
AcDbCircle
 10
308.2618792496067
 20
352.2965787561176
 30
0.0
 40
5.289426738995367
100
AcDbArc
 50
0.0000000000004211
 51
180.435398124075
  0
CIRCLE
  5
5AB
330
18
100
AcDbEntity
  8
1
  6
Continuous
100
AcDbCircle
 10
308.2618792496067
 20
333.296577853666
 30
0.0
 40
6.875000326544985
  0
ARC
  5
5AC
330
18
100
AcDbEntity
  8
1
  6
Continuous
100
AcDbCircle
 10
303.2618790121194
 20
322.8294860700059
 30
0.0
 40
1.000000047497449
100
AcDbArc
 50
64.46677105585711
 51
180.0000000000006
  0
ARC
  5
5AD
330
18
100
AcDbEntity
  8
1
  6
Continuous
100
AcDbCircle
 10
308.2618792496067
 20
350.2965786611227
 30
0.0
 40
5.289426738995367
100
AcDbArc
 50
179.5646018759247
 51
359.9999999999996
  0
LINE
  5
5AE
330
18
100
AcDbEntity
  8
4
  6
CENTER
 48
0.2
100
AcDbLine
 10
326.2618799620687
 20
333.296577853666
 30
0.0
 11
290.4485462511944
 21
333.296577853666
 31
0.0
  0
LINE
  5
5AF
330
18
100
AcDbEntity
  8
4
  6
CENTER
 48
0.2
100
AcDbLine
 10
317.5118793564762
 20
351.2965787086203
 30
0.0
 11
299.0118791427377
 21
351.2965787086203
 31
0.0
  0
LINE
  5
5B0
330
18
100
AcDbEntity
  8
1
  6
Continuous
100
AcDbLine
 10
294.2618785846427
 20
337.9965780911533
 30
0.0
 11
294.2618785846427
 21
328.5965776161788
 31
0.0
  0
ARC
  5
5B1
330
18
100
AcDbEntity
  8
1
  6
Continuous
100
AcDbCircle
 10
293.9618785846424
 20
325.9965775211839
 30
0.0
 40
0.3
100
AcDbArc
 50
0.000000000000007
 51
90.00000000000651
  0
ARC
  5
5B2
330
18
100
AcDbEntity
  8
1
  6
Continuous
100
AcDbCircle
 10
293.461878537145
 20
326.4965775211838
 30
0.0
 40
0.2
100
AcDbArc
 50
180.0
 51
270.0
  0
LINE
  5
5B3
330
18
100
AcDbEntity
  8
1
  6
Continuous
100
AcDbLine
 10
293.9618785846424
 20
326.2965775211839
 30
0.0
 11
293.461878537145
 21
326.2965775211838
 31
0.0
  0
LINE
  5
5B4
330
18
100
AcDbEntity
  8
1
  6
Continuous
100
AcDbLine
 10
293.461878537145
 20
328.2965776161788
 30
0.0
 11
293.9618785846424
 21
328.2965776161788
 31
0.0
  0
ARC
  5
5B5
330
18
100
AcDbEntity
  8
1
  6
Continuous
100
AcDbCircle
 10
293.9618785846424
 20
328.5965776161788
 30
0.0
 40
0.3
100
AcDbArc
 50
269.9999999999934
 51
0.0000000000001088
  0
LINE
  5
5B6
330
18
100
AcDbEntity
  8
1
  6
Continuous
100
AcDbLine
 10
293.2618785371452
 20
326.4965775211838
 30
0.0
 11
293.2618785371452
 21
328.0965776161788
 31
0.0
  0
ARC
  5
5B7
330
18
100
AcDbEntity
  8
1
  6
Continuous
100
AcDbCircle
 10
293.461878537145
 20
328.0965776161788
 30
0.0
 40
0.2
100
AcDbArc
 50
90.0
 51
180.0
  0
LINE
  5
5B8
330
18
100
AcDbEntity
  8
1
  6
Continuous
100
AcDbLine
 10
293.9618785846424
 20
338.2965780911533
 30
0.0
 11
293.461878537145
 21
338.2965780911532
 31
0.0
  0
ARC
  5
5B9
330
18
100
AcDbEntity
  8
1
  6
Continuous
100
AcDbCircle
 10
293.9618785846424
 20
337.9965780911533
 30
0.0
 40
0.3
100
AcDbArc
 50
0.000000000000007
 51
90.00000000000651
  0
LINE
  5
5BA
330
18
100
AcDbEntity
  8
1
  6
Continuous
100
AcDbLine
 10
293.461878537145
 20
340.2965781861482
 30
0.0
 11
293.9618785846424
 21
340.2965781861482
 31
0.0
  0
ARC
  5
5BB
330
18
100
AcDbEntity
  8
1
  6
Continuous
100
AcDbCircle
 10
293.9618785846424
 20
340.5965781861482
 30
0.0
 40
0.3
100
AcDbArc
 50
269.9999999999934
 51
0.000000000000007
  0
LINE
  5
5BC
330
18
100
AcDbEntity
  8
1
  6
Continuous
100
AcDbLine
 10
293.2618785371452
 20
338.4965780911532
 30
0.0
 11
293.2618785371452
 21
340.0965781861483
 31
0.0
  0
ARC
  5
5BD
330
18
100
AcDbEntity
  8
1
  6
Continuous
100
AcDbCircle
 10
293.461878537145
 20
338.4965780911532
 30
0.0
 40
0.2
100
AcDbArc
 50
180.0
 51
270.0
  0
ARC
  5
5BE
330
18
100
AcDbEntity
  8
1
  6
Continuous
100
AcDbCircle
 10
293.461878537145
 20
340.0965781861483
 30
0.0
 40
0.2
100
AcDbArc
 50
90.0
 51
180.0
  0
LINE
  5
5BF
330
18
100
AcDbEntity
  8
1
  6
Continuous
100
AcDbLine
 10
293.2618785371452
 20
338.4965781006527
 30
0.0
 11
293.262631925185
 21
338.4965781006527
 31
0.0
  0
LINE
  5
5C0
330
18
100
AcDbEntity
  8
1
  6
Continuous
100
AcDbLine
 10
302.9726052335828
 20
350.3367733200317
 30
0.0
 11
302.9726052335828
 21
352.2965787561176
 31
0.0
  0
ARC
  5
5C1
330
18
100
AcDbEntity
  8
1
  6
Continuous
100
AcDbCircle
 10
311.8118794182229
 20
336.846578022282
 30
0.0
 40
0.5000000237487317
100
AcDbArc
 50
0.0000000000008142
 51
90.0
  0
ARC
  5
5C2
330
18
100
AcDbEntity
  8
1
  6
Continuous
100
AcDbCircle
 10
304.711879080991
 20
336.846578022282
 30
0.0
 40
0.5000000237487317
100
AcDbArc
 50
90.0
 51
179.999999999999
  0
LINE
  5
5C3
330
18
100
AcDbEntity
  8
1
  6
Continuous
100
AcDbLine
 10
322.261879914571
 20
337.9965780911533
 30
0.0
 11
322.261879914571
 21
328.5965776161788
 31
0.0
  0
ARC
  5
5C4
330
18
100
AcDbEntity
  8
1
  6
Continuous
100
AcDbCircle
 10
308.2618792496067
 20
333.296577853666
 30
0.0
 40
10.60000050347296
100
AcDbArc
 50
244.4667710559154
 51
295.5332289440785
  0
ARC
  5
5C5
330
18
100
AcDbEntity
  8
1
  6
Continuous
100
AcDbCircle
 10
308.2618792496067
 20
333.2965778536659
 30
0.0
 40
12.10000057472363
100
AcDbArc
 50
251.4905949910258
 51
288.5094050089465
  0
ARC
  5
5C6
330
18
100
AcDbEntity
  8
1
  6
Continuous
100
AcDbCircle
 10
304.2618790596171
 20
321.348355661156
 30
0.0
 40
0.5000000237487179
100
AcDbArc
 50
71.49059568264815
 51
180.0000000000015
  0
ARC
  5
5C7
330
18
100
AcDbEntity
  8
1
  6
Continuous
100
AcDbCircle
 10
313.2618794870942
 20
322.8294860700059
 30
0.0
 40
1.000000047497444
100
AcDbArc
 50
359.9999999999996
 51
115.5332289441429
  0
ARC
  5
5C8
330
18
100
AcDbEntity
  8
1
  6
Continuous
100
AcDbCircle
 10
312.2618794395965
 20
321.348355661156
 30
0.0
 40
0.5000000237487292
100
AcDbArc
 50
0.0000000000008142
 51
108.509404318004
  0
LINE
  5
5C9
330
18
100
AcDbEntity
  8
1
  6
Continuous
100
AcDbLine
 10
311.8118794182229
 20
329.2465776613014
 30
0.0
 11
304.711879080991
 21
329.2465776613014
 31
0.0
  0
ARC
  5
5CA
330
18
100
AcDbEntity
  8
1
  6
Continuous
100
AcDbCircle
 10
304.711879080991
 20
329.7465776850501
 30
0.0
 40
0.5000000237487317
100
AcDbArc
 50
180.0000000000004
 51
270.0
  0
LINE
  5
5CB
330
18
100
AcDbEntity
  8
1
  6
Continuous
100
AcDbLine
 10
304.211879057242
 20
329.7465776850501
 30
0.0
 11
304.211879057242
 21
336.846578022282
 31
0.0
  0
ARC
  5
5CC
330
18
100
AcDbEntity
  8
1
  6
Continuous
100
AcDbCircle
 10
311.8118794182229
 20
329.7465776850501
 30
0.0
 40
0.5000000237487317
100
AcDbArc
 50
270.0
 51
359.9999999999992
  0
LINE
  5
5CD
330
18
100
AcDbEntity
  8
1
  6
Continuous
100
AcDbLine
 10
312.3118794419716
 20
336.846578022282
 30
0.0
 11
312.3118794419716
 21
329.7465776850501
 31
0.0
  0
ARC
  5
5CE
330
18
100
AcDbEntity
  8
1
  6
Continuous
100
AcDbCircle
 10
323.0618799620684
 20
326.4965775211838
 30
0.0
 40
0.2
100
AcDbArc
 50
270.0
 51
0.000000000000007
  0
ARC
  5
5CF
330
18
100
AcDbEntity
  8
1
  6
Continuous
100
AcDbCircle
 10
322.561879914571
 20
325.9965775211839
 30
0.0
 40
0.3
100
AcDbArc
 50
89.99999999999348
 51
180.0
  0
LINE
  5
5D0
330
18
100
AcDbEntity
  8
1
  6
Continuous
100
AcDbLine
 10
322.561879914571
 20
326.2965775211839
 30
0.0
 11
323.0618799620684
 21
326.2965775211838
 31
0.0
  0
ARC
  5
5D1
330
18
100
AcDbEntity
  8
1
  6
Continuous
100
AcDbCircle
 10
323.0618799620686
 20
328.0965776161788
 30
0.0
 40
0.2
100
AcDbArc
 50
0.000000000000007
 51
90.0
  0
LINE
  5
5D2
330
18
100
AcDbEntity
  8
1
  6
Continuous
100
AcDbLine
 10
323.2618799620687
 20
326.4965775211838
 30
0.0
 11
323.2618799620687
 21
328.0965776161788
 31
0.0
  0
ARC
  5
5D3
330
18
100
AcDbEntity
  8
1
  6
Continuous
100
AcDbCircle
 10
322.561879914571
 20
328.5965776161788
 30
0.0
 40
0.3
100
AcDbArc
 50
179.9999999999998
 51
270.0000000000065
  0
LINE
  5
5D4
330
18
100
AcDbEntity
  8
1
  6
Continuous
100
AcDbLine
 10
323.0618799620686
 20
328.2965776161788
 30
0.0
 11
322.561879914571
 21
328.2965776161788
 31
0.0
  0
ARC
  5
5D5
330
18
100
AcDbEntity
  8
1
  6
Continuous
100
AcDbCircle
 10
308.2618792496067
 20
350.2965786611227
 30
0.0
 40
3.517293608786508
100
AcDbArc
 50
179.999999999999
 51
0.8179174396671767
  0
LINE
  5
5D6
330
18
100
AcDbEntity
  8
1
  6
Continuous
100
AcDbLine
 10
304.711879080991
 20
337.3465780460307
 30
0.0
 11
311.8118794182229
 21
337.3465780460307
 31
0.0
  0
ARC
  5
5D7
330
18
100
AcDbEntity
  8
1
  6
Continuous
100
AcDbCircle
 10
308.2618792496067
 20
352.2965787561176
 30
0.0
 40
3.516943474027122
100
AcDbArc
 50
359.8759257015859
 51
179.9999999999995
  0
LINE
  5
5D8
330
18
100
AcDbEntity
  8
1
  6
Continuous
100
AcDbLine
 10
310.5118793564762
 20
352.2965787561176
 30
0.0
 11
310.5118793564762
 21
350.2965786611227
 31
0.0
  0
ARC
  5
5D9
330
18
100
AcDbEntity
  8
1
  6
Continuous
100
AcDbCircle
 10
308.2618792496067
 20
350.2965786611227
 30
0.0
 40
2.250000106869264
100
AcDbArc
 50
179.9999999999995
 51
0.0000000000004071
  0
LINE
  5
5DA
330
18
100
AcDbEntity
  8
1
  6
Continuous
100
AcDbLine
 10
304.7449454675874
 20
350.2965786611227
 30
0.0
 11
304.7449454675874
 21
352.2965787561176
 31
0.0
  0
LINE
  5
5DB
330
18
100
AcDbEntity
  8
1
  6
Continuous
100
AcDbLine
 10
306.0118791427377
 20
350.2965786611227
 30
0.0
 11
306.0118791427377
 21
352.2965787561176
 31
0.0
  0
ARC
  5
5DC
330
18
100
AcDbEntity
  8
1
  6
Continuous
100
AcDbCircle
 10
308.2618792496067
 20
352.2965787561176
 30
0.0
 40
2.250000106869249
100
AcDbArc
 50
0.0
 51
180.0000000000004
  0
LINE
  5
5DD
330
18
100
AcDbEntity
  8
1
  6
Continuous
100
AcDbLine
 10
313.5511547623879
 20
352.2965787561176
 30
0.0
 11
313.5511547623879
 21
350.2965786611227
 31
0.0
  0
LINE
  5
5DE
330
18
100
AcDbEntity
  8
1
  6
Continuous
100
AcDbLine
 10
311.7788144774382
 20
352.2889628033063
 30
0.0
 11
311.7788144774382
 21
350.3467875612923
 31
0.0
  0
LINE
  5
5DF
330
18
100
AcDbEntity
  8
1
  6
Continuous
100
AcDbLine
 10
323.2618799620687
 20
338.4965781006527
 30
0.0
 11
323.2611265740284
 21
338.4965781006527
 31
0.0
  0
ARC
  5
5E0
330
18
100
AcDbEntity
  8
1
  6
Continuous
100
AcDbCircle
 10
323.0618799620686
 20
340.0965781861483
 30
0.0
 40
0.2
100
AcDbArc
 50
0.000000000000007
 51
90.0
  0
ARC
  5
5E1
330
18
100
AcDbEntity
  8
1
  6
Continuous
100
AcDbCircle
 10
323.0618799620684
 20
338.4965780911532
 30
0.0
 40
0.2
100
AcDbArc
 50
270.0
 51
0.000000000000007
  0
LINE
  5
5E2
330
18
100
AcDbEntity
  8
1
  6
Continuous
100
AcDbLine
 10
323.2618799620687
 20
338.4965780911532
 30
0.0
 11
323.2618799620687
 21
340.0965781861483
 31
0.0
  0
ARC
  5
5E3
330
18
100
AcDbEntity
  8
1
  6
Continuous
100
AcDbCircle
 10
322.561879914571
 20
340.5965781861482
 30
0.0
 40
0.3
100
AcDbArc
 50
180.0
 51
270.0000000000065
  0
LINE
  5
5E4
330
18
100
AcDbEntity
  8
1
  6
Continuous
100
AcDbLine
 10
323.0618799620686
 20
340.2965781861482
 30
0.0
 11
322.561879914571
 21
340.2965781861482
 31
0.0
  0
ARC
  5
5E5
330
18
100
AcDbEntity
  8
1
  6
Continuous
100
AcDbCircle
 10
322.561879914571
 20
337.9965780911533
 30
0.0
 40
0.3
100
AcDbArc
 50
89.99999999999348
 51
180.0
  0
LINE
  5
5E6
330
18
100
AcDbEntity
  8
1
  6
Continuous
100
AcDbLine
 10
322.5618799145712
 20
338.2965780911533
 30
0.0
 11
323.0618799620684
 21
338.2965780911532
 31
0.0
  0
LINE
  5
5E7
330
18
100
AcDbEntity
  8
1
  6
Continuous
100
AcDbLine
 10
322.261879914571
 20
371.2965796585692
 30
0.0
 11
294.2618785846427
 21
371.2965796585692
 31
0.0
  0
ARC
  5
5E8
330
18
100
AcDbEntity
  8
1
  6
Continuous
100
AcDbCircle
 10
153.8928243121728
 20
508.5051018584501
 30
0.0
 40
1.000000047497471
100
AcDbArc
 50
270.0
 51
0.0000000000004071
  0
LINE
  5
5E9
330
18
100
AcDbEntity
  8
1
  6
Continuous
100
AcDbLine
 10
150.4928241506814
 20
508.7051018679495
 30
0.0
 11
150.9302674890804
 21
503.7051016304623
 31
0.0
  0
LINE
  5
5EA
330
18
100
AcDbEntity
  8
1
  6
Continuous
100
AcDbLine
 10
151.0701744472941
 20
507.5051018109526
 30
0.0
 11
150.5134469573104
 21
508.4693821095746
 31
0.0
  0
ARC
  5
5EB
330
18
100
AcDbEntity
  8
1
  6
Continuous
100
AcDbCircle
 10
152.2928242361768
 20
507.2051017967035
 30
0.0
 40
0.3000000142492368
100
AcDbArc
 50
90.0
 51
179.9999999999978
  0
LINE
  5
5EC
330
18
100
AcDbEntity
  8
1
  6
Continuous
100
AcDbLine
 10
150.9302674890804
 20
503.7051016304623
 30
0.0
 11
151.9928242219277
 21
503.7051016304625
 31
0.0
  0
LINE
  5
5ED
330
18
100
AcDbEntity
  8
1
  6
Continuous
100
AcDbLine
 10
151.9928242219277
 20
503.7051016304625
 30
0.0
 11
151.9928242219277
 21
507.2051017967035
 31
0.0
  0
LINE
  5
5EE
330
18
100
AcDbEntity
  8
1
  6
Continuous
100
AcDbLine
 10
151.9928242219277
 20
505.7051017254573
 30
0.0
 11
150.7552901537259
 21
505.7051017254573
 31
0.0
  0
LINE
  5
5EF
330
18
100
AcDbEntity
  8
1
  6
Continuous
100
AcDbLine
 10
151.0701744472941
 20
507.5051018109526
 30
0.0
 11
153.8928243121728
 21
507.5051018109526
 31
0.0
  0
LINE
  5
5F0
330
18
100
AcDbEntity
  8
1
  6
Continuous
100
AcDbLine
 10
155.8928244071677
 20
508.6205719177748
 30
0.0
 11
155.8928244071677
 21
523.8896325353381
 31
0.0
  0
LINE
  5
5F1
330
18
100
AcDbEntity
  8
1
  6
Continuous
100
AcDbLine
 10
153.2928242836744
 20
511.7051020104419
 30
0.0
 11
153.2928242836744
 21
519.7051023904216
 31
0.0
  0
LINE
  5
5F2
330
18
100
AcDbEntity
  8
1
  6
Continuous
100
AcDbLine
 10
152.7928238784559
 20
523.0051025471631
 30
0.0
 11
152.7928238784559
 21
509.0051018821988
 31
0.0
  0
LINE
  5
5F3
330
18
100
AcDbEntity
  8
1
  6
Continuous
100
AcDbLine
 10
154.8928243596703
 20
508.5051018584501
 30
0.0
 11
154.8928243596703
 21
524.0051025950948
 31
0.0
  0
LINE
  5
5F4
330
18
100
AcDbEntity
  8
1
  6
Continuous
100
AcDbLine
 10
152.8928242646749
 20
513.8051021101865
 30
0.0
 11
152.8928242646753
 21
518.2051023191753
 31
0.0
  0
LINE
  5
5F5
330
18
100
AcDbEntity
  8
1
  6
Continuous
100
AcDbLine
 10
152.7934182806426
 20
513.8051021101865
 30
0.0
 11
152.8928242646749
 21
513.8051021101865
 31
0.0
  0
LINE
  5
5F6
330
18
100
AcDbEntity
  8
1
  6
Continuous
100
AcDbLine
 10
152.7934182806426
 20
518.2051023191753
 30
0.0
 11
152.8928242646753
 21
518.2051023191753
 31
0.0
  0
LINE
  5
5F7
330
18
100
AcDbEntity
  8
1
  6
Continuous
100
AcDbLine
 10
152.6735656586359
 20
517.2551022740528
 30
0.0
 11
152.6735656586359
 21
514.7551021553092
 31
0.0
  0
LINE
  5
5F8
330
18
100
AcDbEntity
  8
1
  6
Continuous
100
AcDbLine
 10
152.9928242694251
 20
511.7051020104419
 30
0.0
 11
153.2928242836744
 21
511.7051020104419
 31
0.0
  0
LINE
  5
5F9
330
18
100
AcDbEntity
  8
1
  6
Continuous
100
AcDbLine
 10
154.3978994628307
 20
507.6420264346412
 30
0.0
 11
155.7928157875336
 21
508.4473817502055
 31
0.0
  0
LINE
  5
5FA
330
18
100
AcDbEntity
  8
1
  6
Continuous
100
AcDbLine
 10
152.9928242694251
 20
508.7051018679495
 30
0.0
 11
150.4928241506814
 21
508.7051018679495
 31
0.0
  0
LINE
  5
5FB
330
18
100
AcDbEntity
  8
1
  6
Continuous
100
AcDbLine
 10
152.9928242694251
 20
511.7051020104419
 30
0.0
 11
152.9928242694251
 21
508.7051018679495
 31
0.0
  0
ARC
  5
5FC
330
18
100
AcDbEntity
  8
1
  6
Continuous
100
AcDbCircle
 10
155.6928243976682
 20
508.6205719177748
 30
0.0
 40
0.2000000094995274
100
AcDbArc
 50
299.9999999995636
 51
0.0
  0
ARC
  5
5FD
330
18
100
AcDbEntity
  8
1
  6
Continuous
100
AcDbCircle
 10
152.9928242694251
 20
523.0051025471633
 30
0.0
 40
0.5000000237486968
100
AcDbArc
 50
340.5287793654889
 51
109.4712206346722
  0
ARC
  5
5FE
330
18
100
AcDbEntity
  8
1
  6
Continuous
100
AcDbCircle
 10
153.8928243121728
 20
524.0051025946606
 30
0.0
 40
1.00000004749745
100
AcDbArc
 50
0.0000000248822172
 51
90.00000354230861
  0
LINE
  5
5FF
330
18
100
AcDbEntity
  8
1
  6
Continuous
100
AcDbLine
 10
155.7928244024179
 20
524.062837624322
 30
0.0
 11
154.3928243359216
 21
524.871128039579
 31
0.0
  0
LINE
  5
600
330
18
100
AcDbEntity
  8
1
  6
Continuous
100
AcDbLine
 10
152.8261575948406
 20
523.4765070903448
 30
0.0
 11
151.4928241981773
 21
523.0051025471631
 31
0.0
  0
LINE
  5
601
330
18
100
AcDbEntity
  8
1
  6
Continuous
100
AcDbLine
 10
152.9928242694251
 20
521.5051024759171
 30
0.0
 11
152.9928242694251
 21
519.7051023904216
 31
0.0
  0
LINE
  5
602
330
18
100
AcDbEntity
  8
1
  6
Continuous
100
AcDbLine
 10
153.2928242836744
 20
519.7051023904216
 30
0.0
 11
152.9928242694251
 21
519.7051023904216
 31
0.0
  0
LINE
  5
603
330
18
100
AcDbEntity
  8
1
  6
Continuous
100
AcDbLine
 10
152.9928242694251
 20
521.5051024759171
 30
0.0
 11
153.4642288126066
 21
522.8384358725801
 31
0.0
  0
ARC
  5
604
330
18
100
AcDbEntity
  8
1
  6
Continuous
100
AcDbCircle
 10
155.6928243976683
 20
523.8896325353381
 30
0.0
 40
0.2000000094994633
100
AcDbArc
 50
359.9999999999947
 51
60.00000000000006
  0
LINE
  5
605
330
18
100
AcDbEntity
  8
1
  6
Continuous
100
AcDbLine
 10
231.5773518046386
 20
451.7965865243724
 30
0.0
 11
217.5773511396743
 21
451.7965865243724
 31
0.0
  0
LINE
  5
606
330
18
100
AcDbEntity
  8
1
  6
Continuous
100
AcDbLine
 10
225.8273515315282
 20
446.9869123219462
 30
0.0
 11
225.8273515315282
 21
451.6773283045525
 31
0.0
  0
LINE
  5
607
330
18
100
AcDbEntity
  8
1
  6
Continuous
100
AcDbLine
 10
225.8273515315282
 20
446.9869123219462
 30
0.0
 11
223.3273514127846
 21
446.9869123219462
 31
0.0
  0
LINE
  5
608
330
18
100
AcDbEntity
  8
1
  6
Continuous
100
AcDbLine
 10
223.3273514127846
 20
446.9869123219462
 30
0.0
 11
223.3273514127846
 21
451.6773283045525
 31
0.0
  0
LINE
  5
609
330
18
100
AcDbEntity
  8
1
  6
Continuous
100
AcDbLine
 10
225.8273515315282
 20
451.6773283045525
 30
0.0
 11
223.3273514127846
 21
451.6773283045525
 31
0.0
  0
LINE
  5
60A
330
18
100
AcDbEntity
  8
1
  6
Continuous
100
AcDbLine
 10
299.3618792083492
 20
444.2107997264399
 30
0.0
 11
303.9476658637894
 21
448.7965863818801
 31
0.0
  0
LINE
  5
60B
330
18
100
AcDbEntity
  8
1
  6
Continuous
100
AcDbLine
 10
312.6618798400653
 20
451.7965865243724
 30
0.0
 11
302.3618793508417
 21
451.7965865243724
 31
0.0
  0
LINE
  5
60C
330
18
100
AcDbEntity
  8
1
  6
Continuous
100
AcDbLine
 10
302.3618793508417
 20
448.7965863818801
 30
0.0
 11
312.6618798400653
 21
448.7965863818801
 31
0.0
  0
ARC
  5
60D
330
18
100
AcDbEntity
  8
1
  6
Continuous
100
AcDbCircle
 10
302.3618793508417
 20
445.7965862393876
 30
0.0
 40
6.000000284984706
100
AcDbArc
 50
90.0
 51
180.0
  0
ARC
  5
60E
330
18
100
AcDbEntity
  8
1
  6
Continuous
100
AcDbCircle
 10
302.3618793508417
 20
445.7965862393876
 30
0.0
 40
3.000000142492352
100
AcDbArc
 50
90.0
 51
180.0000000000007
  0
LINE
  5
60F
330
18
100
AcDbEntity
  8
1
  6
Continuous
100
AcDbLine
 10
306.8618795645801
 20
448.7965863818801
 30
0.0
 11
306.8618795645801
 21
451.7965865243724
 31
0.0
  0
LINE
  5
610
330
18
100
AcDbEntity
  8
1
  6
Continuous
100
AcDbLine
 10
310.1618797213216
 20
451.7965865243724
 30
0.0
 11
310.1618797213216
 21
448.7965863818801
 31
0.0
  0
LINE
  5
611
330
18
100
AcDbEntity
  8
1
  6
Continuous
100
AcDbLine
 10
312.6618798400653
 20
448.7965863818801
 30
0.0
 11
312.6618798400653
 21
451.7965865243724
 31
0.0
  0
ENDSEC
  0
SECTION
  2
OBJECTS
  0
DICTIONARY
  5
C
330
0
100
AcDbDictionary
281
     1
  3
ACAD_CIP_PREVIOUS_PRODUCT_INFO
350
7DF
  3
ACAD_COLOR
350
7C2
  3
ACAD_DETAILVIEWSTYLE
350
7DB
  3
ACAD_GROUP
350
D
  3
ACAD_LAYOUT
350
94
  3
ACAD_MATERIAL
350
790
  3
ACAD_MLEADERSTYLE
350
7D7
  3
ACAD_MLINESTYLE
350
1B
  3
ACAD_PLOTSETTINGS
350
95
  3
ACAD_PLOTSTYLENAME
350
78E
  3
ACAD_SCALELIST
350
7C5
  3
ACAD_SECTIONVIEWSTYLE
350
7D9
  3
ACAD_TABLESTYLE
350
7C3
  3
ACAD_VISUALSTYLE
350
7A9
  3
ACDB_RECOMPOSE_DATA
350
7FD
  3
AcDbVariableDictionary
350
7F0
  3
CONTENTDICTIONARY
350
3D
  3
DWGPROPS
350
7FE
  0
DICTIONARY
  5
7E0
330
E
100
AcDbDictionary
280
     1
281
     1
  3
ADSK_XREC_LAYER_RECONCILED
360
7E1
  0
DICTIONARY
  5
7E2
330
4E
100
AcDbDictionary
280
     1
281
     1
  3
ADSK_XREC_LAYER_RECONCILED
360
7E3
  0
DICTIONARY
  5
7E4
330
4F
100
AcDbDictionary
280
     1
281
     1
  3
ADSK_XREC_LAYER_RECONCILED
360
7E5
  0
DICTIONARY
  5
7E6
330
50
100
AcDbDictionary
280
     1
281
     1
  3
ADSK_XREC_LAYER_RECONCILED
360
7E7
  0
DICTIONARY
  5
7E8
330
51
100
AcDbDictionary
280
     1
281
     1
  3
ADSK_XREC_LAYER_RECONCILED
360
7E9
  0
DICTIONARY
  5
7EA
330
52
100
AcDbDictionary
280
     1
281
     1
  3
ADSK_XREC_LAYER_RECONCILED
360
7EB
  0
DICTIONARY
  5
7EC
330
53
100
AcDbDictionary
280
     1
281
     1
  3
ADSK_XREC_LAYER_RECONCILED
360
7ED
  0
DICTIONARY
  5
7EE
330
54
100
AcDbDictionary
280
     1
281
     1
  3
ADSK_XREC_LAYER_RECONCILED
360
7EF
  0
DICTIONARY
  5
789
330
18
100
AcDbDictionary
281
     1
  3
ACAD_LAYOUTSELFREF
350
78A
  0
DICTIONARY
  5
787
330
15
100
AcDbDictionary
281
     1
  3
ACAD_LAYOUTSELFREF
350
788
  0
XRECORD
  5
7DF
102
{ACAD_REACTORS
330
C
102
}
330
C
100
AcDbXrecord
280
     1
300
ACDLT
300
2014
300
ACDLT_F_S
  0
DICTIONARY
  5
7C2
102
{ACAD_REACTORS
330
C
102
}
330
C
100
AcDbDictionary
281
     1
  0
DICTIONARY
  5
7DB
102
{ACAD_REACTORS
330
C
102
}
330
C
100
AcDbDictionary
281
     1
  3
Imperial24
350
7DC
  0
DICTIONARY
  5
D
102
{ACAD_REACTORS
330
C
102
}
330
C
100
AcDbDictionary
281
     1
  0
DICTIONARY
  5
94
102
{ACAD_REACTORS
330
C
102
}
330
C
100
AcDbDictionary
281
     1
  3
Model
350
7DD
  3
レイアウト1
350
7DE
  0
DICTIONARY
  5
790
102
{ACAD_REACTORS
330
C
102
}
330
C
100
AcDbDictionary
281
     1
  3
ByBlock
350
799
  3
ByLayer
350
791
  3
Global
350
7A1
  0
DICTIONARY
  5
7D7
102
{ACAD_REACTORS
330
C
102
}
330
C
100
AcDbDictionary
281
     1
  3
Standard
350
7D8
  0
DICTIONARY
  5
1B
102
{ACAD_REACTORS
330
C
102
}
330
C
100
AcDbDictionary
281
     1
  3
STANDARD
350
1C
  0
DICTIONARY
  5
95
102
{ACAD_REACTORS
330
C
102
}
330
C
100
AcDbDictionary
281
     1
  0
ACDBDICTIONARYWDFLT
  5
78E
102
{ACAD_REACTORS
330
C
102
}
330
C
100
AcDbDictionary
281
     1
  3
Normal
350
78F
100
AcDbDictionaryWithDefault
340
78F
  0
DICTIONARY
  5
7C5
102
{ACAD_REACTORS
330
C
102
}
330
C
100
AcDbDictionary
281
     1
  3
A0
350
7C6
  3
A1
350
7C7
  3
A2
350
7C8
  3
A3
350
7C9
  3
A4
350
7CA
  3
A5
350
7CB
  3
A6
350
7CC
  3
A7
350
7CD
  3
A8
350
7CE
  3
A9
350
7CF
  3
B0
350
7D0
  3
B1
350
7D1
  3
B2
350
7D2
  3
B3
350
7D3
  3
B4
350
7D4
  3
B5
350
7D5
  3
B6
350
7D6
  0
DICTIONARY
  5
7D9
102
{ACAD_REACTORS
330
C
102
}
330
C
100
AcDbDictionary
281
     1
  3
Imperial24
350
7DA
  0
DICTIONARY
  5
7C3
102
{ACAD_REACTORS
330
C
102
}
330
C
100
AcDbDictionary
281
     1
  3
Standard
350
7C4
  0
DICTIONARY
  5
7A9
102
{ACAD_REACTORS
330
C
102
}
330
C
100
AcDbDictionary
281
     1
  3
2dWireframe
350
7AF
  3
Basic
350
7AE
  3
Brighten
350
7B5
  3
ColorChange
350
7B9
  3
Conceptual
350
7B2
  3
Dim
350
7B4
  3
EdgeColorOff
350
7C1
  3
Facepattern
350
7B8
  3
Flat
350
7AA
  3
FlatWithEdges
350
7AB
  3
Gouraud
350
7AC
  3
GouraudWithEdges
350
7AD
  3
Hidden
350
7B1
  3
JitterOff
350
7BF
  3
Linepattern
350
7B7
  3
OverhangOff
350
7C0
  3
Realistic
350
7B3
  3
Shaded
350
7BE
  3
Shaded with edges
350
7BD
  3
Shades of Gray
350
7BA
  3
Sketchy
350
7BB
  3
Thicken
350
7B6
  3
Wireframe
350
7B0
  3
X-Ray
350
7BC
  0
XRECORD
  5
7FD
102
{ACAD_REACTORS
330
C
102
}
330
C
100
AcDbXrecord
280
     1
 90
        1
330
7C4
  0
DICTIONARY
  5
7F0
102
{ACAD_REACTORS
330
C
102
}
330
C
100
AcDbDictionary
281
     1
  3
CANNOSCALE
350
7F5
  3
CMLEADERSTYLE
350
7F2
  3
CTABLESTYLE
350
7F1
  3
CVIEWDETAILSTYLE
350
7F3
  3
CVIEWSECTIONSTYLE
350
7F4
  3
DIMASSOC
350
7F8
  3
INDEXCTL
350
7F7
  3
SORTENTS
350
7F6
  3
XCLIPFRAME
350
7F9
  0
DICTIONARY
  5
3D
102
{ACAD_REACTORS
330
C
102
}
330
C
100
AcDbDictionary
281
     1
  0
XRECORD
  5
7FE
102
{ACAD_REACTORS
330
C
102
}
330
C
100
AcDbXrecord
280
     1
  1
DWGPROPS COOKIE
  2

  3

  4

  6

  7

  8
Yoshitsune
  9

300
=
301
=
302
=
303
=
304
=
305
=
306
=
307
=
308
=
309
=
 40
0.0134884722222222
 41
2454173.716336979
 42
2457192.700815799
  1

 90
        0
  0
XRECORD
  5
7E1
102
{ACAD_REACTORS
330
7E0
102
}
330
7E0
100
AcDbXrecord
280
     1
290
     1
  0
XRECORD
  5
7E3
102
{ACAD_REACTORS
330
7E2
102
}
330
7E2
100
AcDbXrecord
280
     1
290
     1
  0
XRECORD
  5
7E5
102
{ACAD_REACTORS
330
7E4
102
}
330
7E4
100
AcDbXrecord
280
     1
290
     1
  0
XRECORD
  5
7E7
102
{ACAD_REACTORS
330
7E6
102
}
330
7E6
100
AcDbXrecord
280
     1
290
     1
  0
XRECORD
  5
7E9
102
{ACAD_REACTORS
330
7E8
102
}
330
7E8
100
AcDbXrecord
280
     1
290
     1
  0
XRECORD
  5
7EB
102
{ACAD_REACTORS
330
7EA
102
}
330
7EA
100
AcDbXrecord
280
     1
290
     1
  0
XRECORD
  5
7ED
102
{ACAD_REACTORS
330
7EC
102
}
330
7EC
100
AcDbXrecord
280
     1
290
     1
  0
XRECORD
  5
7EF
102
{ACAD_REACTORS
330
7EE
102
}
330
7EE
100
AcDbXrecord
280
     1
290
     1
  0
XRECORD
  5
78A
102
{ACAD_REACTORS
330
789
102
}
330
789
100
AcDbXrecord
280
     1
340
18
  0
XRECORD
  5
788
102
{ACAD_REACTORS
330
787
102
}
330
787
100
AcDbXrecord
280
     1
340
15
  0
ACDBDETAILVIEWSTYLE
  5
7DC
102
{ACAD_XDICTIONARY
360
836
102
}
102
{ACAD_REACTORS
330
7DB
102
}
330
7DB
100
AcDbModelDocViewStyle
 70
     0
  3
Imperial24
290
     0
100
AcDbDetailViewStyle
 70
     0
 71
     0
 90
        3
 71
     1
340
F
 40
0.24
340
0
 40
0.24
300

 40
0.36
280
     3
 71
     2
340
14
 90
       25
 71
     3
340
F
 40
0.24
 90
        1
 40
0.75
 90
        1
300
%<\AcVar ViewType \f "%tc1">% %<\AcVar ViewDetailId>%\PSCALE %<\AcVar ViewScale \f "%sn">%
 71
     4
340
14
 90
       25
340
14
 90
       25
280
     0
  0
LAYOUT
  5
7DD
102
{ACAD_XDICTIONARY
360
838
102
}
102
{ACAD_REACTORS
330
94
102
}
330
94
100
AcDbPlotSettings
  1

  2
Canon LBP9100C
  4

  6

 40
0.0
 41
0.0
 42
0.0
 43
0.0
 44
0.0
 45
0.0
 46
0.0
 47
0.0
 48
0.0
 49
0.0
140
0.0
141
0.0
142
1.0
143
1.0
 70
  1712
 72
     0
 73
     0
 74
     0
  7

 75
     0
147
1.0
148
0.0
149
0.0
100
AcDbLayout
  1
Model
 70
     1
 71
     0
 10
0.0
 20
0.0
 11
12.0
 21
9.0
 12
0.0
 22
0.0
 32
0.0
 14
0.0
 24
0.0
 34
0.0
 15
0.0
 25
0.0
 35
0.0
146
0.0
 13
0.0
 23
0.0
 33
0.0
 16
1.0
 26
0.0
 36
0.0
 17
0.0
 27
1.0
 37
0.0
 76
     0
330
18
331
786
  0
LAYOUT
  5
7DE
102
{ACAD_XDICTIONARY
360
83A
102
}
102
{ACAD_REACTORS
330
94
102
}
330
94
100
AcDbPlotSettings
  1

  2
Canon LBP9100C
  4

  6

 40
0.0
 41
0.0
 42
0.0
 43
0.0
 44
0.0
 45
0.0
 46
0.0
 47
0.0
 48
0.0
 49
0.0
140
0.0
141
0.0
142
1.0
143
1.0
 70
   688
 72
     0
 73
     0
 74
     5
  7

 75
    16
147
1.0
148
0.0
149
0.0
100
AcDbLayout
  1
レイアウト1
 70
     1
 71
     1
 10
0.0
 20
0.0
 11
420.0
 21
297.0
 12
0.0
 22
0.0
 32
0.0
 14
1.000000000000000E+20
 24
1.000000000000000E+20
 34
1.000000000000000E+20
 15
-1.000000000000000E+20
 25
-1.000000000000000E+20
 35
-1.000000000000000E+20
146
0.0
 13
0.0
 23
0.0
 33
0.0
 16
1.0
 26
0.0
 36
0.0
 17
0.0
 27
1.0
 37
0.0
 76
     0
330
15
  0
MATERIAL
  5
799
102
{ACAD_XDICTIONARY
360
79A
102
}
102
{ACAD_REACTORS
330
790
102
}
330
790
100
AcDbMaterial
  1
ByBlock
 72
     0
 43
0.0208333333333333
 43
0.0
 43
0.0
 43
0.0
 43
0.0
 43
0.0208333333333333
 43
0.0
 43
0.0
 43
0.0
 43
0.0
 43
1.0
 43
0.0
 43
0.0
 43
0.0
 43
0.0
 43
1.0
 77
     0
 47
0.0208333333333333
 47
0.0
 47
0.0
 47
0.0
 47
0.0
 47
0.0208333333333333
 47
0.0
 47
0.0
 47
0.0
 47
0.0
 47
1.0
 47
0.0
 47
0.0
 47
0.0
 47
0.0
 47
1.0
171
     0
 49
0.0208333333333333
 49
0.0
 49
0.0
 49
0.0
 49
0.0
 49
0.0208333333333333
 49
0.0
 49
0.0
 49
0.0
 49
0.0
 49
1.0
 49
0.0
 49
0.0
 49
0.0
 49
0.0
 49
1.0
175
     0
142
0.0208333333333333
142
0.0
142
0.0
142
0.0
142
0.0
142
0.0208333333333333
142
0.0
142
0.0
142
0.0
142
0.0
142
1.0
142
0.0
142
0.0
142
0.0
142
0.0
142
1.0
179
     0
144
0.0208333333333333
144
0.0
144
0.0
144
0.0
144
0.0
144
0.0208333333333333
144
0.0
144
0.0
144
0.0
144
0.0
144
1.0
144
0.0
144
0.0
144
0.0
144
0.0
144
1.0
147
0.0208333333333333
147
0.0
147
0.0
147
0.0
147
0.0
147
0.0208333333333333
147
0.0
147
0.0
147
0.0
147
0.0
147
1.0
147
0.0
147
0.0
147
0.0
147
0.0
147
1.0
  0
MATERIAL
  5
791
102
{ACAD_XDICTIONARY
360
792
102
}
102
{ACAD_REACTORS
330
790
102
}
330
790
100
AcDbMaterial
  1
ByLayer
 72
     0
 43
0.0208333333333333
 43
0.0
 43
0.0
 43
0.0
 43
0.0
 43
0.0208333333333333
 43
0.0
 43
0.0
 43
0.0
 43
0.0
 43
1.0
 43
0.0
 43
0.0
 43
0.0
 43
0.0
 43
1.0
 77
     0
 47
0.0208333333333333
 47
0.0
 47
0.0
 47
0.0
 47
0.0
 47
0.0208333333333333
 47
0.0
 47
0.0
 47
0.0
 47
0.0
 47
1.0
 47
0.0
 47
0.0
 47
0.0
 47
0.0
 47
1.0
171
     0
 49
0.0208333333333333
 49
0.0
 49
0.0
 49
0.0
 49
0.0
 49
0.0208333333333333
 49
0.0
 49
0.0
 49
0.0
 49
0.0
 49
1.0
 49
0.0
 49
0.0
 49
0.0
 49
0.0
 49
1.0
175
     0
142
0.0208333333333333
142
0.0
142
0.0
142
0.0
142
0.0
142
0.0208333333333333
142
0.0
142
0.0
142
0.0
142
0.0
142
1.0
142
0.0
142
0.0
142
0.0
142
0.0
142
1.0
179
     0
144
0.0208333333333333
144
0.0
144
0.0
144
0.0
144
0.0
144
0.0208333333333333
144
0.0
144
0.0
144
0.0
144
0.0
144
1.0
144
0.0
144
0.0
144
0.0
144
0.0
144
1.0
147
0.0208333333333333
147
0.0
147
0.0
147
0.0
147
0.0
147
0.0208333333333333
147
0.0
147
0.0
147
0.0
147
0.0
147
1.0
147
0.0
147
0.0
147
0.0
147
0.0
147
1.0
  0
MATERIAL
  5
7A1
102
{ACAD_XDICTIONARY
360
7A2
102
}
102
{ACAD_REACTORS
330
790
102
}
330
790
100
AcDbMaterial
  1
Global
 72
     0
 43
0.0208333333333333
 43
0.0
 43
0.0
 43
0.0
 43
0.0
 43
0.0208333333333333
 43
0.0
 43
0.0
 43
0.0
 43
0.0
 43
1.0
 43
0.0
 43
0.0
 43
0.0
 43
0.0
 43
1.0
 77
     0
 47
0.0208333333333333
 47
0.0
 47
0.0
 47
0.0
 47
0.0
 47
0.0208333333333333
 47
0.0
 47
0.0
 47
0.0
 47
0.0
 47
1.0
 47
0.0
 47
0.0
 47
0.0
 47
0.0
 47
1.0
171
     0
 49
0.0208333333333333
 49
0.0
 49
0.0
 49
0.0
 49
0.0
 49
0.0208333333333333
 49
0.0
 49
0.0
 49
0.0
 49
0.0
 49
1.0
 49
0.0
 49
0.0
 49
0.0
 49
0.0
 49
1.0
175
     0
142
0.0208333333333333
142
0.0
142
0.0
142
0.0
142
0.0
142
0.0208333333333333
142
0.0
142
0.0
142
0.0
142
0.0
142
1.0
142
0.0
142
0.0
142
0.0
142
0.0
142
1.0
179
     0
144
0.0208333333333333
144
0.0
144
0.0
144
0.0
144
0.0
144
0.0208333333333333
144
0.0
144
0.0
144
0.0
144
0.0
144
1.0
144
0.0
144
0.0
144
0.0
144
0.0
144
1.0
147
0.0208333333333333
147
0.0
147
0.0
147
0.0
147
0.0
147
0.0208333333333333
147
0.0
147
0.0
147
0.0
147
0.0
147
1.0
147
0.0
147
0.0
147
0.0
147
0.0
147
1.0
  0
MLEADERSTYLE
  5
7D8
102
{ACAD_REACTORS
330
7D7
102
}
330
7D7
100
AcDbMLeaderStyle
170
     2
171
     1
172
     0
 90
        2
 40
0.0
 41
0.0
173
     1
 91
-1056964608
340
12
 92
       -2
290
     1
 42
0.09
291
     1
 43
0.36
  3
Standard
 44
0.18
300

342
F
174
     1
178
     6
175
     1
176
     0
 93
-1056964608
 45
0.18
292
     0
297
     0
 46
0.18
 94
-1056964608
 47
1.0
 49
1.0
140
1.0
293
     1
141
0.0
294
     1
177
     0
142
1.0
295
     0
296
     0
143
0.125
1001
ACAD_MLEADERVER
1070
     2
  0
MLINESTYLE
  5
1C
102
{ACAD_REACTORS
330
1B
102
}
330
1B
100
AcDbMlineStyle
  2
STANDARD
 70
     0
  3

 62
   256
 51
90.0
 52
90.0
 71
     2
 49
0.5
 62
   256
  6
BYLAYER
 49
-0.5
 62
   256
  6
BYLAYER
  0
ACDBPLACEHOLDER
  5
78F
102
{ACAD_REACTORS
330
78E
102
}
330
78E
  0
SCALE
  5
7C6
102
{ACAD_REACTORS
330
7C5
102
}
330
7C5
100
AcDbScale
 70
     0
300
1:1
140
1.0
141
1.0
290
     1
  0
SCALE
  5
7C7
102
{ACAD_REACTORS
330
7C5
102
}
330
7C5
100
AcDbScale
 70
     0
300
1/128" = 1'-0"
140
0.0078125
141
12.0
290
     0
  0
SCALE
  5
7C8
102
{ACAD_REACTORS
330
7C5
102
}
330
7C5
100
AcDbScale
 70
     0
300
1/64" = 1'-0"
140
0.015625
141
12.0
290
     0
  0
SCALE
  5
7C9
102
{ACAD_REACTORS
330
7C5
102
}
330
7C5
100
AcDbScale
 70
     0
300
1/32" = 1'-0"
140
0.03125
141
12.0
290
     0
  0
SCALE
  5
7CA
102
{ACAD_REACTORS
330
7C5
102
}
330
7C5
100
AcDbScale
 70
     0
300
1/16" = 1'-0"
140
0.0625
141
12.0
290
     0
  0
SCALE
  5
7CB
102
{ACAD_REACTORS
330
7C5
102
}
330
7C5
100
AcDbScale
 70
     0
300
3/32" = 1'-0"
140
0.09375
141
12.0
290
     0
  0
SCALE
  5
7CC
102
{ACAD_REACTORS
330
7C5
102
}
330
7C5
100
AcDbScale
 70
     0
300
1/8" = 1'-0"
140
0.125
141
12.0
290
     0
  0
SCALE
  5
7CD
102
{ACAD_REACTORS
330
7C5
102
}
330
7C5
100
AcDbScale
 70
     0
300
3/16" = 1'-0"
140
0.1875
141
12.0
290
     0
  0
SCALE
  5
7CE
102
{ACAD_REACTORS
330
7C5
102
}
330
7C5
100
AcDbScale
 70
     0
300
1/4" = 1'-0"
140
0.25
141
12.0
290
     0
  0
SCALE
  5
7CF
102
{ACAD_REACTORS
330
7C5
102
}
330
7C5
100
AcDbScale
 70
     0
300
3/8" = 1'-0"
140
0.375
141
12.0
290
     0
  0
SCALE
  5
7D0
102
{ACAD_REACTORS
330
7C5
102
}
330
7C5
100
AcDbScale
 70
     0
300
1/2" = 1'-0"
140
0.5
141
12.0
290
     0
  0
SCALE
  5
7D1
102
{ACAD_REACTORS
330
7C5
102
}
330
7C5
100
AcDbScale
 70
     0
300
3/4" = 1'-0"
140
0.75
141
12.0
290
     0
  0
SCALE
  5
7D2
102
{ACAD_REACTORS
330
7C5
102
}
330
7C5
100
AcDbScale
 70
     0
300
1" = 1'-0"
140
1.0
141
12.0
290
     0
  0
SCALE
  5
7D3
102
{ACAD_REACTORS
330
7C5
102
}
330
7C5
100
AcDbScale
 70
     0
300
1-1/2" = 1'-0"
140
1.5
141
12.0
290
     0
  0
SCALE
  5
7D4
102
{ACAD_REACTORS
330
7C5
102
}
330
7C5
100
AcDbScale
 70
     0
300
3" = 1'-0"
140
3.0
141
12.0
290
     0
  0
SCALE
  5
7D5
102
{ACAD_REACTORS
330
7C5
102
}
330
7C5
100
AcDbScale
 70
     0
300
6" = 1'-0"
140
6.0
141
12.0
290
     0
  0
SCALE
  5
7D6
102
{ACAD_REACTORS
330
7C5
102
}
330
7C5
100
AcDbScale
 70
     0
300
1'-0" = 1'-0"
140
12.0
141
12.0
290
     0
  0
ACDBSECTIONVIEWSTYLE
  5
7DA
102
{ACAD_XDICTIONARY
360
834
102
}
102
{ACAD_REACTORS
330
7D9
102
}
330
7D9
100
AcDbModelDocViewStyle
 70
     0
  3
Imperial24
290
     0
100
AcDbSectionViewStyle
 70
     0
 71
     0
 90
       78
 71
     1
340
F
 40
0.24
340
0
340
0
 40
0.24
300
I, O, Q, S, X, Z
 40
0.48
 90
        3
 40
0.18
 90
        1
 71
     2
340
14
 90
       25
340
14
 90
       50
 40
0.24
 40
0.0
 40
0.24
 71
     3
340
F
 40
0.24
 90
        1
 40
0.75
 90
        1
300
%<\AcVar ViewType \f "%tc1">% %<\AcVar ViewSectionStartId>%-%<\AcVar ViewSectionEndId>%\PSCALE %<\AcVar ViewScale \f "%sn">%
 71
     4
300
ANSI31
 40
1.0
 90
        0
290
     0
290
     0
 90
        6
 40
0.0
 40
1.570796326794896
 40
0.2617993877991494
 40
1.308996938995747
 40
-0.2617993877991494
 40
1.832595714594046
  0
TABLESTYLE
  5
7C4
102
{ACAD_XDICTIONARY
360
7FB
102
}
102
{ACAD_REACTORS
330
7C3
102
}
330
7C3
100
AcDbTableStyle
  3
Standard
 70
     0
 71
     0
 40
0.06
 41
0.06
280
     0
281
     0
  7
STANDARD
140
0.18
170
     2
 62
     0
 63
     7
283
     0
274
    -2
284
     1
 64
     0
275
    -2
285
     1
 65
     0
276
    -2
286
     1
 66
     0
277
    -2
287
     1
 67
     0
278
    -2
288
     1
 68
     0
279
    -2
289
     1
 69
     0
  7
STANDARD
140
0.25
170
     5
 62
     0
 63
     7
283
     0
274
    -2
284
     1
 64
     0
275
    -2
285
     1
 65
     0
276
    -2
286
     1
 66
     0
277
    -2
287
     1
 67
     0
278
    -2
288
     1
 68
     0
279
    -2
289
     1
 69
     0
  7
STANDARD
140
0.18
170
     5
 62
     0
 63
     7
283
     0
274
    -2
284
     1
 64
     0
275
    -2
285
     1
 65
     0
276
    -2
286
     1
 66
     0
277
    -2
287
     1
 67
     0
278
    -2
288
     1
 68
     0
279
    -2
289
     1
 69
     0
  0
VISUALSTYLE
  5
7AF
102
{ACAD_XDICTIONARY
360
80C
102
}
102
{ACAD_REACTORS
330
7A9
102
}
330
7A9
100
AcDbVisualStyle
  2
2dWireframe
 70
     4
 71
     0
 72
     2
 73
     0
 90
        0
 40
-0.6
 41
-30.0
 62
     5
 63
     7
 74
     1
 91
        4
 64
     7
 65
   257
 75
     1
175
     1
 42
1.0
 92
        0
 66
   257
 43
1.0
 76
     1
 77
     6
 78
     2
 67
     7
 79
     5
170
     0
171
     0
290
     0
174
     0
 93
        1
 44
0.0
173
     0
291
     0
 45
0.0
1001
ACAD
1000
AcDbSavedByObjectVersion
1070
     0
  0
VISUALSTYLE
  5
7AE
102
{ACAD_XDICTIONARY
360
80A
102
}
102
{ACAD_REACTORS
330
7A9
102
}
330
7A9
100
AcDbVisualStyle
  2
Basic
 70
     7
 71
     1
 72
     0
 73
     1
 90
        0
 40
-0.6
 41
-30.0
 62
     5
 63
     7
 74
     0
 91
        4
 64
     7
 65
   257
 75
     1
175
     1
 42
1.0
 92
        8
 66
     7
 43
1.0
 76
     1
 77
     6
 78
     2
 67
     7
 79
     5
170
     0
171
     0
290
     0
174
     0
 93
        1
 44
0.0
173
     0
291
     1
 45
0.0
1001
ACAD
1000
AcDbSavedByObjectVersion
1070
     0
  0
VISUALSTYLE
  5
7B5
102
{ACAD_XDICTIONARY
360
818
102
}
102
{ACAD_REACTORS
330
7A9
102
}
330
7A9
100
AcDbVisualStyle
  2
Brighten
 70
    12
 71
     2
 72
     2
 73
     0
 90
        0
 40
-0.6
 41
-30.0
 62
     5
 63
     7
 74
     1
 91
        4
 64
     7
 65
   257
 75
     1
175
     1
 42
1.0
 92
        8
 66
     7
 43
1.0
 76
     1
 77
     6
 78
     2
 67
     7
 79
     5
170
     0
171
     0
290
     0
174
     0
 93
        1
 44
50.0
173
     0
291
     1
 45
0.0
1001
ACAD
1000
AcDbSavedByObjectVersion
1070
     0
  0
VISUALSTYLE
  5
7B9
102
{ACAD_XDICTIONARY
360
820
102
}
102
{ACAD_REACTORS
330
7A9
102
}
330
7A9
100
AcDbVisualStyle
  2
ColorChange
 70
    16
 71
     2
 72
     2
 73
     3
 90
        0
 40
-0.6
 41
-30.0
 62
     5
 63
     8
 74
     1
 91
        4
 64
     7
 65
   257
 75
     1
175
     1
 42
1.0
 92
        8
 66
     8
 43
1.0
 76
     1
 77
     6
 78
     2
 67
     7
 79
     5
170
     0
171
     0
290
     0
174
     0
 93
        1
 44
0.0
173
     0
291
     1
 45
0.0
1001
ACAD
1000
AcDbSavedByObjectVersion
1070
     0
  0
VISUALSTYLE
  5
7B2
102
{ACAD_XDICTIONARY
360
812
102
}
102
{ACAD_REACTORS
330
7A9
102
}
330
7A9
100
AcDbVisualStyle
  2
Conceptual
 70
     9
 71
     3
 72
     2
 73
     0
 90
        0
 40
-0.6
 41
-30.0
 62
     5
 63
     7
 74
     2
 91
        2
 64
     7
 65
   257
 75
     1
175
     1
 42
179.0
 92
        8
 66
     7
 43
1.0
 76
     1
 77
     6
 78
     2
 67
     7
 79
     3
170
     0
171
     0
290
     0
174
     0
 93
        1
 44
0.0
173
     0
291
     0
 45
0.0
1001
ACAD
1000
AcDbSavedByObjectVersion
1070
     0
  0
VISUALSTYLE
  5
7B4
102
{ACAD_XDICTIONARY
360
816
102
}
102
{ACAD_REACTORS
330
7A9
102
}
330
7A9
100
AcDbVisualStyle
  2
Dim
 70
    11
 71
     2
 72
     2
 73
     0
 90
        0
 40
-0.6
 41
-30.0
 62
     5
 63
     7
 74
     1
 91
        4
 64
     7
 65
   257
 75
     1
175
     1
 42
1.0
 92
        8
 66
     7
 43
1.0
 76
     1
 77
     6
 78
     2
 67
     7
 79
     5
170
     0
171
     0
290
     0
174
     0
 93
        1
 44
-50.0
173
     0
291
     1
 45
0.0
1001
ACAD
1000
AcDbSavedByObjectVersion
1070
     0
  0
VISUALSTYLE
  5
7C1
102
{ACAD_XDICTIONARY
360
830
102
}
102
{ACAD_REACTORS
330
7A9
102
}
330
7A9
100
AcDbVisualStyle
  2
EdgeColorOff
 70
    22
 71
     2
 72
     2
 73
     0
 90
        0
 40
-0.6
 41
-30.0
 62
     5
 63
     7
 74
     1
 91
        4
 64
     7
 65
   257
 75
     1
175
     1
 42
1.0
 92
        8
 66
     7
 43
1.0
 76
     1
 77
     6
 78
     2
 67
     7
 79
     5
170
     0
171
     0
290
     0
174
     0
 93
        1
 44
0.0
173
     0
291
     1
 45
0.0
1001
ACAD
1000
AcDbSavedByObjectVersion
1070
     0
  0
VISUALSTYLE
  5
7B8
102
{ACAD_XDICTIONARY
360
81E
102
}
102
{ACAD_REACTORS
330
7A9
102
}
330
7A9
100
AcDbVisualStyle
  2
Facepattern
 70
    15
 71
     2
 72
     2
 73
     0
 90
        0
 40
-0.6
 41
-30.0
 62
     5
 63
     7
 74
     1
 91
        4
 64
     7
 65
   257
 75
     1
175
     1
 42
1.0
 92
        8
 66
     7
 43
1.0
 76
     1
 77
     6
 78
     2
 67
     7
 79
     5
170
     0
171
     0
290
     0
174
     0
 93
        1
 44
0.0
173
     0
291
     1
 45
0.0
1001
ACAD
1000
AcDbSavedByObjectVersion
1070
     0
  0
VISUALSTYLE
  5
7AA
102
{ACAD_XDICTIONARY
360
802
102
}
102
{ACAD_REACTORS
330
7A9
102
}
330
7A9
100
AcDbVisualStyle
  2
Flat
 70
     0
 71
     2
 72
     1
 73
     1
 90
        2
 40
-0.6
 41
30.0
 62
     5
 63
     7
 74
     0
 91
        0
 64
     7
 65
   257
 75
     1
175
     1
 42
1.0
 92
        8
 66
     7
 43
1.0
 76
     1
 77
     6
 78
     2
 67
     7
 79
     5
170
     0
171
     0
290
     0
174
     0
 93
       13
 44
0.0
173
     0
291
     1
 45
0.0
1001
ACAD
1000
AcDbSavedByObjectVersion
1070
     0
  0
VISUALSTYLE
  5
7AB
102
{ACAD_XDICTIONARY
360
804
102
}
102
{ACAD_REACTORS
330
7A9
102
}
330
7A9
100
AcDbVisualStyle
  2
FlatWithEdges
 70
     1
 71
     2
 72
     1
 73
     1
 90
        2
 40
-0.6
 41
30.0
 62
     5
 63
     7
 74
     1
 91
        0
 64
     7
 65
   257
 75
     1
175
     1
 42
1.0
 92
        0
 66
   257
 43
1.0
 76
     1
 77
     6
 78
     2
 67
     7
 79
     5
170
     0
171
     0
290
     0
174
     0
 93
       13
 44
0.0
173
     0
291
     1
 45
0.0
1001
ACAD
1000
AcDbSavedByObjectVersion
1070
     0
  0
VISUALSTYLE
  5
7AC
102
{ACAD_XDICTIONARY
360
806
102
}
102
{ACAD_REACTORS
330
7A9
102
}
330
7A9
100
AcDbVisualStyle
  2
Gouraud
 70
     2
 71
     2
 72
     2
 73
     1
 90
        2
 40
-0.6
 41
30.0
 62
     5
 63
     7
 74
     0
 91
        0
 64
     7
 65
   257
 75
     1
175
     1
 42
1.0
 92
        0
 66
     7
 43
1.0
 76
     1
 77
     6
 78
     2
 67
     7
 79
     5
170
     0
171
     0
290
     0
174
     0
 93
       13
 44
0.0
173
     0
291
     1
 45
0.0
1001
ACAD
1000
AcDbSavedByObjectVersion
1070
     0
  0
VISUALSTYLE
  5
7AD
102
{ACAD_XDICTIONARY
360
808
102
}
102
{ACAD_REACTORS
330
7A9
102
}
330
7A9
100
AcDbVisualStyle
  2
GouraudWithEdges
 70
     3
 71
     2
 72
     2
 73
     1
 90
        2
 40
-0.6
 41
30.0
 62
     5
 63
     7
 74
     1
 91
        0
 64
     7
 65
   257
 75
     1
175
     1
 42
1.0
 92
        0
 66
   257
 43
1.0
 76
     1
 77
     6
 78
     2
 67
     7
 79
     5
170
     0
171
     0
290
     0
174
     0
 93
       13
 44
0.0
173
     0
291
     1
 45
0.0
1001
ACAD
1000
AcDbSavedByObjectVersion
1070
     0
  0
VISUALSTYLE
  5
7B1
102
{ACAD_XDICTIONARY
360
810
102
}
102
{ACAD_REACTORS
330
7A9
102
}
330
7A9
100
AcDbVisualStyle
  2
Hidden
 70
     6
 71
     1
 72
     2
 73
     2
 90
        0
 40
-0.6
 41
-30.0
 62
     5
 63
     7
 74
     2
 91
        2
 64
     7
 65
   257
 75
     2
175
     1
 42
40.0
 92
        0
 66
   257
 43
1.0
 76
     1
 77
     6
 78
     2
 67
     7
 79
     3
170
     0
171
     0
290
     0
174
     0
 93
        1
 44
0.0
173
     0
291
     0
 45
0.0
1001
ACAD
1000
AcDbSavedByObjectVersion
1070
     0
  0
VISUALSTYLE
  5
7BF
102
{ACAD_XDICTIONARY
360
82C
102
}
102
{ACAD_REACTORS
330
7A9
102
}
330
7A9
100
AcDbVisualStyle
  2
JitterOff
 70
    20
 71
     2
 72
     2
 73
     0
 90
        0
 40
-0.6
 41
-30.0
 62
     5
 63
     7
 74
     1
 91
        4
 64
     7
 65
   257
 75
     1
175
     1
 42
1.0
 92
       10
 66
     7
 43
1.0
 76
     1
 77
     6
 78
     2
 67
     7
 79
     5
170
     0
171
     0
290
     0
174
     0
 93
        1
 44
0.0
173
     0
291
     1
 45
0.0
1001
ACAD
1000
AcDbSavedByObjectVersion
1070
     0
  0
VISUALSTYLE
  5
7B7
102
{ACAD_XDICTIONARY
360
81C
102
}
102
{ACAD_REACTORS
330
7A9
102
}
330
7A9
100
AcDbVisualStyle
  2
Linepattern
 70
    14
 71
     2
 72
     2
 73
     0
 90
        0
 40
-0.6
 41
-30.0
 62
     5
 63
     7
 74
     1
 91
        4
 64
     7
 65
   257
 75
     7
175
     7
 42
1.0
 92
        8
 66
     7
 43
1.0
 76
     1
 77
     6
 78
     2
 67
     7
 79
     5
170
     0
171
     0
290
     0
174
     0
 93
        1
 44
0.0
173
     0
291
     1
 45
0.0
1001
ACAD
1000
AcDbSavedByObjectVersion
1070
     0
  0
VISUALSTYLE
  5
7C0
102
{ACAD_XDICTIONARY
360
82E
102
}
102
{ACAD_REACTORS
330
7A9
102
}
330
7A9
100
AcDbVisualStyle
  2
OverhangOff
 70
    21
 71
     2
 72
     2
 73
     0
 90
        0
 40
-0.6
 41
-30.0
 62
     5
 63
     7
 74
     1
 91
        4
 64
     7
 65
   257
 75
     1
175
     1
 42
1.0
 92
        9
 66
     7
 43
1.0
 76
     1
 77
     6
 78
     2
 67
     7
 79
     5
170
     0
171
     0
290
     0
174
     0
 93
        1
 44
0.0
173
     0
291
     1
 45
0.0
1001
ACAD
1000
AcDbSavedByObjectVersion
1070
     0
  0
VISUALSTYLE
  5
7B3
102
{ACAD_XDICTIONARY
360
814
102
}
102
{ACAD_REACTORS
330
7A9
102
}
330
7A9
100
AcDbVisualStyle
  2
Realistic
 70
     8
 71
     2
 72
     3
 73
     0
 90
        2
 40
-0.6
 41
30.0
 62
     5
 63
     7
 74
     0
 91
        0
 64
     7
 65
   257
 75
     1
175
     1
 42
1.0
 92
        8
 66
   257
 43
1.0
 76
     1
 77
     6
 78
     2
 67
     7
 79
     3
170
     0
171
     0
290
     0
174
     0
 93
       13
 44
0.0
173
     0
291
     0
 45
0.0
1001
ACAD
1000
AcDbSavedByObjectVersion
1070
     0
  0
VISUALSTYLE
  5
7BE
102
{ACAD_XDICTIONARY
360
82A
102
}
102
{ACAD_REACTORS
330
7A9
102
}
330
7A9
100
AcDbVisualStyle
  2
Shaded
 70
    27
 71
     2
 72
     2
 73
     1
 90
        2
 40
-0.6
 41
30.0
 62
     5
 63
     7
 74
     0
 91
        4
 64
     7
 65
   257
 75
     1
175
     1
 42
1.0
 92
        8
 66
   257
 43
1.0
 76
     1
 77
     6
 78
     2
 67
     8
 79
     3
170
     0
171
     0
290
     0
174
     0
 93
        5
 44
0.0
173
     0
291
     0
 45
0.0
1001
ACAD
1000
AcDbSavedByObjectVersion
1070
     0
  0
VISUALSTYLE
  5
7BD
102
{ACAD_XDICTIONARY
360
828
102
}
102
{ACAD_REACTORS
330
7A9
102
}
330
7A9
100
AcDbVisualStyle
  2
Shaded with edges
 70
    26
 71
     2
 72
     2
 73
     1
 90
        2
 40
-0.6
 41
30.0
 62
     5
 63
     7
 74
     1
 91
       10
 64
     7
 65
   257
 75
     2
175
     1
 42
1.0
 92
        8
 66
   257
 43
1.0
 76
     1
 77
     6
 78
     2
 67
     7
 79
     3
170
     0
171
     0
290
     0
174
     0
 93
        5
 44
0.0
173
     0
291
     0
 45
0.0
1001
ACAD
1000
AcDbSavedByObjectVersion
1070
     0
  0
VISUALSTYLE
  5
7BA
102
{ACAD_XDICTIONARY
360
822
102
}
102
{ACAD_REACTORS
330
7A9
102
}
330
7A9
100
AcDbVisualStyle
  2
Shades of Gray
 70
    23
 71
     2
 72
     2
 73
     3
 90
        0
 40
-0.6
 41
-30.0
 62
     5
 63
     7
 74
     2
 91
        2
 64
     7
 65
     7
 75
     1
175
     1
 42
40.0
 92
        8
 66
     7
 43
1.0
 76
     1
 77
     6
 78
     2
 67
     7
 79
     3
170
     0
171
     0
290
     0
174
     0
 93
        1
 44
0.0
173
     0
291
     0
 45
0.0
1001
ACAD
1000
AcDbSavedByObjectVersion
1070
     0
  0
VISUALSTYLE
  5
7BB
102
{ACAD_XDICTIONARY
360
824
102
}
102
{ACAD_REACTORS
330
7A9
102
}
330
7A9
100
AcDbVisualStyle
  2
Sketchy
 70
    24
 71
     1
 72
     2
 73
     2
 90
        0
 40
-0.6
 41
-30.0
 62
     5
 63
     7
 74
     2
 91
        2
 64
     7
 65
     7
 75
     1
175
     1
 42
40.0
 92
       11
 66
     7
 43
1.0
 76
     1
 77
     6
 78
     2
 67
     7
 79
     6
170
     0
171
     0
290
     0
174
     0
 93
        1
 44
0.0
173
     0
291
     0
 45
0.0
1001
ACAD
1000
AcDbSavedByObjectVersion
1070
     0
  0
VISUALSTYLE
  5
7B6
102
{ACAD_XDICTIONARY
360
81A
102
}
102
{ACAD_REACTORS
330
7A9
102
}
330
7A9
100
AcDbVisualStyle
  2
Thicken
 70
    13
 71
     2
 72
     2
 73
     0
 90
        0
 40
-0.6
 41
-30.0
 62
     5
 63
     7
 74
     1
 91
        4
 64
     7
 65
   257
 75
     1
175
     1
 42
1.0
 92
       12
 66
     7
 43
1.0
 76
     1
 77
     6
 78
     2
 67
     7
 79
     5
170
     0
171
     0
290
     0
174
     0
 93
        1
 44
0.0
173
     0
291
     1
 45
0.0
1001
ACAD
1000
AcDbSavedByObjectVersion
1070
     0
  0
VISUALSTYLE
  5
7B0
102
{ACAD_XDICTIONARY
360
80E
102
}
102
{ACAD_REACTORS
330
7A9
102
}
330
7A9
100
AcDbVisualStyle
  2
Wireframe
 70
     5
 71
     0
 72
     2
 73
     0
 90
        0
 40
-0.6
 41
-30.0
 62
     5
 63
     7
 74
     1
 91
        4
 64
     7
 65
   257
 75
     1
175
     1
 42
1.0
 92
        0
 66
   257
 43
1.0
 76
     1
 77
     6
 78
     2
 67
     7
 79
     3
170
     0
171
     0
290
     0
174
     0
 93
        1
 44
0.0
173
     0
291
     0
 45
0.0
1001
ACAD
1000
AcDbSavedByObjectVersion
1070
     0
  0
VISUALSTYLE
  5
7BC
102
{ACAD_XDICTIONARY
360
826
102
}
102
{ACAD_REACTORS
330
7A9
102
}
330
7A9
100
AcDbVisualStyle
  2
X-Ray
 70
    25
 71
     2
 72
     2
 73
     1
 90
        1
 40
0.5
 41
-30.0
 62
     5
 63
     7
 74
     1
 91
        0
 64
     7
 65
   257
 75
     1
175
     1
 42
1.0
 92
        8
 66
     7
 43
1.0
 76
     1
 77
     6
 78
     2
 67
     7
 79
     3
170
     0
171
     0
290
     0
174
     0
 93
       13
 44
0.0
173
     0
291
     0
 45
0.0
1001
ACAD
1000
AcDbSavedByObjectVersion
1070
     0
  0
DICTIONARYVAR
  5
7F5
102
{ACAD_REACTORS
330
7F0
102
}
330
7F0
100
DictionaryVariables
280
     0
  1
1:1
  0
DICTIONARYVAR
  5
7F2
102
{ACAD_REACTORS
330
7F0
102
}
330
7F0
100
DictionaryVariables
280
     0
  1
STANDARD
  0
DICTIONARYVAR
  5
7F1
102
{ACAD_REACTORS
330
7F0
102
}
330
7F0
100
DictionaryVariables
280
     0
  1
STANDARD
  0
DICTIONARYVAR
  5
7F3
102
{ACAD_REACTORS
330
7F0
102
}
330
7F0
100
DictionaryVariables
280
     0
  1
Imperial24
  0
DICTIONARYVAR
  5
7F4
102
{ACAD_REACTORS
330
7F0
102
}
330
7F0
100
DictionaryVariables
280
     0
  1
Imperial24
  0
DICTIONARYVAR
  5
7F8
102
{ACAD_REACTORS
330
7F0
102
}
330
7F0
100
DictionaryVariables
280
     0
  1
1
  0
DICTIONARYVAR
  5
7F7
102
{ACAD_REACTORS
330
7F0
102
}
330
7F0
100
DictionaryVariables
280
     0
  1
0
  0
DICTIONARYVAR
  5
7F6
102
{ACAD_REACTORS
330
7F0
102
}
330
7F0
100
DictionaryVariables
280
     0
  1
127
  0
DICTIONARYVAR
  5
7F9
102
{ACAD_REACTORS
330
7F0
102
}
330
7F0
100
DictionaryVariables
280
     0
  1
2
  0
DICTIONARY
  5
836
330
7DC
100
AcDbDictionary
280
     1
281
     1
  3
ACAD_XREC_ROUNDTRIP
360
837
  0
DICTIONARY
  5
838
330
7DD
100
AcDbDictionary
280
     1
281
     1
  3
ACAD_XREC_ROUNDTRIP
360
839
  0
DICTIONARY
  5
83A
330
7DE
100
AcDbDictionary
280
     1
281
     1
  3
ACAD_XREC_ROUNDTRIP
360
83B
  0
DICTIONARY
  5
79A
330
799
100
AcDbDictionary
280
     1
281
     1
  3
ACAD_XREC_ROUNDTRIP
360
800
  3
BUMPTILE
360
79C
  3
DIFFUSETILE
360
79B
  3
OPACITYTILE
360
79F
  3
REFLECTIONTILE
360
79E
  3
REFRACTIONTILE
360
7A0
  3
SPECULARTILE
360
79D
  0
DICTIONARY
  5
792
330
791
100
AcDbDictionary
280
     1
281
     1
  3
ACAD_XREC_ROUNDTRIP
360
7FF
  3
BUMPTILE
360
794
  3
DIFFUSETILE
360
793
  3
OPACITYTILE
360
797
  3
REFLECTIONTILE
360
796
  3
REFRACTIONTILE
360
798
  3
SPECULARTILE
360
795
  0
DICTIONARY
  5
7A2
330
7A1
100
AcDbDictionary
280
     1
281
     1
  3
ACAD_XREC_ROUNDTRIP
360
801
  3
BUMPTILE
360
7A4
  3
DIFFUSETILE
360
7A3
  3
OPACITYTILE
360
7A7
  3
REFLECTIONTILE
360
7A6
  3
REFRACTIONTILE
360
7A8
  3
SPECULARTILE
360
7A5
  0
DICTIONARY
  5
834
330
7DA
100
AcDbDictionary
280
     1
281
     1
  3
ACAD_XREC_ROUNDTRIP
360
835
  0
DICTIONARY
  5
7FB
330
7C4
100
AcDbDictionary
280
     1
281
     1
  3
ACAD_ROUNDTRIP_2008_TABLESTYLE_CELLSTYLEMAP
360
7FC
  3
ACAD_XREC_ROUNDTRIP
360
832
  0
DICTIONARY
  5
80C
330
7AF
100
AcDbDictionary
280
     1
281
     1
  3
ACAD_XREC_ROUNDTRIP
360
80D
  0
DICTIONARY
  5
80A
330
7AE
100
AcDbDictionary
280
     1
281
     1
  3
ACAD_XREC_ROUNDTRIP
360
80B
  0
DICTIONARY
  5
818
330
7B5
100
AcDbDictionary
280
     1
281
     1
  3
ACAD_XREC_ROUNDTRIP
360
819
  0
DICTIONARY
  5
820
330
7B9
100
AcDbDictionary
280
     1
281
     1
  3
ACAD_XREC_ROUNDTRIP
360
821
  0
DICTIONARY
  5
812
330
7B2
100
AcDbDictionary
280
     1
281
     1
  3
ACAD_XREC_ROUNDTRIP
360
813
  0
DICTIONARY
  5
816
330
7B4
100
AcDbDictionary
280
     1
281
     1
  3
ACAD_XREC_ROUNDTRIP
360
817
  0
DICTIONARY
  5
830
330
7C1
100
AcDbDictionary
280
     1
281
     1
  3
ACAD_XREC_ROUNDTRIP
360
831
  0
DICTIONARY
  5
81E
330
7B8
100
AcDbDictionary
280
     1
281
     1
  3
ACAD_XREC_ROUNDTRIP
360
81F
  0
DICTIONARY
  5
802
330
7AA
100
AcDbDictionary
280
     1
281
     1
  3
ACAD_XREC_ROUNDTRIP
360
803
  0
DICTIONARY
  5
804
330
7AB
100
AcDbDictionary
280
     1
281
     1
  3
ACAD_XREC_ROUNDTRIP
360
805
  0
DICTIONARY
  5
806
330
7AC
100
AcDbDictionary
280
     1
281
     1
  3
ACAD_XREC_ROUNDTRIP
360
807
  0
DICTIONARY
  5
808
330
7AD
100
AcDbDictionary
280
     1
281
     1
  3
ACAD_XREC_ROUNDTRIP
360
809
  0
DICTIONARY
  5
810
330
7B1
100
AcDbDictionary
280
     1
281
     1
  3
ACAD_XREC_ROUNDTRIP
360
811
  0
DICTIONARY
  5
82C
330
7BF
100
AcDbDictionary
280
     1
281
     1
  3
ACAD_XREC_ROUNDTRIP
360
82D
  0
DICTIONARY
  5
81C
330
7B7
100
AcDbDictionary
280
     1
281
     1
  3
ACAD_XREC_ROUNDTRIP
360
81D
  0
DICTIONARY
  5
82E
330
7C0
100
AcDbDictionary
280
     1
281
     1
  3
ACAD_XREC_ROUNDTRIP
360
82F
  0
DICTIONARY
  5
814
330
7B3
100
AcDbDictionary
280
     1
281
     1
  3
ACAD_XREC_ROUNDTRIP
360
815
  0
DICTIONARY
  5
82A
330
7BE
100
AcDbDictionary
280
     1
281
     1
  3
ACAD_XREC_ROUNDTRIP
360
82B
  0
DICTIONARY
  5
828
330
7BD
100
AcDbDictionary
280
     1
281
     1
  3
ACAD_XREC_ROUNDTRIP
360
829
  0
DICTIONARY
  5
822
330
7BA
100
AcDbDictionary
280
     1
281
     1
  3
ACAD_XREC_ROUNDTRIP
360
823
  0
DICTIONARY
  5
824
330
7BB
100
AcDbDictionary
280
     1
281
     1
  3
ACAD_XREC_ROUNDTRIP
360
825
  0
DICTIONARY
  5
81A
330
7B6
100
AcDbDictionary
280
     1
281
     1
  3
ACAD_XREC_ROUNDTRIP
360
81B
  0
DICTIONARY
  5
80E
330
7B0
100
AcDbDictionary
280
     1
281
     1
  3
ACAD_XREC_ROUNDTRIP
360
80F
  0
DICTIONARY
  5
826
330
7BC
100
AcDbDictionary
280
     1
281
     1
  3
ACAD_XREC_ROUNDTRIP
360
827
  0
XRECORD
  5
837
102
{ACAD_REACTORS
330
836
102
}
330
836
100
AcDbXrecord
280
     1
102
DISPLAYNAME
  1
Imperial24
102
FLAGS
 90
        0
  0
XRECORD
  5
839
102
{ACAD_REACTORS
330
838
102
}
330
838
100
AcDbXrecord
280
     1
102
SHADEPLOT
 70
     0
102
SHADEPLOTRESLEVEL
 70
     2
102
SHADEPLOTCUSTOMDPI
 70
   300
  0
XRECORD
  5
83B
102
{ACAD_REACTORS
330
83A
102
}
330
83A
100
AcDbXrecord
280
     1
102
SHADEPLOT
 70
     0
102
SHADEPLOTRESLEVEL
 70
     2
102
SHADEPLOTCUSTOMDPI
 70
   300
  0
XRECORD
  5
800
102
{ACAD_REACTORS
330
79A
102
}
330
79A
100
AcDbXrecord
280
     1
102
MATERIAL
148
0.0
149
0.0
149
0.0
 93
        0
 94
      127
282
     0
 72
     0
 77
     0
171
     0
175
     0
179
     0
273
     0
  0
XRECORD
  5
79C
102
{ACAD_REACTORS
330
79A
102
}
330
79A
100
AcDbXrecord
280
     1
270
     1
271
     1
  0
XRECORD
  5
79B
102
{ACAD_REACTORS
330
79A
102
}
330
79A
100
AcDbXrecord
280
     1
270
     1
271
     1
  0
XRECORD
  5
79F
102
{ACAD_REACTORS
330
79A
102
}
330
79A
100
AcDbXrecord
280
     1
270
     1
271
     1
  0
XRECORD
  5
79E
102
{ACAD_REACTORS
330
79A
102
}
330
79A
100
AcDbXrecord
280
     1
270
     1
271
     1
  0
XRECORD
  5
7A0
102
{ACAD_REACTORS
330
79A
102
}
330
79A
100
AcDbXrecord
280
     1
270
     1
271
     1
  0
XRECORD
  5
79D
102
{ACAD_REACTORS
330
79A
102
}
330
79A
100
AcDbXrecord
280
     1
270
     1
271
     1
  0
XRECORD
  5
7FF
102
{ACAD_REACTORS
330
792
102
}
330
792
100
AcDbXrecord
280
     1
102
MATERIAL
148
0.0
149
0.0
149
0.0
 93
        0
 94
      127
282
     0
 72
     0
 77
     0
171
     0
175
     0
179
     0
273
     0
  0
XRECORD
  5
794
102
{ACAD_REACTORS
330
792
102
}
330
792
100
AcDbXrecord
280
     1
270
     1
271
     1
  0
XRECORD
  5
793
102
{ACAD_REACTORS
330
792
102
}
330
792
100
AcDbXrecord
280
     1
270
     1
271
     1
  0
XRECORD
  5
797
102
{ACAD_REACTORS
330
792
102
}
330
792
100
AcDbXrecord
280
     1
270
     1
271
     1
  0
XRECORD
  5
796
102
{ACAD_REACTORS
330
792
102
}
330
792
100
AcDbXrecord
280
     1
270
     1
271
     1
  0
XRECORD
  5
798
102
{ACAD_REACTORS
330
792
102
}
330
792
100
AcDbXrecord
280
     1
270
     1
271
     1
  0
XRECORD
  5
795
102
{ACAD_REACTORS
330
792
102
}
330
792
100
AcDbXrecord
280
     1
270
     1
271
     1
  0
XRECORD
  5
801
102
{ACAD_REACTORS
330
7A2
102
}
330
7A2
100
AcDbXrecord
280
     1
102
MATERIAL
148
0.0
149
0.0
149
0.0
 93
        0
 94
      127
282
     0
 72
     0
 77
     0
171
     0
175
     0
179
     0
273
     0
  0
XRECORD
  5
7A4
102
{ACAD_REACTORS
330
7A2
102
}
330
7A2
100
AcDbXrecord
280
     1
270
     1
271
     1
  0
XRECORD
  5
7A3
102
{ACAD_REACTORS
330
7A2
102
}
330
7A2
100
AcDbXrecord
280
     1
270
     1
271
     1
  0
XRECORD
  5
7A7
102
{ACAD_REACTORS
330
7A2
102
}
330
7A2
100
AcDbXrecord
280
     1
270
     1
271
     1
  0
XRECORD
  5
7A6
102
{ACAD_REACTORS
330
7A2
102
}
330
7A2
100
AcDbXrecord
280
     1
270
     1
271
     1
  0
XRECORD
  5
7A8
102
{ACAD_REACTORS
330
7A2
102
}
330
7A2
100
AcDbXrecord
280
     1
270
     1
271
     1
  0
XRECORD
  5
7A5
102
{ACAD_REACTORS
330
7A2
102
}
330
7A2
100
AcDbXrecord
280
     1
270
     1
271
     1
  0
XRECORD
  5
835
102
{ACAD_REACTORS
330
834
102
}
330
834
100
AcDbXrecord
280
     1
102
DISPLAYNAME
  1
Imperial24
102
FLAGS
 90
        0
  0
CELLSTYLEMAP
  5
7FC
102
{ACAD_REACTORS
330
7FB
102
}
330
7FB
100
AcDbCellStyleMap
 90
        3
300
CELLSTYLE
  1
TABLEFORMAT_BEGIN
 90
        5
170
     1
 91
        0
 92
    32768
 62
   257
 93
        1
300
CONTENTFORMAT
  1
CONTENTFORMAT_BEGIN
 90
        0
 91
        0
 92
      512
 93
        0
300

 40
0.0
140
1.0
 94
        5
 62
     0
340
F
144
0.25
309
CONTENTFORMAT_END
171
     0
 94
        0
309
TABLEFORMAT_END
  1
CELLSTYLE_BEGIN
 90
        1
 91
        1
300
_TITLE
309
CELLSTYLE_END
300
CELLSTYLE
  1
TABLEFORMAT_BEGIN
 90
        5
170
     1
 91
        0
 92
        0
 62
   257
 93
        1
300
CONTENTFORMAT
  1
CONTENTFORMAT_BEGIN
 90
        0
 91
        0
 92
      512
 93
        0
300

 40
0.0
140
1.0
 94
        5
 62
     0
340
F
144
0.18
309
CONTENTFORMAT_END
171
     0
 94
        0
309
TABLEFORMAT_END
  1
CELLSTYLE_BEGIN
 90
        2
 91
        1
300
_HEADER
309
CELLSTYLE_END
300
CELLSTYLE
  1
TABLEFORMAT_BEGIN
 90
        5
170
     1
 91
        0
 92
        0
 62
   257
 93
        1
300
CONTENTFORMAT
  1
CONTENTFORMAT_BEGIN
 90
        0
 91
        0
 92
      512
 93
        0
300

 40
0.0
140
1.0
 94
        2
 62
     0
340
F
144
0.18
309
CONTENTFORMAT_END
171
     0
 94
        0
309
TABLEFORMAT_END
  1
CELLSTYLE_BEGIN
 90
        3
 91
        2
300
_DATA
309
CELLSTYLE_END
  0
XRECORD
  5
832
102
{ACAD_REACTORS
330
7FB
102
}
330
7FB
100
AcDbXrecord
280
     1
102
ACAD_ROUNDTRIP_PRE2007_TABLESTYLE
 90
      512
 91
        0
  1

 92
      512
 93
        0
  2

 94
      512
 95
        0
  3

  0
XRECORD
  5
80D
102
{ACAD_REACTORS
330
80C
102
}
330
80C
100
AcDbXrecord
280
     1
102
RTVSPost2010Prop28
280
     1
102
RTVSPost2010PropOp28
 70
     1
102
RTVSPost2010Prop29
280
     1
102
RTVSPost2010PropOp29
 70
     1
102
RTVSPost2010Prop30
280
     0
102
RTVSPost2010PropOp30
 70
     1
102
RTVSPost2010Prop31
280
     0
102
RTVSPost2010PropOp31
 70
     1
102
RTVSPost2010Prop32
280
     0
102
RTVSPost2010PropOp32
 70
     1
102
RTVSPost2010Prop33
280
     0
102
RTVSPost2010PropOp33
 70
     1
102
RTVSPost2010Prop34
280
     0
102
RTVSPost2010PropOp34
 70
     1
102
RTVSPost2010Prop35
280
     0
102
RTVSPost2010PropOp35
 70
     1
102
RTVSPost2010Prop36
280
     0
102
RTVSPost2010PropOp36
 70
     1
102
RTVSPost2010Prop37
 90
       50
102
RTVSPost2010PropOp37
 70
     1
102
RTVSPost2010Prop38
140
0.0
102
RTVSPost2010PropOp38
 70
     1
102
RTVSPost2010Prop39
140
1.0
102
RTVSPost2010PropOp39
 70
     1
102
RTVSPost2010Prop40
 90
        0
102
RTVSPost2010PropOp40
 70
     1
102
RTVSPost2010Prop41ColorIndex
 90
       18
102
RTVSPost2010Prop41ColorRGB
 90
        0
102
RTVSPost2010PropOp41
 70
     1
102
RTVSPost2010Prop42
 90
       50
102
RTVSPost2010PropOp42
 70
     1
102
RTVSPost2010Prop43
 90
        3
102
RTVSPost2010PropOp43
 70
     1
102
RTVSPost2010Prop44ColorIndex
 90
        5
102
RTVSPost2010Prop44ColorRGB
 90
      255
102
RTVSPost2010PropOp44
 70
     1
102
RTVSPost2010Prop45
280
     0
102
RTVSPost2010PropOp45
 70
     1
102
RTVSPost2010Prop46
 90
       50
102
RTVSPost2010PropOp46
 70
     1
102
RTVSPost2010Prop47
 90
       50
102
RTVSPost2010PropOp47
 70
     1
102
RTVSPost2010Prop48
 90
       50
102
RTVSPost2010PropOp48
 70
     1
102
RTVSPost2010Prop49
280
     0
102
RTVSPost2010PropOp49
 70
     1
102
RTVSPost2010Prop50
 90
       50
102
RTVSPost2010PropOp50
 70
     1
102
RTVSPost2010Prop51ColorIndex
 90
      256
102
RTVSPost2010Prop51ColorRGB
 90
-16777216
102
RTVSPost2010PropOp51
 70
     0
102
RTVSPost2010Prop52
140
1.0
102
RTVSPost2010PropOp52
 70
     0
102
RTVSPost2010Prop53
 90
        2
102
RTVSPost2010PropOp53
 70
     1
102
RTVSPost2010Prop54
  1
strokes_ogs.tif
102
RTVSPost2010PropOp54
 70
     1
102
RTVSPost2010Prop55
280
     0
102
RTVSPost2010PropOp55
 70
     1
102
RTVSPost2010Prop56
140
1.0
102
RTVSPost2010PropOp56
 70
     1
102
RTVSPost2010Prop57
140
1.0
102
RTVSPost2010PropOp57
 70
     1
102
RTVSPropertyOp0
 70
     1
102
RTVSPropertyOp1
 70
     1
102
RTVSPropertyOp2
 70
     1
102
RTVSPropertyOp3
 70
     1
102
RTVSPropertyOp4
 70
     1
102
RTVSPropertyOp5
 70
     1
102
RTVSPropertyOp6
 70
     1
102
RTVSPropertyOp7
 70
     1
102
RTVSPropertyOp8
 70
     1
102
RTVSPropertyOp9
 70
     1
102
RTVSPropertyOp10
 70
     1
102
RTVSPropertyOp11
 70
     1
102
RTVSPropertyOp12
 70
     1
102
RTVSPropertyOp13
 70
     1
102
RTVSPropertyOp14
 70
     1
102
RTVSPropertyOp15
 70
     1
102
RTVSPropertyOp16
 70
     1
102
RTVSPropertyOp17
 70
     1
102
RTVSPropertyOp18
 70
     1
102
RTVSPropertyOp19
 70
     1
102
RTVSPropertyOp20
 70
     1
102
RTVSPropertyOp21
 70
     1
102
RTVSPropertyOp22
 70
     1
102
RTVSPropertyOp23
 70
     1
102
RTVSPropertyOp24
 70
     1
102
RTVSPropertyOp25
 70
     1
102
RTVSPropertyOp26
 70
     1
102
RTVSPropertyOp27
 70
     1
102
RTVSPropertyOp28
 70
     1
102
RTVSPropertyOp29
 70
     1
102
RTVSPropertyOp30
 70
     1
102
RTVSPropertyOp31
 70
     1
102
RTVSPropertyOp32
 70
     1
102
RTVSPropertyOp33
 70
     1
102
RTVSPropertyOp34
 70
     1
102
RTVSPropertyOp35
 70
     1
102
RTVSPropertyOp36
 70
     1
102
RTVSPropertyOp37
 70
     1
102
RTVSPropertyOp38
 70
     1
102
RTVSPropertyOp39
 70
     1
102
RTVSPropertyOp40
 70
     1
102
RTVSPropertyOp41
 70
     1
102
RTVSPropertyOp42
 70
     1
102
RTVSPropertyOp43
 70
     1
102
RTVSPropertyOp44
 70
     1
102
RTVSPropertyOp45
 70
     1
102
RTVSPropertyOp46
 70
     1
102
RTVSPropertyOp47
 70
     1
102
RTVSPropertyOp48
 70
     1
102
RTVSPropertyOp49
 70
     1
102
RTVSPropertyOp50
 70
     1
102
RTVSPropertyOp51
 70
     0
102
RTVSPropertyOp52
 70
     0
102
RTVSPropertyOp53
 70
     1
102
RTVSPropertyOp54
 70
     1
102
RTVSPropertyOp55
 70
     1
102
RTVSPropertyOp56
 70
     1
102
RTVSPropertyOp57
 70
     1
102
RTVSPropertyOp58
 70
     1
102
RTVSPropertyOp59
 70
     1
102
RTVSPropertyOp60
 70
     1
102
RTVSPropertyOp61
 70
     1
102
RTVSPropertyOp62
 70
     1
  0
XRECORD
  5
80B
102
{ACAD_REACTORS
330
80A
102
}
330
80A
100
AcDbXrecord
280
     1
102
RTVSPost2010Prop28
280
     0
102
RTVSPost2010PropOp28
 70
     1
102
RTVSPost2010Prop29
280
     1
102
RTVSPost2010PropOp29
 70
     1
102
RTVSPost2010Prop30
280
     1
102
RTVSPost2010PropOp30
 70
     1
102
RTVSPost2010Prop31
280
     0
102
RTVSPost2010PropOp31
 70
     1
102
RTVSPost2010Prop32
280
     0
102
RTVSPost2010PropOp32
 70
     1
102
RTVSPost2010Prop33
280
     0
102
RTVSPost2010PropOp33
 70
     1
102
RTVSPost2010Prop34
280
     0
102
RTVSPost2010PropOp34
 70
     1
102
RTVSPost2010Prop35
280
     0
102
RTVSPost2010PropOp35
 70
     1
102
RTVSPost2010Prop36
280
     0
102
RTVSPost2010PropOp36
 70
     1
102
RTVSPost2010Prop37
 90
       50
102
RTVSPost2010PropOp37
 70
     1
102
RTVSPost2010Prop38
140
0.0
102
RTVSPost2010PropOp38
 70
     1
102
RTVSPost2010Prop39
140
1.0
102
RTVSPost2010PropOp39
 70
     1
102
RTVSPost2010Prop40
 90
        0
102
RTVSPost2010PropOp40
 70
     1
102
RTVSPost2010Prop41ColorIndex
 90
       18
102
RTVSPost2010Prop41ColorRGB
 90
        0
102
RTVSPost2010PropOp41
 70
     1
102
RTVSPost2010Prop42
 90
       50
102
RTVSPost2010PropOp42
 70
     1
102
RTVSPost2010Prop43
 90
        3
102
RTVSPost2010PropOp43
 70
     1
102
RTVSPost2010Prop44ColorIndex
 90
        5
102
RTVSPost2010Prop44ColorRGB
 90
      255
102
RTVSPost2010PropOp44
 70
     1
102
RTVSPost2010Prop45
280
     0
102
RTVSPost2010PropOp45
 70
     1
102
RTVSPost2010Prop46
 90
       50
102
RTVSPost2010PropOp46
 70
     1
102
RTVSPost2010Prop47
 90
       50
102
RTVSPost2010PropOp47
 70
     1
102
RTVSPost2010Prop48
 90
       50
102
RTVSPost2010PropOp48
 70
     1
102
RTVSPost2010Prop49
280
     0
102
RTVSPost2010PropOp49
 70
     1
102
RTVSPost2010Prop50
 90
       50
102
RTVSPost2010PropOp50
 70
     1
102
RTVSPost2010Prop51ColorIndex
 90
      256
102
RTVSPost2010Prop51ColorRGB
 90
-16777216
102
RTVSPost2010PropOp51
 70
     0
102
RTVSPost2010Prop52
140
1.0
102
RTVSPost2010PropOp52
 70
     0
102
RTVSPost2010Prop53
 90
        2
102
RTVSPost2010PropOp53
 70
     1
102
RTVSPost2010Prop54
  1
strokes_ogs.tif
102
RTVSPost2010PropOp54
 70
     1
102
RTVSPost2010Prop55
280
     0
102
RTVSPost2010PropOp55
 70
     1
102
RTVSPost2010Prop56
140
1.0
102
RTVSPost2010PropOp56
 70
     1
102
RTVSPost2010Prop57
140
1.0
102
RTVSPost2010PropOp57
 70
     1
102
RTVSPropertyOp0
 70
     1
102
RTVSPropertyOp1
 70
     1
102
RTVSPropertyOp2
 70
     1
102
RTVSPropertyOp3
 70
     1
102
RTVSPropertyOp4
 70
     1
102
RTVSPropertyOp5
 70
     1
102
RTVSPropertyOp6
 70
     1
102
RTVSPropertyOp7
 70
     1
102
RTVSPropertyOp8
 70
     1
102
RTVSPropertyOp9
 70
     1
102
RTVSPropertyOp10
 70
     1
102
RTVSPropertyOp11
 70
     1
102
RTVSPropertyOp12
 70
     1
102
RTVSPropertyOp13
 70
     1
102
RTVSPropertyOp14
 70
     1
102
RTVSPropertyOp15
 70
     1
102
RTVSPropertyOp16
 70
     1
102
RTVSPropertyOp17
 70
     1
102
RTVSPropertyOp18
 70
     1
102
RTVSPropertyOp19
 70
     1
102
RTVSPropertyOp20
 70
     1
102
RTVSPropertyOp21
 70
     1
102
RTVSPropertyOp22
 70
     1
102
RTVSPropertyOp23
 70
     1
102
RTVSPropertyOp24
 70
     1
102
RTVSPropertyOp25
 70
     1
102
RTVSPropertyOp26
 70
     1
102
RTVSPropertyOp27
 70
     1
102
RTVSPropertyOp28
 70
     1
102
RTVSPropertyOp29
 70
     1
102
RTVSPropertyOp30
 70
     1
102
RTVSPropertyOp31
 70
     1
102
RTVSPropertyOp32
 70
     1
102
RTVSPropertyOp33
 70
     1
102
RTVSPropertyOp34
 70
     1
102
RTVSPropertyOp35
 70
     1
102
RTVSPropertyOp36
 70
     1
102
RTVSPropertyOp37
 70
     1
102
RTVSPropertyOp38
 70
     1
102
RTVSPropertyOp39
 70
     1
102
RTVSPropertyOp40
 70
     1
102
RTVSPropertyOp41
 70
     1
102
RTVSPropertyOp42
 70
     1
102
RTVSPropertyOp43
 70
     1
102
RTVSPropertyOp44
 70
     1
102
RTVSPropertyOp45
 70
     1
102
RTVSPropertyOp46
 70
     1
102
RTVSPropertyOp47
 70
     1
102
RTVSPropertyOp48
 70
     1
102
RTVSPropertyOp49
 70
     1
102
RTVSPropertyOp50
 70
     1
102
RTVSPropertyOp51
 70
     0
102
RTVSPropertyOp52
 70
     0
102
RTVSPropertyOp53
 70
     1
102
RTVSPropertyOp54
 70
     1
102
RTVSPropertyOp55
 70
     1
102
RTVSPropertyOp56
 70
     1
102
RTVSPropertyOp57
 70
     1
102
RTVSPropertyOp58
 70
     1
102
RTVSPropertyOp59
 70
     1
102
RTVSPropertyOp60
 70
     1
102
RTVSPropertyOp61
 70
     1
102
RTVSPropertyOp62
 70
     1
  0
XRECORD
  5
819
102
{ACAD_REACTORS
330
818
102
}
330
818
100
AcDbXrecord
280
     1
102
RTVSPost2010Prop28
280
     0
102
RTVSPost2010PropOp28
 70
     1
102
RTVSPost2010Prop29
280
     1
102
RTVSPost2010PropOp29
 70
     1
102
RTVSPost2010Prop30
280
     1
102
RTVSPost2010PropOp30
 70
     1
102
RTVSPost2010Prop31
280
     0
102
RTVSPost2010PropOp31
 70
     1
102
RTVSPost2010Prop32
280
     0
102
RTVSPost2010PropOp32
 70
     1
102
RTVSPost2010Prop33
280
     0
102
RTVSPost2010PropOp33
 70
     1
102
RTVSPost2010Prop34
280
     0
102
RTVSPost2010PropOp34
 70
     1
102
RTVSPost2010Prop35
280
     0
102
RTVSPost2010PropOp35
 70
     1
102
RTVSPost2010Prop36
280
     0
102
RTVSPost2010PropOp36
 70
     1
102
RTVSPost2010Prop37
 90
       50
102
RTVSPost2010PropOp37
 70
     1
102
RTVSPost2010Prop38
140
0.0
102
RTVSPost2010PropOp38
 70
     1
102
RTVSPost2010Prop39
140
1.0
102
RTVSPost2010PropOp39
 70
     1
102
RTVSPost2010Prop40
 90
        0
102
RTVSPost2010PropOp40
 70
     1
102
RTVSPost2010Prop41ColorIndex
 90
       18
102
RTVSPost2010Prop41ColorRGB
 90
        0
102
RTVSPost2010PropOp41
 70
     1
102
RTVSPost2010Prop42
 90
       50
102
RTVSPost2010PropOp42
 70
     1
102
RTVSPost2010Prop43
 90
        3
102
RTVSPost2010PropOp43
 70
     1
102
RTVSPost2010Prop44ColorIndex
 90
        5
102
RTVSPost2010Prop44ColorRGB
 90
      255
102
RTVSPost2010PropOp44
 70
     1
102
RTVSPost2010Prop45
280
     0
102
RTVSPost2010PropOp45
 70
     1
102
RTVSPost2010Prop46
 90
       50
102
RTVSPost2010PropOp46
 70
     1
102
RTVSPost2010Prop47
 90
       50
102
RTVSPost2010PropOp47
 70
     1
102
RTVSPost2010Prop48
 90
       50
102
RTVSPost2010PropOp48
 70
     1
102
RTVSPost2010Prop49
280
     0
102
RTVSPost2010PropOp49
 70
     1
102
RTVSPost2010Prop50
 90
       50
102
RTVSPost2010PropOp50
 70
     1
102
RTVSPost2010Prop51ColorIndex
 90
      256
102
RTVSPost2010Prop51ColorRGB
 90
-16777216
102
RTVSPost2010PropOp51
 70
     0
102
RTVSPost2010Prop52
140
1.0
102
RTVSPost2010PropOp52
 70
     0
102
RTVSPost2010Prop53
 90
        2
102
RTVSPost2010PropOp53
 70
     1
102
RTVSPost2010Prop54
  1
strokes_ogs.tif
102
RTVSPost2010PropOp54
 70
     1
102
RTVSPost2010Prop55
280
     0
102
RTVSPost2010PropOp55
 70
     1
102
RTVSPost2010Prop56
140
1.0
102
RTVSPost2010PropOp56
 70
     1
102
RTVSPost2010Prop57
140
1.0
102
RTVSPost2010PropOp57
 70
     1
102
RTVSPropertyOp0
 70
     1
102
RTVSPropertyOp1
 70
     1
102
RTVSPropertyOp2
 70
     1
102
RTVSPropertyOp3
 70
     1
102
RTVSPropertyOp4
 70
     1
102
RTVSPropertyOp5
 70
     1
102
RTVSPropertyOp6
 70
     1
102
RTVSPropertyOp7
 70
     1
102
RTVSPropertyOp8
 70
     1
102
RTVSPropertyOp9
 70
     1
102
RTVSPropertyOp10
 70
     1
102
RTVSPropertyOp11
 70
     1
102
RTVSPropertyOp12
 70
     1
102
RTVSPropertyOp13
 70
     1
102
RTVSPropertyOp14
 70
     1
102
RTVSPropertyOp15
 70
     1
102
RTVSPropertyOp16
 70
     1
102
RTVSPropertyOp17
 70
     1
102
RTVSPropertyOp18
 70
     1
102
RTVSPropertyOp19
 70
     1
102
RTVSPropertyOp20
 70
     1
102
RTVSPropertyOp21
 70
     1
102
RTVSPropertyOp22
 70
     1
102
RTVSPropertyOp23
 70
     1
102
RTVSPropertyOp24
 70
     1
102
RTVSPropertyOp25
 70
     1
102
RTVSPropertyOp26
 70
     1
102
RTVSPropertyOp27
 70
     1
102
RTVSPropertyOp28
 70
     1
102
RTVSPropertyOp29
 70
     1
102
RTVSPropertyOp30
 70
     1
102
RTVSPropertyOp31
 70
     1
102
RTVSPropertyOp32
 70
     1
102
RTVSPropertyOp33
 70
     1
102
RTVSPropertyOp34
 70
     1
102
RTVSPropertyOp35
 70
     1
102
RTVSPropertyOp36
 70
     1
102
RTVSPropertyOp37
 70
     1
102
RTVSPropertyOp38
 70
     1
102
RTVSPropertyOp39
 70
     1
102
RTVSPropertyOp40
 70
     1
102
RTVSPropertyOp41
 70
     1
102
RTVSPropertyOp42
 70
     1
102
RTVSPropertyOp43
 70
     1
102
RTVSPropertyOp44
 70
     1
102
RTVSPropertyOp45
 70
     1
102
RTVSPropertyOp46
 70
     1
102
RTVSPropertyOp47
 70
     1
102
RTVSPropertyOp48
 70
     1
102
RTVSPropertyOp49
 70
     1
102
RTVSPropertyOp50
 70
     1
102
RTVSPropertyOp51
 70
     0
102
RTVSPropertyOp52
 70
     0
102
RTVSPropertyOp53
 70
     1
102
RTVSPropertyOp54
 70
     1
102
RTVSPropertyOp55
 70
     1
102
RTVSPropertyOp56
 70
     1
102
RTVSPropertyOp57
 70
     1
102
RTVSPropertyOp58
 70
     1
102
RTVSPropertyOp59
 70
     1
102
RTVSPropertyOp60
 70
     1
102
RTVSPropertyOp61
 70
     1
102
RTVSPropertyOp62
 70
     1
  0
XRECORD
  5
821
102
{ACAD_REACTORS
330
820
102
}
330
820
100
AcDbXrecord
280
     1
102
RTVSPost2010Prop28
280
     0
102
RTVSPost2010PropOp28
 70
     1
102
RTVSPost2010Prop29
280
     1
102
RTVSPost2010PropOp29
 70
     1
102
RTVSPost2010Prop30
280
     1
102
RTVSPost2010PropOp30
 70
     1
102
RTVSPost2010Prop31
280
     0
102
RTVSPost2010PropOp31
 70
     1
102
RTVSPost2010Prop32
280
     0
102
RTVSPost2010PropOp32
 70
     1
102
RTVSPost2010Prop33
280
     0
102
RTVSPost2010PropOp33
 70
     1
102
RTVSPost2010Prop34
280
     0
102
RTVSPost2010PropOp34
 70
     1
102
RTVSPost2010Prop35
280
     0
102
RTVSPost2010PropOp35
 70
     1
102
RTVSPost2010Prop36
280
     0
102
RTVSPost2010PropOp36
 70
     1
102
RTVSPost2010Prop37
 90
       50
102
RTVSPost2010PropOp37
 70
     1
102
RTVSPost2010Prop38
140
0.0
102
RTVSPost2010PropOp38
 70
     1
102
RTVSPost2010Prop39
140
1.0
102
RTVSPost2010PropOp39
 70
     1
102
RTVSPost2010Prop40
 90
        0
102
RTVSPost2010PropOp40
 70
     1
102
RTVSPost2010Prop41ColorIndex
 90
       18
102
RTVSPost2010Prop41ColorRGB
 90
        0
102
RTVSPost2010PropOp41
 70
     1
102
RTVSPost2010Prop42
 90
       50
102
RTVSPost2010PropOp42
 70
     1
102
RTVSPost2010Prop43
 90
        3
102
RTVSPost2010PropOp43
 70
     1
102
RTVSPost2010Prop44ColorIndex
 90
        5
102
RTVSPost2010Prop44ColorRGB
 90
      255
102
RTVSPost2010PropOp44
 70
     1
102
RTVSPost2010Prop45
280
     0
102
RTVSPost2010PropOp45
 70
     1
102
RTVSPost2010Prop46
 90
       50
102
RTVSPost2010PropOp46
 70
     1
102
RTVSPost2010Prop47
 90
       50
102
RTVSPost2010PropOp47
 70
     1
102
RTVSPost2010Prop48
 90
       50
102
RTVSPost2010PropOp48
 70
     1
102
RTVSPost2010Prop49
280
     0
102
RTVSPost2010PropOp49
 70
     1
102
RTVSPost2010Prop50
 90
       50
102
RTVSPost2010PropOp50
 70
     1
102
RTVSPost2010Prop51ColorIndex
 90
      256
102
RTVSPost2010Prop51ColorRGB
 90
-16777216
102
RTVSPost2010PropOp51
 70
     0
102
RTVSPost2010Prop52
140
1.0
102
RTVSPost2010PropOp52
 70
     0
102
RTVSPost2010Prop53
 90
        2
102
RTVSPost2010PropOp53
 70
     1
102
RTVSPost2010Prop54
  1
strokes_ogs.tif
102
RTVSPost2010PropOp54
 70
     1
102
RTVSPost2010Prop55
280
     0
102
RTVSPost2010PropOp55
 70
     1
102
RTVSPost2010Prop56
140
1.0
102
RTVSPost2010PropOp56
 70
     1
102
RTVSPost2010Prop57
140
1.0
102
RTVSPost2010PropOp57
 70
     1
102
RTVSPropertyOp0
 70
     1
102
RTVSPropertyOp1
 70
     1
102
RTVSPropertyOp2
 70
     1
102
RTVSPropertyOp3
 70
     1
102
RTVSPropertyOp4
 70
     1
102
RTVSPropertyOp5
 70
     1
102
RTVSPropertyOp6
 70
     1
102
RTVSPropertyOp7
 70
     1
102
RTVSPropertyOp8
 70
     1
102
RTVSPropertyOp9
 70
     1
102
RTVSPropertyOp10
 70
     1
102
RTVSPropertyOp11
 70
     1
102
RTVSPropertyOp12
 70
     1
102
RTVSPropertyOp13
 70
     1
102
RTVSPropertyOp14
 70
     1
102
RTVSPropertyOp15
 70
     1
102
RTVSPropertyOp16
 70
     1
102
RTVSPropertyOp17
 70
     1
102
RTVSPropertyOp18
 70
     1
102
RTVSPropertyOp19
 70
     1
102
RTVSPropertyOp20
 70
     1
102
RTVSPropertyOp21
 70
     1
102
RTVSPropertyOp22
 70
     1
102
RTVSPropertyOp23
 70
     1
102
RTVSPropertyOp24
 70
     1
102
RTVSPropertyOp25
 70
     1
102
RTVSPropertyOp26
 70
     1
102
RTVSPropertyOp27
 70
     1
102
RTVSPropertyOp28
 70
     1
102
RTVSPropertyOp29
 70
     1
102
RTVSPropertyOp30
 70
     1
102
RTVSPropertyOp31
 70
     1
102
RTVSPropertyOp32
 70
     1
102
RTVSPropertyOp33
 70
     1
102
RTVSPropertyOp34
 70
     1
102
RTVSPropertyOp35
 70
     1
102
RTVSPropertyOp36
 70
     1
102
RTVSPropertyOp37
 70
     1
102
RTVSPropertyOp38
 70
     1
102
RTVSPropertyOp39
 70
     1
102
RTVSPropertyOp40
 70
     1
102
RTVSPropertyOp41
 70
     1
102
RTVSPropertyOp42
 70
     1
102
RTVSPropertyOp43
 70
     1
102
RTVSPropertyOp44
 70
     1
102
RTVSPropertyOp45
 70
     1
102
RTVSPropertyOp46
 70
     1
102
RTVSPropertyOp47
 70
     1
102
RTVSPropertyOp48
 70
     1
102
RTVSPropertyOp49
 70
     1
102
RTVSPropertyOp50
 70
     1
102
RTVSPropertyOp51
 70
     0
102
RTVSPropertyOp52
 70
     0
102
RTVSPropertyOp53
 70
     1
102
RTVSPropertyOp54
 70
     1
102
RTVSPropertyOp55
 70
     1
102
RTVSPropertyOp56
 70
     1
102
RTVSPropertyOp57
 70
     1
102
RTVSPropertyOp58
 70
     1
102
RTVSPropertyOp59
 70
     1
102
RTVSPropertyOp60
 70
     1
102
RTVSPropertyOp61
 70
     1
102
RTVSPropertyOp62
 70
     1
  0
XRECORD
  5
813
102
{ACAD_REACTORS
330
812
102
}
330
812
100
AcDbXrecord
280
     1
102
RTVSPost2010Prop28
280
     0
102
RTVSPost2010PropOp28
 70
     1
102
RTVSPost2010Prop29
280
     1
102
RTVSPost2010PropOp29
 70
     1
102
RTVSPost2010Prop30
280
     1
102
RTVSPost2010PropOp30
 70
     1
102
RTVSPost2010Prop31
280
     0
102
RTVSPost2010PropOp31
 70
     1
102
RTVSPost2010Prop32
280
     0
102
RTVSPost2010PropOp32
 70
     1
102
RTVSPost2010Prop33
280
     0
102
RTVSPost2010PropOp33
 70
     1
102
RTVSPost2010Prop34
280
     0
102
RTVSPost2010PropOp34
 70
     1
102
RTVSPost2010Prop35
280
     0
102
RTVSPost2010PropOp35
 70
     1
102
RTVSPost2010Prop36
280
     0
102
RTVSPost2010PropOp36
 70
     1
102
RTVSPost2010Prop37
 90
       50
102
RTVSPost2010PropOp37
 70
     1
102
RTVSPost2010Prop38
140
0.0
102
RTVSPost2010PropOp38
 70
     1
102
RTVSPost2010Prop39
140
1.0
102
RTVSPost2010PropOp39
 70
     1
102
RTVSPost2010Prop40
 90
        0
102
RTVSPost2010PropOp40
 70
     1
102
RTVSPost2010Prop41ColorIndex
 90
       18
102
RTVSPost2010Prop41ColorRGB
 90
        0
102
RTVSPost2010PropOp41
 70
     1
102
RTVSPost2010Prop42
 90
       50
102
RTVSPost2010PropOp42
 70
     1
102
RTVSPost2010Prop43
 90
        3
102
RTVSPost2010PropOp43
 70
     1
102
RTVSPost2010Prop44ColorIndex
 90
        5
102
RTVSPost2010Prop44ColorRGB
 90
      255
102
RTVSPost2010PropOp44
 70
     1
102
RTVSPost2010Prop45
280
     0
102
RTVSPost2010PropOp45
 70
     1
102
RTVSPost2010Prop46
 90
       50
102
RTVSPost2010PropOp46
 70
     1
102
RTVSPost2010Prop47
 90
       50
102
RTVSPost2010PropOp47
 70
     1
102
RTVSPost2010Prop48
 90
       50
102
RTVSPost2010PropOp48
 70
     1
102
RTVSPost2010Prop49
280
     0
102
RTVSPost2010PropOp49
 70
     1
102
RTVSPost2010Prop50
 90
       50
102
RTVSPost2010PropOp50
 70
     1
102
RTVSPost2010Prop51ColorIndex
 90
      256
102
RTVSPost2010Prop51ColorRGB
 90
-16777216
102
RTVSPost2010PropOp51
 70
     0
102
RTVSPost2010Prop52
140
1.0
102
RTVSPost2010PropOp52
 70
     0
102
RTVSPost2010Prop53
 90
        2
102
RTVSPost2010PropOp53
 70
     1
102
RTVSPost2010Prop54
  1
strokes_ogs.tif
102
RTVSPost2010PropOp54
 70
     1
102
RTVSPost2010Prop55
280
     0
102
RTVSPost2010PropOp55
 70
     1
102
RTVSPost2010Prop56
140
1.0
102
RTVSPost2010PropOp56
 70
     1
102
RTVSPost2010Prop57
140
1.0
102
RTVSPost2010PropOp57
 70
     1
102
RTVSPropertyOp0
 70
     1
102
RTVSPropertyOp1
 70
     1
102
RTVSPropertyOp2
 70
     1
102
RTVSPropertyOp3
 70
     1
102
RTVSPropertyOp4
 70
     1
102
RTVSPropertyOp5
 70
     1
102
RTVSPropertyOp6
 70
     1
102
RTVSPropertyOp7
 70
     1
102
RTVSPropertyOp8
 70
     1
102
RTVSPropertyOp9
 70
     1
102
RTVSPropertyOp10
 70
     1
102
RTVSPropertyOp11
 70
     1
102
RTVSPropertyOp12
 70
     1
102
RTVSPropertyOp13
 70
     1
102
RTVSPropertyOp14
 70
     1
102
RTVSPropertyOp15
 70
     1
102
RTVSPropertyOp16
 70
     1
102
RTVSPropertyOp17
 70
     1
102
RTVSPropertyOp18
 70
     1
102
RTVSPropertyOp19
 70
     1
102
RTVSPropertyOp20
 70
     1
102
RTVSPropertyOp21
 70
     1
102
RTVSPropertyOp22
 70
     1
102
RTVSPropertyOp23
 70
     1
102
RTVSPropertyOp24
 70
     1
102
RTVSPropertyOp25
 70
     1
102
RTVSPropertyOp26
 70
     1
102
RTVSPropertyOp27
 70
     1
102
RTVSPropertyOp28
 70
     1
102
RTVSPropertyOp29
 70
     1
102
RTVSPropertyOp30
 70
     1
102
RTVSPropertyOp31
 70
     1
102
RTVSPropertyOp32
 70
     1
102
RTVSPropertyOp33
 70
     1
102
RTVSPropertyOp34
 70
     1
102
RTVSPropertyOp35
 70
     1
102
RTVSPropertyOp36
 70
     1
102
RTVSPropertyOp37
 70
     1
102
RTVSPropertyOp38
 70
     1
102
RTVSPropertyOp39
 70
     1
102
RTVSPropertyOp40
 70
     1
102
RTVSPropertyOp41
 70
     1
102
RTVSPropertyOp42
 70
     1
102
RTVSPropertyOp43
 70
     1
102
RTVSPropertyOp44
 70
     1
102
RTVSPropertyOp45
 70
     1
102
RTVSPropertyOp46
 70
     1
102
RTVSPropertyOp47
 70
     1
102
RTVSPropertyOp48
 70
     1
102
RTVSPropertyOp49
 70
     1
102
RTVSPropertyOp50
 70
     1
102
RTVSPropertyOp51
 70
     0
102
RTVSPropertyOp52
 70
     0
102
RTVSPropertyOp53
 70
     1
102
RTVSPropertyOp54
 70
     1
102
RTVSPropertyOp55
 70
     1
102
RTVSPropertyOp56
 70
     1
102
RTVSPropertyOp57
 70
     1
102
RTVSPropertyOp58
 70
     1
102
RTVSPropertyOp59
 70
     1
102
RTVSPropertyOp60
 70
     1
102
RTVSPropertyOp61
 70
     1
102
RTVSPropertyOp62
 70
     1
  0
XRECORD
  5
817
102
{ACAD_REACTORS
330
816
102
}
330
816
100
AcDbXrecord
280
     1
102
RTVSPost2010Prop28
280
     0
102
RTVSPost2010PropOp28
 70
     1
102
RTVSPost2010Prop29
280
     1
102
RTVSPost2010PropOp29
 70
     1
102
RTVSPost2010Prop30
280
     1
102
RTVSPost2010PropOp30
 70
     1
102
RTVSPost2010Prop31
280
     0
102
RTVSPost2010PropOp31
 70
     1
102
RTVSPost2010Prop32
280
     0
102
RTVSPost2010PropOp32
 70
     1
102
RTVSPost2010Prop33
280
     0
102
RTVSPost2010PropOp33
 70
     1
102
RTVSPost2010Prop34
280
     0
102
RTVSPost2010PropOp34
 70
     1
102
RTVSPost2010Prop35
280
     0
102
RTVSPost2010PropOp35
 70
     1
102
RTVSPost2010Prop36
280
     0
102
RTVSPost2010PropOp36
 70
     1
102
RTVSPost2010Prop37
 90
       50
102
RTVSPost2010PropOp37
 70
     1
102
RTVSPost2010Prop38
140
0.0
102
RTVSPost2010PropOp38
 70
     1
102
RTVSPost2010Prop39
140
1.0
102
RTVSPost2010PropOp39
 70
     1
102
RTVSPost2010Prop40
 90
        0
102
RTVSPost2010PropOp40
 70
     1
102
RTVSPost2010Prop41ColorIndex
 90
       18
102
RTVSPost2010Prop41ColorRGB
 90
        0
102
RTVSPost2010PropOp41
 70
     1
102
RTVSPost2010Prop42
 90
       50
102
RTVSPost2010PropOp42
 70
     1
102
RTVSPost2010Prop43
 90
        3
102
RTVSPost2010PropOp43
 70
     1
102
RTVSPost2010Prop44ColorIndex
 90
        5
102
RTVSPost2010Prop44ColorRGB
 90
      255
102
RTVSPost2010PropOp44
 70
     1
102
RTVSPost2010Prop45
280
     0
102
RTVSPost2010PropOp45
 70
     1
102
RTVSPost2010Prop46
 90
       50
102
RTVSPost2010PropOp46
 70
     1
102
RTVSPost2010Prop47
 90
       50
102
RTVSPost2010PropOp47
 70
     1
102
RTVSPost2010Prop48
 90
       50
102
RTVSPost2010PropOp48
 70
     1
102
RTVSPost2010Prop49
280
     0
102
RTVSPost2010PropOp49
 70
     1
102
RTVSPost2010Prop50
 90
       50
102
RTVSPost2010PropOp50
 70
     1
102
RTVSPost2010Prop51ColorIndex
 90
      256
102
RTVSPost2010Prop51ColorRGB
 90
-16777216
102
RTVSPost2010PropOp51
 70
     0
102
RTVSPost2010Prop52
140
1.0
102
RTVSPost2010PropOp52
 70
     0
102
RTVSPost2010Prop53
 90
        2
102
RTVSPost2010PropOp53
 70
     1
102
RTVSPost2010Prop54
  1
strokes_ogs.tif
102
RTVSPost2010PropOp54
 70
     1
102
RTVSPost2010Prop55
280
     0
102
RTVSPost2010PropOp55
 70
     1
102
RTVSPost2010Prop56
140
1.0
102
RTVSPost2010PropOp56
 70
     1
102
RTVSPost2010Prop57
140
1.0
102
RTVSPost2010PropOp57
 70
     1
102
RTVSPropertyOp0
 70
     1
102
RTVSPropertyOp1
 70
     1
102
RTVSPropertyOp2
 70
     1
102
RTVSPropertyOp3
 70
     1
102
RTVSPropertyOp4
 70
     1
102
RTVSPropertyOp5
 70
     1
102
RTVSPropertyOp6
 70
     1
102
RTVSPropertyOp7
 70
     1
102
RTVSPropertyOp8
 70
     1
102
RTVSPropertyOp9
 70
     1
102
RTVSPropertyOp10
 70
     1
102
RTVSPropertyOp11
 70
     1
102
RTVSPropertyOp12
 70
     1
102
RTVSPropertyOp13
 70
     1
102
RTVSPropertyOp14
 70
     1
102
RTVSPropertyOp15
 70
     1
102
RTVSPropertyOp16
 70
     1
102
RTVSPropertyOp17
 70
     1
102
RTVSPropertyOp18
 70
     1
102
RTVSPropertyOp19
 70
     1
102
RTVSPropertyOp20
 70
     1
102
RTVSPropertyOp21
 70
     1
102
RTVSPropertyOp22
 70
     1
102
RTVSPropertyOp23
 70
     1
102
RTVSPropertyOp24
 70
     1
102
RTVSPropertyOp25
 70
     1
102
RTVSPropertyOp26
 70
     1
102
RTVSPropertyOp27
 70
     1
102
RTVSPropertyOp28
 70
     1
102
RTVSPropertyOp29
 70
     1
102
RTVSPropertyOp30
 70
     1
102
RTVSPropertyOp31
 70
     1
102
RTVSPropertyOp32
 70
     1
102
RTVSPropertyOp33
 70
     1
102
RTVSPropertyOp34
 70
     1
102
RTVSPropertyOp35
 70
     1
102
RTVSPropertyOp36
 70
     1
102
RTVSPropertyOp37
 70
     1
102
RTVSPropertyOp38
 70
     1
102
RTVSPropertyOp39
 70
     1
102
RTVSPropertyOp40
 70
     1
102
RTVSPropertyOp41
 70
     1
102
RTVSPropertyOp42
 70
     1
102
RTVSPropertyOp43
 70
     1
102
RTVSPropertyOp44
 70
     1
102
RTVSPropertyOp45
 70
     1
102
RTVSPropertyOp46
 70
     1
102
RTVSPropertyOp47
 70
     1
102
RTVSPropertyOp48
 70
     1
102
RTVSPropertyOp49
 70
     1
102
RTVSPropertyOp50
 70
     1
102
RTVSPropertyOp51
 70
     0
102
RTVSPropertyOp52
 70
     0
102
RTVSPropertyOp53
 70
     1
102
RTVSPropertyOp54
 70
     1
102
RTVSPropertyOp55
 70
     1
102
RTVSPropertyOp56
 70
     1
102
RTVSPropertyOp57
 70
     1
102
RTVSPropertyOp58
 70
     1
102
RTVSPropertyOp59
 70
     1
102
RTVSPropertyOp60
 70
     1
102
RTVSPropertyOp61
 70
     1
102
RTVSPropertyOp62
 70
     1
  0
XRECORD
  5
831
102
{ACAD_REACTORS
330
830
102
}
330
830
100
AcDbXrecord
280
     1
102
RTVSPost2010Prop28
280
     0
102
RTVSPost2010PropOp28
 70
     1
102
RTVSPost2010Prop29
280
     1
102
RTVSPost2010PropOp29
 70
     1
102
RTVSPost2010Prop30
280
     1
102
RTVSPost2010PropOp30
 70
     1
102
RTVSPost2010Prop31
280
     0
102
RTVSPost2010PropOp31
 70
     1
102
RTVSPost2010Prop32
280
     0
102
RTVSPost2010PropOp32
 70
     1
102
RTVSPost2010Prop33
280
     0
102
RTVSPost2010PropOp33
 70
     1
102
RTVSPost2010Prop34
280
     0
102
RTVSPost2010PropOp34
 70
     1
102
RTVSPost2010Prop35
280
     0
102
RTVSPost2010PropOp35
 70
     1
102
RTVSPost2010Prop36
280
     0
102
RTVSPost2010PropOp36
 70
     1
102
RTVSPost2010Prop37
 90
       50
102
RTVSPost2010PropOp37
 70
     0
102
RTVSPost2010Prop38
140
0.0
102
RTVSPost2010PropOp38
 70
     0
102
RTVSPost2010Prop39
140
1.0
102
RTVSPost2010PropOp39
 70
     0
102
RTVSPost2010Prop40
 90
        0
102
RTVSPost2010PropOp40
 70
     0
102
RTVSPost2010Prop41ColorIndex
 90
       18
102
RTVSPost2010Prop41ColorRGB
 90
        0
102
RTVSPost2010PropOp41
 70
     0
102
RTVSPost2010Prop42
 90
       50
102
RTVSPost2010PropOp42
 70
     0
102
RTVSPost2010Prop43
 90
        3
102
RTVSPost2010PropOp43
 70
     0
102
RTVSPost2010Prop44ColorIndex
 90
        5
102
RTVSPost2010Prop44ColorRGB
 90
      255
102
RTVSPost2010PropOp44
 70
     0
102
RTVSPost2010Prop45
280
     0
102
RTVSPost2010PropOp45
 70
     1
102
RTVSPost2010Prop46
 90
       50
102
RTVSPost2010PropOp46
 70
     0
102
RTVSPost2010Prop47
 90
       50
102
RTVSPost2010PropOp47
 70
     0
102
RTVSPost2010Prop48
 90
       50
102
RTVSPost2010PropOp48
 70
     0
102
RTVSPost2010Prop49
280
     0
102
RTVSPost2010PropOp49
 70
     1
102
RTVSPost2010Prop50
 90
       50
102
RTVSPost2010PropOp50
 70
     0
102
RTVSPost2010Prop51ColorIndex
 90
      256
102
RTVSPost2010Prop51ColorRGB
 90
-16777216
102
RTVSPost2010PropOp51
 70
     0
102
RTVSPost2010Prop52
140
1.0
102
RTVSPost2010PropOp52
 70
     0
102
RTVSPost2010Prop53
 90
        2
102
RTVSPost2010PropOp53
 70
     0
102
RTVSPost2010Prop54
  1
strokes_ogs.tif
102
RTVSPost2010PropOp54
 70
     0
102
RTVSPost2010Prop55
280
     0
102
RTVSPost2010PropOp55
 70
     1
102
RTVSPost2010Prop56
140
1.0
102
RTVSPost2010PropOp56
 70
     0
102
RTVSPost2010Prop57
140
1.0
102
RTVSPost2010PropOp57
 70
     0
102
RTVSPropertyOp0
 70
     0
102
RTVSPropertyOp1
 70
     0
102
RTVSPropertyOp2
 70
     0
102
RTVSPropertyOp3
 70
     0
102
RTVSPropertyOp4
 70
     0
102
RTVSPropertyOp5
 70
     0
102
RTVSPropertyOp6
 70
     0
102
RTVSPropertyOp7
 70
     0
102
RTVSPropertyOp8
 70
     0
102
RTVSPropertyOp9
 70
     0
102
RTVSPropertyOp10
 70
     0
102
RTVSPropertyOp11
 70
     0
102
RTVSPropertyOp12
 70
     0
102
RTVSPropertyOp13
 70
     0
102
RTVSPropertyOp14
 70
     2
102
RTVSPropertyOp15
 70
     0
102
RTVSPropertyOp16
 70
     0
102
RTVSPropertyOp17
 70
     0
102
RTVSPropertyOp18
 70
     0
102
RTVSPropertyOp19
 70
     0
102
RTVSPropertyOp20
 70
     0
102
RTVSPropertyOp21
 70
     0
102
RTVSPropertyOp22
 70
     0
102
RTVSPropertyOp23
 70
     0
102
RTVSPropertyOp24
 70
     0
102
RTVSPropertyOp25
 70
     0
102
RTVSPropertyOp26
 70
     0
102
RTVSPropertyOp27
 70
     0
102
RTVSPropertyOp28
 70
     1
102
RTVSPropertyOp29
 70
     1
102
RTVSPropertyOp30
 70
     1
102
RTVSPropertyOp31
 70
     1
102
RTVSPropertyOp32
 70
     1
102
RTVSPropertyOp33
 70
     1
102
RTVSPropertyOp34
 70
     1
102
RTVSPropertyOp35
 70
     1
102
RTVSPropertyOp36
 70
     1
102
RTVSPropertyOp37
 70
     0
102
RTVSPropertyOp38
 70
     0
102
RTVSPropertyOp39
 70
     0
102
RTVSPropertyOp40
 70
     0
102
RTVSPropertyOp41
 70
     0
102
RTVSPropertyOp42
 70
     0
102
RTVSPropertyOp43
 70
     0
102
RTVSPropertyOp44
 70
     0
102
RTVSPropertyOp45
 70
     1
102
RTVSPropertyOp46
 70
     0
102
RTVSPropertyOp47
 70
     0
102
RTVSPropertyOp48
 70
     0
102
RTVSPropertyOp49
 70
     1
102
RTVSPropertyOp50
 70
     0
102
RTVSPropertyOp51
 70
     0
102
RTVSPropertyOp52
 70
     0
102
RTVSPropertyOp53
 70
     0
102
RTVSPropertyOp54
 70
     0
102
RTVSPropertyOp55
 70
     1
102
RTVSPropertyOp56
 70
     0
102
RTVSPropertyOp57
 70
     0
102
RTVSPropertyOp58
 70
     0
102
RTVSPropertyOp59
 70
     0
102
RTVSPropertyOp60
 70
     0
102
RTVSPropertyOp61
 70
     0
102
RTVSPropertyOp62
 70
     0
  0
XRECORD
  5
81F
102
{ACAD_REACTORS
330
81E
102
}
330
81E
100
AcDbXrecord
280
     1
102
RTVSPost2010Prop28
280
     0
102
RTVSPost2010PropOp28
 70
     1
102
RTVSPost2010Prop29
280
     1
102
RTVSPost2010PropOp29
 70
     1
102
RTVSPost2010Prop30
280
     1
102
RTVSPost2010PropOp30
 70
     1
102
RTVSPost2010Prop31
280
     0
102
RTVSPost2010PropOp31
 70
     1
102
RTVSPost2010Prop32
280
     0
102
RTVSPost2010PropOp32
 70
     1
102
RTVSPost2010Prop33
280
     0
102
RTVSPost2010PropOp33
 70
     1
102
RTVSPost2010Prop34
280
     0
102
RTVSPost2010PropOp34
 70
     1
102
RTVSPost2010Prop35
280
     0
102
RTVSPost2010PropOp35
 70
     1
102
RTVSPost2010Prop36
280
     0
102
RTVSPost2010PropOp36
 70
     1
102
RTVSPost2010Prop37
 90
       50
102
RTVSPost2010PropOp37
 70
     1
102
RTVSPost2010Prop38
140
0.0
102
RTVSPost2010PropOp38
 70
     1
102
RTVSPost2010Prop39
140
1.0
102
RTVSPost2010PropOp39
 70
     1
102
RTVSPost2010Prop40
 90
        0
102
RTVSPost2010PropOp40
 70
     1
102
RTVSPost2010Prop41ColorIndex
 90
       18
102
RTVSPost2010Prop41ColorRGB
 90
        0
102
RTVSPost2010PropOp41
 70
     1
102
RTVSPost2010Prop42
 90
       50
102
RTVSPost2010PropOp42
 70
     1
102
RTVSPost2010Prop43
 90
        3
102
RTVSPost2010PropOp43
 70
     1
102
RTVSPost2010Prop44ColorIndex
 90
        5
102
RTVSPost2010Prop44ColorRGB
 90
      255
102
RTVSPost2010PropOp44
 70
     1
102
RTVSPost2010Prop45
280
     0
102
RTVSPost2010PropOp45
 70
     1
102
RTVSPost2010Prop46
 90
       50
102
RTVSPost2010PropOp46
 70
     1
102
RTVSPost2010Prop47
 90
       50
102
RTVSPost2010PropOp47
 70
     1
102
RTVSPost2010Prop48
 90
       50
102
RTVSPost2010PropOp48
 70
     1
102
RTVSPost2010Prop49
280
     0
102
RTVSPost2010PropOp49
 70
     1
102
RTVSPost2010Prop50
 90
       50
102
RTVSPost2010PropOp50
 70
     1
102
RTVSPost2010Prop51ColorIndex
 90
      256
102
RTVSPost2010Prop51ColorRGB
 90
-16777216
102
RTVSPost2010PropOp51
 70
     0
102
RTVSPost2010Prop52
140
1.0
102
RTVSPost2010PropOp52
 70
     0
102
RTVSPost2010Prop53
 90
        2
102
RTVSPost2010PropOp53
 70
     1
102
RTVSPost2010Prop54
  1
strokes_ogs.tif
102
RTVSPost2010PropOp54
 70
     1
102
RTVSPost2010Prop55
280
     0
102
RTVSPost2010PropOp55
 70
     1
102
RTVSPost2010Prop56
140
1.0
102
RTVSPost2010PropOp56
 70
     1
102
RTVSPost2010Prop57
140
1.0
102
RTVSPost2010PropOp57
 70
     1
102
RTVSPropertyOp0
 70
     1
102
RTVSPropertyOp1
 70
     1
102
RTVSPropertyOp2
 70
     1
102
RTVSPropertyOp3
 70
     1
102
RTVSPropertyOp4
 70
     1
102
RTVSPropertyOp5
 70
     1
102
RTVSPropertyOp6
 70
     1
102
RTVSPropertyOp7
 70
     1
102
RTVSPropertyOp8
 70
     1
102
RTVSPropertyOp9
 70
     1
102
RTVSPropertyOp10
 70
     1
102
RTVSPropertyOp11
 70
     1
102
RTVSPropertyOp12
 70
     1
102
RTVSPropertyOp13
 70
     1
102
RTVSPropertyOp14
 70
     1
102
RTVSPropertyOp15
 70
     1
102
RTVSPropertyOp16
 70
     1
102
RTVSPropertyOp17
 70
     1
102
RTVSPropertyOp18
 70
     1
102
RTVSPropertyOp19
 70
     1
102
RTVSPropertyOp20
 70
     1
102
RTVSPropertyOp21
 70
     1
102
RTVSPropertyOp22
 70
     1
102
RTVSPropertyOp23
 70
     1
102
RTVSPropertyOp24
 70
     1
102
RTVSPropertyOp25
 70
     1
102
RTVSPropertyOp26
 70
     1
102
RTVSPropertyOp27
 70
     1
102
RTVSPropertyOp28
 70
     1
102
RTVSPropertyOp29
 70
     1
102
RTVSPropertyOp30
 70
     1
102
RTVSPropertyOp31
 70
     1
102
RTVSPropertyOp32
 70
     1
102
RTVSPropertyOp33
 70
     1
102
RTVSPropertyOp34
 70
     1
102
RTVSPropertyOp35
 70
     1
102
RTVSPropertyOp36
 70
     1
102
RTVSPropertyOp37
 70
     1
102
RTVSPropertyOp38
 70
     1
102
RTVSPropertyOp39
 70
     1
102
RTVSPropertyOp40
 70
     1
102
RTVSPropertyOp41
 70
     1
102
RTVSPropertyOp42
 70
     1
102
RTVSPropertyOp43
 70
     1
102
RTVSPropertyOp44
 70
     1
102
RTVSPropertyOp45
 70
     1
102
RTVSPropertyOp46
 70
     1
102
RTVSPropertyOp47
 70
     1
102
RTVSPropertyOp48
 70
     1
102
RTVSPropertyOp49
 70
     1
102
RTVSPropertyOp50
 70
     1
102
RTVSPropertyOp51
 70
     0
102
RTVSPropertyOp52
 70
     0
102
RTVSPropertyOp53
 70
     1
102
RTVSPropertyOp54
 70
     1
102
RTVSPropertyOp55
 70
     1
102
RTVSPropertyOp56
 70
     1
102
RTVSPropertyOp57
 70
     1
102
RTVSPropertyOp58
 70
     1
102
RTVSPropertyOp59
 70
     1
102
RTVSPropertyOp60
 70
     1
102
RTVSPropertyOp61
 70
     1
102
RTVSPropertyOp62
 70
     1
  0
XRECORD
  5
803
102
{ACAD_REACTORS
330
802
102
}
330
802
100
AcDbXrecord
280
     1
102
RTVSPost2010Prop28
280
     0
102
RTVSPost2010PropOp28
 70
     1
102
RTVSPost2010Prop29
280
     1
102
RTVSPost2010PropOp29
 70
     1
102
RTVSPost2010Prop30
280
     1
102
RTVSPost2010PropOp30
 70
     1
102
RTVSPost2010Prop31
280
     0
102
RTVSPost2010PropOp31
 70
     1
102
RTVSPost2010Prop32
280
     0
102
RTVSPost2010PropOp32
 70
     1
102
RTVSPost2010Prop33
280
     0
102
RTVSPost2010PropOp33
 70
     1
102
RTVSPost2010Prop34
280
     0
102
RTVSPost2010PropOp34
 70
     1
102
RTVSPost2010Prop35
280
     0
102
RTVSPost2010PropOp35
 70
     1
102
RTVSPost2010Prop36
280
     0
102
RTVSPost2010PropOp36
 70
     1
102
RTVSPost2010Prop37
 90
       50
102
RTVSPost2010PropOp37
 70
     1
102
RTVSPost2010Prop38
140
0.0
102
RTVSPost2010PropOp38
 70
     1
102
RTVSPost2010Prop39
140
1.0
102
RTVSPost2010PropOp39
 70
     1
102
RTVSPost2010Prop40
 90
        0
102
RTVSPost2010PropOp40
 70
     1
102
RTVSPost2010Prop41ColorIndex
 90
       18
102
RTVSPost2010Prop41ColorRGB
 90
        0
102
RTVSPost2010PropOp41
 70
     1
102
RTVSPost2010Prop42
 90
       50
102
RTVSPost2010PropOp42
 70
     1
102
RTVSPost2010Prop43
 90
        3
102
RTVSPost2010PropOp43
 70
     1
102
RTVSPost2010Prop44ColorIndex
 90
        5
102
RTVSPost2010Prop44ColorRGB
 90
      255
102
RTVSPost2010PropOp44
 70
     1
102
RTVSPost2010Prop45
280
     0
102
RTVSPost2010PropOp45
 70
     1
102
RTVSPost2010Prop46
 90
       50
102
RTVSPost2010PropOp46
 70
     1
102
RTVSPost2010Prop47
 90
       50
102
RTVSPost2010PropOp47
 70
     1
102
RTVSPost2010Prop48
 90
       50
102
RTVSPost2010PropOp48
 70
     1
102
RTVSPost2010Prop49
280
     0
102
RTVSPost2010PropOp49
 70
     1
102
RTVSPost2010Prop50
 90
       50
102
RTVSPost2010PropOp50
 70
     1
102
RTVSPost2010Prop51ColorIndex
 90
      256
102
RTVSPost2010Prop51ColorRGB
 90
-16777216
102
RTVSPost2010PropOp51
 70
     0
102
RTVSPost2010Prop52
140
1.0
102
RTVSPost2010PropOp52
 70
     0
102
RTVSPost2010Prop53
 90
        2
102
RTVSPost2010PropOp53
 70
     1
102
RTVSPost2010Prop54
  1
strokes_ogs.tif
102
RTVSPost2010PropOp54
 70
     1
102
RTVSPost2010Prop55
280
     0
102
RTVSPost2010PropOp55
 70
     1
102
RTVSPost2010Prop56
140
1.0
102
RTVSPost2010PropOp56
 70
     1
102
RTVSPost2010Prop57
140
1.0
102
RTVSPost2010PropOp57
 70
     1
102
RTVSPropertyOp0
 70
     1
102
RTVSPropertyOp1
 70
     1
102
RTVSPropertyOp2
 70
     1
102
RTVSPropertyOp3
 70
     1
102
RTVSPropertyOp4
 70
     1
102
RTVSPropertyOp5
 70
     1
102
RTVSPropertyOp6
 70
     1
102
RTVSPropertyOp7
 70
     1
102
RTVSPropertyOp8
 70
     1
102
RTVSPropertyOp9
 70
     1
102
RTVSPropertyOp10
 70
     1
102
RTVSPropertyOp11
 70
     1
102
RTVSPropertyOp12
 70
     1
102
RTVSPropertyOp13
 70
     1
102
RTVSPropertyOp14
 70
     1
102
RTVSPropertyOp15
 70
     1
102
RTVSPropertyOp16
 70
     1
102
RTVSPropertyOp17
 70
     1
102
RTVSPropertyOp18
 70
     1
102
RTVSPropertyOp19
 70
     1
102
RTVSPropertyOp20
 70
     1
102
RTVSPropertyOp21
 70
     1
102
RTVSPropertyOp22
 70
     1
102
RTVSPropertyOp23
 70
     1
102
RTVSPropertyOp24
 70
     1
102
RTVSPropertyOp25
 70
     1
102
RTVSPropertyOp26
 70
     1
102
RTVSPropertyOp27
 70
     1
102
RTVSPropertyOp28
 70
     1
102
RTVSPropertyOp29
 70
     1
102
RTVSPropertyOp30
 70
     1
102
RTVSPropertyOp31
 70
     1
102
RTVSPropertyOp32
 70
     1
102
RTVSPropertyOp33
 70
     1
102
RTVSPropertyOp34
 70
     1
102
RTVSPropertyOp35
 70
     1
102
RTVSPropertyOp36
 70
     1
102
RTVSPropertyOp37
 70
     1
102
RTVSPropertyOp38
 70
     1
102
RTVSPropertyOp39
 70
     1
102
RTVSPropertyOp40
 70
     1
102
RTVSPropertyOp41
 70
     1
102
RTVSPropertyOp42
 70
     1
102
RTVSPropertyOp43
 70
     1
102
RTVSPropertyOp44
 70
     1
102
RTVSPropertyOp45
 70
     1
102
RTVSPropertyOp46
 70
     1
102
RTVSPropertyOp47
 70
     1
102
RTVSPropertyOp48
 70
     1
102
RTVSPropertyOp49
 70
     1
102
RTVSPropertyOp50
 70
     1
102
RTVSPropertyOp51
 70
     0
102
RTVSPropertyOp52
 70
     0
102
RTVSPropertyOp53
 70
     1
102
RTVSPropertyOp54
 70
     1
102
RTVSPropertyOp55
 70
     1
102
RTVSPropertyOp56
 70
     1
102
RTVSPropertyOp57
 70
     1
102
RTVSPropertyOp58
 70
     1
102
RTVSPropertyOp59
 70
     1
102
RTVSPropertyOp60
 70
     1
102
RTVSPropertyOp61
 70
     1
102
RTVSPropertyOp62
 70
     1
  0
XRECORD
  5
805
102
{ACAD_REACTORS
330
804
102
}
330
804
100
AcDbXrecord
280
     1
102
RTVSPost2010Prop28
280
     0
102
RTVSPost2010PropOp28
 70
     1
102
RTVSPost2010Prop29
280
     1
102
RTVSPost2010PropOp29
 70
     1
102
RTVSPost2010Prop30
280
     1
102
RTVSPost2010PropOp30
 70
     1
102
RTVSPost2010Prop31
280
     0
102
RTVSPost2010PropOp31
 70
     1
102
RTVSPost2010Prop32
280
     0
102
RTVSPost2010PropOp32
 70
     1
102
RTVSPost2010Prop33
280
     0
102
RTVSPost2010PropOp33
 70
     1
102
RTVSPost2010Prop34
280
     0
102
RTVSPost2010PropOp34
 70
     1
102
RTVSPost2010Prop35
280
     0
102
RTVSPost2010PropOp35
 70
     1
102
RTVSPost2010Prop36
280
     0
102
RTVSPost2010PropOp36
 70
     1
102
RTVSPost2010Prop37
 90
       50
102
RTVSPost2010PropOp37
 70
     1
102
RTVSPost2010Prop38
140
0.0
102
RTVSPost2010PropOp38
 70
     1
102
RTVSPost2010Prop39
140
1.0
102
RTVSPost2010PropOp39
 70
     1
102
RTVSPost2010Prop40
 90
        0
102
RTVSPost2010PropOp40
 70
     1
102
RTVSPost2010Prop41ColorIndex
 90
       18
102
RTVSPost2010Prop41ColorRGB
 90
        0
102
RTVSPost2010PropOp41
 70
     1
102
RTVSPost2010Prop42
 90
       50
102
RTVSPost2010PropOp42
 70
     1
102
RTVSPost2010Prop43
 90
        3
102
RTVSPost2010PropOp43
 70
     1
102
RTVSPost2010Prop44ColorIndex
 90
        5
102
RTVSPost2010Prop44ColorRGB
 90
      255
102
RTVSPost2010PropOp44
 70
     1
102
RTVSPost2010Prop45
280
     0
102
RTVSPost2010PropOp45
 70
     1
102
RTVSPost2010Prop46
 90
       50
102
RTVSPost2010PropOp46
 70
     1
102
RTVSPost2010Prop47
 90
       50
102
RTVSPost2010PropOp47
 70
     1
102
RTVSPost2010Prop48
 90
       50
102
RTVSPost2010PropOp48
 70
     1
102
RTVSPost2010Prop49
280
     0
102
RTVSPost2010PropOp49
 70
     1
102
RTVSPost2010Prop50
 90
       50
102
RTVSPost2010PropOp50
 70
     1
102
RTVSPost2010Prop51ColorIndex
 90
      256
102
RTVSPost2010Prop51ColorRGB
 90
-16777216
102
RTVSPost2010PropOp51
 70
     0
102
RTVSPost2010Prop52
140
1.0
102
RTVSPost2010PropOp52
 70
     0
102
RTVSPost2010Prop53
 90
        2
102
RTVSPost2010PropOp53
 70
     1
102
RTVSPost2010Prop54
  1
strokes_ogs.tif
102
RTVSPost2010PropOp54
 70
     1
102
RTVSPost2010Prop55
280
     0
102
RTVSPost2010PropOp55
 70
     1
102
RTVSPost2010Prop56
140
1.0
102
RTVSPost2010PropOp56
 70
     1
102
RTVSPost2010Prop57
140
1.0
102
RTVSPost2010PropOp57
 70
     1
102
RTVSPropertyOp0
 70
     1
102
RTVSPropertyOp1
 70
     1
102
RTVSPropertyOp2
 70
     1
102
RTVSPropertyOp3
 70
     1
102
RTVSPropertyOp4
 70
     1
102
RTVSPropertyOp5
 70
     1
102
RTVSPropertyOp6
 70
     1
102
RTVSPropertyOp7
 70
     1
102
RTVSPropertyOp8
 70
     1
102
RTVSPropertyOp9
 70
     1
102
RTVSPropertyOp10
 70
     1
102
RTVSPropertyOp11
 70
     1
102
RTVSPropertyOp12
 70
     1
102
RTVSPropertyOp13
 70
     1
102
RTVSPropertyOp14
 70
     1
102
RTVSPropertyOp15
 70
     1
102
RTVSPropertyOp16
 70
     1
102
RTVSPropertyOp17
 70
     1
102
RTVSPropertyOp18
 70
     1
102
RTVSPropertyOp19
 70
     1
102
RTVSPropertyOp20
 70
     1
102
RTVSPropertyOp21
 70
     1
102
RTVSPropertyOp22
 70
     1
102
RTVSPropertyOp23
 70
     1
102
RTVSPropertyOp24
 70
     1
102
RTVSPropertyOp25
 70
     1
102
RTVSPropertyOp26
 70
     1
102
RTVSPropertyOp27
 70
     1
102
RTVSPropertyOp28
 70
     1
102
RTVSPropertyOp29
 70
     1
102
RTVSPropertyOp30
 70
     1
102
RTVSPropertyOp31
 70
     1
102
RTVSPropertyOp32
 70
     1
102
RTVSPropertyOp33
 70
     1
102
RTVSPropertyOp34
 70
     1
102
RTVSPropertyOp35
 70
     1
102
RTVSPropertyOp36
 70
     1
102
RTVSPropertyOp37
 70
     1
102
RTVSPropertyOp38
 70
     1
102
RTVSPropertyOp39
 70
     1
102
RTVSPropertyOp40
 70
     1
102
RTVSPropertyOp41
 70
     1
102
RTVSPropertyOp42
 70
     1
102
RTVSPropertyOp43
 70
     1
102
RTVSPropertyOp44
 70
     1
102
RTVSPropertyOp45
 70
     1
102
RTVSPropertyOp46
 70
     1
102
RTVSPropertyOp47
 70
     1
102
RTVSPropertyOp48
 70
     1
102
RTVSPropertyOp49
 70
     1
102
RTVSPropertyOp50
 70
     1
102
RTVSPropertyOp51
 70
     0
102
RTVSPropertyOp52
 70
     0
102
RTVSPropertyOp53
 70
     1
102
RTVSPropertyOp54
 70
     1
102
RTVSPropertyOp55
 70
     1
102
RTVSPropertyOp56
 70
     1
102
RTVSPropertyOp57
 70
     1
102
RTVSPropertyOp58
 70
     1
102
RTVSPropertyOp59
 70
     1
102
RTVSPropertyOp60
 70
     1
102
RTVSPropertyOp61
 70
     1
102
RTVSPropertyOp62
 70
     1
  0
XRECORD
  5
807
102
{ACAD_REACTORS
330
806
102
}
330
806
100
AcDbXrecord
280
     1
102
RTVSPost2010Prop28
280
     0
102
RTVSPost2010PropOp28
 70
     1
102
RTVSPost2010Prop29
280
     1
102
RTVSPost2010PropOp29
 70
     1
102
RTVSPost2010Prop30
280
     1
102
RTVSPost2010PropOp30
 70
     1
102
RTVSPost2010Prop31
280
     0
102
RTVSPost2010PropOp31
 70
     1
102
RTVSPost2010Prop32
280
     0
102
RTVSPost2010PropOp32
 70
     1
102
RTVSPost2010Prop33
280
     0
102
RTVSPost2010PropOp33
 70
     1
102
RTVSPost2010Prop34
280
     0
102
RTVSPost2010PropOp34
 70
     1
102
RTVSPost2010Prop35
280
     0
102
RTVSPost2010PropOp35
 70
     1
102
RTVSPost2010Prop36
280
     0
102
RTVSPost2010PropOp36
 70
     1
102
RTVSPost2010Prop37
 90
       50
102
RTVSPost2010PropOp37
 70
     1
102
RTVSPost2010Prop38
140
0.0
102
RTVSPost2010PropOp38
 70
     1
102
RTVSPost2010Prop39
140
1.0
102
RTVSPost2010PropOp39
 70
     1
102
RTVSPost2010Prop40
 90
        0
102
RTVSPost2010PropOp40
 70
     1
102
RTVSPost2010Prop41ColorIndex
 90
       18
102
RTVSPost2010Prop41ColorRGB
 90
        0
102
RTVSPost2010PropOp41
 70
     1
102
RTVSPost2010Prop42
 90
       50
102
RTVSPost2010PropOp42
 70
     1
102
RTVSPost2010Prop43
 90
        3
102
RTVSPost2010PropOp43
 70
     1
102
RTVSPost2010Prop44ColorIndex
 90
        5
102
RTVSPost2010Prop44ColorRGB
 90
      255
102
RTVSPost2010PropOp44
 70
     1
102
RTVSPost2010Prop45
280
     0
102
RTVSPost2010PropOp45
 70
     1
102
RTVSPost2010Prop46
 90
       50
102
RTVSPost2010PropOp46
 70
     1
102
RTVSPost2010Prop47
 90
       50
102
RTVSPost2010PropOp47
 70
     1
102
RTVSPost2010Prop48
 90
       50
102
RTVSPost2010PropOp48
 70
     1
102
RTVSPost2010Prop49
280
     0
102
RTVSPost2010PropOp49
 70
     1
102
RTVSPost2010Prop50
 90
       50
102
RTVSPost2010PropOp50
 70
     1
102
RTVSPost2010Prop51ColorIndex
 90
      256
102
RTVSPost2010Prop51ColorRGB
 90
-16777216
102
RTVSPost2010PropOp51
 70
     0
102
RTVSPost2010Prop52
140
1.0
102
RTVSPost2010PropOp52
 70
     0
102
RTVSPost2010Prop53
 90
        2
102
RTVSPost2010PropOp53
 70
     1
102
RTVSPost2010Prop54
  1
strokes_ogs.tif
102
RTVSPost2010PropOp54
 70
     1
102
RTVSPost2010Prop55
280
     0
102
RTVSPost2010PropOp55
 70
     1
102
RTVSPost2010Prop56
140
1.0
102
RTVSPost2010PropOp56
 70
     1
102
RTVSPost2010Prop57
140
1.0
102
RTVSPost2010PropOp57
 70
     1
102
RTVSPropertyOp0
 70
     1
102
RTVSPropertyOp1
 70
     1
102
RTVSPropertyOp2
 70
     1
102
RTVSPropertyOp3
 70
     1
102
RTVSPropertyOp4
 70
     1
102
RTVSPropertyOp5
 70
     1
102
RTVSPropertyOp6
 70
     1
102
RTVSPropertyOp7
 70
     1
102
RTVSPropertyOp8
 70
     1
102
RTVSPropertyOp9
 70
     1
102
RTVSPropertyOp10
 70
     1
102
RTVSPropertyOp11
 70
     1
102
RTVSPropertyOp12
 70
     1
102
RTVSPropertyOp13
 70
     1
102
RTVSPropertyOp14
 70
     1
102
RTVSPropertyOp15
 70
     1
102
RTVSPropertyOp16
 70
     1
102
RTVSPropertyOp17
 70
     1
102
RTVSPropertyOp18
 70
     1
102
RTVSPropertyOp19
 70
     1
102
RTVSPropertyOp20
 70
     1
102
RTVSPropertyOp21
 70
     1
102
RTVSPropertyOp22
 70
     1
102
RTVSPropertyOp23
 70
     1
102
RTVSPropertyOp24
 70
     1
102
RTVSPropertyOp25
 70
     1
102
RTVSPropertyOp26
 70
     1
102
RTVSPropertyOp27
 70
     1
102
RTVSPropertyOp28
 70
     1
102
RTVSPropertyOp29
 70
     1
102
RTVSPropertyOp30
 70
     1
102
RTVSPropertyOp31
 70
     1
102
RTVSPropertyOp32
 70
     1
102
RTVSPropertyOp33
 70
     1
102
RTVSPropertyOp34
 70
     1
102
RTVSPropertyOp35
 70
     1
102
RTVSPropertyOp36
 70
     1
102
RTVSPropertyOp37
 70
     1
102
RTVSPropertyOp38
 70
     1
102
RTVSPropertyOp39
 70
     1
102
RTVSPropertyOp40
 70
     1
102
RTVSPropertyOp41
 70
     1
102
RTVSPropertyOp42
 70
     1
102
RTVSPropertyOp43
 70
     1
102
RTVSPropertyOp44
 70
     1
102
RTVSPropertyOp45
 70
     1
102
RTVSPropertyOp46
 70
     1
102
RTVSPropertyOp47
 70
     1
102
RTVSPropertyOp48
 70
     1
102
RTVSPropertyOp49
 70
     1
102
RTVSPropertyOp50
 70
     1
102
RTVSPropertyOp51
 70
     0
102
RTVSPropertyOp52
 70
     0
102
RTVSPropertyOp53
 70
     1
102
RTVSPropertyOp54
 70
     1
102
RTVSPropertyOp55
 70
     1
102
RTVSPropertyOp56
 70
     1
102
RTVSPropertyOp57
 70
     1
102
RTVSPropertyOp58
 70
     1
102
RTVSPropertyOp59
 70
     1
102
RTVSPropertyOp60
 70
     1
102
RTVSPropertyOp61
 70
     1
102
RTVSPropertyOp62
 70
     1
  0
XRECORD
  5
809
102
{ACAD_REACTORS
330
808
102
}
330
808
100
AcDbXrecord
280
     1
102
RTVSPost2010Prop28
280
     0
102
RTVSPost2010PropOp28
 70
     1
102
RTVSPost2010Prop29
280
     1
102
RTVSPost2010PropOp29
 70
     1
102
RTVSPost2010Prop30
280
     1
102
RTVSPost2010PropOp30
 70
     1
102
RTVSPost2010Prop31
280
     0
102
RTVSPost2010PropOp31
 70
     1
102
RTVSPost2010Prop32
280
     0
102
RTVSPost2010PropOp32
 70
     1
102
RTVSPost2010Prop33
280
     0
102
RTVSPost2010PropOp33
 70
     1
102
RTVSPost2010Prop34
280
     0
102
RTVSPost2010PropOp34
 70
     1
102
RTVSPost2010Prop35
280
     0
102
RTVSPost2010PropOp35
 70
     1
102
RTVSPost2010Prop36
280
     0
102
RTVSPost2010PropOp36
 70
     1
102
RTVSPost2010Prop37
 90
       50
102
RTVSPost2010PropOp37
 70
     1
102
RTVSPost2010Prop38
140
0.0
102
RTVSPost2010PropOp38
 70
     1
102
RTVSPost2010Prop39
140
1.0
102
RTVSPost2010PropOp39
 70
     1
102
RTVSPost2010Prop40
 90
        0
102
RTVSPost2010PropOp40
 70
     1
102
RTVSPost2010Prop41ColorIndex
 90
       18
102
RTVSPost2010Prop41ColorRGB
 90
        0
102
RTVSPost2010PropOp41
 70
     1
102
RTVSPost2010Prop42
 90
       50
102
RTVSPost2010PropOp42
 70
     1
102
RTVSPost2010Prop43
 90
        3
102
RTVSPost2010PropOp43
 70
     1
102
RTVSPost2010Prop44ColorIndex
 90
        5
102
RTVSPost2010Prop44ColorRGB
 90
      255
102
RTVSPost2010PropOp44
 70
     1
102
RTVSPost2010Prop45
280
     0
102
RTVSPost2010PropOp45
 70
     1
102
RTVSPost2010Prop46
 90
       50
102
RTVSPost2010PropOp46
 70
     1
102
RTVSPost2010Prop47
 90
       50
102
RTVSPost2010PropOp47
 70
     1
102
RTVSPost2010Prop48
 90
       50
102
RTVSPost2010PropOp48
 70
     1
102
RTVSPost2010Prop49
280
     0
102
RTVSPost2010PropOp49
 70
     1
102
RTVSPost2010Prop50
 90
       50
102
RTVSPost2010PropOp50
 70
     1
102
RTVSPost2010Prop51ColorIndex
 90
      256
102
RTVSPost2010Prop51ColorRGB
 90
-16777216
102
RTVSPost2010PropOp51
 70
     0
102
RTVSPost2010Prop52
140
1.0
102
RTVSPost2010PropOp52
 70
     0
102
RTVSPost2010Prop53
 90
        2
102
RTVSPost2010PropOp53
 70
     1
102
RTVSPost2010Prop54
  1
strokes_ogs.tif
102
RTVSPost2010PropOp54
 70
     1
102
RTVSPost2010Prop55
280
     0
102
RTVSPost2010PropOp55
 70
     1
102
RTVSPost2010Prop56
140
1.0
102
RTVSPost2010PropOp56
 70
     1
102
RTVSPost2010Prop57
140
1.0
102
RTVSPost2010PropOp57
 70
     1
102
RTVSPropertyOp0
 70
     1
102
RTVSPropertyOp1
 70
     1
102
RTVSPropertyOp2
 70
     1
102
RTVSPropertyOp3
 70
     1
102
RTVSPropertyOp4
 70
     1
102
RTVSPropertyOp5
 70
     1
102
RTVSPropertyOp6
 70
     1
102
RTVSPropertyOp7
 70
     1
102
RTVSPropertyOp8
 70
     1
102
RTVSPropertyOp9
 70
     1
102
RTVSPropertyOp10
 70
     1
102
RTVSPropertyOp11
 70
     1
102
RTVSPropertyOp12
 70
     1
102
RTVSPropertyOp13
 70
     1
102
RTVSPropertyOp14
 70
     1
102
RTVSPropertyOp15
 70
     1
102
RTVSPropertyOp16
 70
     1
102
RTVSPropertyOp17
 70
     1
102
RTVSPropertyOp18
 70
     1
102
RTVSPropertyOp19
 70
     1
102
RTVSPropertyOp20
 70
     1
102
RTVSPropertyOp21
 70
     1
102
RTVSPropertyOp22
 70
     1
102
RTVSPropertyOp23
 70
     1
102
RTVSPropertyOp24
 70
     1
102
RTVSPropertyOp25
 70
     1
102
RTVSPropertyOp26
 70
     1
102
RTVSPropertyOp27
 70
     1
102
RTVSPropertyOp28
 70
     1
102
RTVSPropertyOp29
 70
     1
102
RTVSPropertyOp30
 70
     1
102
RTVSPropertyOp31
 70
     1
102
RTVSPropertyOp32
 70
     1
102
RTVSPropertyOp33
 70
     1
102
RTVSPropertyOp34
 70
     1
102
RTVSPropertyOp35
 70
     1
102
RTVSPropertyOp36
 70
     1
102
RTVSPropertyOp37
 70
     1
102
RTVSPropertyOp38
 70
     1
102
RTVSPropertyOp39
 70
     1
102
RTVSPropertyOp40
 70
     1
102
RTVSPropertyOp41
 70
     1
102
RTVSPropertyOp42
 70
     1
102
RTVSPropertyOp43
 70
     1
102
RTVSPropertyOp44
 70
     1
102
RTVSPropertyOp45
 70
     1
102
RTVSPropertyOp46
 70
     1
102
RTVSPropertyOp47
 70
     1
102
RTVSPropertyOp48
 70
     1
102
RTVSPropertyOp49
 70
     1
102
RTVSPropertyOp50
 70
     1
102
RTVSPropertyOp51
 70
     0
102
RTVSPropertyOp52
 70
     0
102
RTVSPropertyOp53
 70
     1
102
RTVSPropertyOp54
 70
     1
102
RTVSPropertyOp55
 70
     1
102
RTVSPropertyOp56
 70
     1
102
RTVSPropertyOp57
 70
     1
102
RTVSPropertyOp58
 70
     1
102
RTVSPropertyOp59
 70
     1
102
RTVSPropertyOp60
 70
     1
102
RTVSPropertyOp61
 70
     1
102
RTVSPropertyOp62
 70
     1
  0
XRECORD
  5
811
102
{ACAD_REACTORS
330
810
102
}
330
810
100
AcDbXrecord
280
     1
102
RTVSPost2010Prop28
280
     0
102
RTVSPost2010PropOp28
 70
     1
102
RTVSPost2010Prop29
280
     1
102
RTVSPost2010PropOp29
 70
     1
102
RTVSPost2010Prop30
280
     1
102
RTVSPost2010PropOp30
 70
     1
102
RTVSPost2010Prop31
280
     0
102
RTVSPost2010PropOp31
 70
     1
102
RTVSPost2010Prop32
280
     0
102
RTVSPost2010PropOp32
 70
     1
102
RTVSPost2010Prop33
280
     0
102
RTVSPost2010PropOp33
 70
     1
102
RTVSPost2010Prop34
280
     0
102
RTVSPost2010PropOp34
 70
     1
102
RTVSPost2010Prop35
280
     0
102
RTVSPost2010PropOp35
 70
     1
102
RTVSPost2010Prop36
280
     0
102
RTVSPost2010PropOp36
 70
     1
102
RTVSPost2010Prop37
 90
       50
102
RTVSPost2010PropOp37
 70
     1
102
RTVSPost2010Prop38
140
0.0
102
RTVSPost2010PropOp38
 70
     1
102
RTVSPost2010Prop39
140
1.0
102
RTVSPost2010PropOp39
 70
     1
102
RTVSPost2010Prop40
 90
        0
102
RTVSPost2010PropOp40
 70
     1
102
RTVSPost2010Prop41ColorIndex
 90
       18
102
RTVSPost2010Prop41ColorRGB
 90
        0
102
RTVSPost2010PropOp41
 70
     1
102
RTVSPost2010Prop42
 90
       50
102
RTVSPost2010PropOp42
 70
     1
102
RTVSPost2010Prop43
 90
        3
102
RTVSPost2010PropOp43
 70
     1
102
RTVSPost2010Prop44ColorIndex
 90
        5
102
RTVSPost2010Prop44ColorRGB
 90
      255
102
RTVSPost2010PropOp44
 70
     1
102
RTVSPost2010Prop45
280
     0
102
RTVSPost2010PropOp45
 70
     1
102
RTVSPost2010Prop46
 90
       50
102
RTVSPost2010PropOp46
 70
     1
102
RTVSPost2010Prop47
 90
       50
102
RTVSPost2010PropOp47
 70
     1
102
RTVSPost2010Prop48
 90
       50
102
RTVSPost2010PropOp48
 70
     1
102
RTVSPost2010Prop49
280
     0
102
RTVSPost2010PropOp49
 70
     1
102
RTVSPost2010Prop50
 90
       50
102
RTVSPost2010PropOp50
 70
     1
102
RTVSPost2010Prop51ColorIndex
 90
      256
102
RTVSPost2010Prop51ColorRGB
 90
-16777216
102
RTVSPost2010PropOp51
 70
     0
102
RTVSPost2010Prop52
140
1.0
102
RTVSPost2010PropOp52
 70
     0
102
RTVSPost2010Prop53
 90
        2
102
RTVSPost2010PropOp53
 70
     1
102
RTVSPost2010Prop54
  1
strokes_ogs.tif
102
RTVSPost2010PropOp54
 70
     1
102
RTVSPost2010Prop55
280
     0
102
RTVSPost2010PropOp55
 70
     1
102
RTVSPost2010Prop56
140
1.0
102
RTVSPost2010PropOp56
 70
     1
102
RTVSPost2010Prop57
140
1.0
102
RTVSPost2010PropOp57
 70
     1
102
RTVSPropertyOp0
 70
     1
102
RTVSPropertyOp1
 70
     1
102
RTVSPropertyOp2
 70
     1
102
RTVSPropertyOp3
 70
     1
102
RTVSPropertyOp4
 70
     1
102
RTVSPropertyOp5
 70
     1
102
RTVSPropertyOp6
 70
     1
102
RTVSPropertyOp7
 70
     1
102
RTVSPropertyOp8
 70
     1
102
RTVSPropertyOp9
 70
     1
102
RTVSPropertyOp10
 70
     1
102
RTVSPropertyOp11
 70
     1
102
RTVSPropertyOp12
 70
     1
102
RTVSPropertyOp13
 70
     1
102
RTVSPropertyOp14
 70
     1
102
RTVSPropertyOp15
 70
     1
102
RTVSPropertyOp16
 70
     1
102
RTVSPropertyOp17
 70
     1
102
RTVSPropertyOp18
 70
     1
102
RTVSPropertyOp19
 70
     1
102
RTVSPropertyOp20
 70
     1
102
RTVSPropertyOp21
 70
     1
102
RTVSPropertyOp22
 70
     1
102
RTVSPropertyOp23
 70
     1
102
RTVSPropertyOp24
 70
     1
102
RTVSPropertyOp25
 70
     1
102
RTVSPropertyOp26
 70
     1
102
RTVSPropertyOp27
 70
     1
102
RTVSPropertyOp28
 70
     1
102
RTVSPropertyOp29
 70
     1
102
RTVSPropertyOp30
 70
     1
102
RTVSPropertyOp31
 70
     1
102
RTVSPropertyOp32
 70
     1
102
RTVSPropertyOp33
 70
     1
102
RTVSPropertyOp34
 70
     1
102
RTVSPropertyOp35
 70
     1
102
RTVSPropertyOp36
 70
     1
102
RTVSPropertyOp37
 70
     1
102
RTVSPropertyOp38
 70
     1
102
RTVSPropertyOp39
 70
     1
102
RTVSPropertyOp40
 70
     1
102
RTVSPropertyOp41
 70
     1
102
RTVSPropertyOp42
 70
     1
102
RTVSPropertyOp43
 70
     1
102
RTVSPropertyOp44
 70
     1
102
RTVSPropertyOp45
 70
     1
102
RTVSPropertyOp46
 70
     1
102
RTVSPropertyOp47
 70
     1
102
RTVSPropertyOp48
 70
     1
102
RTVSPropertyOp49
 70
     1
102
RTVSPropertyOp50
 70
     1
102
RTVSPropertyOp51
 70
     0
102
RTVSPropertyOp52
 70
     0
102
RTVSPropertyOp53
 70
     1
102
RTVSPropertyOp54
 70
     1
102
RTVSPropertyOp55
 70
     1
102
RTVSPropertyOp56
 70
     1
102
RTVSPropertyOp57
 70
     1
102
RTVSPropertyOp58
 70
     1
102
RTVSPropertyOp59
 70
     1
102
RTVSPropertyOp60
 70
     1
102
RTVSPropertyOp61
 70
     1
102
RTVSPropertyOp62
 70
     1
  0
XRECORD
  5
82D
102
{ACAD_REACTORS
330
82C
102
}
330
82C
100
AcDbXrecord
280
     1
102
RTVSPost2010Prop28
280
     0
102
RTVSPost2010PropOp28
 70
     1
102
RTVSPost2010Prop29
280
     1
102
RTVSPost2010PropOp29
 70
     1
102
RTVSPost2010Prop30
280
     1
102
RTVSPost2010PropOp30
 70
     1
102
RTVSPost2010Prop31
280
     0
102
RTVSPost2010PropOp31
 70
     1
102
RTVSPost2010Prop32
280
     0
102
RTVSPost2010PropOp32
 70
     1
102
RTVSPost2010Prop33
280
     0
102
RTVSPost2010PropOp33
 70
     1
102
RTVSPost2010Prop34
280
     0
102
RTVSPost2010PropOp34
 70
     1
102
RTVSPost2010Prop35
280
     0
102
RTVSPost2010PropOp35
 70
     1
102
RTVSPost2010Prop36
280
     0
102
RTVSPost2010PropOp36
 70
     1
102
RTVSPost2010Prop37
 90
       50
102
RTVSPost2010PropOp37
 70
     0
102
RTVSPost2010Prop38
140
0.0
102
RTVSPost2010PropOp38
 70
     0
102
RTVSPost2010Prop39
140
1.0
102
RTVSPost2010PropOp39
 70
     0
102
RTVSPost2010Prop40
 90
        0
102
RTVSPost2010PropOp40
 70
     0
102
RTVSPost2010Prop41ColorIndex
 90
       18
102
RTVSPost2010Prop41ColorRGB
 90
        0
102
RTVSPost2010PropOp41
 70
     0
102
RTVSPost2010Prop42
 90
       50
102
RTVSPost2010PropOp42
 70
     0
102
RTVSPost2010Prop43
 90
        3
102
RTVSPost2010PropOp43
 70
     0
102
RTVSPost2010Prop44ColorIndex
 90
        5
102
RTVSPost2010Prop44ColorRGB
 90
      255
102
RTVSPost2010PropOp44
 70
     0
102
RTVSPost2010Prop45
280
     0
102
RTVSPost2010PropOp45
 70
     1
102
RTVSPost2010Prop46
 90
       50
102
RTVSPost2010PropOp46
 70
     0
102
RTVSPost2010Prop47
 90
       50
102
RTVSPost2010PropOp47
 70
     0
102
RTVSPost2010Prop48
 90
       50
102
RTVSPost2010PropOp48
 70
     0
102
RTVSPost2010Prop49
280
     0
102
RTVSPost2010PropOp49
 70
     1
102
RTVSPost2010Prop50
 90
       50
102
RTVSPost2010PropOp50
 70
     0
102
RTVSPost2010Prop51ColorIndex
 90
      256
102
RTVSPost2010Prop51ColorRGB
 90
-16777216
102
RTVSPost2010PropOp51
 70
     0
102
RTVSPost2010Prop52
140
1.0
102
RTVSPost2010PropOp52
 70
     0
102
RTVSPost2010Prop53
 90
        2
102
RTVSPost2010PropOp53
 70
     0
102
RTVSPost2010Prop54
  1
strokes_ogs.tif
102
RTVSPost2010PropOp54
 70
     0
102
RTVSPost2010Prop55
280
     0
102
RTVSPost2010PropOp55
 70
     1
102
RTVSPost2010Prop56
140
1.0
102
RTVSPost2010PropOp56
 70
     0
102
RTVSPost2010Prop57
140
1.0
102
RTVSPost2010PropOp57
 70
     0
102
RTVSPropertyOp0
 70
     0
102
RTVSPropertyOp1
 70
     0
102
RTVSPropertyOp2
 70
     0
102
RTVSPropertyOp3
 70
     0
102
RTVSPropertyOp4
 70
     0
102
RTVSPropertyOp5
 70
     0
102
RTVSPropertyOp6
 70
     0
102
RTVSPropertyOp7
 70
     0
102
RTVSPropertyOp8
 70
     0
102
RTVSPropertyOp9
 70
     0
102
RTVSPropertyOp10
 70
     0
102
RTVSPropertyOp11
 70
     0
102
RTVSPropertyOp12
 70
     0
102
RTVSPropertyOp13
 70
     0
102
RTVSPropertyOp14
 70
     2
102
RTVSPropertyOp15
 70
     0
102
RTVSPropertyOp16
 70
     0
102
RTVSPropertyOp17
 70
     0
102
RTVSPropertyOp18
 70
     0
102
RTVSPropertyOp19
 70
     0
102
RTVSPropertyOp20
 70
     0
102
RTVSPropertyOp21
 70
     0
102
RTVSPropertyOp22
 70
     0
102
RTVSPropertyOp23
 70
     0
102
RTVSPropertyOp24
 70
     0
102
RTVSPropertyOp25
 70
     0
102
RTVSPropertyOp26
 70
     0
102
RTVSPropertyOp27
 70
     0
102
RTVSPropertyOp28
 70
     1
102
RTVSPropertyOp29
 70
     1
102
RTVSPropertyOp30
 70
     1
102
RTVSPropertyOp31
 70
     1
102
RTVSPropertyOp32
 70
     1
102
RTVSPropertyOp33
 70
     1
102
RTVSPropertyOp34
 70
     1
102
RTVSPropertyOp35
 70
     1
102
RTVSPropertyOp36
 70
     1
102
RTVSPropertyOp37
 70
     0
102
RTVSPropertyOp38
 70
     0
102
RTVSPropertyOp39
 70
     0
102
RTVSPropertyOp40
 70
     0
102
RTVSPropertyOp41
 70
     0
102
RTVSPropertyOp42
 70
     0
102
RTVSPropertyOp43
 70
     0
102
RTVSPropertyOp44
 70
     0
102
RTVSPropertyOp45
 70
     1
102
RTVSPropertyOp46
 70
     0
102
RTVSPropertyOp47
 70
     0
102
RTVSPropertyOp48
 70
     0
102
RTVSPropertyOp49
 70
     1
102
RTVSPropertyOp50
 70
     0
102
RTVSPropertyOp51
 70
     0
102
RTVSPropertyOp52
 70
     0
102
RTVSPropertyOp53
 70
     0
102
RTVSPropertyOp54
 70
     0
102
RTVSPropertyOp55
 70
     1
102
RTVSPropertyOp56
 70
     0
102
RTVSPropertyOp57
 70
     0
102
RTVSPropertyOp58
 70
     0
102
RTVSPropertyOp59
 70
     0
102
RTVSPropertyOp60
 70
     0
102
RTVSPropertyOp61
 70
     0
102
RTVSPropertyOp62
 70
     0
  0
XRECORD
  5
81D
102
{ACAD_REACTORS
330
81C
102
}
330
81C
100
AcDbXrecord
280
     1
102
RTVSPost2010Prop28
280
     0
102
RTVSPost2010PropOp28
 70
     1
102
RTVSPost2010Prop29
280
     1
102
RTVSPost2010PropOp29
 70
     1
102
RTVSPost2010Prop30
280
     1
102
RTVSPost2010PropOp30
 70
     1
102
RTVSPost2010Prop31
280
     0
102
RTVSPost2010PropOp31
 70
     1
102
RTVSPost2010Prop32
280
     0
102
RTVSPost2010PropOp32
 70
     1
102
RTVSPost2010Prop33
280
     0
102
RTVSPost2010PropOp33
 70
     1
102
RTVSPost2010Prop34
280
     0
102
RTVSPost2010PropOp34
 70
     1
102
RTVSPost2010Prop35
280
     0
102
RTVSPost2010PropOp35
 70
     1
102
RTVSPost2010Prop36
280
     0
102
RTVSPost2010PropOp36
 70
     1
102
RTVSPost2010Prop37
 90
       50
102
RTVSPost2010PropOp37
 70
     1
102
RTVSPost2010Prop38
140
0.0
102
RTVSPost2010PropOp38
 70
     1
102
RTVSPost2010Prop39
140
1.0
102
RTVSPost2010PropOp39
 70
     1
102
RTVSPost2010Prop40
 90
        0
102
RTVSPost2010PropOp40
 70
     1
102
RTVSPost2010Prop41ColorIndex
 90
       18
102
RTVSPost2010Prop41ColorRGB
 90
        0
102
RTVSPost2010PropOp41
 70
     1
102
RTVSPost2010Prop42
 90
       50
102
RTVSPost2010PropOp42
 70
     1
102
RTVSPost2010Prop43
 90
        3
102
RTVSPost2010PropOp43
 70
     1
102
RTVSPost2010Prop44ColorIndex
 90
        5
102
RTVSPost2010Prop44ColorRGB
 90
      255
102
RTVSPost2010PropOp44
 70
     1
102
RTVSPost2010Prop45
280
     0
102
RTVSPost2010PropOp45
 70
     1
102
RTVSPost2010Prop46
 90
       50
102
RTVSPost2010PropOp46
 70
     1
102
RTVSPost2010Prop47
 90
       50
102
RTVSPost2010PropOp47
 70
     1
102
RTVSPost2010Prop48
 90
       50
102
RTVSPost2010PropOp48
 70
     1
102
RTVSPost2010Prop49
280
     0
102
RTVSPost2010PropOp49
 70
     1
102
RTVSPost2010Prop50
 90
       50
102
RTVSPost2010PropOp50
 70
     1
102
RTVSPost2010Prop51ColorIndex
 90
      256
102
RTVSPost2010Prop51ColorRGB
 90
-16777216
102
RTVSPost2010PropOp51
 70
     0
102
RTVSPost2010Prop52
140
1.0
102
RTVSPost2010PropOp52
 70
     0
102
RTVSPost2010Prop53
 90
        2
102
RTVSPost2010PropOp53
 70
     1
102
RTVSPost2010Prop54
  1
strokes_ogs.tif
102
RTVSPost2010PropOp54
 70
     1
102
RTVSPost2010Prop55
280
     0
102
RTVSPost2010PropOp55
 70
     1
102
RTVSPost2010Prop56
140
1.0
102
RTVSPost2010PropOp56
 70
     1
102
RTVSPost2010Prop57
140
1.0
102
RTVSPost2010PropOp57
 70
     1
102
RTVSPropertyOp0
 70
     1
102
RTVSPropertyOp1
 70
     1
102
RTVSPropertyOp2
 70
     1
102
RTVSPropertyOp3
 70
     1
102
RTVSPropertyOp4
 70
     1
102
RTVSPropertyOp5
 70
     1
102
RTVSPropertyOp6
 70
     1
102
RTVSPropertyOp7
 70
     1
102
RTVSPropertyOp8
 70
     1
102
RTVSPropertyOp9
 70
     1
102
RTVSPropertyOp10
 70
     1
102
RTVSPropertyOp11
 70
     1
102
RTVSPropertyOp12
 70
     1
102
RTVSPropertyOp13
 70
     1
102
RTVSPropertyOp14
 70
     1
102
RTVSPropertyOp15
 70
     1
102
RTVSPropertyOp16
 70
     1
102
RTVSPropertyOp17
 70
     1
102
RTVSPropertyOp18
 70
     1
102
RTVSPropertyOp19
 70
     1
102
RTVSPropertyOp20
 70
     1
102
RTVSPropertyOp21
 70
     1
102
RTVSPropertyOp22
 70
     1
102
RTVSPropertyOp23
 70
     1
102
RTVSPropertyOp24
 70
     1
102
RTVSPropertyOp25
 70
     1
102
RTVSPropertyOp26
 70
     1
102
RTVSPropertyOp27
 70
     1
102
RTVSPropertyOp28
 70
     1
102
RTVSPropertyOp29
 70
     1
102
RTVSPropertyOp30
 70
     1
102
RTVSPropertyOp31
 70
     1
102
RTVSPropertyOp32
 70
     1
102
RTVSPropertyOp33
 70
     1
102
RTVSPropertyOp34
 70
     1
102
RTVSPropertyOp35
 70
     1
102
RTVSPropertyOp36
 70
     1
102
RTVSPropertyOp37
 70
     1
102
RTVSPropertyOp38
 70
     1
102
RTVSPropertyOp39
 70
     1
102
RTVSPropertyOp40
 70
     1
102
RTVSPropertyOp41
 70
     1
102
RTVSPropertyOp42
 70
     1
102
RTVSPropertyOp43
 70
     1
102
RTVSPropertyOp44
 70
     1
102
RTVSPropertyOp45
 70
     1
102
RTVSPropertyOp46
 70
     1
102
RTVSPropertyOp47
 70
     1
102
RTVSPropertyOp48
 70
     1
102
RTVSPropertyOp49
 70
     1
102
RTVSPropertyOp50
 70
     1
102
RTVSPropertyOp51
 70
     0
102
RTVSPropertyOp52
 70
     0
102
RTVSPropertyOp53
 70
     1
102
RTVSPropertyOp54
 70
     1
102
RTVSPropertyOp55
 70
     1
102
RTVSPropertyOp56
 70
     1
102
RTVSPropertyOp57
 70
     1
102
RTVSPropertyOp58
 70
     1
102
RTVSPropertyOp59
 70
     1
102
RTVSPropertyOp60
 70
     1
102
RTVSPropertyOp61
 70
     1
102
RTVSPropertyOp62
 70
     1
  0
XRECORD
  5
82F
102
{ACAD_REACTORS
330
82E
102
}
330
82E
100
AcDbXrecord
280
     1
102
RTVSPost2010Prop28
280
     0
102
RTVSPost2010PropOp28
 70
     1
102
RTVSPost2010Prop29
280
     1
102
RTVSPost2010PropOp29
 70
     1
102
RTVSPost2010Prop30
280
     1
102
RTVSPost2010PropOp30
 70
     1
102
RTVSPost2010Prop31
280
     0
102
RTVSPost2010PropOp31
 70
     1
102
RTVSPost2010Prop32
280
     0
102
RTVSPost2010PropOp32
 70
     1
102
RTVSPost2010Prop33
280
     0
102
RTVSPost2010PropOp33
 70
     1
102
RTVSPost2010Prop34
280
     0
102
RTVSPost2010PropOp34
 70
     1
102
RTVSPost2010Prop35
280
     0
102
RTVSPost2010PropOp35
 70
     1
102
RTVSPost2010Prop36
280
     0
102
RTVSPost2010PropOp36
 70
     1
102
RTVSPost2010Prop37
 90
       50
102
RTVSPost2010PropOp37
 70
     0
102
RTVSPost2010Prop38
140
0.0
102
RTVSPost2010PropOp38
 70
     0
102
RTVSPost2010Prop39
140
1.0
102
RTVSPost2010PropOp39
 70
     0
102
RTVSPost2010Prop40
 90
        0
102
RTVSPost2010PropOp40
 70
     0
102
RTVSPost2010Prop41ColorIndex
 90
       18
102
RTVSPost2010Prop41ColorRGB
 90
        0
102
RTVSPost2010PropOp41
 70
     0
102
RTVSPost2010Prop42
 90
       50
102
RTVSPost2010PropOp42
 70
     0
102
RTVSPost2010Prop43
 90
        3
102
RTVSPost2010PropOp43
 70
     0
102
RTVSPost2010Prop44ColorIndex
 90
        5
102
RTVSPost2010Prop44ColorRGB
 90
      255
102
RTVSPost2010PropOp44
 70
     0
102
RTVSPost2010Prop45
280
     0
102
RTVSPost2010PropOp45
 70
     1
102
RTVSPost2010Prop46
 90
       50
102
RTVSPost2010PropOp46
 70
     0
102
RTVSPost2010Prop47
 90
       50
102
RTVSPost2010PropOp47
 70
     0
102
RTVSPost2010Prop48
 90
       50
102
RTVSPost2010PropOp48
 70
     0
102
RTVSPost2010Prop49
280
     0
102
RTVSPost2010PropOp49
 70
     1
102
RTVSPost2010Prop50
 90
       50
102
RTVSPost2010PropOp50
 70
     0
102
RTVSPost2010Prop51ColorIndex
 90
      256
102
RTVSPost2010Prop51ColorRGB
 90
-16777216
102
RTVSPost2010PropOp51
 70
     0
102
RTVSPost2010Prop52
140
1.0
102
RTVSPost2010PropOp52
 70
     0
102
RTVSPost2010Prop53
 90
        2
102
RTVSPost2010PropOp53
 70
     0
102
RTVSPost2010Prop54
  1
strokes_ogs.tif
102
RTVSPost2010PropOp54
 70
     0
102
RTVSPost2010Prop55
280
     0
102
RTVSPost2010PropOp55
 70
     1
102
RTVSPost2010Prop56
140
1.0
102
RTVSPost2010PropOp56
 70
     0
102
RTVSPost2010Prop57
140
1.0
102
RTVSPost2010PropOp57
 70
     0
102
RTVSPropertyOp0
 70
     0
102
RTVSPropertyOp1
 70
     0
102
RTVSPropertyOp2
 70
     0
102
RTVSPropertyOp3
 70
     0
102
RTVSPropertyOp4
 70
     0
102
RTVSPropertyOp5
 70
     0
102
RTVSPropertyOp6
 70
     0
102
RTVSPropertyOp7
 70
     0
102
RTVSPropertyOp8
 70
     0
102
RTVSPropertyOp9
 70
     0
102
RTVSPropertyOp10
 70
     0
102
RTVSPropertyOp11
 70
     0
102
RTVSPropertyOp12
 70
     0
102
RTVSPropertyOp13
 70
     0
102
RTVSPropertyOp14
 70
     2
102
RTVSPropertyOp15
 70
     0
102
RTVSPropertyOp16
 70
     0
102
RTVSPropertyOp17
 70
     0
102
RTVSPropertyOp18
 70
     0
102
RTVSPropertyOp19
 70
     0
102
RTVSPropertyOp20
 70
     0
102
RTVSPropertyOp21
 70
     0
102
RTVSPropertyOp22
 70
     0
102
RTVSPropertyOp23
 70
     0
102
RTVSPropertyOp24
 70
     0
102
RTVSPropertyOp25
 70
     0
102
RTVSPropertyOp26
 70
     0
102
RTVSPropertyOp27
 70
     0
102
RTVSPropertyOp28
 70
     1
102
RTVSPropertyOp29
 70
     1
102
RTVSPropertyOp30
 70
     1
102
RTVSPropertyOp31
 70
     1
102
RTVSPropertyOp32
 70
     1
102
RTVSPropertyOp33
 70
     1
102
RTVSPropertyOp34
 70
     1
102
RTVSPropertyOp35
 70
     1
102
RTVSPropertyOp36
 70
     1
102
RTVSPropertyOp37
 70
     0
102
RTVSPropertyOp38
 70
     0
102
RTVSPropertyOp39
 70
     0
102
RTVSPropertyOp40
 70
     0
102
RTVSPropertyOp41
 70
     0
102
RTVSPropertyOp42
 70
     0
102
RTVSPropertyOp43
 70
     0
102
RTVSPropertyOp44
 70
     0
102
RTVSPropertyOp45
 70
     1
102
RTVSPropertyOp46
 70
     0
102
RTVSPropertyOp47
 70
     0
102
RTVSPropertyOp48
 70
     0
102
RTVSPropertyOp49
 70
     1
102
RTVSPropertyOp50
 70
     0
102
RTVSPropertyOp51
 70
     0
102
RTVSPropertyOp52
 70
     0
102
RTVSPropertyOp53
 70
     0
102
RTVSPropertyOp54
 70
     0
102
RTVSPropertyOp55
 70
     1
102
RTVSPropertyOp56
 70
     0
102
RTVSPropertyOp57
 70
     0
102
RTVSPropertyOp58
 70
     0
102
RTVSPropertyOp59
 70
     0
102
RTVSPropertyOp60
 70
     0
102
RTVSPropertyOp61
 70
     0
102
RTVSPropertyOp62
 70
     0
  0
XRECORD
  5
815
102
{ACAD_REACTORS
330
814
102
}
330
814
100
AcDbXrecord
280
     1
102
RTVSPost2010Prop28
280
     0
102
RTVSPost2010PropOp28
 70
     1
102
RTVSPost2010Prop29
280
     1
102
RTVSPost2010PropOp29
 70
     1
102
RTVSPost2010Prop30
280
     1
102
RTVSPost2010PropOp30
 70
     1
102
RTVSPost2010Prop31
280
     0
102
RTVSPost2010PropOp31
 70
     1
102
RTVSPost2010Prop32
280
     0
102
RTVSPost2010PropOp32
 70
     1
102
RTVSPost2010Prop33
280
     0
102
RTVSPost2010PropOp33
 70
     1
102
RTVSPost2010Prop34
280
     0
102
RTVSPost2010PropOp34
 70
     1
102
RTVSPost2010Prop35
280
     0
102
RTVSPost2010PropOp35
 70
     1
102
RTVSPost2010Prop36
280
     0
102
RTVSPost2010PropOp36
 70
     1
102
RTVSPost2010Prop37
 90
       50
102
RTVSPost2010PropOp37
 70
     1
102
RTVSPost2010Prop38
140
0.0
102
RTVSPost2010PropOp38
 70
     1
102
RTVSPost2010Prop39
140
1.0
102
RTVSPost2010PropOp39
 70
     1
102
RTVSPost2010Prop40
 90
        0
102
RTVSPost2010PropOp40
 70
     1
102
RTVSPost2010Prop41ColorIndex
 90
       18
102
RTVSPost2010Prop41ColorRGB
 90
        0
102
RTVSPost2010PropOp41
 70
     1
102
RTVSPost2010Prop42
 90
       50
102
RTVSPost2010PropOp42
 70
     1
102
RTVSPost2010Prop43
 90
        3
102
RTVSPost2010PropOp43
 70
     1
102
RTVSPost2010Prop44ColorIndex
 90
        5
102
RTVSPost2010Prop44ColorRGB
 90
      255
102
RTVSPost2010PropOp44
 70
     1
102
RTVSPost2010Prop45
280
     0
102
RTVSPost2010PropOp45
 70
     1
102
RTVSPost2010Prop46
 90
       50
102
RTVSPost2010PropOp46
 70
     1
102
RTVSPost2010Prop47
 90
       50
102
RTVSPost2010PropOp47
 70
     1
102
RTVSPost2010Prop48
 90
       50
102
RTVSPost2010PropOp48
 70
     1
102
RTVSPost2010Prop49
280
     0
102
RTVSPost2010PropOp49
 70
     1
102
RTVSPost2010Prop50
 90
       50
102
RTVSPost2010PropOp50
 70
     1
102
RTVSPost2010Prop51ColorIndex
 90
      256
102
RTVSPost2010Prop51ColorRGB
 90
-16777216
102
RTVSPost2010PropOp51
 70
     0
102
RTVSPost2010Prop52
140
1.0
102
RTVSPost2010PropOp52
 70
     0
102
RTVSPost2010Prop53
 90
        2
102
RTVSPost2010PropOp53
 70
     1
102
RTVSPost2010Prop54
  1
strokes_ogs.tif
102
RTVSPost2010PropOp54
 70
     1
102
RTVSPost2010Prop55
280
     0
102
RTVSPost2010PropOp55
 70
     1
102
RTVSPost2010Prop56
140
1.0
102
RTVSPost2010PropOp56
 70
     1
102
RTVSPost2010Prop57
140
1.0
102
RTVSPost2010PropOp57
 70
     1
102
RTVSPropertyOp0
 70
     1
102
RTVSPropertyOp1
 70
     1
102
RTVSPropertyOp2
 70
     1
102
RTVSPropertyOp3
 70
     1
102
RTVSPropertyOp4
 70
     1
102
RTVSPropertyOp5
 70
     1
102
RTVSPropertyOp6
 70
     1
102
RTVSPropertyOp7
 70
     1
102
RTVSPropertyOp8
 70
     1
102
RTVSPropertyOp9
 70
     1
102
RTVSPropertyOp10
 70
     1
102
RTVSPropertyOp11
 70
     1
102
RTVSPropertyOp12
 70
     1
102
RTVSPropertyOp13
 70
     1
102
RTVSPropertyOp14
 70
     1
102
RTVSPropertyOp15
 70
     1
102
RTVSPropertyOp16
 70
     1
102
RTVSPropertyOp17
 70
     1
102
RTVSPropertyOp18
 70
     1
102
RTVSPropertyOp19
 70
     1
102
RTVSPropertyOp20
 70
     1
102
RTVSPropertyOp21
 70
     1
102
RTVSPropertyOp22
 70
     1
102
RTVSPropertyOp23
 70
     1
102
RTVSPropertyOp24
 70
     1
102
RTVSPropertyOp25
 70
     1
102
RTVSPropertyOp26
 70
     1
102
RTVSPropertyOp27
 70
     1
102
RTVSPropertyOp28
 70
     1
102
RTVSPropertyOp29
 70
     1
102
RTVSPropertyOp30
 70
     1
102
RTVSPropertyOp31
 70
     1
102
RTVSPropertyOp32
 70
     1
102
RTVSPropertyOp33
 70
     1
102
RTVSPropertyOp34
 70
     1
102
RTVSPropertyOp35
 70
     1
102
RTVSPropertyOp36
 70
     1
102
RTVSPropertyOp37
 70
     1
102
RTVSPropertyOp38
 70
     1
102
RTVSPropertyOp39
 70
     1
102
RTVSPropertyOp40
 70
     1
102
RTVSPropertyOp41
 70
     1
102
RTVSPropertyOp42
 70
     1
102
RTVSPropertyOp43
 70
     1
102
RTVSPropertyOp44
 70
     1
102
RTVSPropertyOp45
 70
     1
102
RTVSPropertyOp46
 70
     1
102
RTVSPropertyOp47
 70
     1
102
RTVSPropertyOp48
 70
     1
102
RTVSPropertyOp49
 70
     1
102
RTVSPropertyOp50
 70
     1
102
RTVSPropertyOp51
 70
     0
102
RTVSPropertyOp52
 70
     0
102
RTVSPropertyOp53
 70
     1
102
RTVSPropertyOp54
 70
     1
102
RTVSPropertyOp55
 70
     1
102
RTVSPropertyOp56
 70
     1
102
RTVSPropertyOp57
 70
     1
102
RTVSPropertyOp58
 70
     1
102
RTVSPropertyOp59
 70
     1
102
RTVSPropertyOp60
 70
     1
102
RTVSPropertyOp61
 70
     1
102
RTVSPropertyOp62
 70
     1
  0
XRECORD
  5
82B
102
{ACAD_REACTORS
330
82A
102
}
330
82A
100
AcDbXrecord
280
     1
102
RTVSPost2010Prop28
280
     0
102
RTVSPost2010PropOp28
 70
     1
102
RTVSPost2010Prop29
280
     1
102
RTVSPost2010PropOp29
 70
     1
102
RTVSPost2010Prop30
280
     1
102
RTVSPost2010PropOp30
 70
     1
102
RTVSPost2010Prop31
280
     0
102
RTVSPost2010PropOp31
 70
     1
102
RTVSPost2010Prop32
280
     0
102
RTVSPost2010PropOp32
 70
     1
102
RTVSPost2010Prop33
280
     0
102
RTVSPost2010PropOp33
 70
     1
102
RTVSPost2010Prop34
280
     0
102
RTVSPost2010PropOp34
 70
     1
102
RTVSPost2010Prop35
280
     0
102
RTVSPost2010PropOp35
 70
     1
102
RTVSPost2010Prop36
280
     0
102
RTVSPost2010PropOp36
 70
     1
102
RTVSPost2010Prop37
 90
       50
102
RTVSPost2010PropOp37
 70
     1
102
RTVSPost2010Prop38
140
0.0
102
RTVSPost2010PropOp38
 70
     1
102
RTVSPost2010Prop39
140
1.0
102
RTVSPost2010PropOp39
 70
     1
102
RTVSPost2010Prop40
 90
        0
102
RTVSPost2010PropOp40
 70
     1
102
RTVSPost2010Prop41ColorIndex
 90
       18
102
RTVSPost2010Prop41ColorRGB
 90
        0
102
RTVSPost2010PropOp41
 70
     1
102
RTVSPost2010Prop42
 90
       50
102
RTVSPost2010PropOp42
 70
     1
102
RTVSPost2010Prop43
 90
        3
102
RTVSPost2010PropOp43
 70
     1
102
RTVSPost2010Prop44ColorIndex
 90
        5
102
RTVSPost2010Prop44ColorRGB
 90
      255
102
RTVSPost2010PropOp44
 70
     1
102
RTVSPost2010Prop45
280
     0
102
RTVSPost2010PropOp45
 70
     1
102
RTVSPost2010Prop46
 90
       50
102
RTVSPost2010PropOp46
 70
     1
102
RTVSPost2010Prop47
 90
       50
102
RTVSPost2010PropOp47
 70
     1
102
RTVSPost2010Prop48
 90
       50
102
RTVSPost2010PropOp48
 70
     1
102
RTVSPost2010Prop49
280
     0
102
RTVSPost2010PropOp49
 70
     1
102
RTVSPost2010Prop50
 90
       50
102
RTVSPost2010PropOp50
 70
     1
102
RTVSPost2010Prop51ColorIndex
 90
      256
102
RTVSPost2010Prop51ColorRGB
 90
-16777216
102
RTVSPost2010PropOp51
 70
     0
102
RTVSPost2010Prop52
140
1.0
102
RTVSPost2010PropOp52
 70
     0
102
RTVSPost2010Prop53
 90
        2
102
RTVSPost2010PropOp53
 70
     1
102
RTVSPost2010Prop54
  1
strokes_ogs.tif
102
RTVSPost2010PropOp54
 70
     1
102
RTVSPost2010Prop55
280
     0
102
RTVSPost2010PropOp55
 70
     1
102
RTVSPost2010Prop56
140
1.0
102
RTVSPost2010PropOp56
 70
     1
102
RTVSPost2010Prop57
140
1.0
102
RTVSPost2010PropOp57
 70
     1
102
RTVSPropertyOp0
 70
     1
102
RTVSPropertyOp1
 70
     1
102
RTVSPropertyOp2
 70
     1
102
RTVSPropertyOp3
 70
     1
102
RTVSPropertyOp4
 70
     1
102
RTVSPropertyOp5
 70
     1
102
RTVSPropertyOp6
 70
     1
102
RTVSPropertyOp7
 70
     1
102
RTVSPropertyOp8
 70
     1
102
RTVSPropertyOp9
 70
     1
102
RTVSPropertyOp10
 70
     1
102
RTVSPropertyOp11
 70
     1
102
RTVSPropertyOp12
 70
     1
102
RTVSPropertyOp13
 70
     1
102
RTVSPropertyOp14
 70
     1
102
RTVSPropertyOp15
 70
     1
102
RTVSPropertyOp16
 70
     1
102
RTVSPropertyOp17
 70
     1
102
RTVSPropertyOp18
 70
     1
102
RTVSPropertyOp19
 70
     1
102
RTVSPropertyOp20
 70
     1
102
RTVSPropertyOp21
 70
     1
102
RTVSPropertyOp22
 70
     1
102
RTVSPropertyOp23
 70
     1
102
RTVSPropertyOp24
 70
     1
102
RTVSPropertyOp25
 70
     1
102
RTVSPropertyOp26
 70
     1
102
RTVSPropertyOp27
 70
     1
102
RTVSPropertyOp28
 70
     1
102
RTVSPropertyOp29
 70
     1
102
RTVSPropertyOp30
 70
     1
102
RTVSPropertyOp31
 70
     1
102
RTVSPropertyOp32
 70
     1
102
RTVSPropertyOp33
 70
     1
102
RTVSPropertyOp34
 70
     1
102
RTVSPropertyOp35
 70
     1
102
RTVSPropertyOp36
 70
     1
102
RTVSPropertyOp37
 70
     1
102
RTVSPropertyOp38
 70
     1
102
RTVSPropertyOp39
 70
     1
102
RTVSPropertyOp40
 70
     1
102
RTVSPropertyOp41
 70
     1
102
RTVSPropertyOp42
 70
     1
102
RTVSPropertyOp43
 70
     1
102
RTVSPropertyOp44
 70
     1
102
RTVSPropertyOp45
 70
     1
102
RTVSPropertyOp46
 70
     1
102
RTVSPropertyOp47
 70
     1
102
RTVSPropertyOp48
 70
     1
102
RTVSPropertyOp49
 70
     1
102
RTVSPropertyOp50
 70
     1
102
RTVSPropertyOp51
 70
     0
102
RTVSPropertyOp52
 70
     0
102
RTVSPropertyOp53
 70
     1
102
RTVSPropertyOp54
 70
     1
102
RTVSPropertyOp55
 70
     1
102
RTVSPropertyOp56
 70
     1
102
RTVSPropertyOp57
 70
     1
102
RTVSPropertyOp58
 70
     1
102
RTVSPropertyOp59
 70
     1
102
RTVSPropertyOp60
 70
     1
102
RTVSPropertyOp61
 70
     1
102
RTVSPropertyOp62
 70
     1
  0
XRECORD
  5
829
102
{ACAD_REACTORS
330
828
102
}
330
828
100
AcDbXrecord
280
     1
102
RTVSPost2010Prop28
280
     0
102
RTVSPost2010PropOp28
 70
     1
102
RTVSPost2010Prop29
280
     1
102
RTVSPost2010PropOp29
 70
     1
102
RTVSPost2010Prop30
280
     1
102
RTVSPost2010PropOp30
 70
     1
102
RTVSPost2010Prop31
280
     0
102
RTVSPost2010PropOp31
 70
     1
102
RTVSPost2010Prop32
280
     0
102
RTVSPost2010PropOp32
 70
     1
102
RTVSPost2010Prop33
280
     0
102
RTVSPost2010PropOp33
 70
     1
102
RTVSPost2010Prop34
280
     0
102
RTVSPost2010PropOp34
 70
     1
102
RTVSPost2010Prop35
280
     0
102
RTVSPost2010PropOp35
 70
     1
102
RTVSPost2010Prop36
280
     0
102
RTVSPost2010PropOp36
 70
     1
102
RTVSPost2010Prop37
 90
       50
102
RTVSPost2010PropOp37
 70
     1
102
RTVSPost2010Prop38
140
0.0
102
RTVSPost2010PropOp38
 70
     1
102
RTVSPost2010Prop39
140
1.0
102
RTVSPost2010PropOp39
 70
     1
102
RTVSPost2010Prop40
 90
        0
102
RTVSPost2010PropOp40
 70
     1
102
RTVSPost2010Prop41ColorIndex
 90
       18
102
RTVSPost2010Prop41ColorRGB
 90
        0
102
RTVSPost2010PropOp41
 70
     1
102
RTVSPost2010Prop42
 90
       50
102
RTVSPost2010PropOp42
 70
     1
102
RTVSPost2010Prop43
 90
        3
102
RTVSPost2010PropOp43
 70
     1
102
RTVSPost2010Prop44ColorIndex
 90
        5
102
RTVSPost2010Prop44ColorRGB
 90
      255
102
RTVSPost2010PropOp44
 70
     1
102
RTVSPost2010Prop45
280
     0
102
RTVSPost2010PropOp45
 70
     1
102
RTVSPost2010Prop46
 90
       50
102
RTVSPost2010PropOp46
 70
     1
102
RTVSPost2010Prop47
 90
       50
102
RTVSPost2010PropOp47
 70
     1
102
RTVSPost2010Prop48
 90
       50
102
RTVSPost2010PropOp48
 70
     1
102
RTVSPost2010Prop49
280
     0
102
RTVSPost2010PropOp49
 70
     1
102
RTVSPost2010Prop50
 90
       50
102
RTVSPost2010PropOp50
 70
     1
102
RTVSPost2010Prop51ColorIndex
 90
      256
102
RTVSPost2010Prop51ColorRGB
 90
-16777216
102
RTVSPost2010PropOp51
 70
     0
102
RTVSPost2010Prop52
140
1.0
102
RTVSPost2010PropOp52
 70
     0
102
RTVSPost2010Prop53
 90
        2
102
RTVSPost2010PropOp53
 70
     1
102
RTVSPost2010Prop54
  1
strokes_ogs.tif
102
RTVSPost2010PropOp54
 70
     1
102
RTVSPost2010Prop55
280
     0
102
RTVSPost2010PropOp55
 70
     1
102
RTVSPost2010Prop56
140
1.0
102
RTVSPost2010PropOp56
 70
     1
102
RTVSPost2010Prop57
140
1.0
102
RTVSPost2010PropOp57
 70
     1
102
RTVSPropertyOp0
 70
     1
102
RTVSPropertyOp1
 70
     1
102
RTVSPropertyOp2
 70
     1
102
RTVSPropertyOp3
 70
     1
102
RTVSPropertyOp4
 70
     1
102
RTVSPropertyOp5
 70
     1
102
RTVSPropertyOp6
 70
     1
102
RTVSPropertyOp7
 70
     1
102
RTVSPropertyOp8
 70
     1
102
RTVSPropertyOp9
 70
     1
102
RTVSPropertyOp10
 70
     1
102
RTVSPropertyOp11
 70
     1
102
RTVSPropertyOp12
 70
     1
102
RTVSPropertyOp13
 70
     1
102
RTVSPropertyOp14
 70
     1
102
RTVSPropertyOp15
 70
     1
102
RTVSPropertyOp16
 70
     1
102
RTVSPropertyOp17
 70
     1
102
RTVSPropertyOp18
 70
     1
102
RTVSPropertyOp19
 70
     1
102
RTVSPropertyOp20
 70
     1
102
RTVSPropertyOp21
 70
     1
102
RTVSPropertyOp22
 70
     1
102
RTVSPropertyOp23
 70
     1
102
RTVSPropertyOp24
 70
     1
102
RTVSPropertyOp25
 70
     1
102
RTVSPropertyOp26
 70
     1
102
RTVSPropertyOp27
 70
     1
102
RTVSPropertyOp28
 70
     1
102
RTVSPropertyOp29
 70
     1
102
RTVSPropertyOp30
 70
     1
102
RTVSPropertyOp31
 70
     1
102
RTVSPropertyOp32
 70
     1
102
RTVSPropertyOp33
 70
     1
102
RTVSPropertyOp34
 70
     1
102
RTVSPropertyOp35
 70
     1
102
RTVSPropertyOp36
 70
     1
102
RTVSPropertyOp37
 70
     1
102
RTVSPropertyOp38
 70
     1
102
RTVSPropertyOp39
 70
     1
102
RTVSPropertyOp40
 70
     1
102
RTVSPropertyOp41
 70
     1
102
RTVSPropertyOp42
 70
     1
102
RTVSPropertyOp43
 70
     1
102
RTVSPropertyOp44
 70
     1
102
RTVSPropertyOp45
 70
     1
102
RTVSPropertyOp46
 70
     1
102
RTVSPropertyOp47
 70
     1
102
RTVSPropertyOp48
 70
     1
102
RTVSPropertyOp49
 70
     1
102
RTVSPropertyOp50
 70
     1
102
RTVSPropertyOp51
 70
     0
102
RTVSPropertyOp52
 70
     0
102
RTVSPropertyOp53
 70
     1
102
RTVSPropertyOp54
 70
     1
102
RTVSPropertyOp55
 70
     1
102
RTVSPropertyOp56
 70
     1
102
RTVSPropertyOp57
 70
     1
102
RTVSPropertyOp58
 70
     1
102
RTVSPropertyOp59
 70
     1
102
RTVSPropertyOp60
 70
     1
102
RTVSPropertyOp61
 70
     1
102
RTVSPropertyOp62
 70
     1
  0
XRECORD
  5
823
102
{ACAD_REACTORS
330
822
102
}
330
822
100
AcDbXrecord
280
     1
102
RTVSPost2010Prop28
280
     0
102
RTVSPost2010PropOp28
 70
     1
102
RTVSPost2010Prop29
280
     1
102
RTVSPost2010PropOp29
 70
     1
102
RTVSPost2010Prop30
280
     1
102
RTVSPost2010PropOp30
 70
     1
102
RTVSPost2010Prop31
280
     0
102
RTVSPost2010PropOp31
 70
     1
102
RTVSPost2010Prop32
280
     0
102
RTVSPost2010PropOp32
 70
     1
102
RTVSPost2010Prop33
280
     0
102
RTVSPost2010PropOp33
 70
     1
102
RTVSPost2010Prop34
280
     0
102
RTVSPost2010PropOp34
 70
     1
102
RTVSPost2010Prop35
280
     0
102
RTVSPost2010PropOp35
 70
     1
102
RTVSPost2010Prop36
280
     0
102
RTVSPost2010PropOp36
 70
     1
102
RTVSPost2010Prop37
 90
       50
102
RTVSPost2010PropOp37
 70
     1
102
RTVSPost2010Prop38
140
0.0
102
RTVSPost2010PropOp38
 70
     1
102
RTVSPost2010Prop39
140
1.0
102
RTVSPost2010PropOp39
 70
     1
102
RTVSPost2010Prop40
 90
        0
102
RTVSPost2010PropOp40
 70
     1
102
RTVSPost2010Prop41ColorIndex
 90
       18
102
RTVSPost2010Prop41ColorRGB
 90
        0
102
RTVSPost2010PropOp41
 70
     1
102
RTVSPost2010Prop42
 90
       50
102
RTVSPost2010PropOp42
 70
     1
102
RTVSPost2010Prop43
 90
        3
102
RTVSPost2010PropOp43
 70
     1
102
RTVSPost2010Prop44ColorIndex
 90
        5
102
RTVSPost2010Prop44ColorRGB
 90
      255
102
RTVSPost2010PropOp44
 70
     1
102
RTVSPost2010Prop45
280
     0
102
RTVSPost2010PropOp45
 70
     1
102
RTVSPost2010Prop46
 90
       50
102
RTVSPost2010PropOp46
 70
     1
102
RTVSPost2010Prop47
 90
       50
102
RTVSPost2010PropOp47
 70
     1
102
RTVSPost2010Prop48
 90
       50
102
RTVSPost2010PropOp48
 70
     1
102
RTVSPost2010Prop49
280
     0
102
RTVSPost2010PropOp49
 70
     1
102
RTVSPost2010Prop50
 90
       50
102
RTVSPost2010PropOp50
 70
     1
102
RTVSPost2010Prop51ColorIndex
 90
      256
102
RTVSPost2010Prop51ColorRGB
 90
-16777216
102
RTVSPost2010PropOp51
 70
     0
102
RTVSPost2010Prop52
140
1.0
102
RTVSPost2010PropOp52
 70
     0
102
RTVSPost2010Prop53
 90
        2
102
RTVSPost2010PropOp53
 70
     1
102
RTVSPost2010Prop54
  1
strokes_ogs.tif
102
RTVSPost2010PropOp54
 70
     1
102
RTVSPost2010Prop55
280
     0
102
RTVSPost2010PropOp55
 70
     1
102
RTVSPost2010Prop56
140
1.0
102
RTVSPost2010PropOp56
 70
     1
102
RTVSPost2010Prop57
140
1.0
102
RTVSPost2010PropOp57
 70
     1
102
RTVSPropertyOp0
 70
     1
102
RTVSPropertyOp1
 70
     1
102
RTVSPropertyOp2
 70
     1
102
RTVSPropertyOp3
 70
     1
102
RTVSPropertyOp4
 70
     1
102
RTVSPropertyOp5
 70
     1
102
RTVSPropertyOp6
 70
     1
102
RTVSPropertyOp7
 70
     1
102
RTVSPropertyOp8
 70
     1
102
RTVSPropertyOp9
 70
     1
102
RTVSPropertyOp10
 70
     1
102
RTVSPropertyOp11
 70
     1
102
RTVSPropertyOp12
 70
     1
102
RTVSPropertyOp13
 70
     1
102
RTVSPropertyOp14
 70
     1
102
RTVSPropertyOp15
 70
     1
102
RTVSPropertyOp16
 70
     1
102
RTVSPropertyOp17
 70
     1
102
RTVSPropertyOp18
 70
     1
102
RTVSPropertyOp19
 70
     1
102
RTVSPropertyOp20
 70
     1
102
RTVSPropertyOp21
 70
     1
102
RTVSPropertyOp22
 70
     1
102
RTVSPropertyOp23
 70
     1
102
RTVSPropertyOp24
 70
     1
102
RTVSPropertyOp25
 70
     1
102
RTVSPropertyOp26
 70
     1
102
RTVSPropertyOp27
 70
     1
102
RTVSPropertyOp28
 70
     1
102
RTVSPropertyOp29
 70
     1
102
RTVSPropertyOp30
 70
     1
102
RTVSPropertyOp31
 70
     1
102
RTVSPropertyOp32
 70
     1
102
RTVSPropertyOp33
 70
     1
102
RTVSPropertyOp34
 70
     1
102
RTVSPropertyOp35
 70
     1
102
RTVSPropertyOp36
 70
     1
102
RTVSPropertyOp37
 70
     1
102
RTVSPropertyOp38
 70
     1
102
RTVSPropertyOp39
 70
     1
102
RTVSPropertyOp40
 70
     1
102
RTVSPropertyOp41
 70
     1
102
RTVSPropertyOp42
 70
     1
102
RTVSPropertyOp43
 70
     1
102
RTVSPropertyOp44
 70
     1
102
RTVSPropertyOp45
 70
     1
102
RTVSPropertyOp46
 70
     1
102
RTVSPropertyOp47
 70
     1
102
RTVSPropertyOp48
 70
     1
102
RTVSPropertyOp49
 70
     1
102
RTVSPropertyOp50
 70
     1
102
RTVSPropertyOp51
 70
     0
102
RTVSPropertyOp52
 70
     0
102
RTVSPropertyOp53
 70
     1
102
RTVSPropertyOp54
 70
     1
102
RTVSPropertyOp55
 70
     1
102
RTVSPropertyOp56
 70
     1
102
RTVSPropertyOp57
 70
     1
102
RTVSPropertyOp58
 70
     1
102
RTVSPropertyOp59
 70
     1
102
RTVSPropertyOp60
 70
     1
102
RTVSPropertyOp61
 70
     1
102
RTVSPropertyOp62
 70
     1
  0
XRECORD
  5
825
102
{ACAD_REACTORS
330
824
102
}
330
824
100
AcDbXrecord
280
     1
102
RTVSPost2010Prop28
280
     0
102
RTVSPost2010PropOp28
 70
     1
102
RTVSPost2010Prop29
280
     1
102
RTVSPost2010PropOp29
 70
     1
102
RTVSPost2010Prop30
280
     1
102
RTVSPost2010PropOp30
 70
     1
102
RTVSPost2010Prop31
280
     0
102
RTVSPost2010PropOp31
 70
     1
102
RTVSPost2010Prop32
280
     0
102
RTVSPost2010PropOp32
 70
     1
102
RTVSPost2010Prop33
280
     0
102
RTVSPost2010PropOp33
 70
     1
102
RTVSPost2010Prop34
280
     0
102
RTVSPost2010PropOp34
 70
     1
102
RTVSPost2010Prop35
280
     0
102
RTVSPost2010PropOp35
 70
     1
102
RTVSPost2010Prop36
280
     0
102
RTVSPost2010PropOp36
 70
     1
102
RTVSPost2010Prop37
 90
       50
102
RTVSPost2010PropOp37
 70
     1
102
RTVSPost2010Prop38
140
0.0
102
RTVSPost2010PropOp38
 70
     1
102
RTVSPost2010Prop39
140
1.0
102
RTVSPost2010PropOp39
 70
     1
102
RTVSPost2010Prop40
 90
        0
102
RTVSPost2010PropOp40
 70
     1
102
RTVSPost2010Prop41ColorIndex
 90
       18
102
RTVSPost2010Prop41ColorRGB
 90
        0
102
RTVSPost2010PropOp41
 70
     1
102
RTVSPost2010Prop42
 90
       50
102
RTVSPost2010PropOp42
 70
     1
102
RTVSPost2010Prop43
 90
        3
102
RTVSPost2010PropOp43
 70
     1
102
RTVSPost2010Prop44ColorIndex
 90
        5
102
RTVSPost2010Prop44ColorRGB
 90
      255
102
RTVSPost2010PropOp44
 70
     1
102
RTVSPost2010Prop45
280
     0
102
RTVSPost2010PropOp45
 70
     1
102
RTVSPost2010Prop46
 90
       50
102
RTVSPost2010PropOp46
 70
     1
102
RTVSPost2010Prop47
 90
       50
102
RTVSPost2010PropOp47
 70
     1
102
RTVSPost2010Prop48
 90
       50
102
RTVSPost2010PropOp48
 70
     1
102
RTVSPost2010Prop49
280
     0
102
RTVSPost2010PropOp49
 70
     1
102
RTVSPost2010Prop50
 90
       50
102
RTVSPost2010PropOp50
 70
     1
102
RTVSPost2010Prop51ColorIndex
 90
      256
102
RTVSPost2010Prop51ColorRGB
 90
-16777216
102
RTVSPost2010PropOp51
 70
     0
102
RTVSPost2010Prop52
140
1.0
102
RTVSPost2010PropOp52
 70
     0
102
RTVSPost2010Prop53
 90
        2
102
RTVSPost2010PropOp53
 70
     1
102
RTVSPost2010Prop54
  1
strokes_ogs.tif
102
RTVSPost2010PropOp54
 70
     1
102
RTVSPost2010Prop55
280
     0
102
RTVSPost2010PropOp55
 70
     1
102
RTVSPost2010Prop56
140
1.0
102
RTVSPost2010PropOp56
 70
     1
102
RTVSPost2010Prop57
140
1.0
102
RTVSPost2010PropOp57
 70
     1
102
RTVSPropertyOp0
 70
     1
102
RTVSPropertyOp1
 70
     1
102
RTVSPropertyOp2
 70
     1
102
RTVSPropertyOp3
 70
     1
102
RTVSPropertyOp4
 70
     1
102
RTVSPropertyOp5
 70
     1
102
RTVSPropertyOp6
 70
     1
102
RTVSPropertyOp7
 70
     1
102
RTVSPropertyOp8
 70
     1
102
RTVSPropertyOp9
 70
     1
102
RTVSPropertyOp10
 70
     1
102
RTVSPropertyOp11
 70
     1
102
RTVSPropertyOp12
 70
     1
102
RTVSPropertyOp13
 70
     1
102
RTVSPropertyOp14
 70
     1
102
RTVSPropertyOp15
 70
     1
102
RTVSPropertyOp16
 70
     1
102
RTVSPropertyOp17
 70
     1
102
RTVSPropertyOp18
 70
     1
102
RTVSPropertyOp19
 70
     1
102
RTVSPropertyOp20
 70
     1
102
RTVSPropertyOp21
 70
     1
102
RTVSPropertyOp22
 70
     1
102
RTVSPropertyOp23
 70
     1
102
RTVSPropertyOp24
 70
     1
102
RTVSPropertyOp25
 70
     1
102
RTVSPropertyOp26
 70
     1
102
RTVSPropertyOp27
 70
     1
102
RTVSPropertyOp28
 70
     1
102
RTVSPropertyOp29
 70
     1
102
RTVSPropertyOp30
 70
     1
102
RTVSPropertyOp31
 70
     1
102
RTVSPropertyOp32
 70
     1
102
RTVSPropertyOp33
 70
     1
102
RTVSPropertyOp34
 70
     1
102
RTVSPropertyOp35
 70
     1
102
RTVSPropertyOp36
 70
     1
102
RTVSPropertyOp37
 70
     1
102
RTVSPropertyOp38
 70
     1
102
RTVSPropertyOp39
 70
     1
102
RTVSPropertyOp40
 70
     1
102
RTVSPropertyOp41
 70
     1
102
RTVSPropertyOp42
 70
     1
102
RTVSPropertyOp43
 70
     1
102
RTVSPropertyOp44
 70
     1
102
RTVSPropertyOp45
 70
     1
102
RTVSPropertyOp46
 70
     1
102
RTVSPropertyOp47
 70
     1
102
RTVSPropertyOp48
 70
     1
102
RTVSPropertyOp49
 70
     1
102
RTVSPropertyOp50
 70
     1
102
RTVSPropertyOp51
 70
     0
102
RTVSPropertyOp52
 70
     0
102
RTVSPropertyOp53
 70
     1
102
RTVSPropertyOp54
 70
     1
102
RTVSPropertyOp55
 70
     1
102
RTVSPropertyOp56
 70
     1
102
RTVSPropertyOp57
 70
     1
102
RTVSPropertyOp58
 70
     1
102
RTVSPropertyOp59
 70
     1
102
RTVSPropertyOp60
 70
     1
102
RTVSPropertyOp61
 70
     1
102
RTVSPropertyOp62
 70
     1
  0
XRECORD
  5
81B
102
{ACAD_REACTORS
330
81A
102
}
330
81A
100
AcDbXrecord
280
     1
102
RTVSPost2010Prop28
280
     0
102
RTVSPost2010PropOp28
 70
     1
102
RTVSPost2010Prop29
280
     1
102
RTVSPost2010PropOp29
 70
     1
102
RTVSPost2010Prop30
280
     1
102
RTVSPost2010PropOp30
 70
     1
102
RTVSPost2010Prop31
280
     0
102
RTVSPost2010PropOp31
 70
     1
102
RTVSPost2010Prop32
280
     0
102
RTVSPost2010PropOp32
 70
     1
102
RTVSPost2010Prop33
280
     0
102
RTVSPost2010PropOp33
 70
     1
102
RTVSPost2010Prop34
280
     0
102
RTVSPost2010PropOp34
 70
     1
102
RTVSPost2010Prop35
280
     0
102
RTVSPost2010PropOp35
 70
     1
102
RTVSPost2010Prop36
280
     0
102
RTVSPost2010PropOp36
 70
     1
102
RTVSPost2010Prop37
 90
       50
102
RTVSPost2010PropOp37
 70
     1
102
RTVSPost2010Prop38
140
0.0
102
RTVSPost2010PropOp38
 70
     1
102
RTVSPost2010Prop39
140
1.0
102
RTVSPost2010PropOp39
 70
     1
102
RTVSPost2010Prop40
 90
        0
102
RTVSPost2010PropOp40
 70
     1
102
RTVSPost2010Prop41ColorIndex
 90
       18
102
RTVSPost2010Prop41ColorRGB
 90
        0
102
RTVSPost2010PropOp41
 70
     1
102
RTVSPost2010Prop42
 90
       50
102
RTVSPost2010PropOp42
 70
     1
102
RTVSPost2010Prop43
 90
        3
102
RTVSPost2010PropOp43
 70
     1
102
RTVSPost2010Prop44ColorIndex
 90
        5
102
RTVSPost2010Prop44ColorRGB
 90
      255
102
RTVSPost2010PropOp44
 70
     1
102
RTVSPost2010Prop45
280
     0
102
RTVSPost2010PropOp45
 70
     1
102
RTVSPost2010Prop46
 90
       50
102
RTVSPost2010PropOp46
 70
     1
102
RTVSPost2010Prop47
 90
       50
102
RTVSPost2010PropOp47
 70
     1
102
RTVSPost2010Prop48
 90
       50
102
RTVSPost2010PropOp48
 70
     1
102
RTVSPost2010Prop49
280
     0
102
RTVSPost2010PropOp49
 70
     1
102
RTVSPost2010Prop50
 90
       50
102
RTVSPost2010PropOp50
 70
     1
102
RTVSPost2010Prop51ColorIndex
 90
      256
102
RTVSPost2010Prop51ColorRGB
 90
-16777216
102
RTVSPost2010PropOp51
 70
     0
102
RTVSPost2010Prop52
140
1.0
102
RTVSPost2010PropOp52
 70
     0
102
RTVSPost2010Prop53
 90
        2
102
RTVSPost2010PropOp53
 70
     1
102
RTVSPost2010Prop54
  1
strokes_ogs.tif
102
RTVSPost2010PropOp54
 70
     1
102
RTVSPost2010Prop55
280
     0
102
RTVSPost2010PropOp55
 70
     1
102
RTVSPost2010Prop56
140
1.0
102
RTVSPost2010PropOp56
 70
     1
102
RTVSPost2010Prop57
140
1.0
102
RTVSPost2010PropOp57
 70
     1
102
RTVSPropertyOp0
 70
     1
102
RTVSPropertyOp1
 70
     1
102
RTVSPropertyOp2
 70
     1
102
RTVSPropertyOp3
 70
     1
102
RTVSPropertyOp4
 70
     1
102
RTVSPropertyOp5
 70
     1
102
RTVSPropertyOp6
 70
     1
102
RTVSPropertyOp7
 70
     1
102
RTVSPropertyOp8
 70
     1
102
RTVSPropertyOp9
 70
     1
102
RTVSPropertyOp10
 70
     1
102
RTVSPropertyOp11
 70
     1
102
RTVSPropertyOp12
 70
     1
102
RTVSPropertyOp13
 70
     1
102
RTVSPropertyOp14
 70
     1
102
RTVSPropertyOp15
 70
     1
102
RTVSPropertyOp16
 70
     1
102
RTVSPropertyOp17
 70
     1
102
RTVSPropertyOp18
 70
     1
102
RTVSPropertyOp19
 70
     1
102
RTVSPropertyOp20
 70
     1
102
RTVSPropertyOp21
 70
     1
102
RTVSPropertyOp22
 70
     1
102
RTVSPropertyOp23
 70
     1
102
RTVSPropertyOp24
 70
     1
102
RTVSPropertyOp25
 70
     1
102
RTVSPropertyOp26
 70
     1
102
RTVSPropertyOp27
 70
     1
102
RTVSPropertyOp28
 70
     1
102
RTVSPropertyOp29
 70
     1
102
RTVSPropertyOp30
 70
     1
102
RTVSPropertyOp31
 70
     1
102
RTVSPropertyOp32
 70
     1
102
RTVSPropertyOp33
 70
     1
102
RTVSPropertyOp34
 70
     1
102
RTVSPropertyOp35
 70
     1
102
RTVSPropertyOp36
 70
     1
102
RTVSPropertyOp37
 70
     1
102
RTVSPropertyOp38
 70
     1
102
RTVSPropertyOp39
 70
     1
102
RTVSPropertyOp40
 70
     1
102
RTVSPropertyOp41
 70
     1
102
RTVSPropertyOp42
 70
     1
102
RTVSPropertyOp43
 70
     1
102
RTVSPropertyOp44
 70
     1
102
RTVSPropertyOp45
 70
     1
102
RTVSPropertyOp46
 70
     1
102
RTVSPropertyOp47
 70
     1
102
RTVSPropertyOp48
 70
     1
102
RTVSPropertyOp49
 70
     1
102
RTVSPropertyOp50
 70
     1
102
RTVSPropertyOp51
 70
     0
102
RTVSPropertyOp52
 70
     0
102
RTVSPropertyOp53
 70
     1
102
RTVSPropertyOp54
 70
     1
102
RTVSPropertyOp55
 70
     1
102
RTVSPropertyOp56
 70
     1
102
RTVSPropertyOp57
 70
     1
102
RTVSPropertyOp58
 70
     1
102
RTVSPropertyOp59
 70
     1
102
RTVSPropertyOp60
 70
     1
102
RTVSPropertyOp61
 70
     1
102
RTVSPropertyOp62
 70
     1
  0
XRECORD
  5
80F
102
{ACAD_REACTORS
330
80E
102
}
330
80E
100
AcDbXrecord
280
     1
102
RTVSPost2010Prop28
280
     0
102
RTVSPost2010PropOp28
 70
     1
102
RTVSPost2010Prop29
280
     1
102
RTVSPost2010PropOp29
 70
     1
102
RTVSPost2010Prop30
280
     1
102
RTVSPost2010PropOp30
 70
     1
102
RTVSPost2010Prop31
280
     0
102
RTVSPost2010PropOp31
 70
     1
102
RTVSPost2010Prop32
280
     0
102
RTVSPost2010PropOp32
 70
     1
102
RTVSPost2010Prop33
280
     0
102
RTVSPost2010PropOp33
 70
     1
102
RTVSPost2010Prop34
280
     0
102
RTVSPost2010PropOp34
 70
     1
102
RTVSPost2010Prop35
280
     0
102
RTVSPost2010PropOp35
 70
     1
102
RTVSPost2010Prop36
280
     0
102
RTVSPost2010PropOp36
 70
     1
102
RTVSPost2010Prop37
 90
       50
102
RTVSPost2010PropOp37
 70
     1
102
RTVSPost2010Prop38
140
0.0
102
RTVSPost2010PropOp38
 70
     1
102
RTVSPost2010Prop39
140
1.0
102
RTVSPost2010PropOp39
 70
     1
102
RTVSPost2010Prop40
 90
        0
102
RTVSPost2010PropOp40
 70
     1
102
RTVSPost2010Prop41ColorIndex
 90
       18
102
RTVSPost2010Prop41ColorRGB
 90
        0
102
RTVSPost2010PropOp41
 70
     1
102
RTVSPost2010Prop42
 90
       50
102
RTVSPost2010PropOp42
 70
     1
102
RTVSPost2010Prop43
 90
        3
102
RTVSPost2010PropOp43
 70
     1
102
RTVSPost2010Prop44ColorIndex
 90
        5
102
RTVSPost2010Prop44ColorRGB
 90
      255
102
RTVSPost2010PropOp44
 70
     1
102
RTVSPost2010Prop45
280
     0
102
RTVSPost2010PropOp45
 70
     1
102
RTVSPost2010Prop46
 90
       50
102
RTVSPost2010PropOp46
 70
     1
102
RTVSPost2010Prop47
 90
       50
102
RTVSPost2010PropOp47
 70
     1
102
RTVSPost2010Prop48
 90
       50
102
RTVSPost2010PropOp48
 70
     1
102
RTVSPost2010Prop49
280
     0
102
RTVSPost2010PropOp49
 70
     1
102
RTVSPost2010Prop50
 90
       50
102
RTVSPost2010PropOp50
 70
     1
102
RTVSPost2010Prop51ColorIndex
 90
      256
102
RTVSPost2010Prop51ColorRGB
 90
-16777216
102
RTVSPost2010PropOp51
 70
     0
102
RTVSPost2010Prop52
140
1.0
102
RTVSPost2010PropOp52
 70
     0
102
RTVSPost2010Prop53
 90
        2
102
RTVSPost2010PropOp53
 70
     1
102
RTVSPost2010Prop54
  1
strokes_ogs.tif
102
RTVSPost2010PropOp54
 70
     1
102
RTVSPost2010Prop55
280
     0
102
RTVSPost2010PropOp55
 70
     1
102
RTVSPost2010Prop56
140
1.0
102
RTVSPost2010PropOp56
 70
     1
102
RTVSPost2010Prop57
140
1.0
102
RTVSPost2010PropOp57
 70
     1
102
RTVSPropertyOp0
 70
     1
102
RTVSPropertyOp1
 70
     1
102
RTVSPropertyOp2
 70
     1
102
RTVSPropertyOp3
 70
     1
102
RTVSPropertyOp4
 70
     1
102
RTVSPropertyOp5
 70
     1
102
RTVSPropertyOp6
 70
     1
102
RTVSPropertyOp7
 70
     1
102
RTVSPropertyOp8
 70
     1
102
RTVSPropertyOp9
 70
     1
102
RTVSPropertyOp10
 70
     1
102
RTVSPropertyOp11
 70
     1
102
RTVSPropertyOp12
 70
     1
102
RTVSPropertyOp13
 70
     1
102
RTVSPropertyOp14
 70
     1
102
RTVSPropertyOp15
 70
     1
102
RTVSPropertyOp16
 70
     1
102
RTVSPropertyOp17
 70
     1
102
RTVSPropertyOp18
 70
     1
102
RTVSPropertyOp19
 70
     1
102
RTVSPropertyOp20
 70
     1
102
RTVSPropertyOp21
 70
     1
102
RTVSPropertyOp22
 70
     1
102
RTVSPropertyOp23
 70
     1
102
RTVSPropertyOp24
 70
     1
102
RTVSPropertyOp25
 70
     1
102
RTVSPropertyOp26
 70
     1
102
RTVSPropertyOp27
 70
     1
102
RTVSPropertyOp28
 70
     1
102
RTVSPropertyOp29
 70
     1
102
RTVSPropertyOp30
 70
     1
102
RTVSPropertyOp31
 70
     1
102
RTVSPropertyOp32
 70
     1
102
RTVSPropertyOp33
 70
     1
102
RTVSPropertyOp34
 70
     1
102
RTVSPropertyOp35
 70
     1
102
RTVSPropertyOp36
 70
     1
102
RTVSPropertyOp37
 70
     1
102
RTVSPropertyOp38
 70
     1
102
RTVSPropertyOp39
 70
     1
102
RTVSPropertyOp40
 70
     1
102
RTVSPropertyOp41
 70
     1
102
RTVSPropertyOp42
 70
     1
102
RTVSPropertyOp43
 70
     1
102
RTVSPropertyOp44
 70
     1
102
RTVSPropertyOp45
 70
     1
102
RTVSPropertyOp46
 70
     1
102
RTVSPropertyOp47
 70
     1
102
RTVSPropertyOp48
 70
     1
102
RTVSPropertyOp49
 70
     1
102
RTVSPropertyOp50
 70
     1
102
RTVSPropertyOp51
 70
     0
102
RTVSPropertyOp52
 70
     0
102
RTVSPropertyOp53
 70
     1
102
RTVSPropertyOp54
 70
     1
102
RTVSPropertyOp55
 70
     1
102
RTVSPropertyOp56
 70
     1
102
RTVSPropertyOp57
 70
     1
102
RTVSPropertyOp58
 70
     1
102
RTVSPropertyOp59
 70
     1
102
RTVSPropertyOp60
 70
     1
102
RTVSPropertyOp61
 70
     1
102
RTVSPropertyOp62
 70
     1
  0
XRECORD
  5
827
102
{ACAD_REACTORS
330
826
102
}
330
826
100
AcDbXrecord
280
     1
102
RTVSPost2010Prop28
280
     0
102
RTVSPost2010PropOp28
 70
     1
102
RTVSPost2010Prop29
280
     1
102
RTVSPost2010PropOp29
 70
     1
102
RTVSPost2010Prop30
280
     1
102
RTVSPost2010PropOp30
 70
     1
102
RTVSPost2010Prop31
280
     0
102
RTVSPost2010PropOp31
 70
     1
102
RTVSPost2010Prop32
280
     0
102
RTVSPost2010PropOp32
 70
     1
102
RTVSPost2010Prop33
280
     0
102
RTVSPost2010PropOp33
 70
     1
102
RTVSPost2010Prop34
280
     0
102
RTVSPost2010PropOp34
 70
     1
102
RTVSPost2010Prop35
280
     0
102
RTVSPost2010PropOp35
 70
     1
102
RTVSPost2010Prop36
280
     0
102
RTVSPost2010PropOp36
 70
     1
102
RTVSPost2010Prop37
 90
       50
102
RTVSPost2010PropOp37
 70
     1
102
RTVSPost2010Prop38
140
0.0
102
RTVSPost2010PropOp38
 70
     1
102
RTVSPost2010Prop39
140
1.0
102
RTVSPost2010PropOp39
 70
     1
102
RTVSPost2010Prop40
 90
        0
102
RTVSPost2010PropOp40
 70
     1
102
RTVSPost2010Prop41ColorIndex
 90
       18
102
RTVSPost2010Prop41ColorRGB
 90
        0
102
RTVSPost2010PropOp41
 70
     1
102
RTVSPost2010Prop42
 90
       50
102
RTVSPost2010PropOp42
 70
     1
102
RTVSPost2010Prop43
 90
        3
102
RTVSPost2010PropOp43
 70
     1
102
RTVSPost2010Prop44ColorIndex
 90
        5
102
RTVSPost2010Prop44ColorRGB
 90
      255
102
RTVSPost2010PropOp44
 70
     1
102
RTVSPost2010Prop45
280
     0
102
RTVSPost2010PropOp45
 70
     1
102
RTVSPost2010Prop46
 90
       50
102
RTVSPost2010PropOp46
 70
     1
102
RTVSPost2010Prop47
 90
       50
102
RTVSPost2010PropOp47
 70
     1
102
RTVSPost2010Prop48
 90
       50
102
RTVSPost2010PropOp48
 70
     1
102
RTVSPost2010Prop49
280
     0
102
RTVSPost2010PropOp49
 70
     1
102
RTVSPost2010Prop50
 90
       50
102
RTVSPost2010PropOp50
 70
     1
102
RTVSPost2010Prop51ColorIndex
 90
      256
102
RTVSPost2010Prop51ColorRGB
 90
-16777216
102
RTVSPost2010PropOp51
 70
     0
102
RTVSPost2010Prop52
140
1.0
102
RTVSPost2010PropOp52
 70
     0
102
RTVSPost2010Prop53
 90
        2
102
RTVSPost2010PropOp53
 70
     1
102
RTVSPost2010Prop54
  1
strokes_ogs.tif
102
RTVSPost2010PropOp54
 70
     1
102
RTVSPost2010Prop55
280
     0
102
RTVSPost2010PropOp55
 70
     1
102
RTVSPost2010Prop56
140
1.0
102
RTVSPost2010PropOp56
 70
     1
102
RTVSPost2010Prop57
140
1.0
102
RTVSPost2010PropOp57
 70
     1
102
RTVSPropertyOp0
 70
     1
102
RTVSPropertyOp1
 70
     1
102
RTVSPropertyOp2
 70
     1
102
RTVSPropertyOp3
 70
     1
102
RTVSPropertyOp4
 70
     1
102
RTVSPropertyOp5
 70
     1
102
RTVSPropertyOp6
 70
     1
102
RTVSPropertyOp7
 70
     1
102
RTVSPropertyOp8
 70
     1
102
RTVSPropertyOp9
 70
     1
102
RTVSPropertyOp10
 70
     1
102
RTVSPropertyOp11
 70
     1
102
RTVSPropertyOp12
 70
     1
102
RTVSPropertyOp13
 70
     1
102
RTVSPropertyOp14
 70
     1
102
RTVSPropertyOp15
 70
     1
102
RTVSPropertyOp16
 70
     1
102
RTVSPropertyOp17
 70
     1
102
RTVSPropertyOp18
 70
     1
102
RTVSPropertyOp19
 70
     1
102
RTVSPropertyOp20
 70
     1
102
RTVSPropertyOp21
 70
     1
102
RTVSPropertyOp22
 70
     1
102
RTVSPropertyOp23
 70
     1
102
RTVSPropertyOp24
 70
     1
102
RTVSPropertyOp25
 70
     1
102
RTVSPropertyOp26
 70
     1
102
RTVSPropertyOp27
 70
     1
102
RTVSPropertyOp28
 70
     1
102
RTVSPropertyOp29
 70
     1
102
RTVSPropertyOp30
 70
     1
102
RTVSPropertyOp31
 70
     1
102
RTVSPropertyOp32
 70
     1
102
RTVSPropertyOp33
 70
     1
102
RTVSPropertyOp34
 70
     1
102
RTVSPropertyOp35
 70
     1
102
RTVSPropertyOp36
 70
     1
102
RTVSPropertyOp37
 70
     1
102
RTVSPropertyOp38
 70
     1
102
RTVSPropertyOp39
 70
     1
102
RTVSPropertyOp40
 70
     1
102
RTVSPropertyOp41
 70
     1
102
RTVSPropertyOp42
 70
     1
102
RTVSPropertyOp43
 70
     1
102
RTVSPropertyOp44
 70
     1
102
RTVSPropertyOp45
 70
     1
102
RTVSPropertyOp46
 70
     1
102
RTVSPropertyOp47
 70
     1
102
RTVSPropertyOp48
 70
     1
102
RTVSPropertyOp49
 70
     1
102
RTVSPropertyOp50
 70
     1
102
RTVSPropertyOp51
 70
     0
102
RTVSPropertyOp52
 70
     0
102
RTVSPropertyOp53
 70
     1
102
RTVSPropertyOp54
 70
     1
102
RTVSPropertyOp55
 70
     1
102
RTVSPropertyOp56
 70
     1
102
RTVSPropertyOp57
 70
     1
102
RTVSPropertyOp58
 70
     1
102
RTVSPropertyOp59
 70
     1
102
RTVSPropertyOp60
 70
     1
102
RTVSPropertyOp61
 70
     1
102
RTVSPropertyOp62
 70
     1
  0
ENDSEC
  0
EOF
