  0
SECTION
  2
HEADER
  9
$ACADVER
  1
AC1015
  9
$ACADMAINTVER
 70
    20
  9
$DWGCODEPAGE
  3
ANSI_932
  9
$INSBASE
 10
0.0
 20
0.0
 30
0.0
  9
$EXTMIN
 10
9.9999975266385
 20
10.0
 30
0.0
  9
$EXTMAX
 10
272.1449136019151
 20
245.7673655490471
 30
0.0
  9
$LIMMIN
 10
0.0000015376081137
 20
-0.0000001931532552
  9
$LIMMAX
 10
366.000001537608
 20
252.3181816250284
  9
$ORTHOMODE
 70
     1
  9
$REGENMODE
 70
     1
  9
$FILLMODE
 70
     1
  9
$QTEXTMODE
 70
     0
  9
$MIRRTEXT
 70
     1
  9
$LTSCALE
 40
1.0
  9
$ATTMODE
 70
     1
  9
$TEXTSIZE
 40
2.5
  9
$TRACEWID
 40
1.0
  9
$TEXTSTYLE
  7
STANDARD
  9
$CLAYER
  8
0
  9
$CELTYPE
  6
BYLAYER
  9
$CECOLOR
 62
   256
  9
$CELTSCALE
 40
1.0
  9
$DISPSILH
 70
     0
  9
$DIMSCALE
 40
1.0
  9
$DIMASZ
 40
3.0
  9
$DIMEXO
 40
1.0
  9
$DIMDLI
 40
10.0
  9
$DIMRND
 40
0.0
  9
$DIMDLE
 40
0.0
  9
$DIMEXE
 40
1.0
  9
$DIMTP
 40
0.0
  9
$DIMTM
 40
0.0
  9
$DIMTXT
 40
3.2
  9
$DIMCEN
 40
0.0
  9
$DIMTSZ
 40
0.0
  9
$DIMTOL
 70
     0
  9
$DIMLIM
 70
     0
  9
$DIMTIH
 70
     0
  9
$DIMTOH
 70
     0
  9
$DIMSE1
 70
     0
  9
$DIMSE2
 70
     0
  9
$DIMTAD
 70
     3
  9
$DIMZIN
 70
     8
  9
$DIMBLK
  1

  9
$DIMASO
 70
     1
  9
$DIMSHO
 70
     1
  9
$DIMPOST
  1

  9
$DIMAPOST
  1

  9
$DIMALT
 70
     0
  9
$DIMALTD
 70
     2
  9
$DIMALTF
 40
25.4
  9
$DIMLFAC
 40
1.0
  9
$DIMTOFL
 70
     1
  9
$DIMTVP
 40
0.0
  9
$DIMTIX
 70
     0
  9
$DIMSOXD
 70
     0
  9
$DIMSAH
 70
     1
  9
$DIMBLK1
  1
OPEN
  9
$DIMBLK2
  1
OPEN
  9
$DIMSTYLE
  2
STANDARD
  9
$DIMCLRD
 70
     0
  9
$DIMCLRE
 70
     0
  9
$DIMCLRT
 70
     0
  9
$DIMTFAC
 40
1.0
  9
$DIMGAP
 40
1.0
  9
$DIMJUST
 70
     0
  9
$DIMSD1
 70
     0
  9
$DIMSD2
 70
     0
  9
$DIMTOLJ
 70
     1
  9
$DIMTZIN
 70
     0
  9
$DIMALTZ
 70
     0
  9
$DIMALTTZ
 70
     0
  9
$DIMUPT
 70
     0
  9
$DIMDEC
 70
     4
  9
$DIMTDEC
 70
     4
  9
$DIMALTU
 70
     2
  9
$DIMALTTD
 70
     2
  9
$DIMTXSTY
  7
STANDARD
  9
$DIMAUNIT
 70
     0
  9
$DIMADEC
 70
     0
  9
$DIMALTRND
 40
0.0
  9
$DIMAZIN
 70
     0
  9
$DIMDSEP
 70
    46
  9
$DIMATFIT
 70
     3
  9
$DIMFRAC
 70
     0
  9
$DIMLDRBLK
  1
OPEN
  9
$DIMLUNIT
 70
     2
  9
$DIMLWD
 70
    -2
  9
$DIMLWE
 70
    -2
  9
$DIMTMOVE
 70
     0
  9
$LUNITS
 70
     2
  9
$LUPREC
 70
     4
  9
$SKETCHINC
 40
1.0
  9
$FILLETRAD
 40
0.0
  9
$AUNITS
 70
     0
  9
$AUPREC
 70
     0
  9
$MENU
  1
.
  9
$ELEVATION
 40
0.0
  9
$PELEVATION
 40
0.0
  9
$THICKNESS
 40
0.0
  9
$LIMCHECK
 70
     0
  9
$CHAMFERA
 40
10.0
  9
$CHAMFERB
 40
10.0
  9
$CHAMFERC
 40
20.0
  9
$CHAMFERD
 40
0.0
  9
$SKPOLY
 70
     0
  9
$TDCREATE
 40
2453768.662390220
  9
$TDUCREATE
 40
2453768.287390220
  9
$TDUPDATE
 40
2457192.700924144
  9
$TDUUPDATE
 40
2457192.325924144
  9
$TDINDWG
 40
0.0462425810
  9
$TDUSRTIMER
 40
0.0462425694
  9
$USRTIMER
 70
     1
  9
$ANGBASE
 50
0.0
  9
$ANGDIR
 70
     0
  9
$PDMODE
 70
     0
  9
$PDSIZE
 40
0.0
  9
$PLINEWID
 40
0.0
  9
$SPLFRAME
 70
     0
  9
$SPLINETYPE
 70
     6
  9
$SPLINESEGS
 70
     8
  9
$HANDSEED
  5
1B2C
  9
$SURFTAB1
 70
     6
  9
$SURFTAB2
 70
     6
  9
$SURFTYPE
 70
     6
  9
$SURFU
 70
     6
  9
$SURFV
 70
     6
  9
$UCSBASE
  2

  9
$UCSNAME
  2

  9
$UCSORG
 10
0.0
 20
0.0
 30
0.0
  9
$UCSXDIR
 10
1.0
 20
0.0
 30
0.0
  9
$UCSYDIR
 10
0.0
 20
1.0
 30
0.0
  9
$UCSORTHOREF
  2

  9
$UCSORTHOVIEW
 70
     0
  9
$UCSORGTOP
 10
0.0
 20
0.0
 30
0.0
  9
$UCSORGBOTTOM
 10
0.0
 20
0.0
 30
0.0
  9
$UCSORGLEFT
 10
0.0
 20
0.0
 30
0.0
  9
$UCSORGRIGHT
 10
0.0
 20
0.0
 30
0.0
  9
$UCSORGFRONT
 10
0.0
 20
0.0
 30
0.0
  9
$UCSORGBACK
 10
0.0
 20
0.0
 30
0.0
  9
$PUCSBASE
  2

  9
$PUCSNAME
  2

  9
$PUCSORG
 10
0.0
 20
0.0
 30
0.0
  9
$PUCSXDIR
 10
1.0
 20
0.0
 30
0.0
  9
$PUCSYDIR
 10
0.0
 20
1.0
 30
0.0
  9
$PUCSORTHOREF
  2

  9
$PUCSORTHOVIEW
 70
     0
  9
$PUCSORGTOP
 10
0.0
 20
0.0
 30
0.0
  9
$PUCSORGBOTTOM
 10
0.0
 20
0.0
 30
0.0
  9
$PUCSORGLEFT
 10
0.0
 20
0.0
 30
0.0
  9
$PUCSORGRIGHT
 10
0.0
 20
0.0
 30
0.0
  9
$PUCSORGFRONT
 10
0.0
 20
0.0
 30
0.0
  9
$PUCSORGBACK
 10
0.0
 20
0.0
 30
0.0
  9
$USERI1
 70
     0
  9
$USERI2
 70
     0
  9
$USERI3
 70
     0
  9
$USERI4
 70
     0
  9
$USERI5
 70
     0
  9
$USERR1
 40
0.0
  9
$USERR2
 40
0.0
  9
$USERR3
 40
0.0
  9
$USERR4
 40
0.0
  9
$USERR5
 40
0.0
  9
$WORLDVIEW
 70
     1
  9
$SHADEDGE
 70
     3
  9
$SHADEDIF
 70
    70
  9
$TILEMODE
 70
     1
  9
$MAXACTVP
 70
    48
  9
$PINSBASE
 10
0.0
 20
0.0
 30
0.0
  9
$PLIMCHECK
 70
     0
  9
$PEXTMIN
 10
27.8447512626648
 20
20.24591643810271
 30
0.0
  9
$PEXTMAX
 10
250.6027613639831
 20
182.2132479429244
 30
0.0
  9
$PLIMMIN
 10
-3.757080078125
 20
-3.757083177566528
  9
$PLIMMAX
 10
293.2112426757812
 20
206.2162444591522
  9
$UNITMODE
 70
     0
  9
$VISRETAIN
 70
     1
  9
$PLINEGEN
 70
     0
  9
$PSLTSCALE
 70
     1
  9
$TREEDEPTH
 70
  3020
  9
$CMLSTYLE
  2
STANDARD
  9
$CMLJUST
 70
     0
  9
$CMLSCALE
 40
20.0
  9
$PROXYGRAPHICS
 70
     1
  9
$MEASUREMENT
 70
     0
  9
$CELWEIGHT
370
    -1
  9
$ENDCAPS
280
     0
  9
$JOINSTYLE
280
     0
  9
$LWDISPLAY
290
     0
  9
$INSUNITS
 70
     0
  9
$HYPERLINKBASE
  1

  9
$STYLESHEET
  1

  9
$XEDIT
290
     1
  9
$CEPSNTYPE
380
     0
  9
$PSTYLEMODE
290
     1
  9
$FINGERPRINTGUID
  2
{DBC7B127-5060-4E6B-8C9A-F31D74E3086F}
  9
$VERSIONGUID
  2
{32DB1AF0-E3BF-46B6-9A1A-7C0A2318A03A}
  9
$EXTNAMES
290
     1
  9
$PSVPSCALE
 40
0.0
  9
$OLESTARTUP
290
     0
  0
ENDSEC
  0
SECTION
  2
CLASSES
  0
CLASS
  1
ACDBDICTIONARYWDFLT
  2
AcDbDictionaryWithDefault
  3
ObjectDBX Classes
 90
        0
280
     0
281
     0
  0
CLASS
  1
ACDBPLACEHOLDER
  2
AcDbPlaceHolder
  3
ObjectDBX Classes
 90
        0
280
     0
281
     0
  0
CLASS
  1
LAYOUT
  2
AcDbLayout
  3
ObjectDBX Classes
 90
        0
280
     0
281
     0
  0
CLASS
  1
DICTIONARYVAR
  2
AcDbDictionaryVar
  3
ObjectDBX Classes
 90
        0
280
     0
281
     0
  0
CLASS
  1
MATERIAL
  2
AcDbMaterial
  3
ObjectDBX Classes
 90
     1153
280
     0
281
     0
  0
CLASS
  1
VISUALSTYLE
  2
AcDbVisualStyle
  3
ObjectDBX Classes
 90
     4095
280
     0
281
     0
  0
CLASS
  1
TABLESTYLE
  2
AcDbTableStyle
  3
ObjectDBX Classes
 90
     4095
280
     0
281
     0
  0
CLASS
  1
SCALE
  2
AcDbScale
  3
ObjectDBX Classes
 90
     1153
280
     0
281
     0
  0
CLASS
  1
MLEADERSTYLE
  2
AcDbMLeaderStyle
  3
ACDB_MLEADERSTYLE_CLASS
 90
     4095
280
     0
281
     0
  0
CLASS
  1
ACDBSECTIONVIEWSTYLE
  2
AcDbSectionViewStyle
  3
ObjectDBX Classes
 90
     1025
280
     0
281
     0
  0
CLASS
  1
ACDBDETAILVIEWSTYLE
  2
AcDbDetailViewStyle
  3
ObjectDBX Classes
 90
     1025
280
     0
281
     0
  0
CLASS
  1
CELLSTYLEMAP
  2
AcDbCellStyleMap
  3
ObjectDBX Classes
 90
     1152
280
     0
281
     0
  0
ENDSEC
  0
SECTION
  2
TABLES
  0
TABLE
  2
VPORT
  5
8
330
0
100
AcDbSymbolTable
 70
     1
  0
VPORT
  5
1A76
330
8
100
AcDbSymbolTableRecord
100
AcDbViewportTableRecord
  2
*ACTIVE
 70
     0
 10
0.0
 20
0.0
 11
1.0
 21
1.0
 12
216.8537774884012
 22
127.8819975914835
 13
0.0
 23
0.0
 14
10.0
 24
10.0
 15
10.0
 25
10.0
 16
0.0
 26
0.0
 36
1.0
 17
0.0
 27
0.0
 37
0.0
 40
238.0467928369582
 41
2.35006605019815
 42
50.0
 43
0.0
 44
0.0
 50
0.0
 51
0.0
 71
     0
 72
   100
 73
     1
 74
     0
 75
     0
 76
     0
 77
     0
 78
     0
281
     0
 65
     1
110
0.0
120
0.0
130
0.0
111
1.0
121
0.0
131
0.0
112
0.0
122
1.0
132
0.0
 79
     0
146
0.0
1001
ACAD_NAV_VCDISPLAY
1070
     3
  0
ENDTAB
  0
TABLE
  2
LTYPE
  5
5
330
0
100
AcDbSymbolTable
 70
     4
  0
LTYPE
  5
12
330
5
100
AcDbSymbolTableRecord
100
AcDbLinetypeTableRecord
  2
BYBLOCK
 70
     0
  3

 72
    65
 73
     0
 40
0.0
  0
LTYPE
  5
13
330
5
100
AcDbSymbolTableRecord
100
AcDbLinetypeTableRecord
  2
BYLAYER
 70
     0
  3

 72
    65
 73
     0
 40
0.0
  0
LTYPE
  5
14
330
5
100
AcDbSymbolTableRecord
100
AcDbLinetypeTableRecord
  2
CONTINUOUS
 70
     0
  3
Solid line
 72
    65
 73
     0
 40
0.0
  0
LTYPE
  5
4B
330
5
100
AcDbSymbolTableRecord
100
AcDbLinetypeTableRecord
  2
DASHED
 70
     0
  3
Dashed __ __ __ __ __ __ __ __ __ __ __ __ __ _
 72
    65
 73
     2
 40
19.04999999999999
 49
12.7
 74
     0
 49
-6.349999999999998
 74
     0
  0
LTYPE
  5
4C
330
5
100
AcDbSymbolTableRecord
100
AcDbLinetypeTableRecord
  2
CENTER
 70
     0
  3
Center ____ _ ____ _ ____ _ ____ _ ____ _ ____
 72
    65
 73
     4
 40
50.8
 49
31.75
 74
     0
 49
-6.349999999999998
 74
     0
 49
6.349999999999998
 74
     0
 49
-6.349999999999998
 74
     0
  0
LTYPE
  5
4D
330
5
100
AcDbSymbolTableRecord
100
AcDbLinetypeTableRecord
  2
PHANTOM
 70
     0
  3
Phantom ______  __  __  ______  __  __  ______
 72
    65
 73
     6
 40
63.5
 49
31.75
 74
     0
 49
-6.349999999999998
 74
     0
 49
6.349999999999998
 74
     0
 49
-6.349999999999998
 74
     0
 49
6.349999999999998
 74
     0
 49
-6.349999999999998
 74
     0
  0
ENDTAB
  0
TABLE
  2
LAYER
  5
2
330
0
100
AcDbSymbolTable
 70
     8
  0
LAYER
  5
E
102
{ACAD_XDICTIONARY
360
1AD0
102
}
330
2
100
AcDbSymbolTableRecord
100
AcDbLayerTableRecord
  2
0
 70
     0
 62
     7
  6
CONTINUOUS
370
    -3
390
1A7F
  0
LAYER
  5
4E
102
{ACAD_XDICTIONARY
360
1AD2
102
}
330
2
100
AcDbSymbolTableRecord
100
AcDbLayerTableRecord
  2
4
 70
     0
 62
     1
  6
CENTER
370
    -3
390
1A7F
  0
LAYER
  5
4F
102
{ACAD_XDICTIONARY
360
1AD4
102
}
330
2
100
AcDbSymbolTableRecord
100
AcDbLayerTableRecord
  2
5
 70
     0
 62
     6
  6
PHANTOM
370
    -3
390
1A7F
  0
LAYER
  5
50
102
{ACAD_XDICTIONARY
360
1AD6
102
}
330
2
100
AcDbSymbolTableRecord
100
AcDbLayerTableRecord
  2
1
 70
     0
 62
     7
  6
CONTINUOUS
370
    -3
390
1A7F
  0
LAYER
  5
51
102
{ACAD_XDICTIONARY
360
1AD8
102
}
330
2
100
AcDbSymbolTableRecord
100
AcDbLayerTableRecord
  2
2
 70
     0
 62
     4
  6
CONTINUOUS
370
    -3
390
1A7F
  0
LAYER
  5
52
102
{ACAD_XDICTIONARY
360
1ADA
102
}
330
2
100
AcDbSymbolTableRecord
100
AcDbLayerTableRecord
  2
3
 70
     0
 62
     2
  6
DASHED
370
    -3
390
1A7F
  0
LAYER
  5
53
102
{ACAD_XDICTIONARY
360
1ADC
102
}
330
2
100
AcDbSymbolTableRecord
100
AcDbLayerTableRecord
  2
6
 70
     0
 62
     5
  6
CONTINUOUS
370
    -3
390
1A7F
  0
LAYER
  5
54
102
{ACAD_XDICTIONARY
360
1ADE
102
}
330
2
100
AcDbSymbolTableRecord
100
AcDbLayerTableRecord
  2
7
 70
     0
 62
     3
  6
CONTINUOUS
370
    -3
390
1A7F
  0
ENDTAB
  0
TABLE
  2
STYLE
  5
3
330
0
100
AcDbSymbolTable
 70
     1
  0
STYLE
  5
F
330
3
100
AcDbSymbolTableRecord
100
AcDbTextStyleTableRecord
  2
STANDARD
 70
     0
 40
0.0
 41
1.0
 50
0.0
 71
     0
 42
2.5
  3
simplex.shx
  4

  0
ENDTAB
  0
TABLE
  2
VIEW
  5
6
330
0
100
AcDbSymbolTable
 70
     0
  0
ENDTAB
  0
TABLE
  2
UCS
  5
7
330
0
100
AcDbSymbolTable
 70
     0
  0
ENDTAB
  0
TABLE
  2
APPID
  5
9
330
0
100
AcDbSymbolTable
 70
     5
  0
APPID
  5
10
330
9
100
AcDbSymbolTableRecord
100
AcDbRegAppTableRecord
  2
ACAD
 70
     0
  0
APPID
  5
3E
330
9
100
AcDbSymbolTableRecord
100
AcDbRegAppTableRecord
  2
CONTENTTABDATA
 70
     0
  0
APPID
  5
3F
330
9
100
AcDbSymbolTableRecord
100
AcDbRegAppTableRecord
  2
CONTENTCURRENTTAB
 70
     0
  0
APPID
  5
1AEA
330
9
100
AcDbSymbolTableRecord
100
AcDbRegAppTableRecord
  2
ACAD_NAV_VCDISPLAY
 70
     0
  0
APPID
  5
1B23
330
9
100
AcDbSymbolTableRecord
100
AcDbRegAppTableRecord
  2
ACAD_MLEADERVER
 70
     0
  0
ENDTAB
  0
TABLE
  2
DIMSTYLE
  5
A
330
0
100
AcDbSymbolTable
 70
     1
100
AcDbDimStyleTable
 71
     0
  0
DIMSTYLE
105
1D
330
A
100
AcDbSymbolTableRecord
100
AcDbDimStyleTableRecord
  2
STANDARD
 70
     0
 41
3.0
 42
1.0
 43
10.0
 44
1.0
 73
     0
 74
     0
 77
     3
 78
     8
140
3.2
141
0.0
147
1.0
172
     1
173
     1
340
F
341
2E
343
2E
344
2E
  0
ENDTAB
  0
TABLE
  2
BLOCK_RECORD
  5
1
330
0
100
AcDbSymbolTable
 70
     1
  0
BLOCK_RECORD
  5
18
102
{ACAD_XDICTIONARY
360
1A79
102
}
330
1
100
AcDbSymbolTableRecord
100
AcDbBlockTableRecord
  2
*MODEL_SPACE
340
1ACD
  0
BLOCK_RECORD
  5
15
102
{ACAD_XDICTIONARY
360
1A77
102
}
330
1
100
AcDbSymbolTableRecord
100
AcDbBlockTableRecord
  2
*PAPER_SPACE
340
1ACE
  0
BLOCK_RECORD
  5
2E
330
1
100
AcDbSymbolTableRecord
100
AcDbBlockTableRecord
  2
_OPEN
340
0
  0
ENDTAB
  0
ENDSEC
  0
SECTION
  2
BLOCKS
  0
BLOCK
  5
19
330
18
100
AcDbEntity
  8
0
100
AcDbBlockBegin
  2
*MODEL_SPACE
 70
     0
 10
0.0
 20
0.0
 30
0.0
  3
*MODEL_SPACE
  1

  0
ENDBLK
  5
1A
330
18
100
AcDbEntity
  8
0
100
AcDbBlockEnd
  0
BLOCK
  5
16
330
15
100
AcDbEntity
 67
     1
  8
0
100
AcDbBlockBegin
  2
*PAPER_SPACE
 70
     0
 10
0.0
 20
0.0
 30
0.0
  3
*PAPER_SPACE
  1

  0
ENDBLK
  5
17
330
15
100
AcDbEntity
 67
     1
  8
0
100
AcDbBlockEnd
  0
BLOCK
  5
2F
330
2E
100
AcDbEntity
  8
0
100
AcDbBlockBegin
  2
_OPEN
 70
     0
 10
0.0
 20
0.0
 30
0.0
  3
_OPEN
  1

  0
LINE
  5
30
330
2E
100
AcDbEntity
  8
0
  6
ByBlock
 62
     0
100
AcDbLine
 10
-1.0
 20
0.1666666666666666
 30
0.0
 11
0.0
 21
0.0
 31
0.0
  0
LINE
  5
31
330
2E
100
AcDbEntity
  8
0
  6
ByBlock
 62
     0
100
AcDbLine
 10
0.0
 20
0.0
 30
0.0
 11
-1.0
 21
-0.1666666666666666
 31
0.0
  0
LINE
  5
32
330
2E
100
AcDbEntity
  8
0
  6
ByBlock
 62
     0
100
AcDbLine
 10
0.0
 20
0.0
 30
0.0
 11
-1.0
 21
0.0
 31
0.0
  0
ENDBLK
  5
33
330
2E
100
AcDbEntity
  8
0
100
AcDbBlockEnd
  0
ENDSEC
  0
SECTION
  2
ENTITIES
  0
TEXT
  5
63
330
18
100
AcDbEntity
  8
4
  6
CENTER
 48
0.25
100
AcDbText
 10
23.97950852663849
 20
10.0
 30
0.0
 40
1.399999999999999
  1
4
100
AcDbText
  0
TEXT
  5
64
330
18
100
AcDbEntity
  8
7
  6
Continuous
 48
0.25
100
AcDbText
 10
9.999997526638502
 20
26.0000007607689
 30
0.0
 40
3.0
  1
CODE No.2725
100
AcDbText
  0
TEXT
  5
65
330
18
100
AcDbEntity
  8
7
  6
Continuous
 48
0.25
100
AcDbText
 10
9.999997526638502
 20
18.00000076076889
 30
0.0
 40
3.0
  1
TYPE No.TEH-1039-U12
100
AcDbText
  0
TEXT
  5
66
330
18
100
AcDbEntity
  8
1
  6
Continuous
 48
0.25
100
AcDbText
 10
9.999997526638502
 20
10.00000076076889
 30
0.0
 40
1.399999999999999
  1
LAYER
100
AcDbText
  0
TEXT
  5
67
330
18
100
AcDbEntity
  8
2
  6
Continuous
 48
0.25
100
AcDbText
 10
19.9795085266385
 20
10.0
 30
0.0
 40
1.399999999999999
  1
2
100
AcDbText
  0
TEXT
  5
68
330
18
100
AcDbEntity
  8
3
  6
DASHED
 48
0.25
100
AcDbText
 10
21.9795085266385
 20
10.0
 30
0.0
 40
1.399999999999999
  1
3
100
AcDbText
  0
TEXT
  5
69
330
18
100
AcDbEntity
  8
1
  6
Continuous
 48
0.25
100
AcDbText
 10
17.9795085266385
 20
10.0
 30
0.0
 40
1.399999999999999
  1
1
100
AcDbText
  0
TEXT
  5
6A
330
18
100
AcDbEntity
  8
5
  6
PHANTOM
 48
0.25
100
AcDbText
 10
25.9795085266385
 20
10.0
 30
0.0
 40
1.399999999999999
  1
5
100
AcDbText
  0
TEXT
  5
6B
330
18
100
AcDbEntity
  8
6
  6
Continuous
 48
0.25
100
AcDbText
 10
27.9795085266385
 20
10.0
 30
0.0
 40
1.399999999999999
  1
6
100
AcDbText
  0
TEXT
  5
6C
330
18
100
AcDbEntity
  8
7
  6
Continuous
 48
0.25
100
AcDbText
 10
29.9795085266385
 20
10.0
 30
0.0
 40
1.399999999999999
  1
7
100
AcDbText
  0
LINE
  5
11FB
330
18
100
AcDbEntity
  8
1
  6
Continuous
100
AcDbLine
 10
117.720648033835
 20
132.5772487568882
 30
0.0
 11
117.720648033835
 21
148.5772495168474
 31
0.0
  0
LINE
  5
11FC
330
18
100
AcDbEntity
  8
1
  6
Continuous
100
AcDbLine
 10
114.2206478675939
 20
132.5772487568882
 30
0.0
 11
114.2206478675939
 21
148.5772495168475
 31
0.0
  0
LINE
  5
11FD
330
18
100
AcDbEntity
  8
1
  6
Continuous
100
AcDbLine
 10
130.2206486275531
 20
132.5772487568882
 30
0.0
 11
130.2206486275531
 21
148.5772495168474
 31
0.0
  0
LINE
  5
11FE
330
18
100
AcDbEntity
  8
1
  6
Continuous
100
AcDbLine
 10
126.720648461312
 20
132.5772487568882
 30
0.0
 11
126.720648461312
 21
148.5772495168474
 31
0.0
  0
LINE
  5
12BE
330
18
100
AcDbEntity
  8
1
  6
Continuous
100
AcDbLine
 10
130.2206486275531
 20
132.5772487568882
 30
0.0
 11
114.2206478675939
 21
132.5772487568882
 31
0.0
  0
LINE
  5
12BF
330
18
100
AcDbEntity
  8
1
  6
Continuous
100
AcDbLine
 10
98.72064713138342
 20
153.077249730586
 30
0.0
 11
102.6206469351537
 21
153.077249730586
 31
0.0
  0
LINE
  5
12C0
330
18
100
AcDbEntity
  8
1
  6
Continuous
100
AcDbLine
 10
102.6206469351537
 20
161.0772501105656
 30
0.0
 11
98.72064713138357
 21
161.0772501105655
 31
0.0
  0
LINE
  5
12C1
330
18
100
AcDbEntity
  8
1
  6
Continuous
100
AcDbLine
 10
59.25851606912597
 20
160.8300264986788
 30
0.0
 11
59.25851606912597
 21
153.3244726427191
 31
0.0
  0
LINE
  5
12C2
330
18
100
AcDbEntity
  8
1
  6
Continuous
100
AcDbLine
 10
46.2585154516591
 20
160.8300264986788
 30
0.0
 11
46.2585154516591
 21
153.3244726427191
 31
0.0
  0
ARC
  5
12C5
330
18
100
AcDbEntity
  8
1
  6
Continuous
100
AcDbCircle
 10
52.75851576039259
 20
157.0772499205759
 30
0.0
 40
7.00000033248221
100
AcDbArc
 50
159.6503735594867
 51
179.9999999999996
  0
ARC
  5
12C6
330
18
100
AcDbEntity
  8
1
  6
Continuous
100
AcDbCircle
 10
52.75851576039265
 20
157.0772499205759
 30
0.0
 40
7.000000332482057
100
AcDbArc
 50
2.150373559484233
 51
21.76692764307361
  0
LINE
  5
12D0
330
18
100
AcDbEntity
  8
1
  6
Continuous
100
AcDbLine
 10
59.25851606912597
 20
153.3244726427192
 30
0.0
 11
52.75851576039242
 21
149.571695714739
 31
0.0
  0
LINE
  5
12F6
330
18
100
AcDbEntity
  8
1
  6
Continuous
100
AcDbLine
 10
46.25851545165899
 20
153.324472642719
 30
0.0
 11
52.75851576039253
 21
149.5716957147388
 31
0.0
  0
LINE
  5
12F8
330
18
100
AcDbEntity
  8
1
  6
Continuous
100
AcDbLine
 10
47.99797957497004
 20
151.9452620131434
 30
0.0
 11
48.1973496728042
 21
152.2050861832266
 31
0.0
  0
ARC
  5
12F9
330
18
100
AcDbEntity
  8
1
  6
Continuous
100
AcDbCircle
 10
52.75851576039265
 20
157.077249920576
 30
0.0
 40
7.000000332482303
100
AcDbArc
 50
227.1503735594876
 51
247.5000000000013
  0
LINE
  5
12FB
330
18
100
AcDbEntity
  8
1
  6
Continuous
100
AcDbLine
 10
48.00018506337306
 20
152.3189192235564
 30
0.0
 11
47.80876805698619
 21
152.1275022171696
 31
0.0
  0
ARC
  5
12FC
330
18
100
AcDbEntity
  8
1
  6
Continuous
100
AcDbCircle
 10
52.75851576039265
 20
157.0772499205759
 30
0.0
 40
7.00000033248229
100
AcDbArc
 50
218.3637430025267
 51
224.9999999999997
  0
LINE
  5
12FD
330
18
100
AcDbEntity
  8
1
  6
Continuous
100
AcDbLine
 10
46.2585154516591
 20
157.0772499205759
 30
0.0
 11
45.75851542791038
 21
157.0772499205759
 31
0.0
  0
LINE
  5
12FE
330
18
100
AcDbEntity
  8
1
  6
Continuous
100
AcDbLine
 10
45.76344489128342
 20
156.8145938890596
 30
0.0
 11
46.2585154516591
 21
156.8797711648151
 31
0.0
  0
ARC
  5
12FF
330
18
100
AcDbEntity
  8
1
  6
Continuous
100
AcDbCircle
 10
52.75851576039242
 20
157.0772499205759
 30
0.0
 40
7.000000332482057
100
AcDbArc
 50
182.1503735594841
 51
201.7669276430736
  0
LINE
  5
1303
330
18
100
AcDbEntity
  8
1
  6
Continuous
100
AcDbLine
 10
50.32428056217367
 20
150.5141330044679
 30
0.0
 11
50.43171290578409
 21
150.9150759691983
 31
0.0
  0
LINE
  5
1304
330
18
100
AcDbEntity
  8
1
  6
Continuous
100
AcDbLine
 10
50.24960917225678
 20
151.0202136087707
 30
0.0
 11
50.07973160660168
 21
150.6100928858232
 31
0.0
  0
ARC
  5
1305
330
18
100
AcDbEntity
  8
1
  6
Continuous
100
AcDbCircle
 10
52.75851576039259
 20
157.0772499205759
 30
0.0
 40
7.00000033248221
100
AcDbArc
 50
249.6503735594874
 51
261.7691452758232
  0
LINE
  5
1306
330
18
100
AcDbEntity
  8
1
  6
Continuous
100
AcDbLine
 10
55.26742234852822
 20
151.0202136087709
 30
0.0
 11
55.43729991418338
 21
150.6100928858232
 31
0.0
  0
LINE
  5
1307
330
18
100
AcDbEntity
  8
1
  6
Continuous
100
AcDbLine
 10
55.67807602182904
 20
150.7151612278122
 30
0.0
 11
55.44332104780621
 21
151.1217687701492
 31
0.0
  0
LINE
  5
1308
330
18
100
AcDbEntity
  8
1
  6
Continuous
100
AcDbLine
 10
57.89050366782505
 20
152.3167137351534
 30
0.0
 11
57.72843014552961
 21
152.4410771228475
 31
0.0
  0
LINE
  5
1309
330
18
100
AcDbEntity
  8
1
  6
Continuous
100
AcDbLine
 10
57.51684645741182
 20
152.3189192235566
 30
0.0
 11
57.70826346379887
 21
152.1275022171696
 31
0.0
  0
ARC
  5
130A
330
18
100
AcDbEntity
  8
1
  6
Continuous
100
AcDbCircle
 10
52.75851576039242
 20
157.077249920576
 30
0.0
 40
7.000000332482303
100
AcDbArc
 50
317.1503735594878
 51
321.6236264431675
  0
ARC
  5
130B
330
18
100
AcDbEntity
  8
1
  6
Continuous
100
AcDbCircle
 10
52.75851576039253
 20
157.0772499205758
 30
0.0
 40
7.000000332482057
100
AcDbArc
 50
278.2205009546477
 51
292.4999999999986
  0
ARC
  5
130C
330
18
100
AcDbEntity
  8
1
  6
Continuous
100
AcDbCircle
 10
52.75851576039246
 20
157.077249920576
 30
0.0
 40
7.00000033248229
100
AcDbArc
 50
294.6503735594868
 51
315.0
  0
LINE
  5
130E
330
18
100
AcDbEntity
  8
1
  6
Continuous
100
AcDbLine
 10
59.25851606912597
 20
157.0772499205759
 30
0.0
 11
59.75851609287468
 21
157.0772499205759
 31
0.0
  0
LINE
  5
130F
330
18
100
AcDbEntity
  8
1
  6
Continuous
100
AcDbLine
 10
59.32163267650049
 20
154.643014722357
 30
0.0
 11
59.25851606912597
 21
154.659926766332
 31
0.0
  0
LINE
  5
1310
330
18
100
AcDbEntity
  8
1
  6
Continuous
100
AcDbLine
 10
59.75358662950164
 20
157.3399059520921
 30
0.0
 11
59.25851606912597
 21
157.2747286763366
 31
0.0
  0
ARC
  5
1311
330
18
100
AcDbEntity
  8
1
  6
Continuous
100
AcDbCircle
 10
52.75851576039246
 20
157.0772499205759
 30
0.0
 40
7.00000033248221
100
AcDbArc
 50
339.6503735594866
 51
359.9999999999996
  0
LINE
  5
1312
330
18
100
AcDbEntity
  8
1
  6
Continuous
100
AcDbLine
 10
98.72064713138342
 20
153.0772497305859
 30
0.0
 11
98.72064713138357
 21
161.0772501105655
 31
0.0
  0
LINE
  5
1313
330
18
100
AcDbEntity
  8
1
  6
Continuous
100
AcDbLine
 10
98.2206471076347
 20
153.5772497543346
 30
0.0
 11
98.2206471076347
 21
160.5772500868168
 31
0.0
  0
LINE
  5
1315
330
18
100
AcDbEntity
  8
1
  6
Continuous
100
AcDbLine
 10
98.2205471076347
 20
153.5773497543346
 30
0.0
 11
98.72064713138342
 21
153.077249730586
 31
0.0
  0
LINE
  5
1317
330
18
100
AcDbEntity
  8
1
  6
Continuous
100
AcDbLine
 10
52.75851576039253
 20
164.5828034266611
 30
0.0
 11
59.25851606912686
 21
160.8300264986805
 31
0.0
  0
LINE
  5
1319
330
18
100
AcDbEntity
  8
1
  6
Continuous
100
AcDbLine
 10
52.75851576039276
 20
164.582803426659
 30
0.0
 11
46.25851545165904
 21
160.8300264986788
 31
0.0
  0
ARC
  5
131A
330
18
100
AcDbEntity
  8
1
  6
Continuous
100
AcDbCircle
 10
52.75851576039259
 20
157.0772499205758
 30
0.0
 40
7.00000033248229
100
AcDbArc
 50
114.6503735594867
 51
135.0
  0
LINE
  5
131B
330
18
100
AcDbEntity
  8
1
  6
Continuous
100
AcDbLine
 10
46.19539884428458
 20
159.5114851187947
 30
0.0
 11
46.2585154516591
 21
159.4945730748198
 31
0.0
  0
LINE
  5
131C
330
18
100
AcDbEntity
  8
1
  6
Continuous
100
AcDbLine
 10
48.00018550699935
 20
161.8355801739691
 30
0.0
 11
47.80876805698619
 21
162.0269976239822
 31
0.0
  0
LINE
  5
131D
330
18
100
AcDbEntity
  8
1
  6
Continuous
100
AcDbLine
 10
47.62652785296
 20
161.8377861059984
 30
0.0
 11
47.78860189564336
 21
161.7134223189966
 31
0.0
  0
ARC
  5
131E
330
18
100
AcDbEntity
  8
1
  6
Continuous
100
AcDbCircle
 10
52.75851576039265
 20
157.0772499205758
 30
0.0
 40
7.000000332482303
100
AcDbArc
 50
137.1503735594878
 51
141.623640805952
  0
LINE
  5
131F
330
18
100
AcDbEntity
  8
1
  6
Continuous
100
AcDbLine
 10
49.83895549895603
 20
163.4393386133396
 30
0.0
 11
50.07371077598111
 21
163.0327305461872
 31
0.0
  0
LINE
  5
1320
330
18
100
AcDbEntity
  8
1
  6
Continuous
100
AcDbLine
 10
50.24960940616587
 20
163.1342856676745
 30
0.0
 11
50.07973160660168
 21
163.5444069553285
 31
0.0
  0
ARC
  5
1321
330
18
100
AcDbEntity
  8
1
  6
Continuous
100
AcDbCircle
 10
52.75851576039253
 20
157.077249920576
 30
0.0
 40
7.000000332482057
100
AcDbArc
 50
98.22048911759381
 51
112.4999999999986
  0
LINE
  5
1322
330
18
100
AcDbEntity
  8
1
  6
Continuous
100
AcDbLine
 10
55.26742211461994
 20
163.1342856676763
 30
0.0
 11
55.43729991418338
 21
163.5444069553285
 31
0.0
  0
LINE
  5
1323
330
18
100
AcDbEntity
  8
1
  6
Continuous
100
AcDbLine
 10
55.19275095861139
 20
163.6403668366838
 30
0.0
 11
55.08531845262297
 21
163.2394232659507
 31
0.0
  0
LINE
  5
1324
330
18
100
AcDbEntity
  8
1
  6
Continuous
100
AcDbLine
 10
57.51905194581503
 20
162.2092378280084
 30
0.0
 11
57.31968147588641
 21
161.9494131730021
 31
0.0
  0
LINE
  5
1325
330
18
100
AcDbEntity
  8
1
  6
Continuous
100
AcDbLine
 10
57.51684601378713
 20
161.8355801739705
 30
0.0
 11
57.70826346379887
 21
162.0269976239822
 31
0.0
  0
ARC
  5
1326
330
18
100
AcDbEntity
  8
1
  6
Continuous
100
AcDbCircle
 10
52.75851576039246
 20
157.0772499205758
 30
0.0
 40
7.00000033248221
100
AcDbArc
 50
69.65037355948736
 51
81.76916064389628
  0
ARC
  5
1327
330
18
100
AcDbEntity
  8
1
  6
Continuous
100
AcDbCircle
 10
52.75851576039242
 20
157.0772499205758
 30
0.0
 40
7.00000033248229
100
AcDbArc
 50
38.36372851717289
 51
44.99999999999971
  0
ARC
  5
1328
330
18
100
AcDbEntity
  8
1
  6
Continuous
100
AcDbCircle
 10
52.75851576039242
 20
157.0772499205758
 30
0.0
 40
7.000000332482303
100
AcDbArc
 50
47.15037355948759
 51
67.50000000000135
  0
LINE
  5
132B
330
18
100
AcDbEntity
  8
1
  6
Continuous
100
AcDbLine
 10
98.72064713138342
 20
161.0772501105656
 30
0.0
 11
98.2206471076347
 21
160.5772500868168
 31
0.0
  0
LINE
  5
1331
330
18
100
AcDbEntity
  8
1
  6
Continuous
100
AcDbLine
 10
130.2206486275531
 20
149.0772495405962
 30
0.0
 11
130.2206486275531
 21
165.0772503005554
 31
0.0
  0
LINE
  5
1332
330
18
100
AcDbEntity
  8
1
  6
Continuous
100
AcDbLine
 10
126.720648461312
 20
149.0772495405962
 30
0.0
 11
126.720648461312
 21
165.0772503005554
 31
0.0
  0
LINE
  5
1333
330
18
100
AcDbEntity
  8
1
  6
Continuous
100
AcDbLine
 10
112.220647772599
 20
149.0772495405961
 30
0.0
 11
112.220647772599
 21
165.0772503005553
 31
0.0
  0
LINE
  5
1337
330
18
100
AcDbEntity
  8
1
  6
Continuous
100
AcDbLine
 10
102.620646011698
 20
150.8272518110135
 30
0.0
 11
103.0776310581934
 21
149.5716957147389
 31
0.0
  0
LINE
  5
133A
330
18
100
AcDbEntity
  8
1
  6
Continuous
100
AcDbLine
 10
103.0776310581934
 20
149.5716957147389
 30
0.0
 11
108.9636631350965
 21
149.5716957147389
 31
0.0
  0
LINE
  5
133E
330
18
100
AcDbEntity
  8
1
  6
Continuous
100
AcDbLine
 10
114.7206478913426
 20
149.0772495405961
 30
0.0
 11
114.7206478913426
 21
148.5772495168474
 31
0.0
  0
LINE
  5
133F
330
18
100
AcDbEntity
  8
1
  6
Continuous
100
AcDbLine
 10
109.4206474488712
 20
157.0772499205757
 30
0.0
 11
110.2206474868692
 21
157.0772499205757
 31
0.0
  0
LINE
  5
1340
330
18
100
AcDbEntity
  8
1
  6
Continuous
100
AcDbLine
 10
109.4206474488712
 20
154.6430147223569
 30
0.0
 11
110.2206474868692
 21
154.6430147223569
 31
0.0
  0
LINE
  5
1341
330
18
100
AcDbEntity
  8
1
  6
Continuous
100
AcDbLine
 10
109.4206474488712
 20
157.339905952092
 30
0.0
 11
110.2206474868692
 21
157.339905952092
 31
0.0
  0
LINE
  5
1342
330
18
100
AcDbEntity
  8
1
  6
Continuous
100
AcDbLine
 10
109.4206474488712
 20
159.7560340743666
 30
0.0
 11
110.2206474868692
 21
159.7560340743666
 31
0.0
  0
LINE
  5
1343
330
18
100
AcDbEntity
  8
1
  6
Continuous
100
AcDbLine
 10
109.4206474488712
 20
154.3984657667849
 30
0.0
 11
110.2206474868692
 21
154.3984657667849
 31
0.0
  0
LINE
  5
1344
330
18
100
AcDbEntity
  8
1
  6
Continuous
100
AcDbLine
 10
109.4206474488712
 20
152.3167137351533
 30
0.0
 11
110.2206474868692
 21
152.3167137351533
 31
0.0
  0
LINE
  5
1345
330
18
100
AcDbEntity
  8
1
  6
Continuous
100
AcDbLine
 10
109.4206474488712
 20
159.9968101820123
 30
0.0
 11
110.2206474868692
 21
159.9968101820123
 31
0.0
  0
LINE
  5
1346
330
18
100
AcDbEntity
  8
1
  6
Continuous
100
AcDbLine
 10
109.4206474488712
 20
152.1275022171693
 30
0.0
 11
110.2206474868692
 21
152.1275022171693
 31
0.0
  0
LINE
  5
1347
330
18
100
AcDbEntity
  8
1
  6
Continuous
100
AcDbLine
 10
109.4206474488712
 20
150.7151612278121
 30
0.0
 11
110.2206474868692
 21
150.7151612278121
 31
0.0
  0
LINE
  5
1348
330
18
100
AcDbEntity
  8
1
  6
Continuous
100
AcDbLine
 10
109.4206474488712
 20
150.6100928858231
 30
0.0
 11
110.2206474868692
 21
150.6100928858231
 31
0.0
  0
LINE
  5
134A
330
18
100
AcDbEntity
  8
1
  6
Continuous
100
AcDbLine
 10
109.4206474488712
 20
150.0772495880934
 30
0.0
 11
110.2206474868692
 21
150.0772495880936
 31
0.0
  0
LINE
  5
134B
330
18
100
AcDbEntity
  8
1
  6
Continuous
100
AcDbLine
 10
102.620646011698
 20
163.3272473303851
 30
0.0
 11
102.620646011698
 21
150.8272518110136
 31
0.0
  0
LINE
  5
134D
330
18
100
AcDbEntity
  8
1
  6
Continuous
100
AcDbLine
 10
103.0776310581933
 20
153.324472642719
 30
0.0
 11
108.9636631350968
 21
153.324472642719
 31
0.0
  0
LINE
  5
1355
330
18
100
AcDbEntity
  8
1
  6
Continuous
100
AcDbLine
 10
109.4206474488712
 20
150.0772495880934
 30
0.0
 11
109.4206474488712
 21
164.0772502530579
 31
0.0
  0
LINE
  5
1362
330
18
100
AcDbEntity
  8
1
  6
Continuous
100
AcDbLine
 10
110.2206474868692
 20
164.0772502530579
 30
0.0
 11
110.2206474868692
 21
150.0772495880936
 31
0.0
  0
LINE
  5
1364
330
18
100
AcDbEntity
  8
1
  6
Continuous
100
AcDbLine
 10
110.2206474868692
 20
153.077249730586
 30
0.0
 11
112.220647772599
 21
153.077249730586
 31
0.0
  0
LINE
  5
1368
330
18
100
AcDbEntity
  8
1
  6
Continuous
100
AcDbLine
 10
130.2206486275532
 20
149.0772495405961
 30
0.0
 11
112.220647772599
 21
149.0772495405961
 31
0.0
  0
LINE
  5
1369
330
18
100
AcDbEntity
  8
1
  6
Continuous
100
AcDbLine
 10
129.7206486038044
 20
148.5772495168474
 30
0.0
 11
129.7206486038044
 21
149.0772495405961
 31
0.0
  0
LINE
  5
136A
330
18
100
AcDbEntity
  8
1
  6
Continuous
100
AcDbLine
 10
130.2206486275531
 20
148.5772495168474
 30
0.0
 11
114.2206478675939
 21
148.5772495168475
 31
0.0
  0
LINE
  5
136C
330
18
100
AcDbEntity
  8
1
  6
Continuous
100
AcDbLine
 10
109.4206474488712
 20
162.0269976239821
 30
0.0
 11
110.2206474868692
 21
162.0269976239821
 31
0.0
  0
LINE
  5
136D
330
18
100
AcDbEntity
  8
1
  6
Continuous
100
AcDbLine
 10
109.4206474488712
 20
163.5444069553284
 30
0.0
 11
110.2206474868692
 21
163.5444069553284
 31
0.0
  0
LINE
  5
136E
330
18
100
AcDbEntity
  8
1
  6
Continuous
100
AcDbLine
 10
109.4206474488712
 20
162.2092378280083
 30
0.0
 11
110.2206474868692
 21
162.2092378280083
 31
0.0
  0
LINE
  5
136F
330
18
100
AcDbEntity
  8
1
  6
Continuous
100
AcDbLine
 10
109.4206474488712
 20
163.6403668366837
 30
0.0
 11
110.2206474868692
 21
163.6403668366837
 31
0.0
  0
LINE
  5
1370
330
18
100
AcDbEntity
  8
1
  6
Continuous
100
AcDbLine
 10
109.4206474488712
 20
164.0772502530579
 30
0.0
 11
110.2206474868692
 21
164.0772502530579
 31
0.0
  0
LINE
  5
1371
330
18
100
AcDbEntity
  8
1
  6
Continuous
100
AcDbLine
 10
103.0776310581935
 20
160.8300264986804
 30
0.0
 11
108.9636631350967
 21
160.8300264986804
 31
0.0
  0
LINE
  5
1372
330
18
100
AcDbEntity
  8
1
  6
Continuous
100
AcDbLine
 10
103.0776310581935
 20
164.5828034266593
 30
0.0
 11
108.9636631350965
 21
164.5828034266593
 31
0.0
  0
LINE
  5
1374
330
18
100
AcDbEntity
  8
1
  6
Continuous
100
AcDbLine
 10
103.0776310581932
 20
164.5828034266593
 30
0.0
 11
102.620646011698
 21
163.3272473303851
 31
0.0
  0
LINE
  5
1382
330
18
100
AcDbEntity
  8
1
  6
Continuous
100
AcDbLine
 10
112.220647772599
 20
161.0772501105656
 30
0.0
 11
110.2206474868692
 21
161.0772501105656
 31
0.0
  0
LINE
  5
1383
330
18
100
AcDbEntity
  8
1
  6
Continuous
100
AcDbLine
 10
130.2206486275532
 20
165.0772503005554
 30
0.0
 11
112.220647772599
 21
165.0772503005553
 31
0.0
  0
LINE
  5
139A
330
18
100
AcDbEntity
  8
1
  6
Continuous
100
AcDbLine
 10
171.1827797610568
 20
132.5772487568882
 30
0.0
 11
171.1827797610568
 21
148.5772495168474
 31
0.0
  0
LINE
  5
139B
330
18
100
AcDbEntity
  8
1
  6
Continuous
100
AcDbLine
 10
167.6827795948157
 20
132.5772487568882
 30
0.0
 11
167.6827795948157
 21
148.5772495168474
 31
0.0
  0
LINE
  5
139C
330
18
100
AcDbEntity
  8
1
  6
Continuous
100
AcDbLine
 10
185.6827804497698
 20
132.5772487568882
 30
0.0
 11
185.6827804497698
 21
148.5772495168474
 31
0.0
  0
LINE
  5
13A0
330
18
100
AcDbEntity
  8
1
  6
Continuous
100
AcDbLine
 10
167.6827795948157
 20
132.0772487331395
 30
0.0
 11
167.6827795948157
 21
116.0772479731802
 31
0.0
  0
LINE
  5
13A1
330
18
100
AcDbEntity
  8
1
  6
Continuous
100
AcDbLine
 10
171.1827797610568
 20
132.0772487331394
 30
0.0
 11
171.1827797610568
 21
116.0772479731802
 31
0.0
  0
LINE
  5
13A2
330
18
100
AcDbEntity
  8
1
  6
Continuous
100
AcDbLine
 10
180.1827801885338
 20
132.0772487331394
 30
0.0
 11
180.1827801885338
 21
116.0772479731802
 31
0.0
  0
LINE
  5
13A3
330
18
100
AcDbEntity
  8
1
  6
Continuous
100
AcDbLine
 10
183.6827803547749
 20
132.0772487331394
 30
0.0
 11
183.6827803547749
 21
116.0772479731802
 31
0.0
  0
LINE
  5
13A6
330
18
100
AcDbEntity
  8
1
  6
Continuous
100
AcDbLine
 10
167.6827795948157
 20
116.0772479731802
 30
0.0
 11
183.6827803547749
 21
116.0772479731802
 31
0.0
  0
LINE
  5
13A8
330
18
100
AcDbEntity
  8
1
  6
Continuous
100
AcDbLine
 10
167.6827795948157
 20
132.5772487568882
 30
0.0
 11
185.6827804497698
 21
132.5772487568882
 31
0.0
  0
LINE
  5
13AB
330
18
100
AcDbEntity
  8
1
  6
Continuous
100
AcDbLine
 10
168.1827796185644
 20
132.5772487568882
 30
0.0
 11
168.1827796185644
 21
132.0772487331395
 31
0.0
  0
LINE
  5
13AF
330
18
100
AcDbEntity
  8
1
  6
Continuous
100
AcDbLine
 10
167.6827795948157
 20
132.0772487331395
 30
0.0
 11
183.6827803547749
 21
132.0772487331395
 31
0.0
  0
LINE
  5
13B0
330
18
100
AcDbEntity
  8
1
  6
Continuous
100
AcDbLine
 10
183.1827803310261
 20
132.0772487331395
 30
0.0
 11
183.1827803310261
 21
132.5772487568882
 31
0.0
  0
LINE
  5
13DD
330
18
100
AcDbEntity
  8
1
  6
Continuous
100
AcDbLine
 10
171.1827797610568
 20
149.0772495405962
 30
0.0
 11
171.1827797610568
 21
165.0772503005554
 31
0.0
  0
LINE
  5
13DE
330
18
100
AcDbEntity
  8
1
  6
Continuous
100
AcDbLine
 10
167.6827795948157
 20
149.0772495405961
 30
0.0
 11
167.6827795948157
 21
165.0772503005555
 31
0.0
  0
LINE
  5
13DF
330
18
100
AcDbEntity
  8
1
  6
Continuous
100
AcDbLine
 10
183.6827803547749
 20
149.0772495405962
 30
0.0
 11
183.6827803547749
 21
165.0772503005554
 31
0.0
  0
LINE
  5
13E0
330
18
100
AcDbEntity
  8
1
  6
Continuous
100
AcDbLine
 10
180.1827801885338
 20
149.0772495405962
 30
0.0
 11
180.1827801885338
 21
165.0772503005554
 31
0.0
  0
LINE
  5
13E2
330
18
100
AcDbEntity
  8
1
  6
Continuous
100
AcDbLine
 10
167.6827795948157
 20
148.5772495168474
 30
0.0
 11
185.6827804497698
 21
148.5772495168474
 31
0.0
  0
LINE
  5
13E5
330
18
100
AcDbEntity
  8
1
  6
Continuous
100
AcDbLine
 10
168.1827796185644
 20
149.0772495405961
 30
0.0
 11
168.1827796185644
 21
148.5772495168474
 31
0.0
  0
LINE
  5
13F6
330
18
100
AcDbEntity
  8
1
  6
Continuous
100
AcDbLine
 10
183.6827803547749
 20
149.0772495405961
 30
0.0
 11
167.6827795948157
 21
149.0772495405961
 31
0.0
  0
LINE
  5
13F7
330
18
100
AcDbEntity
  8
1
  6
Continuous
100
AcDbLine
 10
183.1827803310261
 20
148.5772495168474
 30
0.0
 11
183.1827803310261
 21
149.0772495405961
 31
0.0
  0
LINE
  5
1413
330
18
100
AcDbEntity
  8
1
  6
Continuous
100
AcDbLine
 10
183.6827803547749
 20
165.0772503005554
 30
0.0
 11
167.6827795948157
 21
165.0772503005555
 31
0.0
  0
LINE
  5
1501
330
18
100
AcDbEntity
  8
1
  6
Continuous
100
AcDbLine
 10
102.6206469351537
 20
217.0173647059678
 30
0.0
 11
102.6206469351537
 21
204.5173641122488
 31
0.0
  0
LINE
  5
1506
330
18
100
AcDbEntity
  8
1
  6
Continuous
100
AcDbLine
 10
112.220647772599
 20
218.7673647890878
 30
0.0
 11
112.220647772599
 21
202.7673640291286
 31
0.0
  0
LINE
  5
1507
330
18
100
AcDbEntity
  8
1
  6
Continuous
100
AcDbLine
 10
130.2206486275532
 20
206.2673641953697
 30
0.0
 11
130.2206486275531
 21
220.7673648840827
 31
0.0
  0
LINE
  5
1508
330
18
100
AcDbEntity
  8
1
  6
Continuous
100
AcDbLine
 10
112.220647772599
 20
202.7673640291286
 30
0.0
 11
126.720648461312
 21
202.7673640291286
 31
0.0
  0
LINE
  5
1509
330
18
100
AcDbEntity
  8
1
  6
Continuous
100
AcDbLine
 10
109.4206474488712
 20
208.0885802553174
 30
0.0
 11
110.2206474868692
 21
208.0885802553174
 31
0.0
  0
LINE
  5
150A
330
18
100
AcDbEntity
  8
1
  6
Continuous
100
AcDbLine
 10
109.4206474488712
 20
206.0068282236858
 30
0.0
 11
110.2206474868692
 21
206.0068282236858
 31
0.0
  0
LINE
  5
150B
330
18
100
AcDbEntity
  8
1
  6
Continuous
100
AcDbLine
 10
109.4206474488712
 20
205.8176167057019
 30
0.0
 11
110.2206474868692
 21
205.8176167057019
 31
0.0
  0
LINE
  5
150C
330
18
100
AcDbEntity
  8
1
  6
Continuous
100
AcDbLine
 10
109.4206474488712
 20
204.4052757163446
 30
0.0
 11
110.2206474868692
 21
204.4052757163446
 31
0.0
  0
LINE
  5
150D
330
18
100
AcDbEntity
  8
1
  6
Continuous
100
AcDbLine
 10
109.4206474488712
 20
204.3002073743556
 30
0.0
 11
110.2206474868692
 21
204.3002073743556
 31
0.0
  0
LINE
  5
150F
330
18
100
AcDbEntity
  8
1
  6
Continuous
100
AcDbLine
 10
109.4206474488712
 20
203.7673640766261
 30
0.0
 11
110.2206474868692
 21
203.7673640766261
 31
0.0
  0
LINE
  5
1511
330
18
100
AcDbEntity
  8
1
  6
Continuous
100
AcDbLine
 10
102.6206469351537
 20
204.5173641122488
 30
0.0
 11
102.7116397105584
 21
204.2673635164906
 31
0.0
  0
LINE
  5
1513
330
18
100
AcDbEntity
  8
1
  6
Continuous
100
AcDbLine
 10
109.3296547076887
 20
204.2673641345552
 30
0.0
 11
109.4206474488712
 21
204.5173646362885
 31
0.0
  0
LINE
  5
1515
330
18
100
AcDbEntity
  8
1
  6
Continuous
100
AcDbLine
 10
109.3296547076887
 20
204.2673641345552
 30
0.0
 11
102.7116397105584
 21
204.2673635164906
 31
0.0
  0
LINE
  5
151A
330
18
100
AcDbEntity
  8
1
  6
Continuous
100
AcDbLine
 10
109.4206474488712
 20
203.7673640766261
 30
0.0
 11
109.4206474488716
 21
217.7673647415904
 31
0.0
  0
LINE
  5
1520
330
18
100
AcDbEntity
  8
1
  6
Continuous
100
AcDbLine
 10
110.2206474868692
 20
217.7673647415904
 30
0.0
 11
110.2206474868692
 21
203.7673640766261
 31
0.0
  0
LINE
  5
1523
330
18
100
AcDbEntity
  8
1
  6
Continuous
100
AcDbLine
 10
130.2206486275532
 20
206.2673641953697
 30
0.0
 11
126.720648461312
 21
202.7673640291286
 31
0.0
  0
LINE
  5
1527
330
18
100
AcDbEntity
  8
1
  6
Continuous
100
AcDbLine
 10
126.720648461312
 20
218.7673647890878
 30
0.0
 11
112.220647772599
 21
218.7673647890878
 31
0.0
  0
LINE
  5
1528
330
18
100
AcDbEntity
  8
1
  6
Continuous
100
AcDbLine
 10
130.2206486275531
 20
220.7673648840827
 30
0.0
 11
114.2206478675939
 21
220.7673648840827
 31
0.0
  0
LINE
  5
1529
330
18
100
AcDbEntity
  8
1
  6
Continuous
100
AcDbLine
 10
109.4206474488712
 20
210.7673644091082
 30
0.0
 11
110.2206474868692
 21
210.7673644091082
 31
0.0
  0
LINE
  5
152A
330
18
100
AcDbEntity
  8
1
  6
Continuous
100
AcDbLine
 10
109.4206474488712
 20
208.3331292108894
 30
0.0
 11
110.2206474868692
 21
208.3331292108894
 31
0.0
  0
LINE
  5
152B
330
18
100
AcDbEntity
  8
1
  6
Continuous
100
AcDbLine
 10
109.4206474488712
 20
211.0300204406245
 30
0.0
 11
110.2206474868692
 21
211.0300204406245
 31
0.0
  0
LINE
  5
152C
330
18
100
AcDbEntity
  8
1
  6
Continuous
100
AcDbLine
 10
109.4206474488712
 20
213.4461485628991
 30
0.0
 11
110.2206474868692
 21
213.4461485628991
 31
0.0
  0
LINE
  5
152D
330
18
100
AcDbEntity
  8
1
  6
Continuous
100
AcDbLine
 10
109.4206474488712
 20
213.6869246705447
 30
0.0
 11
110.2206474868692
 21
213.6869246705447
 31
0.0
  0
LINE
  5
152E
330
18
100
AcDbEntity
  8
1
  6
Continuous
100
AcDbLine
 10
109.4206474488712
 20
215.7171121125146
 30
0.0
 11
110.2206474868692
 21
215.7171121125146
 31
0.0
  0
LINE
  5
152F
330
18
100
AcDbEntity
  8
1
  6
Continuous
100
AcDbLine
 10
109.4206474488712
 20
215.8993523165408
 30
0.0
 11
110.2206474868692
 21
215.8993523165408
 31
0.0
  0
LINE
  5
1530
330
18
100
AcDbEntity
  8
1
  6
Continuous
100
AcDbLine
 10
109.4206474488712
 20
217.2345214438609
 30
0.0
 11
110.2206474868692
 21
217.2345214438609
 31
0.0
  0
LINE
  5
1531
330
18
100
AcDbEntity
  8
1
  6
Continuous
100
AcDbLine
 10
109.4206474488712
 20
217.3304813252162
 30
0.0
 11
110.2206474868692
 21
217.3304813252162
 31
0.0
  0
LINE
  5
1532
330
18
100
AcDbEntity
  8
1
  6
Continuous
100
AcDbLine
 10
109.4206474488716
 20
217.7673647415904
 30
0.0
 11
110.2206474868692
 21
217.7673647415904
 31
0.0
  0
LINE
  5
1537
330
18
100
AcDbEntity
  8
1
  6
Continuous
100
AcDbLine
 10
103.0776310581935
 20
210.7673644091073
 30
0.0
 11
108.9636631350965
 21
210.7673644091073
 31
0.0
  0
LINE
  5
153E
330
18
100
AcDbEntity
  8
1
  6
Continuous
100
AcDbLine
 10
102.711639710335
 20
217.2673653011121
 30
0.0
 11
102.6206469351537
 21
217.0173647059679
 31
0.0
  0
LINE
  5
153F
330
18
100
AcDbEntity
  8
1
  6
Continuous
100
AcDbLine
 10
109.3296547076756
 20
217.2673646836972
 30
0.0
 11
102.711639710335
 21
217.2673653011121
 31
0.0
  0
LINE
  5
1559
330
18
100
AcDbEntity
  8
1
  6
Continuous
100
AcDbLine
 10
114.2206478675939
 20
220.7673648840827
 30
0.0
 11
114.2206478675939
 21
218.7673647890878
 31
0.0
  0
LINE
  5
156E
330
18
100
AcDbEntity
  8
1
  6
Continuous
100
AcDbLine
 10
126.720648461312
 20
218.7673647890878
 30
0.0
 11
130.2206486275531
 21
215.2673646228468
 31
0.0
  0
ARC
  5
15AB
330
18
100
AcDbEntity
  8
1
  6
Continuous
100
AcDbCircle
 10
107.7054221564723
 20
162.7064149626685
 30
0.0
 40
4.993724473487294
100
AcDbArc
 50
157.9293684206442
 51
202.0706315793419
  0
ARC
  5
15AC
330
18
100
AcDbEntity
  8
1
  6
Continuous
100
AcDbCircle
 10
122.1370751130151
 20
157.0772495706988
 30
0.0
 40
19.4253891170823
100
AcDbArc
 50
168.8610342830522
 51
191.1389657169426
  0
ARC
  5
15AD
330
18
100
AcDbEntity
  8
1
  6
Continuous
100
AcDbCircle
 10
107.7054221572184
 20
151.4480841787291
 30
0.0
 40
4.99372447417865
100
AcDbArc
 50
157.9293684238728
 51
202.0706315761321
  0
ARC
  5
15B0
330
18
100
AcDbEntity
  8
1
  6
Continuous
100
AcDbCircle
 10
89.90421908027498
 20
157.0772495706988
 30
0.0
 40
19.4253891170823
100
AcDbArc
 50
348.8610342830574
 51
11.13896571694776
  0
ARC
  5
15B1
330
18
100
AcDbEntity
  8
1
  6
Continuous
100
AcDbCircle
 10
104.3358720360716
 20
151.4480841787291
 30
0.0
 40
4.99372447417865
100
AcDbArc
 50
337.9293684238678
 51
22.07063157612715
  0
LINE
  5
15B2
330
18
100
AcDbEntity
  8
1
  6
Continuous
100
AcDbLine
 10
109.4206481815921
 20
150.8272518110135
 30
0.0
 11
108.9636631350965
 21
149.5716957147389
 31
0.0
  0
LINE
  5
15B3
330
18
100
AcDbEntity
  8
1
  6
Continuous
100
AcDbLine
 10
108.9636631350968
 20
164.5828034266593
 30
0.0
 11
109.4206481815921
 21
163.3272473303851
 31
0.0
  0
ARC
  5
15B4
330
18
100
AcDbEntity
  8
1
  6
Continuous
100
AcDbCircle
 10
104.3358720368178
 20
162.7064149626685
 30
0.0
 40
4.993724473487294
100
AcDbArc
 50
337.929368420658
 51
22.07063157935571
  0
LINE
  5
15B5
330
18
100
AcDbEntity
  8
4
  6
CENTER
 48
0.2
100
AcDbLine
 10
95.22064710763471
 20
157.0772499205758
 30
0.0
 11
133.2206486275531
 21
157.0772499205758
 31
0.0
  0
LINE
  5
15B6
330
18
100
AcDbEntity
  8
2
  6
Continuous
100
AcDbLine
 10
98.2206471076347
 20
160.4007499205757
 30
0.0
 11
102.620646011698
 21
160.4007499205757
 31
0.0
  0
LINE
  5
15B8
330
18
100
AcDbEntity
  8
2
  6
Continuous
100
AcDbLine
 10
110.2206474868692
 20
160.4007499205757
 30
0.0
 11
112.220647772599
 21
160.4007499205757
 31
0.0
  0
LINE
  5
15B9
330
18
100
AcDbEntity
  8
2
  6
Continuous
100
AcDbLine
 10
98.2206471076347
 20
153.7537499205758
 30
0.0
 11
102.620646011698
 21
153.7537499205758
 31
0.0
  0
LINE
  5
15BA
330
18
100
AcDbEntity
  8
2
  6
Continuous
100
AcDbLine
 10
110.2206474868692
 20
153.7537499205758
 30
0.0
 11
112.220647772599
 21
153.7537499205758
 31
0.0
  0
LINE
  5
15BC
330
18
100
AcDbEntity
  8
4
  6
CENTER
 48
0.2
100
AcDbLine
 10
111.2206478675939
 20
140.5772491368677
 30
0.0
 11
133.2206486275531
 21
140.5772491368677
 31
0.0
  0
LINE
  5
15BD
330
18
100
AcDbEntity
  8
4
  6
CENTER
 48
0.2
100
AcDbLine
 10
95.22064710763471
 20
124.0772483531599
 30
0.0
 11
133.2206486275531
 21
124.0772483531599
 31
0.0
  0
LINE
  5
15BE
330
18
100
AcDbEntity
  8
2
  6
Continuous
100
AcDbLine
 10
110.2206474868692
 20
127.4007483531599
 30
0.0
 11
112.220647772599
 21
127.4007483531599
 31
0.0
  0
LINE
  5
15BF
330
18
100
AcDbEntity
  8
2
  6
Continuous
100
AcDbLine
 10
110.2206474868692
 20
120.7537483531599
 30
0.0
 11
112.220647772599
 21
120.7537483531599
 31
0.0
  0
LINE
  5
15C0
330
18
100
AcDbEntity
  8
1
  6
Continuous
100
AcDbLine
 10
112.220647772599
 20
120.0772481631701
 30
0.0
 11
110.2206474868692
 21
120.0772481631701
 31
0.0
  0
LINE
  5
15C1
330
18
100
AcDbEntity
  8
1
  6
Continuous
100
AcDbLine
 10
110.2206474868692
 20
128.0772485431497
 30
0.0
 11
112.220647772599
 21
128.0772485431497
 31
0.0
  0
ARC
  5
15C2
330
18
100
AcDbEntity
  8
1
  6
Continuous
100
AcDbCircle
 10
89.90421908027498
 20
124.0772487030368
 30
0.0
 40
19.4253891170823
100
AcDbArc
 50
348.8610342830522
 51
11.1389657169426
  0
LINE
  5
15C3
330
18
100
AcDbEntity
  8
1
  6
Continuous
100
AcDbLine
 10
110.2206474868692
 20
117.0772480206777
 30
0.0
 11
110.2206474868692
 21
131.0772486856421
 31
0.0
  0
LINE
  5
15C4
330
18
100
AcDbEntity
  8
1
  6
Continuous
100
AcDbLine
 10
109.4206474488712
 20
131.0772486856421
 30
0.0
 11
109.4206474488712
 21
117.0772480206778
 31
0.0
  0
LINE
  5
15C5
330
18
100
AcDbEntity
  8
1
  6
Continuous
100
AcDbLine
 10
98.72064713138342
 20
128.0772485431497
 30
0.0
 11
98.72064713138357
 21
120.0772481631701
 31
0.0
  0
LINE
  5
15C6
330
18
100
AcDbEntity
  8
1
  6
Continuous
100
AcDbLine
 10
98.2206471076347
 20
127.5772485194009
 30
0.0
 11
98.2206471076347
 21
120.5772481869188
 31
0.0
  0
LINE
  5
15C7
330
18
100
AcDbEntity
  8
1
  6
Continuous
100
AcDbLine
 10
102.620646011698
 20
117.8272509433505
 30
0.0
 11
102.620646011698
 21
130.3272464627221
 31
0.0
  0
ARC
  5
15C8
330
18
100
AcDbEntity
  8
1
  6
Continuous
100
AcDbCircle
 10
122.1370751130151
 20
124.0772487030368
 30
0.0
 40
19.4253891170823
100
AcDbArc
 50
168.8610342830573
 51
191.1389657169476
  0
LINE
  5
15C9
330
18
100
AcDbEntity
  8
2
  6
Continuous
100
AcDbLine
 10
98.2206471076347
 20
127.4007483531599
 30
0.0
 11
102.620646011698
 21
127.4007483531599
 31
0.0
  0
LINE
  5
15CA
330
18
100
AcDbEntity
  8
1
  6
Continuous
100
AcDbLine
 10
98.72064713138342
 20
128.0772485431497
 30
0.0
 11
102.6206469351537
 21
128.0772485431497
 31
0.0
  0
LINE
  5
15CB
330
18
100
AcDbEntity
  8
1
  6
Continuous
100
AcDbLine
 10
98.2205471076347
 20
127.577148519401
 30
0.0
 11
98.72064713138342
 21
128.0772485431497
 31
0.0
  0
LINE
  5
15CC
330
18
100
AcDbEntity
  8
1
  6
Continuous
100
AcDbLine
 10
109.4206481815921
 20
130.3272464627221
 30
0.0
 11
108.9636631350965
 21
131.5828025589968
 31
0.0
  0
ARC
  5
15CD
330
18
100
AcDbEntity
  8
1
  6
Continuous
100
AcDbCircle
 10
104.3358720360716
 20
129.7064140950065
 30
0.0
 40
4.99372447417865
100
AcDbArc
 50
337.9293684238728
 51
22.07063157613218
  0
LINE
  5
15CE
330
18
100
AcDbEntity
  8
1
  6
Continuous
100
AcDbLine
 10
109.4206474488712
 20
130.5444053879126
 30
0.0
 11
110.2206474868692
 21
130.5444053879126
 31
0.0
  0
ARC
  5
15CF
330
18
100
AcDbEntity
  8
1
  6
Continuous
100
AcDbCircle
 10
107.7054221572184
 20
129.7064140950065
 30
0.0
 40
4.99372447417865
100
AcDbArc
 50
157.9293684238678
 51
202.0706315761271
  0
LINE
  5
15D2
330
18
100
AcDbEntity
  8
1
  6
Continuous
100
AcDbLine
 10
103.0776310581933
 20
127.8300256310166
 30
0.0
 11
108.9636631350968
 21
127.8300256310166
 31
0.0
  0
LINE
  5
15D3
330
18
100
AcDbEntity
  8
1
  6
Continuous
100
AcDbLine
 10
109.4206474488712
 20
131.0772486856421
 30
0.0
 11
110.2206474868692
 21
131.0772486856421
 31
0.0
  0
LINE
  5
15D5
330
18
100
AcDbEntity
  8
1
  6
Continuous
100
AcDbLine
 10
109.4206474488712
 20
130.4393370459235
 30
0.0
 11
110.2206474868692
 21
130.4393370459235
 31
0.0
  0
LINE
  5
15D6
330
18
100
AcDbEntity
  8
1
  6
Continuous
100
AcDbLine
 10
109.4206474488712
 20
129.0269960565663
 30
0.0
 11
110.2206474868692
 21
129.0269960565663
 31
0.0
  0
LINE
  5
15D7
330
18
100
AcDbEntity
  8
1
  6
Continuous
100
AcDbLine
 10
109.4206474488712
 20
128.8377845385824
 30
0.0
 11
110.2206474868692
 21
128.8377845385824
 31
0.0
  0
LINE
  5
15D8
330
18
100
AcDbEntity
  8
1
  6
Continuous
100
AcDbLine
 10
109.4206474488712
 20
126.7560325069508
 30
0.0
 11
110.2206474868692
 21
126.7560325069508
 31
0.0
  0
LINE
  5
15D9
330
18
100
AcDbEntity
  8
1
  6
Continuous
100
AcDbLine
 10
109.4206474488712
 20
126.5114835513787
 30
0.0
 11
110.2206474868692
 21
126.5114835513787
 31
0.0
  0
LINE
  5
15DA
330
18
100
AcDbEntity
  8
1
  6
Continuous
100
AcDbLine
 10
103.0776310581934
 20
131.5828025589968
 30
0.0
 11
108.9636631350965
 21
131.5828025589968
 31
0.0
  0
LINE
  5
15DB
330
18
100
AcDbEntity
  8
1
  6
Continuous
100
AcDbLine
 10
102.620646011698
 20
130.3272464627221
 30
0.0
 11
103.0776310581934
 21
131.5828025589968
 31
0.0
  0
LINE
  5
15DC
330
18
100
AcDbEntity
  8
2
  6
Continuous
100
AcDbLine
 10
98.2206471076347
 20
120.7537483531599
 30
0.0
 11
102.620646011698
 21
120.7537483531599
 31
0.0
  0
LINE
  5
15DD
330
18
100
AcDbEntity
  8
1
  6
Continuous
100
AcDbLine
 10
102.6206469351537
 20
120.0772481631701
 30
0.0
 11
98.72064713138357
 21
120.0772481631701
 31
0.0
  0
LINE
  5
15DE
330
18
100
AcDbEntity
  8
1
  6
Continuous
100
AcDbLine
 10
98.72064713138342
 20
120.0772481631701
 30
0.0
 11
98.2206471076347
 21
120.5772481869188
 31
0.0
  0
ARC
  5
15DF
330
18
100
AcDbEntity
  8
1
  6
Continuous
100
AcDbCircle
 10
104.3358720368178
 20
118.4480833110672
 30
0.0
 40
4.993724473487294
100
AcDbArc
 50
337.9293684206442
 51
22.07063157934194
  0
LINE
  5
15E0
330
18
100
AcDbEntity
  8
1
  6
Continuous
100
AcDbLine
 10
108.9636631350968
 20
116.5716948470763
 30
0.0
 11
109.4206481815921
 21
117.8272509433505
 31
0.0
  0
LINE
  5
15E1
330
18
100
AcDbEntity
  8
1
  6
Continuous
100
AcDbLine
 10
109.4206474488712
 20
117.0772480206778
 30
0.0
 11
110.2206474868692
 21
117.0772480206777
 31
0.0
  0
LINE
  5
15E2
330
18
100
AcDbEntity
  8
1
  6
Continuous
100
AcDbLine
 10
103.0776310581932
 20
116.5716948470763
 30
0.0
 11
102.620646011698
 21
117.8272509433505
 31
0.0
  0
ARC
  5
15E3
330
18
100
AcDbEntity
  8
1
  6
Continuous
100
AcDbCircle
 10
107.7054221564723
 20
118.4480833110672
 30
0.0
 40
4.993724473487294
100
AcDbArc
 50
157.929368420658
 51
202.0706315793557
  0
LINE
  5
15E4
330
18
100
AcDbEntity
  8
1
  6
Continuous
100
AcDbLine
 10
103.0776310581935
 20
116.5716948470763
 30
0.0
 11
108.9636631350965
 21
116.5716948470763
 31
0.0
  0
LINE
  5
15E5
330
18
100
AcDbEntity
  8
1
  6
Continuous
100
AcDbLine
 10
103.0776310581935
 20
120.3244717750553
 30
0.0
 11
108.9636631350967
 21
120.3244717750553
 31
0.0
  0
LINE
  5
15E6
330
18
100
AcDbEntity
  8
1
  6
Continuous
100
AcDbLine
 10
109.4206474488712
 20
117.5141314370519
 30
0.0
 11
110.2206474868692
 21
117.5141314370519
 31
0.0
  0
LINE
  5
15E7
330
18
100
AcDbEntity
  8
1
  6
Continuous
100
AcDbLine
 10
109.4206474488712
 20
118.9452604457274
 30
0.0
 11
110.2206474868692
 21
118.9452604457274
 31
0.0
  0
LINE
  5
15E8
330
18
100
AcDbEntity
  8
1
  6
Continuous
100
AcDbLine
 10
109.4206474488712
 20
117.6100913184072
 30
0.0
 11
110.2206474868692
 21
117.6100913184072
 31
0.0
  0
LINE
  5
15E9
330
18
100
AcDbEntity
  8
1
  6
Continuous
100
AcDbLine
 10
109.4206474488712
 20
119.1275006497535
 30
0.0
 11
110.2206474868692
 21
119.1275006497535
 31
0.0
  0
LINE
  5
15EA
330
18
100
AcDbEntity
  8
1
  6
Continuous
100
AcDbLine
 10
109.4206474488712
 20
121.1576880917234
 30
0.0
 11
110.2206474868692
 21
121.1576880917234
 31
0.0
  0
LINE
  5
15EB
330
18
100
AcDbEntity
  8
1
  6
Continuous
100
AcDbLine
 10
109.4206474488712
 20
121.398464199369
 30
0.0
 11
110.2206474868692
 21
121.398464199369
 31
0.0
  0
LINE
  5
15EC
330
18
100
AcDbEntity
  8
1
  6
Continuous
100
AcDbLine
 10
109.4206474488712
 20
123.8145923216436
 30
0.0
 11
110.2206474868692
 21
123.8145923216436
 31
0.0
  0
LINE
  5
15ED
330
18
100
AcDbEntity
  8
1
  6
Continuous
100
AcDbLine
 10
109.4206474488712
 20
124.0772483531599
 30
0.0
 11
110.2206474868692
 21
124.0772483531599
 31
0.0
  0
LINE
  5
15EE
330
18
100
AcDbEntity
  8
1
  6
Continuous
100
AcDbLine
 10
112.220647772599
 20
132.0772487331395
 30
0.0
 11
112.220647772599
 21
116.0772479731803
 31
0.0
  0
LINE
  5
15EF
330
18
100
AcDbEntity
  8
1
  6
Continuous
100
AcDbLine
 10
126.720648461312
 20
132.0772487331395
 30
0.0
 11
126.720648461312
 21
116.0772479731803
 31
0.0
  0
LINE
  5
15F0
330
18
100
AcDbEntity
  8
1
  6
Continuous
100
AcDbLine
 10
130.2206486275531
 20
132.0772487331395
 30
0.0
 11
130.2206486275531
 21
116.0772479731803
 31
0.0
  0
LINE
  5
15F1
330
18
100
AcDbEntity
  8
1
  6
Continuous
100
AcDbLine
 10
130.2206486275532
 20
132.0772487331395
 30
0.0
 11
112.220647772599
 21
132.0772487331395
 31
0.0
  0
LINE
  5
15F2
330
18
100
AcDbEntity
  8
1
  6
Continuous
100
AcDbLine
 10
114.7206478913426
 20
132.0772487331395
 30
0.0
 11
114.7206478913426
 21
132.5772487568882
 31
0.0
  0
LINE
  5
15F3
330
18
100
AcDbEntity
  8
1
  6
Continuous
100
AcDbLine
 10
129.7206486038044
 20
132.5772487568882
 30
0.0
 11
129.7206486038044
 21
132.0772487331395
 31
0.0
  0
LINE
  5
15F4
330
18
100
AcDbEntity
  8
1
  6
Continuous
100
AcDbLine
 10
130.2206486275532
 20
116.0772479731803
 30
0.0
 11
112.220647772599
 21
116.0772479731803
 31
0.0
  0
LINE
  5
15F5
330
18
100
AcDbEntity
  8
3
  6
DASHED
 48
0.2
100
AcDbLine
 10
118.2206480575836
 20
121.5772482344162
 30
0.0
 11
126.2206484375633
 21
121.5772482344162
 31
0.0
  0
LINE
  5
15F6
330
18
100
AcDbEntity
  8
3
  6
DASHED
 48
0.2
100
AcDbLine
 10
118.2206480575837
 20
159.5772500393191
 30
0.0
 11
126.2206484375633
 21
159.5772500393191
 31
0.0
  0
LINE
  5
15F7
330
18
100
AcDbEntity
  8
3
  6
DASHED
 48
0.2
100
AcDbLine
 10
118.2206480575837
 20
159.5772500393191
 30
0.0
 11
118.2206480575836
 21
121.5772482344162
 31
0.0
  0
LINE
  5
15F8
330
18
100
AcDbEntity
  8
3
  6
DASHED
 48
0.2
100
AcDbLine
 10
126.2206484375633
 20
121.5772482344162
 30
0.0
 11
126.2206484375633
 21
159.5772500393191
 31
0.0
  0
LINE
  5
15F9
330
18
100
AcDbEntity
  8
4
  6
CENTER
 48
0.2
100
AcDbLine
 10
122.2206482475735
 20
168.0772503005553
 30
0.0
 11
122.2206482475735
 21
113.0772479731803
 31
0.0
  0
LINE
  5
15FA
330
18
100
AcDbEntity
  8
4
  6
CENTER
 48
0.2
100
AcDbLine
 10
122.2206482475735
 20
245.7673655490471
 30
0.0
 11
122.2206482475735
 21
199.7673640291286
 31
0.0
  0
LINE
  5
15FB
330
18
100
AcDbEntity
  8
2
  6
Continuous
100
AcDbLine
 10
118.8971482475735
 20
222.7673651698125
 30
0.0
 11
118.8971482475735
 21
220.7673648840827
 31
0.0
  0
LINE
  5
15FC
330
18
100
AcDbEntity
  8
2
  6
Continuous
100
AcDbLine
 10
125.5441482475735
 20
222.7673651698125
 30
0.0
 11
125.5441482475735
 21
220.7673648840827
 31
0.0
  0
LINE
  5
15FD
330
18
100
AcDbEntity
  8
1
  6
Continuous
100
AcDbLine
 10
126.2206484375633
 20
220.7673648840827
 30
0.0
 11
126.2206484375633
 21
222.7673651698125
 31
0.0
  0
LINE
  5
15FE
330
18
100
AcDbEntity
  8
1
  6
Continuous
100
AcDbLine
 10
118.2206480575837
 20
222.7673651698125
 30
0.0
 11
118.2206480575837
 21
220.7673648840827
 31
0.0
  0
ARC
  5
15FF
330
18
100
AcDbEntity
  8
1
  6
Continuous
100
AcDbCircle
 10
122.2206478976966
 20
243.0837935764067
 30
0.0
 40
19.4253891170823
100
AcDbArc
 50
258.8610342830574
 51
281.1389657169477
  0
LINE
  5
1600
330
18
100
AcDbEntity
  8
1
  6
Continuous
100
AcDbLine
 10
129.2206485800557
 20
222.7673651698125
 30
0.0
 11
115.2255773784644
 21
222.7673651698125
 31
0.0
  0
LINE
  5
1601
330
18
100
AcDbEntity
  8
1
  6
Continuous
100
AcDbLine
 10
115.2255773784644
 20
223.5673652078105
 30
0.0
 11
129.2206485800556
 21
223.5673652078105
 31
0.0
  0
LINE
  5
1602
330
18
100
AcDbEntity
  8
1
  6
Continuous
100
AcDbLine
 10
118.2206480575836
 20
242.2673655252983
 30
0.0
 11
126.2206484375633
 21
242.2673655252982
 31
0.0
  0
LINE
  5
1603
330
18
100
AcDbEntity
  8
1
  6
Continuous
100
AcDbLine
 10
118.7206480813325
 20
242.7673655490471
 30
0.0
 11
125.7206484138146
 21
242.7673655490471
 31
0.0
  0
LINE
  5
1604
330
18
100
AcDbEntity
  8
1
  6
Continuous
100
AcDbLine
 10
128.4706456573828
 20
230.3673666449838
 30
0.0
 11
115.9706501380113
 21
230.3673666449838
 31
0.0
  0
ARC
  5
1605
330
18
100
AcDbEntity
  8
1
  6
Continuous
100
AcDbCircle
 10
122.2206478976966
 20
210.8509375436666
 30
0.0
 40
19.4253891170823
100
AcDbArc
 50
78.86103428305223
 51
101.1389657169425
  0
LINE
  5
1606
330
18
100
AcDbEntity
  8
2
  6
Continuous
100
AcDbLine
 10
118.8971482475735
 20
242.7673655490471
 30
0.0
 11
118.8971482475735
 21
230.3673666449838
 31
0.0
  0
LINE
  5
1607
330
18
100
AcDbEntity
  8
1
  6
Continuous
100
AcDbLine
 10
118.2206480575837
 20
242.2673655252983
 30
0.0
 11
118.2206480575837
 21
230.367365721528
 31
0.0
  0
LINE
  5
1608
330
18
100
AcDbEntity
  8
1
  6
Continuous
100
AcDbLine
 10
118.7207480813324
 20
242.7674655490471
 30
0.0
 11
118.2206480575837
 21
242.2673655252983
 31
0.0
  0
LINE
  5
1609
330
18
100
AcDbEntity
  8
1
  6
Continuous
100
AcDbLine
 10
115.9706501380113
 20
223.5673644750896
 30
0.0
 11
114.7150940417366
 21
224.0243495215851
 31
0.0
  0
ARC
  5
160A
330
18
100
AcDbEntity
  8
1
  6
Continuous
100
AcDbCircle
 10
116.5914825057269
 20
228.6521406206101
 30
0.0
 40
4.99372447417865
100
AcDbArc
 50
247.9293684238678
 51
292.0706315761271
  0
LINE
  5
160B
330
18
100
AcDbEntity
  8
1
  6
Continuous
100
AcDbLine
 10
115.7534912128208
 20
223.5673652078105
 30
0.0
 11
115.7534912128208
 21
222.7673651698125
 31
0.0
  0
ARC
  5
160C
330
18
100
AcDbEntity
  8
1
  6
Continuous
100
AcDbCircle
 10
116.5914825057269
 20
225.2825904994633
 30
0.0
 40
4.99372447417865
100
AcDbArc
 50
67.92936842387279
 51
112.0706315761321
  0
LINE
  5
160F
330
18
100
AcDbEntity
  8
1
  6
Continuous
100
AcDbLine
 10
118.4678709697168
 20
229.9103815984884
 30
0.0
 11
118.4678709697168
 21
224.0243495215849
 31
0.0
  0
LINE
  5
1611
330
18
100
AcDbEntity
  8
1
  6
Continuous
100
AcDbLine
 10
115.2255773784644
 20
223.5673652078105
 30
0.0
 11
115.2255773784644
 21
222.7673651698125
 31
0.0
  0
LINE
  5
1612
330
18
100
AcDbEntity
  8
1
  6
Continuous
100
AcDbLine
 10
115.8585595548098
 20
223.5673652078105
 30
0.0
 11
115.8585595548098
 21
222.7673651698125
 31
0.0
  0
LINE
  5
1613
330
18
100
AcDbEntity
  8
1
  6
Continuous
100
AcDbLine
 10
117.2709005441671
 20
223.5673652078105
 30
0.0
 11
117.2709005441671
 21
222.7673651698125
 31
0.0
  0
LINE
  5
1614
330
18
100
AcDbEntity
  8
1
  6
Continuous
100
AcDbLine
 10
117.460112062151
 20
223.5673652078105
 30
0.0
 11
117.460112062151
 21
222.7673651698125
 31
0.0
  0
LINE
  5
1615
330
18
100
AcDbEntity
  8
1
  6
Continuous
100
AcDbLine
 10
119.5418640937826
 20
223.5673652078105
 30
0.0
 11
119.5418640937826
 21
222.7673651698125
 31
0.0
  0
LINE
  5
1616
330
18
100
AcDbEntity
  8
1
  6
Continuous
100
AcDbLine
 10
119.7864130493546
 20
223.5673652078105
 30
0.0
 11
119.7864130493546
 21
222.7673651698125
 31
0.0
  0
LINE
  5
1617
330
18
100
AcDbEntity
  8
1
  6
Continuous
100
AcDbLine
 10
114.7150940417366
 20
229.9103815984883
 30
0.0
 11
114.7150940417366
 21
224.0243495215851
 31
0.0
  0
LINE
  5
1618
330
18
100
AcDbEntity
  8
1
  6
Continuous
100
AcDbLine
 10
115.9706501380113
 20
230.3673666449838
 30
0.0
 11
114.7150940417366
 21
229.9103815984883
 31
0.0
  0
LINE
  5
1619
330
18
100
AcDbEntity
  8
2
  6
Continuous
100
AcDbLine
 10
125.5441482475735
 20
242.7673655490471
 30
0.0
 11
125.5441482475735
 21
230.3673666449838
 31
0.0
  0
LINE
  5
161A
330
18
100
AcDbEntity
  8
1
  6
Continuous
100
AcDbLine
 10
126.2206484375633
 20
230.367365721528
 30
0.0
 11
126.2206484375633
 21
242.2673655252982
 31
0.0
  0
LINE
  5
161B
330
18
100
AcDbEntity
  8
1
  6
Continuous
100
AcDbLine
 10
126.2206484375633
 20
242.2673655252983
 30
0.0
 11
125.7206484138146
 21
242.7673655490471
 31
0.0
  0
ARC
  5
161C
330
18
100
AcDbEntity
  8
1
  6
Continuous
100
AcDbCircle
 10
127.8498132896662
 20
228.652140619864
 30
0.0
 40
4.993724473487294
100
AcDbArc
 50
247.929368420658
 51
292.0706315793557
  0
LINE
  5
161D
330
18
100
AcDbEntity
  8
1
  6
Continuous
100
AcDbLine
 10
129.726201753657
 20
224.0243495215849
 30
0.0
 11
128.4706456573828
 21
223.5673644750896
 31
0.0
  0
LINE
  5
161E
330
18
100
AcDbEntity
  8
1
  6
Continuous
100
AcDbLine
 10
129.2206485800556
 20
223.5673652078105
 30
0.0
 11
129.2206485800557
 21
222.7673651698125
 31
0.0
  0
LINE
  5
161F
330
18
100
AcDbEntity
  8
1
  6
Continuous
100
AcDbLine
 10
129.726201753657
 20
229.9103815984885
 30
0.0
 11
128.4706456573828
 21
230.3673666449838
 31
0.0
  0
ARC
  5
1620
330
18
100
AcDbEntity
  8
1
  6
Continuous
100
AcDbCircle
 10
127.8498132896662
 20
225.2825905002095
 30
0.0
 40
4.993724473487294
100
AcDbArc
 50
67.92936842064425
 51
112.0706315793419
  0
LINE
  5
1621
330
18
100
AcDbEntity
  8
1
  6
Continuous
100
AcDbLine
 10
129.726201753657
 20
229.9103815984882
 30
0.0
 11
129.726201753657
 21
224.0243495215852
 31
0.0
  0
LINE
  5
1622
330
18
100
AcDbEntity
  8
1
  6
Continuous
100
AcDbLine
 10
125.9734248256781
 20
229.9103815984882
 30
0.0
 11
125.9734248256781
 21
224.024349521585
 31
0.0
  0
LINE
  5
1623
330
18
100
AcDbEntity
  8
1
  6
Continuous
100
AcDbLine
 10
128.7837651636815
 20
223.5673652078105
 30
0.0
 11
128.7837651636815
 21
222.7673651698125
 31
0.0
  0
LINE
  5
1624
330
18
100
AcDbEntity
  8
1
  6
Continuous
100
AcDbLine
 10
127.352636155006
 20
223.5673652078105
 30
0.0
 11
127.352636155006
 21
222.7673651698125
 31
0.0
  0
LINE
  5
1625
330
18
100
AcDbEntity
  8
1
  6
Continuous
100
AcDbLine
 10
128.6878052823261
 20
223.5673652078105
 30
0.0
 11
128.6878052823261
 21
222.7673651698125
 31
0.0
  0
LINE
  5
1626
330
18
100
AcDbEntity
  8
1
  6
Continuous
100
AcDbLine
 10
127.1703959509799
 20
223.5673652078105
 30
0.0
 11
127.1703959509799
 21
222.7673651698125
 31
0.0
  0
LINE
  5
1627
330
18
100
AcDbEntity
  8
1
  6
Continuous
100
AcDbLine
 10
125.14020850901
 20
223.5673652078105
 30
0.0
 11
125.14020850901
 21
222.7673651698125
 31
0.0
  0
LINE
  5
1628
330
18
100
AcDbEntity
  8
1
  6
Continuous
100
AcDbLine
 10
124.8994324013643
 20
223.5673652078105
 30
0.0
 11
124.8994324013643
 21
222.7673651698125
 31
0.0
  0
LINE
  5
1629
330
18
100
AcDbEntity
  8
1
  6
Continuous
100
AcDbLine
 10
122.4833042790897
 20
223.5673652078105
 30
0.0
 11
122.4833042790897
 21
222.7673651698125
 31
0.0
  0
LINE
  5
162A
330
18
100
AcDbEntity
  8
1
  6
Continuous
100
AcDbLine
 10
122.2206482475735
 20
223.5673652078105
 30
0.0
 11
122.2206482475735
 21
222.7673651698125
 31
0.0
  0
ARC
  5
162F
330
18
100
AcDbEntity
  8
1
  6
Continuous
100
AcDbCircle
 10
117.3265225590372
 20
214.0173645634751
 30
0.0
 40
14.61483527126484
100
AcDbArc
 50
167.1513282303011
 51
192.8486717697037
  0
ARC
  5
1630
330
18
100
AcDbEntity
  8
1
  6
Continuous
100
AcDbCircle
 10
117.326522926085
 20
207.5173642547399
 30
0.0
 40
14.61483562912192
100
AcDbArc
 50
167.1513285502919
 51
192.8486714496994
  0
ARC
  5
1631
330
18
100
AcDbEntity
  8
1
  6
Continuous
100
AcDbCircle
 10
94.71509116348734
 20
214.0173645634768
 30
0.0
 40
14.61452374295959
100
AcDbArc
 50
347.1510496579312
 51
12.84895034205001
  0
ARC
  5
1632
330
18
100
AcDbEntity
  8
1
  6
Continuous
100
AcDbCircle
 10
94.7150906333462
 20
207.5173642547407
 30
0.0
 40
14.61452425982512
100
AcDbArc
 50
347.1510501201399
 51
12.84894987986332
  0
LINE
  5
1633
330
18
100
AcDbEntity
  8
4
  6
CENTER
 48
0.2
100
AcDbLine
 10
95.22064710763471
 20
210.7673644091082
 30
0.0
 11
133.2206486275531
 21
210.7673644091082
 31
0.0
  0
LINE
  5
1634
330
18
100
AcDbEntity
  8
1
  6
Continuous
100
AcDbLine
 10
98.72064713138344
 20
206.7673642191183
 30
0.0
 11
98.72064713138357
 21
214.767364599098
 31
0.0
  0
LINE
  5
1635
330
18
100
AcDbEntity
  8
1
  6
Continuous
100
AcDbLine
 10
98.22064710763472
 20
207.2673642428672
 30
0.0
 11
98.22064710763472
 21
214.2673645753493
 31
0.0
  0
LINE
  5
1636
330
18
100
AcDbEntity
  8
2
  6
Continuous
100
AcDbLine
 10
98.22064710763472
 20
207.4438644091082
 30
0.0
 11
102.620646011698
 21
207.4438644091082
 31
0.0
  0
LINE
  5
1637
330
18
100
AcDbEntity
  8
1
  6
Continuous
100
AcDbLine
 10
98.72064713138344
 20
206.7673642191184
 30
0.0
 11
102.6206469351537
 21
206.7673642191184
 31
0.0
  0
LINE
  5
1638
330
18
100
AcDbEntity
  8
1
  6
Continuous
100
AcDbLine
 10
98.2205471076347
 20
207.2674642428671
 30
0.0
 11
98.72064713138344
 21
206.7673642191184
 31
0.0
  0
LINE
  5
1639
330
18
100
AcDbEntity
  8
2
  6
Continuous
100
AcDbLine
 10
98.22064710763472
 20
214.0908644091082
 30
0.0
 11
102.620646011698
 21
214.0908644091082
 31
0.0
  0
LINE
  5
163A
330
18
100
AcDbEntity
  8
1
  6
Continuous
100
AcDbLine
 10
102.6206469351537
 20
214.767364599098
 30
0.0
 11
98.72064713138357
 21
214.767364599098
 31
0.0
  0
LINE
  5
163B
330
18
100
AcDbEntity
  8
1
  6
Continuous
100
AcDbLine
 10
98.72064713138344
 20
214.767364599098
 30
0.0
 11
98.22064710763472
 21
214.2673645753493
 31
0.0
  0
LINE
  5
163C
330
18
100
AcDbEntity
  8
2
  6
Continuous
100
AcDbLine
 10
110.2206474868693
 20
207.4438644091082
 30
0.0
 11
112.220647772599
 21
207.4438644091082
 31
0.0
  0
LINE
  5
163D
330
18
100
AcDbEntity
  8
2
  6
Continuous
100
AcDbLine
 10
110.2206474868693
 20
214.0908644091082
 30
0.0
 11
112.220647772599
 21
214.0908644091082
 31
0.0
  0
LINE
  5
163E
330
18
100
AcDbEntity
  8
1
  6
Continuous
100
AcDbLine
 10
112.220647772599
 20
214.767364599098
 30
0.0
 11
110.2206474868692
 21
214.767364599098
 31
0.0
  0
LINE
  5
163F
330
18
100
AcDbEntity
  8
1
  6
Continuous
100
AcDbLine
 10
110.2206474868692
 20
206.7673642191184
 30
0.0
 11
112.220647772599
 21
206.7673642191184
 31
0.0
  0
LINE
  5
1640
330
18
100
AcDbEntity
  8
1
  6
Continuous
100
AcDbLine
 10
109.3296547076756
 20
217.2673646836972
 30
0.0
 11
109.4206474488712
 21
217.017364181928
 31
0.0
  0
LINE
  5
16A2
330
18
100
AcDbEntity
  8
1
  6
Continuous
100
AcDbLine
 10
129.726201753657
 20
51.2441166752472
 30
0.0
 11
128.4706456573828
 21
50.78713162875192
 31
0.0
  0
LINE
  5
16A3
330
18
100
AcDbEntity
  8
1
  6
Continuous
100
AcDbLine
 10
115.9706501380113
 20
50.78713162875192
 30
0.0
 11
114.7150940417366
 21
51.24411667524736
 31
0.0
  0
LINE
  5
16A4
330
18
100
AcDbEntity
  8
4
  6
CENTER
 48
0.2
100
AcDbLine
 10
122.2206482475735
 20
35.38713272468863
 30
0.0
 11
122.2206482475735
 21
81.38713424460707
 31
0.0
  0
LINE
  5
16A5
330
18
100
AcDbEntity
  8
4
  6
CENTER
 48
0.2
100
AcDbLine
 10
95.22064710763471
 20
70.38713386462745
 30
0.0
 11
133.2206486275531
 21
70.38713386462745
 31
0.0
  0
LINE
  5
16A6
330
18
100
AcDbEntity
  8
1
  6
Continuous
100
AcDbLine
 10
98.72064713138344
 20
74.3871340546173
 30
0.0
 11
98.72064713138357
 21
66.38713367463768
 31
0.0
  0
LINE
  5
16A7
330
18
100
AcDbEntity
  8
1
  6
Continuous
100
AcDbLine
 10
98.22064710763472
 20
73.88713403086848
 30
0.0
 11
98.22064710763472
 21
66.88713369838641
 31
0.0
  0
ARC
  5
16A8
330
18
100
AcDbEntity
  8
1
  6
Continuous
100
AcDbCircle
 10
117.326522926085
 20
73.6371340189958
 30
0.0
 40
14.61483562912192
100
AcDbArc
 50
167.1513285503006
 51
192.8486714497081
  0
ARC
  5
16A9
330
18
100
AcDbEntity
  8
1
  6
Continuous
100
AcDbCircle
 10
94.7150906333462
 20
73.63713401899501
 30
0.0
 40
14.61452425982512
100
AcDbArc
 50
347.1510501201366
 51
12.84894987986011
  0
LINE
  5
16AA
330
18
100
AcDbEntity
  8
1
  6
Continuous
100
AcDbLine
 10
102.6206469351537
 20
64.13713356776783
 30
0.0
 11
102.6206469351537
 21
76.63713416148692
 31
0.0
  0
LINE
  5
16AB
330
18
100
AcDbEntity
  8
1
  6
Continuous
100
AcDbLine
 10
112.220647772599
 20
62.38713348464782
 30
0.0
 11
112.220647772599
 21
78.38713424460706
 31
0.0
  0
LINE
  5
16AC
330
18
100
AcDbEntity
  8
1
  6
Continuous
100
AcDbLine
 10
109.4206474488712
 20
77.38713419710959
 30
0.0
 11
109.4206474488716
 21
63.38713353214527
 31
0.0
  0
LINE
  5
16AD
330
18
100
AcDbEntity
  8
1
  6
Continuous
100
AcDbLine
 10
110.2206474868692
 20
63.38713353214527
 30
0.0
 11
110.2206474868692
 21
77.38713419710959
 31
0.0
  0
LINE
  5
16AE
330
18
100
AcDbEntity
  8
1
  6
Continuous
100
AcDbLine
 10
130.2206486275532
 20
74.88713407836596
 30
0.0
 11
130.2206486275531
 21
60.3871333896529
 31
0.0
  0
LINE
  5
16AF
330
18
100
AcDbEntity
  8
2
  6
Continuous
100
AcDbLine
 10
110.2206474868693
 20
73.71063386462745
 30
0.0
 11
112.220647772599
 21
73.71063386462745
 31
0.0
  0
LINE
  5
16B0
330
18
100
AcDbEntity
  8
1
  6
Continuous
100
AcDbLine
 10
110.2206474868692
 20
74.38713405461726
 30
0.0
 11
112.220647772599
 21
74.38713405461726
 31
0.0
  0
LINE
  5
16B1
330
18
100
AcDbEntity
  8
2
  6
Continuous
100
AcDbLine
 10
98.22064710763472
 20
73.71063386462745
 30
0.0
 11
102.620646011698
 21
73.71063386462745
 31
0.0
  0
LINE
  5
16B2
330
18
100
AcDbEntity
  8
1
  6
Continuous
100
AcDbLine
 10
98.72064713138344
 20
74.38713405461726
 30
0.0
 11
102.6206469351537
 21
74.38713405461726
 31
0.0
  0
LINE
  5
16B3
330
18
100
AcDbEntity
  8
1
  6
Continuous
100
AcDbLine
 10
98.2205471076347
 20
73.88703403086856
 30
0.0
 11
98.72064713138344
 21
74.38713405461726
 31
0.0
  0
LINE
  5
16B4
330
18
100
AcDbEntity
  8
1
  6
Continuous
100
AcDbLine
 10
109.4206474488712
 20
73.06591801841829
 30
0.0
 11
110.2206474868692
 21
73.06591801841829
 31
0.0
  0
LINE
  5
16B5
330
18
100
AcDbEntity
  8
1
  6
Continuous
100
AcDbLine
 10
109.4206474488712
 20
75.14767005004992
 30
0.0
 11
110.2206474868692
 21
75.14767005004992
 31
0.0
  0
LINE
  5
16B6
330
18
100
AcDbEntity
  8
1
  6
Continuous
100
AcDbLine
 10
109.4206474488712
 20
75.3368815680338
 30
0.0
 11
110.2206474868692
 21
75.3368815680338
 31
0.0
  0
LINE
  5
16B7
330
18
100
AcDbEntity
  8
1
  6
Continuous
100
AcDbLine
 10
109.4206474488712
 20
72.82136906284627
 30
0.0
 11
110.2206474868692
 21
72.82136906284627
 31
0.0
  0
LINE
  5
16B8
330
18
100
AcDbEntity
  8
1
  6
Continuous
100
AcDbLine
 10
109.4206474488712
 20
76.74922255739108
 30
0.0
 11
110.2206474868692
 21
76.74922255739108
 31
0.0
  0
LINE
  5
16B9
330
18
100
AcDbEntity
  8
1
  6
Continuous
100
AcDbLine
 10
109.4206474488712
 20
76.85429089938011
 30
0.0
 11
110.2206474868692
 21
76.85429089938011
 31
0.0
  0
LINE
  5
16BA
330
18
100
AcDbEntity
  8
1
  6
Continuous
100
AcDbLine
 10
109.3296547076887
 20
76.88713413918044
 30
0.0
 11
109.4206474488712
 21
76.63713363744722
 31
0.0
  0
LINE
  5
16BB
330
18
100
AcDbEntity
  8
1
  6
Continuous
100
AcDbLine
 10
109.3296547076887
 20
76.88713413918044
 30
0.0
 11
102.7116397105584
 21
76.88713475724506
 31
0.0
  0
LINE
  5
16BC
330
18
100
AcDbEntity
  8
1
  6
Continuous
100
AcDbLine
 10
109.4206474488712
 20
77.38713419710959
 30
0.0
 11
110.2206474868692
 21
77.38713419710959
 31
0.0
  0
LINE
  5
16BD
330
18
100
AcDbEntity
  8
1
  6
Continuous
100
AcDbLine
 10
102.6206469351537
 20
76.63713416148692
 30
0.0
 11
102.7116397105584
 21
76.88713475724506
 31
0.0
  0
LINE
  5
16BE
330
18
100
AcDbEntity
  8
1
  6
Continuous
100
AcDbLine
 10
112.220647772599
 20
78.38713424460706
 30
0.0
 11
126.720648461312
 21
78.38713424460705
 31
0.0
  0
LINE
  5
16BF
330
18
100
AcDbEntity
  8
1
  6
Continuous
100
AcDbLine
 10
130.2206486275532
 20
74.88713407836596
 30
0.0
 11
126.720648461312
 21
78.38713424460705
 31
0.0
  0
LINE
  5
16C0
330
18
100
AcDbEntity
  8
2
  6
Continuous
100
AcDbLine
 10
110.2206474868693
 20
67.06363386462746
 30
0.0
 11
112.220647772599
 21
67.06363386462746
 31
0.0
  0
LINE
  5
16C1
330
18
100
AcDbEntity
  8
1
  6
Continuous
100
AcDbLine
 10
112.220647772599
 20
66.38713367463765
 30
0.0
 11
110.2206474868692
 21
66.38713367463765
 31
0.0
  0
LINE
  5
16C2
330
18
100
AcDbEntity
  8
2
  6
Continuous
100
AcDbLine
 10
98.22064710763472
 20
67.06363386462746
 30
0.0
 11
102.620646011698
 21
67.06363386462746
 31
0.0
  0
LINE
  5
16C3
330
18
100
AcDbEntity
  8
1
  6
Continuous
100
AcDbLine
 10
102.6206469351537
 20
66.38713367463765
 30
0.0
 11
98.72064713138357
 21
66.38713367463768
 31
0.0
  0
LINE
  5
16C4
330
18
100
AcDbEntity
  8
1
  6
Continuous
100
AcDbLine
 10
98.72064713138344
 20
66.38713367463765
 30
0.0
 11
98.22064710763472
 21
66.88713369838641
 31
0.0
  0
LINE
  5
16C5
330
18
100
AcDbEntity
  8
1
  6
Continuous
100
AcDbLine
 10
109.4206474488712
 20
65.43738616122104
 30
0.0
 11
110.2206474868692
 21
65.43738616122104
 31
0.0
  0
LINE
  5
16C6
330
18
100
AcDbEntity
  8
1
  6
Continuous
100
AcDbLine
 10
109.4206474488712
 20
65.25514595719494
 30
0.0
 11
110.2206474868692
 21
65.25514595719494
 31
0.0
  0
LINE
  5
16C7
330
18
100
AcDbEntity
  8
1
  6
Continuous
100
AcDbLine
 10
109.4206474488712
 20
63.91997682987474
 30
0.0
 11
110.2206474868692
 21
63.91997682987474
 31
0.0
  0
LINE
  5
16C8
330
18
100
AcDbEntity
  8
1
  6
Continuous
100
AcDbLine
 10
109.4206474488712
 20
63.82401694851944
 30
0.0
 11
110.2206474868692
 21
63.82401694851944
 31
0.0
  0
LINE
  5
16C9
330
18
100
AcDbEntity
  8
1
  6
Continuous
100
AcDbLine
 10
109.4206474488716
 20
63.38713353214527
 30
0.0
 11
110.2206474868692
 21
63.38713353214527
 31
0.0
  0
LINE
  5
16CA
330
18
100
AcDbEntity
  8
1
  6
Continuous
100
AcDbLine
 10
109.3296547076756
 20
63.88713359003848
 30
0.0
 11
102.711639710335
 21
63.88713297262356
 31
0.0
  0
LINE
  5
16CB
330
18
100
AcDbEntity
  8
1
  6
Continuous
100
AcDbLine
 10
109.3296547076756
 20
63.88713359003848
 30
0.0
 11
109.4206474488712
 21
64.13713409180769
 31
0.0
  0
LINE
  5
16CC
330
18
100
AcDbEntity
  8
1
  6
Continuous
100
AcDbLine
 10
102.711639710335
 20
63.88713297262356
 30
0.0
 11
102.6206469351537
 21
64.13713356776781
 31
0.0
  0
LINE
  5
16CD
330
18
100
AcDbEntity
  8
1
  6
Continuous
100
AcDbLine
 10
109.4206474488712
 20
70.38713386462744
 30
0.0
 11
110.2206474868692
 21
70.38713386462744
 31
0.0
  0
LINE
  5
16CE
330
18
100
AcDbEntity
  8
1
  6
Continuous
100
AcDbLine
 10
109.4206474488712
 20
70.12447783311114
 30
0.0
 11
110.2206474868692
 21
70.12447783311114
 31
0.0
  0
LINE
  5
16CF
330
18
100
AcDbEntity
  8
1
  6
Continuous
100
AcDbLine
 10
109.4206474488712
 20
67.70834971083655
 30
0.0
 11
110.2206474868692
 21
67.70834971083655
 31
0.0
  0
LINE
  5
16D0
330
18
100
AcDbEntity
  8
1
  6
Continuous
100
AcDbLine
 10
109.4206474488712
 20
67.46757360319091
 30
0.0
 11
110.2206474868692
 21
67.46757360319091
 31
0.0
  0
LINE
  5
16D1
330
18
100
AcDbEntity
  8
1
  6
Continuous
100
AcDbLine
 10
103.0776310581935
 20
70.38713386462842
 30
0.0
 11
108.9636631350965
 21
70.38713386462839
 31
0.0
  0
ARC
  5
16D2
330
18
100
AcDbEntity
  8
1
  6
Continuous
100
AcDbCircle
 10
117.3265225590372
 20
67.13713371026059
 30
0.0
 40
14.61483527126484
100
AcDbArc
 50
167.1513282302962
 51
192.8486717696988
  0
ARC
  5
16D3
330
18
100
AcDbEntity
  8
1
  6
Continuous
100
AcDbCircle
 10
94.71509116348734
 20
67.13713371025885
 30
0.0
 40
14.61452374295959
100
AcDbArc
 50
347.1510496579499
 51
12.84895034206875
  0
LINE
  5
16D5
330
18
100
AcDbEntity
  8
1
  6
Continuous
100
AcDbLine
 10
114.2206478675939
 20
60.38713338965294
 30
0.0
 11
114.2206478675939
 21
62.38713348464782
 31
0.0
  0
LINE
  5
16D6
330
18
100
AcDbEntity
  8
1
  6
Continuous
100
AcDbLine
 10
126.720648461312
 20
62.38713348464782
 30
0.0
 11
112.220647772599
 21
62.38713348464782
 31
0.0
  0
LINE
  5
16D7
330
18
100
AcDbEntity
  8
1
  6
Continuous
100
AcDbLine
 10
126.720648461312
 20
62.38713348464782
 30
0.0
 11
130.2206486275531
 21
65.8871336508889
 31
0.0
  0
ARC
  5
16D8
330
18
100
AcDbEntity
  8
1
  6
Continuous
100
AcDbCircle
 10
122.2206478976966
 20
70.30356073006908
 30
0.0
 40
19.4253891170823
100
AcDbArc
 50
258.8610342830574
 51
281.1389657169477
  0
LINE
  5
16D9
330
18
100
AcDbEntity
  8
1
  6
Continuous
100
AcDbLine
 10
115.2206479150913
 20
57.58713306592524
 30
0.0
 11
129.2206485800556
 21
57.58713306592523
 31
0.0
  0
LINE
  5
16DA
330
18
100
AcDbEntity
  8
1
  6
Continuous
100
AcDbLine
 10
129.2206485800557
 20
58.38713310392325
 30
0.0
 11
115.2206479150913
 21
58.38713310392318
 31
0.0
  0
ARC
  5
16DB
330
18
100
AcDbEntity
  8
1
  6
Continuous
100
AcDbCircle
 10
122.2206478976966
 20
38.07070469732896
 30
0.0
 40
19.4253891170823
100
AcDbArc
 50
78.86103428305223
 51
101.1389657169425
  0
LINE
  5
16DC
330
18
100
AcDbEntity
  8
1
  6
Continuous
100
AcDbLine
 10
130.2206486275531
 20
60.3871333896529
 30
0.0
 11
114.2206478675939
 21
60.38713338965294
 31
0.0
  0
ARC
  5
16DD
330
18
100
AcDbEntity
  8
1
  6
Continuous
100
AcDbCircle
 10
116.5914825057269
 20
55.87190777427242
 30
0.0
 40
4.99372447417865
100
AcDbArc
 50
247.9293684238678
 51
292.0706315761272
  0
ARC
  5
16DE
330
18
100
AcDbEntity
  8
1
  6
Continuous
100
AcDbCircle
 10
116.5914825057269
 20
52.5023576531256
 30
0.0
 40
4.99372447417865
100
AcDbArc
 50
67.92936842387283
 51
112.0706315761321
  0
LINE
  5
16DF
330
18
100
AcDbEntity
  8
1
  6
Continuous
100
AcDbLine
 10
115.8585595548098
 20
57.58713306592523
 30
0.0
 11
115.8585595548098
 21
58.38713310392319
 31
0.0
  0
LINE
  5
16E1
330
18
100
AcDbEntity
  8
1
  6
Continuous
100
AcDbLine
 10
115.2206479150913
 20
57.58713306592523
 30
0.0
 11
115.2206479150913
 21
58.38713310392319
 31
0.0
  0
LINE
  5
16E4
330
18
100
AcDbEntity
  8
1
  6
Continuous
100
AcDbLine
 10
115.7534912128208
 20
57.58713306592523
 30
0.0
 11
115.7534912128208
 21
58.38713310392319
 31
0.0
  0
LINE
  5
16E5
330
18
100
AcDbEntity
  8
1
  6
Continuous
100
AcDbLine
 10
115.9706501380113
 20
57.58713379864605
 30
0.0
 11
114.7150940417366
 21
57.1301487521506
 31
0.0
  0
LINE
  5
16E6
330
18
100
AcDbEntity
  8
1
  6
Continuous
100
AcDbLine
 10
118.2206480575837
 20
58.38713310392319
 30
0.0
 11
118.2206480575837
 21
60.38713338965294
 31
0.0
  0
LINE
  5
16E7
330
18
100
AcDbEntity
  8
2
  6
Continuous
100
AcDbLine
 10
118.8971482475735
 20
58.38713310392325
 30
0.0
 11
118.8971482475735
 21
60.38713338965294
 31
0.0
  0
LINE
  5
16E8
330
18
100
AcDbEntity
  8
1
  6
Continuous
100
AcDbLine
 10
119.7864130493546
 20
57.58713306592523
 30
0.0
 11
119.7864130493546
 21
58.38713310392319
 31
0.0
  0
LINE
  5
16E9
330
18
100
AcDbEntity
  8
1
  6
Continuous
100
AcDbLine
 10
119.5418640937826
 20
57.58713306592523
 30
0.0
 11
119.5418640937826
 21
58.38713310392319
 31
0.0
  0
LINE
  5
16EA
330
18
100
AcDbEntity
  8
1
  6
Continuous
100
AcDbLine
 10
117.460112062151
 20
57.58713306592523
 30
0.0
 11
117.460112062151
 21
58.38713310392319
 31
0.0
  0
LINE
  5
16EB
330
18
100
AcDbEntity
  8
1
  6
Continuous
100
AcDbLine
 10
117.2709005441671
 20
57.58713306592523
 30
0.0
 11
117.2709005441671
 21
58.38713310392319
 31
0.0
  0
LINE
  5
16EC
330
18
100
AcDbEntity
  8
1
  6
Continuous
100
AcDbLine
 10
122.2206482475735
 20
57.58713306592523
 30
0.0
 11
122.2206482475735
 21
58.38713310392319
 31
0.0
  0
LINE
  5
16ED
330
18
100
AcDbEntity
  8
1
  6
Continuous
100
AcDbLine
 10
114.7150940417366
 20
51.24411667524736
 30
0.0
 11
114.7150940417366
 21
57.1301487521506
 31
0.0
  0
LINE
  5
16EE
330
18
100
AcDbEntity
  8
1
  6
Continuous
100
AcDbLine
 10
118.4678709697168
 20
51.24411667524725
 30
0.0
 11
118.4678709697168
 21
57.13014875215077
 31
0.0
  0
ARC
  5
16EF
330
18
100
AcDbEntity
  8
1
  6
Continuous
100
AcDbCircle
 10
127.8498132896662
 20
55.87190777352623
 30
0.0
 40
4.993724473487294
100
AcDbArc
 50
247.929368420658
 51
292.0706315793557
  0
LINE
  5
16F0
330
18
100
AcDbEntity
  8
1
  6
Continuous
100
AcDbLine
 10
122.4833042790897
 20
57.58713306592523
 30
0.0
 11
122.4833042790897
 21
58.38713310392319
 31
0.0
  0
LINE
  5
16F1
330
18
100
AcDbEntity
  8
1
  6
Continuous
100
AcDbLine
 10
126.2206484375633
 20
60.38713338965294
 30
0.0
 11
126.2206484375633
 21
58.38713310392319
 31
0.0
  0
LINE
  5
16F2
330
18
100
AcDbEntity
  8
2
  6
Continuous
100
AcDbLine
 10
125.5441482475735
 20
58.38713310392325
 30
0.0
 11
125.5441482475735
 21
60.38713338965294
 31
0.0
  0
ARC
  5
16F3
330
18
100
AcDbEntity
  8
1
  6
Continuous
100
AcDbCircle
 10
127.8498132896662
 20
52.50235765387174
 30
0.0
 40
4.993724473487294
100
AcDbArc
 50
67.92936842064429
 51
112.0706315793419
  0
LINE
  5
16F4
330
18
100
AcDbEntity
  8
1
  6
Continuous
100
AcDbLine
 10
124.8994324013643
 20
57.58713306592523
 30
0.0
 11
124.8994324013643
 21
58.38713310392319
 31
0.0
  0
LINE
  5
16F5
330
18
100
AcDbEntity
  8
1
  6
Continuous
100
AcDbLine
 10
125.14020850901
 20
57.58713306592523
 30
0.0
 11
125.14020850901
 21
58.38713310392319
 31
0.0
  0
LINE
  5
16F6
330
18
100
AcDbEntity
  8
1
  6
Continuous
100
AcDbLine
 10
127.1703959509799
 20
57.58713306592523
 30
0.0
 11
127.1703959509799
 21
58.38713310392319
 31
0.0
  0
LINE
  5
16F7
330
18
100
AcDbEntity
  8
1
  6
Continuous
100
AcDbLine
 10
128.6878052823261
 20
57.58713306592523
 30
0.0
 11
128.6878052823261
 21
58.38713310392319
 31
0.0
  0
LINE
  5
16F8
330
18
100
AcDbEntity
  8
1
  6
Continuous
100
AcDbLine
 10
127.352636155006
 20
57.58713306592523
 30
0.0
 11
127.352636155006
 21
58.38713310392319
 31
0.0
  0
LINE
  5
16F9
330
18
100
AcDbEntity
  8
1
  6
Continuous
100
AcDbLine
 10
128.7837651636815
 20
57.58713306592523
 30
0.0
 11
128.7837651636815
 21
58.38713310392319
 31
0.0
  0
LINE
  5
16FA
330
18
100
AcDbEntity
  8
1
  6
Continuous
100
AcDbLine
 10
129.2206485800556
 20
57.58713306592523
 30
0.0
 11
129.2206485800557
 21
58.38713310392325
 31
0.0
  0
LINE
  5
16FB
330
18
100
AcDbEntity
  8
1
  6
Continuous
100
AcDbLine
 10
129.726201753657
 20
57.13014875215077
 30
0.0
 11
128.4706456573828
 21
57.58713379864605
 31
0.0
  0
LINE
  5
16FC
330
18
100
AcDbEntity
  8
1
  6
Continuous
100
AcDbLine
 10
125.9734248256781
 20
51.24411667524747
 30
0.0
 11
125.9734248256781
 21
57.13014875215066
 31
0.0
  0
LINE
  5
16FD
330
18
100
AcDbEntity
  8
1
  6
Continuous
100
AcDbLine
 10
129.726201753657
 20
51.24411667524747
 30
0.0
 11
129.726201753657
 21
57.13014875215049
 31
0.0
  0
LINE
  5
16FE
330
18
100
AcDbEntity
  8
2
  6
Continuous
100
AcDbLine
 10
125.5441482475735
 20
38.38713272468861
 30
0.0
 11
125.5441482475735
 21
50.78713162875192
 31
0.0
  0
LINE
  5
16FF
330
18
100
AcDbEntity
  8
1
  6
Continuous
100
AcDbLine
 10
126.2206484375633
 20
50.78713255220765
 30
0.0
 11
126.2206484375633
 21
38.88713274843746
 31
0.0
  0
LINE
  5
1700
330
18
100
AcDbEntity
  8
2
  6
Continuous
100
AcDbLine
 10
118.8971482475735
 20
38.38713272468861
 30
0.0
 11
118.8971482475735
 21
50.78713162875192
 31
0.0
  0
LINE
  5
1701
330
18
100
AcDbEntity
  8
1
  6
Continuous
100
AcDbLine
 10
118.2206480575837
 20
38.88713274843735
 30
0.0
 11
118.2206480575837
 21
50.78713255220765
 31
0.0
  0
LINE
  5
1702
330
18
100
AcDbEntity
  8
1
  6
Continuous
100
AcDbLine
 10
128.4706456573828
 20
50.78713162875192
 30
0.0
 11
115.9706501380113
 21
50.78713162875192
 31
0.0
  0
LINE
  5
1703
330
18
100
AcDbEntity
  8
1
  6
Continuous
100
AcDbLine
 10
118.2206480575836
 20
38.88713274843735
 30
0.0
 11
126.2206484375633
 21
38.88713274843746
 31
0.0
  0
LINE
  5
1704
330
18
100
AcDbEntity
  8
1
  6
Continuous
100
AcDbLine
 10
118.7206480813325
 20
38.38713272468861
 30
0.0
 11
125.7206484138146
 21
38.38713272468861
 31
0.0
  0
LINE
  5
1705
330
18
100
AcDbEntity
  8
1
  6
Continuous
100
AcDbLine
 10
118.7207480813324
 20
38.3870327246886
 30
0.0
 11
118.2206480575837
 21
38.88713274843735
 31
0.0
  0
LINE
  5
1706
330
18
100
AcDbEntity
  8
1
  6
Continuous
100
AcDbLine
 10
126.2206484375633
 20
38.88713274843735
 30
0.0
 11
125.7206484138146
 21
38.38713272468861
 31
0.0
  0
LINE
  5
176C
330
18
100
AcDbEntity
  8
4
  6
CENTER
 48
0.2
100
AcDbLine
 10
210.6827811147341
 20
140.5772491368677
 30
0.0
 11
164.6827795948157
 21
140.5772491368677
 31
0.0
  0
LINE
  5
176D
330
18
100
AcDbEntity
  8
2
  6
Continuous
100
AcDbLine
 10
187.6827807354995
 20
143.9007491368678
 30
0.0
 11
185.6827804497698
 21
143.9007491368678
 31
0.0
  0
LINE
  5
176E
330
18
100
AcDbEntity
  8
1
  6
Continuous
100
AcDbLine
 10
187.6827807354995
 20
144.5772493268576
 30
0.0
 11
185.6827804497698
 21
144.5772493268576
 31
0.0
  0
LINE
  5
176F
330
18
100
AcDbEntity
  8
2
  6
Continuous
100
AcDbLine
 10
187.6827807354995
 20
137.2537491368678
 30
0.0
 11
185.6827804497698
 21
137.2537491368678
 31
0.0
  0
LINE
  5
1770
330
18
100
AcDbEntity
  8
1
  6
Continuous
100
AcDbLine
 10
185.6827804497698
 20
136.5772489468779
 30
0.0
 11
187.6827807354995
 21
136.5772489468779
 31
0.0
  0
LINE
  5
1771
330
18
100
AcDbEntity
  8
1
  6
Continuous
100
AcDbLine
 10
207.6827811147341
 20
144.0772493031089
 30
0.0
 11
207.6827811147341
 21
137.0772489706267
 31
0.0
  0
LINE
  5
1772
330
18
100
AcDbEntity
  8
1
  6
Continuous
100
AcDbLine
 10
207.1827810909854
 20
144.5772493268576
 30
0.0
 11
207.1827810909853
 21
136.577248946878
 31
0.0
  0
LINE
  5
1773
330
18
100
AcDbEntity
  8
1
  6
Continuous
100
AcDbLine
 10
188.4827807734975
 20
147.5772494693499
 30
0.0
 11
188.4827807734972
 21
133.5772488043856
 31
0.0
  0
LINE
  5
1774
330
18
100
AcDbEntity
  8
1
  6
Continuous
100
AcDbLine
 10
187.6827807354995
 20
133.5772488043856
 30
0.0
 11
187.6827807354995
 21
147.5772494693499
 31
0.0
  0
ARC
  5
1775
330
18
100
AcDbEntity
  8
1
  6
Continuous
100
AcDbCircle
 10
180.5769056633316
 20
137.3272489825009
 30
0.0
 40
14.61483527126484
100
AcDbArc
 50
347.1513282303011
 51
12.84867176970375
  0
ARC
  5
1776
330
18
100
AcDbEntity
  8
1
  6
Continuous
100
AcDbCircle
 10
203.1883370588815
 20
137.3272489824992
 30
0.0
 40
14.61452374295959
100
AcDbArc
 50
167.1510496579312
 51
192.84895034205
  0
LINE
  5
1777
330
18
100
AcDbEntity
  8
1
  6
Continuous
100
AcDbLine
 10
195.2827812872151
 20
134.3272488400081
 30
0.0
 11
195.2827812872151
 21
146.8272494337273
 31
0.0
  0
LINE
  5
1778
330
18
100
AcDbEntity
  8
1
  6
Continuous
100
AcDbLine
 10
195.2827812872151
 20
136.5772489468779
 30
0.0
 11
207.1827810909853
 21
136.577248946878
 31
0.0
  0
LINE
  5
1779
330
18
100
AcDbEntity
  8
2
  6
Continuous
100
AcDbLine
 10
207.6827811147341
 20
137.2537491368678
 30
0.0
 11
195.2827822106708
 21
137.2537491368678
 31
0.0
  0
LINE
  5
177A
330
18
100
AcDbEntity
  8
1
  6
Continuous
100
AcDbLine
 10
188.4827807734975
 20
135.6275014334614
 30
0.0
 11
187.6827807354995
 21
135.6275014334614
 31
0.0
  0
LINE
  5
177B
330
18
100
AcDbEntity
  8
1
  6
Continuous
100
AcDbLine
 10
188.4827807734975
 20
135.4452612294352
 30
0.0
 11
187.6827807354995
 21
135.4452612294352
 31
0.0
  0
LINE
  5
177C
330
18
100
AcDbEntity
  8
1
  6
Continuous
100
AcDbLine
 10
188.4827807734975
 20
134.1100921021151
 30
0.0
 11
187.6827807354995
 21
134.1100921021151
 31
0.0
  0
LINE
  5
177D
330
18
100
AcDbEntity
  8
1
  6
Continuous
100
AcDbLine
 10
188.4827807734975
 20
134.0141322207597
 30
0.0
 11
187.6827807354995
 21
134.0141322207597
 31
0.0
  0
LINE
  5
177E
330
18
100
AcDbEntity
  8
1
  6
Continuous
100
AcDbLine
 10
188.4827807734972
 20
133.5772488043856
 30
0.0
 11
187.6827807354995
 21
133.5772488043856
 31
0.0
  0
LINE
  5
177F
330
18
100
AcDbEntity
  8
1
  6
Continuous
100
AcDbLine
 10
188.5737735146932
 20
134.0772488622788
 30
0.0
 11
195.1917885120337
 21
134.0772482448639
 31
0.0
  0
LINE
  5
1780
330
18
100
AcDbEntity
  8
1
  6
Continuous
100
AcDbLine
 10
188.5737735146932
 20
134.0772488622788
 30
0.0
 11
188.4827807734975
 21
134.327249364048
 31
0.0
  0
LINE
  5
1781
330
18
100
AcDbEntity
  8
1
  6
Continuous
100
AcDbLine
 10
195.1917885120337
 20
134.0772482448639
 30
0.0
 11
195.2827812872151
 21
134.3272488400081
 31
0.0
  0
LINE
  5
1782
330
18
100
AcDbEntity
  8
1
  6
Continuous
100
AcDbLine
 10
188.4827807734975
 20
140.3145931053515
 30
0.0
 11
187.6827807354995
 21
140.3145931053515
 31
0.0
  0
LINE
  5
1783
330
18
100
AcDbEntity
  8
1
  6
Continuous
100
AcDbLine
 10
188.4827807734975
 20
137.8984649830769
 30
0.0
 11
187.6827807354995
 21
137.8984649830769
 31
0.0
  0
LINE
  5
1784
330
18
100
AcDbEntity
  8
1
  6
Continuous
100
AcDbLine
 10
188.4827807734975
 20
137.6576888754312
 30
0.0
 11
187.6827807354995
 21
137.6576888754312
 31
0.0
  0
LINE
  5
1785
330
18
100
AcDbEntity
  8
1
  6
Continuous
100
AcDbLine
 10
207.1827810909854
 20
136.5772489468779
 30
0.0
 11
207.6827811147341
 21
137.0772489706267
 31
0.0
  0
LINE
  5
1786
330
18
100
AcDbEntity
  8
1
  6
Continuous
100
AcDbLine
 10
207.1827810909854
 20
144.5772493268576
 30
0.0
 11
195.2827812872151
 21
144.5772493268576
 31
0.0
  0
LINE
  5
1787
330
18
100
AcDbEntity
  8
2
  6
Continuous
100
AcDbLine
 10
207.6827811147341
 20
143.9007491368678
 30
0.0
 11
195.2827822106708
 21
143.9007491368678
 31
0.0
  0
ARC
  5
1788
330
18
100
AcDbEntity
  8
1
  6
Continuous
100
AcDbCircle
 10
180.5769052962837
 20
143.8272492912361
 30
0.0
 40
14.61483562912192
100
AcDbArc
 50
347.1513285502918
 51
12.84867144969939
  0
ARC
  5
1789
330
18
100
AcDbEntity
  8
1
  6
Continuous
100
AcDbCircle
 10
203.1883375890226
 20
143.8272492912353
 30
0.0
 40
14.61452425982512
100
AcDbArc
 50
167.1510501201398
 51
192.8489498798633
  0
LINE
  5
178B
330
18
100
AcDbEntity
  8
1
  6
Continuous
100
AcDbLine
 10
188.4827807734975
 20
143.2560332906586
 30
0.0
 11
187.6827807354995
 21
143.2560332906586
 31
0.0
  0
LINE
  5
178C
330
18
100
AcDbEntity
  8
1
  6
Continuous
100
AcDbLine
 10
188.4827807734975
 20
145.3377853222903
 30
0.0
 11
187.6827807354995
 21
145.3377853222903
 31
0.0
  0
LINE
  5
178D
330
18
100
AcDbEntity
  8
1
  6
Continuous
100
AcDbLine
 10
188.4827807734975
 20
145.5269968402741
 30
0.0
 11
187.6827807354995
 21
145.5269968402741
 31
0.0
  0
LINE
  5
178E
330
18
100
AcDbEntity
  8
1
  6
Continuous
100
AcDbLine
 10
188.4827807734975
 20
143.0114843350866
 30
0.0
 11
187.6827807354995
 21
143.0114843350866
 31
0.0
  0
LINE
  5
178F
330
18
100
AcDbEntity
  8
1
  6
Continuous
100
AcDbLine
 10
188.4827807734975
 20
146.9393378296314
 30
0.0
 11
187.6827807354995
 21
146.9393378296314
 31
0.0
  0
LINE
  5
1790
330
18
100
AcDbEntity
  8
1
  6
Continuous
100
AcDbLine
 10
188.4827807734975
 20
147.0444061716204
 30
0.0
 11
187.6827807354995
 21
147.0444061716204
 31
0.0
  0
LINE
  5
1791
330
18
100
AcDbEntity
  8
1
  6
Continuous
100
AcDbLine
 10
188.57377351468
 20
147.0772494114208
 30
0.0
 11
188.4827807734975
 21
146.8272489096875
 31
0.0
  0
LINE
  5
1792
330
18
100
AcDbEntity
  8
1
  6
Continuous
100
AcDbLine
 10
188.57377351468
 20
147.0772494114208
 30
0.0
 11
195.1917885118104
 21
147.0772500294854
 31
0.0
  0
LINE
  5
1793
330
18
100
AcDbEntity
  8
1
  6
Continuous
100
AcDbLine
 10
188.4827807734975
 20
147.5772494693499
 30
0.0
 11
187.6827807354995
 21
147.5772494693499
 31
0.0
  0
LINE
  5
1794
330
18
100
AcDbEntity
  8
1
  6
Continuous
100
AcDbLine
 10
195.2827812872151
 20
146.8272494337272
 30
0.0
 11
195.1917885118104
 21
147.0772500294854
 31
0.0
  0
LINE
  5
1795
330
18
100
AcDbEntity
  8
1
  6
Continuous
100
AcDbLine
 10
188.4827807734975
 20
140.5772491368677
 30
0.0
 11
187.6827807354995
 21
140.5772491368677
 31
0.0
  0
LINE
  5
1796
330
18
100
AcDbEntity
  8
1
  6
Continuous
100
AcDbLine
 10
194.8257971641752
 20
140.5772491368687
 30
0.0
 11
188.9397650872723
 21
140.5772491368687
 31
0.0
  0
LINE
  5
1797
330
18
100
AcDbEntity
  8
1
  6
Continuous
100
AcDbLine
 10
207.6827811147341
 20
144.0772493031089
 30
0.0
 11
207.1827810909854
 21
144.5772493268576
 31
0.0
  0
LINE
  5
1798
330
18
100
AcDbEntity
  8
4
  6
CENTER
 48
0.2
100
AcDbLine
 10
175.6827799747953
 20
168.0772503005554
 30
0.0
 11
175.6827799747953
 21
113.0772479731803
 31
0.0
  0
LINE
  5
1799
330
18
100
AcDbEntity
  8
4
  6
CENTER
 48
0.2
100
AcDbLine
 10
164.6827795948157
 20
157.0772499205758
 30
0.0
 11
186.6827803547749
 21
157.0772499205758
 31
0.0
  0
LINE
  5
179A
330
18
100
AcDbEntity
  8
4
  6
CENTER
 48
0.2
100
AcDbLine
 10
164.6827795948157
 20
124.0772483531599
 30
0.0
 11
186.6827803547749
 21
124.0772483531599
 31
0.0
  0
LINE
  5
179B
330
18
100
AcDbEntity
  8
1
  6
Continuous
100
AcDbLine
 10
44.7585153804129
 20
165.0772503005555
 30
0.0
 11
60.75851614037214
 21
165.0772503005556
 31
0.0
  0
LINE
  5
179C
330
18
100
AcDbEntity
  8
1
  6
Continuous
100
AcDbLine
 10
44.75851538041289
 20
149.0772495405962
 30
0.0
 11
60.7585161403721
 21
149.0772495405962
 31
0.0
  0
LINE
  5
179D
330
18
100
AcDbEntity
  8
1
  6
Continuous
100
AcDbLine
 10
60.75851614037207
 20
132.0772487331395
 30
0.0
 11
44.75851538041285
 21
132.0772487331396
 31
0.0
  0
LINE
  5
179E
330
18
100
AcDbEntity
  8
1
  6
Continuous
100
AcDbLine
 10
60.75851614037205
 20
116.0772479731803
 30
0.0
 11
44.75851538041282
 21
116.0772479731804
 31
0.0
  0
LINE
  5
179F
330
18
100
AcDbEntity
  8
4
  6
CENTER
 48
0.2
100
AcDbLine
 10
17.75851462045366
 20
140.5772491368679
 30
0.0
 11
63.7585161403721
 21
140.5772491368677
 31
0.0
  0
LINE
  5
17A0
330
18
100
AcDbEntity
  8
4
  6
CENTER
 48
0.2
100
AcDbLine
 10
63.75851614037207
 20
124.07724835316
 30
0.0
 11
41.75851538041285
 21
124.07724835316
 31
0.0
  0
LINE
  5
17A1
330
18
100
AcDbEntity
  8
1
  6
Continuous
100
AcDbLine
 10
60.75851614037207
 20
132.5772487568882
 30
0.0
 11
42.75851528541795
 21
132.5772487568882
 31
0.0
  0
LINE
  5
17A2
330
18
100
AcDbEntity
  8
4
  6
CENTER
 48
0.2
100
AcDbLine
 10
63.75851614037213
 20
157.0772499205759
 30
0.0
 11
41.75851538041292
 21
157.0772499205759
 31
0.0
  0
LINE
  5
17A3
330
18
100
AcDbEntity
  8
1
  6
Continuous
100
AcDbLine
 10
60.7585161403721
 20
148.5772495168475
 30
0.0
 11
42.75851528541799
 21
148.5772495168475
 31
0.0
  0
LINE
  5
17A4
330
18
100
AcDbEntity
  8
4
  6
CENTER
 48
0.2
100
AcDbLine
 10
52.75851576039254
 20
168.0772503005555
 30
0.0
 11
52.75851576039244
 21
113.0772479731805
 31
0.0
  0
LINE
  5
17A5
330
18
100
AcDbEntity
  8
1
  6
Continuous
100
AcDbLine
 10
60.75851614037207
 20
132.5772487568882
 30
0.0
 11
60.7585161403721
 21
148.5772495168475
 31
0.0
  0
LINE
  5
17A6
330
18
100
AcDbEntity
  8
1
  6
Continuous
100
AcDbLine
 10
57.258515974131
 20
132.5772487568882
 30
0.0
 11
57.25851597413103
 21
148.5772495168475
 31
0.0
  0
LINE
  5
17A7
330
18
100
AcDbEntity
  8
1
  6
Continuous
100
AcDbLine
 10
60.75851614037207
 20
132.0772487331395
 30
0.0
 11
60.75851614037205
 21
116.0772479731803
 31
0.0
  0
LINE
  5
17A9
330
18
100
AcDbEntity
  8
1
  6
Continuous
100
AcDbLine
 10
60.25851611662336
 20
132.5772487568882
 30
0.0
 11
60.25851611662336
 21
132.0772487331395
 31
0.0
  0
LINE
  5
17AA
330
18
100
AcDbEntity
  8
1
  6
Continuous
100
AcDbLine
 10
60.7585161403721
 20
149.0772495405962
 30
0.0
 11
60.75851614037214
 21
165.0772503005556
 31
0.0
  0
LINE
  5
17AC
330
18
100
AcDbEntity
  8
1
  6
Continuous
100
AcDbLine
 10
60.25851611662338
 20
149.0772495405962
 30
0.0
 11
60.25851611662338
 21
148.5772495168475
 31
0.0
  0
ARC
  5
17AD
330
18
100
AcDbEntity
  8
1
  6
Continuous
100
AcDbCircle
 10
25.25295814616518
 20
143.8272492912355
 30
0.0
 40
14.61452425982512
100
AcDbArc
 50
347.1510501201365
 51
12.84894987986003
  0
LINE
  5
17AE
330
18
100
AcDbEntity
  8
1
  6
Continuous
100
AcDbLine
 10
40.7585149996882
 20
133.5772488043857
 30
0.0
 11
40.75851499968822
 21
147.5772494693501
 31
0.0
  0
LINE
  5
17AF
330
18
100
AcDbEntity
  8
1
  6
Continuous
100
AcDbLine
 10
39.95851496169028
 20
147.5772494693501
 30
0.0
 11
39.95851496169058
 21
133.5772488043857
 31
0.0
  0
LINE
  5
17B0
330
18
100
AcDbEntity
  8
1
  6
Continuous
100
AcDbLine
 10
42.75851528541795
 20
132.5772487568882
 30
0.0
 11
42.75851528541799
 21
148.5772495168475
 31
0.0
  0
LINE
  5
17B1
330
18
100
AcDbEntity
  8
1
  6
Continuous
100
AcDbLine
 10
33.1585144479727
 20
134.3272488400082
 30
0.0
 11
33.1585144479727
 21
146.8272494337274
 31
0.0
  0
ARC
  5
17B2
330
18
100
AcDbEntity
  8
1
  6
Continuous
100
AcDbCircle
 10
47.86439043890404
 20
143.8272492912362
 30
0.0
 40
14.61483562912192
100
AcDbArc
 50
167.1513285503005
 51
192.8486714497079
  0
LINE
  5
17B3
330
18
100
AcDbEntity
  8
1
  6
Continuous
100
AcDbLine
 10
44.75851538041285
 20
132.0772487331395
 30
0.0
 11
44.75851538041282
 21
116.0772479731804
 31
0.0
  0
LINE
  5
17B5
330
18
100
AcDbEntity
  8
2
  6
Continuous
100
AcDbLine
 10
20.75851462045366
 20
143.900749136868
 30
0.0
 11
33.15851352451697
 21
143.9007491368679
 31
0.0
  0
LINE
  5
17B6
330
18
100
AcDbEntity
  8
1
  6
Continuous
100
AcDbLine
 10
21.25851464420239
 20
144.5772493268576
 30
0.0
 11
33.1585144479727
 21
144.5772493268576
 31
0.0
  0
LINE
  5
17B7
330
18
100
AcDbEntity
  8
2
  6
Continuous
100
AcDbLine
 10
20.75851462045366
 20
137.253749136868
 30
0.0
 11
33.15851352451697
 21
137.2537491368679
 31
0.0
  0
LINE
  5
17B8
330
18
100
AcDbEntity
  8
1
  6
Continuous
100
AcDbLine
 10
33.1585144479727
 20
136.5772489468781
 30
0.0
 11
21.2585146442025
 21
136.5772489468782
 31
0.0
  0
ARC
  5
17B9
330
18
100
AcDbEntity
  8
1
  6
Continuous
100
AcDbCircle
 10
25.25295867630629
 20
137.3272489824993
 30
0.0
 40
14.61452374295959
100
AcDbArc
 50
347.1510496579499
 51
12.84895034206867
  0
ARC
  5
17BB
330
18
100
AcDbEntity
  8
1
  6
Continuous
100
AcDbCircle
 10
47.8643900718562
 20
137.327248982501
 30
0.0
 40
14.61483527126484
100
AcDbArc
 50
167.1513282302961
 51
192.8486717696987
  0
LINE
  5
17BC
330
18
100
AcDbEntity
  8
1
  6
Continuous
100
AcDbLine
 10
45.25851540416158
 20
132.0772487331396
 30
0.0
 11
45.25851540416158
 21
132.5772487568882
 31
0.0
  0
LINE
  5
17BD
330
18
100
AcDbEntity
  8
1
  6
Continuous
100
AcDbLine
 10
33.24950722315402
 20
134.077248244864
 30
0.0
 11
33.15851444797266
 21
134.3272488400083
 31
0.0
  0
LINE
  5
17BE
330
18
100
AcDbEntity
  8
1
  6
Continuous
100
AcDbLine
 10
39.8675222204946
 20
134.0772488622789
 30
0.0
 11
39.95851496169024
 21
134.3272493640481
 31
0.0
  0
LINE
  5
17BF
330
18
100
AcDbEntity
  8
1
  6
Continuous
100
AcDbLine
 10
39.95851496169058
 20
133.5772488043857
 30
0.0
 11
40.7585149996882
 21
133.5772488043857
 31
0.0
  0
LINE
  5
17C0
330
18
100
AcDbEntity
  8
1
  6
Continuous
100
AcDbLine
 10
39.95851496169024
 20
134.0141322207599
 30
0.0
 11
40.7585149996882
 21
134.0141322207599
 31
0.0
  0
LINE
  5
17C1
330
18
100
AcDbEntity
  8
1
  6
Continuous
100
AcDbLine
 10
39.95851496169024
 20
134.1100921021152
 30
0.0
 11
40.7585149996882
 21
134.1100921021152
 31
0.0
  0
LINE
  5
17C2
330
18
100
AcDbEntity
  8
1
  6
Continuous
100
AcDbLine
 10
39.8675222204946
 20
134.0772488622789
 30
0.0
 11
33.24950722315402
 21
134.077248244864
 31
0.0
  0
LINE
  5
17C3
330
18
100
AcDbEntity
  8
1
  6
Continuous
100
AcDbLine
 10
42.75851528541799
 20
136.5772489468781
 30
0.0
 11
40.75851499968822
 21
136.5772489468781
 31
0.0
  0
LINE
  5
17C4
330
18
100
AcDbEntity
  8
2
  6
Continuous
100
AcDbLine
 10
40.75851499968826
 20
137.2537491368679
 30
0.0
 11
42.75851528541799
 21
137.2537491368679
 31
0.0
  0
LINE
  5
17C5
330
18
100
AcDbEntity
  8
1
  6
Continuous
100
AcDbLine
 10
40.75851499968822
 20
144.5772493268576
 30
0.0
 11
42.75851528541799
 21
144.5772493268576
 31
0.0
  0
LINE
  5
17C6
330
18
100
AcDbEntity
  8
2
  6
Continuous
100
AcDbLine
 10
40.75851499968826
 20
143.9007491368679
 30
0.0
 11
42.75851528541799
 21
143.9007491368679
 31
0.0
  0
LINE
  5
17C7
330
18
100
AcDbEntity
  8
1
  6
Continuous
100
AcDbLine
 10
39.95851496169028
 20
140.5772491368679
 30
0.0
 11
40.75851499968822
 21
140.5772491368679
 31
0.0
  0
LINE
  5
17C8
330
18
100
AcDbEntity
  8
1
  6
Continuous
100
AcDbLine
 10
39.95851496169028
 20
143.0114843350867
 30
0.0
 11
40.75851499968822
 21
143.0114843350867
 31
0.0
  0
LINE
  5
17C9
330
18
100
AcDbEntity
  8
1
  6
Continuous
100
AcDbLine
 10
39.95851496169028
 20
143.2560332906587
 30
0.0
 11
40.75851499968822
 21
143.2560332906587
 31
0.0
  0
LINE
  5
17CA
330
18
100
AcDbEntity
  8
1
  6
Continuous
100
AcDbLine
 10
39.95851496169028
 20
137.6576888754314
 30
0.0
 11
40.75851499968822
 21
137.6576888754314
 31
0.0
  0
LINE
  5
17CB
330
18
100
AcDbEntity
  8
1
  6
Continuous
100
AcDbLine
 10
39.95851496169028
 20
137.898464983077
 30
0.0
 11
40.75851499968822
 21
137.898464983077
 31
0.0
  0
LINE
  5
17CC
330
18
100
AcDbEntity
  8
1
  6
Continuous
100
AcDbLine
 10
39.95851496169028
 20
140.3145931053516
 30
0.0
 11
40.75851499968822
 21
140.3145931053516
 31
0.0
  0
LINE
  5
17CD
330
18
100
AcDbEntity
  8
1
  6
Continuous
100
AcDbLine
 10
39.95851496169024
 20
135.4452612294354
 30
0.0
 11
40.7585149996882
 21
135.4452612294354
 31
0.0
  0
LINE
  5
17CE
330
18
100
AcDbEntity
  8
1
  6
Continuous
100
AcDbLine
 10
39.95851496169024
 20
135.6275014334615
 30
0.0
 11
40.7585149996882
 21
135.6275014334615
 31
0.0
  0
LINE
  5
17CF
330
18
100
AcDbEntity
  8
1
  6
Continuous
100
AcDbLine
 10
33.61549857101252
 20
140.5772491368689
 30
0.0
 11
39.50153064791553
 21
140.5772491368689
 31
0.0
  0
LINE
  5
17D0
330
18
100
AcDbEntity
  8
1
  6
Continuous
100
AcDbLine
 10
20.75851462045366
 20
144.0772493031091
 30
0.0
 11
21.25851464420239
 21
144.5772493268576
 31
0.0
  0
LINE
  5
17D1
330
18
100
AcDbEntity
  8
1
  6
Continuous
100
AcDbLine
 10
21.25851464420239
 20
136.5772489468781
 30
0.0
 11
20.75851462045366
 21
137.0772489706269
 31
0.0
  0
LINE
  5
17D2
330
18
100
AcDbEntity
  8
1
  6
Continuous
100
AcDbLine
 10
21.25851464420239
 20
144.5772493268578
 30
0.0
 11
21.2585146442025
 21
136.5772489468782
 31
0.0
  0
LINE
  5
17D3
330
18
100
AcDbEntity
  8
1
  6
Continuous
100
AcDbLine
 10
20.75851462045366
 20
144.0772493031091
 30
0.0
 11
20.75851462045366
 21
137.0772489706269
 31
0.0
  0
LINE
  5
17D5
330
18
100
AcDbEntity
  8
1
  6
Continuous
100
AcDbLine
 10
44.75851538041289
 20
149.0772495405963
 30
0.0
 11
44.7585153804129
 21
165.0772503005555
 31
0.0
  0
LINE
  5
17D6
330
18
100
AcDbEntity
  8
1
  6
Continuous
100
AcDbLine
 10
45.25851540416161
 20
148.5772495168475
 30
0.0
 11
45.25851540416161
 21
149.0772495405962
 31
0.0
  0
LINE
  5
17D7
330
18
100
AcDbEntity
  8
1
  6
Continuous
100
AcDbLine
 10
33.1585144479727
 20
146.8272494337274
 30
0.0
 11
33.24950722337737
 21
147.0772500294855
 31
0.0
  0
LINE
  5
17D8
330
18
100
AcDbEntity
  8
1
  6
Continuous
100
AcDbLine
 10
39.95851496169028
 20
147.5772494693501
 30
0.0
 11
40.75851499968822
 21
147.5772494693501
 31
0.0
  0
LINE
  5
17D9
330
18
100
AcDbEntity
  8
1
  6
Continuous
100
AcDbLine
 10
39.86752222050773
 20
147.0772494114209
 30
0.0
 11
39.95851496169028
 21
146.8272489096877
 31
0.0
  0
LINE
  5
17DA
330
18
100
AcDbEntity
  8
1
  6
Continuous
100
AcDbLine
 10
39.95851496169028
 20
147.0444061716206
 30
0.0
 11
40.75851499968822
 21
147.0444061716206
 31
0.0
  0
LINE
  5
17DB
330
18
100
AcDbEntity
  8
1
  6
Continuous
100
AcDbLine
 10
39.95851496169028
 20
146.9393378296315
 30
0.0
 11
40.75851499968822
 21
146.9393378296315
 31
0.0
  0
LINE
  5
17DC
330
18
100
AcDbEntity
  8
1
  6
Continuous
100
AcDbLine
 10
39.95851496169028
 20
145.5269968402743
 30
0.0
 11
40.75851499968822
 21
145.5269968402743
 31
0.0
  0
LINE
  5
17DD
330
18
100
AcDbEntity
  8
1
  6
Continuous
100
AcDbLine
 10
39.95851496169028
 20
145.3377853222904
 30
0.0
 11
40.75851499968822
 21
145.3377853222904
 31
0.0
  0
LINE
  5
17DE
330
18
100
AcDbEntity
  8
1
  6
Continuous
100
AcDbLine
 10
39.86752222050773
 20
147.0772494114209
 30
0.0
 11
33.24950722337737
 21
147.0772500294855
 31
0.0
  0
CIRCLE
  5
17E0
330
18
100
AcDbEntity
  8
1
  6
Continuous
100
AcDbCircle
 10
52.75851576039253
 20
157.0772499205759
 30
0.0
 40
4.000000189989819
  0
CIRCLE
  5
17E1
330
18
100
AcDbEntity
  8
1
  6
Continuous
100
AcDbCircle
 10
52.75851576039253
 20
157.0772499205759
 30
0.0
 40
6.249999946983193
  0
CIRCLE
  5
17E5
330
18
100
AcDbEntity
  8
2
  6
Continuous
100
AcDbCircle
 10
52.75851576039259
 20
157.0772499205759
 30
0.0
 40
3.323499999999909
  0
LINE
  5
1814
330
18
100
AcDbEntity
  8
1
  6
Continuous
100
AcDbLine
 10
52.75851576039258
 20
131.5828018592431
 30
0.0
 11
46.25851545165885
 21
127.8300249312629
 31
0.0
  0
LINE
  5
1815
330
18
100
AcDbEntity
  8
1
  6
Continuous
100
AcDbLine
 10
46.25851545165879
 20
120.3244710753031
 30
0.0
 11
52.75851576039235
 21
116.5716941473229
 31
0.0
  0
ARC
  5
1816
330
18
100
AcDbEntity
  8
1
  6
Continuous
100
AcDbCircle
 10
52.75851576039222
 20
124.07724835316
 30
0.0
 40
7.000000332482057
100
AcDbArc
 50
182.1503735594841
 51
201.7669276430736
  0
LINE
  5
1817
330
18
100
AcDbEntity
  8
1
  6
Continuous
100
AcDbLine
 10
46.25851545165891
 20
127.830024931263
 30
0.0
 11
46.25851545165891
 21
120.3244710753032
 31
0.0
  0
LINE
  5
1818
330
18
100
AcDbEntity
  8
1
  6
Continuous
100
AcDbLine
 10
46.19539884428439
 20
126.5114835513788
 30
0.0
 11
46.25851545165891
 21
126.4945715074039
 31
0.0
  0
LINE
  5
1819
330
18
100
AcDbEntity
  8
1
  6
Continuous
100
AcDbLine
 10
45.76344489128326
 20
123.8145923216437
 30
0.0
 11
46.25851545165891
 21
123.8797695973992
 31
0.0
  0
LINE
  5
181A
330
18
100
AcDbEntity
  8
1
  6
Continuous
100
AcDbLine
 10
46.25851545165891
 20
124.07724835316
 30
0.0
 11
45.75851542791018
 21
124.07724835316
 31
0.0
  0
ARC
  5
181B
330
18
100
AcDbEntity
  8
1
  6
Continuous
100
AcDbCircle
 10
52.7585157603924
 20
124.07724835316
 30
0.0
 40
7.00000033248221
100
AcDbArc
 50
159.6503735594867
 51
179.9999999999996
  0
CIRCLE
  5
181C
330
18
100
AcDbEntity
  8
2
  6
Continuous
100
AcDbCircle
 10
52.7585157603924
 20
124.07724835316
 30
0.0
 40
3.323499999999909
  0
ARC
  5
181D
330
18
100
AcDbEntity
  8
1
  6
Continuous
100
AcDbCircle
 10
52.75851576039229
 20
124.07724835316
 30
0.0
 40
7.00000033248221
100
AcDbArc
 50
339.6503735594866
 51
359.9999999999996
  0
LINE
  5
181E
330
18
100
AcDbEntity
  8
1
  6
Continuous
100
AcDbLine
 10
59.25851606912578
 20
127.830024931263
 30
0.0
 11
59.25851606912578
 21
120.3244710753032
 31
0.0
  0
CIRCLE
  5
1820
330
18
100
AcDbEntity
  8
1
  6
Continuous
100
AcDbCircle
 10
52.75851576039235
 20
124.07724835316
 30
0.0
 40
4.000000189989819
  0
CIRCLE
  5
1821
330
18
100
AcDbEntity
  8
1
  6
Continuous
100
AcDbCircle
 10
52.75851576039235
 20
124.07724835316
 30
0.0
 40
6.249999946983193
  0
ARC
  5
1822
330
18
100
AcDbEntity
  8
1
  6
Continuous
100
AcDbCircle
 10
52.75851576039222
 20
124.0772483531601
 30
0.0
 40
7.000000332482303
100
AcDbArc
 50
317.1503735594878
 51
321.6236264431675
  0
LINE
  5
1823
330
18
100
AcDbEntity
  8
1
  6
Continuous
100
AcDbLine
 10
59.25851606912578
 20
120.3244710753033
 30
0.0
 11
52.75851576039222
 21
116.5716941473231
 31
0.0
  0
ARC
  5
1824
330
18
100
AcDbEntity
  8
1
  6
Continuous
100
AcDbCircle
 10
52.75851576039235
 20
124.0772483531599
 30
0.0
 40
7.000000332482057
100
AcDbArc
 50
278.2205009546477
 51
292.4999999999986
  0
ARC
  5
1825
330
18
100
AcDbEntity
  8
1
  6
Continuous
100
AcDbCircle
 10
52.7585157603924
 20
124.07724835316
 30
0.0
 40
7.00000033248221
100
AcDbArc
 50
249.6503735594874
 51
261.7691452758232
  0
LINE
  5
1826
330
18
100
AcDbEntity
  8
1
  6
Continuous
100
AcDbLine
 10
50.2496091722566
 20
118.0202120413548
 30
0.0
 11
50.07973160660149
 21
117.6100913184074
 31
0.0
  0
LINE
  5
1827
330
18
100
AcDbEntity
  8
1
  6
Continuous
100
AcDbLine
 10
50.32428056217349
 20
117.514131437052
 30
0.0
 11
50.4317129057839
 21
117.9150744017824
 31
0.0
  0
LINE
  5
1828
330
18
100
AcDbEntity
  8
1
  6
Continuous
100
AcDbLine
 10
47.99797957496985
 20
118.9452604457275
 30
0.0
 11
48.19734967280401
 21
119.2050846158107
 31
0.0
  0
LINE
  5
1829
330
18
100
AcDbEntity
  8
1
  6
Continuous
100
AcDbLine
 10
48.00018506337289
 20
119.3189176561405
 30
0.0
 11
47.80876805698603
 21
119.1275006497537
 31
0.0
  0
ARC
  5
182A
330
18
100
AcDbEntity
  8
1
  6
Continuous
100
AcDbCircle
 10
52.75851576039246
 20
124.0772483531601
 30
0.0
 40
7.000000332482303
100
AcDbArc
 50
227.1503735594876
 51
247.5000000000013
  0
ARC
  5
182B
330
18
100
AcDbEntity
  8
1
  6
Continuous
100
AcDbCircle
 10
52.75851576039229
 20
124.0772483531601
 30
0.0
 40
7.00000033248229
100
AcDbArc
 50
294.6503735594868
 51
315.0
  0
LINE
  5
182C
330
18
100
AcDbEntity
  8
1
  6
Continuous
100
AcDbLine
 10
57.51684645741164
 20
119.3189176561407
 30
0.0
 11
57.70826346379867
 21
119.1275006497537
 31
0.0
  0
LINE
  5
182D
330
18
100
AcDbEntity
  8
1
  6
Continuous
100
AcDbLine
 10
57.89050366782486
 20
119.3167121677375
 30
0.0
 11
57.72843014552943
 21
119.4410755554316
 31
0.0
  0
LINE
  5
182E
330
18
100
AcDbEntity
  8
1
  6
Continuous
100
AcDbLine
 10
55.67807602182885
 20
117.7151596603963
 30
0.0
 11
55.443321047806
 21
118.1217672027333
 31
0.0
  0
LINE
  5
182F
330
18
100
AcDbEntity
  8
1
  6
Continuous
100
AcDbLine
 10
55.26742234852804
 20
118.020212041355
 30
0.0
 11
55.43729991418318
 21
117.6100913184074
 31
0.0
  0
ARC
  5
1830
330
18
100
AcDbEntity
  8
1
  6
Continuous
100
AcDbCircle
 10
52.75851576039246
 20
124.07724835316
 30
0.0
 40
7.00000033248229
100
AcDbArc
 50
218.3637430025267
 51
224.9999999999997
  0
LINE
  5
1831
330
18
100
AcDbEntity
  8
1
  6
Continuous
100
AcDbLine
 10
59.32163267650031
 20
121.6430131549411
 30
0.0
 11
59.25851606912578
 21
121.6599251989161
 31
0.0
  0
LINE
  5
1832
330
18
100
AcDbEntity
  8
1
  6
Continuous
100
AcDbLine
 10
52.75851576039235
 20
131.5828018592452
 30
0.0
 11
59.25851606912669
 21
127.8300249312646
 31
0.0
  0
ARC
  5
1833
330
18
100
AcDbEntity
  8
1
  6
Continuous
100
AcDbCircle
 10
52.75851576039222
 20
124.0772483531599
 30
0.0
 40
7.00000033248229
100
AcDbArc
 50
38.36372851717289
 51
44.99999999999971
  0
ARC
  5
1834
330
18
100
AcDbEntity
  8
1
  6
Continuous
100
AcDbCircle
 10
52.75851576039229
 20
124.0772483531599
 30
0.0
 40
7.00000033248221
100
AcDbArc
 50
69.65037355948736
 51
81.76916064389628
  0
ARC
  5
1835
330
18
100
AcDbEntity
  8
1
  6
Continuous
100
AcDbCircle
 10
52.75851576039235
 20
124.0772483531601
 30
0.0
 40
7.000000332482057
100
AcDbArc
 50
98.22048911759381
 51
112.4999999999986
  0
LINE
  5
1836
330
18
100
AcDbEntity
  8
1
  6
Continuous
100
AcDbLine
 10
50.24960940616567
 20
130.1342841002586
 30
0.0
 11
50.07973160660149
 21
130.5444053879126
 31
0.0
  0
LINE
  5
1837
330
18
100
AcDbEntity
  8
1
  6
Continuous
100
AcDbLine
 10
49.83895549895583
 20
130.4393370459237
 30
0.0
 11
50.07371077598094
 21
130.0327289787713
 31
0.0
  0
LINE
  5
1838
330
18
100
AcDbEntity
  8
1
  6
Continuous
100
AcDbLine
 10
47.62652785295983
 20
128.8377845385825
 30
0.0
 11
47.78860189564317
 21
128.7134207515807
 31
0.0
  0
LINE
  5
1839
330
18
100
AcDbEntity
  8
1
  6
Continuous
100
AcDbLine
 10
48.00018550699917
 20
128.8355786065532
 30
0.0
 11
47.80876805698603
 21
129.0269960565663
 31
0.0
  0
ARC
  5
183A
330
18
100
AcDbEntity
  8
1
  6
Continuous
100
AcDbCircle
 10
52.7585157603924
 20
124.0772483531599
 30
0.0
 40
7.00000033248229
100
AcDbArc
 50
114.6503735594867
 51
135.0
  0
ARC
  5
183B
330
18
100
AcDbEntity
  8
1
  6
Continuous
100
AcDbCircle
 10
52.75851576039222
 20
124.0772483531599
 30
0.0
 40
7.000000332482303
100
AcDbArc
 50
47.15037355948759
 51
67.50000000000135
  0
LINE
  5
183C
330
18
100
AcDbEntity
  8
1
  6
Continuous
100
AcDbLine
 10
57.51684601378695
 20
128.8355786065546
 30
0.0
 11
57.70826346379867
 21
129.0269960565663
 31
0.0
  0
LINE
  5
183D
330
18
100
AcDbEntity
  8
1
  6
Continuous
100
AcDbLine
 10
57.51905194581485
 20
129.2092362605925
 30
0.0
 11
57.31968147588622
 21
128.9494116055863
 31
0.0
  0
LINE
  5
183E
330
18
100
AcDbEntity
  8
1
  6
Continuous
100
AcDbLine
 10
55.19275095861122
 20
130.640365269268
 30
0.0
 11
55.08531845262279
 21
130.2394216985348
 31
0.0
  0
LINE
  5
183F
330
18
100
AcDbEntity
  8
1
  6
Continuous
100
AcDbLine
 10
55.26742211461975
 20
130.1342841002604
 30
0.0
 11
55.43729991418318
 21
130.5444053879126
 31
0.0
  0
ARC
  5
1840
330
18
100
AcDbEntity
  8
1
  6
Continuous
100
AcDbCircle
 10
52.75851576039246
 20
124.0772483531599
 30
0.0
 40
7.000000332482303
100
AcDbArc
 50
137.1503735594878
 51
141.623640805952
  0
LINE
  5
1841
330
18
100
AcDbEntity
  8
1
  6
Continuous
100
AcDbLine
 10
59.75358662950146
 20
124.3399043846763
 30
0.0
 11
59.25851606912578
 21
124.2747271089208
 31
0.0
  0
LINE
  5
1842
330
18
100
AcDbEntity
  8
1
  6
Continuous
100
AcDbLine
 10
59.25851606912578
 20
124.07724835316
 30
0.0
 11
59.75851609287451
 21
124.07724835316
 31
0.0
  0
ARC
  5
1843
330
18
100
AcDbEntity
  8
1
  6
Continuous
100
AcDbCircle
 10
52.75851576039246
 20
124.07724835316
 30
0.0
 40
7.000000332482057
100
AcDbArc
 50
2.150373559484233
 51
21.76692764307361
  0
LINE
  5
18B9
330
18
100
AcDbEntity
  8
1
  6
Continuous
100
AcDbLine
 10
237.1449120819966
 20
165.0772503005554
 30
0.0
 11
255.1449129369508
 21
165.0772503005553
 31
0.0
  0
LINE
  5
18BA
330
18
100
AcDbEntity
  8
1
  6
Continuous
100
AcDbLine
 10
237.1449120819967
 20
148.5772495168474
 30
0.0
 11
253.1449128419559
 21
148.5772495168475
 31
0.0
  0
LINE
  5
18BB
330
18
100
AcDbEntity
  8
1
  6
Continuous
100
AcDbLine
 10
237.1449120819966
 20
149.0772495405961
 30
0.0
 11
255.1449129369508
 21
149.0772495405961
 31
0.0
  0
LINE
  5
18BC
330
18
100
AcDbEntity
  8
4
  6
CENTER
 48
0.2
100
AcDbLine
 10
272.1449136019151
 20
157.0772499205758
 30
0.0
 11
234.1449120819967
 21
157.0772499205758
 31
0.0
  0
LINE
  5
18BD
330
18
100
AcDbEntity
  8
1
  6
Continuous
100
AcDbLine
 10
237.1449120819966
 20
132.0772487331395
 30
0.0
 11
255.1449129369508
 21
132.0772487331395
 31
0.0
  0
LINE
  5
18BE
330
18
100
AcDbEntity
  8
1
  6
Continuous
100
AcDbLine
 10
237.1449120819967
 20
132.5772487568882
 30
0.0
 11
253.1449128419559
 21
132.5772487568882
 31
0.0
  0
LINE
  5
18BF
330
18
100
AcDbEntity
  8
1
  6
Continuous
100
AcDbLine
 10
237.1449120819966
 20
116.0772479731803
 30
0.0
 11
255.1449129369508
 21
116.0772479731803
 31
0.0
  0
LINE
  5
18C0
330
18
100
AcDbEntity
  8
4
  6
CENTER
 48
0.2
100
AcDbLine
 10
256.1449128419559
 20
140.5772491368677
 30
0.0
 11
234.1449120819967
 21
140.5772491368677
 31
0.0
  0
LINE
  5
18C1
330
18
100
AcDbEntity
  8
4
  6
CENTER
 48
0.2
100
AcDbLine
 10
272.1449136019151
 20
124.0772483531599
 30
0.0
 11
234.1449120819967
 21
124.0772483531599
 31
0.0
  0
LINE
  5
18C2
330
18
100
AcDbEntity
  8
1
  6
Continuous
100
AcDbLine
 10
253.1449128419559
 20
132.5772487568882
 30
0.0
 11
253.1449128419559
 21
148.5772495168475
 31
0.0
  0
LINE
  5
18C3
330
18
100
AcDbEntity
  8
1
  6
Continuous
100
AcDbLine
 10
257.1449132226806
 20
117.0772480206777
 30
0.0
 11
257.1449132226806
 21
131.0772486856421
 31
0.0
  0
LINE
  5
18C4
330
18
100
AcDbEntity
  8
1
  6
Continuous
100
AcDbLine
 10
257.9449132606785
 20
131.0772486856421
 30
0.0
 11
257.9449132606785
 21
117.0772480206778
 31
0.0
  0
LINE
  5
18C5
330
18
100
AcDbEntity
  8
1
  6
Continuous
100
AcDbLine
 10
255.1449129369508
 20
132.0772487331395
 30
0.0
 11
255.1449129369508
 21
116.0772479731803
 31
0.0
  0
ARC
  5
18C6
330
18
100
AcDbEntity
  8
1
  6
Continuous
100
AcDbCircle
 10
245.2284855965347
 20
124.0772487030368
 30
0.0
 40
19.4253891170823
100
AcDbArc
 50
348.8610342830522
 51
11.1389657169426
  0
LINE
  5
18C7
330
18
100
AcDbEntity
  8
1
  6
Continuous
100
AcDbLine
 10
264.7449146978518
 20
117.8272509433505
 30
0.0
 11
264.7449146978518
 21
130.3272464627221
 31
0.0
  0
LINE
  5
18C8
330
18
100
AcDbEntity
  8
1
  6
Continuous
100
AcDbLine
 10
269.1449136019151
 20
127.5772485194009
 30
0.0
 11
269.1449136019151
 21
120.5772481869188
 31
0.0
  0
LINE
  5
18C9
330
18
100
AcDbEntity
  8
1
  6
Continuous
100
AcDbLine
 10
268.6449135781664
 20
128.0772485431497
 30
0.0
 11
268.6449135781663
 21
120.0772481631701
 31
0.0
  0
ARC
  5
18CA
330
18
100
AcDbEntity
  8
1
  6
Continuous
100
AcDbCircle
 10
277.4613416292749
 20
124.0772487030368
 30
0.0
 40
19.4253891170823
100
AcDbArc
 50
168.8610342830573
 51
191.1389657169476
  0
LINE
  5
18CB
330
18
100
AcDbEntity
  8
1
  6
Continuous
100
AcDbLine
 10
264.2879296513563
 20
120.3244717750553
 30
0.0
 11
258.4018975744531
 21
120.3244717750553
 31
0.0
  0
LINE
  5
18CC
330
18
100
AcDbEntity
  8
1
  6
Continuous
100
AcDbLine
 10
264.2879296513563
 20
116.5716948470763
 30
0.0
 11
258.4018975744533
 21
116.5716948470763
 31
0.0
  0
ARC
  5
18CD
330
18
100
AcDbEntity
  8
1
  6
Continuous
100
AcDbCircle
 10
259.6601385530775
 20
118.4480833110672
 30
0.0
 40
4.993724473487294
100
AcDbArc
 50
337.9293684206442
 51
22.07063157934196
  0
LINE
  5
18CE
330
18
100
AcDbEntity
  8
1
  6
Continuous
100
AcDbLine
 10
264.2879296513565
 20
116.5716948470763
 30
0.0
 11
264.7449146978518
 21
117.8272509433505
 31
0.0
  0
LINE
  5
18CF
330
18
100
AcDbEntity
  8
1
  6
Continuous
100
AcDbLine
 10
268.6449135781664
 20
120.0772481631701
 30
0.0
 11
269.1449136019151
 21
120.5772481869188
 31
0.0
  0
LINE
  5
18D0
330
18
100
AcDbEntity
  8
1
  6
Continuous
100
AcDbLine
 10
264.7449137743961
 20
120.0772481631701
 30
0.0
 11
268.6449135781663
 21
120.0772481631701
 31
0.0
  0
LINE
  5
18D1
330
18
100
AcDbEntity
  8
2
  6
Continuous
100
AcDbLine
 10
269.1449136019151
 20
120.7537483531599
 30
0.0
 11
264.7449146978518
 21
120.7537483531599
 31
0.0
  0
LINE
  5
18D2
330
18
100
AcDbEntity
  8
1
  6
Continuous
100
AcDbLine
 10
257.9449132606785
 20
121.398464199369
 30
0.0
 11
257.1449132226806
 21
121.398464199369
 31
0.0
  0
LINE
  5
18D3
330
18
100
AcDbEntity
  8
1
  6
Continuous
100
AcDbLine
 10
257.9449132606785
 20
121.1576880917234
 30
0.0
 11
257.1449132226806
 21
121.1576880917234
 31
0.0
  0
LINE
  5
18D4
330
18
100
AcDbEntity
  8
1
  6
Continuous
100
AcDbLine
 10
257.9449132606785
 20
119.1275006497535
 30
0.0
 11
257.1449132226806
 21
119.1275006497535
 31
0.0
  0
LINE
  5
18D5
330
18
100
AcDbEntity
  8
1
  6
Continuous
100
AcDbLine
 10
257.9449132606785
 20
117.6100913184072
 30
0.0
 11
257.1449132226806
 21
117.6100913184072
 31
0.0
  0
LINE
  5
18D6
330
18
100
AcDbEntity
  8
1
  6
Continuous
100
AcDbLine
 10
257.9449132606785
 20
118.9452604457274
 30
0.0
 11
257.1449132226806
 21
118.9452604457274
 31
0.0
  0
LINE
  5
18D7
330
18
100
AcDbEntity
  8
1
  6
Continuous
100
AcDbLine
 10
257.9449132606785
 20
117.5141314370519
 30
0.0
 11
257.1449132226806
 21
117.5141314370519
 31
0.0
  0
LINE
  5
18D8
330
18
100
AcDbEntity
  8
1
  6
Continuous
100
AcDbLine
 10
257.9449132606785
 20
117.0772480206778
 30
0.0
 11
257.1449132226806
 21
117.0772480206777
 31
0.0
  0
LINE
  5
18D9
330
18
100
AcDbEntity
  8
1
  6
Continuous
100
AcDbLine
 10
258.401897574453
 20
116.5716948470763
 30
0.0
 11
257.9449125279577
 21
117.8272509433505
 31
0.0
  0
ARC
  5
18DA
330
18
100
AcDbEntity
  8
1
  6
Continuous
100
AcDbCircle
 10
263.029688672732
 20
118.4480833110672
 30
0.0
 40
4.993724473487294
100
AcDbArc
 50
157.929368420658
 51
202.0706315793557
  0
LINE
  5
18DB
330
18
100
AcDbEntity
  8
1
  6
Continuous
100
AcDbLine
 10
255.1449129369508
 20
120.0772481631701
 30
0.0
 11
257.1449132226806
 21
120.0772481631701
 31
0.0
  0
LINE
  5
18DC
330
18
100
AcDbEntity
  8
2
  6
Continuous
100
AcDbLine
 10
257.1449132226806
 20
120.7537483531599
 30
0.0
 11
255.1449129369508
 21
120.7537483531599
 31
0.0
  0
LINE
  5
18DD
330
18
100
AcDbEntity
  8
1
  6
Continuous
100
AcDbLine
 10
264.2879296513564
 20
131.5828025589968
 30
0.0
 11
258.4018975744531
 21
131.5828025589968
 31
0.0
  0
LINE
  5
18DE
330
18
100
AcDbEntity
  8
1
  6
Continuous
100
AcDbLine
 10
264.2879296513565
 20
127.8300256310166
 30
0.0
 11
258.401897574453
 21
127.8300256310166
 31
0.0
  0
LINE
  5
18DF
330
18
100
AcDbEntity
  8
1
  6
Continuous
100
AcDbLine
 10
264.7449146978518
 20
130.3272464627221
 30
0.0
 11
264.2879296513564
 21
131.5828025589968
 31
0.0
  0
ARC
  5
18E0
330
18
100
AcDbEntity
  8
1
  6
Continuous
100
AcDbCircle
 10
259.6601385523314
 20
129.7064140950065
 30
0.0
 40
4.99372447417865
100
AcDbArc
 50
337.9293684238728
 51
22.07063157613217
  0
LINE
  5
18E1
330
18
100
AcDbEntity
  8
1
  6
Continuous
100
AcDbLine
 10
269.1450136019152
 20
127.577148519401
 30
0.0
 11
268.6449135781664
 21
128.0772485431497
 31
0.0
  0
LINE
  5
18E2
330
18
100
AcDbEntity
  8
1
  6
Continuous
100
AcDbLine
 10
268.6449135781664
 20
128.0772485431497
 30
0.0
 11
264.7449137743961
 21
128.0772485431497
 31
0.0
  0
LINE
  5
18E3
330
18
100
AcDbEntity
  8
2
  6
Continuous
100
AcDbLine
 10
269.1449136019151
 20
127.4007483531599
 30
0.0
 11
264.7449146978518
 21
127.4007483531599
 31
0.0
  0
LINE
  5
18E4
330
18
100
AcDbEntity
  8
1
  6
Continuous
100
AcDbLine
 10
252.6449128182072
 20
132.0772487331395
 30
0.0
 11
252.6449128182072
 21
132.5772487568882
 31
0.0
  0
LINE
  5
18E5
330
18
100
AcDbEntity
  8
1
  6
Continuous
100
AcDbLine
 10
257.9449132606785
 20
131.0772486856421
 30
0.0
 11
257.1449132226806
 21
131.0772486856421
 31
0.0
  0
LINE
  5
18E6
330
18
100
AcDbEntity
  8
1
  6
Continuous
100
AcDbLine
 10
257.9449132606785
 20
124.0772483531599
 30
0.0
 11
257.1449132226806
 21
124.0772483531599
 31
0.0
  0
LINE
  5
18E7
330
18
100
AcDbEntity
  8
1
  6
Continuous
100
AcDbLine
 10
257.9449132606785
 20
123.8145923216436
 30
0.0
 11
257.1449132226806
 21
123.8145923216436
 31
0.0
  0
LINE
  5
18E8
330
18
100
AcDbEntity
  8
1
  6
Continuous
100
AcDbLine
 10
257.9449132606785
 20
126.5114835513787
 30
0.0
 11
257.1449132226806
 21
126.5114835513787
 31
0.0
  0
LINE
  5
18E9
330
18
100
AcDbEntity
  8
1
  6
Continuous
100
AcDbLine
 10
257.9449132606785
 20
126.7560325069508
 30
0.0
 11
257.1449132226806
 21
126.7560325069508
 31
0.0
  0
LINE
  5
18EA
330
18
100
AcDbEntity
  8
1
  6
Continuous
100
AcDbLine
 10
257.9449132606785
 20
128.8377845385824
 30
0.0
 11
257.1449132226806
 21
128.8377845385824
 31
0.0
  0
LINE
  5
18EB
330
18
100
AcDbEntity
  8
1
  6
Continuous
100
AcDbLine
 10
257.9449132606785
 20
129.0269960565663
 30
0.0
 11
257.1449132226806
 21
129.0269960565663
 31
0.0
  0
LINE
  5
18EC
330
18
100
AcDbEntity
  8
1
  6
Continuous
100
AcDbLine
 10
257.9449132606785
 20
130.4393370459235
 30
0.0
 11
257.1449132226806
 21
130.4393370459235
 31
0.0
  0
LINE
  5
18ED
330
18
100
AcDbEntity
  8
1
  6
Continuous
100
AcDbLine
 10
257.9449132606785
 20
130.5444053879126
 30
0.0
 11
257.1449132226806
 21
130.5444053879126
 31
0.0
  0
ARC
  5
18EE
330
18
100
AcDbEntity
  8
1
  6
Continuous
100
AcDbCircle
 10
263.0296886734782
 20
129.7064140950065
 30
0.0
 40
4.99372447417865
100
AcDbArc
 50
157.9293684238677
 51
202.0706315761272
  0
LINE
  5
18EF
330
18
100
AcDbEntity
  8
1
  6
Continuous
100
AcDbLine
 10
257.9449125279577
 20
130.3272464627221
 30
0.0
 11
258.4018975744531
 21
131.5828025589968
 31
0.0
  0
LINE
  5
18F0
330
18
100
AcDbEntity
  8
1
  6
Continuous
100
AcDbLine
 10
257.1449132226806
 20
128.0772485431497
 30
0.0
 11
255.1449129369508
 21
128.0772485431497
 31
0.0
  0
LINE
  5
18F1
330
18
100
AcDbEntity
  8
2
  6
Continuous
100
AcDbLine
 10
257.1449132226806
 20
127.4007483531599
 30
0.0
 11
255.1449129369508
 21
127.4007483531599
 31
0.0
  0
LINE
  5
18F2
330
18
100
AcDbEntity
  8
1
  6
Continuous
100
AcDbLine
 10
255.1449129369508
 20
149.0772495405961
 30
0.0
 11
255.1449129369508
 21
165.0772503005553
 31
0.0
  0
LINE
  5
18F3
330
18
100
AcDbEntity
  8
1
  6
Continuous
100
AcDbLine
 10
257.1449132226806
 20
164.0772502530579
 30
0.0
 11
257.1449132226806
 21
150.0772495880936
 31
0.0
  0
LINE
  5
18F4
330
18
100
AcDbEntity
  8
1
  6
Continuous
100
AcDbLine
 10
257.9449132606786
 20
150.0772495880934
 30
0.0
 11
257.9449132606785
 21
164.0772502530579
 31
0.0
  0
ARC
  5
18F5
330
18
100
AcDbEntity
  8
1
  6
Continuous
100
AcDbCircle
 10
277.4613416292749
 20
157.0772495706988
 30
0.0
 40
19.4253891170823
100
AcDbArc
 50
168.8610342830522
 51
191.1389657169426
  0
LINE
  5
18F6
330
18
100
AcDbEntity
  8
1
  6
Continuous
100
AcDbLine
 10
268.6449135781664
 20
153.0772497305859
 30
0.0
 11
268.6449135781663
 21
161.0772501105655
 31
0.0
  0
LINE
  5
18F7
330
18
100
AcDbEntity
  8
1
  6
Continuous
100
AcDbLine
 10
269.1449136019151
 20
153.5772497543346
 30
0.0
 11
269.1449136019151
 21
160.5772500868168
 31
0.0
  0
LINE
  5
18F8
330
18
100
AcDbEntity
  8
1
  6
Continuous
100
AcDbLine
 10
264.7449146978518
 20
163.3272473303851
 30
0.0
 11
264.7449146978518
 21
150.8272518110136
 31
0.0
  0
ARC
  5
18F9
330
18
100
AcDbEntity
  8
1
  6
Continuous
100
AcDbCircle
 10
245.2284855965347
 20
157.0772495706988
 30
0.0
 40
19.4253891170823
100
AcDbArc
 50
348.8610342830574
 51
11.13896571694776
  0
LINE
  5
18FA
330
18
100
AcDbEntity
  8
1
  6
Continuous
100
AcDbLine
 10
264.2879296513565
 20
153.324472642719
 30
0.0
 11
258.401897574453
 21
153.324472642719
 31
0.0
  0
LINE
  5
18FB
330
18
100
AcDbEntity
  8
1
  6
Continuous
100
AcDbLine
 10
264.2879296513564
 20
149.5716957147389
 30
0.0
 11
258.4018975744531
 21
149.5716957147389
 31
0.0
  0
ARC
  5
18FC
330
18
100
AcDbEntity
  8
1
  6
Continuous
100
AcDbCircle
 10
259.6601385523314
 20
151.4480841787291
 30
0.0
 40
4.99372447417865
100
AcDbArc
 50
337.9293684238678
 51
22.07063157612715
  0
LINE
  5
18FD
330
18
100
AcDbEntity
  8
1
  6
Continuous
100
AcDbLine
 10
264.7449146978518
 20
150.8272518110135
 30
0.0
 11
264.2879296513564
 21
149.5716957147389
 31
0.0
  0
LINE
  5
18FE
330
18
100
AcDbEntity
  8
1
  6
Continuous
100
AcDbLine
 10
269.1450136019152
 20
153.5773497543346
 30
0.0
 11
268.6449135781664
 21
153.077249730586
 31
0.0
  0
LINE
  5
18FF
330
18
100
AcDbEntity
  8
2
  6
Continuous
100
AcDbLine
 10
269.1449136019151
 20
153.7537499205758
 30
0.0
 11
264.7449146978518
 21
153.7537499205758
 31
0.0
  0
LINE
  5
1900
330
18
100
AcDbEntity
  8
1
  6
Continuous
100
AcDbLine
 10
268.6449135781664
 20
153.077249730586
 30
0.0
 11
264.7449137743961
 21
153.077249730586
 31
0.0
  0
LINE
  5
1901
330
18
100
AcDbEntity
  8
1
  6
Continuous
100
AcDbLine
 10
252.6449128182072
 20
149.0772495405961
 30
0.0
 11
252.6449128182072
 21
148.5772495168474
 31
0.0
  0
LINE
  5
1902
330
18
100
AcDbEntity
  8
1
  6
Continuous
100
AcDbLine
 10
257.9449132606786
 20
150.0772495880934
 30
0.0
 11
257.1449132226806
 21
150.0772495880936
 31
0.0
  0
LINE
  5
1903
330
18
100
AcDbEntity
  8
1
  6
Continuous
100
AcDbLine
 10
257.9449125279577
 20
150.8272518110135
 30
0.0
 11
258.4018975744531
 21
149.5716957147389
 31
0.0
  0
ARC
  5
1904
330
18
100
AcDbEntity
  8
1
  6
Continuous
100
AcDbCircle
 10
263.0296886734782
 20
151.4480841787291
 30
0.0
 40
4.99372447417865
100
AcDbArc
 50
157.9293684238728
 51
202.0706315761321
  0
LINE
  5
1905
330
18
100
AcDbEntity
  8
1
  6
Continuous
100
AcDbLine
 10
257.9449132606785
 20
150.6100928858231
 30
0.0
 11
257.1449132226806
 21
150.6100928858231
 31
0.0
  0
LINE
  5
1906
330
18
100
AcDbEntity
  8
1
  6
Continuous
100
AcDbLine
 10
257.9449132606785
 20
150.7151612278121
 30
0.0
 11
257.1449132226806
 21
150.7151612278121
 31
0.0
  0
LINE
  5
1907
330
18
100
AcDbEntity
  8
1
  6
Continuous
100
AcDbLine
 10
257.9449132606785
 20
152.1275022171693
 30
0.0
 11
257.1449132226806
 21
152.1275022171693
 31
0.0
  0
LINE
  5
1908
330
18
100
AcDbEntity
  8
1
  6
Continuous
100
AcDbLine
 10
257.9449132606785
 20
152.3167137351533
 30
0.0
 11
257.1449132226806
 21
152.3167137351533
 31
0.0
  0
LINE
  5
1909
330
18
100
AcDbEntity
  8
1
  6
Continuous
100
AcDbLine
 10
257.9449132606785
 20
154.3984657667849
 30
0.0
 11
257.1449132226806
 21
154.3984657667849
 31
0.0
  0
LINE
  5
190A
330
18
100
AcDbEntity
  8
1
  6
Continuous
100
AcDbLine
 10
257.9449132606785
 20
154.6430147223569
 30
0.0
 11
257.1449132226806
 21
154.6430147223569
 31
0.0
  0
LINE
  5
190B
330
18
100
AcDbEntity
  8
2
  6
Continuous
100
AcDbLine
 10
257.1449132226806
 20
153.7537499205758
 30
0.0
 11
255.1449129369508
 21
153.7537499205758
 31
0.0
  0
LINE
  5
190C
330
18
100
AcDbEntity
  8
1
  6
Continuous
100
AcDbLine
 10
257.1449132226806
 20
153.077249730586
 30
0.0
 11
255.1449129369508
 21
153.077249730586
 31
0.0
  0
LINE
  5
190D
330
18
100
AcDbEntity
  8
1
  6
Continuous
100
AcDbLine
 10
264.2879296513563
 20
164.5828034266593
 30
0.0
 11
258.4018975744533
 21
164.5828034266593
 31
0.0
  0
LINE
  5
190E
330
18
100
AcDbEntity
  8
1
  6
Continuous
100
AcDbLine
 10
264.2879296513563
 20
160.8300264986804
 30
0.0
 11
258.4018975744531
 21
160.8300264986804
 31
0.0
  0
LINE
  5
190F
330
18
100
AcDbEntity
  8
1
  6
Continuous
100
AcDbLine
 10
264.2879296513565
 20
164.5828034266593
 30
0.0
 11
264.7449146978518
 21
163.3272473303851
 31
0.0
  0
ARC
  5
1910
330
18
100
AcDbEntity
  8
1
  6
Continuous
100
AcDbCircle
 10
259.6601385530775
 20
162.7064149626685
 30
0.0
 40
4.993724473487294
100
AcDbArc
 50
337.929368420658
 51
22.07063157935571
  0
LINE
  5
1911
330
18
100
AcDbEntity
  8
1
  6
Continuous
100
AcDbLine
 10
268.6449135781664
 20
161.0772501105656
 30
0.0
 11
269.1449136019151
 21
160.5772500868168
 31
0.0
  0
LINE
  5
1912
330
18
100
AcDbEntity
  8
2
  6
Continuous
100
AcDbLine
 10
269.1449136019151
 20
160.4007499205757
 30
0.0
 11
264.7449146978518
 21
160.4007499205757
 31
0.0
  0
LINE
  5
1913
330
18
100
AcDbEntity
  8
1
  6
Continuous
100
AcDbLine
 10
264.7449137743961
 20
161.0772501105656
 30
0.0
 11
268.6449135781663
 21
161.0772501105655
 31
0.0
  0
LINE
  5
1914
330
18
100
AcDbEntity
  8
2
  6
Continuous
100
AcDbLine
 10
257.1449132226806
 20
160.4007499205757
 30
0.0
 11
255.1449129369508
 21
160.4007499205757
 31
0.0
  0
ARC
  5
1915
330
18
100
AcDbEntity
  8
1
  6
Continuous
100
AcDbCircle
 10
263.029688672732
 20
162.7064149626685
 30
0.0
 40
4.993724473487294
100
AcDbArc
 50
157.9293684206442
 51
202.0706315793419
  0
LINE
  5
1916
330
18
100
AcDbEntity
  8
1
  6
Continuous
100
AcDbLine
 10
258.401897574453
 20
164.5828034266593
 30
0.0
 11
257.9449125279577
 21
163.3272473303851
 31
0.0
  0
LINE
  5
1917
330
18
100
AcDbEntity
  8
1
  6
Continuous
100
AcDbLine
 10
257.9449132606785
 20
164.0772502530579
 30
0.0
 11
257.1449132226806
 21
164.0772502530579
 31
0.0
  0
LINE
  5
1918
330
18
100
AcDbEntity
  8
1
  6
Continuous
100
AcDbLine
 10
257.9449132606785
 20
163.6403668366837
 30
0.0
 11
257.1449132226806
 21
163.6403668366837
 31
0.0
  0
LINE
  5
1919
330
18
100
AcDbEntity
  8
1
  6
Continuous
100
AcDbLine
 10
257.9449132606785
 20
162.2092378280083
 30
0.0
 11
257.1449132226806
 21
162.2092378280083
 31
0.0
  0
LINE
  5
191A
330
18
100
AcDbEntity
  8
1
  6
Continuous
100
AcDbLine
 10
257.9449132606785
 20
163.5444069553284
 30
0.0
 11
257.1449132226806
 21
163.5444069553284
 31
0.0
  0
LINE
  5
191B
330
18
100
AcDbEntity
  8
1
  6
Continuous
100
AcDbLine
 10
257.9449132606785
 20
162.0269976239821
 30
0.0
 11
257.1449132226806
 21
162.0269976239821
 31
0.0
  0
LINE
  5
191C
330
18
100
AcDbEntity
  8
1
  6
Continuous
100
AcDbLine
 10
257.9449132606785
 20
159.9968101820123
 30
0.0
 11
257.1449132226806
 21
159.9968101820123
 31
0.0
  0
LINE
  5
191D
330
18
100
AcDbEntity
  8
1
  6
Continuous
100
AcDbLine
 10
257.9449132606785
 20
159.7560340743666
 30
0.0
 11
257.1449132226806
 21
159.7560340743666
 31
0.0
  0
LINE
  5
191E
330
18
100
AcDbEntity
  8
1
  6
Continuous
100
AcDbLine
 10
257.9449132606785
 20
157.339905952092
 30
0.0
 11
257.1449132226806
 21
157.339905952092
 31
0.0
  0
LINE
  5
191F
330
18
100
AcDbEntity
  8
1
  6
Continuous
100
AcDbLine
 10
257.9449132606785
 20
157.0772499205757
 30
0.0
 11
257.1449132226806
 21
157.0772499205757
 31
0.0
  0
LINE
  5
1920
330
18
100
AcDbEntity
  8
1
  6
Continuous
100
AcDbLine
 10
255.1449129369508
 20
161.0772501105656
 30
0.0
 11
257.1449132226806
 21
161.0772501105656
 31
0.0
  0
LINE
  5
1921
330
18
100
AcDbEntity
  8
4
  6
CENTER
 48
0.2
100
AcDbLine
 10
245.1449124619763
 20
168.0772503005553
 30
0.0
 11
245.1449124619763
 21
113.0772479731803
 31
0.0
  0
LINE
  5
1925
330
18
100
AcDbEntity
  8
1
  6
Continuous
100
AcDbLine
 10
237.1449120819967
 20
132.5772487568882
 30
0.0
 11
237.1449120819967
 21
148.5772495168474
 31
0.0
  0
LINE
  5
1927
330
18
100
AcDbEntity
  8
1
  6
Continuous
100
AcDbLine
 10
237.1449120819967
 20
132.0772487331395
 30
0.0
 11
237.1449120819967
 21
116.0772479731803
 31
0.0
  0
LINE
  5
1928
330
18
100
AcDbEntity
  8
1
  6
Continuous
100
AcDbLine
 10
240.6449122482377
 20
132.0772487331395
 30
0.0
 11
240.6449122482377
 21
116.0772479731803
 31
0.0
  0
LINE
  5
192A
330
18
100
AcDbEntity
  8
1
  6
Continuous
100
AcDbLine
 10
237.6449121057454
 20
132.5772487568882
 30
0.0
 11
237.6449121057454
 21
132.0772487331395
 31
0.0
  0
LINE
  5
192B
330
18
100
AcDbEntity
  8
1
  6
Continuous
100
AcDbLine
 10
240.6449122482377
 20
149.0772495405962
 30
0.0
 11
240.6449122482377
 21
165.0772503005554
 31
0.0
  0
LINE
  5
192C
330
18
100
AcDbEntity
  8
1
  6
Continuous
100
AcDbLine
 10
237.1449120819967
 20
149.0772495405962
 30
0.0
 11
237.1449120819967
 21
165.0772503005554
 31
0.0
  0
LINE
  5
192D
330
18
100
AcDbEntity
  8
1
  6
Continuous
100
AcDbLine
 10
237.6449121057454
 20
148.5772495168474
 30
0.0
 11
237.6449121057454
 21
149.0772495405961
 31
0.0
  0
LINE
  5
192F
330
18
100
AcDbEntity
  8
1
  6
Continuous
100
AcDbLine
 10
237.6393589558932
 20
140.5772491368679
 30
0.0
 11
241.3921358838734
 21
134.0772488281342
 31
0.0
  0
LINE
  5
1930
330
18
100
AcDbEntity
  8
1
  6
Continuous
100
AcDbLine
 10
248.8976897398333
 20
134.0772488281342
 30
0.0
 11
252.6504666678134
 21
140.5772491368677
 31
0.0
  0
ARC
  5
1931
330
18
100
AcDbEntity
  8
1
  6
Continuous
100
AcDbCircle
 10
245.1449124619763
 20
140.5772491368676
 30
0.0
 40
7.000000332482057
100
AcDbArc
 50
272.1503735594842
 51
291.7669276430737
  0
LINE
  5
1932
330
18
100
AcDbEntity
  8
1
  6
Continuous
100
AcDbLine
 10
241.3921358838734
 20
134.0772488281343
 30
0.0
 11
248.8976897398331
 21
134.0772488281343
 31
0.0
  0
LINE
  5
1933
330
18
100
AcDbEntity
  8
1
  6
Continuous
100
AcDbLine
 10
242.7106772637575
 20
134.0141322207597
 30
0.0
 11
242.7275893077324
 21
134.0772488281343
 31
0.0
  0
LINE
  5
1934
330
18
100
AcDbEntity
  8
1
  6
Continuous
100
AcDbLine
 10
245.4075684934926
 20
133.5821782677586
 30
0.0
 11
245.3423912177371
 21
134.0772488281343
 31
0.0
  0
LINE
  5
1935
330
18
100
AcDbEntity
  8
1
  6
Continuous
100
AcDbLine
 10
245.1449124619763
 20
134.0772488281343
 30
0.0
 11
245.1449124619763
 21
133.5772488043855
 31
0.0
  0
ARC
  5
1936
330
18
100
AcDbEntity
  8
1
  6
Continuous
100
AcDbCircle
 10
245.1449124619763
 20
140.5772491368677
 30
0.0
 40
7.00000033248221
100
AcDbArc
 50
249.6503735594867
 51
269.9999999999996
  0
CIRCLE
  5
1937
330
18
100
AcDbEntity
  8
2
  6
Continuous
100
AcDbCircle
 10
245.1449124619763
 20
140.5772491368677
 30
0.0
 40
3.323499999999909
  0
ARC
  5
1938
330
18
100
AcDbEntity
  8
1
  6
Continuous
100
AcDbCircle
 10
245.1449124619762
 20
140.5772491368676
 30
0.0
 40
7.00000033248221
100
AcDbArc
 50
69.65037355948672
 51
89.9999999999996
  0
LINE
  5
1939
330
18
100
AcDbEntity
  8
1
  6
Continuous
100
AcDbLine
 10
241.3921358838734
 20
147.0772494456011
 30
0.0
 11
248.8976897398331
 21
147.0772494456011
 31
0.0
  0
CIRCLE
  5
193B
330
18
100
AcDbEntity
  8
1
  6
Continuous
100
AcDbCircle
 10
245.1449124619763
 20
140.5772491368677
 30
0.0
 40
4.000000189989819
  0
CIRCLE
  5
193C
330
18
100
AcDbEntity
  8
1
  6
Continuous
100
AcDbCircle
 10
245.1449124619763
 20
140.5772491368677
 30
0.0
 40
6.249999946983193
  0
ARC
  5
193D
330
18
100
AcDbEntity
  8
1
  6
Continuous
100
AcDbCircle
 10
245.1449124619762
 20
140.5772491368676
 30
0.0
 40
7.000000332482303
100
AcDbArc
 50
47.15037355948783
 51
51.62362644316756
  0
LINE
  5
193E
330
18
100
AcDbEntity
  8
1
  6
Continuous
100
AcDbLine
 10
248.897689739833
 20
147.0772494456011
 30
0.0
 11
252.6504666678132
 21
140.5772491368676
 31
0.0
  0
ARC
  5
193F
330
18
100
AcDbEntity
  8
1
  6
Continuous
100
AcDbCircle
 10
245.1449124619764
 20
140.5772491368677
 30
0.0
 40
7.000000332482057
100
AcDbArc
 50
8.220500954647818
 51
22.49999999999864
  0
ARC
  5
1940
330
18
100
AcDbEntity
  8
1
  6
Continuous
100
AcDbCircle
 10
245.1449124619762
 20
140.5772491368677
 30
0.0
 40
7.00000033248221
100
AcDbArc
 50
339.6503735594873
 51
351.7691452758231
  0
LINE
  5
1941
330
18
100
AcDbEntity
  8
1
  6
Continuous
100
AcDbLine
 10
251.2019487737815
 20
138.068342548732
 30
0.0
 11
251.6120694967289
 21
137.8984649830769
 31
0.0
  0
LINE
  5
1942
330
18
100
AcDbEntity
  8
1
  6
Continuous
100
AcDbLine
 10
251.7080293780843
 20
138.1430139386488
 30
0.0
 11
251.3070864133539
 21
138.2504462822593
 31
0.0
  0
LINE
  5
1943
330
18
100
AcDbEntity
  8
1
  6
Continuous
100
AcDbLine
 10
250.2769003694088
 20
135.8167129514452
 30
0.0
 11
250.0170761993256
 21
136.0160830492794
 31
0.0
  0
LINE
  5
1944
330
18
100
AcDbEntity
  8
1
  6
Continuous
100
AcDbLine
 10
249.9032431589958
 20
135.8189184398483
 30
0.0
 11
250.0946601653826
 21
135.6275014334614
 31
0.0
  0
ARC
  5
1945
330
18
100
AcDbEntity
  8
1
  6
Continuous
100
AcDbCircle
 10
245.1449124619762
 20
140.5772491368677
 30
0.0
 40
7.000000332482303
100
AcDbArc
 50
317.1503735594876
 51
337.5000000000013
  0
ARC
  5
1946
330
18
100
AcDbEntity
  8
1
  6
Continuous
100
AcDbCircle
 10
245.1449124619762
 20
140.5772491368676
 30
0.0
 40
7.00000033248229
100
AcDbArc
 50
24.6503735594868
 51
45.0
  0
LINE
  5
1947
330
18
100
AcDbEntity
  8
1
  6
Continuous
100
AcDbLine
 10
249.9032431589956
 20
145.335579833887
 30
0.0
 11
250.0946601653826
 21
145.526996840274
 31
0.0
  0
LINE
  5
1948
330
18
100
AcDbEntity
  8
1
  6
Continuous
100
AcDbLine
 10
249.9054486473988
 20
145.7092370443002
 30
0.0
 11
249.7810852597047
 21
145.5471635220048
 31
0.0
  0
LINE
  5
1949
330
18
100
AcDbEntity
  8
1
  6
Continuous
100
AcDbLine
 10
251.50700115474
 20
143.4968093983042
 30
0.0
 11
251.100393612403
 21
143.2620544242814
 31
0.0
  0
LINE
  5
194A
330
18
100
AcDbEntity
  8
1
  6
Continuous
100
AcDbLine
 10
251.2019487737813
 20
143.0861557250034
 30
0.0
 11
251.6120694967289
 21
143.2560332906585
 31
0.0
  0
ARC
  5
194B
330
18
100
AcDbEntity
  8
1
  6
Continuous
100
AcDbCircle
 10
245.1449124619762
 20
140.5772491368677
 30
0.0
 40
7.00000033248229
100
AcDbArc
 50
308.3637430025267
 51
314.9999999999997
  0
LINE
  5
194C
330
18
100
AcDbEntity
  8
1
  6
Continuous
100
AcDbLine
 10
247.5791476601952
 20
147.1403660529757
 30
0.0
 11
247.5622356162201
 21
147.0772494456011
 31
0.0
  0
LINE
  5
194D
330
18
100
AcDbEntity
  8
1
  6
Continuous
100
AcDbLine
 10
237.6393589558911
 20
140.5772491368677
 30
0.0
 11
241.3921358838717
 21
147.0772494456021
 31
0.0
  0
ARC
  5
194E
330
18
100
AcDbEntity
  8
1
  6
Continuous
100
AcDbCircle
 10
245.1449124619764
 20
140.5772491368676
 30
0.0
 40
7.00000033248229
100
AcDbArc
 50
128.3637285171728
 51
134.9999999999997
  0
ARC
  5
194F
330
18
100
AcDbEntity
  8
1
  6
Continuous
100
AcDbCircle
 10
245.1449124619764
 20
140.5772491368676
 30
0.0
 40
7.00000033248221
100
AcDbArc
 50
159.6503735594873
 51
171.7691606438962
  0
ARC
  5
1950
330
18
100
AcDbEntity
  8
1
  6
Continuous
100
AcDbCircle
 10
245.1449124619762
 20
140.5772491368677
 30
0.0
 40
7.000000332482057
100
AcDbArc
 50
188.2204891175938
 51
202.4999999999986
  0
LINE
  5
1951
330
18
100
AcDbEntity
  8
1
  6
Continuous
100
AcDbLine
 10
239.0878767148777
 20
138.068342782641
 30
0.0
 11
238.6777554272237
 21
137.8984649830769
 31
0.0
  0
LINE
  5
1952
330
18
100
AcDbEntity
  8
1
  6
Continuous
100
AcDbLine
 10
238.7828237692126
 20
137.6576888754312
 30
0.0
 11
239.189431836365
 21
137.8924441524563
 31
0.0
  0
LINE
  5
1953
330
18
100
AcDbEntity
  8
1
  6
Continuous
100
AcDbLine
 10
240.3843762765538
 20
135.4452612294352
 30
0.0
 11
240.5087400635556
 21
135.6073352721185
 31
0.0
  0
LINE
  5
1954
330
18
100
AcDbEntity
  8
1
  6
Continuous
100
AcDbLine
 10
240.3865822085831
 20
135.8189188834745
 30
0.0
 11
240.1951647585701
 21
135.6275014334614
 31
0.0
  0
ARC
  5
1955
330
18
100
AcDbEntity
  8
1
  6
Continuous
100
AcDbCircle
 10
245.1449124619764
 20
140.5772491368677
 30
0.0
 40
7.00000033248229
100
AcDbArc
 50
204.6503735594868
 51
225.0
  0
ARC
  5
1956
330
18
100
AcDbEntity
  8
1
  6
Continuous
100
AcDbCircle
 10
245.1449124619764
 20
140.5772491368676
 30
0.0
 40
7.000000332482303
100
AcDbArc
 50
137.1503735594876
 51
157.5000000000013
  0
LINE
  5
1957
330
18
100
AcDbEntity
  8
1
  6
Continuous
100
AcDbLine
 10
240.3865822085817
 20
145.3355793902623
 30
0.0
 11
240.1951647585701
 21
145.526996840274
 31
0.0
  0
LINE
  5
1958
330
18
100
AcDbEntity
  8
1
  6
Continuous
100
AcDbLine
 10
240.0129245545438
 20
145.3377853222901
 30
0.0
 11
240.27274920955
 21
145.1384148523616
 31
0.0
  0
LINE
  5
1959
330
18
100
AcDbEntity
  8
1
  6
Continuous
100
AcDbLine
 10
238.5817955458683
 20
143.0114843350866
 30
0.0
 11
238.9827391166015
 21
142.9040518290982
 31
0.0
  0
LINE
  5
195A
330
18
100
AcDbEntity
  8
1
  6
Continuous
100
AcDbLine
 10
239.0878767148759
 20
143.0861554910951
 30
0.0
 11
238.6777554272237
 21
143.2560332906585
 31
0.0
  0
ARC
  5
195B
330
18
100
AcDbEntity
  8
1
  6
Continuous
100
AcDbCircle
 10
245.1449124619764
 20
140.5772491368677
 30
0.0
 40
7.000000332482303
100
AcDbArc
 50
227.1503735594878
 51
231.623640805952
  0
LINE
  5
195C
330
18
100
AcDbEntity
  8
1
  6
Continuous
100
AcDbLine
 10
244.88225643046
 20
147.5723200059768
 30
0.0
 11
244.9474337062155
 21
147.0772494456011
 31
0.0
  0
LINE
  5
195D
330
18
100
AcDbEntity
  8
1
  6
Continuous
100
AcDbLine
 10
245.1449124619763
 20
147.0772494456011
 30
0.0
 11
245.1449124619763
 21
147.5772494693499
 31
0.0
  0
ARC
  5
195E
330
18
100
AcDbEntity
  8
1
  6
Continuous
100
AcDbCircle
 10
245.1449124619763
 20
140.5772491368677
 30
0.0
 40
7.000000332482057
100
AcDbArc
 50
92.15037355948423
 51
111.7669276430736
  0
ENDSEC
  0
SECTION
  2
OBJECTS
  0
DICTIONARY
  5
C
330
0
100
AcDbDictionary
281
     1
  3
ACAD_CIP_PREVIOUS_PRODUCT_INFO
350
1ACF
  3
ACAD_COLOR
350
1AB2
  3
ACAD_DETAILVIEWSTYLE
350
1ACB
  3
ACAD_GROUP
350
D
  3
ACAD_LAYOUT
350
94
  3
ACAD_MATERIAL
350
1A80
  3
ACAD_MLEADERSTYLE
350
1AC7
  3
ACAD_MLINESTYLE
350
1B
  3
ACAD_PLOTSETTINGS
350
95
  3
ACAD_PLOTSTYLENAME
350
1A7E
  3
ACAD_SCALELIST
350
1AB5
  3
ACAD_SECTIONVIEWSTYLE
350
1AC9
  3
ACAD_TABLESTYLE
350
1AB3
  3
ACAD_VISUALSTYLE
350
1A99
  3
ACDB_RECOMPOSE_DATA
350
1AED
  3
AcDbVariableDictionary
350
1AE0
  3
CONTENTDICTIONARY
350
3D
  3
DWGPROPS
350
1AEE
  0
DICTIONARY
  5
1AD0
330
E
100
AcDbDictionary
280
     1
281
     1
  3
ADSK_XREC_LAYER_RECONCILED
360
1AD1
  0
DICTIONARY
  5
1AD2
330
4E
100
AcDbDictionary
280
     1
281
     1
  3
ADSK_XREC_LAYER_RECONCILED
360
1AD3
  0
DICTIONARY
  5
1AD4
330
4F
100
AcDbDictionary
280
     1
281
     1
  3
ADSK_XREC_LAYER_RECONCILED
360
1AD5
  0
DICTIONARY
  5
1AD6
330
50
100
AcDbDictionary
280
     1
281
     1
  3
ADSK_XREC_LAYER_RECONCILED
360
1AD7
  0
DICTIONARY
  5
1AD8
330
51
100
AcDbDictionary
280
     1
281
     1
  3
ADSK_XREC_LAYER_RECONCILED
360
1AD9
  0
DICTIONARY
  5
1ADA
330
52
100
AcDbDictionary
280
     1
281
     1
  3
ADSK_XREC_LAYER_RECONCILED
360
1ADB
  0
DICTIONARY
  5
1ADC
330
53
100
AcDbDictionary
280
     1
281
     1
  3
ADSK_XREC_LAYER_RECONCILED
360
1ADD
  0
DICTIONARY
  5
1ADE
330
54
100
AcDbDictionary
280
     1
281
     1
  3
ADSK_XREC_LAYER_RECONCILED
360
1ADF
  0
DICTIONARY
  5
1A79
330
18
100
AcDbDictionary
281
     1
  3
ACAD_LAYOUTSELFREF
350
1A7A
  0
DICTIONARY
  5
1A77
330
15
100
AcDbDictionary
281
     1
  3
ACAD_LAYOUTSELFREF
350
1A78
  0
XRECORD
  5
1ACF
102
{ACAD_REACTORS
330
C
102
}
330
C
100
AcDbXrecord
280
     1
300
ACDLT
300
2014
300
ACDLT_F_S
  0
DICTIONARY
  5
1AB2
102
{ACAD_REACTORS
330
C
102
}
330
C
100
AcDbDictionary
281
     1
  0
DICTIONARY
  5
1ACB
102
{ACAD_REACTORS
330
C
102
}
330
C
100
AcDbDictionary
281
     1
  3
Imperial24
350
1ACC
  0
DICTIONARY
  5
D
102
{ACAD_REACTORS
330
C
102
}
330
C
100
AcDbDictionary
281
     1
  0
DICTIONARY
  5
94
102
{ACAD_REACTORS
330
C
102
}
330
C
100
AcDbDictionary
281
     1
  3
Model
350
1ACD
  3
レイアウト1
350
1ACE
  0
DICTIONARY
  5
1A80
102
{ACAD_REACTORS
330
C
102
}
330
C
100
AcDbDictionary
281
     1
  3
ByBlock
350
1A89
  3
ByLayer
350
1A81
  3
Global
350
1A91
  0
DICTIONARY
  5
1AC7
102
{ACAD_REACTORS
330
C
102
}
330
C
100
AcDbDictionary
281
     1
  3
Standard
350
1AC8
  0
DICTIONARY
  5
1B
102
{ACAD_REACTORS
330
C
102
}
330
C
100
AcDbDictionary
281
     1
  3
STANDARD
350
1C
  0
DICTIONARY
  5
95
102
{ACAD_REACTORS
330
C
102
}
330
C
100
AcDbDictionary
281
     1
  0
ACDBDICTIONARYWDFLT
  5
1A7E
102
{ACAD_REACTORS
330
C
102
}
330
C
100
AcDbDictionary
281
     1
  3
Normal
350
1A7F
100
AcDbDictionaryWithDefault
340
1A7F
  0
DICTIONARY
  5
1AB5
102
{ACAD_REACTORS
330
C
102
}
330
C
100
AcDbDictionary
281
     1
  3
A0
350
1AB6
  3
A1
350
1AB7
  3
A2
350
1AB8
  3
A3
350
1AB9
  3
A4
350
1ABA
  3
A5
350
1ABB
  3
A6
350
1ABC
  3
A7
350
1ABD
  3
A8
350
1ABE
  3
A9
350
1ABF
  3
B0
350
1AC0
  3
B1
350
1AC1
  3
B2
350
1AC2
  3
B3
350
1AC3
  3
B4
350
1AC4
  3
B5
350
1AC5
  3
B6
350
1AC6
  0
DICTIONARY
  5
1AC9
102
{ACAD_REACTORS
330
C
102
}
330
C
100
AcDbDictionary
281
     1
  3
Imperial24
350
1ACA
  0
DICTIONARY
  5
1AB3
102
{ACAD_REACTORS
330
C
102
}
330
C
100
AcDbDictionary
281
     1
  3
Standard
350
1AB4
  0
DICTIONARY
  5
1A99
102
{ACAD_REACTORS
330
C
102
}
330
C
100
AcDbDictionary
281
     1
  3
2dWireframe
350
1A9F
  3
Basic
350
1A9E
  3
Brighten
350
1AA5
  3
ColorChange
350
1AA9
  3
Conceptual
350
1AA2
  3
Dim
350
1AA4
  3
EdgeColorOff
350
1AB1
  3
Facepattern
350
1AA8
  3
Flat
350
1A9A
  3
FlatWithEdges
350
1A9B
  3
Gouraud
350
1A9C
  3
GouraudWithEdges
350
1A9D
  3
Hidden
350
1AA1
  3
JitterOff
350
1AAF
  3
Linepattern
350
1AA7
  3
OverhangOff
350
1AB0
  3
Realistic
350
1AA3
  3
Shaded
350
1AAE
  3
Shaded with edges
350
1AAD
  3
Shades of Gray
350
1AAA
  3
Sketchy
350
1AAB
  3
Thicken
350
1AA6
  3
Wireframe
350
1AA0
  3
X-Ray
350
1AAC
  0
XRECORD
  5
1AED
102
{ACAD_REACTORS
330
C
102
}
330
C
100
AcDbXrecord
280
     1
 90
        1
330
1AB4
  0
DICTIONARY
  5
1AE0
102
{ACAD_REACTORS
330
C
102
}
330
C
100
AcDbDictionary
281
     1
  3
CANNOSCALE
350
1AE5
  3
CMLEADERSTYLE
350
1AE2
  3
CTABLESTYLE
350
1AE1
  3
CVIEWDETAILSTYLE
350
1AE3
  3
CVIEWSECTIONSTYLE
350
1AE4
  3
DIMASSOC
350
1AE8
  3
INDEXCTL
350
1AE7
  3
SORTENTS
350
1AE6
  3
XCLIPFRAME
350
1AE9
  0
DICTIONARY
  5
3D
102
{ACAD_REACTORS
330
C
102
}
330
C
100
AcDbDictionary
281
     1
  0
XRECORD
  5
1AEE
102
{ACAD_REACTORS
330
C
102
}
330
C
100
AcDbXrecord
280
     1
  1
DWGPROPS COOKIE
  2

  3

  4

  6

  7

  8
Yoshitsune
  9

300
=
301
=
302
=
303
=
304
=
305
=
306
=
307
=
308
=
309
=
 40
0.0462418865740741
 41
2453768.66239022
 42
2457192.700924144
  1

 90
        0
  0
XRECORD
  5
1AD1
102
{ACAD_REACTORS
330
1AD0
102
}
330
1AD0
100
AcDbXrecord
280
     1
290
     1
  0
XRECORD
  5
1AD3
102
{ACAD_REACTORS
330
1AD2
102
}
330
1AD2
100
AcDbXrecord
280
     1
290
     1
  0
XRECORD
  5
1AD5
102
{ACAD_REACTORS
330
1AD4
102
}
330
1AD4
100
AcDbXrecord
280
     1
290
     1
  0
XRECORD
  5
1AD7
102
{ACAD_REACTORS
330
1AD6
102
}
330
1AD6
100
AcDbXrecord
280
     1
290
     1
  0
XRECORD
  5
1AD9
102
{ACAD_REACTORS
330
1AD8
102
}
330
1AD8
100
AcDbXrecord
280
     1
290
     1
  0
XRECORD
  5
1ADB
102
{ACAD_REACTORS
330
1ADA
102
}
330
1ADA
100
AcDbXrecord
280
     1
290
     1
  0
XRECORD
  5
1ADD
102
{ACAD_REACTORS
330
1ADC
102
}
330
1ADC
100
AcDbXrecord
280
     1
290
     1
  0
XRECORD
  5
1ADF
102
{ACAD_REACTORS
330
1ADE
102
}
330
1ADE
100
AcDbXrecord
280
     1
290
     1
  0
XRECORD
  5
1A7A
102
{ACAD_REACTORS
330
1A79
102
}
330
1A79
100
AcDbXrecord
280
     1
340
18
  0
XRECORD
  5
1A78
102
{ACAD_REACTORS
330
1A77
102
}
330
1A77
100
AcDbXrecord
280
     1
340
15
  0
ACDBDETAILVIEWSTYLE
  5
1ACC
102
{ACAD_XDICTIONARY
360
1B26
102
}
102
{ACAD_REACTORS
330
1ACB
102
}
330
1ACB
100
AcDbModelDocViewStyle
 70
     0
  3
Imperial24
290
     0
100
AcDbDetailViewStyle
 70
     0
 71
     0
 90
        3
 71
     1
340
F
 40
0.24
340
0
 40
0.24
300

 40
0.36
280
     3
 71
     2
340
14
 90
       25
 71
     3
340
F
 40
0.24
 90
        1
 40
0.75
 90
        1
300
%<\AcVar ViewType \f "%tc1">% %<\AcVar ViewDetailId>%\PSCALE %<\AcVar ViewScale \f "%sn">%
 71
     4
340
14
 90
       25
340
14
 90
       25
280
     0
  0
LAYOUT
  5
1ACD
102
{ACAD_XDICTIONARY
360
1B28
102
}
102
{ACAD_REACTORS
330
94
102
}
330
94
100
AcDbPlotSettings
  1

  2
Canon LBP9100C
  4

  6

 40
0.0
 41
0.0
 42
0.0
 43
0.0
 44
0.0
 45
0.0
 46
0.0
 47
0.0
 48
0.0
 49
0.0
140
0.0
141
0.0
142
1.0
143
1.0
 70
  1712
 72
     0
 73
     0
 74
     0
  7

 75
     0
147
1.0
148
0.0
149
0.0
100
AcDbLayout
  1
Model
 70
     1
 71
     0
 10
0.0
 20
0.0
 11
12.0
 21
9.0
 12
0.0
 22
0.0
 32
0.0
 14
0.0
 24
0.0
 34
0.0
 15
0.0
 25
0.0
 35
0.0
146
0.0
 13
0.0
 23
0.0
 33
0.0
 16
1.0
 26
0.0
 36
0.0
 17
0.0
 27
1.0
 37
0.0
 76
     0
330
18
331
1A76
  0
LAYOUT
  5
1ACE
102
{ACAD_XDICTIONARY
360
1B2A
102
}
102
{ACAD_REACTORS
330
94
102
}
330
94
100
AcDbPlotSettings
  1

  2
Canon LBP9100C
  4

  6

 40
0.0
 41
0.0
 42
0.0
 43
0.0
 44
0.0
 45
0.0
 46
0.0
 47
0.0
 48
0.0
 49
0.0
140
0.0
141
0.0
142
1.0
143
1.0
 70
   688
 72
     0
 73
     0
 74
     5
  7

 75
    16
147
1.0
148
0.0
149
0.0
100
AcDbLayout
  1
レイアウト1
 70
     1
 71
     1
 10
-3.757080078125
 20
-3.757083177566528
 11
293.2112426757812
 21
206.2162444591522
 12
0.0
 22
0.0
 32
0.0
 14
27.8447512626648
 24
20.24591643810271
 34
0.0
 15
250.6027613639831
 25
182.2132479429244
 35
0.0
146
0.0
 13
0.0
 23
0.0
 33
0.0
 16
1.0
 26
0.0
 36
0.0
 17
0.0
 27
1.0
 37
0.0
 76
     0
330
15
  0
MATERIAL
  5
1A89
102
{ACAD_XDICTIONARY
360
1A8A
102
}
102
{ACAD_REACTORS
330
1A80
102
}
330
1A80
100
AcDbMaterial
  1
ByBlock
 72
     0
 43
0.0208333333333333
 43
0.0
 43
0.0
 43
0.0
 43
0.0
 43
0.0208333333333333
 43
0.0
 43
0.0
 43
0.0
 43
0.0
 43
1.0
 43
0.0
 43
0.0
 43
0.0
 43
0.0
 43
1.0
 77
     0
 47
0.0208333333333333
 47
0.0
 47
0.0
 47
0.0
 47
0.0
 47
0.0208333333333333
 47
0.0
 47
0.0
 47
0.0
 47
0.0
 47
1.0
 47
0.0
 47
0.0
 47
0.0
 47
0.0
 47
1.0
171
     0
 49
0.0208333333333333
 49
0.0
 49
0.0
 49
0.0
 49
0.0
 49
0.0208333333333333
 49
0.0
 49
0.0
 49
0.0
 49
0.0
 49
1.0
 49
0.0
 49
0.0
 49
0.0
 49
0.0
 49
1.0
175
     0
142
0.0208333333333333
142
0.0
142
0.0
142
0.0
142
0.0
142
0.0208333333333333
142
0.0
142
0.0
142
0.0
142
0.0
142
1.0
142
0.0
142
0.0
142
0.0
142
0.0
142
1.0
179
     0
144
0.0208333333333333
144
0.0
144
0.0
144
0.0
144
0.0
144
0.0208333333333333
144
0.0
144
0.0
144
0.0
144
0.0
144
1.0
144
0.0
144
0.0
144
0.0
144
0.0
144
1.0
147
0.0208333333333333
147
0.0
147
0.0
147
0.0
147
0.0
147
0.0208333333333333
147
0.0
147
0.0
147
0.0
147
0.0
147
1.0
147
0.0
147
0.0
147
0.0
147
0.0
147
1.0
  0
MATERIAL
  5
1A81
102
{ACAD_XDICTIONARY
360
1A82
102
}
102
{ACAD_REACTORS
330
1A80
102
}
330
1A80
100
AcDbMaterial
  1
ByLayer
 72
     0
 43
0.0208333333333333
 43
0.0
 43
0.0
 43
0.0
 43
0.0
 43
0.0208333333333333
 43
0.0
 43
0.0
 43
0.0
 43
0.0
 43
1.0
 43
0.0
 43
0.0
 43
0.0
 43
0.0
 43
1.0
 77
     0
 47
0.0208333333333333
 47
0.0
 47
0.0
 47
0.0
 47
0.0
 47
0.0208333333333333
 47
0.0
 47
0.0
 47
0.0
 47
0.0
 47
1.0
 47
0.0
 47
0.0
 47
0.0
 47
0.0
 47
1.0
171
     0
 49
0.0208333333333333
 49
0.0
 49
0.0
 49
0.0
 49
0.0
 49
0.0208333333333333
 49
0.0
 49
0.0
 49
0.0
 49
0.0
 49
1.0
 49
0.0
 49
0.0
 49
0.0
 49
0.0
 49
1.0
175
     0
142
0.0208333333333333
142
0.0
142
0.0
142
0.0
142
0.0
142
0.0208333333333333
142
0.0
142
0.0
142
0.0
142
0.0
142
1.0
142
0.0
142
0.0
142
0.0
142
0.0
142
1.0
179
     0
144
0.0208333333333333
144
0.0
144
0.0
144
0.0
144
0.0
144
0.0208333333333333
144
0.0
144
0.0
144
0.0
144
0.0
144
1.0
144
0.0
144
0.0
144
0.0
144
0.0
144
1.0
147
0.0208333333333333
147
0.0
147
0.0
147
0.0
147
0.0
147
0.0208333333333333
147
0.0
147
0.0
147
0.0
147
0.0
147
1.0
147
0.0
147
0.0
147
0.0
147
0.0
147
1.0
  0
MATERIAL
  5
1A91
102
{ACAD_XDICTIONARY
360
1A92
102
}
102
{ACAD_REACTORS
330
1A80
102
}
330
1A80
100
AcDbMaterial
  1
Global
 72
     0
 43
0.0208333333333333
 43
0.0
 43
0.0
 43
0.0
 43
0.0
 43
0.0208333333333333
 43
0.0
 43
0.0
 43
0.0
 43
0.0
 43
1.0
 43
0.0
 43
0.0
 43
0.0
 43
0.0
 43
1.0
 77
     0
 47
0.0208333333333333
 47
0.0
 47
0.0
 47
0.0
 47
0.0
 47
0.0208333333333333
 47
0.0
 47
0.0
 47
0.0
 47
0.0
 47
1.0
 47
0.0
 47
0.0
 47
0.0
 47
0.0
 47
1.0
171
     0
 49
0.0208333333333333
 49
0.0
 49
0.0
 49
0.0
 49
0.0
 49
0.0208333333333333
 49
0.0
 49
0.0
 49
0.0
 49
0.0
 49
1.0
 49
0.0
 49
0.0
 49
0.0
 49
0.0
 49
1.0
175
     0
142
0.0208333333333333
142
0.0
142
0.0
142
0.0
142
0.0
142
0.0208333333333333
142
0.0
142
0.0
142
0.0
142
0.0
142
1.0
142
0.0
142
0.0
142
0.0
142
0.0
142
1.0
179
     0
144
0.0208333333333333
144
0.0
144
0.0
144
0.0
144
0.0
144
0.0208333333333333
144
0.0
144
0.0
144
0.0
144
0.0
144
1.0
144
0.0
144
0.0
144
0.0
144
0.0
144
1.0
147
0.0208333333333333
147
0.0
147
0.0
147
0.0
147
0.0
147
0.0208333333333333
147
0.0
147
0.0
147
0.0
147
0.0
147
1.0
147
0.0
147
0.0
147
0.0
147
0.0
147
1.0
  0
MLEADERSTYLE
  5
1AC8
102
{ACAD_REACTORS
330
1AC7
102
}
330
1AC7
100
AcDbMLeaderStyle
170
     2
171
     1
172
     0
 90
        2
 40
0.0
 41
0.0
173
     1
 91
-1056964608
340
12
 92
       -2
290
     1
 42
0.09
291
     1
 43
0.36
  3
Standard
 44
0.18
300

342
F
174
     1
178
     6
175
     1
176
     0
 93
-1056964608
 45
0.18
292
     0
297
     0
 46
0.18
 94
-1056964608
 47
1.0
 49
1.0
140
1.0
293
     1
141
0.0
294
     1
177
     0
142
1.0
295
     0
296
     0
143
0.125
1001
ACAD_MLEADERVER
1070
     2
  0
MLINESTYLE
  5
1C
102
{ACAD_REACTORS
330
1B
102
}
330
1B
100
AcDbMlineStyle
  2
STANDARD
 70
     0
  3

 62
   256
 51
90.0
 52
90.0
 71
     2
 49
0.5
 62
   256
  6
BYLAYER
 49
-0.5
 62
   256
  6
BYLAYER
  0
ACDBPLACEHOLDER
  5
1A7F
102
{ACAD_REACTORS
330
1A7E
102
}
330
1A7E
  0
SCALE
  5
1AB6
102
{ACAD_REACTORS
330
1AB5
102
}
330
1AB5
100
AcDbScale
 70
     0
300
1:1
140
1.0
141
1.0
290
     1
  0
SCALE
  5
1AB7
102
{ACAD_REACTORS
330
1AB5
102
}
330
1AB5
100
AcDbScale
 70
     0
300
1/128" = 1'-0"
140
0.0078125
141
12.0
290
     0
  0
SCALE
  5
1AB8
102
{ACAD_REACTORS
330
1AB5
102
}
330
1AB5
100
AcDbScale
 70
     0
300
1/64" = 1'-0"
140
0.015625
141
12.0
290
     0
  0
SCALE
  5
1AB9
102
{ACAD_REACTORS
330
1AB5
102
}
330
1AB5
100
AcDbScale
 70
     0
300
1/32" = 1'-0"
140
0.03125
141
12.0
290
     0
  0
SCALE
  5
1ABA
102
{ACAD_REACTORS
330
1AB5
102
}
330
1AB5
100
AcDbScale
 70
     0
300
1/16" = 1'-0"
140
0.0625
141
12.0
290
     0
  0
SCALE
  5
1ABB
102
{ACAD_REACTORS
330
1AB5
102
}
330
1AB5
100
AcDbScale
 70
     0
300
3/32" = 1'-0"
140
0.09375
141
12.0
290
     0
  0
SCALE
  5
1ABC
102
{ACAD_REACTORS
330
1AB5
102
}
330
1AB5
100
AcDbScale
 70
     0
300
1/8" = 1'-0"
140
0.125
141
12.0
290
     0
  0
SCALE
  5
1ABD
102
{ACAD_REACTORS
330
1AB5
102
}
330
1AB5
100
AcDbScale
 70
     0
300
3/16" = 1'-0"
140
0.1875
141
12.0
290
     0
  0
SCALE
  5
1ABE
102
{ACAD_REACTORS
330
1AB5
102
}
330
1AB5
100
AcDbScale
 70
     0
300
1/4" = 1'-0"
140
0.25
141
12.0
290
     0
  0
SCALE
  5
1ABF
102
{ACAD_REACTORS
330
1AB5
102
}
330
1AB5
100
AcDbScale
 70
     0
300
3/8" = 1'-0"
140
0.375
141
12.0
290
     0
  0
SCALE
  5
1AC0
102
{ACAD_REACTORS
330
1AB5
102
}
330
1AB5
100
AcDbScale
 70
     0
300
1/2" = 1'-0"
140
0.5
141
12.0
290
     0
  0
SCALE
  5
1AC1
102
{ACAD_REACTORS
330
1AB5
102
}
330
1AB5
100
AcDbScale
 70
     0
300
3/4" = 1'-0"
140
0.75
141
12.0
290
     0
  0
SCALE
  5
1AC2
102
{ACAD_REACTORS
330
1AB5
102
}
330
1AB5
100
AcDbScale
 70
     0
300
1" = 1'-0"
140
1.0
141
12.0
290
     0
  0
SCALE
  5
1AC3
102
{ACAD_REACTORS
330
1AB5
102
}
330
1AB5
100
AcDbScale
 70
     0
300
1-1/2" = 1'-0"
140
1.5
141
12.0
290
     0
  0
SCALE
  5
1AC4
102
{ACAD_REACTORS
330
1AB5
102
}
330
1AB5
100
AcDbScale
 70
     0
300
3" = 1'-0"
140
3.0
141
12.0
290
     0
  0
SCALE
  5
1AC5
102
{ACAD_REACTORS
330
1AB5
102
}
330
1AB5
100
AcDbScale
 70
     0
300
6" = 1'-0"
140
6.0
141
12.0
290
     0
  0
SCALE
  5
1AC6
102
{ACAD_REACTORS
330
1AB5
102
}
330
1AB5
100
AcDbScale
 70
     0
300
1'-0" = 1'-0"
140
12.0
141
12.0
290
     0
  0
ACDBSECTIONVIEWSTYLE
  5
1ACA
102
{ACAD_XDICTIONARY
360
1B24
102
}
102
{ACAD_REACTORS
330
1AC9
102
}
330
1AC9
100
AcDbModelDocViewStyle
 70
     0
  3
Imperial24
290
     0
100
AcDbSectionViewStyle
 70
     0
 71
     0
 90
       78
 71
     1
340
F
 40
0.24
340
0
340
0
 40
0.24
300
I, O, Q, S, X, Z
 40
0.48
 90
        3
 40
0.18
 90
        1
 71
     2
340
14
 90
       25
340
14
 90
       50
 40
0.24
 40
0.0
 40
0.24
 71
     3
340
F
 40
0.24
 90
        1
 40
0.75
 90
        1
300
%<\AcVar ViewType \f "%tc1">% %<\AcVar ViewSectionStartId>%-%<\AcVar ViewSectionEndId>%\PSCALE %<\AcVar ViewScale \f "%sn">%
 71
     4
300
ANSI31
 40
1.0
 90
        0
290
     0
290
     0
 90
        6
 40
0.0
 40
1.570796326794896
 40
0.2617993877991494
 40
1.308996938995747
 40
-0.2617993877991494
 40
1.832595714594046
  0
TABLESTYLE
  5
1AB4
102
{ACAD_XDICTIONARY
360
1AEB
102
}
102
{ACAD_REACTORS
330
1AB3
102
}
330
1AB3
100
AcDbTableStyle
  3
Standard
 70
     0
 71
     0
 40
0.06
 41
0.06
280
     0
281
     0
  7
STANDARD
140
0.18
170
     2
 62
     0
 63
     7
283
     0
274
    -2
284
     1
 64
     0
275
    -2
285
     1
 65
     0
276
    -2
286
     1
 66
     0
277
    -2
287
     1
 67
     0
278
    -2
288
     1
 68
     0
279
    -2
289
     1
 69
     0
  7
STANDARD
140
0.25
170
     5
 62
     0
 63
     7
283
     0
274
    -2
284
     1
 64
     0
275
    -2
285
     1
 65
     0
276
    -2
286
     1
 66
     0
277
    -2
287
     1
 67
     0
278
    -2
288
     1
 68
     0
279
    -2
289
     1
 69
     0
  7
STANDARD
140
0.18
170
     5
 62
     0
 63
     7
283
     0
274
    -2
284
     1
 64
     0
275
    -2
285
     1
 65
     0
276
    -2
286
     1
 66
     0
277
    -2
287
     1
 67
     0
278
    -2
288
     1
 68
     0
279
    -2
289
     1
 69
     0
  0
VISUALSTYLE
  5
1A9F
102
{ACAD_XDICTIONARY
360
1AFC
102
}
102
{ACAD_REACTORS
330
1A99
102
}
330
1A99
100
AcDbVisualStyle
  2
2dWireframe
 70
     4
 71
     0
 72
     2
 73
     0
 90
        0
 40
-0.6
 41
-30.0
 62
     5
 63
     7
 74
     1
 91
        4
 64
     7
 65
   257
 75
     1
175
     1
 42
1.0
 92
        0
 66
   257
 43
1.0
 76
     1
 77
     6
 78
     2
 67
     7
 79
     5
170
     0
171
     0
290
     0
174
     0
 93
        1
 44
0.0
173
     0
291
     0
 45
0.0
1001
ACAD
1000
AcDbSavedByObjectVersion
1070
     0
  0
VISUALSTYLE
  5
1A9E
102
{ACAD_XDICTIONARY
360
1AFA
102
}
102
{ACAD_REACTORS
330
1A99
102
}
330
1A99
100
AcDbVisualStyle
  2
Basic
 70
     7
 71
     1
 72
     0
 73
     1
 90
        0
 40
-0.6
 41
-30.0
 62
     5
 63
     7
 74
     0
 91
        4
 64
     7
 65
   257
 75
     1
175
     1
 42
1.0
 92
        8
 66
     7
 43
1.0
 76
     1
 77
     6
 78
     2
 67
     7
 79
     5
170
     0
171
     0
290
     0
174
     0
 93
        1
 44
0.0
173
     0
291
     1
 45
0.0
1001
ACAD
1000
AcDbSavedByObjectVersion
1070
     0
  0
VISUALSTYLE
  5
1AA5
102
{ACAD_XDICTIONARY
360
1B08
102
}
102
{ACAD_REACTORS
330
1A99
102
}
330
1A99
100
AcDbVisualStyle
  2
Brighten
 70
    12
 71
     2
 72
     2
 73
     0
 90
        0
 40
-0.6
 41
-30.0
 62
     5
 63
     7
 74
     1
 91
        4
 64
     7
 65
   257
 75
     1
175
     1
 42
1.0
 92
        8
 66
     7
 43
1.0
 76
     1
 77
     6
 78
     2
 67
     7
 79
     5
170
     0
171
     0
290
     0
174
     0
 93
        1
 44
50.0
173
     0
291
     1
 45
0.0
1001
ACAD
1000
AcDbSavedByObjectVersion
1070
     0
  0
VISUALSTYLE
  5
1AA9
102
{ACAD_XDICTIONARY
360
1B10
102
}
102
{ACAD_REACTORS
330
1A99
102
}
330
1A99
100
AcDbVisualStyle
  2
ColorChange
 70
    16
 71
     2
 72
     2
 73
     3
 90
        0
 40
-0.6
 41
-30.0
 62
     5
 63
     8
 74
     1
 91
        4
 64
     7
 65
   257
 75
     1
175
     1
 42
1.0
 92
        8
 66
     8
 43
1.0
 76
     1
 77
     6
 78
     2
 67
     7
 79
     5
170
     0
171
     0
290
     0
174
     0
 93
        1
 44
0.0
173
     0
291
     1
 45
0.0
1001
ACAD
1000
AcDbSavedByObjectVersion
1070
     0
  0
VISUALSTYLE
  5
1AA2
102
{ACAD_XDICTIONARY
360
1B02
102
}
102
{ACAD_REACTORS
330
1A99
102
}
330
1A99
100
AcDbVisualStyle
  2
Conceptual
 70
     9
 71
     3
 72
     2
 73
     0
 90
        0
 40
-0.6
 41
-30.0
 62
     5
 63
     7
 74
     2
 91
        2
 64
     7
 65
   257
 75
     1
175
     1
 42
179.0
 92
        8
 66
     7
 43
1.0
 76
     1
 77
     6
 78
     2
 67
     7
 79
     3
170
     0
171
     0
290
     0
174
     0
 93
        1
 44
0.0
173
     0
291
     0
 45
0.0
1001
ACAD
1000
AcDbSavedByObjectVersion
1070
     0
  0
VISUALSTYLE
  5
1AA4
102
{ACAD_XDICTIONARY
360
1B06
102
}
102
{ACAD_REACTORS
330
1A99
102
}
330
1A99
100
AcDbVisualStyle
  2
Dim
 70
    11
 71
     2
 72
     2
 73
     0
 90
        0
 40
-0.6
 41
-30.0
 62
     5
 63
     7
 74
     1
 91
        4
 64
     7
 65
   257
 75
     1
175
     1
 42
1.0
 92
        8
 66
     7
 43
1.0
 76
     1
 77
     6
 78
     2
 67
     7
 79
     5
170
     0
171
     0
290
     0
174
     0
 93
        1
 44
-50.0
173
     0
291
     1
 45
0.0
1001
ACAD
1000
AcDbSavedByObjectVersion
1070
     0
  0
VISUALSTYLE
  5
1AB1
102
{ACAD_XDICTIONARY
360
1B20
102
}
102
{ACAD_REACTORS
330
1A99
102
}
330
1A99
100
AcDbVisualStyle
  2
EdgeColorOff
 70
    22
 71
     2
 72
     2
 73
     0
 90
        0
 40
-0.6
 41
-30.0
 62
     5
 63
     7
 74
     1
 91
        4
 64
     7
 65
   257
 75
     1
175
     1
 42
1.0
 92
        8
 66
     7
 43
1.0
 76
     1
 77
     6
 78
     2
 67
     7
 79
     5
170
     0
171
     0
290
     0
174
     0
 93
        1
 44
0.0
173
     0
291
     1
 45
0.0
1001
ACAD
1000
AcDbSavedByObjectVersion
1070
     0
  0
VISUALSTYLE
  5
1AA8
102
{ACAD_XDICTIONARY
360
1B0E
102
}
102
{ACAD_REACTORS
330
1A99
102
}
330
1A99
100
AcDbVisualStyle
  2
Facepattern
 70
    15
 71
     2
 72
     2
 73
     0
 90
        0
 40
-0.6
 41
-30.0
 62
     5
 63
     7
 74
     1
 91
        4
 64
     7
 65
   257
 75
     1
175
     1
 42
1.0
 92
        8
 66
     7
 43
1.0
 76
     1
 77
     6
 78
     2
 67
     7
 79
     5
170
     0
171
     0
290
     0
174
     0
 93
        1
 44
0.0
173
     0
291
     1
 45
0.0
1001
ACAD
1000
AcDbSavedByObjectVersion
1070
     0
  0
VISUALSTYLE
  5
1A9A
102
{ACAD_XDICTIONARY
360
1AF2
102
}
102
{ACAD_REACTORS
330
1A99
102
}
330
1A99
100
AcDbVisualStyle
  2
Flat
 70
     0
 71
     2
 72
     1
 73
     1
 90
        2
 40
-0.6
 41
30.0
 62
     5
 63
     7
 74
     0
 91
        0
 64
     7
 65
   257
 75
     1
175
     1
 42
1.0
 92
        8
 66
     7
 43
1.0
 76
     1
 77
     6
 78
     2
 67
     7
 79
     5
170
     0
171
     0
290
     0
174
     0
 93
       13
 44
0.0
173
     0
291
     1
 45
0.0
1001
ACAD
1000
AcDbSavedByObjectVersion
1070
     0
  0
VISUALSTYLE
  5
1A9B
102
{ACAD_XDICTIONARY
360
1AF4
102
}
102
{ACAD_REACTORS
330
1A99
102
}
330
1A99
100
AcDbVisualStyle
  2
FlatWithEdges
 70
     1
 71
     2
 72
     1
 73
     1
 90
        2
 40
-0.6
 41
30.0
 62
     5
 63
     7
 74
     1
 91
        0
 64
     7
 65
   257
 75
     1
175
     1
 42
1.0
 92
        0
 66
   257
 43
1.0
 76
     1
 77
     6
 78
     2
 67
     7
 79
     5
170
     0
171
     0
290
     0
174
     0
 93
       13
 44
0.0
173
     0
291
     1
 45
0.0
1001
ACAD
1000
AcDbSavedByObjectVersion
1070
     0
  0
VISUALSTYLE
  5
1A9C
102
{ACAD_XDICTIONARY
360
1AF6
102
}
102
{ACAD_REACTORS
330
1A99
102
}
330
1A99
100
AcDbVisualStyle
  2
Gouraud
 70
     2
 71
     2
 72
     2
 73
     1
 90
        2
 40
-0.6
 41
30.0
 62
     5
 63
     7
 74
     0
 91
        0
 64
     7
 65
   257
 75
     1
175
     1
 42
1.0
 92
        0
 66
     7
 43
1.0
 76
     1
 77
     6
 78
     2
 67
     7
 79
     5
170
     0
171
     0
290
     0
174
     0
 93
       13
 44
0.0
173
     0
291
     1
 45
0.0
1001
ACAD
1000
AcDbSavedByObjectVersion
1070
     0
  0
VISUALSTYLE
  5
1A9D
102
{ACAD_XDICTIONARY
360
1AF8
102
}
102
{ACAD_REACTORS
330
1A99
102
}
330
1A99
100
AcDbVisualStyle
  2
GouraudWithEdges
 70
     3
 71
     2
 72
     2
 73
     1
 90
        2
 40
-0.6
 41
30.0
 62
     5
 63
     7
 74
     1
 91
        0
 64
     7
 65
   257
 75
     1
175
     1
 42
1.0
 92
        0
 66
   257
 43
1.0
 76
     1
 77
     6
 78
     2
 67
     7
 79
     5
170
     0
171
     0
290
     0
174
     0
 93
       13
 44
0.0
173
     0
291
     1
 45
0.0
1001
ACAD
1000
AcDbSavedByObjectVersion
1070
     0
  0
VISUALSTYLE
  5
1AA1
102
{ACAD_XDICTIONARY
360
1B00
102
}
102
{ACAD_REACTORS
330
1A99
102
}
330
1A99
100
AcDbVisualStyle
  2
Hidden
 70
     6
 71
     1
 72
     2
 73
     2
 90
        0
 40
-0.6
 41
-30.0
 62
     5
 63
     7
 74
     2
 91
        2
 64
     7
 65
   257
 75
     2
175
     1
 42
40.0
 92
        0
 66
   257
 43
1.0
 76
     1
 77
     6
 78
     2
 67
     7
 79
     3
170
     0
171
     0
290
     0
174
     0
 93
        1
 44
0.0
173
     0
291
     0
 45
0.0
1001
ACAD
1000
AcDbSavedByObjectVersion
1070
     0
  0
VISUALSTYLE
  5
1AAF
102
{ACAD_XDICTIONARY
360
1B1C
102
}
102
{ACAD_REACTORS
330
1A99
102
}
330
1A99
100
AcDbVisualStyle
  2
JitterOff
 70
    20
 71
     2
 72
     2
 73
     0
 90
        0
 40
-0.6
 41
-30.0
 62
     5
 63
     7
 74
     1
 91
        4
 64
     7
 65
   257
 75
     1
175
     1
 42
1.0
 92
       10
 66
     7
 43
1.0
 76
     1
 77
     6
 78
     2
 67
     7
 79
     5
170
     0
171
     0
290
     0
174
     0
 93
        1
 44
0.0
173
     0
291
     1
 45
0.0
1001
ACAD
1000
AcDbSavedByObjectVersion
1070
     0
  0
VISUALSTYLE
  5
1AA7
102
{ACAD_XDICTIONARY
360
1B0C
102
}
102
{ACAD_REACTORS
330
1A99
102
}
330
1A99
100
AcDbVisualStyle
  2
Linepattern
 70
    14
 71
     2
 72
     2
 73
     0
 90
        0
 40
-0.6
 41
-30.0
 62
     5
 63
     7
 74
     1
 91
        4
 64
     7
 65
   257
 75
     7
175
     7
 42
1.0
 92
        8
 66
     7
 43
1.0
 76
     1
 77
     6
 78
     2
 67
     7
 79
     5
170
     0
171
     0
290
     0
174
     0
 93
        1
 44
0.0
173
     0
291
     1
 45
0.0
1001
ACAD
1000
AcDbSavedByObjectVersion
1070
     0
  0
VISUALSTYLE
  5
1AB0
102
{ACAD_XDICTIONARY
360
1B1E
102
}
102
{ACAD_REACTORS
330
1A99
102
}
330
1A99
100
AcDbVisualStyle
  2
OverhangOff
 70
    21
 71
     2
 72
     2
 73
     0
 90
        0
 40
-0.6
 41
-30.0
 62
     5
 63
     7
 74
     1
 91
        4
 64
     7
 65
   257
 75
     1
175
     1
 42
1.0
 92
        9
 66
     7
 43
1.0
 76
     1
 77
     6
 78
     2
 67
     7
 79
     5
170
     0
171
     0
290
     0
174
     0
 93
        1
 44
0.0
173
     0
291
     1
 45
0.0
1001
ACAD
1000
AcDbSavedByObjectVersion
1070
     0
  0
VISUALSTYLE
  5
1AA3
102
{ACAD_XDICTIONARY
360
1B04
102
}
102
{ACAD_REACTORS
330
1A99
102
}
330
1A99
100
AcDbVisualStyle
  2
Realistic
 70
     8
 71
     2
 72
     3
 73
     0
 90
        2
 40
-0.6
 41
30.0
 62
     5
 63
     7
 74
     0
 91
        0
 64
     7
 65
   257
 75
     1
175
     1
 42
1.0
 92
        8
 66
   257
 43
1.0
 76
     1
 77
     6
 78
     2
 67
     7
 79
     3
170
     0
171
     0
290
     0
174
     0
 93
       13
 44
0.0
173
     0
291
     0
 45
0.0
1001
ACAD
1000
AcDbSavedByObjectVersion
1070
     0
  0
VISUALSTYLE
  5
1AAE
102
{ACAD_XDICTIONARY
360
1B1A
102
}
102
{ACAD_REACTORS
330
1A99
102
}
330
1A99
100
AcDbVisualStyle
  2
Shaded
 70
    27
 71
     2
 72
     2
 73
     1
 90
        2
 40
-0.6
 41
30.0
 62
     5
 63
     7
 74
     0
 91
        4
 64
     7
 65
   257
 75
     1
175
     1
 42
1.0
 92
        8
 66
   257
 43
1.0
 76
     1
 77
     6
 78
     2
 67
     8
 79
     3
170
     0
171
     0
290
     0
174
     0
 93
        5
 44
0.0
173
     0
291
     0
 45
0.0
1001
ACAD
1000
AcDbSavedByObjectVersion
1070
     0
  0
VISUALSTYLE
  5
1AAD
102
{ACAD_XDICTIONARY
360
1B18
102
}
102
{ACAD_REACTORS
330
1A99
102
}
330
1A99
100
AcDbVisualStyle
  2
Shaded with edges
 70
    26
 71
     2
 72
     2
 73
     1
 90
        2
 40
-0.6
 41
30.0
 62
     5
 63
     7
 74
     1
 91
       10
 64
     7
 65
   257
 75
     2
175
     1
 42
1.0
 92
        8
 66
   257
 43
1.0
 76
     1
 77
     6
 78
     2
 67
     7
 79
     3
170
     0
171
     0
290
     0
174
     0
 93
        5
 44
0.0
173
     0
291
     0
 45
0.0
1001
ACAD
1000
AcDbSavedByObjectVersion
1070
     0
  0
VISUALSTYLE
  5
1AAA
102
{ACAD_XDICTIONARY
360
1B12
102
}
102
{ACAD_REACTORS
330
1A99
102
}
330
1A99
100
AcDbVisualStyle
  2
Shades of Gray
 70
    23
 71
     2
 72
     2
 73
     3
 90
        0
 40
-0.6
 41
-30.0
 62
     5
 63
     7
 74
     2
 91
        2
 64
     7
 65
     7
 75
     1
175
     1
 42
40.0
 92
        8
 66
     7
 43
1.0
 76
     1
 77
     6
 78
     2
 67
     7
 79
     3
170
     0
171
     0
290
     0
174
     0
 93
        1
 44
0.0
173
     0
291
     0
 45
0.0
1001
ACAD
1000
AcDbSavedByObjectVersion
1070
     0
  0
VISUALSTYLE
  5
1AAB
102
{ACAD_XDICTIONARY
360
1B14
102
}
102
{ACAD_REACTORS
330
1A99
102
}
330
1A99
100
AcDbVisualStyle
  2
Sketchy
 70
    24
 71
     1
 72
     2
 73
     2
 90
        0
 40
-0.6
 41
-30.0
 62
     5
 63
     7
 74
     2
 91
        2
 64
     7
 65
     7
 75
     1
175
     1
 42
40.0
 92
       11
 66
     7
 43
1.0
 76
     1
 77
     6
 78
     2
 67
     7
 79
     6
170
     0
171
     0
290
     0
174
     0
 93
        1
 44
0.0
173
     0
291
     0
 45
0.0
1001
ACAD
1000
AcDbSavedByObjectVersion
1070
     0
  0
VISUALSTYLE
  5
1AA6
102
{ACAD_XDICTIONARY
360
1B0A
102
}
102
{ACAD_REACTORS
330
1A99
102
}
330
1A99
100
AcDbVisualStyle
  2
Thicken
 70
    13
 71
     2
 72
     2
 73
     0
 90
        0
 40
-0.6
 41
-30.0
 62
     5
 63
     7
 74
     1
 91
        4
 64
     7
 65
   257
 75
     1
175
     1
 42
1.0
 92
       12
 66
     7
 43
1.0
 76
     1
 77
     6
 78
     2
 67
     7
 79
     5
170
     0
171
     0
290
     0
174
     0
 93
        1
 44
0.0
173
     0
291
     1
 45
0.0
1001
ACAD
1000
AcDbSavedByObjectVersion
1070
     0
  0
VISUALSTYLE
  5
1AA0
102
{ACAD_XDICTIONARY
360
1AFE
102
}
102
{ACAD_REACTORS
330
1A99
102
}
330
1A99
100
AcDbVisualStyle
  2
Wireframe
 70
     5
 71
     0
 72
     2
 73
     0
 90
        0
 40
-0.6
 41
-30.0
 62
     5
 63
     7
 74
     1
 91
        4
 64
     7
 65
   257
 75
     1
175
     1
 42
1.0
 92
        0
 66
   257
 43
1.0
 76
     1
 77
     6
 78
     2
 67
     7
 79
     3
170
     0
171
     0
290
     0
174
     0
 93
        1
 44
0.0
173
     0
291
     0
 45
0.0
1001
ACAD
1000
AcDbSavedByObjectVersion
1070
     0
  0
VISUALSTYLE
  5
1AAC
102
{ACAD_XDICTIONARY
360
1B16
102
}
102
{ACAD_REACTORS
330
1A99
102
}
330
1A99
100
AcDbVisualStyle
  2
X-Ray
 70
    25
 71
     2
 72
     2
 73
     1
 90
        1
 40
0.5
 41
-30.0
 62
     5
 63
     7
 74
     1
 91
        0
 64
     7
 65
   257
 75
     1
175
     1
 42
1.0
 92
        8
 66
     7
 43
1.0
 76
     1
 77
     6
 78
     2
 67
     7
 79
     3
170
     0
171
     0
290
     0
174
     0
 93
       13
 44
0.0
173
     0
291
     0
 45
0.0
1001
ACAD
1000
AcDbSavedByObjectVersion
1070
     0
  0
DICTIONARYVAR
  5
1AE5
102
{ACAD_REACTORS
330
1AE0
102
}
330
1AE0
100
DictionaryVariables
280
     0
  1
1:1
  0
DICTIONARYVAR
  5
1AE2
102
{ACAD_REACTORS
330
1AE0
102
}
330
1AE0
100
DictionaryVariables
280
     0
  1
STANDARD
  0
DICTIONARYVAR
  5
1AE1
102
{ACAD_REACTORS
330
1AE0
102
}
330
1AE0
100
DictionaryVariables
280
     0
  1
STANDARD
  0
DICTIONARYVAR
  5
1AE3
102
{ACAD_REACTORS
330
1AE0
102
}
330
1AE0
100
DictionaryVariables
280
     0
  1
Imperial24
  0
DICTIONARYVAR
  5
1AE4
102
{ACAD_REACTORS
330
1AE0
102
}
330
1AE0
100
DictionaryVariables
280
     0
  1
Imperial24
  0
DICTIONARYVAR
  5
1AE8
102
{ACAD_REACTORS
330
1AE0
102
}
330
1AE0
100
DictionaryVariables
280
     0
  1
1
  0
DICTIONARYVAR
  5
1AE7
102
{ACAD_REACTORS
330
1AE0
102
}
330
1AE0
100
DictionaryVariables
280
     0
  1
0
  0
DICTIONARYVAR
  5
1AE6
102
{ACAD_REACTORS
330
1AE0
102
}
330
1AE0
100
DictionaryVariables
280
     0
  1
127
  0
DICTIONARYVAR
  5
1AE9
102
{ACAD_REACTORS
330
1AE0
102
}
330
1AE0
100
DictionaryVariables
280
     0
  1
2
  0
DICTIONARY
  5
1B26
330
1ACC
100
AcDbDictionary
280
     1
281
     1
  3
ACAD_XREC_ROUNDTRIP
360
1B27
  0
DICTIONARY
  5
1B28
330
1ACD
100
AcDbDictionary
280
     1
281
     1
  3
ACAD_XREC_ROUNDTRIP
360
1B29
  0
DICTIONARY
  5
1B2A
330
1ACE
100
AcDbDictionary
280
     1
281
     1
  3
ACAD_XREC_ROUNDTRIP
360
1B2B
  0
DICTIONARY
  5
1A8A
330
1A89
100
AcDbDictionary
280
     1
281
     1
  3
ACAD_XREC_ROUNDTRIP
360
1AF0
  3
BUMPTILE
360
1A8C
  3
DIFFUSETILE
360
1A8B
  3
OPACITYTILE
360
1A8F
  3
REFLECTIONTILE
360
1A8E
  3
REFRACTIONTILE
360
1A90
  3
SPECULARTILE
360
1A8D
  0
DICTIONARY
  5
1A82
330
1A81
100
AcDbDictionary
280
     1
281
     1
  3
ACAD_XREC_ROUNDTRIP
360
1AEF
  3
BUMPTILE
360
1A84
  3
DIFFUSETILE
360
1A83
  3
OPACITYTILE
360
1A87
  3
REFLECTIONTILE
360
1A86
  3
REFRACTIONTILE
360
1A88
  3
SPECULARTILE
360
1A85
  0
DICTIONARY
  5
1A92
330
1A91
100
AcDbDictionary
280
     1
281
     1
  3
ACAD_XREC_ROUNDTRIP
360
1AF1
  3
BUMPTILE
360
1A94
  3
DIFFUSETILE
360
1A93
  3
OPACITYTILE
360
1A97
  3
REFLECTIONTILE
360
1A96
  3
REFRACTIONTILE
360
1A98
  3
SPECULARTILE
360
1A95
  0
DICTIONARY
  5
1B24
330
1ACA
100
AcDbDictionary
280
     1
281
     1
  3
ACAD_XREC_ROUNDTRIP
360
1B25
  0
DICTIONARY
  5
1AEB
330
1AB4
100
AcDbDictionary
280
     1
281
     1
  3
ACAD_ROUNDTRIP_2008_TABLESTYLE_CELLSTYLEMAP
360
1AEC
  3
ACAD_XREC_ROUNDTRIP
360
1B22
  0
DICTIONARY
  5
1AFC
330
1A9F
100
AcDbDictionary
280
     1
281
     1
  3
ACAD_XREC_ROUNDTRIP
360
1AFD
  0
DICTIONARY
  5
1AFA
330
1A9E
100
AcDbDictionary
280
     1
281
     1
  3
ACAD_XREC_ROUNDTRIP
360
1AFB
  0
DICTIONARY
  5
1B08
330
1AA5
100
AcDbDictionary
280
     1
281
     1
  3
ACAD_XREC_ROUNDTRIP
360
1B09
  0
DICTIONARY
  5
1B10
330
1AA9
100
AcDbDictionary
280
     1
281
     1
  3
ACAD_XREC_ROUNDTRIP
360
1B11
  0
DICTIONARY
  5
1B02
330
1AA2
100
AcDbDictionary
280
     1
281
     1
  3
ACAD_XREC_ROUNDTRIP
360
1B03
  0
DICTIONARY
  5
1B06
330
1AA4
100
AcDbDictionary
280
     1
281
     1
  3
ACAD_XREC_ROUNDTRIP
360
1B07
  0
DICTIONARY
  5
1B20
330
1AB1
100
AcDbDictionary
280
     1
281
     1
  3
ACAD_XREC_ROUNDTRIP
360
1B21
  0
DICTIONARY
  5
1B0E
330
1AA8
100
AcDbDictionary
280
     1
281
     1
  3
ACAD_XREC_ROUNDTRIP
360
1B0F
  0
DICTIONARY
  5
1AF2
330
1A9A
100
AcDbDictionary
280
     1
281
     1
  3
ACAD_XREC_ROUNDTRIP
360
1AF3
  0
DICTIONARY
  5
1AF4
330
1A9B
100
AcDbDictionary
280
     1
281
     1
  3
ACAD_XREC_ROUNDTRIP
360
1AF5
  0
DICTIONARY
  5
1AF6
330
1A9C
100
AcDbDictionary
280
     1
281
     1
  3
ACAD_XREC_ROUNDTRIP
360
1AF7
  0
DICTIONARY
  5
1AF8
330
1A9D
100
AcDbDictionary
280
     1
281
     1
  3
ACAD_XREC_ROUNDTRIP
360
1AF9
  0
DICTIONARY
  5
1B00
330
1AA1
100
AcDbDictionary
280
     1
281
     1
  3
ACAD_XREC_ROUNDTRIP
360
1B01
  0
DICTIONARY
  5
1B1C
330
1AAF
100
AcDbDictionary
280
     1
281
     1
  3
ACAD_XREC_ROUNDTRIP
360
1B1D
  0
DICTIONARY
  5
1B0C
330
1AA7
100
AcDbDictionary
280
     1
281
     1
  3
ACAD_XREC_ROUNDTRIP
360
1B0D
  0
DICTIONARY
  5
1B1E
330
1AB0
100
AcDbDictionary
280
     1
281
     1
  3
ACAD_XREC_ROUNDTRIP
360
1B1F
  0
DICTIONARY
  5
1B04
330
1AA3
100
AcDbDictionary
280
     1
281
     1
  3
ACAD_XREC_ROUNDTRIP
360
1B05
  0
DICTIONARY
  5
1B1A
330
1AAE
100
AcDbDictionary
280
     1
281
     1
  3
ACAD_XREC_ROUNDTRIP
360
1B1B
  0
DICTIONARY
  5
1B18
330
1AAD
100
AcDbDictionary
280
     1
281
     1
  3
ACAD_XREC_ROUNDTRIP
360
1B19
  0
DICTIONARY
  5
1B12
330
1AAA
100
AcDbDictionary
280
     1
281
     1
  3
ACAD_XREC_ROUNDTRIP
360
1B13
  0
DICTIONARY
  5
1B14
330
1AAB
100
AcDbDictionary
280
     1
281
     1
  3
ACAD_XREC_ROUNDTRIP
360
1B15
  0
DICTIONARY
  5
1B0A
330
1AA6
100
AcDbDictionary
280
     1
281
     1
  3
ACAD_XREC_ROUNDTRIP
360
1B0B
  0
DICTIONARY
  5
1AFE
330
1AA0
100
AcDbDictionary
280
     1
281
     1
  3
ACAD_XREC_ROUNDTRIP
360
1AFF
  0
DICTIONARY
  5
1B16
330
1AAC
100
AcDbDictionary
280
     1
281
     1
  3
ACAD_XREC_ROUNDTRIP
360
1B17
  0
XRECORD
  5
1B27
102
{ACAD_REACTORS
330
1B26
102
}
330
1B26
100
AcDbXrecord
280
     1
102
DISPLAYNAME
  1
Imperial24
102
FLAGS
 90
        0
  0
XRECORD
  5
1B29
102
{ACAD_REACTORS
330
1B28
102
}
330
1B28
100
AcDbXrecord
280
     1
102
SHADEPLOT
 70
     0
102
SHADEPLOTRESLEVEL
 70
     2
102
SHADEPLOTCUSTOMDPI
 70
   300
  0
XRECORD
  5
1B2B
102
{ACAD_REACTORS
330
1B2A
102
}
330
1B2A
100
AcDbXrecord
280
     1
102
SHADEPLOT
 70
     0
102
SHADEPLOTRESLEVEL
 70
     2
102
SHADEPLOTCUSTOMDPI
 70
   300
  0
XRECORD
  5
1AF0
102
{ACAD_REACTORS
330
1A8A
102
}
330
1A8A
100
AcDbXrecord
280
     1
102
MATERIAL
148
0.0
149
0.0
149
0.0
 93
        0
 94
      127
282
     0
 72
     0
 77
     0
171
     0
175
     0
179
     0
273
     0
  0
XRECORD
  5
1A8C
102
{ACAD_REACTORS
330
1A8A
102
}
330
1A8A
100
AcDbXrecord
280
     1
270
     1
271
     1
  0
XRECORD
  5
1A8B
102
{ACAD_REACTORS
330
1A8A
102
}
330
1A8A
100
AcDbXrecord
280
     1
270
     1
271
     1
  0
XRECORD
  5
1A8F
102
{ACAD_REACTORS
330
1A8A
102
}
330
1A8A
100
AcDbXrecord
280
     1
270
     1
271
     1
  0
XRECORD
  5
1A8E
102
{ACAD_REACTORS
330
1A8A
102
}
330
1A8A
100
AcDbXrecord
280
     1
270
     1
271
     1
  0
XRECORD
  5
1A90
102
{ACAD_REACTORS
330
1A8A
102
}
330
1A8A
100
AcDbXrecord
280
     1
270
     1
271
     1
  0
XRECORD
  5
1A8D
102
{ACAD_REACTORS
330
1A8A
102
}
330
1A8A
100
AcDbXrecord
280
     1
270
     1
271
     1
  0
XRECORD
  5
1AEF
102
{ACAD_REACTORS
330
1A82
102
}
330
1A82
100
AcDbXrecord
280
     1
102
MATERIAL
148
0.0
149
0.0
149
0.0
 93
        0
 94
      127
282
     0
 72
     0
 77
     0
171
     0
175
     0
179
     0
273
     0
  0
XRECORD
  5
1A84
102
{ACAD_REACTORS
330
1A82
102
}
330
1A82
100
AcDbXrecord
280
     1
270
     1
271
     1
  0
XRECORD
  5
1A83
102
{ACAD_REACTORS
330
1A82
102
}
330
1A82
100
AcDbXrecord
280
     1
270
     1
271
     1
  0
XRECORD
  5
1A87
102
{ACAD_REACTORS
330
1A82
102
}
330
1A82
100
AcDbXrecord
280
     1
270
     1
271
     1
  0
XRECORD
  5
1A86
102
{ACAD_REACTORS
330
1A82
102
}
330
1A82
100
AcDbXrecord
280
     1
270
     1
271
     1
  0
XRECORD
  5
1A88
102
{ACAD_REACTORS
330
1A82
102
}
330
1A82
100
AcDbXrecord
280
     1
270
     1
271
     1
  0
XRECORD
  5
1A85
102
{ACAD_REACTORS
330
1A82
102
}
330
1A82
100
AcDbXrecord
280
     1
270
     1
271
     1
  0
XRECORD
  5
1AF1
102
{ACAD_REACTORS
330
1A92
102
}
330
1A92
100
AcDbXrecord
280
     1
102
MATERIAL
148
0.0
149
0.0
149
0.0
 93
        0
 94
      127
282
     0
 72
     0
 77
     0
171
     0
175
     0
179
     0
273
     0
  0
XRECORD
  5
1A94
102
{ACAD_REACTORS
330
1A92
102
}
330
1A92
100
AcDbXrecord
280
     1
270
     1
271
     1
  0
XRECORD
  5
1A93
102
{ACAD_REACTORS
330
1A92
102
}
330
1A92
100
AcDbXrecord
280
     1
270
     1
271
     1
  0
XRECORD
  5
1A97
102
{ACAD_REACTORS
330
1A92
102
}
330
1A92
100
AcDbXrecord
280
     1
270
     1
271
     1
  0
XRECORD
  5
1A96
102
{ACAD_REACTORS
330
1A92
102
}
330
1A92
100
AcDbXrecord
280
     1
270
     1
271
     1
  0
XRECORD
  5
1A98
102
{ACAD_REACTORS
330
1A92
102
}
330
1A92
100
AcDbXrecord
280
     1
270
     1
271
     1
  0
XRECORD
  5
1A95
102
{ACAD_REACTORS
330
1A92
102
}
330
1A92
100
AcDbXrecord
280
     1
270
     1
271
     1
  0
XRECORD
  5
1B25
102
{ACAD_REACTORS
330
1B24
102
}
330
1B24
100
AcDbXrecord
280
     1
102
DISPLAYNAME
  1
Imperial24
102
FLAGS
 90
        0
  0
CELLSTYLEMAP
  5
1AEC
102
{ACAD_REACTORS
330
1AEB
102
}
330
1AEB
100
AcDbCellStyleMap
 90
        3
300
CELLSTYLE
  1
TABLEFORMAT_BEGIN
 90
        5
170
     1
 91
        0
 92
    32768
 62
   257
 93
        1
300
CONTENTFORMAT
  1
CONTENTFORMAT_BEGIN
 90
        0
 91
        0
 92
      512
 93
        0
300

 40
0.0
140
1.0
 94
        5
 62
     0
340
F
144
0.25
309
CONTENTFORMAT_END
171
     0
 94
        0
309
TABLEFORMAT_END
  1
CELLSTYLE_BEGIN
 90
        1
 91
        1
300
_TITLE
309
CELLSTYLE_END
300
CELLSTYLE
  1
TABLEFORMAT_BEGIN
 90
        5
170
     1
 91
        0
 92
        0
 62
   257
 93
        1
300
CONTENTFORMAT
  1
CONTENTFORMAT_BEGIN
 90
        0
 91
        0
 92
      512
 93
        0
300

 40
0.0
140
1.0
 94
        5
 62
     0
340
F
144
0.18
309
CONTENTFORMAT_END
171
     0
 94
        0
309
TABLEFORMAT_END
  1
CELLSTYLE_BEGIN
 90
        2
 91
        1
300
_HEADER
309
CELLSTYLE_END
300
CELLSTYLE
  1
TABLEFORMAT_BEGIN
 90
        5
170
     1
 91
        0
 92
        0
 62
   257
 93
        1
300
CONTENTFORMAT
  1
CONTENTFORMAT_BEGIN
 90
        0
 91
        0
 92
      512
 93
        0
300

 40
0.0
140
1.0
 94
        2
 62
     0
340
F
144
0.18
309
CONTENTFORMAT_END
171
     0
 94
        0
309
TABLEFORMAT_END
  1
CELLSTYLE_BEGIN
 90
        3
 91
        2
300
_DATA
309
CELLSTYLE_END
  0
XRECORD
  5
1B22
102
{ACAD_REACTORS
330
1AEB
102
}
330
1AEB
100
AcDbXrecord
280
     1
102
ACAD_ROUNDTRIP_PRE2007_TABLESTYLE
 90
      512
 91
        0
  1

 92
      512
 93
        0
  2

 94
      512
 95
        0
  3

  0
XRECORD
  5
1AFD
102
{ACAD_REACTORS
330
1AFC
102
}
330
1AFC
100
AcDbXrecord
280
     1
102
RTVSPost2010Prop28
280
     1
102
RTVSPost2010PropOp28
 70
     1
102
RTVSPost2010Prop29
280
     1
102
RTVSPost2010PropOp29
 70
     1
102
RTVSPost2010Prop30
280
     0
102
RTVSPost2010PropOp30
 70
     1
102
RTVSPost2010Prop31
280
     0
102
RTVSPost2010PropOp31
 70
     1
102
RTVSPost2010Prop32
280
     0
102
RTVSPost2010PropOp32
 70
     1
102
RTVSPost2010Prop33
280
     0
102
RTVSPost2010PropOp33
 70
     1
102
RTVSPost2010Prop34
280
     0
102
RTVSPost2010PropOp34
 70
     1
102
RTVSPost2010Prop35
280
     0
102
RTVSPost2010PropOp35
 70
     1
102
RTVSPost2010Prop36
280
     0
102
RTVSPost2010PropOp36
 70
     1
102
RTVSPost2010Prop37
 90
       50
102
RTVSPost2010PropOp37
 70
     1
102
RTVSPost2010Prop38
140
0.0
102
RTVSPost2010PropOp38
 70
     1
102
RTVSPost2010Prop39
140
1.0
102
RTVSPost2010PropOp39
 70
     1
102
RTVSPost2010Prop40
 90
        0
102
RTVSPost2010PropOp40
 70
     1
102
RTVSPost2010Prop41ColorIndex
 90
       18
102
RTVSPost2010Prop41ColorRGB
 90
        0
102
RTVSPost2010PropOp41
 70
     1
102
RTVSPost2010Prop42
 90
       50
102
RTVSPost2010PropOp42
 70
     1
102
RTVSPost2010Prop43
 90
        3
102
RTVSPost2010PropOp43
 70
     1
102
RTVSPost2010Prop44ColorIndex
 90
        5
102
RTVSPost2010Prop44ColorRGB
 90
      255
102
RTVSPost2010PropOp44
 70
     1
102
RTVSPost2010Prop45
280
     0
102
RTVSPost2010PropOp45
 70
     1
102
RTVSPost2010Prop46
 90
       50
102
RTVSPost2010PropOp46
 70
     1
102
RTVSPost2010Prop47
 90
       50
102
RTVSPost2010PropOp47
 70
     1
102
RTVSPost2010Prop48
 90
       50
102
RTVSPost2010PropOp48
 70
     1
102
RTVSPost2010Prop49
280
     0
102
RTVSPost2010PropOp49
 70
     1
102
RTVSPost2010Prop50
 90
       50
102
RTVSPost2010PropOp50
 70
     1
102
RTVSPost2010Prop51ColorIndex
 90
      256
102
RTVSPost2010Prop51ColorRGB
 90
-16777216
102
RTVSPost2010PropOp51
 70
     0
102
RTVSPost2010Prop52
140
1.0
102
RTVSPost2010PropOp52
 70
     0
102
RTVSPost2010Prop53
 90
        2
102
RTVSPost2010PropOp53
 70
     1
102
RTVSPost2010Prop54
  1
strokes_ogs.tif
102
RTVSPost2010PropOp54
 70
     1
102
RTVSPost2010Prop55
280
     0
102
RTVSPost2010PropOp55
 70
     1
102
RTVSPost2010Prop56
140
1.0
102
RTVSPost2010PropOp56
 70
     1
102
RTVSPost2010Prop57
140
1.0
102
RTVSPost2010PropOp57
 70
     1
102
RTVSPropertyOp0
 70
     1
102
RTVSPropertyOp1
 70
     1
102
RTVSPropertyOp2
 70
     1
102
RTVSPropertyOp3
 70
     1
102
RTVSPropertyOp4
 70
     1
102
RTVSPropertyOp5
 70
     1
102
RTVSPropertyOp6
 70
     1
102
RTVSPropertyOp7
 70
     1
102
RTVSPropertyOp8
 70
     1
102
RTVSPropertyOp9
 70
     1
102
RTVSPropertyOp10
 70
     1
102
RTVSPropertyOp11
 70
     1
102
RTVSPropertyOp12
 70
     1
102
RTVSPropertyOp13
 70
     1
102
RTVSPropertyOp14
 70
     1
102
RTVSPropertyOp15
 70
     1
102
RTVSPropertyOp16
 70
     1
102
RTVSPropertyOp17
 70
     1
102
RTVSPropertyOp18
 70
     1
102
RTVSPropertyOp19
 70
     1
102
RTVSPropertyOp20
 70
     1
102
RTVSPropertyOp21
 70
     1
102
RTVSPropertyOp22
 70
     1
102
RTVSPropertyOp23
 70
     1
102
RTVSPropertyOp24
 70
     1
102
RTVSPropertyOp25
 70
     1
102
RTVSPropertyOp26
 70
     1
102
RTVSPropertyOp27
 70
     1
102
RTVSPropertyOp28
 70
     1
102
RTVSPropertyOp29
 70
     1
102
RTVSPropertyOp30
 70
     1
102
RTVSPropertyOp31
 70
     1
102
RTVSPropertyOp32
 70
     1
102
RTVSPropertyOp33
 70
     1
102
RTVSPropertyOp34
 70
     1
102
RTVSPropertyOp35
 70
     1
102
RTVSPropertyOp36
 70
     1
102
RTVSPropertyOp37
 70
     1
102
RTVSPropertyOp38
 70
     1
102
RTVSPropertyOp39
 70
     1
102
RTVSPropertyOp40
 70
     1
102
RTVSPropertyOp41
 70
     1
102
RTVSPropertyOp42
 70
     1
102
RTVSPropertyOp43
 70
     1
102
RTVSPropertyOp44
 70
     1
102
RTVSPropertyOp45
 70
     1
102
RTVSPropertyOp46
 70
     1
102
RTVSPropertyOp47
 70
     1
102
RTVSPropertyOp48
 70
     1
102
RTVSPropertyOp49
 70
     1
102
RTVSPropertyOp50
 70
     1
102
RTVSPropertyOp51
 70
     0
102
RTVSPropertyOp52
 70
     0
102
RTVSPropertyOp53
 70
     1
102
RTVSPropertyOp54
 70
     1
102
RTVSPropertyOp55
 70
     1
102
RTVSPropertyOp56
 70
     1
102
RTVSPropertyOp57
 70
     1
102
RTVSPropertyOp58
 70
     1
102
RTVSPropertyOp59
 70
     1
102
RTVSPropertyOp60
 70
     1
102
RTVSPropertyOp61
 70
     1
102
RTVSPropertyOp62
 70
     1
  0
XRECORD
  5
1AFB
102
{ACAD_REACTORS
330
1AFA
102
}
330
1AFA
100
AcDbXrecord
280
     1
102
RTVSPost2010Prop28
280
     0
102
RTVSPost2010PropOp28
 70
     1
102
RTVSPost2010Prop29
280
     1
102
RTVSPost2010PropOp29
 70
     1
102
RTVSPost2010Prop30
280
     1
102
RTVSPost2010PropOp30
 70
     1
102
RTVSPost2010Prop31
280
     0
102
RTVSPost2010PropOp31
 70
     1
102
RTVSPost2010Prop32
280
     0
102
RTVSPost2010PropOp32
 70
     1
102
RTVSPost2010Prop33
280
     0
102
RTVSPost2010PropOp33
 70
     1
102
RTVSPost2010Prop34
280
     0
102
RTVSPost2010PropOp34
 70
     1
102
RTVSPost2010Prop35
280
     0
102
RTVSPost2010PropOp35
 70
     1
102
RTVSPost2010Prop36
280
     0
102
RTVSPost2010PropOp36
 70
     1
102
RTVSPost2010Prop37
 90
       50
102
RTVSPost2010PropOp37
 70
     1
102
RTVSPost2010Prop38
140
0.0
102
RTVSPost2010PropOp38
 70
     1
102
RTVSPost2010Prop39
140
1.0
102
RTVSPost2010PropOp39
 70
     1
102
RTVSPost2010Prop40
 90
        0
102
RTVSPost2010PropOp40
 70
     1
102
RTVSPost2010Prop41ColorIndex
 90
       18
102
RTVSPost2010Prop41ColorRGB
 90
        0
102
RTVSPost2010PropOp41
 70
     1
102
RTVSPost2010Prop42
 90
       50
102
RTVSPost2010PropOp42
 70
     1
102
RTVSPost2010Prop43
 90
        3
102
RTVSPost2010PropOp43
 70
     1
102
RTVSPost2010Prop44ColorIndex
 90
        5
102
RTVSPost2010Prop44ColorRGB
 90
      255
102
RTVSPost2010PropOp44
 70
     1
102
RTVSPost2010Prop45
280
     0
102
RTVSPost2010PropOp45
 70
     1
102
RTVSPost2010Prop46
 90
       50
102
RTVSPost2010PropOp46
 70
     1
102
RTVSPost2010Prop47
 90
       50
102
RTVSPost2010PropOp47
 70
     1
102
RTVSPost2010Prop48
 90
       50
102
RTVSPost2010PropOp48
 70
     1
102
RTVSPost2010Prop49
280
     0
102
RTVSPost2010PropOp49
 70
     1
102
RTVSPost2010Prop50
 90
       50
102
RTVSPost2010PropOp50
 70
     1
102
RTVSPost2010Prop51ColorIndex
 90
      256
102
RTVSPost2010Prop51ColorRGB
 90
-16777216
102
RTVSPost2010PropOp51
 70
     0
102
RTVSPost2010Prop52
140
1.0
102
RTVSPost2010PropOp52
 70
     0
102
RTVSPost2010Prop53
 90
        2
102
RTVSPost2010PropOp53
 70
     1
102
RTVSPost2010Prop54
  1
strokes_ogs.tif
102
RTVSPost2010PropOp54
 70
     1
102
RTVSPost2010Prop55
280
     0
102
RTVSPost2010PropOp55
 70
     1
102
RTVSPost2010Prop56
140
1.0
102
RTVSPost2010PropOp56
 70
     1
102
RTVSPost2010Prop57
140
1.0
102
RTVSPost2010PropOp57
 70
     1
102
RTVSPropertyOp0
 70
     1
102
RTVSPropertyOp1
 70
     1
102
RTVSPropertyOp2
 70
     1
102
RTVSPropertyOp3
 70
     1
102
RTVSPropertyOp4
 70
     1
102
RTVSPropertyOp5
 70
     1
102
RTVSPropertyOp6
 70
     1
102
RTVSPropertyOp7
 70
     1
102
RTVSPropertyOp8
 70
     1
102
RTVSPropertyOp9
 70
     1
102
RTVSPropertyOp10
 70
     1
102
RTVSPropertyOp11
 70
     1
102
RTVSPropertyOp12
 70
     1
102
RTVSPropertyOp13
 70
     1
102
RTVSPropertyOp14
 70
     1
102
RTVSPropertyOp15
 70
     1
102
RTVSPropertyOp16
 70
     1
102
RTVSPropertyOp17
 70
     1
102
RTVSPropertyOp18
 70
     1
102
RTVSPropertyOp19
 70
     1
102
RTVSPropertyOp20
 70
     1
102
RTVSPropertyOp21
 70
     1
102
RTVSPropertyOp22
 70
     1
102
RTVSPropertyOp23
 70
     1
102
RTVSPropertyOp24
 70
     1
102
RTVSPropertyOp25
 70
     1
102
RTVSPropertyOp26
 70
     1
102
RTVSPropertyOp27
 70
     1
102
RTVSPropertyOp28
 70
     1
102
RTVSPropertyOp29
 70
     1
102
RTVSPropertyOp30
 70
     1
102
RTVSPropertyOp31
 70
     1
102
RTVSPropertyOp32
 70
     1
102
RTVSPropertyOp33
 70
     1
102
RTVSPropertyOp34
 70
     1
102
RTVSPropertyOp35
 70
     1
102
RTVSPropertyOp36
 70
     1
102
RTVSPropertyOp37
 70
     1
102
RTVSPropertyOp38
 70
     1
102
RTVSPropertyOp39
 70
     1
102
RTVSPropertyOp40
 70
     1
102
RTVSPropertyOp41
 70
     1
102
RTVSPropertyOp42
 70
     1
102
RTVSPropertyOp43
 70
     1
102
RTVSPropertyOp44
 70
     1
102
RTVSPropertyOp45
 70
     1
102
RTVSPropertyOp46
 70
     1
102
RTVSPropertyOp47
 70
     1
102
RTVSPropertyOp48
 70
     1
102
RTVSPropertyOp49
 70
     1
102
RTVSPropertyOp50
 70
     1
102
RTVSPropertyOp51
 70
     0
102
RTVSPropertyOp52
 70
     0
102
RTVSPropertyOp53
 70
     1
102
RTVSPropertyOp54
 70
     1
102
RTVSPropertyOp55
 70
     1
102
RTVSPropertyOp56
 70
     1
102
RTVSPropertyOp57
 70
     1
102
RTVSPropertyOp58
 70
     1
102
RTVSPropertyOp59
 70
     1
102
RTVSPropertyOp60
 70
     1
102
RTVSPropertyOp61
 70
     1
102
RTVSPropertyOp62
 70
     1
  0
XRECORD
  5
1B09
102
{ACAD_REACTORS
330
1B08
102
}
330
1B08
100
AcDbXrecord
280
     1
102
RTVSPost2010Prop28
280
     0
102
RTVSPost2010PropOp28
 70
     1
102
RTVSPost2010Prop29
280
     1
102
RTVSPost2010PropOp29
 70
     1
102
RTVSPost2010Prop30
280
     1
102
RTVSPost2010PropOp30
 70
     1
102
RTVSPost2010Prop31
280
     0
102
RTVSPost2010PropOp31
 70
     1
102
RTVSPost2010Prop32
280
     0
102
RTVSPost2010PropOp32
 70
     1
102
RTVSPost2010Prop33
280
     0
102
RTVSPost2010PropOp33
 70
     1
102
RTVSPost2010Prop34
280
     0
102
RTVSPost2010PropOp34
 70
     1
102
RTVSPost2010Prop35
280
     0
102
RTVSPost2010PropOp35
 70
     1
102
RTVSPost2010Prop36
280
     0
102
RTVSPost2010PropOp36
 70
     1
102
RTVSPost2010Prop37
 90
       50
102
RTVSPost2010PropOp37
 70
     1
102
RTVSPost2010Prop38
140
0.0
102
RTVSPost2010PropOp38
 70
     1
102
RTVSPost2010Prop39
140
1.0
102
RTVSPost2010PropOp39
 70
     1
102
RTVSPost2010Prop40
 90
        0
102
RTVSPost2010PropOp40
 70
     1
102
RTVSPost2010Prop41ColorIndex
 90
       18
102
RTVSPost2010Prop41ColorRGB
 90
        0
102
RTVSPost2010PropOp41
 70
     1
102
RTVSPost2010Prop42
 90
       50
102
RTVSPost2010PropOp42
 70
     1
102
RTVSPost2010Prop43
 90
        3
102
RTVSPost2010PropOp43
 70
     1
102
RTVSPost2010Prop44ColorIndex
 90
        5
102
RTVSPost2010Prop44ColorRGB
 90
      255
102
RTVSPost2010PropOp44
 70
     1
102
RTVSPost2010Prop45
280
     0
102
RTVSPost2010PropOp45
 70
     1
102
RTVSPost2010Prop46
 90
       50
102
RTVSPost2010PropOp46
 70
     1
102
RTVSPost2010Prop47
 90
       50
102
RTVSPost2010PropOp47
 70
     1
102
RTVSPost2010Prop48
 90
       50
102
RTVSPost2010PropOp48
 70
     1
102
RTVSPost2010Prop49
280
     0
102
RTVSPost2010PropOp49
 70
     1
102
RTVSPost2010Prop50
 90
       50
102
RTVSPost2010PropOp50
 70
     1
102
RTVSPost2010Prop51ColorIndex
 90
      256
102
RTVSPost2010Prop51ColorRGB
 90
-16777216
102
RTVSPost2010PropOp51
 70
     0
102
RTVSPost2010Prop52
140
1.0
102
RTVSPost2010PropOp52
 70
     0
102
RTVSPost2010Prop53
 90
        2
102
RTVSPost2010PropOp53
 70
     1
102
RTVSPost2010Prop54
  1
strokes_ogs.tif
102
RTVSPost2010PropOp54
 70
     1
102
RTVSPost2010Prop55
280
     0
102
RTVSPost2010PropOp55
 70
     1
102
RTVSPost2010Prop56
140
1.0
102
RTVSPost2010PropOp56
 70
     1
102
RTVSPost2010Prop57
140
1.0
102
RTVSPost2010PropOp57
 70
     1
102
RTVSPropertyOp0
 70
     1
102
RTVSPropertyOp1
 70
     1
102
RTVSPropertyOp2
 70
     1
102
RTVSPropertyOp3
 70
     1
102
RTVSPropertyOp4
 70
     1
102
RTVSPropertyOp5
 70
     1
102
RTVSPropertyOp6
 70
     1
102
RTVSPropertyOp7
 70
     1
102
RTVSPropertyOp8
 70
     1
102
RTVSPropertyOp9
 70
     1
102
RTVSPropertyOp10
 70
     1
102
RTVSPropertyOp11
 70
     1
102
RTVSPropertyOp12
 70
     1
102
RTVSPropertyOp13
 70
     1
102
RTVSPropertyOp14
 70
     1
102
RTVSPropertyOp15
 70
     1
102
RTVSPropertyOp16
 70
     1
102
RTVSPropertyOp17
 70
     1
102
RTVSPropertyOp18
 70
     1
102
RTVSPropertyOp19
 70
     1
102
RTVSPropertyOp20
 70
     1
102
RTVSPropertyOp21
 70
     1
102
RTVSPropertyOp22
 70
     1
102
RTVSPropertyOp23
 70
     1
102
RTVSPropertyOp24
 70
     1
102
RTVSPropertyOp25
 70
     1
102
RTVSPropertyOp26
 70
     1
102
RTVSPropertyOp27
 70
     1
102
RTVSPropertyOp28
 70
     1
102
RTVSPropertyOp29
 70
     1
102
RTVSPropertyOp30
 70
     1
102
RTVSPropertyOp31
 70
     1
102
RTVSPropertyOp32
 70
     1
102
RTVSPropertyOp33
 70
     1
102
RTVSPropertyOp34
 70
     1
102
RTVSPropertyOp35
 70
     1
102
RTVSPropertyOp36
 70
     1
102
RTVSPropertyOp37
 70
     1
102
RTVSPropertyOp38
 70
     1
102
RTVSPropertyOp39
 70
     1
102
RTVSPropertyOp40
 70
     1
102
RTVSPropertyOp41
 70
     1
102
RTVSPropertyOp42
 70
     1
102
RTVSPropertyOp43
 70
     1
102
RTVSPropertyOp44
 70
     1
102
RTVSPropertyOp45
 70
     1
102
RTVSPropertyOp46
 70
     1
102
RTVSPropertyOp47
 70
     1
102
RTVSPropertyOp48
 70
     1
102
RTVSPropertyOp49
 70
     1
102
RTVSPropertyOp50
 70
     1
102
RTVSPropertyOp51
 70
     0
102
RTVSPropertyOp52
 70
     0
102
RTVSPropertyOp53
 70
     1
102
RTVSPropertyOp54
 70
     1
102
RTVSPropertyOp55
 70
     1
102
RTVSPropertyOp56
 70
     1
102
RTVSPropertyOp57
 70
     1
102
RTVSPropertyOp58
 70
     1
102
RTVSPropertyOp59
 70
     1
102
RTVSPropertyOp60
 70
     1
102
RTVSPropertyOp61
 70
     1
102
RTVSPropertyOp62
 70
     1
  0
XRECORD
  5
1B11
102
{ACAD_REACTORS
330
1B10
102
}
330
1B10
100
AcDbXrecord
280
     1
102
RTVSPost2010Prop28
280
     0
102
RTVSPost2010PropOp28
 70
     1
102
RTVSPost2010Prop29
280
     1
102
RTVSPost2010PropOp29
 70
     1
102
RTVSPost2010Prop30
280
     1
102
RTVSPost2010PropOp30
 70
     1
102
RTVSPost2010Prop31
280
     0
102
RTVSPost2010PropOp31
 70
     1
102
RTVSPost2010Prop32
280
     0
102
RTVSPost2010PropOp32
 70
     1
102
RTVSPost2010Prop33
280
     0
102
RTVSPost2010PropOp33
 70
     1
102
RTVSPost2010Prop34
280
     0
102
RTVSPost2010PropOp34
 70
     1
102
RTVSPost2010Prop35
280
     0
102
RTVSPost2010PropOp35
 70
     1
102
RTVSPost2010Prop36
280
     0
102
RTVSPost2010PropOp36
 70
     1
102
RTVSPost2010Prop37
 90
       50
102
RTVSPost2010PropOp37
 70
     1
102
RTVSPost2010Prop38
140
0.0
102
RTVSPost2010PropOp38
 70
     1
102
RTVSPost2010Prop39
140
1.0
102
RTVSPost2010PropOp39
 70
     1
102
RTVSPost2010Prop40
 90
        0
102
RTVSPost2010PropOp40
 70
     1
102
RTVSPost2010Prop41ColorIndex
 90
       18
102
RTVSPost2010Prop41ColorRGB
 90
        0
102
RTVSPost2010PropOp41
 70
     1
102
RTVSPost2010Prop42
 90
       50
102
RTVSPost2010PropOp42
 70
     1
102
RTVSPost2010Prop43
 90
        3
102
RTVSPost2010PropOp43
 70
     1
102
RTVSPost2010Prop44ColorIndex
 90
        5
102
RTVSPost2010Prop44ColorRGB
 90
      255
102
RTVSPost2010PropOp44
 70
     1
102
RTVSPost2010Prop45
280
     0
102
RTVSPost2010PropOp45
 70
     1
102
RTVSPost2010Prop46
 90
       50
102
RTVSPost2010PropOp46
 70
     1
102
RTVSPost2010Prop47
 90
       50
102
RTVSPost2010PropOp47
 70
     1
102
RTVSPost2010Prop48
 90
       50
102
RTVSPost2010PropOp48
 70
     1
102
RTVSPost2010Prop49
280
     0
102
RTVSPost2010PropOp49
 70
     1
102
RTVSPost2010Prop50
 90
       50
102
RTVSPost2010PropOp50
 70
     1
102
RTVSPost2010Prop51ColorIndex
 90
      256
102
RTVSPost2010Prop51ColorRGB
 90
-16777216
102
RTVSPost2010PropOp51
 70
     0
102
RTVSPost2010Prop52
140
1.0
102
RTVSPost2010PropOp52
 70
     0
102
RTVSPost2010Prop53
 90
        2
102
RTVSPost2010PropOp53
 70
     1
102
RTVSPost2010Prop54
  1
strokes_ogs.tif
102
RTVSPost2010PropOp54
 70
     1
102
RTVSPost2010Prop55
280
     0
102
RTVSPost2010PropOp55
 70
     1
102
RTVSPost2010Prop56
140
1.0
102
RTVSPost2010PropOp56
 70
     1
102
RTVSPost2010Prop57
140
1.0
102
RTVSPost2010PropOp57
 70
     1
102
RTVSPropertyOp0
 70
     1
102
RTVSPropertyOp1
 70
     1
102
RTVSPropertyOp2
 70
     1
102
RTVSPropertyOp3
 70
     1
102
RTVSPropertyOp4
 70
     1
102
RTVSPropertyOp5
 70
     1
102
RTVSPropertyOp6
 70
     1
102
RTVSPropertyOp7
 70
     1
102
RTVSPropertyOp8
 70
     1
102
RTVSPropertyOp9
 70
     1
102
RTVSPropertyOp10
 70
     1
102
RTVSPropertyOp11
 70
     1
102
RTVSPropertyOp12
 70
     1
102
RTVSPropertyOp13
 70
     1
102
RTVSPropertyOp14
 70
     1
102
RTVSPropertyOp15
 70
     1
102
RTVSPropertyOp16
 70
     1
102
RTVSPropertyOp17
 70
     1
102
RTVSPropertyOp18
 70
     1
102
RTVSPropertyOp19
 70
     1
102
RTVSPropertyOp20
 70
     1
102
RTVSPropertyOp21
 70
     1
102
RTVSPropertyOp22
 70
     1
102
RTVSPropertyOp23
 70
     1
102
RTVSPropertyOp24
 70
     1
102
RTVSPropertyOp25
 70
     1
102
RTVSPropertyOp26
 70
     1
102
RTVSPropertyOp27
 70
     1
102
RTVSPropertyOp28
 70
     1
102
RTVSPropertyOp29
 70
     1
102
RTVSPropertyOp30
 70
     1
102
RTVSPropertyOp31
 70
     1
102
RTVSPropertyOp32
 70
     1
102
RTVSPropertyOp33
 70
     1
102
RTVSPropertyOp34
 70
     1
102
RTVSPropertyOp35
 70
     1
102
RTVSPropertyOp36
 70
     1
102
RTVSPropertyOp37
 70
     1
102
RTVSPropertyOp38
 70
     1
102
RTVSPropertyOp39
 70
     1
102
RTVSPropertyOp40
 70
     1
102
RTVSPropertyOp41
 70
     1
102
RTVSPropertyOp42
 70
     1
102
RTVSPropertyOp43
 70
     1
102
RTVSPropertyOp44
 70
     1
102
RTVSPropertyOp45
 70
     1
102
RTVSPropertyOp46
 70
     1
102
RTVSPropertyOp47
 70
     1
102
RTVSPropertyOp48
 70
     1
102
RTVSPropertyOp49
 70
     1
102
RTVSPropertyOp50
 70
     1
102
RTVSPropertyOp51
 70
     0
102
RTVSPropertyOp52
 70
     0
102
RTVSPropertyOp53
 70
     1
102
RTVSPropertyOp54
 70
     1
102
RTVSPropertyOp55
 70
     1
102
RTVSPropertyOp56
 70
     1
102
RTVSPropertyOp57
 70
     1
102
RTVSPropertyOp58
 70
     1
102
RTVSPropertyOp59
 70
     1
102
RTVSPropertyOp60
 70
     1
102
RTVSPropertyOp61
 70
     1
102
RTVSPropertyOp62
 70
     1
  0
XRECORD
  5
1B03
102
{ACAD_REACTORS
330
1B02
102
}
330
1B02
100
AcDbXrecord
280
     1
102
RTVSPost2010Prop28
280
     0
102
RTVSPost2010PropOp28
 70
     1
102
RTVSPost2010Prop29
280
     1
102
RTVSPost2010PropOp29
 70
     1
102
RTVSPost2010Prop30
280
     1
102
RTVSPost2010PropOp30
 70
     1
102
RTVSPost2010Prop31
280
     0
102
RTVSPost2010PropOp31
 70
     1
102
RTVSPost2010Prop32
280
     0
102
RTVSPost2010PropOp32
 70
     1
102
RTVSPost2010Prop33
280
     0
102
RTVSPost2010PropOp33
 70
     1
102
RTVSPost2010Prop34
280
     0
102
RTVSPost2010PropOp34
 70
     1
102
RTVSPost2010Prop35
280
     0
102
RTVSPost2010PropOp35
 70
     1
102
RTVSPost2010Prop36
280
     0
102
RTVSPost2010PropOp36
 70
     1
102
RTVSPost2010Prop37
 90
       50
102
RTVSPost2010PropOp37
 70
     1
102
RTVSPost2010Prop38
140
0.0
102
RTVSPost2010PropOp38
 70
     1
102
RTVSPost2010Prop39
140
1.0
102
RTVSPost2010PropOp39
 70
     1
102
RTVSPost2010Prop40
 90
        0
102
RTVSPost2010PropOp40
 70
     1
102
RTVSPost2010Prop41ColorIndex
 90
       18
102
RTVSPost2010Prop41ColorRGB
 90
        0
102
RTVSPost2010PropOp41
 70
     1
102
RTVSPost2010Prop42
 90
       50
102
RTVSPost2010PropOp42
 70
     1
102
RTVSPost2010Prop43
 90
        3
102
RTVSPost2010PropOp43
 70
     1
102
RTVSPost2010Prop44ColorIndex
 90
        5
102
RTVSPost2010Prop44ColorRGB
 90
      255
102
RTVSPost2010PropOp44
 70
     1
102
RTVSPost2010Prop45
280
     0
102
RTVSPost2010PropOp45
 70
     1
102
RTVSPost2010Prop46
 90
       50
102
RTVSPost2010PropOp46
 70
     1
102
RTVSPost2010Prop47
 90
       50
102
RTVSPost2010PropOp47
 70
     1
102
RTVSPost2010Prop48
 90
       50
102
RTVSPost2010PropOp48
 70
     1
102
RTVSPost2010Prop49
280
     0
102
RTVSPost2010PropOp49
 70
     1
102
RTVSPost2010Prop50
 90
       50
102
RTVSPost2010PropOp50
 70
     1
102
RTVSPost2010Prop51ColorIndex
 90
      256
102
RTVSPost2010Prop51ColorRGB
 90
-16777216
102
RTVSPost2010PropOp51
 70
     0
102
RTVSPost2010Prop52
140
1.0
102
RTVSPost2010PropOp52
 70
     0
102
RTVSPost2010Prop53
 90
        2
102
RTVSPost2010PropOp53
 70
     1
102
RTVSPost2010Prop54
  1
strokes_ogs.tif
102
RTVSPost2010PropOp54
 70
     1
102
RTVSPost2010Prop55
280
     0
102
RTVSPost2010PropOp55
 70
     1
102
RTVSPost2010Prop56
140
1.0
102
RTVSPost2010PropOp56
 70
     1
102
RTVSPost2010Prop57
140
1.0
102
RTVSPost2010PropOp57
 70
     1
102
RTVSPropertyOp0
 70
     1
102
RTVSPropertyOp1
 70
     1
102
RTVSPropertyOp2
 70
     1
102
RTVSPropertyOp3
 70
     1
102
RTVSPropertyOp4
 70
     1
102
RTVSPropertyOp5
 70
     1
102
RTVSPropertyOp6
 70
     1
102
RTVSPropertyOp7
 70
     1
102
RTVSPropertyOp8
 70
     1
102
RTVSPropertyOp9
 70
     1
102
RTVSPropertyOp10
 70
     1
102
RTVSPropertyOp11
 70
     1
102
RTVSPropertyOp12
 70
     1
102
RTVSPropertyOp13
 70
     1
102
RTVSPropertyOp14
 70
     1
102
RTVSPropertyOp15
 70
     1
102
RTVSPropertyOp16
 70
     1
102
RTVSPropertyOp17
 70
     1
102
RTVSPropertyOp18
 70
     1
102
RTVSPropertyOp19
 70
     1
102
RTVSPropertyOp20
 70
     1
102
RTVSPropertyOp21
 70
     1
102
RTVSPropertyOp22
 70
     1
102
RTVSPropertyOp23
 70
     1
102
RTVSPropertyOp24
 70
     1
102
RTVSPropertyOp25
 70
     1
102
RTVSPropertyOp26
 70
     1
102
RTVSPropertyOp27
 70
     1
102
RTVSPropertyOp28
 70
     1
102
RTVSPropertyOp29
 70
     1
102
RTVSPropertyOp30
 70
     1
102
RTVSPropertyOp31
 70
     1
102
RTVSPropertyOp32
 70
     1
102
RTVSPropertyOp33
 70
     1
102
RTVSPropertyOp34
 70
     1
102
RTVSPropertyOp35
 70
     1
102
RTVSPropertyOp36
 70
     1
102
RTVSPropertyOp37
 70
     1
102
RTVSPropertyOp38
 70
     1
102
RTVSPropertyOp39
 70
     1
102
RTVSPropertyOp40
 70
     1
102
RTVSPropertyOp41
 70
     1
102
RTVSPropertyOp42
 70
     1
102
RTVSPropertyOp43
 70
     1
102
RTVSPropertyOp44
 70
     1
102
RTVSPropertyOp45
 70
     1
102
RTVSPropertyOp46
 70
     1
102
RTVSPropertyOp47
 70
     1
102
RTVSPropertyOp48
 70
     1
102
RTVSPropertyOp49
 70
     1
102
RTVSPropertyOp50
 70
     1
102
RTVSPropertyOp51
 70
     0
102
RTVSPropertyOp52
 70
     0
102
RTVSPropertyOp53
 70
     1
102
RTVSPropertyOp54
 70
     1
102
RTVSPropertyOp55
 70
     1
102
RTVSPropertyOp56
 70
     1
102
RTVSPropertyOp57
 70
     1
102
RTVSPropertyOp58
 70
     1
102
RTVSPropertyOp59
 70
     1
102
RTVSPropertyOp60
 70
     1
102
RTVSPropertyOp61
 70
     1
102
RTVSPropertyOp62
 70
     1
  0
XRECORD
  5
1B07
102
{ACAD_REACTORS
330
1B06
102
}
330
1B06
100
AcDbXrecord
280
     1
102
RTVSPost2010Prop28
280
     0
102
RTVSPost2010PropOp28
 70
     1
102
RTVSPost2010Prop29
280
     1
102
RTVSPost2010PropOp29
 70
     1
102
RTVSPost2010Prop30
280
     1
102
RTVSPost2010PropOp30
 70
     1
102
RTVSPost2010Prop31
280
     0
102
RTVSPost2010PropOp31
 70
     1
102
RTVSPost2010Prop32
280
     0
102
RTVSPost2010PropOp32
 70
     1
102
RTVSPost2010Prop33
280
     0
102
RTVSPost2010PropOp33
 70
     1
102
RTVSPost2010Prop34
280
     0
102
RTVSPost2010PropOp34
 70
     1
102
RTVSPost2010Prop35
280
     0
102
RTVSPost2010PropOp35
 70
     1
102
RTVSPost2010Prop36
280
     0
102
RTVSPost2010PropOp36
 70
     1
102
RTVSPost2010Prop37
 90
       50
102
RTVSPost2010PropOp37
 70
     1
102
RTVSPost2010Prop38
140
0.0
102
RTVSPost2010PropOp38
 70
     1
102
RTVSPost2010Prop39
140
1.0
102
RTVSPost2010PropOp39
 70
     1
102
RTVSPost2010Prop40
 90
        0
102
RTVSPost2010PropOp40
 70
     1
102
RTVSPost2010Prop41ColorIndex
 90
       18
102
RTVSPost2010Prop41ColorRGB
 90
        0
102
RTVSPost2010PropOp41
 70
     1
102
RTVSPost2010Prop42
 90
       50
102
RTVSPost2010PropOp42
 70
     1
102
RTVSPost2010Prop43
 90
        3
102
RTVSPost2010PropOp43
 70
     1
102
RTVSPost2010Prop44ColorIndex
 90
        5
102
RTVSPost2010Prop44ColorRGB
 90
      255
102
RTVSPost2010PropOp44
 70
     1
102
RTVSPost2010Prop45
280
     0
102
RTVSPost2010PropOp45
 70
     1
102
RTVSPost2010Prop46
 90
       50
102
RTVSPost2010PropOp46
 70
     1
102
RTVSPost2010Prop47
 90
       50
102
RTVSPost2010PropOp47
 70
     1
102
RTVSPost2010Prop48
 90
       50
102
RTVSPost2010PropOp48
 70
     1
102
RTVSPost2010Prop49
280
     0
102
RTVSPost2010PropOp49
 70
     1
102
RTVSPost2010Prop50
 90
       50
102
RTVSPost2010PropOp50
 70
     1
102
RTVSPost2010Prop51ColorIndex
 90
      256
102
RTVSPost2010Prop51ColorRGB
 90
-16777216
102
RTVSPost2010PropOp51
 70
     0
102
RTVSPost2010Prop52
140
1.0
102
RTVSPost2010PropOp52
 70
     0
102
RTVSPost2010Prop53
 90
        2
102
RTVSPost2010PropOp53
 70
     1
102
RTVSPost2010Prop54
  1
strokes_ogs.tif
102
RTVSPost2010PropOp54
 70
     1
102
RTVSPost2010Prop55
280
     0
102
RTVSPost2010PropOp55
 70
     1
102
RTVSPost2010Prop56
140
1.0
102
RTVSPost2010PropOp56
 70
     1
102
RTVSPost2010Prop57
140
1.0
102
RTVSPost2010PropOp57
 70
     1
102
RTVSPropertyOp0
 70
     1
102
RTVSPropertyOp1
 70
     1
102
RTVSPropertyOp2
 70
     1
102
RTVSPropertyOp3
 70
     1
102
RTVSPropertyOp4
 70
     1
102
RTVSPropertyOp5
 70
     1
102
RTVSPropertyOp6
 70
     1
102
RTVSPropertyOp7
 70
     1
102
RTVSPropertyOp8
 70
     1
102
RTVSPropertyOp9
 70
     1
102
RTVSPropertyOp10
 70
     1
102
RTVSPropertyOp11
 70
     1
102
RTVSPropertyOp12
 70
     1
102
RTVSPropertyOp13
 70
     1
102
RTVSPropertyOp14
 70
     1
102
RTVSPropertyOp15
 70
     1
102
RTVSPropertyOp16
 70
     1
102
RTVSPropertyOp17
 70
     1
102
RTVSPropertyOp18
 70
     1
102
RTVSPropertyOp19
 70
     1
102
RTVSPropertyOp20
 70
     1
102
RTVSPropertyOp21
 70
     1
102
RTVSPropertyOp22
 70
     1
102
RTVSPropertyOp23
 70
     1
102
RTVSPropertyOp24
 70
     1
102
RTVSPropertyOp25
 70
     1
102
RTVSPropertyOp26
 70
     1
102
RTVSPropertyOp27
 70
     1
102
RTVSPropertyOp28
 70
     1
102
RTVSPropertyOp29
 70
     1
102
RTVSPropertyOp30
 70
     1
102
RTVSPropertyOp31
 70
     1
102
RTVSPropertyOp32
 70
     1
102
RTVSPropertyOp33
 70
     1
102
RTVSPropertyOp34
 70
     1
102
RTVSPropertyOp35
 70
     1
102
RTVSPropertyOp36
 70
     1
102
RTVSPropertyOp37
 70
     1
102
RTVSPropertyOp38
 70
     1
102
RTVSPropertyOp39
 70
     1
102
RTVSPropertyOp40
 70
     1
102
RTVSPropertyOp41
 70
     1
102
RTVSPropertyOp42
 70
     1
102
RTVSPropertyOp43
 70
     1
102
RTVSPropertyOp44
 70
     1
102
RTVSPropertyOp45
 70
     1
102
RTVSPropertyOp46
 70
     1
102
RTVSPropertyOp47
 70
     1
102
RTVSPropertyOp48
 70
     1
102
RTVSPropertyOp49
 70
     1
102
RTVSPropertyOp50
 70
     1
102
RTVSPropertyOp51
 70
     0
102
RTVSPropertyOp52
 70
     0
102
RTVSPropertyOp53
 70
     1
102
RTVSPropertyOp54
 70
     1
102
RTVSPropertyOp55
 70
     1
102
RTVSPropertyOp56
 70
     1
102
RTVSPropertyOp57
 70
     1
102
RTVSPropertyOp58
 70
     1
102
RTVSPropertyOp59
 70
     1
102
RTVSPropertyOp60
 70
     1
102
RTVSPropertyOp61
 70
     1
102
RTVSPropertyOp62
 70
     1
  0
XRECORD
  5
1B21
102
{ACAD_REACTORS
330
1B20
102
}
330
1B20
100
AcDbXrecord
280
     1
102
RTVSPost2010Prop28
280
     0
102
RTVSPost2010PropOp28
 70
     1
102
RTVSPost2010Prop29
280
     1
102
RTVSPost2010PropOp29
 70
     1
102
RTVSPost2010Prop30
280
     1
102
RTVSPost2010PropOp30
 70
     1
102
RTVSPost2010Prop31
280
     0
102
RTVSPost2010PropOp31
 70
     1
102
RTVSPost2010Prop32
280
     0
102
RTVSPost2010PropOp32
 70
     1
102
RTVSPost2010Prop33
280
     0
102
RTVSPost2010PropOp33
 70
     1
102
RTVSPost2010Prop34
280
     0
102
RTVSPost2010PropOp34
 70
     1
102
RTVSPost2010Prop35
280
     0
102
RTVSPost2010PropOp35
 70
     1
102
RTVSPost2010Prop36
280
     0
102
RTVSPost2010PropOp36
 70
     1
102
RTVSPost2010Prop37
 90
       50
102
RTVSPost2010PropOp37
 70
     0
102
RTVSPost2010Prop38
140
0.0
102
RTVSPost2010PropOp38
 70
     0
102
RTVSPost2010Prop39
140
1.0
102
RTVSPost2010PropOp39
 70
     0
102
RTVSPost2010Prop40
 90
        0
102
RTVSPost2010PropOp40
 70
     0
102
RTVSPost2010Prop41ColorIndex
 90
       18
102
RTVSPost2010Prop41ColorRGB
 90
        0
102
RTVSPost2010PropOp41
 70
     0
102
RTVSPost2010Prop42
 90
       50
102
RTVSPost2010PropOp42
 70
     0
102
RTVSPost2010Prop43
 90
        3
102
RTVSPost2010PropOp43
 70
     0
102
RTVSPost2010Prop44ColorIndex
 90
        5
102
RTVSPost2010Prop44ColorRGB
 90
      255
102
RTVSPost2010PropOp44
 70
     0
102
RTVSPost2010Prop45
280
     0
102
RTVSPost2010PropOp45
 70
     1
102
RTVSPost2010Prop46
 90
       50
102
RTVSPost2010PropOp46
 70
     0
102
RTVSPost2010Prop47
 90
       50
102
RTVSPost2010PropOp47
 70
     0
102
RTVSPost2010Prop48
 90
       50
102
RTVSPost2010PropOp48
 70
     0
102
RTVSPost2010Prop49
280
     0
102
RTVSPost2010PropOp49
 70
     1
102
RTVSPost2010Prop50
 90
       50
102
RTVSPost2010PropOp50
 70
     0
102
RTVSPost2010Prop51ColorIndex
 90
      256
102
RTVSPost2010Prop51ColorRGB
 90
-16777216
102
RTVSPost2010PropOp51
 70
     0
102
RTVSPost2010Prop52
140
1.0
102
RTVSPost2010PropOp52
 70
     0
102
RTVSPost2010Prop53
 90
        2
102
RTVSPost2010PropOp53
 70
     0
102
RTVSPost2010Prop54
  1
strokes_ogs.tif
102
RTVSPost2010PropOp54
 70
     0
102
RTVSPost2010Prop55
280
     0
102
RTVSPost2010PropOp55
 70
     1
102
RTVSPost2010Prop56
140
1.0
102
RTVSPost2010PropOp56
 70
     0
102
RTVSPost2010Prop57
140
1.0
102
RTVSPost2010PropOp57
 70
     0
102
RTVSPropertyOp0
 70
     0
102
RTVSPropertyOp1
 70
     0
102
RTVSPropertyOp2
 70
     0
102
RTVSPropertyOp3
 70
     0
102
RTVSPropertyOp4
 70
     0
102
RTVSPropertyOp5
 70
     0
102
RTVSPropertyOp6
 70
     0
102
RTVSPropertyOp7
 70
     0
102
RTVSPropertyOp8
 70
     0
102
RTVSPropertyOp9
 70
     0
102
RTVSPropertyOp10
 70
     0
102
RTVSPropertyOp11
 70
     0
102
RTVSPropertyOp12
 70
     0
102
RTVSPropertyOp13
 70
     0
102
RTVSPropertyOp14
 70
     2
102
RTVSPropertyOp15
 70
     0
102
RTVSPropertyOp16
 70
     0
102
RTVSPropertyOp17
 70
     0
102
RTVSPropertyOp18
 70
     0
102
RTVSPropertyOp19
 70
     0
102
RTVSPropertyOp20
 70
     0
102
RTVSPropertyOp21
 70
     0
102
RTVSPropertyOp22
 70
     0
102
RTVSPropertyOp23
 70
     0
102
RTVSPropertyOp24
 70
     0
102
RTVSPropertyOp25
 70
     0
102
RTVSPropertyOp26
 70
     0
102
RTVSPropertyOp27
 70
     0
102
RTVSPropertyOp28
 70
     1
102
RTVSPropertyOp29
 70
     1
102
RTVSPropertyOp30
 70
     1
102
RTVSPropertyOp31
 70
     1
102
RTVSPropertyOp32
 70
     1
102
RTVSPropertyOp33
 70
     1
102
RTVSPropertyOp34
 70
     1
102
RTVSPropertyOp35
 70
     1
102
RTVSPropertyOp36
 70
     1
102
RTVSPropertyOp37
 70
     0
102
RTVSPropertyOp38
 70
     0
102
RTVSPropertyOp39
 70
     0
102
RTVSPropertyOp40
 70
     0
102
RTVSPropertyOp41
 70
     0
102
RTVSPropertyOp42
 70
     0
102
RTVSPropertyOp43
 70
     0
102
RTVSPropertyOp44
 70
     0
102
RTVSPropertyOp45
 70
     1
102
RTVSPropertyOp46
 70
     0
102
RTVSPropertyOp47
 70
     0
102
RTVSPropertyOp48
 70
     0
102
RTVSPropertyOp49
 70
     1
102
RTVSPropertyOp50
 70
     0
102
RTVSPropertyOp51
 70
     0
102
RTVSPropertyOp52
 70
     0
102
RTVSPropertyOp53
 70
     0
102
RTVSPropertyOp54
 70
     0
102
RTVSPropertyOp55
 70
     1
102
RTVSPropertyOp56
 70
     0
102
RTVSPropertyOp57
 70
     0
102
RTVSPropertyOp58
 70
     0
102
RTVSPropertyOp59
 70
     0
102
RTVSPropertyOp60
 70
     0
102
RTVSPropertyOp61
 70
     0
102
RTVSPropertyOp62
 70
     0
  0
XRECORD
  5
1B0F
102
{ACAD_REACTORS
330
1B0E
102
}
330
1B0E
100
AcDbXrecord
280
     1
102
RTVSPost2010Prop28
280
     0
102
RTVSPost2010PropOp28
 70
     1
102
RTVSPost2010Prop29
280
     1
102
RTVSPost2010PropOp29
 70
     1
102
RTVSPost2010Prop30
280
     1
102
RTVSPost2010PropOp30
 70
     1
102
RTVSPost2010Prop31
280
     0
102
RTVSPost2010PropOp31
 70
     1
102
RTVSPost2010Prop32
280
     0
102
RTVSPost2010PropOp32
 70
     1
102
RTVSPost2010Prop33
280
     0
102
RTVSPost2010PropOp33
 70
     1
102
RTVSPost2010Prop34
280
     0
102
RTVSPost2010PropOp34
 70
     1
102
RTVSPost2010Prop35
280
     0
102
RTVSPost2010PropOp35
 70
     1
102
RTVSPost2010Prop36
280
     0
102
RTVSPost2010PropOp36
 70
     1
102
RTVSPost2010Prop37
 90
       50
102
RTVSPost2010PropOp37
 70
     1
102
RTVSPost2010Prop38
140
0.0
102
RTVSPost2010PropOp38
 70
     1
102
RTVSPost2010Prop39
140
1.0
102
RTVSPost2010PropOp39
 70
     1
102
RTVSPost2010Prop40
 90
        0
102
RTVSPost2010PropOp40
 70
     1
102
RTVSPost2010Prop41ColorIndex
 90
       18
102
RTVSPost2010Prop41ColorRGB
 90
        0
102
RTVSPost2010PropOp41
 70
     1
102
RTVSPost2010Prop42
 90
       50
102
RTVSPost2010PropOp42
 70
     1
102
RTVSPost2010Prop43
 90
        3
102
RTVSPost2010PropOp43
 70
     1
102
RTVSPost2010Prop44ColorIndex
 90
        5
102
RTVSPost2010Prop44ColorRGB
 90
      255
102
RTVSPost2010PropOp44
 70
     1
102
RTVSPost2010Prop45
280
     0
102
RTVSPost2010PropOp45
 70
     1
102
RTVSPost2010Prop46
 90
       50
102
RTVSPost2010PropOp46
 70
     1
102
RTVSPost2010Prop47
 90
       50
102
RTVSPost2010PropOp47
 70
     1
102
RTVSPost2010Prop48
 90
       50
102
RTVSPost2010PropOp48
 70
     1
102
RTVSPost2010Prop49
280
     0
102
RTVSPost2010PropOp49
 70
     1
102
RTVSPost2010Prop50
 90
       50
102
RTVSPost2010PropOp50
 70
     1
102
RTVSPost2010Prop51ColorIndex
 90
      256
102
RTVSPost2010Prop51ColorRGB
 90
-16777216
102
RTVSPost2010PropOp51
 70
     0
102
RTVSPost2010Prop52
140
1.0
102
RTVSPost2010PropOp52
 70
     0
102
RTVSPost2010Prop53
 90
        2
102
RTVSPost2010PropOp53
 70
     1
102
RTVSPost2010Prop54
  1
strokes_ogs.tif
102
RTVSPost2010PropOp54
 70
     1
102
RTVSPost2010Prop55
280
     0
102
RTVSPost2010PropOp55
 70
     1
102
RTVSPost2010Prop56
140
1.0
102
RTVSPost2010PropOp56
 70
     1
102
RTVSPost2010Prop57
140
1.0
102
RTVSPost2010PropOp57
 70
     1
102
RTVSPropertyOp0
 70
     1
102
RTVSPropertyOp1
 70
     1
102
RTVSPropertyOp2
 70
     1
102
RTVSPropertyOp3
 70
     1
102
RTVSPropertyOp4
 70
     1
102
RTVSPropertyOp5
 70
     1
102
RTVSPropertyOp6
 70
     1
102
RTVSPropertyOp7
 70
     1
102
RTVSPropertyOp8
 70
     1
102
RTVSPropertyOp9
 70
     1
102
RTVSPropertyOp10
 70
     1
102
RTVSPropertyOp11
 70
     1
102
RTVSPropertyOp12
 70
     1
102
RTVSPropertyOp13
 70
     1
102
RTVSPropertyOp14
 70
     1
102
RTVSPropertyOp15
 70
     1
102
RTVSPropertyOp16
 70
     1
102
RTVSPropertyOp17
 70
     1
102
RTVSPropertyOp18
 70
     1
102
RTVSPropertyOp19
 70
     1
102
RTVSPropertyOp20
 70
     1
102
RTVSPropertyOp21
 70
     1
102
RTVSPropertyOp22
 70
     1
102
RTVSPropertyOp23
 70
     1
102
RTVSPropertyOp24
 70
     1
102
RTVSPropertyOp25
 70
     1
102
RTVSPropertyOp26
 70
     1
102
RTVSPropertyOp27
 70
     1
102
RTVSPropertyOp28
 70
     1
102
RTVSPropertyOp29
 70
     1
102
RTVSPropertyOp30
 70
     1
102
RTVSPropertyOp31
 70
     1
102
RTVSPropertyOp32
 70
     1
102
RTVSPropertyOp33
 70
     1
102
RTVSPropertyOp34
 70
     1
102
RTVSPropertyOp35
 70
     1
102
RTVSPropertyOp36
 70
     1
102
RTVSPropertyOp37
 70
     1
102
RTVSPropertyOp38
 70
     1
102
RTVSPropertyOp39
 70
     1
102
RTVSPropertyOp40
 70
     1
102
RTVSPropertyOp41
 70
     1
102
RTVSPropertyOp42
 70
     1
102
RTVSPropertyOp43
 70
     1
102
RTVSPropertyOp44
 70
     1
102
RTVSPropertyOp45
 70
     1
102
RTVSPropertyOp46
 70
     1
102
RTVSPropertyOp47
 70
     1
102
RTVSPropertyOp48
 70
     1
102
RTVSPropertyOp49
 70
     1
102
RTVSPropertyOp50
 70
     1
102
RTVSPropertyOp51
 70
     0
102
RTVSPropertyOp52
 70
     0
102
RTVSPropertyOp53
 70
     1
102
RTVSPropertyOp54
 70
     1
102
RTVSPropertyOp55
 70
     1
102
RTVSPropertyOp56
 70
     1
102
RTVSPropertyOp57
 70
     1
102
RTVSPropertyOp58
 70
     1
102
RTVSPropertyOp59
 70
     1
102
RTVSPropertyOp60
 70
     1
102
RTVSPropertyOp61
 70
     1
102
RTVSPropertyOp62
 70
     1
  0
XRECORD
  5
1AF3
102
{ACAD_REACTORS
330
1AF2
102
}
330
1AF2
100
AcDbXrecord
280
     1
102
RTVSPost2010Prop28
280
     0
102
RTVSPost2010PropOp28
 70
     1
102
RTVSPost2010Prop29
280
     1
102
RTVSPost2010PropOp29
 70
     1
102
RTVSPost2010Prop30
280
     1
102
RTVSPost2010PropOp30
 70
     1
102
RTVSPost2010Prop31
280
     0
102
RTVSPost2010PropOp31
 70
     1
102
RTVSPost2010Prop32
280
     0
102
RTVSPost2010PropOp32
 70
     1
102
RTVSPost2010Prop33
280
     0
102
RTVSPost2010PropOp33
 70
     1
102
RTVSPost2010Prop34
280
     0
102
RTVSPost2010PropOp34
 70
     1
102
RTVSPost2010Prop35
280
     0
102
RTVSPost2010PropOp35
 70
     1
102
RTVSPost2010Prop36
280
     0
102
RTVSPost2010PropOp36
 70
     1
102
RTVSPost2010Prop37
 90
       50
102
RTVSPost2010PropOp37
 70
     1
102
RTVSPost2010Prop38
140
0.0
102
RTVSPost2010PropOp38
 70
     1
102
RTVSPost2010Prop39
140
1.0
102
RTVSPost2010PropOp39
 70
     1
102
RTVSPost2010Prop40
 90
        0
102
RTVSPost2010PropOp40
 70
     1
102
RTVSPost2010Prop41ColorIndex
 90
       18
102
RTVSPost2010Prop41ColorRGB
 90
        0
102
RTVSPost2010PropOp41
 70
     1
102
RTVSPost2010Prop42
 90
       50
102
RTVSPost2010PropOp42
 70
     1
102
RTVSPost2010Prop43
 90
        3
102
RTVSPost2010PropOp43
 70
     1
102
RTVSPost2010Prop44ColorIndex
 90
        5
102
RTVSPost2010Prop44ColorRGB
 90
      255
102
RTVSPost2010PropOp44
 70
     1
102
RTVSPost2010Prop45
280
     0
102
RTVSPost2010PropOp45
 70
     1
102
RTVSPost2010Prop46
 90
       50
102
RTVSPost2010PropOp46
 70
     1
102
RTVSPost2010Prop47
 90
       50
102
RTVSPost2010PropOp47
 70
     1
102
RTVSPost2010Prop48
 90
       50
102
RTVSPost2010PropOp48
 70
     1
102
RTVSPost2010Prop49
280
     0
102
RTVSPost2010PropOp49
 70
     1
102
RTVSPost2010Prop50
 90
       50
102
RTVSPost2010PropOp50
 70
     1
102
RTVSPost2010Prop51ColorIndex
 90
      256
102
RTVSPost2010Prop51ColorRGB
 90
-16777216
102
RTVSPost2010PropOp51
 70
     0
102
RTVSPost2010Prop52
140
1.0
102
RTVSPost2010PropOp52
 70
     0
102
RTVSPost2010Prop53
 90
        2
102
RTVSPost2010PropOp53
 70
     1
102
RTVSPost2010Prop54
  1
strokes_ogs.tif
102
RTVSPost2010PropOp54
 70
     1
102
RTVSPost2010Prop55
280
     0
102
RTVSPost2010PropOp55
 70
     1
102
RTVSPost2010Prop56
140
1.0
102
RTVSPost2010PropOp56
 70
     1
102
RTVSPost2010Prop57
140
1.0
102
RTVSPost2010PropOp57
 70
     1
102
RTVSPropertyOp0
 70
     1
102
RTVSPropertyOp1
 70
     1
102
RTVSPropertyOp2
 70
     1
102
RTVSPropertyOp3
 70
     1
102
RTVSPropertyOp4
 70
     1
102
RTVSPropertyOp5
 70
     1
102
RTVSPropertyOp6
 70
     1
102
RTVSPropertyOp7
 70
     1
102
RTVSPropertyOp8
 70
     1
102
RTVSPropertyOp9
 70
     1
102
RTVSPropertyOp10
 70
     1
102
RTVSPropertyOp11
 70
     1
102
RTVSPropertyOp12
 70
     1
102
RTVSPropertyOp13
 70
     1
102
RTVSPropertyOp14
 70
     1
102
RTVSPropertyOp15
 70
     1
102
RTVSPropertyOp16
 70
     1
102
RTVSPropertyOp17
 70
     1
102
RTVSPropertyOp18
 70
     1
102
RTVSPropertyOp19
 70
     1
102
RTVSPropertyOp20
 70
     1
102
RTVSPropertyOp21
 70
     1
102
RTVSPropertyOp22
 70
     1
102
RTVSPropertyOp23
 70
     1
102
RTVSPropertyOp24
 70
     1
102
RTVSPropertyOp25
 70
     1
102
RTVSPropertyOp26
 70
     1
102
RTVSPropertyOp27
 70
     1
102
RTVSPropertyOp28
 70
     1
102
RTVSPropertyOp29
 70
     1
102
RTVSPropertyOp30
 70
     1
102
RTVSPropertyOp31
 70
     1
102
RTVSPropertyOp32
 70
     1
102
RTVSPropertyOp33
 70
     1
102
RTVSPropertyOp34
 70
     1
102
RTVSPropertyOp35
 70
     1
102
RTVSPropertyOp36
 70
     1
102
RTVSPropertyOp37
 70
     1
102
RTVSPropertyOp38
 70
     1
102
RTVSPropertyOp39
 70
     1
102
RTVSPropertyOp40
 70
     1
102
RTVSPropertyOp41
 70
     1
102
RTVSPropertyOp42
 70
     1
102
RTVSPropertyOp43
 70
     1
102
RTVSPropertyOp44
 70
     1
102
RTVSPropertyOp45
 70
     1
102
RTVSPropertyOp46
 70
     1
102
RTVSPropertyOp47
 70
     1
102
RTVSPropertyOp48
 70
     1
102
RTVSPropertyOp49
 70
     1
102
RTVSPropertyOp50
 70
     1
102
RTVSPropertyOp51
 70
     0
102
RTVSPropertyOp52
 70
     0
102
RTVSPropertyOp53
 70
     1
102
RTVSPropertyOp54
 70
     1
102
RTVSPropertyOp55
 70
     1
102
RTVSPropertyOp56
 70
     1
102
RTVSPropertyOp57
 70
     1
102
RTVSPropertyOp58
 70
     1
102
RTVSPropertyOp59
 70
     1
102
RTVSPropertyOp60
 70
     1
102
RTVSPropertyOp61
 70
     1
102
RTVSPropertyOp62
 70
     1
  0
XRECORD
  5
1AF5
102
{ACAD_REACTORS
330
1AF4
102
}
330
1AF4
100
AcDbXrecord
280
     1
102
RTVSPost2010Prop28
280
     0
102
RTVSPost2010PropOp28
 70
     1
102
RTVSPost2010Prop29
280
     1
102
RTVSPost2010PropOp29
 70
     1
102
RTVSPost2010Prop30
280
     1
102
RTVSPost2010PropOp30
 70
     1
102
RTVSPost2010Prop31
280
     0
102
RTVSPost2010PropOp31
 70
     1
102
RTVSPost2010Prop32
280
     0
102
RTVSPost2010PropOp32
 70
     1
102
RTVSPost2010Prop33
280
     0
102
RTVSPost2010PropOp33
 70
     1
102
RTVSPost2010Prop34
280
     0
102
RTVSPost2010PropOp34
 70
     1
102
RTVSPost2010Prop35
280
     0
102
RTVSPost2010PropOp35
 70
     1
102
RTVSPost2010Prop36
280
     0
102
RTVSPost2010PropOp36
 70
     1
102
RTVSPost2010Prop37
 90
       50
102
RTVSPost2010PropOp37
 70
     1
102
RTVSPost2010Prop38
140
0.0
102
RTVSPost2010PropOp38
 70
     1
102
RTVSPost2010Prop39
140
1.0
102
RTVSPost2010PropOp39
 70
     1
102
RTVSPost2010Prop40
 90
        0
102
RTVSPost2010PropOp40
 70
     1
102
RTVSPost2010Prop41ColorIndex
 90
       18
102
RTVSPost2010Prop41ColorRGB
 90
        0
102
RTVSPost2010PropOp41
 70
     1
102
RTVSPost2010Prop42
 90
       50
102
RTVSPost2010PropOp42
 70
     1
102
RTVSPost2010Prop43
 90
        3
102
RTVSPost2010PropOp43
 70
     1
102
RTVSPost2010Prop44ColorIndex
 90
        5
102
RTVSPost2010Prop44ColorRGB
 90
      255
102
RTVSPost2010PropOp44
 70
     1
102
RTVSPost2010Prop45
280
     0
102
RTVSPost2010PropOp45
 70
     1
102
RTVSPost2010Prop46
 90
       50
102
RTVSPost2010PropOp46
 70
     1
102
RTVSPost2010Prop47
 90
       50
102
RTVSPost2010PropOp47
 70
     1
102
RTVSPost2010Prop48
 90
       50
102
RTVSPost2010PropOp48
 70
     1
102
RTVSPost2010Prop49
280
     0
102
RTVSPost2010PropOp49
 70
     1
102
RTVSPost2010Prop50
 90
       50
102
RTVSPost2010PropOp50
 70
     1
102
RTVSPost2010Prop51ColorIndex
 90
      256
102
RTVSPost2010Prop51ColorRGB
 90
-16777216
102
RTVSPost2010PropOp51
 70
     0
102
RTVSPost2010Prop52
140
1.0
102
RTVSPost2010PropOp52
 70
     0
102
RTVSPost2010Prop53
 90
        2
102
RTVSPost2010PropOp53
 70
     1
102
RTVSPost2010Prop54
  1
strokes_ogs.tif
102
RTVSPost2010PropOp54
 70
     1
102
RTVSPost2010Prop55
280
     0
102
RTVSPost2010PropOp55
 70
     1
102
RTVSPost2010Prop56
140
1.0
102
RTVSPost2010PropOp56
 70
     1
102
RTVSPost2010Prop57
140
1.0
102
RTVSPost2010PropOp57
 70
     1
102
RTVSPropertyOp0
 70
     1
102
RTVSPropertyOp1
 70
     1
102
RTVSPropertyOp2
 70
     1
102
RTVSPropertyOp3
 70
     1
102
RTVSPropertyOp4
 70
     1
102
RTVSPropertyOp5
 70
     1
102
RTVSPropertyOp6
 70
     1
102
RTVSPropertyOp7
 70
     1
102
RTVSPropertyOp8
 70
     1
102
RTVSPropertyOp9
 70
     1
102
RTVSPropertyOp10
 70
     1
102
RTVSPropertyOp11
 70
     1
102
RTVSPropertyOp12
 70
     1
102
RTVSPropertyOp13
 70
     1
102
RTVSPropertyOp14
 70
     1
102
RTVSPropertyOp15
 70
     1
102
RTVSPropertyOp16
 70
     1
102
RTVSPropertyOp17
 70
     1
102
RTVSPropertyOp18
 70
     1
102
RTVSPropertyOp19
 70
     1
102
RTVSPropertyOp20
 70
     1
102
RTVSPropertyOp21
 70
     1
102
RTVSPropertyOp22
 70
     1
102
RTVSPropertyOp23
 70
     1
102
RTVSPropertyOp24
 70
     1
102
RTVSPropertyOp25
 70
     1
102
RTVSPropertyOp26
 70
     1
102
RTVSPropertyOp27
 70
     1
102
RTVSPropertyOp28
 70
     1
102
RTVSPropertyOp29
 70
     1
102
RTVSPropertyOp30
 70
     1
102
RTVSPropertyOp31
 70
     1
102
RTVSPropertyOp32
 70
     1
102
RTVSPropertyOp33
 70
     1
102
RTVSPropertyOp34
 70
     1
102
RTVSPropertyOp35
 70
     1
102
RTVSPropertyOp36
 70
     1
102
RTVSPropertyOp37
 70
     1
102
RTVSPropertyOp38
 70
     1
102
RTVSPropertyOp39
 70
     1
102
RTVSPropertyOp40
 70
     1
102
RTVSPropertyOp41
 70
     1
102
RTVSPropertyOp42
 70
     1
102
RTVSPropertyOp43
 70
     1
102
RTVSPropertyOp44
 70
     1
102
RTVSPropertyOp45
 70
     1
102
RTVSPropertyOp46
 70
     1
102
RTVSPropertyOp47
 70
     1
102
RTVSPropertyOp48
 70
     1
102
RTVSPropertyOp49
 70
     1
102
RTVSPropertyOp50
 70
     1
102
RTVSPropertyOp51
 70
     0
102
RTVSPropertyOp52
 70
     0
102
RTVSPropertyOp53
 70
     1
102
RTVSPropertyOp54
 70
     1
102
RTVSPropertyOp55
 70
     1
102
RTVSPropertyOp56
 70
     1
102
RTVSPropertyOp57
 70
     1
102
RTVSPropertyOp58
 70
     1
102
RTVSPropertyOp59
 70
     1
102
RTVSPropertyOp60
 70
     1
102
RTVSPropertyOp61
 70
     1
102
RTVSPropertyOp62
 70
     1
  0
XRECORD
  5
1AF7
102
{ACAD_REACTORS
330
1AF6
102
}
330
1AF6
100
AcDbXrecord
280
     1
102
RTVSPost2010Prop28
280
     0
102
RTVSPost2010PropOp28
 70
     1
102
RTVSPost2010Prop29
280
     1
102
RTVSPost2010PropOp29
 70
     1
102
RTVSPost2010Prop30
280
     1
102
RTVSPost2010PropOp30
 70
     1
102
RTVSPost2010Prop31
280
     0
102
RTVSPost2010PropOp31
 70
     1
102
RTVSPost2010Prop32
280
     0
102
RTVSPost2010PropOp32
 70
     1
102
RTVSPost2010Prop33
280
     0
102
RTVSPost2010PropOp33
 70
     1
102
RTVSPost2010Prop34
280
     0
102
RTVSPost2010PropOp34
 70
     1
102
RTVSPost2010Prop35
280
     0
102
RTVSPost2010PropOp35
 70
     1
102
RTVSPost2010Prop36
280
     0
102
RTVSPost2010PropOp36
 70
     1
102
RTVSPost2010Prop37
 90
       50
102
RTVSPost2010PropOp37
 70
     1
102
RTVSPost2010Prop38
140
0.0
102
RTVSPost2010PropOp38
 70
     1
102
RTVSPost2010Prop39
140
1.0
102
RTVSPost2010PropOp39
 70
     1
102
RTVSPost2010Prop40
 90
        0
102
RTVSPost2010PropOp40
 70
     1
102
RTVSPost2010Prop41ColorIndex
 90
       18
102
RTVSPost2010Prop41ColorRGB
 90
        0
102
RTVSPost2010PropOp41
 70
     1
102
RTVSPost2010Prop42
 90
       50
102
RTVSPost2010PropOp42
 70
     1
102
RTVSPost2010Prop43
 90
        3
102
RTVSPost2010PropOp43
 70
     1
102
RTVSPost2010Prop44ColorIndex
 90
        5
102
RTVSPost2010Prop44ColorRGB
 90
      255
102
RTVSPost2010PropOp44
 70
     1
102
RTVSPost2010Prop45
280
     0
102
RTVSPost2010PropOp45
 70
     1
102
RTVSPost2010Prop46
 90
       50
102
RTVSPost2010PropOp46
 70
     1
102
RTVSPost2010Prop47
 90
       50
102
RTVSPost2010PropOp47
 70
     1
102
RTVSPost2010Prop48
 90
       50
102
RTVSPost2010PropOp48
 70
     1
102
RTVSPost2010Prop49
280
     0
102
RTVSPost2010PropOp49
 70
     1
102
RTVSPost2010Prop50
 90
       50
102
RTVSPost2010PropOp50
 70
     1
102
RTVSPost2010Prop51ColorIndex
 90
      256
102
RTVSPost2010Prop51ColorRGB
 90
-16777216
102
RTVSPost2010PropOp51
 70
     0
102
RTVSPost2010Prop52
140
1.0
102
RTVSPost2010PropOp52
 70
     0
102
RTVSPost2010Prop53
 90
        2
102
RTVSPost2010PropOp53
 70
     1
102
RTVSPost2010Prop54
  1
strokes_ogs.tif
102
RTVSPost2010PropOp54
 70
     1
102
RTVSPost2010Prop55
280
     0
102
RTVSPost2010PropOp55
 70
     1
102
RTVSPost2010Prop56
140
1.0
102
RTVSPost2010PropOp56
 70
     1
102
RTVSPost2010Prop57
140
1.0
102
RTVSPost2010PropOp57
 70
     1
102
RTVSPropertyOp0
 70
     1
102
RTVSPropertyOp1
 70
     1
102
RTVSPropertyOp2
 70
     1
102
RTVSPropertyOp3
 70
     1
102
RTVSPropertyOp4
 70
     1
102
RTVSPropertyOp5
 70
     1
102
RTVSPropertyOp6
 70
     1
102
RTVSPropertyOp7
 70
     1
102
RTVSPropertyOp8
 70
     1
102
RTVSPropertyOp9
 70
     1
102
RTVSPropertyOp10
 70
     1
102
RTVSPropertyOp11
 70
     1
102
RTVSPropertyOp12
 70
     1
102
RTVSPropertyOp13
 70
     1
102
RTVSPropertyOp14
 70
     1
102
RTVSPropertyOp15
 70
     1
102
RTVSPropertyOp16
 70
     1
102
RTVSPropertyOp17
 70
     1
102
RTVSPropertyOp18
 70
     1
102
RTVSPropertyOp19
 70
     1
102
RTVSPropertyOp20
 70
     1
102
RTVSPropertyOp21
 70
     1
102
RTVSPropertyOp22
 70
     1
102
RTVSPropertyOp23
 70
     1
102
RTVSPropertyOp24
 70
     1
102
RTVSPropertyOp25
 70
     1
102
RTVSPropertyOp26
 70
     1
102
RTVSPropertyOp27
 70
     1
102
RTVSPropertyOp28
 70
     1
102
RTVSPropertyOp29
 70
     1
102
RTVSPropertyOp30
 70
     1
102
RTVSPropertyOp31
 70
     1
102
RTVSPropertyOp32
 70
     1
102
RTVSPropertyOp33
 70
     1
102
RTVSPropertyOp34
 70
     1
102
RTVSPropertyOp35
 70
     1
102
RTVSPropertyOp36
 70
     1
102
RTVSPropertyOp37
 70
     1
102
RTVSPropertyOp38
 70
     1
102
RTVSPropertyOp39
 70
     1
102
RTVSPropertyOp40
 70
     1
102
RTVSPropertyOp41
 70
     1
102
RTVSPropertyOp42
 70
     1
102
RTVSPropertyOp43
 70
     1
102
RTVSPropertyOp44
 70
     1
102
RTVSPropertyOp45
 70
     1
102
RTVSPropertyOp46
 70
     1
102
RTVSPropertyOp47
 70
     1
102
RTVSPropertyOp48
 70
     1
102
RTVSPropertyOp49
 70
     1
102
RTVSPropertyOp50
 70
     1
102
RTVSPropertyOp51
 70
     0
102
RTVSPropertyOp52
 70
     0
102
RTVSPropertyOp53
 70
     1
102
RTVSPropertyOp54
 70
     1
102
RTVSPropertyOp55
 70
     1
102
RTVSPropertyOp56
 70
     1
102
RTVSPropertyOp57
 70
     1
102
RTVSPropertyOp58
 70
     1
102
RTVSPropertyOp59
 70
     1
102
RTVSPropertyOp60
 70
     1
102
RTVSPropertyOp61
 70
     1
102
RTVSPropertyOp62
 70
     1
  0
XRECORD
  5
1AF9
102
{ACAD_REACTORS
330
1AF8
102
}
330
1AF8
100
AcDbXrecord
280
     1
102
RTVSPost2010Prop28
280
     0
102
RTVSPost2010PropOp28
 70
     1
102
RTVSPost2010Prop29
280
     1
102
RTVSPost2010PropOp29
 70
     1
102
RTVSPost2010Prop30
280
     1
102
RTVSPost2010PropOp30
 70
     1
102
RTVSPost2010Prop31
280
     0
102
RTVSPost2010PropOp31
 70
     1
102
RTVSPost2010Prop32
280
     0
102
RTVSPost2010PropOp32
 70
     1
102
RTVSPost2010Prop33
280
     0
102
RTVSPost2010PropOp33
 70
     1
102
RTVSPost2010Prop34
280
     0
102
RTVSPost2010PropOp34
 70
     1
102
RTVSPost2010Prop35
280
     0
102
RTVSPost2010PropOp35
 70
     1
102
RTVSPost2010Prop36
280
     0
102
RTVSPost2010PropOp36
 70
     1
102
RTVSPost2010Prop37
 90
       50
102
RTVSPost2010PropOp37
 70
     1
102
RTVSPost2010Prop38
140
0.0
102
RTVSPost2010PropOp38
 70
     1
102
RTVSPost2010Prop39
140
1.0
102
RTVSPost2010PropOp39
 70
     1
102
RTVSPost2010Prop40
 90
        0
102
RTVSPost2010PropOp40
 70
     1
102
RTVSPost2010Prop41ColorIndex
 90
       18
102
RTVSPost2010Prop41ColorRGB
 90
        0
102
RTVSPost2010PropOp41
 70
     1
102
RTVSPost2010Prop42
 90
       50
102
RTVSPost2010PropOp42
 70
     1
102
RTVSPost2010Prop43
 90
        3
102
RTVSPost2010PropOp43
 70
     1
102
RTVSPost2010Prop44ColorIndex
 90
        5
102
RTVSPost2010Prop44ColorRGB
 90
      255
102
RTVSPost2010PropOp44
 70
     1
102
RTVSPost2010Prop45
280
     0
102
RTVSPost2010PropOp45
 70
     1
102
RTVSPost2010Prop46
 90
       50
102
RTVSPost2010PropOp46
 70
     1
102
RTVSPost2010Prop47
 90
       50
102
RTVSPost2010PropOp47
 70
     1
102
RTVSPost2010Prop48
 90
       50
102
RTVSPost2010PropOp48
 70
     1
102
RTVSPost2010Prop49
280
     0
102
RTVSPost2010PropOp49
 70
     1
102
RTVSPost2010Prop50
 90
       50
102
RTVSPost2010PropOp50
 70
     1
102
RTVSPost2010Prop51ColorIndex
 90
      256
102
RTVSPost2010Prop51ColorRGB
 90
-16777216
102
RTVSPost2010PropOp51
 70
     0
102
RTVSPost2010Prop52
140
1.0
102
RTVSPost2010PropOp52
 70
     0
102
RTVSPost2010Prop53
 90
        2
102
RTVSPost2010PropOp53
 70
     1
102
RTVSPost2010Prop54
  1
strokes_ogs.tif
102
RTVSPost2010PropOp54
 70
     1
102
RTVSPost2010Prop55
280
     0
102
RTVSPost2010PropOp55
 70
     1
102
RTVSPost2010Prop56
140
1.0
102
RTVSPost2010PropOp56
 70
     1
102
RTVSPost2010Prop57
140
1.0
102
RTVSPost2010PropOp57
 70
     1
102
RTVSPropertyOp0
 70
     1
102
RTVSPropertyOp1
 70
     1
102
RTVSPropertyOp2
 70
     1
102
RTVSPropertyOp3
 70
     1
102
RTVSPropertyOp4
 70
     1
102
RTVSPropertyOp5
 70
     1
102
RTVSPropertyOp6
 70
     1
102
RTVSPropertyOp7
 70
     1
102
RTVSPropertyOp8
 70
     1
102
RTVSPropertyOp9
 70
     1
102
RTVSPropertyOp10
 70
     1
102
RTVSPropertyOp11
 70
     1
102
RTVSPropertyOp12
 70
     1
102
RTVSPropertyOp13
 70
     1
102
RTVSPropertyOp14
 70
     1
102
RTVSPropertyOp15
 70
     1
102
RTVSPropertyOp16
 70
     1
102
RTVSPropertyOp17
 70
     1
102
RTVSPropertyOp18
 70
     1
102
RTVSPropertyOp19
 70
     1
102
RTVSPropertyOp20
 70
     1
102
RTVSPropertyOp21
 70
     1
102
RTVSPropertyOp22
 70
     1
102
RTVSPropertyOp23
 70
     1
102
RTVSPropertyOp24
 70
     1
102
RTVSPropertyOp25
 70
     1
102
RTVSPropertyOp26
 70
     1
102
RTVSPropertyOp27
 70
     1
102
RTVSPropertyOp28
 70
     1
102
RTVSPropertyOp29
 70
     1
102
RTVSPropertyOp30
 70
     1
102
RTVSPropertyOp31
 70
     1
102
RTVSPropertyOp32
 70
     1
102
RTVSPropertyOp33
 70
     1
102
RTVSPropertyOp34
 70
     1
102
RTVSPropertyOp35
 70
     1
102
RTVSPropertyOp36
 70
     1
102
RTVSPropertyOp37
 70
     1
102
RTVSPropertyOp38
 70
     1
102
RTVSPropertyOp39
 70
     1
102
RTVSPropertyOp40
 70
     1
102
RTVSPropertyOp41
 70
     1
102
RTVSPropertyOp42
 70
     1
102
RTVSPropertyOp43
 70
     1
102
RTVSPropertyOp44
 70
     1
102
RTVSPropertyOp45
 70
     1
102
RTVSPropertyOp46
 70
     1
102
RTVSPropertyOp47
 70
     1
102
RTVSPropertyOp48
 70
     1
102
RTVSPropertyOp49
 70
     1
102
RTVSPropertyOp50
 70
     1
102
RTVSPropertyOp51
 70
     0
102
RTVSPropertyOp52
 70
     0
102
RTVSPropertyOp53
 70
     1
102
RTVSPropertyOp54
 70
     1
102
RTVSPropertyOp55
 70
     1
102
RTVSPropertyOp56
 70
     1
102
RTVSPropertyOp57
 70
     1
102
RTVSPropertyOp58
 70
     1
102
RTVSPropertyOp59
 70
     1
102
RTVSPropertyOp60
 70
     1
102
RTVSPropertyOp61
 70
     1
102
RTVSPropertyOp62
 70
     1
  0
XRECORD
  5
1B01
102
{ACAD_REACTORS
330
1B00
102
}
330
1B00
100
AcDbXrecord
280
     1
102
RTVSPost2010Prop28
280
     0
102
RTVSPost2010PropOp28
 70
     1
102
RTVSPost2010Prop29
280
     1
102
RTVSPost2010PropOp29
 70
     1
102
RTVSPost2010Prop30
280
     1
102
RTVSPost2010PropOp30
 70
     1
102
RTVSPost2010Prop31
280
     0
102
RTVSPost2010PropOp31
 70
     1
102
RTVSPost2010Prop32
280
     0
102
RTVSPost2010PropOp32
 70
     1
102
RTVSPost2010Prop33
280
     0
102
RTVSPost2010PropOp33
 70
     1
102
RTVSPost2010Prop34
280
     0
102
RTVSPost2010PropOp34
 70
     1
102
RTVSPost2010Prop35
280
     0
102
RTVSPost2010PropOp35
 70
     1
102
RTVSPost2010Prop36
280
     0
102
RTVSPost2010PropOp36
 70
     1
102
RTVSPost2010Prop37
 90
       50
102
RTVSPost2010PropOp37
 70
     1
102
RTVSPost2010Prop38
140
0.0
102
RTVSPost2010PropOp38
 70
     1
102
RTVSPost2010Prop39
140
1.0
102
RTVSPost2010PropOp39
 70
     1
102
RTVSPost2010Prop40
 90
        0
102
RTVSPost2010PropOp40
 70
     1
102
RTVSPost2010Prop41ColorIndex
 90
       18
102
RTVSPost2010Prop41ColorRGB
 90
        0
102
RTVSPost2010PropOp41
 70
     1
102
RTVSPost2010Prop42
 90
       50
102
RTVSPost2010PropOp42
 70
     1
102
RTVSPost2010Prop43
 90
        3
102
RTVSPost2010PropOp43
 70
     1
102
RTVSPost2010Prop44ColorIndex
 90
        5
102
RTVSPost2010Prop44ColorRGB
 90
      255
102
RTVSPost2010PropOp44
 70
     1
102
RTVSPost2010Prop45
280
     0
102
RTVSPost2010PropOp45
 70
     1
102
RTVSPost2010Prop46
 90
       50
102
RTVSPost2010PropOp46
 70
     1
102
RTVSPost2010Prop47
 90
       50
102
RTVSPost2010PropOp47
 70
     1
102
RTVSPost2010Prop48
 90
       50
102
RTVSPost2010PropOp48
 70
     1
102
RTVSPost2010Prop49
280
     0
102
RTVSPost2010PropOp49
 70
     1
102
RTVSPost2010Prop50
 90
       50
102
RTVSPost2010PropOp50
 70
     1
102
RTVSPost2010Prop51ColorIndex
 90
      256
102
RTVSPost2010Prop51ColorRGB
 90
-16777216
102
RTVSPost2010PropOp51
 70
     0
102
RTVSPost2010Prop52
140
1.0
102
RTVSPost2010PropOp52
 70
     0
102
RTVSPost2010Prop53
 90
        2
102
RTVSPost2010PropOp53
 70
     1
102
RTVSPost2010Prop54
  1
strokes_ogs.tif
102
RTVSPost2010PropOp54
 70
     1
102
RTVSPost2010Prop55
280
     0
102
RTVSPost2010PropOp55
 70
     1
102
RTVSPost2010Prop56
140
1.0
102
RTVSPost2010PropOp56
 70
     1
102
RTVSPost2010Prop57
140
1.0
102
RTVSPost2010PropOp57
 70
     1
102
RTVSPropertyOp0
 70
     1
102
RTVSPropertyOp1
 70
     1
102
RTVSPropertyOp2
 70
     1
102
RTVSPropertyOp3
 70
     1
102
RTVSPropertyOp4
 70
     1
102
RTVSPropertyOp5
 70
     1
102
RTVSPropertyOp6
 70
     1
102
RTVSPropertyOp7
 70
     1
102
RTVSPropertyOp8
 70
     1
102
RTVSPropertyOp9
 70
     1
102
RTVSPropertyOp10
 70
     1
102
RTVSPropertyOp11
 70
     1
102
RTVSPropertyOp12
 70
     1
102
RTVSPropertyOp13
 70
     1
102
RTVSPropertyOp14
 70
     1
102
RTVSPropertyOp15
 70
     1
102
RTVSPropertyOp16
 70
     1
102
RTVSPropertyOp17
 70
     1
102
RTVSPropertyOp18
 70
     1
102
RTVSPropertyOp19
 70
     1
102
RTVSPropertyOp20
 70
     1
102
RTVSPropertyOp21
 70
     1
102
RTVSPropertyOp22
 70
     1
102
RTVSPropertyOp23
 70
     1
102
RTVSPropertyOp24
 70
     1
102
RTVSPropertyOp25
 70
     1
102
RTVSPropertyOp26
 70
     1
102
RTVSPropertyOp27
 70
     1
102
RTVSPropertyOp28
 70
     1
102
RTVSPropertyOp29
 70
     1
102
RTVSPropertyOp30
 70
     1
102
RTVSPropertyOp31
 70
     1
102
RTVSPropertyOp32
 70
     1
102
RTVSPropertyOp33
 70
     1
102
RTVSPropertyOp34
 70
     1
102
RTVSPropertyOp35
 70
     1
102
RTVSPropertyOp36
 70
     1
102
RTVSPropertyOp37
 70
     1
102
RTVSPropertyOp38
 70
     1
102
RTVSPropertyOp39
 70
     1
102
RTVSPropertyOp40
 70
     1
102
RTVSPropertyOp41
 70
     1
102
RTVSPropertyOp42
 70
     1
102
RTVSPropertyOp43
 70
     1
102
RTVSPropertyOp44
 70
     1
102
RTVSPropertyOp45
 70
     1
102
RTVSPropertyOp46
 70
     1
102
RTVSPropertyOp47
 70
     1
102
RTVSPropertyOp48
 70
     1
102
RTVSPropertyOp49
 70
     1
102
RTVSPropertyOp50
 70
     1
102
RTVSPropertyOp51
 70
     0
102
RTVSPropertyOp52
 70
     0
102
RTVSPropertyOp53
 70
     1
102
RTVSPropertyOp54
 70
     1
102
RTVSPropertyOp55
 70
     1
102
RTVSPropertyOp56
 70
     1
102
RTVSPropertyOp57
 70
     1
102
RTVSPropertyOp58
 70
     1
102
RTVSPropertyOp59
 70
     1
102
RTVSPropertyOp60
 70
     1
102
RTVSPropertyOp61
 70
     1
102
RTVSPropertyOp62
 70
     1
  0
XRECORD
  5
1B1D
102
{ACAD_REACTORS
330
1B1C
102
}
330
1B1C
100
AcDbXrecord
280
     1
102
RTVSPost2010Prop28
280
     0
102
RTVSPost2010PropOp28
 70
     1
102
RTVSPost2010Prop29
280
     1
102
RTVSPost2010PropOp29
 70
     1
102
RTVSPost2010Prop30
280
     1
102
RTVSPost2010PropOp30
 70
     1
102
RTVSPost2010Prop31
280
     0
102
RTVSPost2010PropOp31
 70
     1
102
RTVSPost2010Prop32
280
     0
102
RTVSPost2010PropOp32
 70
     1
102
RTVSPost2010Prop33
280
     0
102
RTVSPost2010PropOp33
 70
     1
102
RTVSPost2010Prop34
280
     0
102
RTVSPost2010PropOp34
 70
     1
102
RTVSPost2010Prop35
280
     0
102
RTVSPost2010PropOp35
 70
     1
102
RTVSPost2010Prop36
280
     0
102
RTVSPost2010PropOp36
 70
     1
102
RTVSPost2010Prop37
 90
       50
102
RTVSPost2010PropOp37
 70
     0
102
RTVSPost2010Prop38
140
0.0
102
RTVSPost2010PropOp38
 70
     0
102
RTVSPost2010Prop39
140
1.0
102
RTVSPost2010PropOp39
 70
     0
102
RTVSPost2010Prop40
 90
        0
102
RTVSPost2010PropOp40
 70
     0
102
RTVSPost2010Prop41ColorIndex
 90
       18
102
RTVSPost2010Prop41ColorRGB
 90
        0
102
RTVSPost2010PropOp41
 70
     0
102
RTVSPost2010Prop42
 90
       50
102
RTVSPost2010PropOp42
 70
     0
102
RTVSPost2010Prop43
 90
        3
102
RTVSPost2010PropOp43
 70
     0
102
RTVSPost2010Prop44ColorIndex
 90
        5
102
RTVSPost2010Prop44ColorRGB
 90
      255
102
RTVSPost2010PropOp44
 70
     0
102
RTVSPost2010Prop45
280
     0
102
RTVSPost2010PropOp45
 70
     1
102
RTVSPost2010Prop46
 90
       50
102
RTVSPost2010PropOp46
 70
     0
102
RTVSPost2010Prop47
 90
       50
102
RTVSPost2010PropOp47
 70
     0
102
RTVSPost2010Prop48
 90
       50
102
RTVSPost2010PropOp48
 70
     0
102
RTVSPost2010Prop49
280
     0
102
RTVSPost2010PropOp49
 70
     1
102
RTVSPost2010Prop50
 90
       50
102
RTVSPost2010PropOp50
 70
     0
102
RTVSPost2010Prop51ColorIndex
 90
      256
102
RTVSPost2010Prop51ColorRGB
 90
-16777216
102
RTVSPost2010PropOp51
 70
     0
102
RTVSPost2010Prop52
140
1.0
102
RTVSPost2010PropOp52
 70
     0
102
RTVSPost2010Prop53
 90
        2
102
RTVSPost2010PropOp53
 70
     0
102
RTVSPost2010Prop54
  1
strokes_ogs.tif
102
RTVSPost2010PropOp54
 70
     0
102
RTVSPost2010Prop55
280
     0
102
RTVSPost2010PropOp55
 70
     1
102
RTVSPost2010Prop56
140
1.0
102
RTVSPost2010PropOp56
 70
     0
102
RTVSPost2010Prop57
140
1.0
102
RTVSPost2010PropOp57
 70
     0
102
RTVSPropertyOp0
 70
     0
102
RTVSPropertyOp1
 70
     0
102
RTVSPropertyOp2
 70
     0
102
RTVSPropertyOp3
 70
     0
102
RTVSPropertyOp4
 70
     0
102
RTVSPropertyOp5
 70
     0
102
RTVSPropertyOp6
 70
     0
102
RTVSPropertyOp7
 70
     0
102
RTVSPropertyOp8
 70
     0
102
RTVSPropertyOp9
 70
     0
102
RTVSPropertyOp10
 70
     0
102
RTVSPropertyOp11
 70
     0
102
RTVSPropertyOp12
 70
     0
102
RTVSPropertyOp13
 70
     0
102
RTVSPropertyOp14
 70
     2
102
RTVSPropertyOp15
 70
     0
102
RTVSPropertyOp16
 70
     0
102
RTVSPropertyOp17
 70
     0
102
RTVSPropertyOp18
 70
     0
102
RTVSPropertyOp19
 70
     0
102
RTVSPropertyOp20
 70
     0
102
RTVSPropertyOp21
 70
     0
102
RTVSPropertyOp22
 70
     0
102
RTVSPropertyOp23
 70
     0
102
RTVSPropertyOp24
 70
     0
102
RTVSPropertyOp25
 70
     0
102
RTVSPropertyOp26
 70
     0
102
RTVSPropertyOp27
 70
     0
102
RTVSPropertyOp28
 70
     1
102
RTVSPropertyOp29
 70
     1
102
RTVSPropertyOp30
 70
     1
102
RTVSPropertyOp31
 70
     1
102
RTVSPropertyOp32
 70
     1
102
RTVSPropertyOp33
 70
     1
102
RTVSPropertyOp34
 70
     1
102
RTVSPropertyOp35
 70
     1
102
RTVSPropertyOp36
 70
     1
102
RTVSPropertyOp37
 70
     0
102
RTVSPropertyOp38
 70
     0
102
RTVSPropertyOp39
 70
     0
102
RTVSPropertyOp40
 70
     0
102
RTVSPropertyOp41
 70
     0
102
RTVSPropertyOp42
 70
     0
102
RTVSPropertyOp43
 70
     0
102
RTVSPropertyOp44
 70
     0
102
RTVSPropertyOp45
 70
     1
102
RTVSPropertyOp46
 70
     0
102
RTVSPropertyOp47
 70
     0
102
RTVSPropertyOp48
 70
     0
102
RTVSPropertyOp49
 70
     1
102
RTVSPropertyOp50
 70
     0
102
RTVSPropertyOp51
 70
     0
102
RTVSPropertyOp52
 70
     0
102
RTVSPropertyOp53
 70
     0
102
RTVSPropertyOp54
 70
     0
102
RTVSPropertyOp55
 70
     1
102
RTVSPropertyOp56
 70
     0
102
RTVSPropertyOp57
 70
     0
102
RTVSPropertyOp58
 70
     0
102
RTVSPropertyOp59
 70
     0
102
RTVSPropertyOp60
 70
     0
102
RTVSPropertyOp61
 70
     0
102
RTVSPropertyOp62
 70
     0
  0
XRECORD
  5
1B0D
102
{ACAD_REACTORS
330
1B0C
102
}
330
1B0C
100
AcDbXrecord
280
     1
102
RTVSPost2010Prop28
280
     0
102
RTVSPost2010PropOp28
 70
     1
102
RTVSPost2010Prop29
280
     1
102
RTVSPost2010PropOp29
 70
     1
102
RTVSPost2010Prop30
280
     1
102
RTVSPost2010PropOp30
 70
     1
102
RTVSPost2010Prop31
280
     0
102
RTVSPost2010PropOp31
 70
     1
102
RTVSPost2010Prop32
280
     0
102
RTVSPost2010PropOp32
 70
     1
102
RTVSPost2010Prop33
280
     0
102
RTVSPost2010PropOp33
 70
     1
102
RTVSPost2010Prop34
280
     0
102
RTVSPost2010PropOp34
 70
     1
102
RTVSPost2010Prop35
280
     0
102
RTVSPost2010PropOp35
 70
     1
102
RTVSPost2010Prop36
280
     0
102
RTVSPost2010PropOp36
 70
     1
102
RTVSPost2010Prop37
 90
       50
102
RTVSPost2010PropOp37
 70
     1
102
RTVSPost2010Prop38
140
0.0
102
RTVSPost2010PropOp38
 70
     1
102
RTVSPost2010Prop39
140
1.0
102
RTVSPost2010PropOp39
 70
     1
102
RTVSPost2010Prop40
 90
        0
102
RTVSPost2010PropOp40
 70
     1
102
RTVSPost2010Prop41ColorIndex
 90
       18
102
RTVSPost2010Prop41ColorRGB
 90
        0
102
RTVSPost2010PropOp41
 70
     1
102
RTVSPost2010Prop42
 90
       50
102
RTVSPost2010PropOp42
 70
     1
102
RTVSPost2010Prop43
 90
        3
102
RTVSPost2010PropOp43
 70
     1
102
RTVSPost2010Prop44ColorIndex
 90
        5
102
RTVSPost2010Prop44ColorRGB
 90
      255
102
RTVSPost2010PropOp44
 70
     1
102
RTVSPost2010Prop45
280
     0
102
RTVSPost2010PropOp45
 70
     1
102
RTVSPost2010Prop46
 90
       50
102
RTVSPost2010PropOp46
 70
     1
102
RTVSPost2010Prop47
 90
       50
102
RTVSPost2010PropOp47
 70
     1
102
RTVSPost2010Prop48
 90
       50
102
RTVSPost2010PropOp48
 70
     1
102
RTVSPost2010Prop49
280
     0
102
RTVSPost2010PropOp49
 70
     1
102
RTVSPost2010Prop50
 90
       50
102
RTVSPost2010PropOp50
 70
     1
102
RTVSPost2010Prop51ColorIndex
 90
      256
102
RTVSPost2010Prop51ColorRGB
 90
-16777216
102
RTVSPost2010PropOp51
 70
     0
102
RTVSPost2010Prop52
140
1.0
102
RTVSPost2010PropOp52
 70
     0
102
RTVSPost2010Prop53
 90
        2
102
RTVSPost2010PropOp53
 70
     1
102
RTVSPost2010Prop54
  1
strokes_ogs.tif
102
RTVSPost2010PropOp54
 70
     1
102
RTVSPost2010Prop55
280
     0
102
RTVSPost2010PropOp55
 70
     1
102
RTVSPost2010Prop56
140
1.0
102
RTVSPost2010PropOp56
 70
     1
102
RTVSPost2010Prop57
140
1.0
102
RTVSPost2010PropOp57
 70
     1
102
RTVSPropertyOp0
 70
     1
102
RTVSPropertyOp1
 70
     1
102
RTVSPropertyOp2
 70
     1
102
RTVSPropertyOp3
 70
     1
102
RTVSPropertyOp4
 70
     1
102
RTVSPropertyOp5
 70
     1
102
RTVSPropertyOp6
 70
     1
102
RTVSPropertyOp7
 70
     1
102
RTVSPropertyOp8
 70
     1
102
RTVSPropertyOp9
 70
     1
102
RTVSPropertyOp10
 70
     1
102
RTVSPropertyOp11
 70
     1
102
RTVSPropertyOp12
 70
     1
102
RTVSPropertyOp13
 70
     1
102
RTVSPropertyOp14
 70
     1
102
RTVSPropertyOp15
 70
     1
102
RTVSPropertyOp16
 70
     1
102
RTVSPropertyOp17
 70
     1
102
RTVSPropertyOp18
 70
     1
102
RTVSPropertyOp19
 70
     1
102
RTVSPropertyOp20
 70
     1
102
RTVSPropertyOp21
 70
     1
102
RTVSPropertyOp22
 70
     1
102
RTVSPropertyOp23
 70
     1
102
RTVSPropertyOp24
 70
     1
102
RTVSPropertyOp25
 70
     1
102
RTVSPropertyOp26
 70
     1
102
RTVSPropertyOp27
 70
     1
102
RTVSPropertyOp28
 70
     1
102
RTVSPropertyOp29
 70
     1
102
RTVSPropertyOp30
 70
     1
102
RTVSPropertyOp31
 70
     1
102
RTVSPropertyOp32
 70
     1
102
RTVSPropertyOp33
 70
     1
102
RTVSPropertyOp34
 70
     1
102
RTVSPropertyOp35
 70
     1
102
RTVSPropertyOp36
 70
     1
102
RTVSPropertyOp37
 70
     1
102
RTVSPropertyOp38
 70
     1
102
RTVSPropertyOp39
 70
     1
102
RTVSPropertyOp40
 70
     1
102
RTVSPropertyOp41
 70
     1
102
RTVSPropertyOp42
 70
     1
102
RTVSPropertyOp43
 70
     1
102
RTVSPropertyOp44
 70
     1
102
RTVSPropertyOp45
 70
     1
102
RTVSPropertyOp46
 70
     1
102
RTVSPropertyOp47
 70
     1
102
RTVSPropertyOp48
 70
     1
102
RTVSPropertyOp49
 70
     1
102
RTVSPropertyOp50
 70
     1
102
RTVSPropertyOp51
 70
     0
102
RTVSPropertyOp52
 70
     0
102
RTVSPropertyOp53
 70
     1
102
RTVSPropertyOp54
 70
     1
102
RTVSPropertyOp55
 70
     1
102
RTVSPropertyOp56
 70
     1
102
RTVSPropertyOp57
 70
     1
102
RTVSPropertyOp58
 70
     1
102
RTVSPropertyOp59
 70
     1
102
RTVSPropertyOp60
 70
     1
102
RTVSPropertyOp61
 70
     1
102
RTVSPropertyOp62
 70
     1
  0
XRECORD
  5
1B1F
102
{ACAD_REACTORS
330
1B1E
102
}
330
1B1E
100
AcDbXrecord
280
     1
102
RTVSPost2010Prop28
280
     0
102
RTVSPost2010PropOp28
 70
     1
102
RTVSPost2010Prop29
280
     1
102
RTVSPost2010PropOp29
 70
     1
102
RTVSPost2010Prop30
280
     1
102
RTVSPost2010PropOp30
 70
     1
102
RTVSPost2010Prop31
280
     0
102
RTVSPost2010PropOp31
 70
     1
102
RTVSPost2010Prop32
280
     0
102
RTVSPost2010PropOp32
 70
     1
102
RTVSPost2010Prop33
280
     0
102
RTVSPost2010PropOp33
 70
     1
102
RTVSPost2010Prop34
280
     0
102
RTVSPost2010PropOp34
 70
     1
102
RTVSPost2010Prop35
280
     0
102
RTVSPost2010PropOp35
 70
     1
102
RTVSPost2010Prop36
280
     0
102
RTVSPost2010PropOp36
 70
     1
102
RTVSPost2010Prop37
 90
       50
102
RTVSPost2010PropOp37
 70
     0
102
RTVSPost2010Prop38
140
0.0
102
RTVSPost2010PropOp38
 70
     0
102
RTVSPost2010Prop39
140
1.0
102
RTVSPost2010PropOp39
 70
     0
102
RTVSPost2010Prop40
 90
        0
102
RTVSPost2010PropOp40
 70
     0
102
RTVSPost2010Prop41ColorIndex
 90
       18
102
RTVSPost2010Prop41ColorRGB
 90
        0
102
RTVSPost2010PropOp41
 70
     0
102
RTVSPost2010Prop42
 90
       50
102
RTVSPost2010PropOp42
 70
     0
102
RTVSPost2010Prop43
 90
        3
102
RTVSPost2010PropOp43
 70
     0
102
RTVSPost2010Prop44ColorIndex
 90
        5
102
RTVSPost2010Prop44ColorRGB
 90
      255
102
RTVSPost2010PropOp44
 70
     0
102
RTVSPost2010Prop45
280
     0
102
RTVSPost2010PropOp45
 70
     1
102
RTVSPost2010Prop46
 90
       50
102
RTVSPost2010PropOp46
 70
     0
102
RTVSPost2010Prop47
 90
       50
102
RTVSPost2010PropOp47
 70
     0
102
RTVSPost2010Prop48
 90
       50
102
RTVSPost2010PropOp48
 70
     0
102
RTVSPost2010Prop49
280
     0
102
RTVSPost2010PropOp49
 70
     1
102
RTVSPost2010Prop50
 90
       50
102
RTVSPost2010PropOp50
 70
     0
102
RTVSPost2010Prop51ColorIndex
 90
      256
102
RTVSPost2010Prop51ColorRGB
 90
-16777216
102
RTVSPost2010PropOp51
 70
     0
102
RTVSPost2010Prop52
140
1.0
102
RTVSPost2010PropOp52
 70
     0
102
RTVSPost2010Prop53
 90
        2
102
RTVSPost2010PropOp53
 70
     0
102
RTVSPost2010Prop54
  1
strokes_ogs.tif
102
RTVSPost2010PropOp54
 70
     0
102
RTVSPost2010Prop55
280
     0
102
RTVSPost2010PropOp55
 70
     1
102
RTVSPost2010Prop56
140
1.0
102
RTVSPost2010PropOp56
 70
     0
102
RTVSPost2010Prop57
140
1.0
102
RTVSPost2010PropOp57
 70
     0
102
RTVSPropertyOp0
 70
     0
102
RTVSPropertyOp1
 70
     0
102
RTVSPropertyOp2
 70
     0
102
RTVSPropertyOp3
 70
     0
102
RTVSPropertyOp4
 70
     0
102
RTVSPropertyOp5
 70
     0
102
RTVSPropertyOp6
 70
     0
102
RTVSPropertyOp7
 70
     0
102
RTVSPropertyOp8
 70
     0
102
RTVSPropertyOp9
 70
     0
102
RTVSPropertyOp10
 70
     0
102
RTVSPropertyOp11
 70
     0
102
RTVSPropertyOp12
 70
     0
102
RTVSPropertyOp13
 70
     0
102
RTVSPropertyOp14
 70
     2
102
RTVSPropertyOp15
 70
     0
102
RTVSPropertyOp16
 70
     0
102
RTVSPropertyOp17
 70
     0
102
RTVSPropertyOp18
 70
     0
102
RTVSPropertyOp19
 70
     0
102
RTVSPropertyOp20
 70
     0
102
RTVSPropertyOp21
 70
     0
102
RTVSPropertyOp22
 70
     0
102
RTVSPropertyOp23
 70
     0
102
RTVSPropertyOp24
 70
     0
102
RTVSPropertyOp25
 70
     0
102
RTVSPropertyOp26
 70
     0
102
RTVSPropertyOp27
 70
     0
102
RTVSPropertyOp28
 70
     1
102
RTVSPropertyOp29
 70
     1
102
RTVSPropertyOp30
 70
     1
102
RTVSPropertyOp31
 70
     1
102
RTVSPropertyOp32
 70
     1
102
RTVSPropertyOp33
 70
     1
102
RTVSPropertyOp34
 70
     1
102
RTVSPropertyOp35
 70
     1
102
RTVSPropertyOp36
 70
     1
102
RTVSPropertyOp37
 70
     0
102
RTVSPropertyOp38
 70
     0
102
RTVSPropertyOp39
 70
     0
102
RTVSPropertyOp40
 70
     0
102
RTVSPropertyOp41
 70
     0
102
RTVSPropertyOp42
 70
     0
102
RTVSPropertyOp43
 70
     0
102
RTVSPropertyOp44
 70
     0
102
RTVSPropertyOp45
 70
     1
102
RTVSPropertyOp46
 70
     0
102
RTVSPropertyOp47
 70
     0
102
RTVSPropertyOp48
 70
     0
102
RTVSPropertyOp49
 70
     1
102
RTVSPropertyOp50
 70
     0
102
RTVSPropertyOp51
 70
     0
102
RTVSPropertyOp52
 70
     0
102
RTVSPropertyOp53
 70
     0
102
RTVSPropertyOp54
 70
     0
102
RTVSPropertyOp55
 70
     1
102
RTVSPropertyOp56
 70
     0
102
RTVSPropertyOp57
 70
     0
102
RTVSPropertyOp58
 70
     0
102
RTVSPropertyOp59
 70
     0
102
RTVSPropertyOp60
 70
     0
102
RTVSPropertyOp61
 70
     0
102
RTVSPropertyOp62
 70
     0
  0
XRECORD
  5
1B05
102
{ACAD_REACTORS
330
1B04
102
}
330
1B04
100
AcDbXrecord
280
     1
102
RTVSPost2010Prop28
280
     0
102
RTVSPost2010PropOp28
 70
     1
102
RTVSPost2010Prop29
280
     1
102
RTVSPost2010PropOp29
 70
     1
102
RTVSPost2010Prop30
280
     1
102
RTVSPost2010PropOp30
 70
     1
102
RTVSPost2010Prop31
280
     0
102
RTVSPost2010PropOp31
 70
     1
102
RTVSPost2010Prop32
280
     0
102
RTVSPost2010PropOp32
 70
     1
102
RTVSPost2010Prop33
280
     0
102
RTVSPost2010PropOp33
 70
     1
102
RTVSPost2010Prop34
280
     0
102
RTVSPost2010PropOp34
 70
     1
102
RTVSPost2010Prop35
280
     0
102
RTVSPost2010PropOp35
 70
     1
102
RTVSPost2010Prop36
280
     0
102
RTVSPost2010PropOp36
 70
     1
102
RTVSPost2010Prop37
 90
       50
102
RTVSPost2010PropOp37
 70
     1
102
RTVSPost2010Prop38
140
0.0
102
RTVSPost2010PropOp38
 70
     1
102
RTVSPost2010Prop39
140
1.0
102
RTVSPost2010PropOp39
 70
     1
102
RTVSPost2010Prop40
 90
        0
102
RTVSPost2010PropOp40
 70
     1
102
RTVSPost2010Prop41ColorIndex
 90
       18
102
RTVSPost2010Prop41ColorRGB
 90
        0
102
RTVSPost2010PropOp41
 70
     1
102
RTVSPost2010Prop42
 90
       50
102
RTVSPost2010PropOp42
 70
     1
102
RTVSPost2010Prop43
 90
        3
102
RTVSPost2010PropOp43
 70
     1
102
RTVSPost2010Prop44ColorIndex
 90
        5
102
RTVSPost2010Prop44ColorRGB
 90
      255
102
RTVSPost2010PropOp44
 70
     1
102
RTVSPost2010Prop45
280
     0
102
RTVSPost2010PropOp45
 70
     1
102
RTVSPost2010Prop46
 90
       50
102
RTVSPost2010PropOp46
 70
     1
102
RTVSPost2010Prop47
 90
       50
102
RTVSPost2010PropOp47
 70
     1
102
RTVSPost2010Prop48
 90
       50
102
RTVSPost2010PropOp48
 70
     1
102
RTVSPost2010Prop49
280
     0
102
RTVSPost2010PropOp49
 70
     1
102
RTVSPost2010Prop50
 90
       50
102
RTVSPost2010PropOp50
 70
     1
102
RTVSPost2010Prop51ColorIndex
 90
      256
102
RTVSPost2010Prop51ColorRGB
 90
-16777216
102
RTVSPost2010PropOp51
 70
     0
102
RTVSPost2010Prop52
140
1.0
102
RTVSPost2010PropOp52
 70
     0
102
RTVSPost2010Prop53
 90
        2
102
RTVSPost2010PropOp53
 70
     1
102
RTVSPost2010Prop54
  1
strokes_ogs.tif
102
RTVSPost2010PropOp54
 70
     1
102
RTVSPost2010Prop55
280
     0
102
RTVSPost2010PropOp55
 70
     1
102
RTVSPost2010Prop56
140
1.0
102
RTVSPost2010PropOp56
 70
     1
102
RTVSPost2010Prop57
140
1.0
102
RTVSPost2010PropOp57
 70
     1
102
RTVSPropertyOp0
 70
     1
102
RTVSPropertyOp1
 70
     1
102
RTVSPropertyOp2
 70
     1
102
RTVSPropertyOp3
 70
     1
102
RTVSPropertyOp4
 70
     1
102
RTVSPropertyOp5
 70
     1
102
RTVSPropertyOp6
 70
     1
102
RTVSPropertyOp7
 70
     1
102
RTVSPropertyOp8
 70
     1
102
RTVSPropertyOp9
 70
     1
102
RTVSPropertyOp10
 70
     1
102
RTVSPropertyOp11
 70
     1
102
RTVSPropertyOp12
 70
     1
102
RTVSPropertyOp13
 70
     1
102
RTVSPropertyOp14
 70
     1
102
RTVSPropertyOp15
 70
     1
102
RTVSPropertyOp16
 70
     1
102
RTVSPropertyOp17
 70
     1
102
RTVSPropertyOp18
 70
     1
102
RTVSPropertyOp19
 70
     1
102
RTVSPropertyOp20
 70
     1
102
RTVSPropertyOp21
 70
     1
102
RTVSPropertyOp22
 70
     1
102
RTVSPropertyOp23
 70
     1
102
RTVSPropertyOp24
 70
     1
102
RTVSPropertyOp25
 70
     1
102
RTVSPropertyOp26
 70
     1
102
RTVSPropertyOp27
 70
     1
102
RTVSPropertyOp28
 70
     1
102
RTVSPropertyOp29
 70
     1
102
RTVSPropertyOp30
 70
     1
102
RTVSPropertyOp31
 70
     1
102
RTVSPropertyOp32
 70
     1
102
RTVSPropertyOp33
 70
     1
102
RTVSPropertyOp34
 70
     1
102
RTVSPropertyOp35
 70
     1
102
RTVSPropertyOp36
 70
     1
102
RTVSPropertyOp37
 70
     1
102
RTVSPropertyOp38
 70
     1
102
RTVSPropertyOp39
 70
     1
102
RTVSPropertyOp40
 70
     1
102
RTVSPropertyOp41
 70
     1
102
RTVSPropertyOp42
 70
     1
102
RTVSPropertyOp43
 70
     1
102
RTVSPropertyOp44
 70
     1
102
RTVSPropertyOp45
 70
     1
102
RTVSPropertyOp46
 70
     1
102
RTVSPropertyOp47
 70
     1
102
RTVSPropertyOp48
 70
     1
102
RTVSPropertyOp49
 70
     1
102
RTVSPropertyOp50
 70
     1
102
RTVSPropertyOp51
 70
     0
102
RTVSPropertyOp52
 70
     0
102
RTVSPropertyOp53
 70
     1
102
RTVSPropertyOp54
 70
     1
102
RTVSPropertyOp55
 70
     1
102
RTVSPropertyOp56
 70
     1
102
RTVSPropertyOp57
 70
     1
102
RTVSPropertyOp58
 70
     1
102
RTVSPropertyOp59
 70
     1
102
RTVSPropertyOp60
 70
     1
102
RTVSPropertyOp61
 70
     1
102
RTVSPropertyOp62
 70
     1
  0
XRECORD
  5
1B1B
102
{ACAD_REACTORS
330
1B1A
102
}
330
1B1A
100
AcDbXrecord
280
     1
102
RTVSPost2010Prop28
280
     0
102
RTVSPost2010PropOp28
 70
     1
102
RTVSPost2010Prop29
280
     1
102
RTVSPost2010PropOp29
 70
     1
102
RTVSPost2010Prop30
280
     1
102
RTVSPost2010PropOp30
 70
     1
102
RTVSPost2010Prop31
280
     0
102
RTVSPost2010PropOp31
 70
     1
102
RTVSPost2010Prop32
280
     0
102
RTVSPost2010PropOp32
 70
     1
102
RTVSPost2010Prop33
280
     0
102
RTVSPost2010PropOp33
 70
     1
102
RTVSPost2010Prop34
280
     0
102
RTVSPost2010PropOp34
 70
     1
102
RTVSPost2010Prop35
280
     0
102
RTVSPost2010PropOp35
 70
     1
102
RTVSPost2010Prop36
280
     0
102
RTVSPost2010PropOp36
 70
     1
102
RTVSPost2010Prop37
 90
       50
102
RTVSPost2010PropOp37
 70
     1
102
RTVSPost2010Prop38
140
0.0
102
RTVSPost2010PropOp38
 70
     1
102
RTVSPost2010Prop39
140
1.0
102
RTVSPost2010PropOp39
 70
     1
102
RTVSPost2010Prop40
 90
        0
102
RTVSPost2010PropOp40
 70
     1
102
RTVSPost2010Prop41ColorIndex
 90
       18
102
RTVSPost2010Prop41ColorRGB
 90
        0
102
RTVSPost2010PropOp41
 70
     1
102
RTVSPost2010Prop42
 90
       50
102
RTVSPost2010PropOp42
 70
     1
102
RTVSPost2010Prop43
 90
        3
102
RTVSPost2010PropOp43
 70
     1
102
RTVSPost2010Prop44ColorIndex
 90
        5
102
RTVSPost2010Prop44ColorRGB
 90
      255
102
RTVSPost2010PropOp44
 70
     1
102
RTVSPost2010Prop45
280
     0
102
RTVSPost2010PropOp45
 70
     1
102
RTVSPost2010Prop46
 90
       50
102
RTVSPost2010PropOp46
 70
     1
102
RTVSPost2010Prop47
 90
       50
102
RTVSPost2010PropOp47
 70
     1
102
RTVSPost2010Prop48
 90
       50
102
RTVSPost2010PropOp48
 70
     1
102
RTVSPost2010Prop49
280
     0
102
RTVSPost2010PropOp49
 70
     1
102
RTVSPost2010Prop50
 90
       50
102
RTVSPost2010PropOp50
 70
     1
102
RTVSPost2010Prop51ColorIndex
 90
      256
102
RTVSPost2010Prop51ColorRGB
 90
-16777216
102
RTVSPost2010PropOp51
 70
     0
102
RTVSPost2010Prop52
140
1.0
102
RTVSPost2010PropOp52
 70
     0
102
RTVSPost2010Prop53
 90
        2
102
RTVSPost2010PropOp53
 70
     1
102
RTVSPost2010Prop54
  1
strokes_ogs.tif
102
RTVSPost2010PropOp54
 70
     1
102
RTVSPost2010Prop55
280
     0
102
RTVSPost2010PropOp55
 70
     1
102
RTVSPost2010Prop56
140
1.0
102
RTVSPost2010PropOp56
 70
     1
102
RTVSPost2010Prop57
140
1.0
102
RTVSPost2010PropOp57
 70
     1
102
RTVSPropertyOp0
 70
     1
102
RTVSPropertyOp1
 70
     1
102
RTVSPropertyOp2
 70
     1
102
RTVSPropertyOp3
 70
     1
102
RTVSPropertyOp4
 70
     1
102
RTVSPropertyOp5
 70
     1
102
RTVSPropertyOp6
 70
     1
102
RTVSPropertyOp7
 70
     1
102
RTVSPropertyOp8
 70
     1
102
RTVSPropertyOp9
 70
     1
102
RTVSPropertyOp10
 70
     1
102
RTVSPropertyOp11
 70
     1
102
RTVSPropertyOp12
 70
     1
102
RTVSPropertyOp13
 70
     1
102
RTVSPropertyOp14
 70
     1
102
RTVSPropertyOp15
 70
     1
102
RTVSPropertyOp16
 70
     1
102
RTVSPropertyOp17
 70
     1
102
RTVSPropertyOp18
 70
     1
102
RTVSPropertyOp19
 70
     1
102
RTVSPropertyOp20
 70
     1
102
RTVSPropertyOp21
 70
     1
102
RTVSPropertyOp22
 70
     1
102
RTVSPropertyOp23
 70
     1
102
RTVSPropertyOp24
 70
     1
102
RTVSPropertyOp25
 70
     1
102
RTVSPropertyOp26
 70
     1
102
RTVSPropertyOp27
 70
     1
102
RTVSPropertyOp28
 70
     1
102
RTVSPropertyOp29
 70
     1
102
RTVSPropertyOp30
 70
     1
102
RTVSPropertyOp31
 70
     1
102
RTVSPropertyOp32
 70
     1
102
RTVSPropertyOp33
 70
     1
102
RTVSPropertyOp34
 70
     1
102
RTVSPropertyOp35
 70
     1
102
RTVSPropertyOp36
 70
     1
102
RTVSPropertyOp37
 70
     1
102
RTVSPropertyOp38
 70
     1
102
RTVSPropertyOp39
 70
     1
102
RTVSPropertyOp40
 70
     1
102
RTVSPropertyOp41
 70
     1
102
RTVSPropertyOp42
 70
     1
102
RTVSPropertyOp43
 70
     1
102
RTVSPropertyOp44
 70
     1
102
RTVSPropertyOp45
 70
     1
102
RTVSPropertyOp46
 70
     1
102
RTVSPropertyOp47
 70
     1
102
RTVSPropertyOp48
 70
     1
102
RTVSPropertyOp49
 70
     1
102
RTVSPropertyOp50
 70
     1
102
RTVSPropertyOp51
 70
     0
102
RTVSPropertyOp52
 70
     0
102
RTVSPropertyOp53
 70
     1
102
RTVSPropertyOp54
 70
     1
102
RTVSPropertyOp55
 70
     1
102
RTVSPropertyOp56
 70
     1
102
RTVSPropertyOp57
 70
     1
102
RTVSPropertyOp58
 70
     1
102
RTVSPropertyOp59
 70
     1
102
RTVSPropertyOp60
 70
     1
102
RTVSPropertyOp61
 70
     1
102
RTVSPropertyOp62
 70
     1
  0
XRECORD
  5
1B19
102
{ACAD_REACTORS
330
1B18
102
}
330
1B18
100
AcDbXrecord
280
     1
102
RTVSPost2010Prop28
280
     0
102
RTVSPost2010PropOp28
 70
     1
102
RTVSPost2010Prop29
280
     1
102
RTVSPost2010PropOp29
 70
     1
102
RTVSPost2010Prop30
280
     1
102
RTVSPost2010PropOp30
 70
     1
102
RTVSPost2010Prop31
280
     0
102
RTVSPost2010PropOp31
 70
     1
102
RTVSPost2010Prop32
280
     0
102
RTVSPost2010PropOp32
 70
     1
102
RTVSPost2010Prop33
280
     0
102
RTVSPost2010PropOp33
 70
     1
102
RTVSPost2010Prop34
280
     0
102
RTVSPost2010PropOp34
 70
     1
102
RTVSPost2010Prop35
280
     0
102
RTVSPost2010PropOp35
 70
     1
102
RTVSPost2010Prop36
280
     0
102
RTVSPost2010PropOp36
 70
     1
102
RTVSPost2010Prop37
 90
       50
102
RTVSPost2010PropOp37
 70
     1
102
RTVSPost2010Prop38
140
0.0
102
RTVSPost2010PropOp38
 70
     1
102
RTVSPost2010Prop39
140
1.0
102
RTVSPost2010PropOp39
 70
     1
102
RTVSPost2010Prop40
 90
        0
102
RTVSPost2010PropOp40
 70
     1
102
RTVSPost2010Prop41ColorIndex
 90
       18
102
RTVSPost2010Prop41ColorRGB
 90
        0
102
RTVSPost2010PropOp41
 70
     1
102
RTVSPost2010Prop42
 90
       50
102
RTVSPost2010PropOp42
 70
     1
102
RTVSPost2010Prop43
 90
        3
102
RTVSPost2010PropOp43
 70
     1
102
RTVSPost2010Prop44ColorIndex
 90
        5
102
RTVSPost2010Prop44ColorRGB
 90
      255
102
RTVSPost2010PropOp44
 70
     1
102
RTVSPost2010Prop45
280
     0
102
RTVSPost2010PropOp45
 70
     1
102
RTVSPost2010Prop46
 90
       50
102
RTVSPost2010PropOp46
 70
     1
102
RTVSPost2010Prop47
 90
       50
102
RTVSPost2010PropOp47
 70
     1
102
RTVSPost2010Prop48
 90
       50
102
RTVSPost2010PropOp48
 70
     1
102
RTVSPost2010Prop49
280
     0
102
RTVSPost2010PropOp49
 70
     1
102
RTVSPost2010Prop50
 90
       50
102
RTVSPost2010PropOp50
 70
     1
102
RTVSPost2010Prop51ColorIndex
 90
      256
102
RTVSPost2010Prop51ColorRGB
 90
-16777216
102
RTVSPost2010PropOp51
 70
     0
102
RTVSPost2010Prop52
140
1.0
102
RTVSPost2010PropOp52
 70
     0
102
RTVSPost2010Prop53
 90
        2
102
RTVSPost2010PropOp53
 70
     1
102
RTVSPost2010Prop54
  1
strokes_ogs.tif
102
RTVSPost2010PropOp54
 70
     1
102
RTVSPost2010Prop55
280
     0
102
RTVSPost2010PropOp55
 70
     1
102
RTVSPost2010Prop56
140
1.0
102
RTVSPost2010PropOp56
 70
     1
102
RTVSPost2010Prop57
140
1.0
102
RTVSPost2010PropOp57
 70
     1
102
RTVSPropertyOp0
 70
     1
102
RTVSPropertyOp1
 70
     1
102
RTVSPropertyOp2
 70
     1
102
RTVSPropertyOp3
 70
     1
102
RTVSPropertyOp4
 70
     1
102
RTVSPropertyOp5
 70
     1
102
RTVSPropertyOp6
 70
     1
102
RTVSPropertyOp7
 70
     1
102
RTVSPropertyOp8
 70
     1
102
RTVSPropertyOp9
 70
     1
102
RTVSPropertyOp10
 70
     1
102
RTVSPropertyOp11
 70
     1
102
RTVSPropertyOp12
 70
     1
102
RTVSPropertyOp13
 70
     1
102
RTVSPropertyOp14
 70
     1
102
RTVSPropertyOp15
 70
     1
102
RTVSPropertyOp16
 70
     1
102
RTVSPropertyOp17
 70
     1
102
RTVSPropertyOp18
 70
     1
102
RTVSPropertyOp19
 70
     1
102
RTVSPropertyOp20
 70
     1
102
RTVSPropertyOp21
 70
     1
102
RTVSPropertyOp22
 70
     1
102
RTVSPropertyOp23
 70
     1
102
RTVSPropertyOp24
 70
     1
102
RTVSPropertyOp25
 70
     1
102
RTVSPropertyOp26
 70
     1
102
RTVSPropertyOp27
 70
     1
102
RTVSPropertyOp28
 70
     1
102
RTVSPropertyOp29
 70
     1
102
RTVSPropertyOp30
 70
     1
102
RTVSPropertyOp31
 70
     1
102
RTVSPropertyOp32
 70
     1
102
RTVSPropertyOp33
 70
     1
102
RTVSPropertyOp34
 70
     1
102
RTVSPropertyOp35
 70
     1
102
RTVSPropertyOp36
 70
     1
102
RTVSPropertyOp37
 70
     1
102
RTVSPropertyOp38
 70
     1
102
RTVSPropertyOp39
 70
     1
102
RTVSPropertyOp40
 70
     1
102
RTVSPropertyOp41
 70
     1
102
RTVSPropertyOp42
 70
     1
102
RTVSPropertyOp43
 70
     1
102
RTVSPropertyOp44
 70
     1
102
RTVSPropertyOp45
 70
     1
102
RTVSPropertyOp46
 70
     1
102
RTVSPropertyOp47
 70
     1
102
RTVSPropertyOp48
 70
     1
102
RTVSPropertyOp49
 70
     1
102
RTVSPropertyOp50
 70
     1
102
RTVSPropertyOp51
 70
     0
102
RTVSPropertyOp52
 70
     0
102
RTVSPropertyOp53
 70
     1
102
RTVSPropertyOp54
 70
     1
102
RTVSPropertyOp55
 70
     1
102
RTVSPropertyOp56
 70
     1
102
RTVSPropertyOp57
 70
     1
102
RTVSPropertyOp58
 70
     1
102
RTVSPropertyOp59
 70
     1
102
RTVSPropertyOp60
 70
     1
102
RTVSPropertyOp61
 70
     1
102
RTVSPropertyOp62
 70
     1
  0
XRECORD
  5
1B13
102
{ACAD_REACTORS
330
1B12
102
}
330
1B12
100
AcDbXrecord
280
     1
102
RTVSPost2010Prop28
280
     0
102
RTVSPost2010PropOp28
 70
     1
102
RTVSPost2010Prop29
280
     1
102
RTVSPost2010PropOp29
 70
     1
102
RTVSPost2010Prop30
280
     1
102
RTVSPost2010PropOp30
 70
     1
102
RTVSPost2010Prop31
280
     0
102
RTVSPost2010PropOp31
 70
     1
102
RTVSPost2010Prop32
280
     0
102
RTVSPost2010PropOp32
 70
     1
102
RTVSPost2010Prop33
280
     0
102
RTVSPost2010PropOp33
 70
     1
102
RTVSPost2010Prop34
280
     0
102
RTVSPost2010PropOp34
 70
     1
102
RTVSPost2010Prop35
280
     0
102
RTVSPost2010PropOp35
 70
     1
102
RTVSPost2010Prop36
280
     0
102
RTVSPost2010PropOp36
 70
     1
102
RTVSPost2010Prop37
 90
       50
102
RTVSPost2010PropOp37
 70
     1
102
RTVSPost2010Prop38
140
0.0
102
RTVSPost2010PropOp38
 70
     1
102
RTVSPost2010Prop39
140
1.0
102
RTVSPost2010PropOp39
 70
     1
102
RTVSPost2010Prop40
 90
        0
102
RTVSPost2010PropOp40
 70
     1
102
RTVSPost2010Prop41ColorIndex
 90
       18
102
RTVSPost2010Prop41ColorRGB
 90
        0
102
RTVSPost2010PropOp41
 70
     1
102
RTVSPost2010Prop42
 90
       50
102
RTVSPost2010PropOp42
 70
     1
102
RTVSPost2010Prop43
 90
        3
102
RTVSPost2010PropOp43
 70
     1
102
RTVSPost2010Prop44ColorIndex
 90
        5
102
RTVSPost2010Prop44ColorRGB
 90
      255
102
RTVSPost2010PropOp44
 70
     1
102
RTVSPost2010Prop45
280
     0
102
RTVSPost2010PropOp45
 70
     1
102
RTVSPost2010Prop46
 90
       50
102
RTVSPost2010PropOp46
 70
     1
102
RTVSPost2010Prop47
 90
       50
102
RTVSPost2010PropOp47
 70
     1
102
RTVSPost2010Prop48
 90
       50
102
RTVSPost2010PropOp48
 70
     1
102
RTVSPost2010Prop49
280
     0
102
RTVSPost2010PropOp49
 70
     1
102
RTVSPost2010Prop50
 90
       50
102
RTVSPost2010PropOp50
 70
     1
102
RTVSPost2010Prop51ColorIndex
 90
      256
102
RTVSPost2010Prop51ColorRGB
 90
-16777216
102
RTVSPost2010PropOp51
 70
     0
102
RTVSPost2010Prop52
140
1.0
102
RTVSPost2010PropOp52
 70
     0
102
RTVSPost2010Prop53
 90
        2
102
RTVSPost2010PropOp53
 70
     1
102
RTVSPost2010Prop54
  1
strokes_ogs.tif
102
RTVSPost2010PropOp54
 70
     1
102
RTVSPost2010Prop55
280
     0
102
RTVSPost2010PropOp55
 70
     1
102
RTVSPost2010Prop56
140
1.0
102
RTVSPost2010PropOp56
 70
     1
102
RTVSPost2010Prop57
140
1.0
102
RTVSPost2010PropOp57
 70
     1
102
RTVSPropertyOp0
 70
     1
102
RTVSPropertyOp1
 70
     1
102
RTVSPropertyOp2
 70
     1
102
RTVSPropertyOp3
 70
     1
102
RTVSPropertyOp4
 70
     1
102
RTVSPropertyOp5
 70
     1
102
RTVSPropertyOp6
 70
     1
102
RTVSPropertyOp7
 70
     1
102
RTVSPropertyOp8
 70
     1
102
RTVSPropertyOp9
 70
     1
102
RTVSPropertyOp10
 70
     1
102
RTVSPropertyOp11
 70
     1
102
RTVSPropertyOp12
 70
     1
102
RTVSPropertyOp13
 70
     1
102
RTVSPropertyOp14
 70
     1
102
RTVSPropertyOp15
 70
     1
102
RTVSPropertyOp16
 70
     1
102
RTVSPropertyOp17
 70
     1
102
RTVSPropertyOp18
 70
     1
102
RTVSPropertyOp19
 70
     1
102
RTVSPropertyOp20
 70
     1
102
RTVSPropertyOp21
 70
     1
102
RTVSPropertyOp22
 70
     1
102
RTVSPropertyOp23
 70
     1
102
RTVSPropertyOp24
 70
     1
102
RTVSPropertyOp25
 70
     1
102
RTVSPropertyOp26
 70
     1
102
RTVSPropertyOp27
 70
     1
102
RTVSPropertyOp28
 70
     1
102
RTVSPropertyOp29
 70
     1
102
RTVSPropertyOp30
 70
     1
102
RTVSPropertyOp31
 70
     1
102
RTVSPropertyOp32
 70
     1
102
RTVSPropertyOp33
 70
     1
102
RTVSPropertyOp34
 70
     1
102
RTVSPropertyOp35
 70
     1
102
RTVSPropertyOp36
 70
     1
102
RTVSPropertyOp37
 70
     1
102
RTVSPropertyOp38
 70
     1
102
RTVSPropertyOp39
 70
     1
102
RTVSPropertyOp40
 70
     1
102
RTVSPropertyOp41
 70
     1
102
RTVSPropertyOp42
 70
     1
102
RTVSPropertyOp43
 70
     1
102
RTVSPropertyOp44
 70
     1
102
RTVSPropertyOp45
 70
     1
102
RTVSPropertyOp46
 70
     1
102
RTVSPropertyOp47
 70
     1
102
RTVSPropertyOp48
 70
     1
102
RTVSPropertyOp49
 70
     1
102
RTVSPropertyOp50
 70
     1
102
RTVSPropertyOp51
 70
     0
102
RTVSPropertyOp52
 70
     0
102
RTVSPropertyOp53
 70
     1
102
RTVSPropertyOp54
 70
     1
102
RTVSPropertyOp55
 70
     1
102
RTVSPropertyOp56
 70
     1
102
RTVSPropertyOp57
 70
     1
102
RTVSPropertyOp58
 70
     1
102
RTVSPropertyOp59
 70
     1
102
RTVSPropertyOp60
 70
     1
102
RTVSPropertyOp61
 70
     1
102
RTVSPropertyOp62
 70
     1
  0
XRECORD
  5
1B15
102
{ACAD_REACTORS
330
1B14
102
}
330
1B14
100
AcDbXrecord
280
     1
102
RTVSPost2010Prop28
280
     0
102
RTVSPost2010PropOp28
 70
     1
102
RTVSPost2010Prop29
280
     1
102
RTVSPost2010PropOp29
 70
     1
102
RTVSPost2010Prop30
280
     1
102
RTVSPost2010PropOp30
 70
     1
102
RTVSPost2010Prop31
280
     0
102
RTVSPost2010PropOp31
 70
     1
102
RTVSPost2010Prop32
280
     0
102
RTVSPost2010PropOp32
 70
     1
102
RTVSPost2010Prop33
280
     0
102
RTVSPost2010PropOp33
 70
     1
102
RTVSPost2010Prop34
280
     0
102
RTVSPost2010PropOp34
 70
     1
102
RTVSPost2010Prop35
280
     0
102
RTVSPost2010PropOp35
 70
     1
102
RTVSPost2010Prop36
280
     0
102
RTVSPost2010PropOp36
 70
     1
102
RTVSPost2010Prop37
 90
       50
102
RTVSPost2010PropOp37
 70
     1
102
RTVSPost2010Prop38
140
0.0
102
RTVSPost2010PropOp38
 70
     1
102
RTVSPost2010Prop39
140
1.0
102
RTVSPost2010PropOp39
 70
     1
102
RTVSPost2010Prop40
 90
        0
102
RTVSPost2010PropOp40
 70
     1
102
RTVSPost2010Prop41ColorIndex
 90
       18
102
RTVSPost2010Prop41ColorRGB
 90
        0
102
RTVSPost2010PropOp41
 70
     1
102
RTVSPost2010Prop42
 90
       50
102
RTVSPost2010PropOp42
 70
     1
102
RTVSPost2010Prop43
 90
        3
102
RTVSPost2010PropOp43
 70
     1
102
RTVSPost2010Prop44ColorIndex
 90
        5
102
RTVSPost2010Prop44ColorRGB
 90
      255
102
RTVSPost2010PropOp44
 70
     1
102
RTVSPost2010Prop45
280
     0
102
RTVSPost2010PropOp45
 70
     1
102
RTVSPost2010Prop46
 90
       50
102
RTVSPost2010PropOp46
 70
     1
102
RTVSPost2010Prop47
 90
       50
102
RTVSPost2010PropOp47
 70
     1
102
RTVSPost2010Prop48
 90
       50
102
RTVSPost2010PropOp48
 70
     1
102
RTVSPost2010Prop49
280
     0
102
RTVSPost2010PropOp49
 70
     1
102
RTVSPost2010Prop50
 90
       50
102
RTVSPost2010PropOp50
 70
     1
102
RTVSPost2010Prop51ColorIndex
 90
      256
102
RTVSPost2010Prop51ColorRGB
 90
-16777216
102
RTVSPost2010PropOp51
 70
     0
102
RTVSPost2010Prop52
140
1.0
102
RTVSPost2010PropOp52
 70
     0
102
RTVSPost2010Prop53
 90
        2
102
RTVSPost2010PropOp53
 70
     1
102
RTVSPost2010Prop54
  1
strokes_ogs.tif
102
RTVSPost2010PropOp54
 70
     1
102
RTVSPost2010Prop55
280
     0
102
RTVSPost2010PropOp55
 70
     1
102
RTVSPost2010Prop56
140
1.0
102
RTVSPost2010PropOp56
 70
     1
102
RTVSPost2010Prop57
140
1.0
102
RTVSPost2010PropOp57
 70
     1
102
RTVSPropertyOp0
 70
     1
102
RTVSPropertyOp1
 70
     1
102
RTVSPropertyOp2
 70
     1
102
RTVSPropertyOp3
 70
     1
102
RTVSPropertyOp4
 70
     1
102
RTVSPropertyOp5
 70
     1
102
RTVSPropertyOp6
 70
     1
102
RTVSPropertyOp7
 70
     1
102
RTVSPropertyOp8
 70
     1
102
RTVSPropertyOp9
 70
     1
102
RTVSPropertyOp10
 70
     1
102
RTVSPropertyOp11
 70
     1
102
RTVSPropertyOp12
 70
     1
102
RTVSPropertyOp13
 70
     1
102
RTVSPropertyOp14
 70
     1
102
RTVSPropertyOp15
 70
     1
102
RTVSPropertyOp16
 70
     1
102
RTVSPropertyOp17
 70
     1
102
RTVSPropertyOp18
 70
     1
102
RTVSPropertyOp19
 70
     1
102
RTVSPropertyOp20
 70
     1
102
RTVSPropertyOp21
 70
     1
102
RTVSPropertyOp22
 70
     1
102
RTVSPropertyOp23
 70
     1
102
RTVSPropertyOp24
 70
     1
102
RTVSPropertyOp25
 70
     1
102
RTVSPropertyOp26
 70
     1
102
RTVSPropertyOp27
 70
     1
102
RTVSPropertyOp28
 70
     1
102
RTVSPropertyOp29
 70
     1
102
RTVSPropertyOp30
 70
     1
102
RTVSPropertyOp31
 70
     1
102
RTVSPropertyOp32
 70
     1
102
RTVSPropertyOp33
 70
     1
102
RTVSPropertyOp34
 70
     1
102
RTVSPropertyOp35
 70
     1
102
RTVSPropertyOp36
 70
     1
102
RTVSPropertyOp37
 70
     1
102
RTVSPropertyOp38
 70
     1
102
RTVSPropertyOp39
 70
     1
102
RTVSPropertyOp40
 70
     1
102
RTVSPropertyOp41
 70
     1
102
RTVSPropertyOp42
 70
     1
102
RTVSPropertyOp43
 70
     1
102
RTVSPropertyOp44
 70
     1
102
RTVSPropertyOp45
 70
     1
102
RTVSPropertyOp46
 70
     1
102
RTVSPropertyOp47
 70
     1
102
RTVSPropertyOp48
 70
     1
102
RTVSPropertyOp49
 70
     1
102
RTVSPropertyOp50
 70
     1
102
RTVSPropertyOp51
 70
     0
102
RTVSPropertyOp52
 70
     0
102
RTVSPropertyOp53
 70
     1
102
RTVSPropertyOp54
 70
     1
102
RTVSPropertyOp55
 70
     1
102
RTVSPropertyOp56
 70
     1
102
RTVSPropertyOp57
 70
     1
102
RTVSPropertyOp58
 70
     1
102
RTVSPropertyOp59
 70
     1
102
RTVSPropertyOp60
 70
     1
102
RTVSPropertyOp61
 70
     1
102
RTVSPropertyOp62
 70
     1
  0
XRECORD
  5
1B0B
102
{ACAD_REACTORS
330
1B0A
102
}
330
1B0A
100
AcDbXrecord
280
     1
102
RTVSPost2010Prop28
280
     0
102
RTVSPost2010PropOp28
 70
     1
102
RTVSPost2010Prop29
280
     1
102
RTVSPost2010PropOp29
 70
     1
102
RTVSPost2010Prop30
280
     1
102
RTVSPost2010PropOp30
 70
     1
102
RTVSPost2010Prop31
280
     0
102
RTVSPost2010PropOp31
 70
     1
102
RTVSPost2010Prop32
280
     0
102
RTVSPost2010PropOp32
 70
     1
102
RTVSPost2010Prop33
280
     0
102
RTVSPost2010PropOp33
 70
     1
102
RTVSPost2010Prop34
280
     0
102
RTVSPost2010PropOp34
 70
     1
102
RTVSPost2010Prop35
280
     0
102
RTVSPost2010PropOp35
 70
     1
102
RTVSPost2010Prop36
280
     0
102
RTVSPost2010PropOp36
 70
     1
102
RTVSPost2010Prop37
 90
       50
102
RTVSPost2010PropOp37
 70
     1
102
RTVSPost2010Prop38
140
0.0
102
RTVSPost2010PropOp38
 70
     1
102
RTVSPost2010Prop39
140
1.0
102
RTVSPost2010PropOp39
 70
     1
102
RTVSPost2010Prop40
 90
        0
102
RTVSPost2010PropOp40
 70
     1
102
RTVSPost2010Prop41ColorIndex
 90
       18
102
RTVSPost2010Prop41ColorRGB
 90
        0
102
RTVSPost2010PropOp41
 70
     1
102
RTVSPost2010Prop42
 90
       50
102
RTVSPost2010PropOp42
 70
     1
102
RTVSPost2010Prop43
 90
        3
102
RTVSPost2010PropOp43
 70
     1
102
RTVSPost2010Prop44ColorIndex
 90
        5
102
RTVSPost2010Prop44ColorRGB
 90
      255
102
RTVSPost2010PropOp44
 70
     1
102
RTVSPost2010Prop45
280
     0
102
RTVSPost2010PropOp45
 70
     1
102
RTVSPost2010Prop46
 90
       50
102
RTVSPost2010PropOp46
 70
     1
102
RTVSPost2010Prop47
 90
       50
102
RTVSPost2010PropOp47
 70
     1
102
RTVSPost2010Prop48
 90
       50
102
RTVSPost2010PropOp48
 70
     1
102
RTVSPost2010Prop49
280
     0
102
RTVSPost2010PropOp49
 70
     1
102
RTVSPost2010Prop50
 90
       50
102
RTVSPost2010PropOp50
 70
     1
102
RTVSPost2010Prop51ColorIndex
 90
      256
102
RTVSPost2010Prop51ColorRGB
 90
-16777216
102
RTVSPost2010PropOp51
 70
     0
102
RTVSPost2010Prop52
140
1.0
102
RTVSPost2010PropOp52
 70
     0
102
RTVSPost2010Prop53
 90
        2
102
RTVSPost2010PropOp53
 70
     1
102
RTVSPost2010Prop54
  1
strokes_ogs.tif
102
RTVSPost2010PropOp54
 70
     1
102
RTVSPost2010Prop55
280
     0
102
RTVSPost2010PropOp55
 70
     1
102
RTVSPost2010Prop56
140
1.0
102
RTVSPost2010PropOp56
 70
     1
102
RTVSPost2010Prop57
140
1.0
102
RTVSPost2010PropOp57
 70
     1
102
RTVSPropertyOp0
 70
     1
102
RTVSPropertyOp1
 70
     1
102
RTVSPropertyOp2
 70
     1
102
RTVSPropertyOp3
 70
     1
102
RTVSPropertyOp4
 70
     1
102
RTVSPropertyOp5
 70
     1
102
RTVSPropertyOp6
 70
     1
102
RTVSPropertyOp7
 70
     1
102
RTVSPropertyOp8
 70
     1
102
RTVSPropertyOp9
 70
     1
102
RTVSPropertyOp10
 70
     1
102
RTVSPropertyOp11
 70
     1
102
RTVSPropertyOp12
 70
     1
102
RTVSPropertyOp13
 70
     1
102
RTVSPropertyOp14
 70
     1
102
RTVSPropertyOp15
 70
     1
102
RTVSPropertyOp16
 70
     1
102
RTVSPropertyOp17
 70
     1
102
RTVSPropertyOp18
 70
     1
102
RTVSPropertyOp19
 70
     1
102
RTVSPropertyOp20
 70
     1
102
RTVSPropertyOp21
 70
     1
102
RTVSPropertyOp22
 70
     1
102
RTVSPropertyOp23
 70
     1
102
RTVSPropertyOp24
 70
     1
102
RTVSPropertyOp25
 70
     1
102
RTVSPropertyOp26
 70
     1
102
RTVSPropertyOp27
 70
     1
102
RTVSPropertyOp28
 70
     1
102
RTVSPropertyOp29
 70
     1
102
RTVSPropertyOp30
 70
     1
102
RTVSPropertyOp31
 70
     1
102
RTVSPropertyOp32
 70
     1
102
RTVSPropertyOp33
 70
     1
102
RTVSPropertyOp34
 70
     1
102
RTVSPropertyOp35
 70
     1
102
RTVSPropertyOp36
 70
     1
102
RTVSPropertyOp37
 70
     1
102
RTVSPropertyOp38
 70
     1
102
RTVSPropertyOp39
 70
     1
102
RTVSPropertyOp40
 70
     1
102
RTVSPropertyOp41
 70
     1
102
RTVSPropertyOp42
 70
     1
102
RTVSPropertyOp43
 70
     1
102
RTVSPropertyOp44
 70
     1
102
RTVSPropertyOp45
 70
     1
102
RTVSPropertyOp46
 70
     1
102
RTVSPropertyOp47
 70
     1
102
RTVSPropertyOp48
 70
     1
102
RTVSPropertyOp49
 70
     1
102
RTVSPropertyOp50
 70
     1
102
RTVSPropertyOp51
 70
     0
102
RTVSPropertyOp52
 70
     0
102
RTVSPropertyOp53
 70
     1
102
RTVSPropertyOp54
 70
     1
102
RTVSPropertyOp55
 70
     1
102
RTVSPropertyOp56
 70
     1
102
RTVSPropertyOp57
 70
     1
102
RTVSPropertyOp58
 70
     1
102
RTVSPropertyOp59
 70
     1
102
RTVSPropertyOp60
 70
     1
102
RTVSPropertyOp61
 70
     1
102
RTVSPropertyOp62
 70
     1
  0
XRECORD
  5
1AFF
102
{ACAD_REACTORS
330
1AFE
102
}
330
1AFE
100
AcDbXrecord
280
     1
102
RTVSPost2010Prop28
280
     0
102
RTVSPost2010PropOp28
 70
     1
102
RTVSPost2010Prop29
280
     1
102
RTVSPost2010PropOp29
 70
     1
102
RTVSPost2010Prop30
280
     1
102
RTVSPost2010PropOp30
 70
     1
102
RTVSPost2010Prop31
280
     0
102
RTVSPost2010PropOp31
 70
     1
102
RTVSPost2010Prop32
280
     0
102
RTVSPost2010PropOp32
 70
     1
102
RTVSPost2010Prop33
280
     0
102
RTVSPost2010PropOp33
 70
     1
102
RTVSPost2010Prop34
280
     0
102
RTVSPost2010PropOp34
 70
     1
102
RTVSPost2010Prop35
280
     0
102
RTVSPost2010PropOp35
 70
     1
102
RTVSPost2010Prop36
280
     0
102
RTVSPost2010PropOp36
 70
     1
102
RTVSPost2010Prop37
 90
       50
102
RTVSPost2010PropOp37
 70
     1
102
RTVSPost2010Prop38
140
0.0
102
RTVSPost2010PropOp38
 70
     1
102
RTVSPost2010Prop39
140
1.0
102
RTVSPost2010PropOp39
 70
     1
102
RTVSPost2010Prop40
 90
        0
102
RTVSPost2010PropOp40
 70
     1
102
RTVSPost2010Prop41ColorIndex
 90
       18
102
RTVSPost2010Prop41ColorRGB
 90
        0
102
RTVSPost2010PropOp41
 70
     1
102
RTVSPost2010Prop42
 90
       50
102
RTVSPost2010PropOp42
 70
     1
102
RTVSPost2010Prop43
 90
        3
102
RTVSPost2010PropOp43
 70
     1
102
RTVSPost2010Prop44ColorIndex
 90
        5
102
RTVSPost2010Prop44ColorRGB
 90
      255
102
RTVSPost2010PropOp44
 70
     1
102
RTVSPost2010Prop45
280
     0
102
RTVSPost2010PropOp45
 70
     1
102
RTVSPost2010Prop46
 90
       50
102
RTVSPost2010PropOp46
 70
     1
102
RTVSPost2010Prop47
 90
       50
102
RTVSPost2010PropOp47
 70
     1
102
RTVSPost2010Prop48
 90
       50
102
RTVSPost2010PropOp48
 70
     1
102
RTVSPost2010Prop49
280
     0
102
RTVSPost2010PropOp49
 70
     1
102
RTVSPost2010Prop50
 90
       50
102
RTVSPost2010PropOp50
 70
     1
102
RTVSPost2010Prop51ColorIndex
 90
      256
102
RTVSPost2010Prop51ColorRGB
 90
-16777216
102
RTVSPost2010PropOp51
 70
     0
102
RTVSPost2010Prop52
140
1.0
102
RTVSPost2010PropOp52
 70
     0
102
RTVSPost2010Prop53
 90
        2
102
RTVSPost2010PropOp53
 70
     1
102
RTVSPost2010Prop54
  1
strokes_ogs.tif
102
RTVSPost2010PropOp54
 70
     1
102
RTVSPost2010Prop55
280
     0
102
RTVSPost2010PropOp55
 70
     1
102
RTVSPost2010Prop56
140
1.0
102
RTVSPost2010PropOp56
 70
     1
102
RTVSPost2010Prop57
140
1.0
102
RTVSPost2010PropOp57
 70
     1
102
RTVSPropertyOp0
 70
     1
102
RTVSPropertyOp1
 70
     1
102
RTVSPropertyOp2
 70
     1
102
RTVSPropertyOp3
 70
     1
102
RTVSPropertyOp4
 70
     1
102
RTVSPropertyOp5
 70
     1
102
RTVSPropertyOp6
 70
     1
102
RTVSPropertyOp7
 70
     1
102
RTVSPropertyOp8
 70
     1
102
RTVSPropertyOp9
 70
     1
102
RTVSPropertyOp10
 70
     1
102
RTVSPropertyOp11
 70
     1
102
RTVSPropertyOp12
 70
     1
102
RTVSPropertyOp13
 70
     1
102
RTVSPropertyOp14
 70
     1
102
RTVSPropertyOp15
 70
     1
102
RTVSPropertyOp16
 70
     1
102
RTVSPropertyOp17
 70
     1
102
RTVSPropertyOp18
 70
     1
102
RTVSPropertyOp19
 70
     1
102
RTVSPropertyOp20
 70
     1
102
RTVSPropertyOp21
 70
     1
102
RTVSPropertyOp22
 70
     1
102
RTVSPropertyOp23
 70
     1
102
RTVSPropertyOp24
 70
     1
102
RTVSPropertyOp25
 70
     1
102
RTVSPropertyOp26
 70
     1
102
RTVSPropertyOp27
 70
     1
102
RTVSPropertyOp28
 70
     1
102
RTVSPropertyOp29
 70
     1
102
RTVSPropertyOp30
 70
     1
102
RTVSPropertyOp31
 70
     1
102
RTVSPropertyOp32
 70
     1
102
RTVSPropertyOp33
 70
     1
102
RTVSPropertyOp34
 70
     1
102
RTVSPropertyOp35
 70
     1
102
RTVSPropertyOp36
 70
     1
102
RTVSPropertyOp37
 70
     1
102
RTVSPropertyOp38
 70
     1
102
RTVSPropertyOp39
 70
     1
102
RTVSPropertyOp40
 70
     1
102
RTVSPropertyOp41
 70
     1
102
RTVSPropertyOp42
 70
     1
102
RTVSPropertyOp43
 70
     1
102
RTVSPropertyOp44
 70
     1
102
RTVSPropertyOp45
 70
     1
102
RTVSPropertyOp46
 70
     1
102
RTVSPropertyOp47
 70
     1
102
RTVSPropertyOp48
 70
     1
102
RTVSPropertyOp49
 70
     1
102
RTVSPropertyOp50
 70
     1
102
RTVSPropertyOp51
 70
     0
102
RTVSPropertyOp52
 70
     0
102
RTVSPropertyOp53
 70
     1
102
RTVSPropertyOp54
 70
     1
102
RTVSPropertyOp55
 70
     1
102
RTVSPropertyOp56
 70
     1
102
RTVSPropertyOp57
 70
     1
102
RTVSPropertyOp58
 70
     1
102
RTVSPropertyOp59
 70
     1
102
RTVSPropertyOp60
 70
     1
102
RTVSPropertyOp61
 70
     1
102
RTVSPropertyOp62
 70
     1
  0
XRECORD
  5
1B17
102
{ACAD_REACTORS
330
1B16
102
}
330
1B16
100
AcDbXrecord
280
     1
102
RTVSPost2010Prop28
280
     0
102
RTVSPost2010PropOp28
 70
     1
102
RTVSPost2010Prop29
280
     1
102
RTVSPost2010PropOp29
 70
     1
102
RTVSPost2010Prop30
280
     1
102
RTVSPost2010PropOp30
 70
     1
102
RTVSPost2010Prop31
280
     0
102
RTVSPost2010PropOp31
 70
     1
102
RTVSPost2010Prop32
280
     0
102
RTVSPost2010PropOp32
 70
     1
102
RTVSPost2010Prop33
280
     0
102
RTVSPost2010PropOp33
 70
     1
102
RTVSPost2010Prop34
280
     0
102
RTVSPost2010PropOp34
 70
     1
102
RTVSPost2010Prop35
280
     0
102
RTVSPost2010PropOp35
 70
     1
102
RTVSPost2010Prop36
280
     0
102
RTVSPost2010PropOp36
 70
     1
102
RTVSPost2010Prop37
 90
       50
102
RTVSPost2010PropOp37
 70
     1
102
RTVSPost2010Prop38
140
0.0
102
RTVSPost2010PropOp38
 70
     1
102
RTVSPost2010Prop39
140
1.0
102
RTVSPost2010PropOp39
 70
     1
102
RTVSPost2010Prop40
 90
        0
102
RTVSPost2010PropOp40
 70
     1
102
RTVSPost2010Prop41ColorIndex
 90
       18
102
RTVSPost2010Prop41ColorRGB
 90
        0
102
RTVSPost2010PropOp41
 70
     1
102
RTVSPost2010Prop42
 90
       50
102
RTVSPost2010PropOp42
 70
     1
102
RTVSPost2010Prop43
 90
        3
102
RTVSPost2010PropOp43
 70
     1
102
RTVSPost2010Prop44ColorIndex
 90
        5
102
RTVSPost2010Prop44ColorRGB
 90
      255
102
RTVSPost2010PropOp44
 70
     1
102
RTVSPost2010Prop45
280
     0
102
RTVSPost2010PropOp45
 70
     1
102
RTVSPost2010Prop46
 90
       50
102
RTVSPost2010PropOp46
 70
     1
102
RTVSPost2010Prop47
 90
       50
102
RTVSPost2010PropOp47
 70
     1
102
RTVSPost2010Prop48
 90
       50
102
RTVSPost2010PropOp48
 70
     1
102
RTVSPost2010Prop49
280
     0
102
RTVSPost2010PropOp49
 70
     1
102
RTVSPost2010Prop50
 90
       50
102
RTVSPost2010PropOp50
 70
     1
102
RTVSPost2010Prop51ColorIndex
 90
      256
102
RTVSPost2010Prop51ColorRGB
 90
-16777216
102
RTVSPost2010PropOp51
 70
     0
102
RTVSPost2010Prop52
140
1.0
102
RTVSPost2010PropOp52
 70
     0
102
RTVSPost2010Prop53
 90
        2
102
RTVSPost2010PropOp53
 70
     1
102
RTVSPost2010Prop54
  1
strokes_ogs.tif
102
RTVSPost2010PropOp54
 70
     1
102
RTVSPost2010Prop55
280
     0
102
RTVSPost2010PropOp55
 70
     1
102
RTVSPost2010Prop56
140
1.0
102
RTVSPost2010PropOp56
 70
     1
102
RTVSPost2010Prop57
140
1.0
102
RTVSPost2010PropOp57
 70
     1
102
RTVSPropertyOp0
 70
     1
102
RTVSPropertyOp1
 70
     1
102
RTVSPropertyOp2
 70
     1
102
RTVSPropertyOp3
 70
     1
102
RTVSPropertyOp4
 70
     1
102
RTVSPropertyOp5
 70
     1
102
RTVSPropertyOp6
 70
     1
102
RTVSPropertyOp7
 70
     1
102
RTVSPropertyOp8
 70
     1
102
RTVSPropertyOp9
 70
     1
102
RTVSPropertyOp10
 70
     1
102
RTVSPropertyOp11
 70
     1
102
RTVSPropertyOp12
 70
     1
102
RTVSPropertyOp13
 70
     1
102
RTVSPropertyOp14
 70
     1
102
RTVSPropertyOp15
 70
     1
102
RTVSPropertyOp16
 70
     1
102
RTVSPropertyOp17
 70
     1
102
RTVSPropertyOp18
 70
     1
102
RTVSPropertyOp19
 70
     1
102
RTVSPropertyOp20
 70
     1
102
RTVSPropertyOp21
 70
     1
102
RTVSPropertyOp22
 70
     1
102
RTVSPropertyOp23
 70
     1
102
RTVSPropertyOp24
 70
     1
102
RTVSPropertyOp25
 70
     1
102
RTVSPropertyOp26
 70
     1
102
RTVSPropertyOp27
 70
     1
102
RTVSPropertyOp28
 70
     1
102
RTVSPropertyOp29
 70
     1
102
RTVSPropertyOp30
 70
     1
102
RTVSPropertyOp31
 70
     1
102
RTVSPropertyOp32
 70
     1
102
RTVSPropertyOp33
 70
     1
102
RTVSPropertyOp34
 70
     1
102
RTVSPropertyOp35
 70
     1
102
RTVSPropertyOp36
 70
     1
102
RTVSPropertyOp37
 70
     1
102
RTVSPropertyOp38
 70
     1
102
RTVSPropertyOp39
 70
     1
102
RTVSPropertyOp40
 70
     1
102
RTVSPropertyOp41
 70
     1
102
RTVSPropertyOp42
 70
     1
102
RTVSPropertyOp43
 70
     1
102
RTVSPropertyOp44
 70
     1
102
RTVSPropertyOp45
 70
     1
102
RTVSPropertyOp46
 70
     1
102
RTVSPropertyOp47
 70
     1
102
RTVSPropertyOp48
 70
     1
102
RTVSPropertyOp49
 70
     1
102
RTVSPropertyOp50
 70
     1
102
RTVSPropertyOp51
 70
     0
102
RTVSPropertyOp52
 70
     0
102
RTVSPropertyOp53
 70
     1
102
RTVSPropertyOp54
 70
     1
102
RTVSPropertyOp55
 70
     1
102
RTVSPropertyOp56
 70
     1
102
RTVSPropertyOp57
 70
     1
102
RTVSPropertyOp58
 70
     1
102
RTVSPropertyOp59
 70
     1
102
RTVSPropertyOp60
 70
     1
102
RTVSPropertyOp61
 70
     1
102
RTVSPropertyOp62
 70
     1
  0
ENDSEC
  0
EOF
