  0
SECTION
  2
HEADER
  9
$ACADVER
  1
AC1015
  9
$ACADMAINTVER
 70
    20
  9
$DWGCODEPAGE
  3
ANSI_932
  9
$INSBASE
 10
0.0
 20
0.0
 30
0.0
  9
$EXTMIN
 10
9.9999975266385
 20
10.0
 30
0.0
  9
$EXTMAX
 10
229.1205149950359
 20
207.7114009232384
 30
0.0
  9
$LIMMIN
 10
0.0000015376081137
 20
-0.0000001931532552
  9
$LIMMAX
 10
316.000001537608
 20
217.8484846553314
  9
$ORTHOMODE
 70
     1
  9
$REGENMODE
 70
     1
  9
$FILLMODE
 70
     1
  9
$QTEXTMODE
 70
     0
  9
$MIRRTEXT
 70
     1
  9
$LTSCALE
 40
1.0
  9
$ATTMODE
 70
     1
  9
$TEXTSIZE
 40
2.5
  9
$TRACEWID
 40
1.0
  9
$TEXTSTYLE
  7
STANDARD
  9
$CLAYER
  8
0
  9
$CELTYPE
  6
BYLAYER
  9
$CECOLOR
 62
   256
  9
$CELTSCALE
 40
1.0
  9
$DISPSILH
 70
     0
  9
$DIMSCALE
 40
1.0
  9
$DIMASZ
 40
3.0
  9
$DIMEXO
 40
1.0
  9
$DIMDLI
 40
10.0
  9
$DIMRND
 40
0.0
  9
$DIMDLE
 40
0.0
  9
$DIMEXE
 40
1.0
  9
$DIMTP
 40
0.0
  9
$DIMTM
 40
0.0
  9
$DIMTXT
 40
3.2
  9
$DIMCEN
 40
0.0
  9
$DIMTSZ
 40
0.0
  9
$DIMTOL
 70
     0
  9
$DIMLIM
 70
     0
  9
$DIMTIH
 70
     0
  9
$DIMTOH
 70
     0
  9
$DIMSE1
 70
     0
  9
$DIMSE2
 70
     0
  9
$DIMTAD
 70
     3
  9
$DIMZIN
 70
     8
  9
$DIMBLK
  1

  9
$DIMASO
 70
     1
  9
$DIMSHO
 70
     1
  9
$DIMPOST
  1

  9
$DIMAPOST
  1

  9
$DIMALT
 70
     0
  9
$DIMALTD
 70
     2
  9
$DIMALTF
 40
25.4
  9
$DIMLFAC
 40
1.0
  9
$DIMTOFL
 70
     1
  9
$DIMTVP
 40
0.0
  9
$DIMTIX
 70
     0
  9
$DIMSOXD
 70
     0
  9
$DIMSAH
 70
     1
  9
$DIMBLK1
  1
OPEN
  9
$DIMBLK2
  1
OPEN
  9
$DIMSTYLE
  2
STANDARD
  9
$DIMCLRD
 70
     0
  9
$DIMCLRE
 70
     0
  9
$DIMCLRT
 70
     0
  9
$DIMTFAC
 40
1.0
  9
$DIMGAP
 40
1.0
  9
$DIMJUST
 70
     0
  9
$DIMSD1
 70
     0
  9
$DIMSD2
 70
     0
  9
$DIMTOLJ
 70
     1
  9
$DIMTZIN
 70
     0
  9
$DIMALTZ
 70
     0
  9
$DIMALTTZ
 70
     0
  9
$DIMUPT
 70
     0
  9
$DIMDEC
 70
     4
  9
$DIMTDEC
 70
     4
  9
$DIMALTU
 70
     2
  9
$DIMALTTD
 70
     2
  9
$DIMTXSTY
  7
STANDARD
  9
$DIMAUNIT
 70
     0
  9
$DIMADEC
 70
     0
  9
$DIMALTRND
 40
0.0
  9
$DIMAZIN
 70
     0
  9
$DIMDSEP
 70
    46
  9
$DIMATFIT
 70
     3
  9
$DIMFRAC
 70
     0
  9
$DIMLDRBLK
  1
OPEN
  9
$DIMLUNIT
 70
     2
  9
$DIMLWD
 70
    -2
  9
$DIMLWE
 70
    -2
  9
$DIMTMOVE
 70
     0
  9
$LUNITS
 70
     2
  9
$LUPREC
 70
     4
  9
$SKETCHINC
 40
1.0
  9
$FILLETRAD
 40
0.0
  9
$AUNITS
 70
     0
  9
$AUPREC
 70
     0
  9
$MENU
  1
.
  9
$ELEVATION
 40
0.0
  9
$PELEVATION
 40
0.0
  9
$THICKNESS
 40
0.0
  9
$LIMCHECK
 70
     0
  9
$CHAMFERA
 40
10.0
  9
$CHAMFERB
 40
10.0
  9
$CHAMFERC
 40
20.0
  9
$CHAMFERD
 40
0.0
  9
$SKPOLY
 70
     0
  9
$TDCREATE
 40
2453721.985990845
  9
$TDUCREATE
 40
2453721.610990845
  9
$TDUPDATE
 40
2457192.700995301
  9
$TDUUPDATE
 40
2457192.325995301
  9
$TDINDWG
 40
0.1645483912
  9
$TDUSRTIMER
 40
0.1645483796
  9
$USRTIMER
 70
     1
  9
$ANGBASE
 50
0.0
  9
$ANGDIR
 70
     0
  9
$PDMODE
 70
     0
  9
$PDSIZE
 40
0.0
  9
$PLINEWID
 40
0.0
  9
$SPLFRAME
 70
     0
  9
$SPLINETYPE
 70
     6
  9
$SPLINESEGS
 70
     8
  9
$HANDSEED
  5
40EC
  9
$SURFTAB1
 70
     6
  9
$SURFTAB2
 70
     6
  9
$SURFTYPE
 70
     6
  9
$SURFU
 70
     6
  9
$SURFV
 70
     6
  9
$UCSBASE
  2

  9
$UCSNAME
  2

  9
$UCSORG
 10
0.0
 20
0.0
 30
0.0
  9
$UCSXDIR
 10
1.0
 20
0.0
 30
0.0
  9
$UCSYDIR
 10
0.0
 20
1.0
 30
0.0
  9
$UCSORTHOREF
  2

  9
$UCSORTHOVIEW
 70
     0
  9
$UCSORGTOP
 10
0.0
 20
0.0
 30
0.0
  9
$UCSORGBOTTOM
 10
0.0
 20
0.0
 30
0.0
  9
$UCSORGLEFT
 10
0.0
 20
0.0
 30
0.0
  9
$UCSORGRIGHT
 10
0.0
 20
0.0
 30
0.0
  9
$UCSORGFRONT
 10
0.0
 20
0.0
 30
0.0
  9
$UCSORGBACK
 10
0.0
 20
0.0
 30
0.0
  9
$PUCSBASE
  2

  9
$PUCSNAME
  2

  9
$PUCSORG
 10
0.0
 20
0.0
 30
0.0
  9
$PUCSXDIR
 10
1.0
 20
0.0
 30
0.0
  9
$PUCSYDIR
 10
0.0
 20
1.0
 30
0.0
  9
$PUCSORTHOREF
  2

  9
$PUCSORTHOVIEW
 70
     0
  9
$PUCSORGTOP
 10
0.0
 20
0.0
 30
0.0
  9
$PUCSORGBOTTOM
 10
0.0
 20
0.0
 30
0.0
  9
$PUCSORGLEFT
 10
0.0
 20
0.0
 30
0.0
  9
$PUCSORGRIGHT
 10
0.0
 20
0.0
 30
0.0
  9
$PUCSORGFRONT
 10
0.0
 20
0.0
 30
0.0
  9
$PUCSORGBACK
 10
0.0
 20
0.0
 30
0.0
  9
$USERI1
 70
     0
  9
$USERI2
 70
     0
  9
$USERI3
 70
     0
  9
$USERI4
 70
     0
  9
$USERI5
 70
     0
  9
$USERR1
 40
0.0
  9
$USERR2
 40
0.0
  9
$USERR3
 40
0.0
  9
$USERR4
 40
0.0
  9
$USERR5
 40
0.0
  9
$WORLDVIEW
 70
     1
  9
$SHADEDGE
 70
     3
  9
$SHADEDIF
 70
    70
  9
$TILEMODE
 70
     1
  9
$MAXACTVP
 70
    48
  9
$PINSBASE
 10
0.0
 20
0.0
 30
0.0
  9
$PLIMCHECK
 70
     0
  9
$PEXTMIN
 10
1.000000000000000E+20
 20
1.000000000000000E+20
 30
1.000000000000000E+20
  9
$PEXTMAX
 10
-1.000000000000000E+20
 20
-1.000000000000000E+20
 30
-1.000000000000000E+20
  9
$PLIMMIN
 10
0.0
 20
0.0
  9
$PLIMMAX
 10
420.0
 20
297.0
  9
$UNITMODE
 70
     0
  9
$VISRETAIN
 70
     1
  9
$PLINEGEN
 70
     0
  9
$PSLTSCALE
 70
     1
  9
$TREEDEPTH
 70
  3020
  9
$CMLSTYLE
  2
STANDARD
  9
$CMLJUST
 70
     0
  9
$CMLSCALE
 40
20.0
  9
$PROXYGRAPHICS
 70
     1
  9
$MEASUREMENT
 70
     0
  9
$CELWEIGHT
370
    -1
  9
$ENDCAPS
280
     0
  9
$JOINSTYLE
280
     0
  9
$LWDISPLAY
290
     0
  9
$INSUNITS
 70
     0
  9
$HYPERLINKBASE
  1

  9
$STYLESHEET
  1

  9
$XEDIT
290
     1
  9
$CEPSNTYPE
380
     0
  9
$PSTYLEMODE
290
     1
  9
$FINGERPRINTGUID
  2
{D1D57818-B72C-4B43-8965-0198D9B59C82}
  9
$VERSIONGUID
  2
{6C380C80-14E2-45A6-ADF7-C83C3BBBDDEB}
  9
$EXTNAMES
290
     1
  9
$PSVPSCALE
 40
0.0
  9
$OLESTARTUP
290
     0
  0
ENDSEC
  0
SECTION
  2
CLASSES
  0
CLASS
  1
ACDBDICTIONARYWDFLT
  2
AcDbDictionaryWithDefault
  3
ObjectDBX Classes
 90
        0
280
     0
281
     0
  0
CLASS
  1
ACDBPLACEHOLDER
  2
AcDbPlaceHolder
  3
ObjectDBX Classes
 90
        0
280
     0
281
     0
  0
CLASS
  1
LAYOUT
  2
AcDbLayout
  3
ObjectDBX Classes
 90
        0
280
     0
281
     0
  0
CLASS
  1
DICTIONARYVAR
  2
AcDbDictionaryVar
  3
ObjectDBX Classes
 90
        0
280
     0
281
     0
  0
CLASS
  1
MATERIAL
  2
AcDbMaterial
  3
ObjectDBX Classes
 90
     1153
280
     0
281
     0
  0
CLASS
  1
VISUALSTYLE
  2
AcDbVisualStyle
  3
ObjectDBX Classes
 90
     4095
280
     0
281
     0
  0
CLASS
  1
TABLESTYLE
  2
AcDbTableStyle
  3
ObjectDBX Classes
 90
     4095
280
     0
281
     0
  0
CLASS
  1
SCALE
  2
AcDbScale
  3
ObjectDBX Classes
 90
     1153
280
     0
281
     0
  0
CLASS
  1
MLEADERSTYLE
  2
AcDbMLeaderStyle
  3
ACDB_MLEADERSTYLE_CLASS
 90
     4095
280
     0
281
     0
  0
CLASS
  1
ACDBSECTIONVIEWSTYLE
  2
AcDbSectionViewStyle
  3
ObjectDBX Classes
 90
     1025
280
     0
281
     0
  0
CLASS
  1
ACDBDETAILVIEWSTYLE
  2
AcDbDetailViewStyle
  3
ObjectDBX Classes
 90
     1025
280
     0
281
     0
  0
CLASS
  1
CELLSTYLEMAP
  2
AcDbCellStyleMap
  3
ObjectDBX Classes
 90
     1152
280
     0
281
     0
  0
ENDSEC
  0
SECTION
  2
TABLES
  0
TABLE
  2
VPORT
  5
8
330
0
100
AcDbSymbolTable
 70
     1
  0
VPORT
  5
4036
330
8
100
AcDbSymbolTableRecord
100
AcDbViewportTableRecord
  2
*ACTIVE
 70
     0
 10
0.0
 20
0.0
 11
1.0
 21
1.0
 12
183.1012571422245
 22
108.8577606566719
 13
0.0
 23
0.0
 14
10.0
 24
10.0
 15
10.0
 25
10.0
 16
0.0
 26
0.0
 36
1.0
 17
0.0
 27
0.0
 37
0.0
 40
199.6037300256636
 41
2.35006605019815
 42
50.0
 43
0.0
 44
0.0
 50
0.0
 51
0.0
 71
     0
 72
   100
 73
     1
 74
     0
 75
     0
 76
     0
 77
     0
 78
     0
281
     0
 65
     1
110
0.0
120
0.0
130
0.0
111
1.0
121
0.0
131
0.0
112
0.0
122
1.0
132
0.0
 79
     0
146
0.0
1001
ACAD_NAV_VCDISPLAY
1070
     3
  0
ENDTAB
  0
TABLE
  2
LTYPE
  5
5
330
0
100
AcDbSymbolTable
 70
     4
  0
LTYPE
  5
12
330
5
100
AcDbSymbolTableRecord
100
AcDbLinetypeTableRecord
  2
BYBLOCK
 70
     0
  3

 72
    65
 73
     0
 40
0.0
  0
LTYPE
  5
13
330
5
100
AcDbSymbolTableRecord
100
AcDbLinetypeTableRecord
  2
BYLAYER
 70
     0
  3

 72
    65
 73
     0
 40
0.0
  0
LTYPE
  5
14
330
5
100
AcDbSymbolTableRecord
100
AcDbLinetypeTableRecord
  2
CONTINUOUS
 70
     0
  3
Solid line
 72
    65
 73
     0
 40
0.0
  0
LTYPE
  5
4B
330
5
100
AcDbSymbolTableRecord
100
AcDbLinetypeTableRecord
  2
DASHED
 70
     0
  3
Dashed __ __ __ __ __ __ __ __ __ __ __ __ __ _
 72
    65
 73
     2
 40
19.04999999999999
 49
12.7
 74
     0
 49
-6.349999999999998
 74
     0
  0
LTYPE
  5
4C
330
5
100
AcDbSymbolTableRecord
100
AcDbLinetypeTableRecord
  2
CENTER
 70
     0
  3
Center ____ _ ____ _ ____ _ ____ _ ____ _ ____
 72
    65
 73
     4
 40
50.8
 49
31.75
 74
     0
 49
-6.349999999999998
 74
     0
 49
6.349999999999998
 74
     0
 49
-6.349999999999998
 74
     0
  0
LTYPE
  5
4D
330
5
100
AcDbSymbolTableRecord
100
AcDbLinetypeTableRecord
  2
PHANTOM
 70
     0
  3
Phantom ______  __  __  ______  __  __  ______
 72
    65
 73
     6
 40
63.5
 49
31.75
 74
     0
 49
-6.349999999999998
 74
     0
 49
6.349999999999998
 74
     0
 49
-6.349999999999998
 74
     0
 49
6.349999999999998
 74
     0
 49
-6.349999999999998
 74
     0
  0
ENDTAB
  0
TABLE
  2
LAYER
  5
2
330
0
100
AcDbSymbolTable
 70
     8
  0
LAYER
  5
E
102
{ACAD_XDICTIONARY
360
4090
102
}
330
2
100
AcDbSymbolTableRecord
100
AcDbLayerTableRecord
  2
0
 70
     0
 62
     7
  6
CONTINUOUS
370
    -3
390
403F
  0
LAYER
  5
4E
102
{ACAD_XDICTIONARY
360
4092
102
}
330
2
100
AcDbSymbolTableRecord
100
AcDbLayerTableRecord
  2
4
 70
     0
 62
     1
  6
CENTER
370
    -3
390
403F
  0
LAYER
  5
4F
102
{ACAD_XDICTIONARY
360
4094
102
}
330
2
100
AcDbSymbolTableRecord
100
AcDbLayerTableRecord
  2
5
 70
     0
 62
     6
  6
PHANTOM
370
    -3
390
403F
  0
LAYER
  5
50
102
{ACAD_XDICTIONARY
360
4096
102
}
330
2
100
AcDbSymbolTableRecord
100
AcDbLayerTableRecord
  2
1
 70
     0
 62
     7
  6
CONTINUOUS
370
    -3
390
403F
  0
LAYER
  5
51
102
{ACAD_XDICTIONARY
360
4098
102
}
330
2
100
AcDbSymbolTableRecord
100
AcDbLayerTableRecord
  2
2
 70
     0
 62
     4
  6
CONTINUOUS
370
    -3
390
403F
  0
LAYER
  5
52
102
{ACAD_XDICTIONARY
360
409A
102
}
330
2
100
AcDbSymbolTableRecord
100
AcDbLayerTableRecord
  2
3
 70
     0
 62
     2
  6
DASHED
370
    -3
390
403F
  0
LAYER
  5
53
102
{ACAD_XDICTIONARY
360
409C
102
}
330
2
100
AcDbSymbolTableRecord
100
AcDbLayerTableRecord
  2
6
 70
     0
 62
     5
  6
CONTINUOUS
370
    -3
390
403F
  0
LAYER
  5
54
102
{ACAD_XDICTIONARY
360
409E
102
}
330
2
100
AcDbSymbolTableRecord
100
AcDbLayerTableRecord
  2
7
 70
     0
 62
     3
  6
CONTINUOUS
370
    -3
390
403F
  0
ENDTAB
  0
TABLE
  2
STYLE
  5
3
330
0
100
AcDbSymbolTable
 70
     1
  0
STYLE
  5
F
330
3
100
AcDbSymbolTableRecord
100
AcDbTextStyleTableRecord
  2
STANDARD
 70
     0
 40
0.0
 41
1.0
 50
0.0
 71
     0
 42
2.5
  3
simplex.shx
  4

  0
ENDTAB
  0
TABLE
  2
VIEW
  5
6
330
0
100
AcDbSymbolTable
 70
     0
  0
ENDTAB
  0
TABLE
  2
UCS
  5
7
330
0
100
AcDbSymbolTable
 70
     0
  0
ENDTAB
  0
TABLE
  2
APPID
  5
9
330
0
100
AcDbSymbolTable
 70
     5
  0
APPID
  5
10
330
9
100
AcDbSymbolTableRecord
100
AcDbRegAppTableRecord
  2
ACAD
 70
     0
  0
APPID
  5
3E
330
9
100
AcDbSymbolTableRecord
100
AcDbRegAppTableRecord
  2
CONTENTTABDATA
 70
     0
  0
APPID
  5
3F
330
9
100
AcDbSymbolTableRecord
100
AcDbRegAppTableRecord
  2
CONTENTCURRENTTAB
 70
     0
  0
APPID
  5
40AA
330
9
100
AcDbSymbolTableRecord
100
AcDbRegAppTableRecord
  2
ACAD_NAV_VCDISPLAY
 70
     0
  0
APPID
  5
40E3
330
9
100
AcDbSymbolTableRecord
100
AcDbRegAppTableRecord
  2
ACAD_MLEADERVER
 70
     0
  0
ENDTAB
  0
TABLE
  2
DIMSTYLE
  5
A
330
0
100
AcDbSymbolTable
 70
     1
100
AcDbDimStyleTable
 71
     0
  0
DIMSTYLE
105
1D
330
A
100
AcDbSymbolTableRecord
100
AcDbDimStyleTableRecord
  2
STANDARD
 70
     0
 41
3.0
 42
1.0
 43
10.0
 44
1.0
 73
     0
 74
     0
 77
     3
 78
     8
140
3.2
141
0.0
147
1.0
172
     1
173
     1
340
F
341
2E
343
2E
344
2E
  0
ENDTAB
  0
TABLE
  2
BLOCK_RECORD
  5
1
330
0
100
AcDbSymbolTable
 70
     1
  0
BLOCK_RECORD
  5
18
102
{ACAD_XDICTIONARY
360
4039
102
}
330
1
100
AcDbSymbolTableRecord
100
AcDbBlockTableRecord
  2
*MODEL_SPACE
340
408D
  0
BLOCK_RECORD
  5
15
102
{ACAD_XDICTIONARY
360
4037
102
}
330
1
100
AcDbSymbolTableRecord
100
AcDbBlockTableRecord
  2
*PAPER_SPACE
340
408E
  0
BLOCK_RECORD
  5
2E
330
1
100
AcDbSymbolTableRecord
100
AcDbBlockTableRecord
  2
_OPEN
340
0
  0
ENDTAB
  0
ENDSEC
  0
SECTION
  2
BLOCKS
  0
BLOCK
  5
19
330
18
100
AcDbEntity
  8
0
100
AcDbBlockBegin
  2
*MODEL_SPACE
 70
     0
 10
0.0
 20
0.0
 30
0.0
  3
*MODEL_SPACE
  1

  0
ENDBLK
  5
1A
330
18
100
AcDbEntity
  8
0
100
AcDbBlockEnd
  0
BLOCK
  5
16
330
15
100
AcDbEntity
 67
     1
  8
0
100
AcDbBlockBegin
  2
*PAPER_SPACE
 70
     0
 10
0.0
 20
0.0
 30
0.0
  3
*PAPER_SPACE
  1

  0
ENDBLK
  5
17
330
15
100
AcDbEntity
 67
     1
  8
0
100
AcDbBlockEnd
  0
BLOCK
  5
2F
330
2E
100
AcDbEntity
  8
0
100
AcDbBlockBegin
  2
_OPEN
 70
     0
 10
0.0
 20
0.0
 30
0.0
  3
_OPEN
  1

  0
LINE
  5
30
330
2E
100
AcDbEntity
  8
0
  6
ByBlock
 62
     0
100
AcDbLine
 10
-1.0
 20
0.1666666666666666
 30
0.0
 11
0.0
 21
0.0
 31
0.0
  0
LINE
  5
31
330
2E
100
AcDbEntity
  8
0
  6
ByBlock
 62
     0
100
AcDbLine
 10
0.0
 20
0.0
 30
0.0
 11
-1.0
 21
-0.1666666666666666
 31
0.0
  0
LINE
  5
32
330
2E
100
AcDbEntity
  8
0
  6
ByBlock
 62
     0
100
AcDbLine
 10
0.0
 20
0.0
 30
0.0
 11
-1.0
 21
0.0
 31
0.0
  0
ENDBLK
  5
33
330
2E
100
AcDbEntity
  8
0
100
AcDbBlockEnd
  0
ENDSEC
  0
SECTION
  2
ENTITIES
  0
TEXT
  5
63
330
18
100
AcDbEntity
  8
4
  6
CENTER
 48
0.25
100
AcDbText
 10
23.97950852663849
 20
10.0
 30
0.0
 40
1.399999999999999
  1
4
100
AcDbText
  0
TEXT
  5
64
330
18
100
AcDbEntity
  8
7
  6
Continuous
 48
0.25
100
AcDbText
 10
9.999997526638502
 20
26.0000007607689
 30
0.0
 40
3.0
  1
CODE No.2727
100
AcDbText
  0
TEXT
  5
65
330
18
100
AcDbEntity
  8
7
  6
Continuous
 48
0.25
100
AcDbText
 10
9.999997526638502
 20
18.00000076076889
 30
0.0
 40
3.0
  1
TYPE No.TEH-1055-U2
100
AcDbText
  0
TEXT
  5
66
330
18
100
AcDbEntity
  8
1
  6
Continuous
 48
0.25
100
AcDbText
 10
9.999997526638502
 20
10.00000076076889
 30
0.0
 40
1.399999999999999
  1
LAYER
100
AcDbText
  0
TEXT
  5
67
330
18
100
AcDbEntity
  8
2
  6
Continuous
 48
0.25
100
AcDbText
 10
19.9795085266385
 20
10.0
 30
0.0
 40
1.399999999999999
  1
2
100
AcDbText
  0
TEXT
  5
68
330
18
100
AcDbEntity
  8
3
  6
DASHED
 48
0.25
100
AcDbText
 10
21.9795085266385
 20
10.0
 30
0.0
 40
1.399999999999999
  1
3
100
AcDbText
  0
TEXT
  5
69
330
18
100
AcDbEntity
  8
1
  6
Continuous
 48
0.25
100
AcDbText
 10
17.9795085266385
 20
10.0
 30
0.0
 40
1.399999999999999
  1
1
100
AcDbText
  0
TEXT
  5
6A
330
18
100
AcDbEntity
  8
5
  6
PHANTOM
 48
0.25
100
AcDbText
 10
25.9795085266385
 20
10.0
 30
0.0
 40
1.399999999999999
  1
5
100
AcDbText
  0
TEXT
  5
6B
330
18
100
AcDbEntity
  8
6
  6
Continuous
 48
0.25
100
AcDbText
 10
27.9795085266385
 20
10.0
 30
0.0
 40
1.399999999999999
  1
6
100
AcDbText
  0
TEXT
  5
6C
330
18
100
AcDbEntity
  8
7
  6
Continuous
 48
0.25
100
AcDbText
 10
29.9795085266385
 20
10.0
 30
0.0
 40
1.399999999999999
  1
7
100
AcDbText
  0
LINE
  5
1383
330
18
100
AcDbEntity
  8
1
  6
Continuous
100
AcDbLine
 10
87.61417913841627
 20
139.5219259674401
 30
0.0
 11
87.24165479691533
 21
140.5454281839109
 31
0.0
  0
LINE
  5
1384
330
18
100
AcDbEntity
  8
1
  6
Continuous
100
AcDbLine
 10
82.78670361439992
 20
140.5454281839109
 30
0.0
 11
82.41417908216432
 21
139.5219254434006
 31
0.0
  0
LINE
  5
1389
330
18
100
AcDbEntity
  8
1
  6
Continuous
100
AcDbLine
 10
100.7141801421026
 20
140.7719262854258
 30
0.0
 11
100.7141801421026
 21
128.7719257154564
 31
0.0
  0
LINE
  5
138A
330
18
100
AcDbEntity
  8
1
  6
Continuous
100
AcDbLine
 10
103.7141802845949
 20
140.7719262854258
 30
0.0
 11
103.7141802845949
 21
128.7719257154564
 31
0.0
  0
LINE
  5
138B
330
18
100
AcDbEntity
  8
1
  6
Continuous
100
AcDbLine
 10
90.2141796433794
 20
140.7719262854258
 30
0.0
 11
90.2141796433794
 21
128.7719257154564
 31
0.0
  0
LINE
  5
138C
330
18
100
AcDbEntity
  8
1
  6
Continuous
100
AcDbLine
 10
88.21417916691473
 20
131.7719258579488
 30
0.0
 11
90.2141796433794
 21
131.7719258579488
 31
0.0
  0
LINE
  5
138D
330
18
100
AcDbEntity
  8
1
  6
Continuous
100
AcDbLine
 10
90.2141796433794
 20
137.7719261429335
 30
0.0
 11
88.21417916691473
 21
137.7719261429335
 31
0.0
  0
LINE
  5
138E
330
18
100
AcDbEntity
  8
1
  6
Continuous
100
AcDbLine
 10
82.41417908216432
 20
130.0219249921753
 30
0.0
 11
82.41417908216432
 21
139.5219254434006
 31
0.0
  0
LINE
  5
1393
330
18
100
AcDbEntity
  8
1
  6
Continuous
100
AcDbLine
 10
81.21417830758081
 20
131.7719267662703
 30
0.0
 11
81.21417830758081
 21
137.7719261429334
 31
0.0
  0
LINE
  5
1394
330
18
100
AcDbEntity
  8
1
  6
Continuous
100
AcDbLine
 10
80.21417916840482
 20
132.7719259054463
 30
0.0
 11
80.21417916840494
 21
136.7719260954361
 31
0.0
  0
LINE
  5
1395
330
18
100
AcDbEntity
  8
1
  6
Continuous
100
AcDbLine
 10
81.21417830758081
 20
131.7719258579488
 30
0.0
 11
82.41417908216432
 21
131.7719258579488
 31
0.0
  0
LINE
  5
1396
330
18
100
AcDbEntity
  8
1
  6
Continuous
100
AcDbLine
 10
80.21407916840486
 20
132.7720259054463
 30
0.0
 11
81.21417921590227
 21
131.7719258579488
 31
0.0
  0
LINE
  5
1397
330
18
100
AcDbEntity
  8
1
  6
Continuous
100
AcDbLine
 10
81.21417921590227
 20
131.7719258579488
 30
0.0
 11
81.21427830758079
 21
131.7718267662703
 31
0.0
  0
LINE
  5
1398
330
18
100
AcDbEntity
  8
1
  6
Continuous
100
AcDbLine
 10
87.2416547969154
 20
128.9984222516652
 30
0.0
 11
87.61417913841627
 21
130.0219244681361
 31
0.0
  0
LINE
  5
1399
330
18
100
AcDbEntity
  8
1
  6
Continuous
100
AcDbLine
 10
82.41407884684996
 20
130.0222003864383
 30
0.0
 11
82.78670361439992
 21
128.9984222516652
 31
0.0
  0
LINE
  5
139E
330
18
100
AcDbEntity
  8
1
  6
Continuous
100
AcDbLine
 10
82.78670361439992
 20
128.9984222516652
 30
0.0
 11
87.24165479691544
 21
128.9984222516652
 31
0.0
  0
LINE
  5
139F
330
18
100
AcDbEntity
  8
1
  6
Continuous
100
AcDbLine
 10
82.78670361439992
 20
128.9984222516652
 30
0.0
 11
82.78674001142338
 21
128.9983222516652
 31
0.0
  0
LINE
  5
13A0
330
18
100
AcDbEntity
  8
1
  6
Continuous
100
AcDbLine
 10
87.24161839989193
 20
128.9983222516651
 30
0.0
 11
87.2416547969154
 21
128.9984222516652
 31
0.0
  0
LINE
  5
13A2
330
18
100
AcDbEntity
  8
1
  6
Continuous
100
AcDbLine
 10
87.61417913841627
 20
129.6905883302787
 30
0.0
 11
88.21417916691473
 21
129.6905883302787
 31
0.0
  0
LINE
  5
13A3
330
18
100
AcDbEntity
  8
1
  6
Continuous
100
AcDbLine
 10
87.61417913841627
 20
129.274378619251
 30
0.0
 11
88.21417916691473
 21
129.274378619251
 31
0.0
  0
LINE
  5
13A4
330
18
100
AcDbEntity
  8
1
  6
Continuous
100
AcDbLine
 10
87.61417913841627
 20
129.274378619251
 30
0.0
 11
87.61417913841619
 21
140.2719262616771
 31
0.0
  0
LINE
  5
13A5
330
18
100
AcDbEntity
  8
1
  6
Continuous
100
AcDbLine
 10
88.21417916691478
 20
140.2719262616771
 30
0.0
 11
88.21417916691473
 21
129.274378619251
 31
0.0
  0
LINE
  5
13A8
330
18
100
AcDbEntity
  8
1
  6
Continuous
100
AcDbLine
 10
87.61417913841627
 20
129.2719257392051
 30
0.0
 11
88.21417916691473
 21
129.2719257392051
 31
0.0
  0
LINE
  5
13A9
330
18
100
AcDbEntity
  8
1
  6
Continuous
100
AcDbLine
 10
87.61417913841627
 20
129.274378619251
 30
0.0
 11
87.61417913841627
 21
129.2719257392051
 31
0.0
  0
LINE
  5
13AA
330
18
100
AcDbEntity
  8
1
  6
Continuous
100
AcDbLine
 10
88.21417916691473
 20
129.274378619251
 30
0.0
 11
88.21417916691473
 21
129.2719257392051
 31
0.0
  0
LINE
  5
13AB
330
18
100
AcDbEntity
  8
1
  6
Continuous
100
AcDbLine
 10
82.78670361439992
 20
131.8851737347267
 30
0.0
 11
87.24165479691533
 21
131.8851737347267
 31
0.0
  0
LINE
  5
13AE
330
18
100
AcDbEntity
  8
1
  6
Continuous
100
AcDbLine
 10
87.61417913841627
 20
132.8198461697753
 30
0.0
 11
88.21417916691473
 21
132.8198461697753
 31
0.0
  0
LINE
  5
13AF
330
18
100
AcDbEntity
  8
1
  6
Continuous
100
AcDbLine
 10
87.61417913841627
 20
132.6671670224621
 30
0.0
 11
88.21417916691473
 21
132.6671670224621
 31
0.0
  0
LINE
  5
13B2
330
18
100
AcDbEntity
  8
1
  6
Continuous
100
AcDbLine
 10
87.61417913841627
 20
131.000710095663
 30
0.0
 11
88.21417916691473
 21
131.000710095663
 31
0.0
  0
LINE
  5
13B5
330
18
100
AcDbEntity
  8
1
  6
Continuous
100
AcDbLine
 10
87.61417913841627
 20
130.8828385191934
 30
0.0
 11
88.21417916691473
 21
130.8828385191934
 31
0.0
  0
LINE
  5
13B8
330
18
100
AcDbEntity
  8
1
  6
Continuous
100
AcDbLine
 10
82.41417908216432
 20
137.7719261429335
 30
0.0
 11
81.21417830758081
 21
137.7719261429334
 31
0.0
  0
LINE
  5
13BB
330
18
100
AcDbEntity
  8
1
  6
Continuous
100
AcDbLine
 10
81.21417921590239
 20
137.7719261429335
 30
0.0
 11
81.21407830758085
 21
137.7719261429335
 31
0.0
  0
LINE
  5
13BC
330
18
100
AcDbEntity
  8
1
  6
Continuous
100
AcDbLine
 10
81.21427921590237
 20
137.7720261429334
 30
0.0
 11
81.21417921590239
 21
137.7719261429335
 31
0.0
  0
LINE
  5
13BD
330
18
100
AcDbEntity
  8
1
  6
Continuous
100
AcDbLine
 10
81.21417921590239
 20
137.7719261429335
 30
0.0
 11
80.21417916840494
 21
136.7719260954361
 31
0.0
  0
LINE
  5
13C1
330
18
100
AcDbEntity
  8
1
  6
Continuous
100
AcDbLine
 10
87.61417913841627
 20
134.7719260004411
 30
0.0
 11
88.21417916691473
 21
134.7719260004411
 31
0.0
  0
LINE
  5
13C2
330
18
100
AcDbEntity
  8
1
  6
Continuous
100
AcDbLine
 10
87.61417913841627
 20
134.9361687024575
 30
0.0
 11
88.21417916691473
 21
134.9361687024575
 31
0.0
  0
LINE
  5
13C5
330
18
100
AcDbEntity
  8
1
  6
Continuous
100
AcDbLine
 10
82.78670361439992
 20
137.6586767008491
 30
0.0
 11
87.2416547969154
 21
137.6586767008491
 31
0.0
  0
LINE
  5
13C9
330
18
100
AcDbEntity
  8
1
  6
Continuous
100
AcDbLine
 10
87.61417913841627
 20
136.8766849784201
 30
0.0
 11
88.21417916691473
 21
136.8766849784201
 31
0.0
  0
LINE
  5
13CA
330
18
100
AcDbEntity
  8
1
  6
Continuous
100
AcDbLine
 10
87.61417913841627
 20
138.6610134816889
 30
0.0
 11
88.21417916691473
 21
138.6610134816889
 31
0.0
  0
LINE
  5
13CB
330
18
100
AcDbEntity
  8
1
  6
Continuous
100
AcDbLine
 10
87.61417913841627
 20
137.0274867726217
 30
0.0
 11
88.21417916691473
 21
137.0274867726217
 31
0.0
  0
LINE
  5
13D0
330
18
100
AcDbEntity
  8
1
  6
Continuous
100
AcDbLine
 10
87.61417913841627
 20
138.7754161619307
 30
0.0
 11
88.21417916691473
 21
138.7754161619307
 31
0.0
  0
LINE
  5
13D3
330
18
100
AcDbEntity
  8
1
  6
Continuous
100
AcDbLine
 10
103.7141802845949
 20
128.7719257154564
 30
0.0
 11
90.2141796433794
 21
128.7719257154564
 31
0.0
  0
LINE
  5
13D6
330
18
100
AcDbEntity
  8
1
  6
Continuous
100
AcDbLine
 10
92.21417973837429
 20
128.7719252386192
 30
0.0
 11
92.21417973837429
 21
127.1719251626233
 31
0.0
  0
LINE
  5
13D8
330
18
100
AcDbEntity
  8
1
  6
Continuous
100
AcDbLine
 10
103.2141802608462
 20
127.1719251626233
 30
0.0
 11
103.2141802608462
 21
128.7719252386192
 31
0.0
  0
LINE
  5
13D9
330
18
100
AcDbEntity
  8
1
  6
Continuous
100
AcDbLine
 10
82.78670361439992
 20
140.5454281839109
 30
0.0
 11
87.24165479691544
 21
140.5454281839109
 31
0.0
  0
LINE
  5
13DA
330
18
100
AcDbEntity
  8
1
  6
Continuous
100
AcDbLine
 10
82.78674001142338
 20
140.5455281839109
 30
0.0
 11
82.78670361439992
 21
140.5454281839109
 31
0.0
  0
LINE
  5
13DB
330
18
100
AcDbEntity
  8
1
  6
Continuous
100
AcDbLine
 10
87.24165479691533
 20
140.5454281839109
 30
0.0
 11
87.24161839989193
 21
140.5455281839109
 31
0.0
  0
LINE
  5
13DD
330
18
100
AcDbEntity
  8
1
  6
Continuous
100
AcDbLine
 10
87.61417913841619
 20
140.2719262616771
 30
0.0
 11
88.21417916691478
 21
140.2719262616771
 31
0.0
  0
LINE
  5
13DE
330
18
100
AcDbEntity
  8
1
  6
Continuous
100
AcDbLine
 10
87.61417913841627
 20
139.9138504658824
 30
0.0
 11
88.21417916691473
 21
139.9138504658824
 31
0.0
  0
LINE
  5
13E3
330
18
100
AcDbEntity
  8
1
  6
Continuous
100
AcDbLine
 10
103.7141802845949
 20
140.7719262854258
 30
0.0
 11
90.2141796433794
 21
140.7719262854258
 31
0.0
  0
LINE
  5
13F8
330
18
100
AcDbEntity
  8
1
  6
Continuous
100
AcDbLine
 10
208.6205141638306
 20
126.1719252104933
 30
0.0
 11
208.6205141638306
 21
126.671925234242
 31
0.0
  0
LINE
  5
13F9
330
18
100
AcDbEntity
  8
1
  6
Continuous
100
AcDbLine
 10
208.4562714618142
 20
126.6694723541961
 30
0.0
 11
208.5217747859502
 21
126.1719252104933
 31
0.0
  0
ARC
  5
13FA
330
18
100
AcDbEntity
  8
1
  6
Continuous
100
AcDbCircle
 10
208.6205141638306
 20
121.1719249730062
 30
0.0
 40
5.500000261235849
100
AcDbArc
 50
91.71123861641465
 51
112.5000000000035
  0
ARC
  5
13FB
330
18
100
AcDbEntity
  8
1
  6
Continuous
100
AcDbCircle
 10
208.6205141638306
 20
121.1719249730061
 30
0.0
 40
5.500000261235891
100
AcDbArc
 50
69.21123861641977
 51
90.0
  0
LINE
  5
13FC
330
18
100
AcDbEntity
  8
1
  6
Continuous
100
AcDbLine
 10
202.6205138788459
 20
115.1719246880213
 30
0.0
 11
202.6205138788459
 21
127.1719252579907
 31
0.0
  0
LINE
  5
13FD
330
18
100
AcDbEntity
  8
1
  6
Continuous
100
AcDbLine
 10
214.6205144488153
 20
115.1719246880213
 30
0.0
 11
214.6205144488153
 21
127.1719252579907
 31
0.0
  0
LINE
  5
140A
330
18
100
AcDbEntity
  8
1
  6
Continuous
100
AcDbLine
 10
214.3940171973508
 20
121.1719249730061
 30
0.0
 11
211.5072657142893
 21
126.1719252104933
 31
0.0
  0
LINE
  5
140B
330
18
100
AcDbEntity
  8
1
  6
Continuous
100
AcDbLine
 10
211.5072657142891
 20
116.1719247355189
 30
0.0
 11
214.3940171973506
 21
121.1719249730061
 31
0.0
  0
ARC
  5
140D
330
18
100
AcDbEntity
  8
1
  6
Continuous
100
AcDbCircle
 10
208.6205141638307
 20
121.171924973006
 30
0.0
 40
5.500000261235891
100
AcDbArc
 50
339.2112386164197
 51
354.4712221901335
  0
ARC
  5
140E
330
18
100
AcDbEntity
  8
1
  6
Continuous
100
AcDbCircle
 10
208.6205141638307
 20
121.1719249730061
 30
0.0
 40
5.500000261235849
100
AcDbArc
 50
5.604542947409414
 51
22.50000000000319
  0
LINE
  5
140F
330
18
100
AcDbEntity
  8
1
  6
Continuous
100
AcDbLine
 10
202.6205138788459
 20
115.1719246880213
 30
0.0
 11
214.6205144488153
 21
115.1719246880213
 31
0.0
  0
LINE
  5
1410
330
18
100
AcDbEntity
  8
1
  6
Continuous
100
AcDbLine
 10
205.7337627481666
 20
116.1719247355188
 30
0.0
 11
202.8470112651051
 21
121.171924973006
 31
0.0
  0
ARC
  5
1412
330
18
100
AcDbEntity
  8
1
  6
Continuous
100
AcDbCircle
 10
208.6205141638305
 20
121.171924973006
 30
0.0
 40
5.500000261235849
100
AcDbArc
 50
185.6045400500626
 51
202.5000000000032
  0
ARC
  5
141B
330
18
100
AcDbEntity
  8
1
  6
Continuous
100
AcDbCircle
 10
208.6205141638306
 20
121.171924973006
 30
0.0
 40
5.500000261235925
100
AcDbArc
 50
226.7112386164081
 51
234.518530816056
  0
LINE
  5
141C
330
18
100
AcDbEntity
  8
1
  6
Continuous
100
AcDbLine
 10
204.9602599948618
 20
117.5116708040372
 30
0.0
 11
204.7314266825828
 21
117.2828374917583
 31
0.0
  0
LINE
  5
141D
330
18
100
AcDbEntity
  8
1
  6
Continuous
100
AcDbLine
 10
203.9612557340274
 20
119.24199694078
 30
0.0
 11
203.5391764936681
 21
119.0671659950271
 31
0.0
  0
LINE
  5
141E
330
18
100
AcDbEntity
  8
1
  6
Continuous
100
AcDbLine
 10
204.8492982590524
 20
117.1684348115164
 30
0.0
 11
205.0256997872212
 21
117.3983257588339
 31
0.0
  0
LINE
  5
141F
330
18
100
AcDbEntity
  8
1
  6
Continuous
100
AcDbLine
 10
203.6042956202865
 20
118.9163642008254
 30
0.0
 11
204.0130188181445
 21
119.1523406491327
 31
0.0
  0
ARC
  5
1420
330
18
100
AcDbEntity
  8
1
  6
Continuous
100
AcDbCircle
 10
208.6205141638306
 20
121.1719249730061
 30
0.0
 40
5.500000261236003
100
AcDbArc
 50
204.2112386164129
 51
225.0000000000003
  0
ARC
  5
1421
330
18
100
AcDbEntity
  8
1
  6
Continuous
100
AcDbCircle
 10
208.6205141638306
 20
121.1719249730061
 30
0.0
 40
5.500000261236003
100
AcDbArc
 50
305.5879735515834
 51
314.9999999999997
  0
LINE
  5
1422
330
18
100
AcDbEntity
  8
1
  6
Continuous
100
AcDbLine
 10
211.5072657142893
 20
116.1719247355188
 30
0.0
 11
205.7337627481666
 21
116.1719247355188
 31
0.0
  0
ARC
  5
1423
330
18
100
AcDbEntity
  8
1
  6
Continuous
100
AcDbCircle
 10
208.6205141638306
 20
121.1719249730059
 30
0.0
 40
5.500000261235849
100
AcDbArc
 50
271.7112386164146
 51
292.5000000000035
  0
LINE
  5
1424
330
18
100
AcDbEntity
  8
1
  6
Continuous
100
AcDbLine
 10
206.5494462535943
 20
116.1719247355188
 30
0.0
 11
206.5157551858516
 21
116.0905873028435
 31
0.0
  0
LINE
  5
1425
330
18
100
AcDbEntity
  8
1
  6
Continuous
100
AcDbLine
 10
206.6684343331648
 20
116.0300005075648
 30
0.0
 11
206.7064628154315
 21
116.1719247355188
 31
0.0
  0
LINE
  5
1426
330
18
100
AcDbEntity
  8
1
  6
Continuous
100
AcDbLine
 10
208.784756865847
 20
115.6743775918159
 30
0.0
 11
208.719253541711
 21
116.1719247355188
 31
0.0
  0
LINE
  5
1427
330
18
100
AcDbEntity
  8
1
  6
Continuous
100
AcDbLine
 10
208.6205141638306
 20
116.1719247355188
 30
0.0
 11
208.6205141638306
 21
115.6719247117701
 31
0.0
  0
ARC
  5
1428
330
18
100
AcDbEntity
  8
1
  6
Continuous
100
AcDbCircle
 10
208.6205141638306
 20
121.171924973006
 30
0.0
 40
5.500000261235925
100
AcDbArc
 50
245.5597312822493
 51
247.4999999999968
  0
ARC
  5
1429
330
18
100
AcDbEntity
  8
1
  6
Continuous
100
AcDbCircle
 10
208.6205141638306
 20
121.1719249730059
 30
0.0
 40
5.500000261235891
100
AcDbArc
 50
249.2112386164197
 51
270.0
  0
LINE
  5
142A
330
18
100
AcDbEntity
  8
1
  6
Continuous
100
AcDbLine
 10
210.8760749360113
 20
116.1557064294619
 30
0.0
 11
210.8667112926435
 21
116.1719247355188
 31
0.0
  0
LINE
  5
142B
330
18
100
AcDbEntity
  8
1
  6
Continuous
100
AcDbLine
 10
210.6915820740669
 20
116.1719247355188
 30
0.0
 11
210.7252731418096
 21
116.0905873028435
 31
0.0
  0
ARC
  5
142C
330
18
100
AcDbEntity
  8
1
  6
Continuous
100
AcDbCircle
 10
208.6205141638306
 20
121.1719249730061
 30
0.0
 40
5.500000261236003
100
AcDbArc
 50
294.211238616413
 51
294.575323453986
  0
LINE
  5
1435
330
18
100
AcDbEntity
  8
1
  6
Continuous
100
AcDbLine
 10
212.6240043253202
 20
117.4007090682279
 30
0.0
 11
212.3417486048655
 21
117.6172915000442
 31
0.0
  0
LINE
  5
1436
330
18
100
AcDbEntity
  8
1
  6
Continuous
100
AcDbLine
 10
212.2807684182557
 20
117.5116707185809
 30
0.0
 11
212.5096016450783
 21
117.2828374917583
 31
0.0
  0
LINE
  5
1437
330
18
100
AcDbEntity
  8
1
  6
Continuous
100
AcDbLine
 10
213.2797727024139
 20
119.2419968957218
 30
0.0
 11
213.7018518339931
 21
119.0671659950271
 31
0.0
  0
LINE
  5
1438
330
18
100
AcDbEntity
  8
1
  6
Continuous
100
AcDbLine
 10
213.7624386292719
 20
119.2198451423402
 30
0.0
 11
213.3333617983809
 21
119.3348159326683
 31
0.0
  0
ARC
  5
1439
330
18
100
AcDbEntity
  8
1
  6
Continuous
100
AcDbCircle
 10
208.6205141638306
 20
121.171924973006
 30
0.0
 40
5.500000261235925
100
AcDbArc
 50
316.7112386164081
 51
337.4999999999968
  0
LINE
  5
143D
330
18
100
AcDbEntity
  8
1
  6
Continuous
100
AcDbLine
 10
202.8470112651053
 20
121.171924973006
 30
0.0
 11
205.7337627481668
 21
126.1719252104932
 31
0.0
  0
ARC
  5
143E
330
18
100
AcDbEntity
  8
1
  6
Continuous
100
AcDbCircle
 10
208.6205141638306
 20
121.171924973006
 30
0.0
 40
5.500000261236003
100
AcDbArc
 50
125.5879707170335
 51
134.9999999999997
  0
ARC
  5
1440
330
18
100
AcDbEntity
  8
1
  6
Continuous
100
AcDbCircle
 10
208.6205141638306
 20
121.1719249730061
 30
0.0
 40
5.500000261235925
100
AcDbArc
 50
136.7112386164081
 51
157.4999999999968
  0
LINE
  5
1441
330
18
100
AcDbEntity
  8
1
  6
Continuous
100
AcDbLine
 10
203.9612557340276
 20
123.101853005232
 30
0.0
 11
203.5391764936681
 21
123.276683950985
 31
0.0
  0
LINE
  5
1442
330
18
100
AcDbEntity
  8
1
  6
Continuous
100
AcDbLine
 10
203.4785896983893
 20
123.1240048036718
 30
0.0
 11
203.9076666460159
 21
123.0090339820645
 31
0.0
  0
ARC
  5
1443
330
18
100
AcDbEntity
  8
1
  6
Continuous
100
AcDbCircle
 10
208.6205141638305
 20
121.1719249730061
 30
0.0
 40
5.500000261235891
100
AcDbArc
 50
159.2112386164197
 51
174.4712249182545
  0
LINE
  5
1444
330
18
100
AcDbEntity
  8
1
  6
Continuous
100
AcDbLine
 10
204.9602599948619
 20
124.8321791419747
 30
0.0
 11
204.7314266825829
 21
125.0610124542538
 31
0.0
  0
LINE
  5
1445
330
18
100
AcDbEntity
  8
1
  6
Continuous
100
AcDbLine
 10
204.617024002341
 20
124.9431408777842
 30
0.0
 11
204.8992798162074
 21
124.7265583742905
 31
0.0
  0
LINE
  5
1446
330
18
100
AcDbEntity
  8
1
  6
Continuous
100
AcDbLine
 10
213.6367327073747
 20
123.4274857451867
 30
0.0
 11
213.2280096106129
 21
123.1915093552472
 31
0.0
  0
LINE
  5
1450
330
18
100
AcDbEntity
  8
1
  6
Continuous
100
AcDbLine
 10
213.2797727024141
 20
123.1018530502903
 30
0.0
 11
213.7018518339931
 21
123.276683950985
 31
0.0
  0
LINE
  5
1453
330
18
100
AcDbEntity
  8
1
  6
Continuous
100
AcDbLine
 10
211.5072657142893
 20
126.1719252104933
 30
0.0
 11
205.7337627481666
 21
126.1719252104933
 31
0.0
  0
LINE
  5
1455
330
18
100
AcDbEntity
  8
1
  6
Continuous
100
AcDbLine
 10
206.3649533916499
 20
126.1881435165501
 30
0.0
 11
206.3743170350176
 21
126.1719252104933
 31
0.0
  0
LINE
  5
1456
330
18
100
AcDbEntity
  8
1
  6
Continuous
100
AcDbLine
 10
206.5494462535943
 20
126.1719252104933
 30
0.0
 11
206.5157551858516
 21
126.2532626431685
 31
0.0
  0
ARC
  5
1457
330
18
100
AcDbEntity
  8
1
  6
Continuous
100
AcDbCircle
 10
208.6205141638306
 20
121.171924973006
 30
0.0
 40
5.500000261236003
100
AcDbArc
 50
114.211238616413
 51
114.5753234539856
  0
LINE
  5
145D
330
18
100
AcDbEntity
  8
1
  6
Continuous
100
AcDbLine
 10
212.3917300686088
 20
125.1754151344957
 30
0.0
 11
212.2153286173593
 21
124.9455242874214
 31
0.0
  0
LINE
  5
145E
330
18
100
AcDbEntity
  8
1
  6
Continuous
100
AcDbLine
 10
212.2807684182558
 20
124.8321792274313
 30
0.0
 11
212.5096016450783
 21
125.0610124542538
 31
0.0
  0
LINE
  5
145F
330
18
100
AcDbEntity
  8
1
  6
Continuous
100
AcDbLine
 10
210.6915820740669
 20
126.1719252104933
 30
0.0
 11
210.7252731418096
 21
126.2532626431685
 31
0.0
  0
LINE
  5
1460
330
18
100
AcDbEntity
  8
1
  6
Continuous
100
AcDbLine
 10
210.5725939944964
 20
126.3138494384473
 30
0.0
 11
210.5345655122297
 21
126.1719252104933
 31
0.0
  0
ARC
  5
1461
330
18
100
AcDbEntity
  8
1
  6
Continuous
100
AcDbCircle
 10
208.6205141638306
 20
121.171924973006
 30
0.0
 40
5.500000261236003
100
AcDbArc
 50
24.211238616413
 51
45.00000000000028
  0
ARC
  5
1462
330
18
100
AcDbEntity
  8
1
  6
Continuous
100
AcDbCircle
 10
208.6205141638306
 20
121.1719249730061
 30
0.0
 40
5.500000261235925
100
AcDbArc
 50
46.71123861640813
 51
54.51852814291822
  0
ARC
  5
1463
330
18
100
AcDbEntity
  8
1
  6
Continuous
100
AcDbCircle
 10
208.6205141638306
 20
121.1719249730061
 30
0.0
 40
5.500000261235925
100
AcDbArc
 50
65.55973128224969
 51
67.4999999999968
  0
LINE
  5
14B3
330
18
100
AcDbEntity
  8
1
  6
Continuous
100
AcDbLine
 10
202.6205138788459
 20
127.1719252579907
 30
0.0
 11
214.6205144488153
 21
127.1719252579907
 31
0.0
  0
LINE
  5
14B5
330
18
100
AcDbEntity
  8
1
  6
Continuous
100
AcDbLine
 10
203.1205139025946
 20
128.7719252386192
 30
0.0
 11
203.1205139025946
 21
127.1719251626233
 31
0.0
  0
LINE
  5
14B7
330
18
100
AcDbEntity
  8
1
  6
Continuous
100
AcDbLine
 10
214.1205144250666
 20
127.1719251626233
 30
0.0
 11
214.1205144250666
 21
128.7719252386192
 31
0.0
  0
LINE
  5
158A
330
18
100
AcDbEntity
  8
1
  6
Continuous
100
AcDbLine
 10
90.2141796433794
 20
176.2113996170584
 30
0.0
 11
90.21417964337944
 21
188.2114001870279
 31
0.0
  0
LINE
  5
158B
330
18
100
AcDbEntity
  8
1
  6
Continuous
100
AcDbLine
 10
103.7141802845949
 20
185.2114000445356
 30
0.0
 11
100.7141801421026
 21
188.2114001870279
 31
0.0
  0
LINE
  5
158C
330
18
100
AcDbEntity
  8
1
  6
Continuous
100
AcDbLine
 10
103.7141802845949
 20
189.711400258274
 30
0.0
 11
91.71417971462558
 21
189.711400258274
 31
0.0
  0
LINE
  5
158D
330
18
100
AcDbEntity
  8
1
  6
Continuous
100
AcDbLine
 10
94.714179857118
 20
191.7114007347388
 30
0.0
 11
94.71417985711793
 21
189.711400258274
 31
0.0
  0
LINE
  5
158E
330
18
100
AcDbEntity
  8
1
  6
Continuous
100
AcDbLine
 10
100.7141801421026
 20
189.711400258274
 30
0.0
 11
100.7141801421026
 21
191.7114007347388
 31
0.0
  0
LINE
  5
158F
330
18
100
AcDbEntity
  8
1
  6
Continuous
100
AcDbLine
 10
88.21417916691473
 20
179.2113997595508
 30
0.0
 11
90.2141796433794
 21
179.2113997595508
 31
0.0
  0
LINE
  5
1590
330
18
100
AcDbEntity
  8
1
  6
Continuous
100
AcDbLine
 10
90.2141796433794
 20
185.2114000445356
 30
0.0
 11
88.21417916691473
 21
185.2114000445356
 31
0.0
  0
LINE
  5
1591
330
18
100
AcDbEntity
  8
1
  6
Continuous
100
AcDbLine
 10
82.41417884684995
 20
186.9613994811349
 30
0.0
 11
82.41417884684995
 21
177.4614003229515
 31
0.0
  0
LINE
  5
1596
330
18
100
AcDbEntity
  8
1
  6
Continuous
100
AcDbLine
 10
81.21417921590227
 20
185.2114000445355
 30
0.0
 11
81.21417921590227
 21
179.2113997595509
 31
0.0
  0
LINE
  5
1597
330
18
100
AcDbEntity
  8
1
  6
Continuous
100
AcDbLine
 10
80.21417916840494
 20
184.2113999970381
 30
0.0
 11
80.21417916840482
 21
180.2113998070483
 31
0.0
  0
LINE
  5
1598
330
18
100
AcDbEntity
  8
1
  6
Continuous
100
AcDbLine
 10
81.21417830758081
 20
179.2113997595508
 30
0.0
 11
82.41417908216432
 21
179.2113997595508
 31
0.0
  0
LINE
  5
1599
330
18
100
AcDbEntity
  8
1
  6
Continuous
100
AcDbLine
 10
81.21407830758085
 20
179.2113997595508
 30
0.0
 11
81.21417830758081
 21
179.2113997595508
 31
0.0
  0
LINE
  5
159A
330
18
100
AcDbEntity
  8
1
  6
Continuous
100
AcDbLine
 10
80.21407916840486
 20
180.2114998070483
 30
0.0
 11
81.2141792159025
 21
179.2113997595508
 31
0.0
  0
LINE
  5
159B
330
18
100
AcDbEntity
  8
1
  6
Continuous
100
AcDbLine
 10
81.2141792159025
 20
179.2113997595508
 30
0.0
 11
81.21427921590237
 21
179.2112997595508
 31
0.0
  0
LINE
  5
159E
330
18
100
AcDbEntity
  8
1
  6
Continuous
100
AcDbLine
 10
87.61417913841627
 20
177.1300622318807
 30
0.0
 11
88.21417916691473
 21
177.1300622318807
 31
0.0
  0
LINE
  5
159F
330
18
100
AcDbEntity
  8
1
  6
Continuous
100
AcDbLine
 10
87.61417913841627
 20
176.713852520853
 30
0.0
 11
88.21417916691473
 21
176.713852520853
 31
0.0
  0
LINE
  5
15A2
330
18
100
AcDbEntity
  8
1
  6
Continuous
100
AcDbLine
 10
87.61417913841631
 20
176.7113996408072
 30
0.0
 11
88.21417916691473
 21
176.7113996408072
 31
0.0
  0
LINE
  5
15A5
330
18
100
AcDbEntity
  8
1
  6
Continuous
100
AcDbLine
 10
82.50517164505287
 20
177.211399664556
 30
0.0
 11
87.5231867662625
 21
177.211399664556
 31
0.0
  0
LINE
  5
15A6
330
18
100
AcDbEntity
  8
1
  6
Continuous
100
AcDbLine
 10
82.41417884684995
 20
177.4614003229515
 30
0.0
 11
82.50517164505287
 21
177.211399664556
 31
0.0
  0
LINE
  5
15A8
330
18
100
AcDbEntity
  8
1
  6
Continuous
100
AcDbLine
 10
87.5231867662625
 20
177.211399664556
 30
0.0
 11
87.61417913841627
 21
177.4613991523913
 31
0.0
  0
LINE
  5
15AC
330
18
100
AcDbEntity
  8
1
  6
Continuous
100
AcDbLine
 10
87.61417913841627
 20
180.2593200713772
 30
0.0
 11
88.21417916691473
 21
180.2593200713772
 31
0.0
  0
LINE
  5
15AD
330
18
100
AcDbEntity
  8
1
  6
Continuous
100
AcDbLine
 10
87.61417913841627
 20
180.1066409240642
 30
0.0
 11
88.21417916691473
 21
180.1066409240642
 31
0.0
  0
LINE
  5
15B0
330
18
100
AcDbEntity
  8
1
  6
Continuous
100
AcDbLine
 10
87.61417913841627
 20
178.440183997265
 30
0.0
 11
88.21417916691473
 21
178.440183997265
 31
0.0
  0
LINE
  5
15B3
330
18
100
AcDbEntity
  8
1
  6
Continuous
100
AcDbLine
 10
87.61417913841627
 20
178.3223124207954
 30
0.0
 11
88.21417916691473
 21
178.3223124207954
 31
0.0
  0
LINE
  5
15B7
330
18
100
AcDbEntity
  8
1
  6
Continuous
100
AcDbLine
 10
87.61417913841631
 20
176.7113996408072
 30
0.0
 11
87.61417913841594
 21
187.7114001632792
 31
0.0
  0
LINE
  5
15B8
330
18
100
AcDbEntity
  8
1
  6
Continuous
100
AcDbLine
 10
88.21417916691478
 20
187.7114001632792
 30
0.0
 11
88.21417916691473
 21
176.7113996408072
 31
0.0
  0
LINE
  5
15B9
330
18
100
AcDbEntity
  8
1
  6
Continuous
100
AcDbLine
 10
82.41417908216432
 20
185.2114000445356
 30
0.0
 11
81.21417921590227
 21
185.2114000445355
 31
0.0
  0
LINE
  5
15BC
330
18
100
AcDbEntity
  8
1
  6
Continuous
100
AcDbLine
 10
81.21427921590237
 20
185.2115000445355
 30
0.0
 11
81.21417921590239
 21
185.2114000445356
 31
0.0
  0
LINE
  5
15BD
330
18
100
AcDbEntity
  8
1
  6
Continuous
100
AcDbLine
 10
81.2141792159025
 20
185.2114000445356
 30
0.0
 11
81.21407830758085
 21
185.2114000445356
 31
0.0
  0
LINE
  5
15BE
330
18
100
AcDbEntity
  8
1
  6
Continuous
100
AcDbLine
 10
81.21417830758081
 20
185.211399136214
 30
0.0
 11
80.21417916840494
 21
184.2113999970381
 31
0.0
  0
LINE
  5
15C1
330
18
100
AcDbEntity
  8
1
  6
Continuous
100
AcDbLine
 10
82.78670361439992
 20
182.2113999020433
 30
0.0
 11
87.24165479691544
 21
182.2113999020433
 31
0.0
  0
LINE
  5
15C2
330
18
100
AcDbEntity
  8
1
  6
Continuous
100
AcDbLine
 10
87.61417913841627
 20
182.2113999020432
 30
0.0
 11
88.21417916691473
 21
182.2113999020432
 31
0.0
  0
LINE
  5
15C3
330
18
100
AcDbEntity
  8
1
  6
Continuous
100
AcDbLine
 10
87.61417913841627
 20
182.3756426040596
 30
0.0
 11
88.21417916691473
 21
182.3756426040596
 31
0.0
  0
LINE
  5
15C9
330
18
100
AcDbEntity
  8
1
  6
Continuous
100
AcDbLine
 10
87.61417913841627
 20
184.3161588800221
 30
0.0
 11
88.21417916691473
 21
184.3161588800221
 31
0.0
  0
LINE
  5
15CA
330
18
100
AcDbEntity
  8
1
  6
Continuous
100
AcDbLine
 10
87.61417913841627
 20
184.4669606742238
 30
0.0
 11
88.21417916691473
 21
184.4669606742238
 31
0.0
  0
LINE
  5
15CD
330
18
100
AcDbEntity
  8
1
  6
Continuous
100
AcDbLine
 10
87.61417913841627
 20
186.1004873832909
 30
0.0
 11
88.21417916691473
 21
186.1004873832909
 31
0.0
  0
LINE
  5
15D0
330
18
100
AcDbEntity
  8
1
  6
Continuous
100
AcDbLine
 10
87.61417913841627
 20
186.2148900635328
 30
0.0
 11
88.21417916691473
 21
186.2148900635328
 31
0.0
  0
LINE
  5
15D3
330
18
100
AcDbEntity
  8
1
  6
Continuous
100
AcDbLine
 10
103.7141802845949
 20
189.711400258274
 30
0.0
 11
103.7141802845949
 21
179.2113997595508
 31
0.0
  0
LINE
  5
15D5
330
18
100
AcDbEntity
  8
1
  6
Continuous
100
AcDbLine
 10
100.7141801421025
 20
176.2113996170584
 30
0.0
 11
103.7141802845949
 21
179.2113997595508
 31
0.0
  0
LINE
  5
15D6
330
18
100
AcDbEntity
  8
1
  6
Continuous
100
AcDbLine
 10
90.2141796433794
 20
176.2113996170584
 30
0.0
 11
100.7141801421025
 21
176.2113996170584
 31
0.0
  0
LINE
  5
15D7
330
18
100
AcDbEntity
  8
1
  6
Continuous
100
AcDbLine
 10
102.4641795113047
 20
197.5114010548035
 30
0.0
 11
92.96418035312127
 21
197.5114010548035
 31
0.0
  0
LINE
  5
15DC
330
18
100
AcDbEntity
  8
1
  6
Continuous
100
AcDbLine
 10
100.7141801421026
 20
202.7114008757409
 30
0.0
 11
94.714179857118
 21
202.711400875741
 31
0.0
  0
LINE
  5
15DD
330
18
100
AcDbEntity
  8
1
  6
Continuous
100
AcDbLine
 10
99.71418009460524
 20
203.7114009232384
 30
0.0
 11
95.71417990461538
 21
203.7114009232384
 31
0.0
  0
LINE
  5
15DE
330
18
100
AcDbEntity
  8
1
  6
Continuous
100
AcDbLine
 10
100.7141801421026
 20
197.5114008194891
 30
0.0
 11
100.7141801421026
 21
202.7114008757409
 31
0.0
  0
LINE
  5
15DF
330
18
100
AcDbEntity
  8
1
  6
Continuous
100
AcDbLine
 10
102.4641806818648
 20
192.3114007632372
 30
0.0
 11
103.4876828983358
 21
192.6839251047382
 31
0.0
  0
LINE
  5
15E0
330
18
100
AcDbEntity
  8
1
  6
Continuous
100
AcDbLine
 10
103.4876828983358
 20
197.1388762872535
 30
0.0
 11
102.4639047635627
 21
197.5115010548035
 31
0.0
  0
LINE
  5
15E5
330
18
100
AcDbEntity
  8
1
  6
Continuous
100
AcDbLine
 10
103.4876828983358
 20
197.1388762872535
 30
0.0
 11
103.4876828983358
 21
192.683925104738
 31
0.0
  0
LINE
  5
15E6
330
18
100
AcDbEntity
  8
1
  6
Continuous
100
AcDbLine
 10
103.4876828983358
 20
192.6839251047382
 30
0.0
 11
103.4877828983358
 21
192.6839615017615
 31
0.0
  0
LINE
  5
15E8
330
18
100
AcDbEntity
  8
1
  6
Continuous
100
AcDbLine
 10
103.2141802608462
 20
192.3114007632372
 30
0.0
 11
103.2141802608462
 21
191.7114007347388
 31
0.0
  0
LINE
  5
15E9
330
18
100
AcDbEntity
  8
1
  6
Continuous
100
AcDbLine
 10
102.8561044650516
 20
192.3114007632372
 30
0.0
 11
102.8561044650516
 21
191.7114007347388
 31
0.0
  0
LINE
  5
15EA
330
18
100
AcDbEntity
  8
1
  6
Continuous
100
AcDbLine
 10
92.21417973837437
 20
192.3114007632373
 30
0.0
 11
103.2141802608462
 21
192.3114007632372
 31
0.0
  0
LINE
  5
15EB
330
18
100
AcDbEntity
  8
1
  6
Continuous
100
AcDbLine
 10
103.2141802608462
 20
191.7114007347388
 30
0.0
 11
92.21417973837437
 21
191.7114007347388
 31
0.0
  0
LINE
  5
15EE
330
18
100
AcDbEntity
  8
1
  6
Continuous
100
AcDbLine
 10
103.4877828983358
 20
197.1388398902301
 30
0.0
 11
103.4876828983358
 21
197.1388762872535
 31
0.0
  0
LINE
  5
15EF
330
18
100
AcDbEntity
  8
1
  6
Continuous
100
AcDbLine
 10
100.6009314152741
 20
197.1388762872535
 30
0.0
 11
100.6009314152741
 21
192.6839251047381
 31
0.0
  0
LINE
  5
15F3
330
18
100
AcDbEntity
  8
1
  6
Continuous
100
AcDbLine
 10
99.81893897758929
 20
192.3114007632372
 30
0.0
 11
99.81893897758929
 21
191.7114007347388
 31
0.0
  0
LINE
  5
15F4
330
18
100
AcDbEntity
  8
1
  6
Continuous
100
AcDbLine
 10
99.96974077179093
 20
192.3114007632372
 30
0.0
 11
99.96974077179093
 21
191.7114007347388
 31
0.0
  0
LINE
  5
15F7
330
18
100
AcDbEntity
  8
1
  6
Continuous
100
AcDbLine
 10
101.603267480858
 20
192.3114007632372
 30
0.0
 11
101.603267480858
 21
191.7114007347388
 31
0.0
  0
LINE
  5
15FA
330
18
100
AcDbEntity
  8
1
  6
Continuous
100
AcDbLine
 10
101.7176701610999
 20
192.3114007632372
 30
0.0
 11
101.7176701610999
 21
191.7114007347388
 31
0.0
  0
LINE
  5
15FD
330
18
100
AcDbEntity
  8
1
  6
Continuous
100
AcDbLine
 10
100.7141801421026
 20
202.7114008757409
 30
0.0
 11
100.7141801421026
 21
202.711500875741
 31
0.0
  0
LINE
  5
15FE
330
18
100
AcDbEntity
  8
1
  6
Continuous
100
AcDbLine
 10
100.7142801421025
 20
202.7113008757409
 30
0.0
 11
100.7141801421026
 21
202.7114008757409
 31
0.0
  0
LINE
  5
15FF
330
18
100
AcDbEntity
  8
1
  6
Continuous
100
AcDbLine
 10
100.7141801421026
 20
202.7114008757409
 30
0.0
 11
99.71418009460524
 21
203.7114009232384
 31
0.0
  0
LINE
  5
1600
330
18
100
AcDbEntity
  8
1
  6
Continuous
100
AcDbLine
 10
94.714179857118
 20
202.711400875741
 30
0.0
 11
94.714179857118
 21
197.5114008194891
 31
0.0
  0
LINE
  5
1603
330
18
100
AcDbEntity
  8
1
  6
Continuous
100
AcDbLine
 10
97.71417999961036
 20
192.3114007632372
 30
0.0
 11
97.71417999961036
 21
191.7114007347388
 31
0.0
  0
LINE
  5
1604
330
18
100
AcDbEntity
  8
1
  6
Continuous
100
AcDbLine
 10
97.87842270162672
 20
192.3114007632372
 30
0.0
 11
97.87842270162672
 21
191.7114007347388
 31
0.0
  0
LINE
  5
1607
330
18
100
AcDbEntity
  8
1
  6
Continuous
100
AcDbLine
 10
94.82742844915165
 20
197.1388762872535
 30
0.0
 11
94.82742844915165
 21
192.6839251047382
 31
0.0
  0
LINE
  5
160A
330
18
100
AcDbEntity
  8
1
  6
Continuous
100
AcDbLine
 10
95.76210016894457
 20
192.3114007632372
 30
0.0
 11
95.76210016894457
 21
191.7114007347388
 31
0.0
  0
LINE
  5
160B
330
18
100
AcDbEntity
  8
1
  6
Continuous
100
AcDbLine
 10
95.60942102163142
 20
192.3114007632372
 30
0.0
 11
95.60942102163142
 21
191.7114007347388
 31
0.0
  0
LINE
  5
160E
330
18
100
AcDbEntity
  8
1
  6
Continuous
100
AcDbLine
 10
93.94296409483215
 20
192.3114007632372
 30
0.0
 11
93.94296409483215
 21
191.7114007347388
 31
0.0
  0
LINE
  5
1611
330
18
100
AcDbEntity
  8
1
  6
Continuous
100
AcDbLine
 10
93.82509251836257
 20
192.3114007632372
 30
0.0
 11
93.82509251836257
 21
191.7114007347388
 31
0.0
  0
LINE
  5
1616
330
18
100
AcDbEntity
  8
1
  6
Continuous
100
AcDbLine
 10
94.714179857118
 20
202.711500875741
 30
0.0
 11
94.714179857118
 21
202.7114008757409
 31
0.0
  0
LINE
  5
1617
330
18
100
AcDbEntity
  8
1
  6
Continuous
100
AcDbLine
 10
95.71417990461538
 20
203.7114009232384
 30
0.0
 11
94.714179857118
 21
202.7114008757409
 31
0.0
  0
LINE
  5
1618
330
18
100
AcDbEntity
  8
1
  6
Continuous
100
AcDbLine
 10
94.714179857118
 20
202.7114008757409
 30
0.0
 11
94.71407985711799
 21
202.7113008757409
 31
0.0
  0
LINE
  5
1619
330
18
100
AcDbEntity
  8
1
  6
Continuous
100
AcDbLine
 10
82.50517164505287
 20
187.2114001395304
 30
0.0
 11
87.52318676626243
 21
187.2114001395304
 31
0.0
  0
LINE
  5
161B
330
18
100
AcDbEntity
  8
1
  6
Continuous
100
AcDbLine
 10
82.50517164505287
 20
187.2114001395304
 30
0.0
 11
82.41417884684995
 21
186.9613994811349
 31
0.0
  0
LINE
  5
161D
330
18
100
AcDbEntity
  8
1
  6
Continuous
100
AcDbLine
 10
87.61417913841627
 20
186.9614006516951
 30
0.0
 11
87.52318676626243
 21
187.2114001395304
 31
0.0
  0
LINE
  5
161F
330
18
100
AcDbEntity
  8
1
  6
Continuous
100
AcDbLine
 10
87.61417913841627
 20
187.3533243674845
 30
0.0
 11
88.21417916691473
 21
187.3533243674845
 31
0.0
  0
LINE
  5
1622
330
18
100
AcDbEntity
  8
1
  6
Continuous
100
AcDbLine
 10
87.61417913841594
 20
187.7114001632792
 30
0.0
 11
88.21417916691478
 21
187.7114001632792
 31
0.0
  0
LINE
  5
1626
330
18
100
AcDbEntity
  8
1
  6
Continuous
100
AcDbLine
 10
100.7141801421026
 20
188.2114001870279
 30
0.0
 11
90.21417964337944
 21
188.2114001870279
 31
0.0
  0
LINE
  5
1627
330
18
100
AcDbEntity
  8
1
  6
Continuous
100
AcDbLine
 10
91.94067696609009
 20
197.1388762872535
 30
0.0
 11
91.94067696609009
 21
192.683925104738
 31
0.0
  0
LINE
  5
1628
330
18
100
AcDbEntity
  8
1
  6
Continuous
100
AcDbLine
 10
91.94057696609013
 20
192.6839615017615
 30
0.0
 11
91.94067696609009
 21
192.6839251047381
 31
0.0
  0
LINE
  5
1629
330
18
100
AcDbEntity
  8
1
  6
Continuous
100
AcDbLine
 10
91.94067696609009
 20
192.6839251047381
 30
0.0
 11
92.96417918256112
 21
192.3114007632372
 31
0.0
  0
LINE
  5
162A
330
18
100
AcDbEntity
  8
1
  6
Continuous
100
AcDbLine
 10
92.69796145606621
 20
192.3114007632372
 30
0.0
 11
92.69796145606621
 21
191.7114007347388
 31
0.0
  0
LINE
  5
162B
330
18
100
AcDbEntity
  8
1
  6
Continuous
100
AcDbLine
 10
92.63284232944783
 20
192.3114007632372
 30
0.0
 11
92.63284232944783
 21
191.7114007347388
 31
0.0
  0
LINE
  5
162E
330
18
100
AcDbEntity
  8
1
  6
Continuous
100
AcDbLine
 10
92.21663261842023
 20
192.3114007632372
 30
0.0
 11
92.21663261842023
 21
191.7114007347388
 31
0.0
  0
LINE
  5
1631
330
18
100
AcDbEntity
  8
1
  6
Continuous
100
AcDbLine
 10
92.21417973837437
 20
192.3114007632373
 30
0.0
 11
92.21417973837437
 21
191.7114007347388
 31
0.0
  0
LINE
  5
1634
330
18
100
AcDbEntity
  8
1
  6
Continuous
100
AcDbLine
 10
92.96418035312127
 20
197.5114010548035
 30
0.0
 11
91.94067696609009
 21
197.1388762872535
 31
0.0
  0
LINE
  5
1635
330
18
100
AcDbEntity
  8
1
  6
Continuous
100
AcDbLine
 10
91.94067696609009
 20
197.1388762872535
 30
0.0
 11
91.94057696609013
 21
197.1388398902301
 31
0.0
  0
ARC
  5
17FD
330
18
100
AcDbEntity
  8
1
  6
Continuous
100
AcDbCircle
 10
93.74596133665329
 20
184.7114000207868
 30
0.0
 40
11.24078869192407
100
AcDbArc
 50
167.1497095614949
 51
192.8502904385051
  0
ARC
  5
17FF
330
18
100
AcDbEntity
  8
1
  6
Continuous
100
AcDbCircle
 10
76.28239707466196
 20
184.7114000207868
 30
0.0
 40
11.24078869192407
100
AcDbArc
 50
347.1497095614949
 51
12.85029043850506
  0
ARC
  5
1801
330
18
100
AcDbEntity
  8
1
  6
Continuous
100
AcDbCircle
 10
93.74596133665329
 20
179.7113997832998
 30
0.0
 40
11.24078869192407
100
AcDbArc
 50
167.1497095614948
 51
192.8502904385049
  0
ARC
  5
1804
330
18
100
AcDbEntity
  8
1
  6
Continuous
100
AcDbCircle
 10
76.28239707466196
 20
179.7113997832998
 30
0.0
 40
11.24078869192407
100
AcDbArc
 50
347.1497095614949
 51
12.85029043850511
  0
ARC
  5
1805
330
18
100
AcDbEntity
  8
1
  6
Continuous
100
AcDbCircle
 10
93.38405270762079
 20
196.2431673599942
 30
0.0
 40
3.840773224604663
100
AcDbArc
 50
247.9260217447575
 51
292.0739782552478
  0
ARC
  5
1806
330
18
100
AcDbEntity
  8
1
  6
Continuous
100
AcDbCircle
 10
97.71417993221348
 20
207.3431905795422
 30
0.0
 40
14.94079644415723
100
AcDbArc
 50
258.8596671603343
 51
281.1403328396598
  0
ARC
  5
1807
330
18
100
AcDbEntity
  8
1
  6
Continuous
100
AcDbCircle
 10
102.0443122822701
 20
196.2431936373163
 30
0.0
 40
3.840799501954061
100
AcDbArc
 50
247.9260982029156
 51
292.0753465515783
  0
ARC
  5
1809
330
18
100
AcDbEntity
  8
1
  6
Continuous
100
AcDbCircle
 10
93.38405270762079
 20
193.5796340319974
 30
0.0
 40
3.840773224604663
100
AcDbArc
 50
67.92602174475215
 51
112.0739782552425
  0
ARC
  5
180B
330
18
100
AcDbEntity
  8
1
  6
Continuous
100
AcDbCircle
 10
97.71417993221348
 20
182.4796108124494
 30
0.0
 40
14.94079644415723
100
AcDbArc
 50
78.85966716034025
 51
101.1403328396656
  0
ARC
  5
180D
330
18
100
AcDbEntity
  8
1
  6
Continuous
100
AcDbCircle
 10
102.0443122822701
 20
193.5796077546753
 30
0.0
 40
3.840799501954061
100
AcDbArc
 50
67.92465344842161
 51
112.0739017970843
  0
LINE
  5
180F
330
18
100
AcDbEntity
  8
4
  6
CENTER
 48
0.15
100
AcDbLine
 10
77.21417916840493
 20
182.2113999020432
 30
0.0
 11
107.7141802845949
 21
182.2113999020432
 31
0.0
  0
ARC
  5
18E0
330
18
100
AcDbEntity
  8
1
  6
Continuous
100
AcDbCircle
 10
86.34594586561531
 20
139.1020524423801
 30
0.0
 40
3.840773220860136
100
AcDbArc
 50
157.9260217220977
 51
202.0739782779009
  0
ARC
  5
18E1
330
18
100
AcDbEntity
  8
1
  6
Continuous
100
AcDbCircle
 10
97.44596907397756
 20
134.771925217788
 30
0.0
 40
14.94079642921764
100
AcDbArc
 50
168.8596671490552
 51
191.1403328509458
  0
ARC
  5
18E2
330
18
100
AcDbEntity
  8
1
  6
Continuous
100
AcDbCircle
 10
86.34597214326783
 20
130.4417928677308
 30
0.0
 40
3.840799498515785
100
AcDbArc
 50
157.926098182116
 51
202.0753465723803
  0
ARC
  5
18E4
330
18
100
AcDbEntity
  8
1
  6
Continuous
100
AcDbCircle
 10
83.68241254570012
 20
139.1020524423801
 30
0.0
 40
3.840773220860136
100
AcDbArc
 50
337.926021722099
 51
22.07397827790221
  0
ARC
  5
18E6
330
18
100
AcDbEntity
  8
1
  6
Continuous
100
AcDbCircle
 10
72.58238933733787
 20
134.771925217788
 30
0.0
 40
14.94079642921764
100
AcDbArc
 50
348.8596671490542
 51
11.14033285094472
  0
ARC
  5
18E8
330
18
100
AcDbEntity
  8
1
  6
Continuous
100
AcDbCircle
 10
83.68238626804759
 20
130.4417928677308
 30
0.0
 40
3.840799498515785
100
AcDbArc
 50
337.9246534276197
 51
22.07390181788392
  0
LINE
  5
18EA
330
18
100
AcDbEntity
  8
4
  6
CENTER
 48
0.15
100
AcDbLine
 10
77.21417916840493
 20
134.7719260004412
 30
0.0
 11
106.7141802845949
 21
134.7719260004411
 31
0.0
  0
LINE
  5
18EB
330
18
100
AcDbEntity
  8
4
  6
CENTER
 48
0.15
100
AcDbLine
 10
77.21417916840493
 20
107.5719239455709
 30
0.0
 11
106.7141802845949
 21
107.5719239455709
 31
0.0
  0
LINE
  5
18EC
330
18
100
AcDbEntity
  8
1
  6
Continuous
100
AcDbLine
 10
103.7141802845949
 20
113.5719242305556
 30
0.0
 11
90.2141796433794
 21
113.5719242305556
 31
0.0
  0
LINE
  5
18ED
330
18
100
AcDbEntity
  8
1
  6
Continuous
100
AcDbLine
 10
103.7141802845949
 20
101.5719236605862
 30
0.0
 11
90.2141796433794
 21
101.5719236605862
 31
0.0
  0
LINE
  5
18EE
330
18
100
AcDbEntity
  8
1
  6
Continuous
100
AcDbLine
 10
87.61417913841627
 20
113.069471326761
 30
0.0
 11
87.61417913841619
 21
102.0719236843349
 31
0.0
  0
LINE
  5
18EF
330
18
100
AcDbEntity
  8
1
  6
Continuous
100
AcDbLine
 10
88.21417916691478
 20
102.0719236843349
 30
0.0
 11
88.21417916691473
 21
113.069471326761
 31
0.0
  0
LINE
  5
18F0
330
18
100
AcDbEntity
  8
1
  6
Continuous
100
AcDbLine
 10
82.41417908216432
 20
112.3219249538367
 30
0.0
 11
82.41417908216432
 21
102.8219245026114
 31
0.0
  0
LINE
  5
18F1
330
18
100
AcDbEntity
  8
1
  6
Continuous
100
AcDbLine
 10
81.21417830758081
 20
110.5719231797417
 30
0.0
 11
81.21417830758081
 21
104.5719238030786
 31
0.0
  0
LINE
  5
18F2
330
18
100
AcDbEntity
  8
1
  6
Continuous
100
AcDbLine
 10
80.21417916840482
 20
109.5719240405658
 30
0.0
 11
80.21417916840494
 21
105.571923850576
 31
0.0
  0
ARC
  5
18F3
330
18
100
AcDbEntity
  8
1
  6
Continuous
100
AcDbCircle
 10
72.58238933733787
 20
107.571924728224
 30
0.0
 40
14.94079642921764
100
AcDbArc
 50
348.8596671490551
 51
11.14033285094582
  0
ARC
  5
18F4
330
18
100
AcDbEntity
  8
1
  6
Continuous
100
AcDbCircle
 10
97.44596907397756
 20
107.571924728224
 30
0.0
 40
14.94079642921764
100
AcDbArc
 50
168.859667149054
 51
191.1403328509446
  0
LINE
  5
18F5
330
18
100
AcDbEntity
  8
1
  6
Continuous
100
AcDbLine
 10
90.2141796433794
 20
101.5719236605862
 30
0.0
 11
90.2141796433794
 21
113.5719242305556
 31
0.0
  0
LINE
  5
18F6
330
18
100
AcDbEntity
  8
1
  6
Continuous
100
AcDbLine
 10
82.78670361439992
 20
110.4586762112854
 30
0.0
 11
87.24165479691533
 21
110.4586762112854
 31
0.0
  0
LINE
  5
18F7
330
18
100
AcDbEntity
  8
1
  6
Continuous
100
AcDbLine
 10
82.78670361439992
 20
113.3454276943469
 30
0.0
 11
87.24165479691544
 21
113.3454276943469
 31
0.0
  0
ARC
  5
18F8
330
18
100
AcDbEntity
  8
1
  6
Continuous
100
AcDbCircle
 10
86.34597214326783
 20
111.9020570782812
 30
0.0
 40
3.840799498515785
100
AcDbArc
 50
157.9246534276196
 51
202.0739018178839
  0
LINE
  5
18F9
330
18
100
AcDbEntity
  8
1
  6
Continuous
100
AcDbLine
 10
82.78670361439992
 20
113.3454276943469
 30
0.0
 11
82.78674001142338
 21
113.3455276943469
 31
0.0
  0
LINE
  5
18FA
330
18
100
AcDbEntity
  8
1
  6
Continuous
100
AcDbLine
 10
82.41407884684996
 20
112.3216495595738
 30
0.0
 11
82.78670361439992
 21
113.3454276943469
 31
0.0
  0
LINE
  5
18FB
330
18
100
AcDbEntity
  8
1
  6
Continuous
100
AcDbLine
 10
81.21417921590227
 20
110.5719240880633
 30
0.0
 11
81.21427830758079
 21
110.5720231797417
 31
0.0
  0
LINE
  5
18FC
330
18
100
AcDbEntity
  8
1
  6
Continuous
100
AcDbLine
 10
80.21407916840486
 20
109.5718240405658
 30
0.0
 11
81.21417921590227
 21
110.5719240880633
 31
0.0
  0
LINE
  5
18FD
330
18
100
AcDbEntity
  8
1
  6
Continuous
100
AcDbLine
 10
81.21417830758081
 20
110.5719240880633
 30
0.0
 11
82.41417908216432
 21
110.5719240880633
 31
0.0
  0
ARC
  5
18FE
330
18
100
AcDbEntity
  8
1
  6
Continuous
100
AcDbCircle
 10
83.68238626804759
 20
111.9020570782812
 30
0.0
 40
3.840799498515785
100
AcDbArc
 50
337.926098182116
 51
22.07534657238029
  0
LINE
  5
18FF
330
18
100
AcDbEntity
  8
1
  6
Continuous
100
AcDbLine
 10
87.61417913841627
 20
111.4610114268187
 30
0.0
 11
88.21417916691473
 21
111.4610114268187
 31
0.0
  0
LINE
  5
1900
330
18
100
AcDbEntity
  8
1
  6
Continuous
100
AcDbLine
 10
87.61417913841627
 20
111.3431398503491
 30
0.0
 11
88.21417916691473
 21
111.3431398503491
 31
0.0
  0
LINE
  5
1901
330
18
100
AcDbEntity
  8
1
  6
Continuous
100
AcDbLine
 10
87.61417913841627
 20
109.6766829235499
 30
0.0
 11
88.21417916691473
 21
109.6766829235499
 31
0.0
  0
LINE
  5
1902
330
18
100
AcDbEntity
  8
1
  6
Continuous
100
AcDbLine
 10
87.61417913841627
 20
109.5240037762367
 30
0.0
 11
88.21417916691473
 21
109.5240037762367
 31
0.0
  0
LINE
  5
1903
330
18
100
AcDbEntity
  8
1
  6
Continuous
100
AcDbLine
 10
88.21417916691473
 20
113.069471326761
 30
0.0
 11
88.21417916691473
 21
113.0719242068069
 31
0.0
  0
LINE
  5
1904
330
18
100
AcDbEntity
  8
1
  6
Continuous
100
AcDbLine
 10
87.61417913841627
 20
113.069471326761
 30
0.0
 11
87.61417913841627
 21
113.0719242068069
 31
0.0
  0
LINE
  5
1905
330
18
100
AcDbEntity
  8
1
  6
Continuous
100
AcDbLine
 10
87.61417913841627
 20
113.0719242068069
 30
0.0
 11
88.21417916691473
 21
113.0719242068069
 31
0.0
  0
LINE
  5
1906
330
18
100
AcDbEntity
  8
1
  6
Continuous
100
AcDbLine
 10
87.61417913841627
 20
113.069471326761
 30
0.0
 11
88.21417916691473
 21
113.069471326761
 31
0.0
  0
LINE
  5
1907
330
18
100
AcDbEntity
  8
1
  6
Continuous
100
AcDbLine
 10
87.61417913841627
 20
112.6532616157334
 30
0.0
 11
88.21417916691473
 21
112.6532616157334
 31
0.0
  0
LINE
  5
1909
330
18
100
AcDbEntity
  8
1
  6
Continuous
100
AcDbLine
 10
87.24161839989193
 20
113.3455276943469
 30
0.0
 11
87.2416547969154
 21
113.3454276943469
 31
0.0
  0
LINE
  5
190A
330
18
100
AcDbEntity
  8
1
  6
Continuous
100
AcDbLine
 10
87.2416547969154
 20
113.3454276943469
 30
0.0
 11
87.61417913841627
 21
112.3219254778759
 31
0.0
  0
LINE
  5
190B
330
18
100
AcDbEntity
  8
1
  6
Continuous
100
AcDbLine
 10
88.21417916691473
 20
110.5719240880633
 30
0.0
 11
90.2141796433794
 21
110.5719240880633
 31
0.0
  0
LINE
  5
190C
330
18
100
AcDbEntity
  8
1
  6
Continuous
100
AcDbLine
 10
82.78670361439992
 20
101.7984217621012
 30
0.0
 11
87.24165479691544
 21
101.7984217621012
 31
0.0
  0
LINE
  5
190D
330
18
100
AcDbEntity
  8
1
  6
Continuous
100
AcDbLine
 10
82.78670361439992
 20
104.6851732451629
 30
0.0
 11
87.2416547969154
 21
104.6851732451629
 31
0.0
  0
LINE
  5
190E
330
18
100
AcDbEntity
  8
1
  6
Continuous
100
AcDbLine
 10
82.78670361439992
 20
101.7984217621012
 30
0.0
 11
82.41417908216432
 21
102.8219245026114
 31
0.0
  0
LINE
  5
190F
330
18
100
AcDbEntity
  8
1
  6
Continuous
100
AcDbLine
 10
82.41417908216432
 20
104.5719238030786
 30
0.0
 11
81.21417830758081
 21
104.5719238030786
 31
0.0
  0
LINE
  5
1910
330
18
100
AcDbEntity
  8
1
  6
Continuous
100
AcDbLine
 10
81.21417921590239
 20
104.5719238030786
 30
0.0
 11
80.21417916840494
 21
105.571923850576
 31
0.0
  0
ARC
  5
1911
330
18
100
AcDbEntity
  8
1
  6
Continuous
100
AcDbCircle
 10
86.34594586561531
 20
103.241797503632
 30
0.0
 40
3.840773220860136
100
AcDbArc
 50
157.926021722099
 51
202.0739782779022
  0
LINE
  5
1912
330
18
100
AcDbEntity
  8
1
  6
Continuous
100
AcDbLine
 10
82.78674001142338
 20
101.7983217621011
 30
0.0
 11
82.78670361439992
 21
101.7984217621012
 31
0.0
  0
LINE
  5
1913
330
18
100
AcDbEntity
  8
1
  6
Continuous
100
AcDbLine
 10
81.21427921590237
 20
104.5718238030786
 30
0.0
 11
81.21417921590239
 21
104.5719238030786
 31
0.0
  0
LINE
  5
1914
330
18
100
AcDbEntity
  8
1
  6
Continuous
100
AcDbLine
 10
81.21417921590239
 20
104.5719238030786
 30
0.0
 11
81.21407830758085
 21
104.5719238030786
 31
0.0
  0
LINE
  5
1915
330
18
100
AcDbEntity
  8
1
  6
Continuous
100
AcDbLine
 10
87.61417913841619
 20
102.0719236843349
 30
0.0
 11
88.21417916691478
 21
102.0719236843349
 31
0.0
  0
LINE
  5
1916
330
18
100
AcDbEntity
  8
1
  6
Continuous
100
AcDbLine
 10
87.61417913841627
 20
102.8219239785719
 30
0.0
 11
87.24165479691533
 21
101.7984217621012
 31
0.0
  0
ARC
  5
1917
330
18
100
AcDbEntity
  8
1
  6
Continuous
100
AcDbCircle
 10
83.68241254570012
 20
103.241797503632
 30
0.0
 40
3.840773220860136
100
AcDbArc
 50
337.9260217220978
 51
22.07397827790101
  0
LINE
  5
1918
330
18
100
AcDbEntity
  8
1
  6
Continuous
100
AcDbLine
 10
87.61417913841627
 20
102.4299994801297
 30
0.0
 11
88.21417916691473
 21
102.4299994801297
 31
0.0
  0
LINE
  5
191A
330
18
100
AcDbEntity
  8
1
  6
Continuous
100
AcDbLine
 10
87.24165479691533
 20
101.7984217621012
 30
0.0
 11
87.24161839989193
 21
101.7983217621012
 31
0.0
  0
LINE
  5
191B
330
18
100
AcDbEntity
  8
1
  6
Continuous
100
AcDbLine
 10
87.61417913841627
 20
103.5684337840813
 30
0.0
 11
88.21417916691473
 21
103.5684337840813
 31
0.0
  0
LINE
  5
191C
330
18
100
AcDbEntity
  8
1
  6
Continuous
100
AcDbLine
 10
87.61417913841627
 20
105.3163631733903
 30
0.0
 11
88.21417916691473
 21
105.3163631733903
 31
0.0
  0
LINE
  5
191D
330
18
100
AcDbEntity
  8
1
  6
Continuous
100
AcDbLine
 10
87.61417913841627
 20
103.6828364643232
 30
0.0
 11
88.21417916691473
 21
103.6828364643232
 31
0.0
  0
LINE
  5
191E
330
18
100
AcDbEntity
  8
1
  6
Continuous
100
AcDbLine
 10
87.61417913841627
 20
105.467164967592
 30
0.0
 11
88.21417916691473
 21
105.467164967592
 31
0.0
  0
LINE
  5
191F
330
18
100
AcDbEntity
  8
1
  6
Continuous
100
AcDbLine
 10
87.61417913841627
 20
107.4076812435545
 30
0.0
 11
88.21417916691473
 21
107.4076812435545
 31
0.0
  0
LINE
  5
1920
330
18
100
AcDbEntity
  8
1
  6
Continuous
100
AcDbLine
 10
87.61417913841627
 20
107.5719239455709
 30
0.0
 11
88.21417916691473
 21
107.5719239455709
 31
0.0
  0
LINE
  5
1921
330
18
100
AcDbEntity
  8
1
  6
Continuous
100
AcDbLine
 10
90.2141796433794
 20
104.5719238030786
 30
0.0
 11
88.21417916691473
 21
104.5719238030786
 31
0.0
  0
LINE
  5
1922
330
18
100
AcDbEntity
  8
1
  6
Continuous
100
AcDbLine
 10
103.7141802845949
 20
101.5719236605862
 30
0.0
 11
103.7141802845949
 21
113.5719242305556
 31
0.0
  0
LINE
  5
1923
330
18
100
AcDbEntity
  8
1
  6
Continuous
100
AcDbLine
 10
100.7141801421026
 20
101.5719236605862
 30
0.0
 11
100.7141801421026
 21
113.5719242305556
 31
0.0
  0
LINE
  5
1924
330
18
100
AcDbEntity
  8
1
  6
Continuous
100
AcDbLine
 10
92.21417973837429
 20
113.5719247073928
 30
0.0
 11
92.21417973837429
 21
115.1719247833888
 31
0.0
  0
LINE
  5
1925
330
18
100
AcDbEntity
  8
1
  6
Continuous
100
AcDbLine
 10
103.2141802608462
 20
115.1719247833888
 30
0.0
 11
103.2141802608462
 21
113.5719247073928
 31
0.0
  0
LINE
  5
198B
330
18
100
AcDbEntity
  8
4
  6
CENTER
 48
0.15
100
AcDbLine
 10
199.6205138788459
 20
121.171924973006
 30
0.0
 11
217.6205144488153
 21
121.171924973006
 31
0.0
  0
CIRCLE
  5
19B9
330
18
100
AcDbEntity
  8
1
  6
Continuous
100
AcDbCircle
 10
208.6205142312279
 20
121.171924973006
 30
0.0
 40
4.75
  0
LINE
  5
19BE
330
18
100
AcDbEntity
  8
1
  6
Continuous
100
AcDbLine
 10
203.1205139025946
 20
113.5719247073928
 30
0.0
 11
203.1205139025946
 21
115.1719247833888
 31
0.0
  0
LINE
  5
19C1
330
18
100
AcDbEntity
  8
1
  6
Continuous
100
AcDbLine
 10
214.1205144250666
 20
115.1719247833888
 30
0.0
 11
214.1205144250666
 21
113.5719247073928
 31
0.0
  0
LINE
  5
19C2
330
18
100
AcDbEntity
  8
4
  6
CENTER
 48
0.15
100
AcDbLine
 10
208.6205141638306
 20
98.57192366058626
 30
0.0
 11
208.6205141638306
 21
143.7719262854258
 31
0.0
  0
LINE
  5
1C3D
330
18
100
AcDbEntity
  8
3
  6
DASHED
 48
0.1
100
AcDbLine
 10
100.7141801421026
 20
136.1719256854678
 30
0.0
 11
94.71417985711793
 21
136.1719256854678
 31
0.0
  0
LINE
  5
1C41
330
18
100
AcDbEntity
  8
3
  6
DASHED
 48
0.1
100
AcDbLine
 10
94.71417985711793
 20
136.1719256854678
 30
0.0
 11
94.71417985711793
 21
106.1719242605447
 31
0.0
  0
LINE
  5
1C43
330
18
100
AcDbEntity
  8
3
  6
DASHED
 48
0.1
100
AcDbLine
 10
100.7141801421026
 20
106.1719242605448
 30
0.0
 11
100.7141801421026
 21
136.1719256854678
 31
0.0
  0
LINE
  5
1C47
330
18
100
AcDbEntity
  8
3
  6
DASHED
 48
0.1
100
AcDbLine
 10
100.7141801421026
 20
106.1719242605448
 30
0.0
 11
94.71417985711793
 21
106.1719242605447
 31
0.0
  0
LINE
  5
1D16
330
18
100
AcDbEntity
  8
4
  6
CENTER
 48
0.15
100
AcDbLine
 10
97.7141799996103
 20
143.7719262854258
 30
0.0
 11
97.7141799996103
 21
98.57192366058626
 31
0.0
  0
CIRCLE
  5
1DFB
330
18
100
AcDbEntity
  8
1
  6
Continuous
100
AcDbCircle
 10
208.6205142312279
 20
121.171924973006
 30
0.0
 40
3.0
  0
LINE
  5
1F84
330
18
100
AcDbEntity
  8
4
  6
CENTER
 48
0.15
100
AcDbLine
 10
199.6205130961931
 20
107.5719259022038
 30
0.0
 11
217.6205144488153
 21
107.5719235542444
 31
0.0
  0
LINE
  5
1F85
330
18
100
AcDbEntity
  8
4
  6
CENTER
 48
0.15
100
AcDbLine
 10
97.7141799996103
 20
207.7114009232384
 30
0.0
 11
97.7141799996103
 21
173.2113996170584
 31
0.0
  0
CIRCLE
  5
2119
330
18
100
AcDbEntity
  8
2
  6
Continuous
100
AcDbCircle
 10
208.6205141638305
 20
121.171924973006
 30
0.0
 40
2.458499999999999
  0
LINE
  5
2178
330
18
100
AcDbEntity
  8
2
  6
Continuous
 48
0.2
100
AcDbLine
 10
88.21417916691478
 20
132.3134260004412
 30
0.0
 11
90.2141796433794
 21
132.3134260004412
 31
0.0
  0
LINE
  5
2179
330
18
100
AcDbEntity
  8
2
  6
Continuous
 48
0.2
100
AcDbLine
 10
88.21417916691478
 20
137.2304260004411
 30
0.0
 11
90.2141796433794
 21
137.2304260004411
 31
0.0
  0
LINE
  5
217A
330
18
100
AcDbEntity
  8
2
  6
Continuous
 48
0.2
100
AcDbLine
 10
80.6726790734101
 20
137.2304260004412
 30
0.0
 11
82.41417908216432
 21
137.2304260004412
 31
0.0
  0
LINE
  5
217B
330
18
100
AcDbEntity
  8
2
  6
Continuous
 48
0.2
100
AcDbLine
 10
80.6726790734101
 20
132.3134260004412
 30
0.0
 11
82.41417908216432
 21
132.3134260004412
 31
0.0
  0
LINE
  5
217C
330
18
100
AcDbEntity
  8
2
  6
Continuous
 48
0.2
100
AcDbLine
 10
80.6726790734101
 20
110.0304239455709
 30
0.0
 11
82.41417908216432
 21
110.0304239455709
 31
0.0
  0
LINE
  5
217D
330
18
100
AcDbEntity
  8
2
  6
Continuous
 48
0.2
100
AcDbLine
 10
80.6726790734101
 20
105.1134239455709
 30
0.0
 11
82.41417908216432
 21
105.1134239455709
 31
0.0
  0
LINE
  5
217E
330
18
100
AcDbEntity
  8
2
  6
Continuous
 48
0.2
100
AcDbLine
 10
88.21417916691478
 20
105.1134239455709
 30
0.0
 11
90.2141796433794
 21
105.1134239455709
 31
0.0
  0
LINE
  5
217F
330
18
100
AcDbEntity
  8
2
  6
Continuous
 48
0.2
100
AcDbLine
 10
88.21417916691478
 20
110.0304239455709
 30
0.0
 11
90.2141796433794
 21
110.0304239455709
 31
0.0
  0
LINE
  5
2180
330
18
100
AcDbEntity
  8
2
  6
Continuous
 48
0.2
100
AcDbLine
 10
80.6726790734101
 20
179.7528999020432
 30
0.0
 11
82.41417908216432
 21
179.7528999020432
 31
0.0
  0
LINE
  5
2181
330
18
100
AcDbEntity
  8
2
  6
Continuous
 48
0.2
100
AcDbLine
 10
80.6726790734101
 20
184.6698999020432
 30
0.0
 11
82.41417908216432
 21
184.6698999020432
 31
0.0
  0
LINE
  5
2182
330
18
100
AcDbEntity
  8
2
  6
Continuous
 48
0.2
100
AcDbLine
 10
88.21417916691478
 20
184.6698999020432
 30
0.0
 11
90.2141796433794
 21
184.6698999020432
 31
0.0
  0
LINE
  5
2183
330
18
100
AcDbEntity
  8
2
  6
Continuous
 48
0.2
100
AcDbLine
 10
88.21417916691478
 20
179.7528999020432
 30
0.0
 11
90.2141796433794
 21
179.7528999020432
 31
0.0
  0
LINE
  5
2184
330
18
100
AcDbEntity
  8
2
  6
Continuous
100
AcDbLine
 10
95.25567999961037
 20
191.7114007347386
 30
0.0
 11
95.25567999961031
 21
189.711400258274
 31
0.0
  0
LINE
  5
2185
330
18
100
AcDbEntity
  8
2
  6
Continuous
100
AcDbLine
 10
100.1726799996102
 20
191.7114007347386
 30
0.0
 11
100.1726799996102
 21
189.711400258274
 31
0.0
  0
LINE
  5
2186
330
18
100
AcDbEntity
  8
2
  6
Continuous
100
AcDbLine
 10
100.1726799996102
 20
203.2529010182333
 30
0.0
 11
100.1726799996103
 21
197.5114010548035
 31
0.0
  0
LINE
  5
2187
330
18
100
AcDbEntity
  8
2
  6
Continuous
100
AcDbLine
 10
95.25567999961037
 20
203.2529010182333
 30
0.0
 11
95.25567999961037
 21
197.5114010548035
 31
0.0
  0
LINE
  5
228D
330
18
100
AcDbEntity
  8
4
  6
CENTER
 48
0.15
100
AcDbLine
 10
229.1205149950359
 20
134.7719252177881
 30
0.0
 11
199.6205138788459
 21
134.771925217788
 31
0.0
  0
LINE
  5
228E
330
18
100
AcDbEntity
  8
1
  6
Continuous
100
AcDbLine
 10
202.6205138788459
 20
140.7719255027727
 30
0.0
 11
216.1205145200615
 21
140.7719255027727
 31
0.0
  0
LINE
  5
228F
330
18
100
AcDbEntity
  8
1
  6
Continuous
100
AcDbLine
 10
202.6205138788459
 20
128.7719249328033
 30
0.0
 11
216.1205145200615
 21
128.7719249328033
 31
0.0
  0
LINE
  5
2290
330
18
100
AcDbEntity
  8
1
  6
Continuous
100
AcDbLine
 10
223.5479905490409
 20
140.5454274012578
 30
0.0
 11
219.0930393665254
 21
140.5454274012578
 31
0.0
  0
LINE
  5
2291
330
18
100
AcDbEntity
  8
1
  6
Continuous
100
AcDbLine
 10
223.5479905490409
 20
137.658675918196
 30
0.0
 11
219.0930393665255
 21
137.658675918196
 31
0.0
  0
LINE
  5
2292
330
18
100
AcDbEntity
  8
1
  6
Continuous
100
AcDbLine
 10
223.5479905490409
 20
131.8851729520736
 30
0.0
 11
219.0930393665256
 21
131.8851729520736
 31
0.0
  0
LINE
  5
2293
330
18
100
AcDbEntity
  8
1
  6
Continuous
100
AcDbLine
 10
223.5479905490409
 20
128.9984214690121
 30
0.0
 11
219.0930393665254
 21
128.9984214690121
 31
0.0
  0
ARC
  5
2294
330
18
100
AcDbEntity
  8
1
  6
Continuous
100
AcDbCircle
 10
219.9887482978256
 20
139.102051659727
 30
0.0
 40
3.840773220860136
100
AcDbArc
 50
337.926021722099
 51
22.07397827790221
  0
LINE
  5
2295
330
18
100
AcDbEntity
  8
1
  6
Continuous
100
AcDbLine
 10
223.9205150812765
 20
130.0219242095222
 30
0.0
 11
223.9205150812766
 21
139.5219246607475
 31
0.0
  0
LINE
  5
2296
330
18
100
AcDbEntity
  8
2
  6
Continuous
 48
0.2
100
AcDbLine
 10
225.6620150900308
 20
132.3134252177881
 30
0.0
 11
223.9205150812766
 21
132.3134252177881
 31
0.0
  0
LINE
  5
2297
330
18
100
AcDbEntity
  8
2
  6
Continuous
 48
0.2
100
AcDbLine
 10
225.6620150900308
 20
137.230425217788
 30
0.0
 11
223.9205150812766
 21
137.230425217788
 31
0.0
  0
ARC
  5
2298
330
18
100
AcDbEntity
  8
1
  6
Continuous
100
AcDbCircle
 10
219.988722020173
 20
130.4417920850778
 30
0.0
 40
3.840799498515785
100
AcDbArc
 50
337.9246534276197
 51
22.07390181788392
  0
ARC
  5
2299
330
18
100
AcDbEntity
  8
1
  6
Continuous
100
AcDbCircle
 10
208.8887250894633
 20
134.7719244351349
 30
0.0
 40
14.94079642921764
100
AcDbArc
 50
348.8596671490542
 51
11.14033285094472
  0
LINE
  5
229A
330
18
100
AcDbEntity
  8
1
  6
Continuous
100
AcDbLine
 10
225.1205149475385
 20
137.7719253602804
 30
0.0
 11
226.120514995036
 21
136.771925312783
 31
0.0
  0
LINE
  5
229B
330
18
100
AcDbEntity
  8
1
  6
Continuous
100
AcDbLine
 10
225.1204149475385
 20
137.7720253602803
 30
0.0
 11
225.1205149475385
 21
137.7719253602804
 31
0.0
  0
LINE
  5
229C
330
18
100
AcDbEntity
  8
1
  6
Continuous
100
AcDbLine
 10
225.1205149475385
 20
137.7719253602804
 30
0.0
 11
225.12061585586
 21
137.7719253602804
 31
0.0
  0
LINE
  5
229D
330
18
100
AcDbEntity
  8
1
  6
Continuous
100
AcDbLine
 10
223.9205150812765
 20
137.7719253602804
 30
0.0
 11
225.12051585586
 21
137.7719253602803
 31
0.0
  0
LINE
  5
229E
330
18
100
AcDbEntity
  8
1
  6
Continuous
100
AcDbLine
 10
223.5479905490409
 20
128.9984214690121
 30
0.0
 11
223.5479541520175
 21
128.998321469012
 31
0.0
  0
LINE
  5
229F
330
18
100
AcDbEntity
  8
1
  6
Continuous
100
AcDbLine
 10
223.9206153165909
 20
130.0221996037851
 30
0.0
 11
223.5479905490409
 21
128.9984214690121
 31
0.0
  0
LINE
  5
22A0
330
18
100
AcDbEntity
  8
1
  6
Continuous
100
AcDbLine
 10
225.1205149475385
 20
131.7719250752957
 30
0.0
 11
225.1204158558601
 21
131.7718259836172
 31
0.0
  0
LINE
  5
22A1
330
18
100
AcDbEntity
  8
1
  6
Continuous
100
AcDbLine
 10
226.120614995036
 20
132.7720251227932
 30
0.0
 11
225.1205149475385
 21
131.7719250752957
 31
0.0
  0
LINE
  5
22A2
330
18
100
AcDbEntity
  8
1
  6
Continuous
100
AcDbLine
 10
225.1205158558601
 20
131.7719250752957
 30
0.0
 11
223.9205150812765
 21
131.7719250752957
 31
0.0
  0
LINE
  5
22A3
330
18
100
AcDbEntity
  8
1
  6
Continuous
100
AcDbLine
 10
226.120514995036
 20
132.7719251227932
 30
0.0
 11
226.120514995036
 21
136.771925312783
 31
0.0
  0
LINE
  5
22A4
330
18
100
AcDbEntity
  8
1
  6
Continuous
100
AcDbLine
 10
225.1205158558601
 20
131.7719259836172
 30
0.0
 11
225.12051585586
 21
137.7719253602803
 31
0.0
  0
LINE
  5
22A5
330
18
100
AcDbEntity
  8
1
  6
Continuous
100
AcDbLine
 10
223.5479541520175
 20
140.5455274012578
 30
0.0
 11
223.5479905490409
 21
140.5454274012578
 31
0.0
  0
LINE
  5
22A6
330
18
100
AcDbEntity
  8
1
  6
Continuous
100
AcDbLine
 10
223.5479905490409
 20
140.5454274012578
 30
0.0
 11
223.9205150812766
 21
139.5219246607475
 31
0.0
  0
ARC
  5
22A7
330
18
100
AcDbEntity
  8
1
  6
Continuous
100
AcDbCircle
 10
222.6522816177408
 20
139.102051659727
 30
0.0
 40
3.840773220860136
100
AcDbArc
 50
157.9260217220977
 51
202.0739782779009
  0
LINE
  5
22A8
330
18
100
AcDbEntity
  8
1
  6
Continuous
100
AcDbLine
 10
218.1205149965261
 20
140.271925479024
 30
0.0
 11
218.1205149965261
 21
129.2743778365979
 31
0.0
  0
LINE
  5
22A9
330
18
100
AcDbEntity
  8
1
  6
Continuous
100
AcDbLine
 10
218.7205150250246
 20
129.2743778365979
 30
0.0
 11
218.7205150250246
 21
140.271925479024
 31
0.0
  0
LINE
  5
22AA
330
18
100
AcDbEntity
  8
1
  6
Continuous
100
AcDbLine
 10
216.1205145200615
 20
140.7719255027727
 30
0.0
 11
216.1205145200615
 21
128.7719249328033
 31
0.0
  0
LINE
  5
22AB
330
18
100
AcDbEntity
  8
1
  6
Continuous
100
AcDbLine
 10
205.6205140213382
 20
140.7719255027727
 30
0.0
 11
205.6205140213382
 21
128.7719249328033
 31
0.0
  0
LINE
  5
22AC
330
18
100
AcDbEntity
  8
2
  6
Continuous
 48
0.2
100
AcDbLine
 10
218.1205149965261
 20
137.230425217788
 30
0.0
 11
216.1205145200615
 21
137.230425217788
 31
0.0
  0
LINE
  5
22AD
330
18
100
AcDbEntity
  8
2
  6
Continuous
 48
0.2
100
AcDbLine
 10
218.1205149965261
 20
132.3134252177881
 30
0.0
 11
216.1205145200615
 21
132.3134252177881
 31
0.0
  0
ARC
  5
22AE
330
18
100
AcDbEntity
  8
1
  6
Continuous
100
AcDbCircle
 10
222.6523078953933
 20
130.4417920850778
 30
0.0
 40
3.840799498515785
100
AcDbArc
 50
157.926098182116
 51
202.0753465723803
  0
ARC
  5
22AF
330
18
100
AcDbEntity
  8
1
  6
Continuous
100
AcDbCircle
 10
233.7523048261031
 20
134.7719244351349
 30
0.0
 40
14.94079642921764
100
AcDbArc
 50
168.8596671490552
 51
191.1403328509458
  0
LINE
  5
22B0
330
18
100
AcDbEntity
  8
1
  6
Continuous
100
AcDbLine
 10
218.7205150250246
 20
137.0274859899686
 30
0.0
 11
218.1205149965261
 21
137.0274859899686
 31
0.0
  0
LINE
  5
22B1
330
18
100
AcDbEntity
  8
1
  6
Continuous
100
AcDbLine
 10
218.7205150250246
 20
136.8766841957669
 30
0.0
 11
218.1205149965261
 21
136.8766841957669
 31
0.0
  0
LINE
  5
22B2
330
18
100
AcDbEntity
  8
1
  6
Continuous
100
AcDbLine
 10
218.7205150250246
 20
134.9361679198044
 30
0.0
 11
218.1205149965261
 21
134.9361679198044
 31
0.0
  0
LINE
  5
22B3
330
18
100
AcDbEntity
  8
1
  6
Continuous
100
AcDbLine
 10
218.7205150250246
 20
134.771925217788
 30
0.0
 11
218.1205149965261
 21
134.771925217788
 31
0.0
  0
LINE
  5
22B4
330
18
100
AcDbEntity
  8
1
  6
Continuous
100
AcDbLine
 10
218.7205150250246
 20
130.8828377365403
 30
0.0
 11
218.1205149965261
 21
130.8828377365403
 31
0.0
  0
LINE
  5
22B5
330
18
100
AcDbEntity
  8
1
  6
Continuous
100
AcDbLine
 10
218.7205150250246
 20
131.0007093130099
 30
0.0
 11
218.1205149965261
 21
131.0007093130099
 31
0.0
  0
LINE
  5
22B6
330
18
100
AcDbEntity
  8
1
  6
Continuous
100
AcDbLine
 10
218.7205150250246
 20
132.667166239809
 30
0.0
 11
218.1205149965261
 21
132.667166239809
 31
0.0
  0
LINE
  5
22B7
330
18
100
AcDbEntity
  8
1
  6
Continuous
100
AcDbLine
 10
218.7205150250246
 20
132.8198453871222
 30
0.0
 11
218.1205149965261
 21
132.8198453871222
 31
0.0
  0
LINE
  5
22B8
330
18
100
AcDbEntity
  8
1
  6
Continuous
100
AcDbLine
 10
218.1205149965261
 20
129.2743778365979
 30
0.0
 11
218.1205149965261
 21
129.271924956552
 31
0.0
  0
LINE
  5
22B9
330
18
100
AcDbEntity
  8
1
  6
Continuous
100
AcDbLine
 10
218.7205150250246
 20
129.2743778365979
 30
0.0
 11
218.7205150250246
 21
129.271924956552
 31
0.0
  0
LINE
  5
22BA
330
18
100
AcDbEntity
  8
1
  6
Continuous
100
AcDbLine
 10
218.7205150250246
 20
129.271924956552
 30
0.0
 11
218.1205149965261
 21
129.271924956552
 31
0.0
  0
LINE
  5
22BB
330
18
100
AcDbEntity
  8
1
  6
Continuous
100
AcDbLine
 10
218.7205150250246
 20
129.2743778365979
 30
0.0
 11
218.1205149965261
 21
129.2743778365979
 31
0.0
  0
LINE
  5
22BC
330
18
100
AcDbEntity
  8
1
  6
Continuous
100
AcDbLine
 10
218.7205150250246
 20
129.6905875476255
 30
0.0
 11
218.1205149965261
 21
129.6905875476255
 31
0.0
  0
LINE
  5
22BD
330
18
100
AcDbEntity
  8
1
  6
Continuous
100
AcDbLine
 10
219.093075763549
 20
128.998321469012
 30
0.0
 11
219.0930393665255
 21
128.9984214690121
 31
0.0
  0
LINE
  5
22BE
330
18
100
AcDbEntity
  8
1
  6
Continuous
100
AcDbLine
 10
219.0930393665255
 20
128.9984214690121
 30
0.0
 11
218.7205150250246
 21
130.021923685483
 31
0.0
  0
LINE
  5
22BF
330
18
100
AcDbEntity
  8
1
  6
Continuous
100
AcDbLine
 10
216.1205145200615
 20
137.7719253602804
 30
0.0
 11
218.1205149965261
 21
137.7719253602804
 31
0.0
  0
LINE
  5
22C0
330
18
100
AcDbEntity
  8
1
  6
Continuous
100
AcDbLine
 10
218.1205149965261
 20
131.7719250752957
 30
0.0
 11
216.1205145200615
 21
131.7719250752957
 31
0.0
  0
LINE
  5
22C2
330
18
100
AcDbEntity
  8
1
  6
Continuous
100
AcDbLine
 10
218.7205150250246
 20
139.9138496832293
 30
0.0
 11
218.1205149965261
 21
139.9138496832293
 31
0.0
  0
LINE
  5
22C3
330
18
100
AcDbEntity
  8
1
  6
Continuous
100
AcDbLine
 10
218.7205150250246
 20
140.271925479024
 30
0.0
 11
218.1205149965261
 21
140.271925479024
 31
0.0
  0
LINE
  5
22C4
330
18
100
AcDbEntity
  8
1
  6
Continuous
100
AcDbLine
 10
219.0930393665256
 20
140.5454274012578
 30
0.0
 11
219.093075763549
 21
140.5455274012578
 31
0.0
  0
LINE
  5
22C5
330
18
100
AcDbEntity
  8
1
  6
Continuous
100
AcDbLine
 10
218.7205150250246
 20
138.7754153792776
 30
0.0
 11
218.1205149965261
 21
138.7754153792776
 31
0.0
  0
LINE
  5
22C6
330
18
100
AcDbEntity
  8
1
  6
Continuous
100
AcDbLine
 10
218.7205150250246
 20
138.6610126990357
 30
0.0
 11
218.1205149965261
 21
138.6610126990357
 31
0.0
  0
LINE
  5
22C7
330
18
100
AcDbEntity
  8
1
  6
Continuous
100
AcDbLine
 10
218.7205150250246
 20
139.521925184787
 30
0.0
 11
219.0930393665256
 21
140.5454274012578
 31
0.0
  0
LINE
  5
22C8
330
18
100
AcDbEntity
  8
1
  6
Continuous
100
AcDbLine
 10
202.6205138788459
 20
140.7719255027727
 30
0.0
 11
202.6205138788459
 21
128.7719249328033
 31
0.0
  0
LINE
  5
3BCE
330
18
100
AcDbEntity
  8
2
  6
Continuous
100
AcDbLine
 10
170.2214999000335
 20
118.7134249730061
 30
0.0
 11
164.4799997012892
 21
118.7134249730061
 31
0.0
  0
LINE
  5
3BCF
330
18
100
AcDbEntity
  8
2
  6
Continuous
100
AcDbLine
 10
170.2214999000335
 20
123.630424973006
 30
0.0
 11
164.4799997012892
 21
123.630424973006
 31
0.0
  0
LINE
  5
3BD0
330
18
100
AcDbEntity
  8
1
  6
Continuous
100
AcDbLine
 10
169.6799997575411
 20
124.1719251154984
 30
0.0
 11
164.4799997012892
 21
124.1719251154984
 31
0.0
  0
LINE
  5
3BD1
330
18
100
AcDbEntity
  8
1
  6
Continuous
100
AcDbLine
 10
164.4799997012892
 20
118.1719248305137
 30
0.0
 11
169.6799997575411
 21
118.1719248305137
 31
0.0
  0
LINE
  5
3BD2
330
18
100
AcDbEntity
  8
4
  6
CENTER
 48
0.15
100
AcDbLine
 10
140.6798979526379
 20
121.171924973006
 30
0.0
 11
173.6800998050386
 21
121.171924973006
 31
0.0
  0
LINE
  5
3BD4
330
18
100
AcDbEntity
  8
1
  6
Continuous
100
AcDbLine
 10
156.6799991400742
 20
127.1719252579907
 30
0.0
 11
143.1799984988586
 21
127.1719252579907
 31
0.0
  0
LINE
  5
3BD5
330
18
100
AcDbEntity
  8
1
  6
Continuous
100
AcDbLine
 10
156.6799991400742
 20
115.1719246880213
 30
0.0
 11
143.1799984988586
 21
115.1719246880213
 31
0.0
  0
LINE
  5
3BD6
330
18
100
AcDbEntity
  8
1
  6
Continuous
100
AcDbLine
 10
143.1799984988586
 20
115.1719246880213
 30
0.0
 11
143.1799984988586
 21
127.1719252579907
 31
0.0
  0
LINE
  5
3BD7
330
18
100
AcDbEntity
  8
1
  6
Continuous
100
AcDbLine
 10
146.179998641351
 20
115.1719246880213
 30
0.0
 11
146.179998641351
 21
127.1719252579907
 31
0.0
  0
ARC
  5
3BD9
330
18
100
AcDbEntity
  8
1
  6
Continuous
100
AcDbCircle
 10
153.1482174340007
 20
118.6719248542625
 30
0.0
 40
11.24078870440302
100
AcDbArc
 50
347.1497095760045
 51
12.85029042399532
  0
LINE
  5
3BDA
330
18
100
AcDbEntity
  8
1
  6
Continuous
100
AcDbLine
 10
164.4799997012892
 20
116.4219247473934
 30
0.0
 11
164.4799997012892
 21
125.9219245520977
 31
0.0
  0
ARC
  5
3BDB
330
18
100
AcDbEntity
  8
1
  6
Continuous
100
AcDbCircle
 10
170.6117817215911
 20
118.6719248542627
 30
0.0
 40
11.24078870440302
100
AcDbArc
 50
167.1497095760058
 51
192.8502904239965
  0
LINE
  5
3BDC
330
18
100
AcDbEntity
  8
1
  6
Continuous
100
AcDbLine
 10
158.6799996165389
 20
115.6719247117701
 30
0.0
 11
158.6799996165388
 21
126.6719252342421
 31
0.0
  0
LINE
  5
3BDD
330
18
100
AcDbEntity
  8
1
  6
Continuous
100
AcDbLine
 10
159.2799996450374
 20
126.671925234242
 30
0.0
 11
159.2799996450373
 21
115.6719247117701
 31
0.0
  0
LINE
  5
3BDE
330
18
100
AcDbEntity
  8
1
  6
Continuous
100
AcDbLine
 10
156.6799991400742
 20
115.1719246880213
 30
0.0
 11
156.6799991400742
 21
127.1719252579907
 31
0.0
  0
LINE
  5
3BDF
330
18
100
AcDbEntity
  8
1
  6
Continuous
100
AcDbLine
 10
164.3890071384007
 20
116.1719247355188
 30
0.0
 11
159.3709920171912
 21
116.1719247355188
 31
0.0
  0
LINE
  5
3BE1
330
18
100
AcDbEntity
  8
1
  6
Continuous
100
AcDbLine
 10
159.2799996450373
 20
116.0300005075648
 30
0.0
 11
158.6799996165389
 21
116.0300005075648
 31
0.0
  0
LINE
  5
3BE2
330
18
100
AcDbEntity
  8
1
  6
Continuous
100
AcDbLine
 10
159.2799996450373
 20
115.6719247117701
 30
0.0
 11
158.6799996165389
 21
115.6719247117701
 31
0.0
  0
LINE
  5
3BE3
330
18
100
AcDbEntity
  8
1
  6
Continuous
100
AcDbLine
 10
159.2799996450373
 20
116.4219242233542
 30
0.0
 11
159.3709920171912
 21
116.1719247355188
 31
0.0
  0
LINE
  5
3BE4
330
18
100
AcDbEntity
  8
1
  6
Continuous
100
AcDbLine
 10
164.3890071384007
 20
116.1719247355188
 30
0.0
 11
164.4800999366036
 21
116.4222001416563
 31
0.0
  0
LINE
  5
3BE5
330
18
100
AcDbEntity
  8
1
  6
Continuous
100
AcDbLine
 10
164.3890071384007
 20
126.1719252104932
 30
0.0
 11
159.3709920171912
 21
126.1719252104932
 31
0.0
  0
LINE
  5
3BE6
330
18
100
AcDbEntity
  8
1
  6
Continuous
100
AcDbLine
 10
164.1074751690537
 20
121.1719249730059
 30
0.0
 11
159.6525239865381
 21
121.1719249730059
 31
0.0
  0
LINE
  5
3BE7
330
18
100
AcDbEntity
  8
2
  6
Continuous
100
AcDbLine
 10
158.6799996165388
 20
118.7134249730061
 30
0.0
 11
156.6799991400742
 21
118.7134249730061
 31
0.0
  0
LINE
  5
3BE8
330
18
100
AcDbEntity
  8
2
  6
Continuous
100
AcDbLine
 10
158.6799996165388
 20
123.630424973006
 30
0.0
 11
156.6799991400742
 21
123.630424973006
 31
0.0
  0
ARC
  5
3BE9
330
18
100
AcDbEntity
  8
1
  6
Continuous
100
AcDbCircle
 10
170.6117817215911
 20
123.6719250917495
 30
0.0
 40
11.24078870440302
100
AcDbArc
 50
167.149709576004
 51
192.8502904239946
  0
LINE
  5
3BEA
330
18
100
AcDbEntity
  8
1
  6
Continuous
100
AcDbLine
 10
159.2799996450374
 20
126.671925234242
 30
0.0
 11
158.6799996165388
 21
126.6719252342421
 31
0.0
  0
LINE
  5
3BEB
330
18
100
AcDbEntity
  8
1
  6
Continuous
100
AcDbLine
 10
159.2799996450373
 20
126.6694723541961
 30
0.0
 11
158.6799996165389
 21
126.6694723541961
 31
0.0
  0
LINE
  5
3BEC
330
18
100
AcDbEntity
  8
1
  6
Continuous
100
AcDbLine
 10
159.2799996450373
 20
126.2532626431685
 30
0.0
 11
158.6799996165389
 21
126.2532626431685
 31
0.0
  0
LINE
  5
3BED
330
18
100
AcDbEntity
  8
1
  6
Continuous
100
AcDbLine
 10
159.2799996450373
 20
125.0610124542538
 30
0.0
 11
158.6799996165389
 21
125.0610124542538
 31
0.0
  0
LINE
  5
3BEE
330
18
100
AcDbEntity
  8
1
  6
Continuous
100
AcDbLine
 10
159.2799996450373
 20
124.9431408777842
 30
0.0
 11
158.6799996165389
 21
124.9431408777842
 31
0.0
  0
LINE
  5
3BEF
330
18
100
AcDbEntity
  8
1
  6
Continuous
100
AcDbLine
 10
159.3709920171912
 20
126.1719252104932
 30
0.0
 11
159.2799996450373
 21
125.9219257226579
 31
0.0
  0
LINE
  5
3BF0
330
18
100
AcDbEntity
  8
1
  6
Continuous
100
AcDbLine
 10
159.2799996450373
 20
123.276683950985
 30
0.0
 11
158.6799996165389
 21
123.276683950985
 31
0.0
  0
LINE
  5
3BF1
330
18
100
AcDbEntity
  8
1
  6
Continuous
100
AcDbLine
 10
159.2799996450373
 20
121.0076822709896
 30
0.0
 11
158.6799996165389
 21
121.0076822709896
 31
0.0
  0
LINE
  5
3BF2
330
18
100
AcDbEntity
  8
1
  6
Continuous
100
AcDbLine
 10
159.2799996450373
 20
121.171924973006
 30
0.0
 11
158.6799996165389
 21
121.171924973006
 31
0.0
  0
LINE
  5
3BF3
330
18
100
AcDbEntity
  8
1
  6
Continuous
100
AcDbLine
 10
159.2799996450373
 20
123.1240048036718
 30
0.0
 11
158.6799996165389
 21
123.1240048036718
 31
0.0
  0
LINE
  5
3BF4
330
18
100
AcDbEntity
  8
1
  6
Continuous
100
AcDbLine
 10
159.2799996450373
 20
117.1684348115164
 30
0.0
 11
158.6799996165389
 21
117.1684348115164
 31
0.0
  0
LINE
  5
3BF5
330
18
100
AcDbEntity
  8
1
  6
Continuous
100
AcDbLine
 10
159.2799996450373
 20
117.2828374917583
 30
0.0
 11
158.6799996165389
 21
117.2828374917583
 31
0.0
  0
LINE
  5
3BF6
330
18
100
AcDbEntity
  8
1
  6
Continuous
100
AcDbLine
 10
159.2799996450373
 20
118.9163642008254
 30
0.0
 11
158.6799996165389
 21
118.9163642008254
 31
0.0
  0
LINE
  5
3BF7
330
18
100
AcDbEntity
  8
1
  6
Continuous
100
AcDbLine
 10
159.2799996450373
 20
119.0671659950271
 30
0.0
 11
158.6799996165389
 21
119.0671659950271
 31
0.0
  0
LINE
  5
3BF8
330
18
100
AcDbEntity
  8
1
  6
Continuous
100
AcDbLine
 10
156.6799991400742
 20
118.1719248305137
 30
0.0
 11
158.6799996165389
 21
118.1719248305137
 31
0.0
  0
LINE
  5
3BF9
330
18
100
AcDbEntity
  8
1
  6
Continuous
100
AcDbLine
 10
158.6799996165389
 20
124.1719251154984
 30
0.0
 11
156.6799991400742
 21
124.1719251154984
 31
0.0
  0
ARC
  5
3BFA
330
18
100
AcDbEntity
  8
1
  6
Continuous
100
AcDbCircle
 10
153.1482174340007
 20
123.6719250917495
 30
0.0
 40
11.24078870440302
100
AcDbArc
 50
347.1497095760052
 51
12.850290423996
  0
LINE
  5
3BFB
330
18
100
AcDbEntity
  8
1
  6
Continuous
100
AcDbLine
 10
164.4799999366036
 20
125.9219245520977
 30
0.0
 11
164.3890071384007
 21
126.1719252104932
 31
0.0
  0
LINE
  5
3BFC
330
18
100
AcDbEntity
  8
1
  6
Continuous
100
AcDbLine
 10
169.6799997575411
 20
124.1719251154984
 30
0.0
 11
169.679899757541
 21
124.1720251154984
 31
0.0
  0
LINE
  5
3BFD
330
18
100
AcDbEntity
  8
1
  6
Continuous
100
AcDbLine
 10
169.6800997575411
 20
124.1719251154984
 30
0.0
 11
169.6799997575411
 21
124.1719251154984
 31
0.0
  0
LINE
  5
3BFE
330
18
100
AcDbEntity
  8
1
  6
Continuous
100
AcDbLine
 10
170.6799998050385
 20
123.171925068001
 30
0.0
 11
169.6799997575411
 21
124.1719251154984
 31
0.0
  0
LINE
  5
3BFF
330
18
100
AcDbEntity
  8
1
  6
Continuous
100
AcDbLine
 10
169.6799997575411
 20
118.1719248305137
 30
0.0
 11
170.6799998050385
 21
119.1719248780111
 31
0.0
  0
LINE
  5
3C00
330
18
100
AcDbEntity
  8
1
  6
Continuous
100
AcDbLine
 10
169.679899757541
 20
118.1718248305137
 30
0.0
 11
169.6799997575411
 21
118.1719248305137
 31
0.0
  0
LINE
  5
3C01
330
18
100
AcDbEntity
  8
1
  6
Continuous
100
AcDbLine
 10
169.6799997575411
 20
118.1719248305137
 30
0.0
 11
169.6800997575411
 21
118.1719248305137
 31
0.0
  0
LINE
  5
3C02
330
18
100
AcDbEntity
  8
1
  6
Continuous
100
AcDbLine
 10
170.6799998050385
 20
119.1719248780111
 30
0.0
 11
170.6799998050385
 21
123.171925068001
 31
0.0
  0
LINE
  5
3C03
330
18
100
AcDbEntity
  8
1
  6
Continuous
100
AcDbLine
 10
169.6799997575411
 20
118.1719248305137
 30
0.0
 11
169.6799997575411
 21
124.1719251154984
 31
0.0
  0
LINE
  5
3C05
330
18
100
AcDbEntity
  8
4
  6
CENTER
 48
0.15
100
AcDbLine
 10
149.1799987838433
 20
143.7719262854258
 30
0.0
 11
149.1799987838433
 21
98.57192366058626
 31
0.0
  0
LINE
  5
3C06
330
18
100
AcDbEntity
  8
1
  6
Continuous
100
AcDbLine
 10
154.6799991391551
 20
127.1719250417158
 30
0.0
 11
154.6799991391551
 21
128.7719251177117
 31
0.0
  0
LINE
  5
3C07
330
18
100
AcDbEntity
  8
1
  6
Continuous
100
AcDbLine
 10
143.6799986166831
 20
128.7719251177117
 30
0.0
 11
143.6799986166831
 21
127.1719250417158
 31
0.0
  0
LINE
  5
3C0A
330
18
100
AcDbEntity
  8
1
  6
Continuous
100
AcDbLine
 10
143.1799985929344
 20
127.1719251370832
 30
0.0
 11
155.1799991629038
 21
127.1719251370832
 31
0.0
  0
LINE
  5
3C14
330
18
100
AcDbEntity
  8
4
  6
CENTER
 48
0.15
100
AcDbLine
 10
140.1799978102816
 20
134.7719239229008
 30
0.0
 11
158.1799991629038
 21
134.7719262708602
 31
0.0
  0
LINE
  5
3C15
330
18
100
AcDbEntity
  8
1
  6
Continuous
100
AcDbLine
 10
155.1799991629039
 20
140.7719261645183
 30
0.0
 11
155.1799991629039
 21
128.7719255945489
 31
0.0
  0
LINE
  5
3C16
330
18
100
AcDbEntity
  8
1
  6
Continuous
100
AcDbLine
 10
143.1799985929344
 20
140.7719261645183
 30
0.0
 11
143.1799985929344
 21
128.7719255945489
 31
0.0
  0
LINE
  5
3C17
330
18
100
AcDbEntity
  8
1
  6
Continuous
100
AcDbLine
 10
146.1799987354267
 20
140.7719261645183
 30
0.0
 11
146.1799987354267
 21
128.7719255945489
 31
0.0
  0
LINE
  5
3C18
330
18
100
AcDbEntity
  8
1
  6
Continuous
100
AcDbLine
 10
152.1799990204114
 20
140.7719261645183
 30
0.0
 11
152.1799990204114
 21
128.7719255945489
 31
0.0
  0
LINE
  5
3C19
330
18
100
AcDbEntity
  8
1
  6
Continuous
100
AcDbLine
 10
143.1799985929344
 20
128.7719255945489
 30
0.0
 11
155.1799991629039
 21
128.7719255945489
 31
0.0
  0
LINE
  5
3C1A
330
18
100
AcDbEntity
  8
1
  6
Continuous
100
AcDbLine
 10
143.1799985929344
 20
140.7719261645183
 30
0.0
 11
155.1799991629039
 21
140.7719261645183
 31
0.0
  0
LINE
  5
3C1B
330
18
100
AcDbEntity
  8
1
  6
Continuous
100
AcDbLine
 10
146.1799987354267
 20
101.5719235396787
 30
0.0
 11
146.1799987354267
 21
113.5719241096482
 31
0.0
  0
LINE
  5
3C1C
330
18
100
AcDbEntity
  8
1
  6
Continuous
100
AcDbLine
 10
143.1799985929344
 20
101.5719235396787
 30
0.0
 11
143.1799985929344
 21
113.5719241096482
 31
0.0
  0
LINE
  5
3C1D
330
18
100
AcDbEntity
  8
1
  6
Continuous
100
AcDbLine
 10
155.1799991629039
 20
101.5719235396787
 30
0.0
 11
155.1799991629039
 21
113.5719241096482
 31
0.0
  0
LINE
  5
3C1E
330
18
100
AcDbEntity
  8
1
  6
Continuous
100
AcDbLine
 10
152.1799990204114
 20
101.5719235396787
 30
0.0
 11
152.1799990204114
 21
113.5719241096482
 31
0.0
  0
LINE
  5
3C1F
330
18
100
AcDbEntity
  8
1
  6
Continuous
100
AcDbLine
 10
143.1799985929344
 20
101.5719235396787
 30
0.0
 11
155.1799991629039
 21
101.5719235396787
 31
0.0
  0
LINE
  5
3C20
330
18
100
AcDbEntity
  8
1
  6
Continuous
100
AcDbLine
 10
143.1799985929344
 20
115.1719245671138
 30
0.0
 11
155.1799991629038
 21
115.1719245671138
 31
0.0
  0
LINE
  5
3C21
330
18
100
AcDbEntity
  8
1
  6
Continuous
100
AcDbLine
 10
143.1799985929344
 20
113.5719241096482
 30
0.0
 11
155.1799991629039
 21
113.5719241096482
 31
0.0
  0
LINE
  5
3C22
330
18
100
AcDbEntity
  8
1
  6
Continuous
100
AcDbLine
 10
143.6799986166831
 20
113.5719245864853
 30
0.0
 11
143.6799986166831
 21
115.1719246624813
 31
0.0
  0
LINE
  5
3C23
330
18
100
AcDbEntity
  8
1
  6
Continuous
100
AcDbLine
 10
154.6799991391551
 20
115.1719246624813
 30
0.0
 11
154.6799991391551
 21
113.5719245864853
 31
0.0
  0
LINE
  5
3C25
330
18
100
AcDbEntity
  8
4
  6
CENTER
 48
0.15
100
AcDbLine
 10
88.71417971462557
 20
121.171924973006
 30
0.0
 11
106.7141802845949
 21
121.171924973006
 31
0.0
  0
LINE
  5
3C26
330
18
100
AcDbEntity
  8
1
  6
Continuous
100
AcDbLine
 10
103.7141802845949
 20
127.1719252579908
 30
0.0
 11
91.71417971462558
 21
127.1719252579907
 31
0.0
  0
LINE
  5
3C27
330
18
100
AcDbEntity
  8
1
  6
Continuous
100
AcDbLine
 10
103.7141802845949
 20
115.1719246880213
 30
0.0
 11
91.71417971462558
 21
115.1719246880213
 31
0.0
  0
LINE
  5
3C28
330
18
100
AcDbEntity
  8
1
  6
Continuous
100
AcDbLine
 10
94.71417985711793
 20
115.1719246880213
 30
0.0
 11
94.71417985711793
 21
127.1719252579907
 31
0.0
  0
LINE
  5
3C29
330
18
100
AcDbEntity
  8
1
  6
Continuous
100
AcDbLine
 10
91.71417971462558
 20
115.1719246880213
 30
0.0
 11
91.71417971462558
 21
127.1719252579907
 31
0.0
  0
LINE
  5
3C2A
330
18
100
AcDbEntity
  8
1
  6
Continuous
100
AcDbLine
 10
100.7141801421026
 20
115.1719246880213
 30
0.0
 11
100.7141801421026
 21
127.1719252579907
 31
0.0
  0
LINE
  5
3C2B
330
18
100
AcDbEntity
  8
1
  6
Continuous
100
AcDbLine
 10
103.7141802845949
 20
115.1719246880213
 30
0.0
 11
103.7141802845949
 21
127.1719252579908
 31
0.0
  0
LINE
  5
3C6D
330
18
100
AcDbEntity
  8
1
  6
Continuous
100
AcDbLine
 10
91.71417922797969
 20
189.711400258274
 30
0.0
 11
91.71417922797969
 21
188.2114001870279
 31
0.0
  0
LINE
  5
3C6E
330
18
100
AcDbEntity
  8
4
  6
CENTER
 48
0.15
100
AcDbLine
 10
97.7141799996103
 20
31.18131850923799
 30
0.0
 11
97.7141799996103
 21
65.68131981541795
 31
0.0
  0
LINE
  5
3C6F
330
18
100
AcDbEntity
  8
1
  6
Continuous
100
AcDbLine
 10
100.7141801421025
 20
62.68131981541795
 30
0.0
 11
103.7141802845949
 21
59.6813196729256
 31
0.0
  0
LINE
  5
3C70
330
18
100
AcDbEntity
  8
1
  6
Continuous
100
AcDbLine
 10
90.2141796433794
 20
62.68131981541795
 30
0.0
 11
90.21417964337944
 21
50.68131924544855
 31
0.0
  0
LINE
  5
3C71
330
18
100
AcDbEntity
  8
1
  6
Continuous
100
AcDbLine
 10
90.2141796433794
 20
62.68131981541795
 30
0.0
 11
100.7141801421025
 21
62.68131981541795
 31
0.0
  0
LINE
  5
3C72
330
18
100
AcDbEntity
  8
4
  6
CENTER
 48
0.15
100
AcDbLine
 10
77.21417916840493
 20
56.68131953043325
 30
0.0
 11
107.7141802845949
 21
56.68131953043325
 31
0.0
  0
LINE
  5
3C73
330
18
100
AcDbEntity
  8
1
  6
Continuous
100
AcDbLine
 10
82.50517164505287
 20
51.68131929294606
 30
0.0
 11
87.52318676626243
 21
51.68131929294606
 31
0.0
  0
LINE
  5
3C74
330
18
100
AcDbEntity
  8
1
  6
Continuous
100
AcDbLine
 10
82.78670361439992
 20
56.68131953043314
 30
0.0
 11
87.24165479691544
 21
56.68131953043314
 31
0.0
  0
LINE
  5
3C75
330
18
100
AcDbEntity
  8
1
  6
Continuous
100
AcDbLine
 10
82.50517164505287
 20
61.68131976792039
 30
0.0
 11
87.5231867662625
 21
61.68131976792039
 31
0.0
  0
ARC
  5
3C76
330
18
100
AcDbEntity
  8
1
  6
Continuous
100
AcDbCircle
 10
93.74596133665329
 20
54.18131941168963
 30
0.0
 40
11.24078869192407
100
AcDbArc
 50
167.1497095614948
 51
192.8502904385049
  0
LINE
  5
3C77
330
18
100
AcDbEntity
  8
1
  6
Continuous
100
AcDbLine
 10
82.41417884684995
 20
51.93131995134161
 30
0.0
 11
82.41417884684995
 21
61.43131910952496
 31
0.0
  0
LINE
  5
3C78
330
18
100
AcDbEntity
  8
2
  6
Continuous
 48
0.2
100
AcDbLine
 10
80.6726790734101
 20
54.22281953043324
 30
0.0
 11
82.41417908216432
 21
54.22281953043324
 31
0.0
  0
LINE
  5
3C79
330
18
100
AcDbEntity
  8
2
  6
Continuous
 48
0.2
100
AcDbLine
 10
80.6726790734101
 20
59.13981953043327
 30
0.0
 11
82.41417908216432
 21
59.13981953043327
 31
0.0
  0
ARC
  5
3C7A
330
18
100
AcDbEntity
  8
1
  6
Continuous
100
AcDbCircle
 10
93.74596133665329
 20
59.18131964917666
 30
0.0
 40
11.24078869192407
100
AcDbArc
 50
167.1497095614949
 51
192.8502904385051
  0
LINE
  5
3C7B
330
18
100
AcDbEntity
  8
1
  6
Continuous
100
AcDbLine
 10
81.21417830758081
 20
53.68132029626246
 30
0.0
 11
80.21417916840494
 21
54.68131943543834
 31
0.0
  0
LINE
  5
3C7C
330
18
100
AcDbEntity
  8
1
  6
Continuous
100
AcDbLine
 10
81.2141792159025
 20
53.6813193879409
 30
0.0
 11
81.21407830758085
 21
53.6813193879409
 31
0.0
  0
LINE
  5
3C7D
330
18
100
AcDbEntity
  8
1
  6
Continuous
100
AcDbLine
 10
81.21427921590237
 20
53.68121938794097
 30
0.0
 11
81.21417921590239
 21
53.6813193879409
 31
0.0
  0
LINE
  5
3C7E
330
18
100
AcDbEntity
  8
1
  6
Continuous
100
AcDbLine
 10
82.41417908216432
 20
53.6813193879409
 30
0.0
 11
81.21417921590227
 21
53.68131938794096
 31
0.0
  0
LINE
  5
3C7F
330
18
100
AcDbEntity
  8
1
  6
Continuous
100
AcDbLine
 10
82.41417884684995
 20
61.43131910952496
 30
0.0
 11
82.50517164505287
 21
61.68131976792039
 31
0.0
  0
LINE
  5
3C80
330
18
100
AcDbEntity
  8
1
  6
Continuous
100
AcDbLine
 10
81.2141792159025
 20
59.68131967292567
 30
0.0
 11
81.21427921590237
 21
59.68141967292559
 31
0.0
  0
LINE
  5
3C81
330
18
100
AcDbEntity
  8
1
  6
Continuous
100
AcDbLine
 10
80.21407916840486
 20
58.68121962542812
 30
0.0
 11
81.2141792159025
 21
59.68131967292567
 31
0.0
  0
LINE
  5
3C82
330
18
100
AcDbEntity
  8
1
  6
Continuous
100
AcDbLine
 10
81.21407830758085
 20
59.6813196729256
 30
0.0
 11
81.21417830758081
 21
59.6813196729256
 31
0.0
  0
LINE
  5
3C83
330
18
100
AcDbEntity
  8
1
  6
Continuous
100
AcDbLine
 10
81.21417830758081
 20
59.6813196729256
 30
0.0
 11
82.41417908216432
 21
59.6813196729256
 31
0.0
  0
LINE
  5
3C84
330
18
100
AcDbEntity
  8
1
  6
Continuous
100
AcDbLine
 10
80.21417916840494
 20
54.68131943543834
 30
0.0
 11
80.21417916840482
 21
58.68131962542815
 31
0.0
  0
LINE
  5
3C85
330
18
100
AcDbEntity
  8
1
  6
Continuous
100
AcDbLine
 10
81.21417921590227
 20
53.68131938794096
 30
0.0
 11
81.21417921590227
 21
59.68131967292555
 31
0.0
  0
LINE
  5
3C86
330
18
100
AcDbEntity
  8
1
  6
Continuous
100
AcDbLine
 10
82.50517164505287
 20
51.68131929294606
 30
0.0
 11
82.41417884684995
 21
51.93131995134161
 31
0.0
  0
LINE
  5
3C88
330
18
100
AcDbEntity
  8
1
  6
Continuous
100
AcDbLine
 10
100.7141801421026
 20
41.38131861298734
 30
0.0
 11
100.7141801421026
 21
36.1813185567355
 31
0.0
  0
LINE
  5
3C89
330
18
100
AcDbEntity
  8
1
  6
Continuous
100
AcDbLine
 10
94.714179857118
 20
36.18131855673544
 30
0.0
 11
94.714179857118
 21
41.38131861298734
 31
0.0
  0
LINE
  5
3C8A
330
18
100
AcDbEntity
  8
2
  6
Continuous
100
AcDbLine
 10
100.1726799996102
 20
35.63981841424311
 30
0.0
 11
100.1726799996103
 21
41.38131837767292
 31
0.0
  0
LINE
  5
3C8B
330
18
100
AcDbEntity
  8
2
  6
Continuous
100
AcDbLine
 10
95.25567999961037
 20
35.63981841424311
 30
0.0
 11
95.25567999961037
 21
41.38131837767292
 31
0.0
  0
LINE
  5
3C8C
330
18
100
AcDbEntity
  8
1
  6
Continuous
100
AcDbLine
 10
100.7141801421026
 20
50.68131924544852
 30
0.0
 11
90.21417964337944
 21
50.68131924544855
 31
0.0
  0
LINE
  5
3C8D
330
18
100
AcDbEntity
  8
1
  6
Continuous
100
AcDbLine
 10
103.7141802845949
 20
49.18131917420236
 30
0.0
 11
91.71417971462558
 21
49.18131917420236
 31
0.0
  0
ARC
  5
3C8E
330
18
100
AcDbEntity
  8
1
  6
Continuous
100
AcDbCircle
 10
97.71417993221348
 20
56.41310862002702
 30
0.0
 40
14.94079644415723
100
AcDbArc
 50
258.8596671603343
 51
281.1403328396597
  0
ARC
  5
3C8F
330
18
100
AcDbEntity
  8
1
  6
Continuous
100
AcDbCircle
 10
97.71417993221348
 20
31.54952885293423
 30
0.0
 40
14.94079644415723
100
AcDbArc
 50
78.85966716034018
 51
101.1403328396656
  0
LINE
  5
3C90
330
18
100
AcDbEntity
  8
1
  6
Continuous
100
AcDbLine
 10
92.21417973837437
 20
46.58131866923918
 30
0.0
 11
103.2141802608462
 21
46.58131866923922
 31
0.0
  0
LINE
  5
3C91
330
18
100
AcDbEntity
  8
1
  6
Continuous
100
AcDbLine
 10
103.2141802608462
 20
47.18131869773769
 30
0.0
 11
92.21417973837437
 21
47.18131869773769
 31
0.0
  0
LINE
  5
3C92
330
18
100
AcDbEntity
  8
1
  6
Continuous
100
AcDbLine
 10
102.4641795113047
 20
41.38131837767292
 30
0.0
 11
92.96418035312127
 21
41.38131837767292
 31
0.0
  0
ARC
  5
3C93
330
18
100
AcDbEntity
  8
1
  6
Continuous
100
AcDbCircle
 10
76.28239707466196
 20
54.18131941168963
 30
0.0
 40
11.24078869192407
100
AcDbArc
 50
347.1497095614949
 51
12.85029043850511
  0
LINE
  5
3C94
330
18
100
AcDbEntity
  8
1
  6
Continuous
100
AcDbLine
 10
88.21417916691478
 20
51.18131926919727
 30
0.0
 11
88.21417916691473
 21
62.18131979166924
 31
0.0
  0
LINE
  5
3C95
330
18
100
AcDbEntity
  8
1
  6
Continuous
100
AcDbLine
 10
87.61417913841631
 20
62.18131979166924
 30
0.0
 11
87.61417913841594
 21
51.18131926919727
 31
0.0
  0
LINE
  5
3C96
330
18
100
AcDbEntity
  8
2
  6
Continuous
 48
0.2
100
AcDbLine
 10
88.21417916691478
 20
59.13981953043327
 30
0.0
 11
90.2141796433794
 21
59.13981953043327
 31
0.0
  0
LINE
  5
3C97
330
18
100
AcDbEntity
  8
2
  6
Continuous
 48
0.2
100
AcDbLine
 10
88.21417916691478
 20
54.22281953043329
 30
0.0
 11
90.2141796433794
 21
54.22281953043329
 31
0.0
  0
ARC
  5
3C98
330
18
100
AcDbEntity
  8
1
  6
Continuous
100
AcDbCircle
 10
76.28239707466196
 20
59.18131964917666
 30
0.0
 40
11.24078869192407
100
AcDbArc
 50
347.1497095614949
 51
12.85029043850506
  0
LINE
  5
3C99
330
18
100
AcDbEntity
  8
1
  6
Continuous
100
AcDbLine
 10
87.61417913841627
 20
52.67782936894366
 30
0.0
 11
88.21417916691473
 21
52.67782936894366
 31
0.0
  0
LINE
  5
3C9A
330
18
100
AcDbEntity
  8
1
  6
Continuous
100
AcDbLine
 10
87.61417913841627
 20
52.79223204918555
 30
0.0
 11
88.21417916691473
 21
52.79223204918555
 31
0.0
  0
LINE
  5
3C9B
330
18
100
AcDbEntity
  8
1
  6
Continuous
100
AcDbLine
 10
87.61417913841627
 20
54.42575875825264
 30
0.0
 11
88.21417916691473
 21
54.42575875825264
 31
0.0
  0
LINE
  5
3C9C
330
18
100
AcDbEntity
  8
1
  6
Continuous
100
AcDbLine
 10
87.61417913841627
 20
54.57656055245434
 30
0.0
 11
88.21417916691473
 21
54.57656055245434
 31
0.0
  0
LINE
  5
3C9D
330
18
100
AcDbEntity
  8
1
  6
Continuous
100
AcDbLine
 10
87.61417913841627
 20
56.51707682841686
 30
0.0
 11
88.21417916691473
 21
56.51707682841686
 31
0.0
  0
LINE
  5
3C9E
330
18
100
AcDbEntity
  8
1
  6
Continuous
100
AcDbLine
 10
87.61417913841627
 20
56.68131953043325
 30
0.0
 11
88.21417916691473
 21
56.68131953043325
 31
0.0
  0
LINE
  5
3C9F
330
18
100
AcDbEntity
  8
1
  6
Continuous
100
AcDbLine
 10
87.61417913841627
 20
60.57040701168102
 30
0.0
 11
88.21417916691473
 21
60.57040701168102
 31
0.0
  0
LINE
  5
3CA0
330
18
100
AcDbEntity
  8
1
  6
Continuous
100
AcDbLine
 10
87.61417913841627
 20
60.45253543521146
 30
0.0
 11
88.21417916691473
 21
60.45253543521146
 31
0.0
  0
LINE
  5
3CA1
330
18
100
AcDbEntity
  8
1
  6
Continuous
100
AcDbLine
 10
87.61417913841627
 20
58.78607850841222
 30
0.0
 11
88.21417916691473
 21
58.78607850841222
 31
0.0
  0
LINE
  5
3CA2
330
18
100
AcDbEntity
  8
1
  6
Continuous
100
AcDbLine
 10
87.61417913841627
 20
58.63339936109912
 30
0.0
 11
88.21417916691473
 21
58.63339936109912
 31
0.0
  0
LINE
  5
3CA3
330
18
100
AcDbEntity
  8
1
  6
Continuous
100
AcDbLine
 10
87.5231867662625
 20
61.68131976792039
 30
0.0
 11
87.61417913841627
 21
61.43132028008517
 31
0.0
  0
LINE
  5
3CA4
330
18
100
AcDbEntity
  8
1
  6
Continuous
100
AcDbLine
 10
87.61417913841631
 20
62.18131979166924
 30
0.0
 11
88.21417916691473
 21
62.18131979166924
 31
0.0
  0
LINE
  5
3CA5
330
18
100
AcDbEntity
  8
1
  6
Continuous
100
AcDbLine
 10
87.61417913841627
 20
62.1788669116234
 30
0.0
 11
88.21417916691473
 21
62.1788669116234
 31
0.0
  0
LINE
  5
3CA6
330
18
100
AcDbEntity
  8
1
  6
Continuous
100
AcDbLine
 10
87.61417913841627
 20
61.76265720059575
 30
0.0
 11
88.21417916691473
 21
61.76265720059575
 31
0.0
  0
LINE
  5
3CA7
330
18
100
AcDbEntity
  8
1
  6
Continuous
100
AcDbLine
 10
90.2141796433794
 20
53.6813193879409
 30
0.0
 11
88.21417916691473
 21
53.6813193879409
 31
0.0
  0
LINE
  5
3CA8
330
18
100
AcDbEntity
  8
1
  6
Continuous
100
AcDbLine
 10
88.21417916691473
 20
59.6813196729256
 30
0.0
 11
90.2141796433794
 21
59.6813196729256
 31
0.0
  0
LINE
  5
3CA9
330
18
100
AcDbEntity
  8
1
  6
Continuous
100
AcDbLine
 10
92.96418035312127
 20
41.38131837767292
 30
0.0
 11
91.94067696609009
 21
41.75384314522289
 31
0.0
  0
LINE
  5
3CAA
330
18
100
AcDbEntity
  8
1
  6
Continuous
100
AcDbLine
 10
91.94067696609009
 20
46.20879432773835
 30
0.0
 11
92.96417918256112
 21
46.58131866923922
 31
0.0
  0
ARC
  5
3CAB
330
18
100
AcDbEntity
  8
1
  6
Continuous
100
AcDbCircle
 10
93.38405270762079
 20
42.64955207248223
 30
0.0
 40
3.840773224604663
100
AcDbArc
 50
67.9260217447522
 51
112.0739782552425
  0
ARC
  5
3CAC
330
18
100
AcDbEntity
  8
1
  6
Continuous
100
AcDbCircle
 10
93.38405270762079
 20
45.31308540047901
 30
0.0
 40
3.840773224604663
100
AcDbArc
 50
247.9260217447575
 51
292.0739782552479
  0
LINE
  5
3CAD
330
18
100
AcDbEntity
  8
1
  6
Continuous
100
AcDbLine
 10
91.71417922797969
 20
49.18131917420234
 30
0.0
 11
91.71417922797969
 21
50.68131924544852
 31
0.0
  0
LINE
  5
3CAE
330
18
100
AcDbEntity
  8
1
  6
Continuous
100
AcDbLine
 10
91.94067696609009
 20
41.75384314522289
 30
0.0
 11
91.94057696609013
 21
41.75387954224635
 31
0.0
  0
LINE
  5
3CAF
330
18
100
AcDbEntity
  8
1
  6
Continuous
100
AcDbLine
 10
91.94057696609013
 20
46.2087579307149
 30
0.0
 11
91.94067696609009
 21
46.20879432773835
 31
0.0
  0
LINE
  5
3CB0
330
18
100
AcDbEntity
  8
1
  6
Continuous
100
AcDbLine
 10
92.69796145606621
 20
46.58131866923922
 30
0.0
 11
92.69796145606621
 21
47.18131869773769
 31
0.0
  0
LINE
  5
3CB1
330
18
100
AcDbEntity
  8
1
  6
Continuous
100
AcDbLine
 10
92.63284232944783
 20
46.58131866923922
 30
0.0
 11
92.63284232944783
 21
47.18131869773769
 31
0.0
  0
LINE
  5
3CB2
330
18
100
AcDbEntity
  8
1
  6
Continuous
100
AcDbLine
 10
92.21663261842023
 20
46.58131866923922
 30
0.0
 11
92.21663261842023
 21
47.18131869773769
 31
0.0
  0
LINE
  5
3CB3
330
18
100
AcDbEntity
  8
1
  6
Continuous
100
AcDbLine
 10
92.21417973837437
 20
46.58131866923918
 30
0.0
 11
92.21417973837437
 21
47.18131869773769
 31
0.0
  0
LINE
  5
3CB4
330
18
100
AcDbEntity
  8
1
  6
Continuous
100
AcDbLine
 10
91.94067696609009
 20
41.75384314522289
 30
0.0
 11
91.94067696609009
 21
46.20879432773842
 31
0.0
  0
LINE
  5
3CB5
330
18
100
AcDbEntity
  8
1
  6
Continuous
100
AcDbLine
 10
87.61417913841594
 20
51.18131926919727
 30
0.0
 11
88.21417916691478
 21
51.18131926919727
 31
0.0
  0
LINE
  5
3CB6
330
18
100
AcDbEntity
  8
1
  6
Continuous
100
AcDbLine
 10
87.61417913841627
 20
51.53939506499199
 30
0.0
 11
88.21417916691473
 21
51.53939506499199
 31
0.0
  0
LINE
  5
3CB7
330
18
100
AcDbEntity
  8
1
  6
Continuous
100
AcDbLine
 10
87.61417913841627
 20
51.93131878078141
 30
0.0
 11
87.52318676626243
 21
51.68131929294606
 31
0.0
  0
LINE
  5
3CB8
330
18
100
AcDbEntity
  8
1
  6
Continuous
100
AcDbLine
 10
94.714179857118
 20
47.18131869773769
 30
0.0
 11
94.71417985711793
 21
49.18131917420236
 31
0.0
  0
LINE
  5
3CB9
330
18
100
AcDbEntity
  8
1
  6
Continuous
100
AcDbLine
 10
99.81893897758929
 20
46.58131866923922
 30
0.0
 11
99.81893897758929
 21
47.18131869773769
 31
0.0
  0
LINE
  5
3CBA
330
18
100
AcDbEntity
  8
1
  6
Continuous
100
AcDbLine
 10
99.96974077179093
 20
46.58131866923922
 30
0.0
 11
99.96974077179093
 21
47.18131869773769
 31
0.0
  0
LINE
  5
3CBB
330
18
100
AcDbEntity
  8
1
  6
Continuous
100
AcDbLine
 10
97.71417999961036
 20
46.58131866923922
 30
0.0
 11
97.71417999961036
 21
47.18131869773769
 31
0.0
  0
LINE
  5
3CBC
330
18
100
AcDbEntity
  8
1
  6
Continuous
100
AcDbLine
 10
97.87842270162672
 20
46.58131866923922
 30
0.0
 11
97.87842270162672
 21
47.18131869773769
 31
0.0
  0
LINE
  5
3CBD
330
18
100
AcDbEntity
  8
1
  6
Continuous
100
AcDbLine
 10
95.76210016894457
 20
46.58131866923922
 30
0.0
 11
95.76210016894457
 21
47.18131869773769
 31
0.0
  0
LINE
  5
3CBE
330
18
100
AcDbEntity
  8
1
  6
Continuous
100
AcDbLine
 10
95.60942102163142
 20
46.58131866923922
 30
0.0
 11
95.60942102163142
 21
47.18131869773769
 31
0.0
  0
LINE
  5
3CBF
330
18
100
AcDbEntity
  8
1
  6
Continuous
100
AcDbLine
 10
93.94296409483215
 20
46.58131866923922
 30
0.0
 11
93.94296409483215
 21
47.18131869773769
 31
0.0
  0
LINE
  5
3CC0
330
18
100
AcDbEntity
  8
1
  6
Continuous
100
AcDbLine
 10
93.82509251836257
 20
46.58131866923922
 30
0.0
 11
93.82509251836257
 21
47.18131869773769
 31
0.0
  0
LINE
  5
3CC1
330
18
100
AcDbEntity
  8
2
  6
Continuous
100
AcDbLine
 10
95.25567999961037
 20
47.18131869773781
 30
0.0
 11
95.25567999961031
 21
49.18131917420236
 31
0.0
  0
LINE
  5
3CC2
330
18
100
AcDbEntity
  8
2
  6
Continuous
100
AcDbLine
 10
100.1726799996102
 20
47.18131869773781
 30
0.0
 11
100.1726799996102
 21
49.18131917420236
 31
0.0
  0
LINE
  5
3CC3
330
18
100
AcDbEntity
  8
1
  6
Continuous
100
AcDbLine
 10
94.82742844915165
 20
41.75384314522289
 30
0.0
 11
94.82742844915165
 21
46.20879432773829
 31
0.0
  0
LINE
  5
3CC4
330
18
100
AcDbEntity
  8
1
  6
Continuous
100
AcDbLine
 10
103.7141802845949
 20
53.6813193879409
 30
0.0
 11
100.7141801421026
 21
50.68131924544852
 31
0.0
  0
LINE
  5
3CC5
330
18
100
AcDbEntity
  8
1
  6
Continuous
100
AcDbLine
 10
103.7141802845949
 20
49.18131917420236
 30
0.0
 11
103.7141802845949
 21
59.6813196729256
 31
0.0
  0
LINE
  5
3CC6
330
18
100
AcDbEntity
  8
1
  6
Continuous
100
AcDbLine
 10
103.4876828983358
 20
41.75384314522289
 30
0.0
 11
102.4639047635627
 21
41.38121837767295
 31
0.0
  0
LINE
  5
3CC7
330
18
100
AcDbEntity
  8
1
  6
Continuous
100
AcDbLine
 10
103.4877828983358
 20
41.75387954224635
 30
0.0
 11
103.4876828983358
 21
41.75384314522289
 31
0.0
  0
ARC
  5
3CC8
330
18
100
AcDbEntity
  8
1
  6
Continuous
100
AcDbCircle
 10
102.0443122822701
 20
45.31311167780111
 30
0.0
 40
3.840799501954061
100
AcDbArc
 50
247.9260982029156
 51
292.0753465515783
  0
LINE
  5
3CC9
330
18
100
AcDbEntity
  8
1
  6
Continuous
100
AcDbLine
 10
100.7141801421026
 20
49.18131917420236
 30
0.0
 11
100.7141801421026
 21
47.18131869773769
 31
0.0
  0
LINE
  5
3CCA
330
18
100
AcDbEntity
  8
1
  6
Continuous
100
AcDbLine
 10
102.4641806818648
 20
46.58131866923922
 30
0.0
 11
103.4876828983358
 21
46.20879432773829
 31
0.0
  0
LINE
  5
3CCB
330
18
100
AcDbEntity
  8
1
  6
Continuous
100
AcDbLine
 10
103.4876828983358
 20
46.20879432773829
 30
0.0
 11
103.4877828983358
 21
46.2087579307149
 31
0.0
  0
LINE
  5
3CCC
330
18
100
AcDbEntity
  8
1
  6
Continuous
100
AcDbLine
 10
103.2141802608462
 20
46.58131866923922
 30
0.0
 11
103.2141802608462
 21
47.18131869773769
 31
0.0
  0
LINE
  5
3CCD
330
18
100
AcDbEntity
  8
1
  6
Continuous
100
AcDbLine
 10
102.8561044650516
 20
46.58131866923922
 30
0.0
 11
102.8561044650516
 21
47.18131869773769
 31
0.0
  0
LINE
  5
3CCE
330
18
100
AcDbEntity
  8
1
  6
Continuous
100
AcDbLine
 10
101.603267480858
 20
46.58131866923922
 30
0.0
 11
101.603267480858
 21
47.18131869773769
 31
0.0
  0
LINE
  5
3CCF
330
18
100
AcDbEntity
  8
1
  6
Continuous
100
AcDbLine
 10
101.7176701610999
 20
46.58131866923922
 30
0.0
 11
101.7176701610999
 21
47.18131869773769
 31
0.0
  0
ARC
  5
3CD0
330
18
100
AcDbEntity
  8
1
  6
Continuous
100
AcDbCircle
 10
102.0443122822701
 20
42.64952579516014
 30
0.0
 40
3.840799501954061
100
AcDbArc
 50
67.92465344842158
 51
112.0739017970843
  0
LINE
  5
3CD1
330
18
100
AcDbEntity
  8
1
  6
Continuous
100
AcDbLine
 10
103.4876828983358
 20
41.75384314522289
 30
0.0
 11
103.4876828983358
 21
46.20879432773842
 31
0.0
  0
LINE
  5
3CD2
330
18
100
AcDbEntity
  8
1
  6
Continuous
100
AcDbLine
 10
100.6009314152741
 20
41.75384314522289
 30
0.0
 11
100.6009314152741
 21
46.20879432773835
 31
0.0
  0
LINE
  5
3CD3
330
18
100
AcDbEntity
  8
1
  6
Continuous
100
AcDbLine
 10
100.7141801421026
 20
36.1813185567355
 30
0.0
 11
94.714179857118
 21
36.18131855673544
 31
0.0
  0
LINE
  5
3CD4
330
18
100
AcDbEntity
  8
1
  6
Continuous
100
AcDbLine
 10
100.7141801421026
 20
36.1813185567355
 30
0.0
 11
99.71418009460524
 21
35.18131850923799
 31
0.0
  0
LINE
  5
3CD5
330
18
100
AcDbEntity
  8
1
  6
Continuous
100
AcDbLine
 10
99.71418009460524
 20
35.18131850923799
 30
0.0
 11
95.71417990461538
 21
35.18131850923805
 31
0.0
  0
LINE
  5
3CD6
330
18
100
AcDbEntity
  8
1
  6
Continuous
100
AcDbLine
 10
94.714179857118
 20
36.18121855673547
 30
0.0
 11
94.714179857118
 21
36.1813185567355
 31
0.0
  0
LINE
  5
3CD7
330
18
100
AcDbEntity
  8
1
  6
Continuous
100
AcDbLine
 10
95.71417990461538
 20
35.18131850923805
 30
0.0
 11
94.714179857118
 21
36.1813185567355
 31
0.0
  0
LINE
  5
3CD8
330
18
100
AcDbEntity
  8
1
  6
Continuous
100
AcDbLine
 10
94.714179857118
 20
36.1813185567355
 30
0.0
 11
94.71407985711799
 21
36.18141855673553
 31
0.0
  0
LINE
  5
3CD9
330
18
100
AcDbEntity
  8
1
  6
Continuous
100
AcDbLine
 10
100.7141801421026
 20
36.1813185567355
 30
0.0
 11
100.7141801421026
 21
36.18121855673547
 31
0.0
  0
LINE
  5
3CDA
330
18
100
AcDbEntity
  8
1
  6
Continuous
100
AcDbLine
 10
100.7142801421025
 20
36.18141855673553
 30
0.0
 11
100.7141801421026
 21
36.1813185567355
 31
0.0
  0
LINE
  5
3D26
330
18
100
AcDbEntity
  8
1
  6
Continuous
100
AcDbLine
 10
33.86505999088603
 20
127.1719251626233
 30
0.0
 11
33.86505999088603
 21
128.7719252386192
 31
0.0
  0
LINE
  5
3D27
330
18
100
AcDbEntity
  8
1
  6
Continuous
100
AcDbLine
 10
44.865060513358
 20
128.7719252386192
 30
0.0
 11
44.865060513358
 21
127.1719251626233
 31
0.0
  0
LINE
  5
3D28
330
18
100
AcDbEntity
  8
2
  6
Continuous
100
AcDbLine
 10
18.32355913593187
 20
118.7134249730061
 30
0.0
 11
24.0650593346761
 21
118.7134249730061
 31
0.0
  0
LINE
  5
3D29
330
18
100
AcDbEntity
  8
2
  6
Continuous
100
AcDbLine
 10
18.32355913593187
 20
123.630424973006
 30
0.0
 11
24.0650593346761
 21
123.630424973006
 31
0.0
  0
LINE
  5
3D2A
330
18
100
AcDbEntity
  8
1
  6
Continuous
100
AcDbLine
 10
18.86505927842426
 20
124.1719251154984
 30
0.0
 11
24.0650593346761
 21
124.1719251154984
 31
0.0
  0
LINE
  5
3D2B
330
18
100
AcDbEntity
  8
1
  6
Continuous
100
AcDbLine
 10
24.0650593346761
 20
118.1719248305137
 30
0.0
 11
18.86505927842426
 21
118.1719248305137
 31
0.0
  0
CIRCLE
  5
3D2C
330
18
100
AcDbEntity
  8
2
  6
Continuous
100
AcDbCircle
 10
39.36506031951944
 20
107.571925510877
 30
0.0
 40
2.458499999999999
  0
CIRCLE
  5
3D2D
330
18
100
AcDbEntity
  8
1
  6
Continuous
100
AcDbCircle
 10
39.36506025212203
 20
107.571924728224
 30
0.0
 40
3.0
  0
CIRCLE
  5
3D2E
330
18
100
AcDbEntity
  8
1
  6
Continuous
100
AcDbCircle
 10
39.36506025212203
 20
107.571924728224
 30
0.0
 40
4.75
  0
LINE
  5
3D2F
330
18
100
AcDbEntity
  8
1
  6
Continuous
100
AcDbLine
 10
44.36506048960928
 20
104.6851732451627
 30
0.0
 11
44.36506048960928
 21
110.4586762112854
 31
0.0
  0
LINE
  5
3D30
330
18
100
AcDbEntity
  8
1
  6
Continuous
100
AcDbLine
 10
34.36506001463476
 20
104.6851732451627
 30
0.0
 11
34.36506001463476
 21
110.4586762112854
 31
0.0
  0
ARC
  5
3D31
330
18
100
AcDbEntity
  8
1
  6
Continuous
100
AcDbCircle
 10
39.36506025212191
 20
107.5719239455709
 30
0.0
 40
5.500000261235849
100
AcDbArc
 50
181.7112386164142
 51
202.5000000000039
  0
LINE
  5
3D32
330
18
100
AcDbEntity
  8
1
  6
Continuous
100
AcDbLine
 10
33.36505996713731
 20
101.5719236605862
 30
0.0
 11
33.36505996713731
 21
113.5719242305556
 31
0.0
  0
LINE
  5
3D33
330
18
100
AcDbEntity
  8
1
  6
Continuous
100
AcDbLine
 10
45.36506053710672
 20
101.5719236605862
 30
0.0
 11
45.36506053710672
 21
113.5719242305556
 31
0.0
  0
ARC
  5
3D34
330
18
100
AcDbEntity
  8
1
  6
Continuous
100
AcDbCircle
 10
39.36506025212214
 20
107.5719239455709
 30
0.0
 40
5.500000261235891
100
AcDbArc
 50
339.2112386164197
 51
0.000000000000007
  0
LINE
  5
3D35
330
18
100
AcDbEntity
  8
1
  6
Continuous
100
AcDbLine
 10
39.36506025212203
 20
101.7984217621014
 30
0.0
 11
34.36506001463488
 21
104.6851732451629
 31
0.0
  0
LINE
  5
3D36
330
18
100
AcDbEntity
  8
1
  6
Continuous
100
AcDbLine
 10
33.36505996713731
 20
101.5719236605862
 30
0.0
 11
45.36506053710672
 21
101.5719236605862
 31
0.0
  0
LINE
  5
3D37
330
18
100
AcDbEntity
  8
1
  6
Continuous
100
AcDbLine
 10
44.36506048960928
 20
105.5008560353347
 30
0.0
 11
44.44639792228453
 21
105.467164967592
 31
0.0
  0
LINE
  5
3D38
330
18
100
AcDbEntity
  8
1
  6
Continuous
100
AcDbLine
 10
44.50698471756322
 20
105.6198441149051
 30
0.0
 11
44.36506048960928
 21
105.6578725971718
 31
0.0
  0
ARC
  5
3D39
330
18
100
AcDbEntity
  8
1
  6
Continuous
100
AcDbCircle
 10
39.36506025212203
 20
107.5719239455709
 30
0.0
 40
5.500000261235925
100
AcDbArc
 50
335.5597312822491
 51
337.4999999999968
  0
ARC
  5
3D3A
330
18
100
AcDbEntity
  8
1
  6
Continuous
100
AcDbCircle
 10
39.36506025212203
 20
107.5719239455708
 30
0.0
 40
5.500000261235849
100
AcDbArc
 50
275.6045246759829
 51
292.5000000000035
  0
LINE
  5
3D3B
330
18
100
AcDbEntity
  8
1
  6
Continuous
100
AcDbLine
 10
43.02531396763686
 20
103.9116702300561
 30
0.0
 11
43.25414773336979
 21
103.6828364643232
 31
0.0
  0
LINE
  5
3D3C
330
18
100
AcDbEntity
  8
1
  6
Continuous
100
AcDbLine
 10
43.36855041361161
 20
103.8007080407927
 30
0.0
 11
43.13865893437787
 21
103.9771099771152
 31
0.0
  0
LINE
  5
3D3D
330
18
100
AcDbEntity
  8
1
  6
Continuous
100
AcDbLine
 10
41.29498804525711
 20
102.9126660929843
 30
0.0
 11
41.46981923010094
 21
102.4905862754084
 31
0.0
  0
LINE
  5
3D3E
330
18
100
AcDbEntity
  8
1
  6
Continuous
100
AcDbLine
 10
41.62062102430263
 20
102.5557054020268
 30
0.0
 11
41.38464426628046
 21
102.9644291363266
 31
0.0
  0
ARC
  5
3D3F
330
18
100
AcDbEntity
  8
1
  6
Continuous
100
AcDbCircle
 10
39.36506025212203
 20
107.5719239455709
 30
0.0
 40
5.500000261235925
100
AcDbArc
 50
316.7112386164081
 51
324.5185450004242
  0
ARC
  5
3D40
330
18
100
AcDbEntity
  8
1
  6
Continuous
100
AcDbCircle
 10
39.36506025212203
 20
107.571923945571
 30
0.0
 40
5.500000261236003
100
AcDbArc
 50
294.211238616413
 51
314.9999999999997
  0
LINE
  5
3D41
330
18
100
AcDbEntity
  8
1
  6
Continuous
100
AcDbLine
 10
39.36506025212203
 20
101.7984217621011
 30
0.0
 11
44.36506048960928
 21
104.6851732451627
 31
0.0
  0
LINE
  5
3D42
330
18
100
AcDbEntity
  8
1
  6
Continuous
100
AcDbLine
 10
34.36506001463476
 20
105.5008560353347
 30
0.0
 11
34.28372258195952
 21
105.467164967592
 31
0.0
  0
LINE
  5
3D43
330
18
100
AcDbEntity
  8
1
  6
Continuous
100
AcDbLine
 10
34.34884170857799
 20
105.3163631733903
 30
0.0
 11
34.36506001463476
 21
105.325726816758
 31
0.0
  0
ARC
  5
3D44
330
18
100
AcDbEntity
  8
1
  6
Continuous
100
AcDbCircle
 10
39.36506025212203
 20
107.571923945571
 30
0.0
 40
5.500000261236003
100
AcDbArc
 50
204.211238616413
 51
204.5753234539855
  0
LINE
  5
3D45
330
18
100
AcDbEntity
  8
1
  6
Continuous
100
AcDbLine
 10
35.70480653660729
 20
103.9116702300562
 30
0.0
 11
35.47597277087425
 21
103.6828364643232
 31
0.0
  0
LINE
  5
3D46
330
18
100
AcDbEntity
  8
1
  6
Continuous
100
AcDbLine
 10
35.59384434734386
 20
103.5684337840813
 30
0.0
 11
35.81042723117628
 21
103.8506900936148
 31
0.0
  0
ARC
  5
3D47
330
18
100
AcDbEntity
  8
1
  6
Continuous
100
AcDbCircle
 10
39.36506025212203
 20
107.571923945571
 30
0.0
 40
5.500000261236003
100
AcDbArc
 50
215.5879556761726
 51
225.0000000000003
  0
ARC
  5
3D48
330
18
100
AcDbEntity
  8
1
  6
Continuous
100
AcDbCircle
 10
39.36506025212203
 20
107.5719239455708
 30
0.0
 40
5.500000261235891
100
AcDbArc
 50
249.2112386164197
 51
264.471239394378
  0
LINE
  5
3D49
330
18
100
AcDbEntity
  8
1
  6
Continuous
100
AcDbLine
 10
37.43513245898702
 20
102.9126660929845
 30
0.0
 11
37.2603012741431
 21
102.4905862754084
 31
0.0
  0
LINE
  5
3D4A
330
18
100
AcDbEntity
  8
1
  6
Continuous
100
AcDbLine
 10
37.41298042145628
 20
102.4299994801297
 30
0.0
 11
37.52795140903924
 21
102.8590770471859
 31
0.0
  0
ARC
  5
3D4B
330
18
100
AcDbEntity
  8
1
  6
Continuous
100
AcDbCircle
 10
39.36506025212203
 20
107.5719239455709
 30
0.0
 40
5.500000261235925
100
AcDbArc
 50
226.7112386164081
 51
247.4999999999968
  0
LINE
  5
3D4C
330
18
100
AcDbEntity
  8
1
  6
Continuous
100
AcDbLine
 10
31.86505989589113
 20
127.1719252579907
 30
0.0
 11
45.36506053710672
 21
127.1719252579907
 31
0.0
  0
LINE
  5
3D4D
330
18
100
AcDbEntity
  8
1
  6
Continuous
100
AcDbLine
 10
31.86505989589113
 20
115.1719246880213
 30
0.0
 11
45.36506053710672
 21
115.1719246880213
 31
0.0
  0
LINE
  5
3D4E
330
18
100
AcDbEntity
  8
1
  6
Continuous
100
AcDbLine
 10
45.36506044303098
 20
127.1719251370832
 30
0.0
 11
33.36505987306157
 21
127.1719251370832
 31
0.0
  0
LINE
  5
3D4F
330
18
100
AcDbEntity
  8
1
  6
Continuous
100
AcDbLine
 10
45.36506044303098
 20
115.1719245671138
 30
0.0
 11
33.36505987306157
 21
115.1719245671138
 31
0.0
  0
LINE
  5
3D50
330
18
100
AcDbEntity
  8
1
  6
Continuous
100
AcDbLine
 10
34.36506001463476
 20
110.4586762112854
 30
0.0
 11
39.36506025212191
 21
113.3454276943469
 31
0.0
  0
LINE
  5
3D51
330
18
100
AcDbEntity
  8
4
  6
CENTER
 48
0.15
100
AcDbLine
 10
48.36506131975955
 20
107.5719259022038
 30
0.0
 11
30.36505996713731
 21
107.5719235542444
 31
0.0
  0
LINE
  5
3D52
330
18
100
AcDbEntity
  8
1
  6
Continuous
100
AcDbLine
 10
33.36505996713731
 20
113.5719242305556
 30
0.0
 11
45.36506053710672
 21
113.5719242305556
 31
0.0
  0
LINE
  5
3D53
330
18
100
AcDbEntity
  8
1
  6
Continuous
100
AcDbLine
 10
42.36506039461438
 20
115.1719246880213
 30
0.0
 11
42.36506039461438
 21
127.1719252579907
 31
0.0
  0
LINE
  5
3D54
330
18
100
AcDbEntity
  8
1
  6
Continuous
100
AcDbLine
 10
45.36506053710672
 20
115.1719246880213
 30
0.0
 11
45.36506053710672
 21
127.1719252579907
 31
0.0
  0
LINE
  5
3D55
330
18
100
AcDbEntity
  8
1
  6
Continuous
100
AcDbLine
 10
44.38127879566605
 20
109.8274847177516
 30
0.0
 11
44.36506048960928
 21
109.8181210743839
 31
0.0
  0
LINE
  5
3D56
330
18
100
AcDbEntity
  8
1
  6
Continuous
100
AcDbLine
 10
44.36506048960928
 20
109.6429918558072
 30
0.0
 11
44.44639792228453
 21
109.6766829235499
 31
0.0
  0
ARC
  5
3D57
330
18
100
AcDbEntity
  8
1
  6
Continuous
100
AcDbCircle
 10
39.36506025212203
 20
107.5719239455709
 30
0.0
 40
5.500000261236003
100
AcDbArc
 50
24.21123861641301
 51
24.57532345398639
  0
ARC
  5
3D58
330
18
100
AcDbEntity
  8
1
  6
Continuous
100
AcDbCircle
 10
39.36506025212203
 20
107.571923945571
 30
0.0
 40
5.500000261235891
100
AcDbArc
 50
69.21123861641977
 51
84.47120771401005
  0
LINE
  5
3D59
330
18
100
AcDbEntity
  8
1
  6
Continuous
100
AcDbLine
 10
41.29498856849716
 20
112.2311830613708
 30
0.0
 11
41.46981923010094
 21
112.6532616157334
 31
0.0
  0
LINE
  5
3D5A
330
18
100
AcDbEntity
  8
1
  6
Continuous
100
AcDbLine
 10
41.31714008278777
 20
112.7138484110122
 30
0.0
 11
41.20216945843536
 21
112.2847721995509
 31
0.0
  0
ARC
  5
3D5B
330
18
100
AcDbEntity
  8
1
  6
Continuous
100
AcDbCircle
 10
39.36506025212203
 20
107.571923945571
 30
0.0
 40
5.500000261235925
100
AcDbArc
 50
46.71123861640814
 51
67.4999999999968
  0
LINE
  5
3D5C
330
18
100
AcDbEntity
  8
1
  6
Continuous
100
AcDbLine
 10
44.36506048960915
 20
110.4586762112852
 30
0.0
 11
39.36506025212203
 21
113.3454276943467
 31
0.0
  0
LINE
  5
3D5D
330
18
100
AcDbEntity
  8
1
  6
Continuous
100
AcDbLine
 10
43.13627615690018
 20
111.5754141070605
 30
0.0
 11
42.91969410542264
 21
111.293158882273
 31
0.0
  0
LINE
  5
3D5E
330
18
100
AcDbEntity
  8
1
  6
Continuous
100
AcDbLine
 10
43.0253149600012
 20
111.23217865345
 30
0.0
 11
43.25414773336979
 21
111.4610114268187
 31
0.0
  0
ARC
  5
3D5F
330
18
100
AcDbEntity
  8
1
  6
Continuous
100
AcDbCircle
 10
39.36506025212203
 20
107.5719239455709
 30
0.0
 40
5.500000261236003
100
AcDbArc
 50
35.58798859244435
 51
45.00000000000028
  0
LINE
  5
3D60
330
18
100
AcDbEntity
  8
1
  6
Continuous
100
AcDbLine
 10
44.865060513358
 20
113.5719247073928
 30
0.0
 11
44.865060513358
 21
115.1719247833888
 31
0.0
  0
LINE
  5
3D61
330
18
100
AcDbEntity
  8
1
  6
Continuous
100
AcDbLine
 10
44.86260763331211
 20
107.7361666475873
 30
0.0
 11
44.36506048960928
 21
107.6706633234513
 31
0.0
  0
LINE
  5
3D62
330
18
100
AcDbEntity
  8
1
  6
Continuous
100
AcDbLine
 10
44.36506048960928
 20
107.5719239455709
 30
0.0
 11
44.865060513358
 21
107.5719239455709
 31
0.0
  0
ARC
  5
3D63
330
18
100
AcDbEntity
  8
1
  6
Continuous
100
AcDbCircle
 10
39.36506025212214
 20
107.571923945571
 30
0.0
 40
5.500000261235849
100
AcDbArc
 50
1.711238616414255
 51
22.50000000000321
  0
ARC
  5
3D64
330
18
100
AcDbEntity
  8
1
  6
Continuous
100
AcDbCircle
 10
35.39684160196458
 20
118.6719248542625
 30
0.0
 40
11.24078870440302
100
AcDbArc
 50
167.1497095760046
 51
192.8502904239955
  0
LINE
  5
3D65
330
18
100
AcDbEntity
  8
1
  6
Continuous
100
AcDbLine
 10
24.0650593346761
 20
116.4219247473934
 30
0.0
 11
24.0650593346761
 21
125.9219245520977
 31
0.0
  0
ARC
  5
3D66
330
18
100
AcDbEntity
  8
1
  6
Continuous
100
AcDbCircle
 10
17.93327731437426
 20
118.6719248542627
 30
0.0
 40
11.24078870440302
100
AcDbArc
 50
347.1497095760033
 51
12.85029042399419
  0
LINE
  5
3D67
330
18
100
AcDbEntity
  8
1
  6
Continuous
100
AcDbLine
 10
29.86505941942647
 20
115.6719247117701
 30
0.0
 11
29.86505941942658
 21
126.6719252342421
 31
0.0
  0
LINE
  5
3D68
330
18
100
AcDbEntity
  8
1
  6
Continuous
100
AcDbLine
 10
29.26505939092794
 20
126.671925234242
 30
0.0
 11
29.265059390928
 21
115.6719247117701
 31
0.0
  0
LINE
  5
3D69
330
18
100
AcDbEntity
  8
1
  6
Continuous
100
AcDbLine
 10
31.86505989589113
 20
115.1719246880213
 30
0.0
 11
31.86505989589113
 21
127.1719252579907
 31
0.0
  0
ARC
  5
3D6A
330
18
100
AcDbEntity
  8
1
  6
Continuous
100
AcDbCircle
 10
39.36506025212191
 20
107.5719239455709
 30
0.0
 40
5.500000261235891
100
AcDbArc
 50
159.2112386164197
 51
180.0
  0
LINE
  5
3D6B
330
18
100
AcDbEntity
  8
1
  6
Continuous
100
AcDbLine
 10
34.36506001463476
 20
109.6429918558072
 30
0.0
 11
34.28372258195952
 21
109.6766829235499
 31
0.0
  0
LINE
  5
3D6C
330
18
100
AcDbEntity
  8
1
  6
Continuous
100
AcDbLine
 10
34.22313578668081
 20
109.5240037762367
 30
0.0
 11
34.36506001463476
 21
109.4859752939701
 31
0.0
  0
ARC
  5
3D6D
330
18
100
AcDbEntity
  8
1
  6
Continuous
100
AcDbCircle
 10
39.36506025212203
 20
107.571923945571
 30
0.0
 40
5.500000261235925
100
AcDbArc
 50
155.55973128225
 51
157.4999999999968
  0
LINE
  5
3D6E
330
18
100
AcDbEntity
  8
1
  6
Continuous
100
AcDbLine
 10
33.86751287093193
 20
107.4076812435545
 30
0.0
 11
34.36506001463476
 21
107.4731845676905
 31
0.0
  0
LINE
  5
3D6F
330
18
100
AcDbEntity
  8
1
  6
Continuous
100
AcDbLine
 10
34.36506001463476
 20
107.5719239455709
 30
0.0
 11
33.86505999088603
 21
107.5719239455709
 31
0.0
  0
ARC
  5
3D70
330
18
100
AcDbEntity
  8
1
  6
Continuous
100
AcDbCircle
 10
39.36506025212203
 20
107.5719239455709
 30
0.0
 40
5.500000261236003
100
AcDbArc
 50
114.2112386164129
 51
134.9999999999996
  0
LINE
  5
3D71
330
18
100
AcDbEntity
  8
1
  6
Continuous
100
AcDbLine
 10
33.86505999088603
 20
115.1719247833888
 30
0.0
 11
33.86505999088603
 21
113.5719247073928
 31
0.0
  0
LINE
  5
3D72
330
18
100
AcDbEntity
  8
1
  6
Continuous
100
AcDbLine
 10
35.70480554424285
 20
111.2321786534502
 30
0.0
 11
35.47597277087425
 21
111.4610114268187
 31
0.0
  0
ARC
  5
3D73
330
18
100
AcDbEntity
  8
1
  6
Continuous
100
AcDbCircle
 10
39.36506025212203
 20
107.571923945571
 30
0.0
 40
5.500000261235925
100
AcDbArc
 50
136.7112386164081
 51
144.5185139585506
  0
LINE
  5
3D74
330
18
100
AcDbEntity
  8
1
  6
Continuous
100
AcDbLine
 10
35.36157009063242
 20
111.3431398503491
 30
0.0
 11
35.59146040579048
 21
111.1667388072534
 31
0.0
  0
ARC
  5
3D75
330
18
100
AcDbEntity
  8
1
  6
Continuous
100
AcDbCircle
 10
39.36506025212203
 20
107.571923945571
 30
0.0
 40
5.500000261235849
100
AcDbArc
 50
95.6045583214896
 51
112.5000000000035
  0
LINE
  5
3D76
330
18
100
AcDbEntity
  8
1
  6
Continuous
100
AcDbLine
 10
37.43513193574675
 20
112.231183061371
 30
0.0
 11
37.2603012741431
 21
112.6532616157334
 31
0.0
  0
LINE
  5
3D77
330
18
100
AcDbEntity
  8
1
  6
Continuous
100
AcDbLine
 10
37.1094994799414
 20
112.588142489115
 30
0.0
 11
37.34547556016605
 21
112.1794199287949
 31
0.0
  0
LINE
  5
3D78
330
18
100
AcDbEntity
  8
1
  6
Continuous
100
AcDbLine
 10
24.15605189756468
 20
116.1719247355188
 30
0.0
 11
24.06495909936171
 21
116.4222001416563
 31
0.0
  0
LINE
  5
3D79
330
18
100
AcDbEntity
  8
1
  6
Continuous
100
AcDbLine
 10
29.265059390928
 20
116.0300005075648
 30
0.0
 11
29.86505941942647
 21
116.0300005075648
 31
0.0
  0
LINE
  5
3D7A
330
18
100
AcDbEntity
  8
1
  6
Continuous
100
AcDbLine
 10
29.265059390928
 20
115.6719247117701
 30
0.0
 11
29.86505941942647
 21
115.6719247117701
 31
0.0
  0
LINE
  5
3D7B
330
18
100
AcDbEntity
  8
1
  6
Continuous
100
AcDbLine
 10
29.265059390928
 20
116.4219242233542
 30
0.0
 11
29.17406701877411
 21
116.1719247355188
 31
0.0
  0
LINE
  5
3D7C
330
18
100
AcDbEntity
  8
1
  6
Continuous
100
AcDbLine
 10
24.15605189756468
 20
116.1719247355188
 30
0.0
 11
29.17406701877411
 21
116.1719247355188
 31
0.0
  0
LINE
  5
3D7D
330
18
100
AcDbEntity
  8
2
  6
Continuous
100
AcDbLine
 10
29.86505941942658
 20
118.7134249730061
 30
0.0
 11
31.86505989589113
 21
118.7134249730061
 31
0.0
  0
LINE
  5
3D7E
330
18
100
AcDbEntity
  8
2
  6
Continuous
100
AcDbLine
 10
29.86505941942658
 20
123.630424973006
 30
0.0
 11
31.86505989589113
 21
123.630424973006
 31
0.0
  0
LINE
  5
3D7F
330
18
100
AcDbEntity
  8
1
  6
Continuous
100
AcDbLine
 10
31.86505989589113
 20
118.1719248305137
 30
0.0
 11
29.86505941942647
 21
118.1719248305137
 31
0.0
  0
LINE
  5
3D80
330
18
100
AcDbEntity
  8
1
  6
Continuous
100
AcDbLine
 10
29.86505941942647
 20
124.1719251154984
 30
0.0
 11
31.86505989589113
 21
124.1719251154984
 31
0.0
  0
ARC
  5
3D81
330
18
100
AcDbEntity
  8
1
  6
Continuous
100
AcDbCircle
 10
35.39684160196458
 20
123.6719250917495
 30
0.0
 40
11.24078870440302
100
AcDbArc
 50
167.149709576004
 51
192.8502904239946
  0
LINE
  5
3D82
330
18
100
AcDbEntity
  8
1
  6
Continuous
100
AcDbLine
 10
24.06505909936169
 20
125.9219245520977
 30
0.0
 11
24.15605189756462
 21
126.1719252104932
 31
0.0
  0
ARC
  5
3D83
330
18
100
AcDbEntity
  8
1
  6
Continuous
100
AcDbCircle
 10
17.93327731437426
 20
123.6719250917495
 30
0.0
 40
11.24078870440302
100
AcDbArc
 50
347.1497095760052
 51
12.850290423996
  0
LINE
  5
3D84
330
18
100
AcDbEntity
  8
1
  6
Continuous
100
AcDbLine
 10
29.26505939092794
 20
126.671925234242
 30
0.0
 11
29.86505941942658
 21
126.6719252342421
 31
0.0
  0
LINE
  5
3D85
330
18
100
AcDbEntity
  8
1
  6
Continuous
100
AcDbLine
 10
29.265059390928
 20
126.6694723541961
 30
0.0
 11
29.86505941942647
 21
126.6694723541961
 31
0.0
  0
LINE
  5
3D86
330
18
100
AcDbEntity
  8
1
  6
Continuous
100
AcDbLine
 10
29.265059390928
 20
126.2532626431685
 30
0.0
 11
29.86505941942647
 21
126.2532626431685
 31
0.0
  0
LINE
  5
3D87
330
18
100
AcDbEntity
  8
1
  6
Continuous
100
AcDbLine
 10
29.265059390928
 20
125.0610124542538
 30
0.0
 11
29.86505941942647
 21
125.0610124542538
 31
0.0
  0
LINE
  5
3D88
330
18
100
AcDbEntity
  8
1
  6
Continuous
100
AcDbLine
 10
29.265059390928
 20
124.9431408777842
 30
0.0
 11
29.86505941942647
 21
124.9431408777842
 31
0.0
  0
LINE
  5
3D89
330
18
100
AcDbEntity
  8
1
  6
Continuous
100
AcDbLine
 10
29.17406701877416
 20
126.1719252104932
 30
0.0
 11
29.265059390928
 21
125.9219257226579
 31
0.0
  0
LINE
  5
3D8A
330
18
100
AcDbEntity
  8
1
  6
Continuous
100
AcDbLine
 10
29.265059390928
 20
123.276683950985
 30
0.0
 11
29.86505941942647
 21
123.276683950985
 31
0.0
  0
LINE
  5
3D8B
330
18
100
AcDbEntity
  8
1
  6
Continuous
100
AcDbLine
 10
29.265059390928
 20
117.1684348115164
 30
0.0
 11
29.86505941942647
 21
117.1684348115164
 31
0.0
  0
LINE
  5
3D8C
330
18
100
AcDbEntity
  8
1
  6
Continuous
100
AcDbLine
 10
29.265059390928
 20
117.2828374917583
 30
0.0
 11
29.86505941942647
 21
117.2828374917583
 31
0.0
  0
LINE
  5
3D8D
330
18
100
AcDbEntity
  8
1
  6
Continuous
100
AcDbLine
 10
29.265059390928
 20
118.9163642008254
 30
0.0
 11
29.86505941942647
 21
118.9163642008254
 31
0.0
  0
LINE
  5
3D8E
330
18
100
AcDbEntity
  8
1
  6
Continuous
100
AcDbLine
 10
29.265059390928
 20
119.0671659950271
 30
0.0
 11
29.86505941942647
 21
119.0671659950271
 31
0.0
  0
LINE
  5
3D8F
330
18
100
AcDbEntity
  8
1
  6
Continuous
100
AcDbLine
 10
24.15605189756462
 20
126.1719252104932
 30
0.0
 11
29.17406701877416
 21
126.1719252104932
 31
0.0
  0
LINE
  5
3D90
330
18
100
AcDbEntity
  8
1
  6
Continuous
100
AcDbLine
 10
24.43758386691166
 20
121.1719249730059
 30
0.0
 11
28.89253504942718
 21
121.1719249730059
 31
0.0
  0
LINE
  5
3D91
330
18
100
AcDbEntity
  8
1
  6
Continuous
100
AcDbLine
 10
18.86505927842426
 20
124.1719251154984
 30
0.0
 11
18.8651592784243
 21
124.1720251154984
 31
0.0
  0
LINE
  5
3D92
330
18
100
AcDbEntity
  8
1
  6
Continuous
100
AcDbLine
 10
18.86495927842423
 20
124.1719251154984
 30
0.0
 11
18.86505927842426
 21
124.1719251154984
 31
0.0
  0
LINE
  5
3D93
330
18
100
AcDbEntity
  8
1
  6
Continuous
100
AcDbLine
 10
17.86505923092681
 20
123.171925068001
 30
0.0
 11
18.86505927842426
 21
124.1719251154984
 31
0.0
  0
LINE
  5
3D94
330
18
100
AcDbEntity
  8
1
  6
Continuous
100
AcDbLine
 10
18.86505927842426
 20
118.1719248305137
 30
0.0
 11
17.86505923092681
 21
119.1719248780111
 31
0.0
  0
LINE
  5
3D95
330
18
100
AcDbEntity
  8
1
  6
Continuous
100
AcDbLine
 10
18.8651592784243
 20
118.1718248305137
 30
0.0
 11
18.86505927842426
 21
118.1719248305137
 31
0.0
  0
LINE
  5
3D96
330
18
100
AcDbEntity
  8
1
  6
Continuous
100
AcDbLine
 10
18.86505927842426
 20
118.1719248305137
 30
0.0
 11
18.86495927842423
 21
118.1719248305137
 31
0.0
  0
LINE
  5
3D97
330
18
100
AcDbEntity
  8
1
  6
Continuous
100
AcDbLine
 10
17.86505923092681
 20
119.1719248780111
 30
0.0
 11
17.86505923092681
 21
123.171925068001
 31
0.0
  0
LINE
  5
3D98
330
18
100
AcDbEntity
  8
1
  6
Continuous
100
AcDbLine
 10
18.86505927842426
 20
118.1719248305137
 30
0.0
 11
18.86505927842426
 21
124.1719251154984
 31
0.0
  0
CIRCLE
  5
3D99
330
18
100
AcDbEntity
  8
2
  6
Continuous
100
AcDbCircle
 10
39.36506031951944
 20
134.771926000441
 30
0.0
 40
2.458499999999999
  0
CIRCLE
  5
3D9A
330
18
100
AcDbEntity
  8
1
  6
Continuous
100
AcDbCircle
 10
39.36506025212203
 20
134.771925217788
 30
0.0
 40
3.0
  0
LINE
  5
3D9B
330
18
100
AcDbEntity
  8
1
  6
Continuous
100
AcDbLine
 10
34.36506001463476
 20
131.8851737347267
 30
0.0
 11
39.36506025212191
 21
128.9984222516652
 31
0.0
  0
CIRCLE
  5
3D9C
330
18
100
AcDbEntity
  8
1
  6
Continuous
100
AcDbCircle
 10
39.36506025212203
 20
134.771925217788
 30
0.0
 40
4.75
  0
LINE
  5
3D9D
330
18
100
AcDbEntity
  8
1
  6
Continuous
100
AcDbLine
 10
39.36506025212203
 20
140.5454281839107
 30
0.0
 11
34.36506001463488
 21
137.6586767008491
 31
0.0
  0
LINE
  5
3D9E
330
18
100
AcDbEntity
  8
4
  6
CENTER
 48
0.15
100
AcDbLine
 10
48.36506131975955
 20
134.7719240438083
 30
0.0
 11
30.36505996713731
 21
134.7719263917676
 31
0.0
  0
LINE
  5
3D9F
330
18
100
AcDbEntity
  8
1
  6
Continuous
100
AcDbLine
 10
33.36505996713731
 20
140.7719262854258
 30
0.0
 11
45.36506053710672
 21
140.7719262854258
 31
0.0
  0
LINE
  5
3DA0
330
18
100
AcDbEntity
  8
1
  6
Continuous
100
AcDbLine
 10
33.36505996713731
 20
128.7719257154564
 30
0.0
 11
45.36506053710672
 21
128.7719257154564
 31
0.0
  0
ARC
  5
3DA1
330
18
100
AcDbEntity
  8
1
  6
Continuous
100
AcDbCircle
 10
39.36506025212203
 20
134.7719260004412
 30
0.0
 40
5.500000261235925
100
AcDbArc
 50
35.48145499957569
 51
43.28876138359189
  0
LINE
  5
3DA2
330
18
100
AcDbEntity
  8
1
  6
Continuous
100
AcDbLine
 10
39.36506025212203
 20
140.5454281839109
 30
0.0
 11
44.36506048960928
 21
137.6586767008493
 31
0.0
  0
LINE
  5
3DA3
330
18
100
AcDbEntity
  8
1
  6
Continuous
100
AcDbLine
 10
45.36506053710672
 20
140.7719262854258
 30
0.0
 11
45.36506053710672
 21
128.7719257154564
 31
0.0
  0
ARC
  5
3DA4
330
18
100
AcDbEntity
  8
1
  6
Continuous
100
AcDbCircle
 10
39.36506025212203
 20
134.7719260004412
 30
0.0
 40
5.500000261235925
100
AcDbArc
 50
22.50000000000321
 51
24.44026871775087
  0
LINE
  5
3DA5
330
18
100
AcDbEntity
  8
1
  6
Continuous
100
AcDbLine
 10
44.50698471756322
 20
136.7240058311069
 30
0.0
 11
44.36506048960928
 21
136.6859773488402
 31
0.0
  0
LINE
  5
3DA6
330
18
100
AcDbEntity
  8
1
  6
Continuous
100
AcDbLine
 10
44.36506048960928
 20
136.8429939106774
 30
0.0
 11
44.44639792228453
 21
136.8766849784201
 31
0.0
  0
ARC
  5
3DA7
330
18
100
AcDbEntity
  8
1
  6
Continuous
100
AcDbCircle
 10
39.36506025212203
 20
134.7719260004411
 30
0.0
 40
5.500000261236003
100
AcDbArc
 50
314.9999999999997
 51
324.4120114075556
  0
ARC
  5
3DA8
330
18
100
AcDbEntity
  8
1
  6
Continuous
100
AcDbCircle
 10
39.36506025212203
 20
134.7719260004411
 30
0.0
 40
5.500000261236003
100
AcDbArc
 50
335.4246765460136
 51
335.7887613835869
  0
LINE
  5
3DA9
330
18
100
AcDbEntity
  8
1
  6
Continuous
100
AcDbLine
 10
43.0253149600012
 20
131.111671292562
 30
0.0
 11
43.25414773336979
 21
130.8828385191934
 31
0.0
  0
LINE
  5
3DAA
330
18
100
AcDbEntity
  8
1
  6
Continuous
100
AcDbLine
 10
44.36506048960928
 20
132.7008580902048
 30
0.0
 11
44.44639792228453
 21
132.6671670224621
 31
0.0
  0
LINE
  5
3DAB
330
18
100
AcDbEntity
  8
1
  6
Continuous
100
AcDbLine
 10
44.38127879566605
 20
132.5163652282604
 30
0.0
 11
44.36506048960928
 21
132.5257288716282
 31
0.0
  0
ARC
  5
3DAC
330
18
100
AcDbEntity
  8
1
  6
Continuous
100
AcDbCircle
 10
39.36506025212203
 20
134.7719260004411
 30
0.0
 40
5.500000261235925
100
AcDbArc
 50
292.5000000000031
 51
313.2887613835918
  0
LINE
  5
3DAD
330
18
100
AcDbEntity
  8
1
  6
Continuous
100
AcDbLine
 10
41.31714008278777
 20
129.6300015349998
 30
0.0
 11
41.20216945843536
 21
130.0590777464611
 31
0.0
  0
LINE
  5
3DAE
330
18
100
AcDbEntity
  8
1
  6
Continuous
100
AcDbLine
 10
41.29498856849716
 20
130.1126668846412
 30
0.0
 11
41.46981923010094
 21
129.6905883302786
 31
0.0
  0
ARC
  5
3DAF
330
18
100
AcDbEntity
  8
1
  6
Continuous
100
AcDbCircle
 10
39.36506025212203
 20
134.771926000441
 30
0.0
 40
5.500000261235891
100
AcDbArc
 50
275.5287922859899
 51
290.7887613835801
  0
LINE
  5
3DB0
330
18
100
AcDbEntity
  8
1
  6
Continuous
100
AcDbLine
 10
43.13627615690018
 20
130.7684358389515
 30
0.0
 11
42.91969410542264
 21
131.0506910637391
 31
0.0
  0
LINE
  5
3DB1
330
18
100
AcDbEntity
  8
1
  6
Continuous
100
AcDbLine
 10
44.36506048960915
 20
131.8851737347269
 30
0.0
 11
39.36506025212203
 21
128.9984222516653
 31
0.0
  0
LINE
  5
3DB2
330
18
100
AcDbEntity
  8
1
  6
Continuous
100
AcDbLine
 10
44.36506048960928
 20
137.6586767008493
 30
0.0
 11
44.36506048960928
 21
131.8851737347267
 31
0.0
  0
ARC
  5
3DB3
330
18
100
AcDbEntity
  8
1
  6
Continuous
100
AcDbCircle
 10
39.36506025212214
 20
134.7719260004411
 30
0.0
 40
5.500000261235891
100
AcDbArc
 50
0.000000000000007
 51
20.78876138358026
  0
ARC
  5
3DB4
330
18
100
AcDbEntity
  8
1
  6
Continuous
100
AcDbCircle
 10
39.36506025212214
 20
134.7719260004411
 30
0.0
 40
5.500000261235849
100
AcDbArc
 50
337.4999999999968
 51
358.2887613835857
  0
LINE
  5
3DB5
330
18
100
AcDbEntity
  8
1
  6
Continuous
100
AcDbLine
 10
44.36506048960928
 20
134.7719260004411
 30
0.0
 11
44.865060513358
 21
134.7719260004411
 31
0.0
  0
LINE
  5
3DB6
330
18
100
AcDbEntity
  8
1
  6
Continuous
100
AcDbLine
 10
44.86260763331211
 20
134.6076832984247
 30
0.0
 11
44.36506048960928
 21
134.6731866225608
 31
0.0
  0
ARC
  5
3DB7
330
18
100
AcDbEntity
  8
1
  6
Continuous
100
AcDbCircle
 10
39.36506025212203
 20
134.7719260004411
 30
0.0
 40
5.500000261236003
100
AcDbArc
 50
45.00000000000028
 51
65.788761383587
  0
LINE
  5
3DB8
330
18
100
AcDbEntity
  8
1
  6
Continuous
100
AcDbLine
 10
41.62062102430263
 20
139.7881445439852
 30
0.0
 11
41.38464426628046
 21
139.3794208096854
 31
0.0
  0
LINE
  5
3DB9
330
18
100
AcDbEntity
  8
1
  6
Continuous
100
AcDbLine
 10
41.29498804525711
 20
139.4311838530278
 30
0.0
 11
41.46981923010094
 21
139.8532636706036
 31
0.0
  0
LINE
  5
3DBA
330
18
100
AcDbEntity
  8
1
  6
Continuous
100
AcDbLine
 10
43.36855041361161
 20
138.5431419052193
 30
0.0
 11
43.13865893437787
 21
138.3667399688968
 31
0.0
  0
LINE
  5
3DBB
330
18
100
AcDbEntity
  8
1
  6
Continuous
100
AcDbLine
 10
43.02531396763686
 20
138.432179715956
 30
0.0
 11
43.25414773336979
 21
138.6610134816889
 31
0.0
  0
ARC
  5
3DBC
330
18
100
AcDbEntity
  8
1
  6
Continuous
100
AcDbCircle
 10
39.36506025212203
 20
134.7719260004412
 30
0.0
 40
5.500000261235849
100
AcDbArc
 50
67.49999999999643
 51
84.39547532401698
  0
ARC
  5
3DBD
330
18
100
AcDbEntity
  8
1
  6
Continuous
100
AcDbCircle
 10
39.36506025212203
 20
134.7719260004411
 30
0.0
 40
5.500000261236003
100
AcDbArc
 50
134.9999999999996
 51
144.4120443238274
  0
LINE
  5
3DBE
330
18
100
AcDbEntity
  8
1
  6
Continuous
100
AcDbLine
 10
33.36505996713731
 20
140.7719262854258
 30
0.0
 11
33.36505996713731
 21
128.7719257154564
 31
0.0
  0
ARC
  5
3DBF
330
18
100
AcDbEntity
  8
1
  6
Continuous
100
AcDbCircle
 10
39.36506025212191
 20
134.7719260004412
 30
0.0
 40
5.500000261235849
100
AcDbArc
 50
157.499999999996
 51
178.2887613835857
  0
ARC
  5
3DC0
330
18
100
AcDbEntity
  8
1
  6
Continuous
100
AcDbCircle
 10
39.36506025212203
 20
134.7719260004411
 30
0.0
 40
5.500000261236003
100
AcDbArc
 50
155.4246765460145
 51
155.788761383587
  0
LINE
  5
3DC1
330
18
100
AcDbEntity
  8
1
  6
Continuous
100
AcDbLine
 10
34.36506001463476
 20
134.7719260004411
 30
0.0
 11
33.86505999088603
 21
134.7719260004411
 31
0.0
  0
LINE
  5
3DC2
330
18
100
AcDbEntity
  8
1
  6
Continuous
100
AcDbLine
 10
34.34884170857799
 20
137.0274867726218
 30
0.0
 11
34.36506001463476
 21
137.0181231292541
 31
0.0
  0
LINE
  5
3DC3
330
18
100
AcDbEntity
  8
1
  6
Continuous
100
AcDbLine
 10
34.36506001463476
 20
136.8429939106774
 30
0.0
 11
34.28372258195952
 21
136.8766849784201
 31
0.0
  0
LINE
  5
3DC4
330
18
100
AcDbEntity
  8
1
  6
Continuous
100
AcDbLine
 10
33.86751287093193
 20
134.9361687024575
 30
0.0
 11
34.36506001463476
 21
134.8706653783215
 31
0.0
  0
ARC
  5
3DC5
330
18
100
AcDbEntity
  8
1
  6
Continuous
100
AcDbCircle
 10
39.36506025212203
 20
134.7719260004411
 30
0.0
 40
5.500000261235925
100
AcDbArc
 50
202.5000000000032
 51
204.44026871775
  0
ARC
  5
3DC6
330
18
100
AcDbEntity
  8
1
  6
Continuous
100
AcDbCircle
 10
39.36506025212203
 20
134.7719260004411
 30
0.0
 40
5.500000261235925
100
AcDbArc
 50
215.4814860414492
 51
223.2887613835918
  0
LINE
  5
3DC7
330
18
100
AcDbEntity
  8
1
  6
Continuous
100
AcDbLine
 10
34.22313578668081
 20
132.8198461697753
 30
0.0
 11
34.36506001463476
 21
132.857874652042
 31
0.0
  0
LINE
  5
3DC8
330
18
100
AcDbEntity
  8
1
  6
Continuous
100
AcDbLine
 10
34.36506001463476
 20
132.7008580902048
 30
0.0
 11
34.28372258195952
 21
132.6671670224621
 31
0.0
  0
LINE
  5
3DC9
330
18
100
AcDbEntity
  8
1
  6
Continuous
100
AcDbLine
 10
35.36157009063242
 20
131.000710095663
 30
0.0
 11
35.59146040579048
 21
131.1771111387587
 31
0.0
  0
LINE
  5
3DCA
330
18
100
AcDbEntity
  8
1
  6
Continuous
100
AcDbLine
 10
35.70480554424285
 20
131.1116712925619
 30
0.0
 11
35.47597277087425
 21
130.8828385191934
 31
0.0
  0
ARC
  5
3DCB
330
18
100
AcDbEntity
  8
1
  6
Continuous
100
AcDbCircle
 10
39.36506025212191
 20
134.7719260004411
 30
0.0
 40
5.500000261235891
100
AcDbArc
 50
180.0
 51
200.7887613835802
  0
ARC
  5
3DCC
330
18
100
AcDbEntity
  8
1
  6
Continuous
100
AcDbCircle
 10
39.36506025212203
 20
134.7719260004411
 30
0.0
 40
5.500000261236003
100
AcDbArc
 50
225.0000000000003
 51
245.788761383587
  0
LINE
  5
3DCD
330
18
100
AcDbEntity
  8
1
  6
Continuous
100
AcDbLine
 10
34.36506001463476
 20
137.6586767008493
 30
0.0
 11
34.36506001463476
 21
131.8851737347267
 31
0.0
  0
ARC
  5
3DCE
330
18
100
AcDbEntity
  8
1
  6
Continuous
100
AcDbCircle
 10
39.36506025212203
 20
134.771926000441
 30
0.0
 40
5.500000261235849
100
AcDbArc
 50
247.4999999999964
 51
264.3954416785104
  0
LINE
  5
3DCF
330
18
100
AcDbEntity
  8
1
  6
Continuous
100
AcDbLine
 10
37.43513193574675
 20
130.112666884641
 30
0.0
 11
37.2603012741431
 21
129.6905883302786
 31
0.0
  0
LINE
  5
3DD0
330
18
100
AcDbEntity
  8
1
  6
Continuous
100
AcDbLine
 10
37.1094994799414
 20
129.755707456897
 30
0.0
 11
37.34547556016605
 21
130.1644300172172
 31
0.0
  0
LINE
  5
3DD1
330
18
100
AcDbEntity
  8
1
  6
Continuous
100
AcDbLine
 10
35.59384434734386
 20
138.7754161619307
 30
0.0
 11
35.81042723117628
 21
138.4931598523972
 31
0.0
  0
LINE
  5
3DD2
330
18
100
AcDbEntity
  8
1
  6
Continuous
100
AcDbLine
 10
35.70480653660729
 20
138.4321797159558
 30
0.0
 11
35.47597277087425
 21
138.6610134816889
 31
0.0
  0
ARC
  5
3DD3
330
18
100
AcDbEntity
  8
1
  6
Continuous
100
AcDbCircle
 10
39.36506025212203
 20
134.7719260004412
 30
0.0
 40
5.500000261235891
100
AcDbArc
 50
95.52876060562201
 51
110.7887613835802
  0
LINE
  5
3DD4
330
18
100
AcDbEntity
  8
1
  6
Continuous
100
AcDbLine
 10
37.41298042145628
 20
139.9138504658824
 30
0.0
 11
37.52795140903924
 21
139.4847728988261
 31
0.0
  0
LINE
  5
3DD5
330
18
100
AcDbEntity
  8
1
  6
Continuous
100
AcDbLine
 10
37.43513245898702
 20
139.4311838530276
 30
0.0
 11
37.2603012741431
 21
139.8532636706036
 31
0.0
  0
ARC
  5
3DD6
330
18
100
AcDbEntity
  8
1
  6
Continuous
100
AcDbCircle
 10
39.36506025212203
 20
134.7719260004412
 30
0.0
 40
5.500000261235925
100
AcDbArc
 50
112.5000000000031
 51
133.2887613835918
  0
LINE
  5
3DD7
330
18
100
AcDbEntity
  8
4
  6
CENTER
 48
0.15
100
AcDbLine
 10
47.86516108332746
 20
121.171924973006
 30
0.0
 11
14.86495923092678
 21
121.171924973006
 31
0.0
  0
LINE
  5
3DD8
330
18
100
AcDbEntity
  8
4
  6
CENTER
 48
0.15
100
AcDbLine
 10
39.36506025212203
 20
98.57192366058626
 30
0.0
 11
39.36506025212203
 21
143.7719262854258
 31
0.0
  0
LINE
  5
3DF6
330
18
100
AcDbEntity
  8
1
  6
Continuous
100
AcDbLine
 10
202.6205138788459
 20
101.5719244432393
 30
0.0
 11
216.1205145200615
 21
101.5719244432393
 31
0.0
  0
LINE
  5
3DF7
330
18
100
AcDbEntity
  8
1
  6
Continuous
100
AcDbLine
 10
202.6205138788459
 20
113.5719250132087
 30
0.0
 11
216.1205145200615
 21
113.5719250132087
 31
0.0
  0
LINE
  5
3DF8
330
18
100
AcDbEntity
  8
1
  6
Continuous
100
AcDbLine
 10
202.6205138788459
 20
101.5719244432393
 30
0.0
 11
202.6205138788459
 21
113.5719250132087
 31
0.0
  0
LINE
  5
3DF9
330
18
100
AcDbEntity
  8
1
  6
Continuous
100
AcDbLine
 10
205.6205140213382
 20
101.5719244432393
 30
0.0
 11
205.6205140213382
 21
113.5719250132087
 31
0.0
  0
LINE
  5
3DFA
330
18
100
AcDbEntity
  8
1
  6
Continuous
100
AcDbLine
 10
218.7205150250246
 20
113.0694721094142
 30
0.0
 11
218.7205150250246
 21
102.071924466988
 31
0.0
  0
LINE
  5
3DFB
330
18
100
AcDbEntity
  8
1
  6
Continuous
100
AcDbLine
 10
218.1205149965261
 20
102.071924466988
 30
0.0
 11
218.1205149965261
 21
113.0694721094142
 31
0.0
  0
ARC
  5
3DFC
330
18
100
AcDbEntity
  8
1
  6
Continuous
100
AcDbCircle
 10
222.6522816177408
 20
103.2417982862851
 30
0.0
 40
3.840773220860136
100
AcDbArc
 50
157.926021722099
 51
202.0739782779022
  0
LINE
  5
3DFD
330
18
100
AcDbEntity
  8
1
  6
Continuous
100
AcDbLine
 10
223.9205150812765
 20
112.3219257364899
 30
0.0
 11
223.9205150812766
 21
102.8219252852645
 31
0.0
  0
ARC
  5
3DFE
330
18
100
AcDbEntity
  8
1
  6
Continuous
100
AcDbCircle
 10
219.9887482978256
 20
103.2417982862851
 30
0.0
 40
3.840773220860136
100
AcDbArc
 50
337.9260217220978
 51
22.07397827790101
  0
LINE
  5
3DFF
330
18
100
AcDbEntity
  8
1
  6
Continuous
100
AcDbLine
 10
216.1205145200615
 20
101.5719244432393
 30
0.0
 11
216.1205145200615
 21
113.5719250132087
 31
0.0
  0
LINE
  5
3E00
330
18
100
AcDbEntity
  8
1
  6
Continuous
100
AcDbLine
 10
223.5479905490409
 20
113.345428477
 30
0.0
 11
219.0930393665254
 21
113.345428477
 31
0.0
  0
LINE
  5
3E01
330
18
100
AcDbEntity
  8
1
  6
Continuous
100
AcDbLine
 10
223.5479905490409
 20
110.4586769939385
 30
0.0
 11
219.0930393665256
 21
110.4586769939385
 31
0.0
  0
LINE
  5
3E02
330
18
100
AcDbEntity
  8
1
  6
Continuous
100
AcDbLine
 10
223.5479905490409
 20
104.685174027816
 30
0.0
 11
219.0930393665255
 21
104.685174027816
 31
0.0
  0
LINE
  5
3E03
330
18
100
AcDbEntity
  8
1
  6
Continuous
100
AcDbLine
 10
219.0930393665255
 20
113.345428477
 30
0.0
 11
218.7205150250246
 21
112.3219262605291
 31
0.0
  0
LINE
  5
3E04
330
18
100
AcDbEntity
  8
1
  6
Continuous
100
AcDbLine
 10
219.093075763549
 20
113.345528477
 30
0.0
 11
219.0930393665255
 21
113.345428477
 31
0.0
  0
LINE
  5
3E05
330
18
100
AcDbEntity
  8
1
  6
Continuous
100
AcDbLine
 10
218.7205150250246
 20
112.6532623983865
 30
0.0
 11
218.1205149965261
 21
112.6532623983865
 31
0.0
  0
LINE
  5
3E06
330
18
100
AcDbEntity
  8
1
  6
Continuous
100
AcDbLine
 10
218.7205150250246
 20
113.0694721094142
 30
0.0
 11
218.1205149965261
 21
113.0694721094142
 31
0.0
  0
LINE
  5
3E07
330
18
100
AcDbEntity
  8
1
  6
Continuous
100
AcDbLine
 10
218.7205150250246
 20
113.07192498946
 30
0.0
 11
218.1205149965261
 21
113.07192498946
 31
0.0
  0
LINE
  5
3E08
330
18
100
AcDbEntity
  8
1
  6
Continuous
100
AcDbLine
 10
218.7205150250246
 20
113.0694721094142
 30
0.0
 11
218.7205150250246
 21
113.07192498946
 31
0.0
  0
LINE
  5
3E09
330
18
100
AcDbEntity
  8
1
  6
Continuous
100
AcDbLine
 10
218.1205149965261
 20
113.0694721094142
 30
0.0
 11
218.1205149965261
 21
113.07192498946
 31
0.0
  0
LINE
  5
3E0A
330
18
100
AcDbEntity
  8
1
  6
Continuous
100
AcDbLine
 10
218.7205150250246
 20
109.5240045588898
 30
0.0
 11
218.1205149965261
 21
109.5240045588898
 31
0.0
  0
LINE
  5
3E0B
330
18
100
AcDbEntity
  8
1
  6
Continuous
100
AcDbLine
 10
218.7205150250246
 20
109.676683706203
 30
0.0
 11
218.1205149965261
 21
109.676683706203
 31
0.0
  0
LINE
  5
3E0C
330
18
100
AcDbEntity
  8
1
  6
Continuous
100
AcDbLine
 10
218.7205150250246
 20
111.3431406330022
 30
0.0
 11
218.1205149965261
 21
111.3431406330022
 31
0.0
  0
LINE
  5
3E0D
330
18
100
AcDbEntity
  8
1
  6
Continuous
100
AcDbLine
 10
218.7205150250246
 20
111.4610122094718
 30
0.0
 11
218.1205149965261
 21
111.4610122094718
 31
0.0
  0
LINE
  5
3E0E
330
18
100
AcDbEntity
  8
1
  6
Continuous
100
AcDbLine
 10
218.7205150250246
 20
107.571924728224
 30
0.0
 11
218.1205149965261
 21
107.571924728224
 31
0.0
  0
LINE
  5
3E0F
330
18
100
AcDbEntity
  8
1
  6
Continuous
100
AcDbLine
 10
218.7205150250246
 20
107.4076820262076
 30
0.0
 11
218.1205149965261
 21
107.4076820262076
 31
0.0
  0
LINE
  5
3E10
330
18
100
AcDbEntity
  8
1
  6
Continuous
100
AcDbLine
 10
218.7205150250246
 20
105.4671657502451
 30
0.0
 11
218.1205149965261
 21
105.4671657502451
 31
0.0
  0
LINE
  5
3E11
330
18
100
AcDbEntity
  8
1
  6
Continuous
100
AcDbLine
 10
218.7205150250246
 20
105.3163639560434
 30
0.0
 11
218.1205149965261
 21
105.3163639560434
 31
0.0
  0
ARC
  5
3E12
330
18
100
AcDbEntity
  8
1
  6
Continuous
100
AcDbCircle
 10
233.7523048261031
 20
107.5719255108771
 30
0.0
 40
14.94079642921764
100
AcDbArc
 50
168.859667149054
 51
191.1403328509446
  0
ARC
  5
3E13
330
18
100
AcDbEntity
  8
1
  6
Continuous
100
AcDbCircle
 10
222.6523078953933
 20
111.9020578609343
 30
0.0
 40
3.840799498515785
100
AcDbArc
 50
157.9246534276196
 51
202.0739018178839
  0
LINE
  5
3E14
330
18
100
AcDbEntity
  8
1
  6
Continuous
100
AcDbLine
 10
218.1205149965261
 20
110.5719248707164
 30
0.0
 11
216.1205145200615
 21
110.5719248707164
 31
0.0
  0
LINE
  5
3E15
330
18
100
AcDbEntity
  8
1
  6
Continuous
100
AcDbLine
 10
216.1205145200615
 20
104.5719245857317
 30
0.0
 11
218.1205149965261
 21
104.5719245857317
 31
0.0
  0
LINE
  5
3E16
330
18
100
AcDbEntity
  8
2
  6
Continuous
 48
0.2
100
AcDbLine
 10
218.1205149965261
 20
110.030424728224
 30
0.0
 11
216.1205145200615
 21
110.030424728224
 31
0.0
  0
LINE
  5
3E17
330
18
100
AcDbEntity
  8
2
  6
Continuous
 48
0.2
100
AcDbLine
 10
218.1205149965261
 20
105.113424728224
 30
0.0
 11
216.1205145200615
 21
105.113424728224
 31
0.0
  0
LINE
  5
3E18
330
18
100
AcDbEntity
  8
1
  6
Continuous
100
AcDbLine
 10
226.120514995036
 20
109.5719248232189
 30
0.0
 11
226.120514995036
 21
105.5719246332291
 31
0.0
  0
LINE
  5
3E19
330
18
100
AcDbEntity
  8
1
  6
Continuous
100
AcDbLine
 10
225.1205158558601
 20
110.5719239623948
 30
0.0
 11
225.12051585586
 21
104.5719245857317
 31
0.0
  0
LINE
  5
3E1A
330
18
100
AcDbEntity
  8
1
  6
Continuous
100
AcDbLine
 10
225.1205149475385
 20
110.5719248707164
 30
0.0
 11
225.1204158558601
 21
110.5720239623948
 31
0.0
  0
LINE
  5
3E1B
330
18
100
AcDbEntity
  8
1
  6
Continuous
100
AcDbLine
 10
225.1205149475385
 20
104.5719245857317
 30
0.0
 11
225.12061585586
 21
104.5719245857317
 31
0.0
  0
LINE
  5
3E1C
330
18
100
AcDbEntity
  8
1
  6
Continuous
100
AcDbLine
 10
225.1204149475385
 20
104.5718245857317
 30
0.0
 11
225.1205149475385
 21
104.5719245857317
 31
0.0
  0
LINE
  5
3E1D
330
18
100
AcDbEntity
  8
1
  6
Continuous
100
AcDbLine
 10
226.120614995036
 20
109.5718248232189
 30
0.0
 11
225.1205149475385
 21
110.5719248707164
 31
0.0
  0
LINE
  5
3E1E
330
18
100
AcDbEntity
  8
1
  6
Continuous
100
AcDbLine
 10
225.1205149475385
 20
104.5719245857317
 30
0.0
 11
226.120514995036
 21
105.5719246332291
 31
0.0
  0
LINE
  5
3E1F
330
18
100
AcDbEntity
  8
1
  6
Continuous
100
AcDbLine
 10
223.9206153165909
 20
112.3216503422269
 30
0.0
 11
223.5479905490409
 21
113.345428477
 31
0.0
  0
ARC
  5
3E20
330
18
100
AcDbEntity
  8
1
  6
Continuous
100
AcDbCircle
 10
208.8887250894633
 20
107.5719255108771
 30
0.0
 40
14.94079642921764
100
AcDbArc
 50
348.8596671490551
 51
11.14033285094582
  0
ARC
  5
3E21
330
18
100
AcDbEntity
  8
1
  6
Continuous
100
AcDbCircle
 10
219.988722020173
 20
111.9020578609343
 30
0.0
 40
3.840799498515785
100
AcDbArc
 50
337.926098182116
 51
22.07534657238029
  0
LINE
  5
3E22
330
18
100
AcDbEntity
  8
1
  6
Continuous
100
AcDbLine
 10
223.5479905490409
 20
113.345428477
 30
0.0
 11
223.5479541520175
 21
113.345528477
 31
0.0
  0
LINE
  5
3E23
330
18
100
AcDbEntity
  8
1
  6
Continuous
100
AcDbLine
 10
225.1205158558601
 20
110.5719248707164
 30
0.0
 11
223.9205150812765
 21
110.5719248707164
 31
0.0
  0
LINE
  5
3E24
330
18
100
AcDbEntity
  8
1
  6
Continuous
100
AcDbLine
 10
223.9205150812765
 20
104.5719245857317
 30
0.0
 11
225.12051585586
 21
104.5719245857317
 31
0.0
  0
LINE
  5
3E25
330
18
100
AcDbEntity
  8
2
  6
Continuous
 48
0.2
100
AcDbLine
 10
225.6620150900308
 20
105.113424728224
 30
0.0
 11
223.9205150812766
 21
105.113424728224
 31
0.0
  0
LINE
  5
3E26
330
18
100
AcDbEntity
  8
2
  6
Continuous
 48
0.2
100
AcDbLine
 10
225.6620150900308
 20
110.030424728224
 30
0.0
 11
223.9205150812766
 21
110.030424728224
 31
0.0
  0
LINE
  5
3E27
330
18
100
AcDbEntity
  8
1
  6
Continuous
100
AcDbLine
 10
223.5479905490409
 20
101.7984225447543
 30
0.0
 11
219.0930393665254
 21
101.7984225447543
 31
0.0
  0
LINE
  5
3E28
330
18
100
AcDbEntity
  8
1
  6
Continuous
100
AcDbLine
 10
218.7205150250246
 20
102.821924761225
 30
0.0
 11
219.0930393665256
 21
101.7984225447543
 31
0.0
  0
LINE
  5
3E29
330
18
100
AcDbEntity
  8
1
  6
Continuous
100
AcDbLine
 10
218.7205150250246
 20
103.6828372469763
 30
0.0
 11
218.1205149965261
 21
103.6828372469763
 31
0.0
  0
LINE
  5
3E2A
330
18
100
AcDbEntity
  8
1
  6
Continuous
100
AcDbLine
 10
218.7205150250246
 20
103.5684345667344
 30
0.0
 11
218.1205149965261
 21
103.5684345667344
 31
0.0
  0
LINE
  5
3E2B
330
18
100
AcDbEntity
  8
1
  6
Continuous
100
AcDbLine
 10
219.0930393665256
 20
101.7984225447543
 30
0.0
 11
219.093075763549
 21
101.7983225447543
 31
0.0
  0
LINE
  5
3E2C
330
18
100
AcDbEntity
  8
1
  6
Continuous
100
AcDbLine
 10
218.7205150250246
 20
102.071924466988
 30
0.0
 11
218.1205149965261
 21
102.071924466988
 31
0.0
  0
LINE
  5
3E2D
330
18
100
AcDbEntity
  8
1
  6
Continuous
100
AcDbLine
 10
218.7205150250246
 20
102.4300002627828
 30
0.0
 11
218.1205149965261
 21
102.4300002627828
 31
0.0
  0
LINE
  5
3E2E
330
18
100
AcDbEntity
  8
1
  6
Continuous
100
AcDbLine
 10
223.5479905490409
 20
101.7984225447543
 30
0.0
 11
223.9205150812766
 21
102.8219252852645
 31
0.0
  0
LINE
  5
3E2F
330
18
100
AcDbEntity
  8
1
  6
Continuous
100
AcDbLine
 10
223.5479541520175
 20
101.7983225447542
 30
0.0
 11
223.5479905490409
 21
101.7984225447543
 31
0.0
  0
LINE
  5
3E30
330
18
100
AcDbEntity
  8
4
  6
CENTER
 48
0.15
100
AcDbLine
 10
229.1205149950359
 20
107.571924728224
 30
0.0
 11
199.6205138788459
 21
107.571924728224
 31
0.0
  0
LINE
  5
3FAD
330
18
100
AcDbEntity
  8
4
  6
CENTER
 48
0.15
100
AcDbLine
 10
140.1799978102816
 20
107.5719260231112
 30
0.0
 11
158.1799991629038
 21
107.5719236751519
 31
0.0
  0
ENDSEC
  0
SECTION
  2
OBJECTS
  0
DICTIONARY
  5
C
330
0
100
AcDbDictionary
281
     1
  3
ACAD_CIP_PREVIOUS_PRODUCT_INFO
350
408F
  3
ACAD_COLOR
350
4072
  3
ACAD_DETAILVIEWSTYLE
350
408B
  3
ACAD_GROUP
350
D
  3
ACAD_LAYOUT
350
94
  3
ACAD_MATERIAL
350
4040
  3
ACAD_MLEADERSTYLE
350
4087
  3
ACAD_MLINESTYLE
350
1B
  3
ACAD_PLOTSETTINGS
350
95
  3
ACAD_PLOTSTYLENAME
350
403E
  3
ACAD_SCALELIST
350
4075
  3
ACAD_SECTIONVIEWSTYLE
350
4089
  3
ACAD_TABLESTYLE
350
4073
  3
ACAD_VISUALSTYLE
350
4059
  3
ACDB_RECOMPOSE_DATA
350
40AD
  3
AcDbVariableDictionary
350
40A0
  3
CONTENTDICTIONARY
350
3D
  3
DWGPROPS
350
40AE
  0
DICTIONARY
  5
4090
330
E
100
AcDbDictionary
280
     1
281
     1
  3
ADSK_XREC_LAYER_RECONCILED
360
4091
  0
DICTIONARY
  5
4092
330
4E
100
AcDbDictionary
280
     1
281
     1
  3
ADSK_XREC_LAYER_RECONCILED
360
4093
  0
DICTIONARY
  5
4094
330
4F
100
AcDbDictionary
280
     1
281
     1
  3
ADSK_XREC_LAYER_RECONCILED
360
4095
  0
DICTIONARY
  5
4096
330
50
100
AcDbDictionary
280
     1
281
     1
  3
ADSK_XREC_LAYER_RECONCILED
360
4097
  0
DICTIONARY
  5
4098
330
51
100
AcDbDictionary
280
     1
281
     1
  3
ADSK_XREC_LAYER_RECONCILED
360
4099
  0
DICTIONARY
  5
409A
330
52
100
AcDbDictionary
280
     1
281
     1
  3
ADSK_XREC_LAYER_RECONCILED
360
409B
  0
DICTIONARY
  5
409C
330
53
100
AcDbDictionary
280
     1
281
     1
  3
ADSK_XREC_LAYER_RECONCILED
360
409D
  0
DICTIONARY
  5
409E
330
54
100
AcDbDictionary
280
     1
281
     1
  3
ADSK_XREC_LAYER_RECONCILED
360
409F
  0
DICTIONARY
  5
4039
330
18
100
AcDbDictionary
281
     1
  3
ACAD_LAYOUTSELFREF
350
403A
  0
DICTIONARY
  5
4037
330
15
100
AcDbDictionary
281
     1
  3
ACAD_LAYOUTSELFREF
350
4038
  0
XRECORD
  5
408F
102
{ACAD_REACTORS
330
C
102
}
330
C
100
AcDbXrecord
280
     1
300
ACDLT
300
2014
300
ACDLT_F_S
  0
DICTIONARY
  5
4072
102
{ACAD_REACTORS
330
C
102
}
330
C
100
AcDbDictionary
281
     1
  0
DICTIONARY
  5
408B
102
{ACAD_REACTORS
330
C
102
}
330
C
100
AcDbDictionary
281
     1
  3
Imperial24
350
408C
  0
DICTIONARY
  5
D
102
{ACAD_REACTORS
330
C
102
}
330
C
100
AcDbDictionary
281
     1
  0
DICTIONARY
  5
94
102
{ACAD_REACTORS
330
C
102
}
330
C
100
AcDbDictionary
281
     1
  3
Model
350
408D
  3
レイアウト1
350
408E
  0
DICTIONARY
  5
4040
102
{ACAD_REACTORS
330
C
102
}
330
C
100
AcDbDictionary
281
     1
  3
ByBlock
350
4049
  3
ByLayer
350
4041
  3
Global
350
4051
  0
DICTIONARY
  5
4087
102
{ACAD_REACTORS
330
C
102
}
330
C
100
AcDbDictionary
281
     1
  3
Standard
350
4088
  0
DICTIONARY
  5
1B
102
{ACAD_REACTORS
330
C
102
}
330
C
100
AcDbDictionary
281
     1
  3
STANDARD
350
1C
  0
DICTIONARY
  5
95
102
{ACAD_REACTORS
330
C
102
}
330
C
100
AcDbDictionary
281
     1
  0
ACDBDICTIONARYWDFLT
  5
403E
102
{ACAD_REACTORS
330
C
102
}
330
C
100
AcDbDictionary
281
     1
  3
Normal
350
403F
100
AcDbDictionaryWithDefault
340
403F
  0
DICTIONARY
  5
4075
102
{ACAD_REACTORS
330
C
102
}
330
C
100
AcDbDictionary
281
     1
  3
A0
350
4076
  3
A1
350
4077
  3
A2
350
4078
  3
A3
350
4079
  3
A4
350
407A
  3
A5
350
407B
  3
A6
350
407C
  3
A7
350
407D
  3
A8
350
407E
  3
A9
350
407F
  3
B0
350
4080
  3
B1
350
4081
  3
B2
350
4082
  3
B3
350
4083
  3
B4
350
4084
  3
B5
350
4085
  3
B6
350
4086
  0
DICTIONARY
  5
4089
102
{ACAD_REACTORS
330
C
102
}
330
C
100
AcDbDictionary
281
     1
  3
Imperial24
350
408A
  0
DICTIONARY
  5
4073
102
{ACAD_REACTORS
330
C
102
}
330
C
100
AcDbDictionary
281
     1
  3
Standard
350
4074
  0
DICTIONARY
  5
4059
102
{ACAD_REACTORS
330
C
102
}
330
C
100
AcDbDictionary
281
     1
  3
2dWireframe
350
405F
  3
Basic
350
405E
  3
Brighten
350
4065
  3
ColorChange
350
4069
  3
Conceptual
350
4062
  3
Dim
350
4064
  3
EdgeColorOff
350
4071
  3
Facepattern
350
4068
  3
Flat
350
405A
  3
FlatWithEdges
350
405B
  3
Gouraud
350
405C
  3
GouraudWithEdges
350
405D
  3
Hidden
350
4061
  3
JitterOff
350
406F
  3
Linepattern
350
4067
  3
OverhangOff
350
4070
  3
Realistic
350
4063
  3
Shaded
350
406E
  3
Shaded with edges
350
406D
  3
Shades of Gray
350
406A
  3
Sketchy
350
406B
  3
Thicken
350
4066
  3
Wireframe
350
4060
  3
X-Ray
350
406C
  0
XRECORD
  5
40AD
102
{ACAD_REACTORS
330
C
102
}
330
C
100
AcDbXrecord
280
     1
 90
        1
330
4074
  0
DICTIONARY
  5
40A0
102
{ACAD_REACTORS
330
C
102
}
330
C
100
AcDbDictionary
281
     1
  3
CANNOSCALE
350
40A5
  3
CMLEADERSTYLE
350
40A2
  3
CTABLESTYLE
350
40A1
  3
CVIEWDETAILSTYLE
350
40A3
  3
CVIEWSECTIONSTYLE
350
40A4
  3
DIMASSOC
350
40A8
  3
INDEXCTL
350
40A7
  3
SORTENTS
350
40A6
  3
XCLIPFRAME
350
40A9
  0
DICTIONARY
  5
3D
102
{ACAD_REACTORS
330
C
102
}
330
C
100
AcDbDictionary
281
     1
  0
XRECORD
  5
40AE
102
{ACAD_REACTORS
330
C
102
}
330
C
100
AcDbXrecord
280
     1
  1
DWGPROPS COOKIE
  2

  3

  4

  6

  7

  8
Yoshitsune
  9

300
=
301
=
302
=
303
=
304
=
305
=
306
=
307
=
308
=
309
=
 40
0.1645477199074074
 41
2453721.985990845
 42
2457192.700995301
  1

 90
        0
  0
XRECORD
  5
4091
102
{ACAD_REACTORS
330
4090
102
}
330
4090
100
AcDbXrecord
280
     1
290
     1
  0
XRECORD
  5
4093
102
{ACAD_REACTORS
330
4092
102
}
330
4092
100
AcDbXrecord
280
     1
290
     1
  0
XRECORD
  5
4095
102
{ACAD_REACTORS
330
4094
102
}
330
4094
100
AcDbXrecord
280
     1
290
     1
  0
XRECORD
  5
4097
102
{ACAD_REACTORS
330
4096
102
}
330
4096
100
AcDbXrecord
280
     1
290
     1
  0
XRECORD
  5
4099
102
{ACAD_REACTORS
330
4098
102
}
330
4098
100
AcDbXrecord
280
     1
290
     1
  0
XRECORD
  5
409B
102
{ACAD_REACTORS
330
409A
102
}
330
409A
100
AcDbXrecord
280
     1
290
     1
  0
XRECORD
  5
409D
102
{ACAD_REACTORS
330
409C
102
}
330
409C
100
AcDbXrecord
280
     1
290
     1
  0
XRECORD
  5
409F
102
{ACAD_REACTORS
330
409E
102
}
330
409E
100
AcDbXrecord
280
     1
290
     1
  0
XRECORD
  5
403A
102
{ACAD_REACTORS
330
4039
102
}
330
4039
100
AcDbXrecord
280
     1
340
18
  0
XRECORD
  5
4038
102
{ACAD_REACTORS
330
4037
102
}
330
4037
100
AcDbXrecord
280
     1
340
15
  0
ACDBDETAILVIEWSTYLE
  5
408C
102
{ACAD_XDICTIONARY
360
40E6
102
}
102
{ACAD_REACTORS
330
408B
102
}
330
408B
100
AcDbModelDocViewStyle
 70
     0
  3
Imperial24
290
     0
100
AcDbDetailViewStyle
 70
     0
 71
     0
 90
        3
 71
     1
340
F
 40
0.24
340
0
 40
0.24
300

 40
0.36
280
     3
 71
     2
340
14
 90
       25
 71
     3
340
F
 40
0.24
 90
        1
 40
0.75
 90
        1
300
%<\AcVar ViewType \f "%tc1">% %<\AcVar ViewDetailId>%\PSCALE %<\AcVar ViewScale \f "%sn">%
 71
     4
340
14
 90
       25
340
14
 90
       25
280
     0
  0
LAYOUT
  5
408D
102
{ACAD_XDICTIONARY
360
40E8
102
}
102
{ACAD_REACTORS
330
94
102
}
330
94
100
AcDbPlotSettings
  1

  2
Canon LBP9100C
  4

  6

 40
0.0
 41
0.0
 42
0.0
 43
0.0
 44
0.0
 45
0.0
 46
0.0
 47
0.0
 48
0.0
 49
0.0
140
0.0
141
0.0
142
1.0
143
1.0
 70
  1712
 72
     0
 73
     0
 74
     0
  7

 75
     0
147
1.0
148
0.0
149
0.0
100
AcDbLayout
  1
Model
 70
     1
 71
     0
 10
0.0
 20
0.0
 11
12.0
 21
9.0
 12
0.0
 22
0.0
 32
0.0
 14
0.0
 24
0.0
 34
0.0
 15
0.0
 25
0.0
 35
0.0
146
0.0
 13
0.0
 23
0.0
 33
0.0
 16
1.0
 26
0.0
 36
0.0
 17
0.0
 27
1.0
 37
0.0
 76
     0
330
18
331
4036
  0
LAYOUT
  5
408E
102
{ACAD_XDICTIONARY
360
40EA
102
}
102
{ACAD_REACTORS
330
94
102
}
330
94
100
AcDbPlotSettings
  1

  2
Canon LBP9100C
  4

  6

 40
0.0
 41
0.0
 42
0.0
 43
0.0
 44
0.0
 45
0.0
 46
0.0
 47
0.0
 48
0.0
 49
0.0
140
0.0
141
0.0
142
1.0
143
1.0
 70
   688
 72
     0
 73
     0
 74
     5
  7

 75
    16
147
1.0
148
0.0
149
0.0
100
AcDbLayout
  1
レイアウト1
 70
     1
 71
     1
 10
0.0
 20
0.0
 11
420.0
 21
297.0
 12
0.0
 22
0.0
 32
0.0
 14
1.000000000000000E+20
 24
1.000000000000000E+20
 34
1.000000000000000E+20
 15
-1.000000000000000E+20
 25
-1.000000000000000E+20
 35
-1.000000000000000E+20
146
0.0
 13
0.0
 23
0.0
 33
0.0
 16
1.0
 26
0.0
 36
0.0
 17
0.0
 27
1.0
 37
0.0
 76
     0
330
15
  0
MATERIAL
  5
4049
102
{ACAD_XDICTIONARY
360
404A
102
}
102
{ACAD_REACTORS
330
4040
102
}
330
4040
100
AcDbMaterial
  1
ByBlock
 72
     0
 43
0.0208333333333333
 43
0.0
 43
0.0
 43
0.0
 43
0.0
 43
0.0208333333333333
 43
0.0
 43
0.0
 43
0.0
 43
0.0
 43
1.0
 43
0.0
 43
0.0
 43
0.0
 43
0.0
 43
1.0
 77
     0
 47
0.0208333333333333
 47
0.0
 47
0.0
 47
0.0
 47
0.0
 47
0.0208333333333333
 47
0.0
 47
0.0
 47
0.0
 47
0.0
 47
1.0
 47
0.0
 47
0.0
 47
0.0
 47
0.0
 47
1.0
171
     0
 49
0.0208333333333333
 49
0.0
 49
0.0
 49
0.0
 49
0.0
 49
0.0208333333333333
 49
0.0
 49
0.0
 49
0.0
 49
0.0
 49
1.0
 49
0.0
 49
0.0
 49
0.0
 49
0.0
 49
1.0
175
     0
142
0.0208333333333333
142
0.0
142
0.0
142
0.0
142
0.0
142
0.0208333333333333
142
0.0
142
0.0
142
0.0
142
0.0
142
1.0
142
0.0
142
0.0
142
0.0
142
0.0
142
1.0
179
     0
144
0.0208333333333333
144
0.0
144
0.0
144
0.0
144
0.0
144
0.0208333333333333
144
0.0
144
0.0
144
0.0
144
0.0
144
1.0
144
0.0
144
0.0
144
0.0
144
0.0
144
1.0
147
0.0208333333333333
147
0.0
147
0.0
147
0.0
147
0.0
147
0.0208333333333333
147
0.0
147
0.0
147
0.0
147
0.0
147
1.0
147
0.0
147
0.0
147
0.0
147
0.0
147
1.0
  0
MATERIAL
  5
4041
102
{ACAD_XDICTIONARY
360
4042
102
}
102
{ACAD_REACTORS
330
4040
102
}
330
4040
100
AcDbMaterial
  1
ByLayer
 72
     0
 43
0.0208333333333333
 43
0.0
 43
0.0
 43
0.0
 43
0.0
 43
0.0208333333333333
 43
0.0
 43
0.0
 43
0.0
 43
0.0
 43
1.0
 43
0.0
 43
0.0
 43
0.0
 43
0.0
 43
1.0
 77
     0
 47
0.0208333333333333
 47
0.0
 47
0.0
 47
0.0
 47
0.0
 47
0.0208333333333333
 47
0.0
 47
0.0
 47
0.0
 47
0.0
 47
1.0
 47
0.0
 47
0.0
 47
0.0
 47
0.0
 47
1.0
171
     0
 49
0.0208333333333333
 49
0.0
 49
0.0
 49
0.0
 49
0.0
 49
0.0208333333333333
 49
0.0
 49
0.0
 49
0.0
 49
0.0
 49
1.0
 49
0.0
 49
0.0
 49
0.0
 49
0.0
 49
1.0
175
     0
142
0.0208333333333333
142
0.0
142
0.0
142
0.0
142
0.0
142
0.0208333333333333
142
0.0
142
0.0
142
0.0
142
0.0
142
1.0
142
0.0
142
0.0
142
0.0
142
0.0
142
1.0
179
     0
144
0.0208333333333333
144
0.0
144
0.0
144
0.0
144
0.0
144
0.0208333333333333
144
0.0
144
0.0
144
0.0
144
0.0
144
1.0
144
0.0
144
0.0
144
0.0
144
0.0
144
1.0
147
0.0208333333333333
147
0.0
147
0.0
147
0.0
147
0.0
147
0.0208333333333333
147
0.0
147
0.0
147
0.0
147
0.0
147
1.0
147
0.0
147
0.0
147
0.0
147
0.0
147
1.0
  0
MATERIAL
  5
4051
102
{ACAD_XDICTIONARY
360
4052
102
}
102
{ACAD_REACTORS
330
4040
102
}
330
4040
100
AcDbMaterial
  1
Global
 72
     0
 43
0.0208333333333333
 43
0.0
 43
0.0
 43
0.0
 43
0.0
 43
0.0208333333333333
 43
0.0
 43
0.0
 43
0.0
 43
0.0
 43
1.0
 43
0.0
 43
0.0
 43
0.0
 43
0.0
 43
1.0
 77
     0
 47
0.0208333333333333
 47
0.0
 47
0.0
 47
0.0
 47
0.0
 47
0.0208333333333333
 47
0.0
 47
0.0
 47
0.0
 47
0.0
 47
1.0
 47
0.0
 47
0.0
 47
0.0
 47
0.0
 47
1.0
171
     0
 49
0.0208333333333333
 49
0.0
 49
0.0
 49
0.0
 49
0.0
 49
0.0208333333333333
 49
0.0
 49
0.0
 49
0.0
 49
0.0
 49
1.0
 49
0.0
 49
0.0
 49
0.0
 49
0.0
 49
1.0
175
     0
142
0.0208333333333333
142
0.0
142
0.0
142
0.0
142
0.0
142
0.0208333333333333
142
0.0
142
0.0
142
0.0
142
0.0
142
1.0
142
0.0
142
0.0
142
0.0
142
0.0
142
1.0
179
     0
144
0.0208333333333333
144
0.0
144
0.0
144
0.0
144
0.0
144
0.0208333333333333
144
0.0
144
0.0
144
0.0
144
0.0
144
1.0
144
0.0
144
0.0
144
0.0
144
0.0
144
1.0
147
0.0208333333333333
147
0.0
147
0.0
147
0.0
147
0.0
147
0.0208333333333333
147
0.0
147
0.0
147
0.0
147
0.0
147
1.0
147
0.0
147
0.0
147
0.0
147
0.0
147
1.0
  0
MLEADERSTYLE
  5
4088
102
{ACAD_REACTORS
330
4087
102
}
330
4087
100
AcDbMLeaderStyle
170
     2
171
     1
172
     0
 90
        2
 40
0.0
 41
0.0
173
     1
 91
-1056964608
340
12
 92
       -2
290
     1
 42
0.09
291
     1
 43
0.36
  3
Standard
 44
0.18
300

342
F
174
     1
178
     6
175
     1
176
     0
 93
-1056964608
 45
0.18
292
     0
297
     0
 46
0.18
 94
-1056964608
 47
1.0
 49
1.0
140
1.0
293
     1
141
0.0
294
     1
177
     0
142
1.0
295
     0
296
     0
143
0.125
1001
ACAD_MLEADERVER
1070
     2
  0
MLINESTYLE
  5
1C
102
{ACAD_REACTORS
330
1B
102
}
330
1B
100
AcDbMlineStyle
  2
STANDARD
 70
     0
  3

 62
   256
 51
90.0
 52
90.0
 71
     2
 49
0.5
 62
   256
  6
BYLAYER
 49
-0.5
 62
   256
  6
BYLAYER
  0
ACDBPLACEHOLDER
  5
403F
102
{ACAD_REACTORS
330
403E
102
}
330
403E
  0
SCALE
  5
4076
102
{ACAD_REACTORS
330
4075
102
}
330
4075
100
AcDbScale
 70
     0
300
1:1
140
1.0
141
1.0
290
     1
  0
SCALE
  5
4077
102
{ACAD_REACTORS
330
4075
102
}
330
4075
100
AcDbScale
 70
     0
300
1/128" = 1'-0"
140
0.0078125
141
12.0
290
     0
  0
SCALE
  5
4078
102
{ACAD_REACTORS
330
4075
102
}
330
4075
100
AcDbScale
 70
     0
300
1/64" = 1'-0"
140
0.015625
141
12.0
290
     0
  0
SCALE
  5
4079
102
{ACAD_REACTORS
330
4075
102
}
330
4075
100
AcDbScale
 70
     0
300
1/32" = 1'-0"
140
0.03125
141
12.0
290
     0
  0
SCALE
  5
407A
102
{ACAD_REACTORS
330
4075
102
}
330
4075
100
AcDbScale
 70
     0
300
1/16" = 1'-0"
140
0.0625
141
12.0
290
     0
  0
SCALE
  5
407B
102
{ACAD_REACTORS
330
4075
102
}
330
4075
100
AcDbScale
 70
     0
300
3/32" = 1'-0"
140
0.09375
141
12.0
290
     0
  0
SCALE
  5
407C
102
{ACAD_REACTORS
330
4075
102
}
330
4075
100
AcDbScale
 70
     0
300
1/8" = 1'-0"
140
0.125
141
12.0
290
     0
  0
SCALE
  5
407D
102
{ACAD_REACTORS
330
4075
102
}
330
4075
100
AcDbScale
 70
     0
300
3/16" = 1'-0"
140
0.1875
141
12.0
290
     0
  0
SCALE
  5
407E
102
{ACAD_REACTORS
330
4075
102
}
330
4075
100
AcDbScale
 70
     0
300
1/4" = 1'-0"
140
0.25
141
12.0
290
     0
  0
SCALE
  5
407F
102
{ACAD_REACTORS
330
4075
102
}
330
4075
100
AcDbScale
 70
     0
300
3/8" = 1'-0"
140
0.375
141
12.0
290
     0
  0
SCALE
  5
4080
102
{ACAD_REACTORS
330
4075
102
}
330
4075
100
AcDbScale
 70
     0
300
1/2" = 1'-0"
140
0.5
141
12.0
290
     0
  0
SCALE
  5
4081
102
{ACAD_REACTORS
330
4075
102
}
330
4075
100
AcDbScale
 70
     0
300
3/4" = 1'-0"
140
0.75
141
12.0
290
     0
  0
SCALE
  5
4082
102
{ACAD_REACTORS
330
4075
102
}
330
4075
100
AcDbScale
 70
     0
300
1" = 1'-0"
140
1.0
141
12.0
290
     0
  0
SCALE
  5
4083
102
{ACAD_REACTORS
330
4075
102
}
330
4075
100
AcDbScale
 70
     0
300
1-1/2" = 1'-0"
140
1.5
141
12.0
290
     0
  0
SCALE
  5
4084
102
{ACAD_REACTORS
330
4075
102
}
330
4075
100
AcDbScale
 70
     0
300
3" = 1'-0"
140
3.0
141
12.0
290
     0
  0
SCALE
  5
4085
102
{ACAD_REACTORS
330
4075
102
}
330
4075
100
AcDbScale
 70
     0
300
6" = 1'-0"
140
6.0
141
12.0
290
     0
  0
SCALE
  5
4086
102
{ACAD_REACTORS
330
4075
102
}
330
4075
100
AcDbScale
 70
     0
300
1'-0" = 1'-0"
140
12.0
141
12.0
290
     0
  0
ACDBSECTIONVIEWSTYLE
  5
408A
102
{ACAD_XDICTIONARY
360
40E4
102
}
102
{ACAD_REACTORS
330
4089
102
}
330
4089
100
AcDbModelDocViewStyle
 70
     0
  3
Imperial24
290
     0
100
AcDbSectionViewStyle
 70
     0
 71
     0
 90
       78
 71
     1
340
F
 40
0.24
340
0
340
0
 40
0.24
300
I, O, Q, S, X, Z
 40
0.48
 90
        3
 40
0.18
 90
        1
 71
     2
340
14
 90
       25
340
14
 90
       50
 40
0.24
 40
0.0
 40
0.24
 71
     3
340
F
 40
0.24
 90
        1
 40
0.75
 90
        1
300
%<\AcVar ViewType \f "%tc1">% %<\AcVar ViewSectionStartId>%-%<\AcVar ViewSectionEndId>%\PSCALE %<\AcVar ViewScale \f "%sn">%
 71
     4
300
ANSI31
 40
1.0
 90
        0
290
     0
290
     0
 90
        6
 40
0.0
 40
1.570796326794896
 40
0.2617993877991494
 40
1.308996938995747
 40
-0.2617993877991494
 40
1.832595714594046
  0
TABLESTYLE
  5
4074
102
{ACAD_XDICTIONARY
360
40AB
102
}
102
{ACAD_REACTORS
330
4073
102
}
330
4073
100
AcDbTableStyle
  3
Standard
 70
     0
 71
     0
 40
0.06
 41
0.06
280
     0
281
     0
  7
STANDARD
140
0.18
170
     2
 62
     0
 63
     7
283
     0
274
    -2
284
     1
 64
     0
275
    -2
285
     1
 65
     0
276
    -2
286
     1
 66
     0
277
    -2
287
     1
 67
     0
278
    -2
288
     1
 68
     0
279
    -2
289
     1
 69
     0
  7
STANDARD
140
0.25
170
     5
 62
     0
 63
     7
283
     0
274
    -2
284
     1
 64
     0
275
    -2
285
     1
 65
     0
276
    -2
286
     1
 66
     0
277
    -2
287
     1
 67
     0
278
    -2
288
     1
 68
     0
279
    -2
289
     1
 69
     0
  7
STANDARD
140
0.18
170
     5
 62
     0
 63
     7
283
     0
274
    -2
284
     1
 64
     0
275
    -2
285
     1
 65
     0
276
    -2
286
     1
 66
     0
277
    -2
287
     1
 67
     0
278
    -2
288
     1
 68
     0
279
    -2
289
     1
 69
     0
  0
VISUALSTYLE
  5
405F
102
{ACAD_XDICTIONARY
360
40BC
102
}
102
{ACAD_REACTORS
330
4059
102
}
330
4059
100
AcDbVisualStyle
  2
2dWireframe
 70
     4
 71
     0
 72
     2
 73
     0
 90
        0
 40
-0.6
 41
-30.0
 62
     5
 63
     7
 74
     1
 91
        4
 64
     7
 65
   257
 75
     1
175
     1
 42
1.0
 92
        0
 66
   257
 43
1.0
 76
     1
 77
     6
 78
     2
 67
     7
 79
     5
170
     0
171
     0
290
     0
174
     0
 93
        1
 44
0.0
173
     0
291
     0
 45
0.0
1001
ACAD
1000
AcDbSavedByObjectVersion
1070
     0
  0
VISUALSTYLE
  5
405E
102
{ACAD_XDICTIONARY
360
40BA
102
}
102
{ACAD_REACTORS
330
4059
102
}
330
4059
100
AcDbVisualStyle
  2
Basic
 70
     7
 71
     1
 72
     0
 73
     1
 90
        0
 40
-0.6
 41
-30.0
 62
     5
 63
     7
 74
     0
 91
        4
 64
     7
 65
   257
 75
     1
175
     1
 42
1.0
 92
        8
 66
     7
 43
1.0
 76
     1
 77
     6
 78
     2
 67
     7
 79
     5
170
     0
171
     0
290
     0
174
     0
 93
        1
 44
0.0
173
     0
291
     1
 45
0.0
1001
ACAD
1000
AcDbSavedByObjectVersion
1070
     0
  0
VISUALSTYLE
  5
4065
102
{ACAD_XDICTIONARY
360
40C8
102
}
102
{ACAD_REACTORS
330
4059
102
}
330
4059
100
AcDbVisualStyle
  2
Brighten
 70
    12
 71
     2
 72
     2
 73
     0
 90
        0
 40
-0.6
 41
-30.0
 62
     5
 63
     7
 74
     1
 91
        4
 64
     7
 65
   257
 75
     1
175
     1
 42
1.0
 92
        8
 66
     7
 43
1.0
 76
     1
 77
     6
 78
     2
 67
     7
 79
     5
170
     0
171
     0
290
     0
174
     0
 93
        1
 44
50.0
173
     0
291
     1
 45
0.0
1001
ACAD
1000
AcDbSavedByObjectVersion
1070
     0
  0
VISUALSTYLE
  5
4069
102
{ACAD_XDICTIONARY
360
40D0
102
}
102
{ACAD_REACTORS
330
4059
102
}
330
4059
100
AcDbVisualStyle
  2
ColorChange
 70
    16
 71
     2
 72
     2
 73
     3
 90
        0
 40
-0.6
 41
-30.0
 62
     5
 63
     8
 74
     1
 91
        4
 64
     7
 65
   257
 75
     1
175
     1
 42
1.0
 92
        8
 66
     8
 43
1.0
 76
     1
 77
     6
 78
     2
 67
     7
 79
     5
170
     0
171
     0
290
     0
174
     0
 93
        1
 44
0.0
173
     0
291
     1
 45
0.0
1001
ACAD
1000
AcDbSavedByObjectVersion
1070
     0
  0
VISUALSTYLE
  5
4062
102
{ACAD_XDICTIONARY
360
40C2
102
}
102
{ACAD_REACTORS
330
4059
102
}
330
4059
100
AcDbVisualStyle
  2
Conceptual
 70
     9
 71
     3
 72
     2
 73
     0
 90
        0
 40
-0.6
 41
-30.0
 62
     5
 63
     7
 74
     2
 91
        2
 64
     7
 65
   257
 75
     1
175
     1
 42
179.0
 92
        8
 66
     7
 43
1.0
 76
     1
 77
     6
 78
     2
 67
     7
 79
     3
170
     0
171
     0
290
     0
174
     0
 93
        1
 44
0.0
173
     0
291
     0
 45
0.0
1001
ACAD
1000
AcDbSavedByObjectVersion
1070
     0
  0
VISUALSTYLE
  5
4064
102
{ACAD_XDICTIONARY
360
40C6
102
}
102
{ACAD_REACTORS
330
4059
102
}
330
4059
100
AcDbVisualStyle
  2
Dim
 70
    11
 71
     2
 72
     2
 73
     0
 90
        0
 40
-0.6
 41
-30.0
 62
     5
 63
     7
 74
     1
 91
        4
 64
     7
 65
   257
 75
     1
175
     1
 42
1.0
 92
        8
 66
     7
 43
1.0
 76
     1
 77
     6
 78
     2
 67
     7
 79
     5
170
     0
171
     0
290
     0
174
     0
 93
        1
 44
-50.0
173
     0
291
     1
 45
0.0
1001
ACAD
1000
AcDbSavedByObjectVersion
1070
     0
  0
VISUALSTYLE
  5
4071
102
{ACAD_XDICTIONARY
360
40E0
102
}
102
{ACAD_REACTORS
330
4059
102
}
330
4059
100
AcDbVisualStyle
  2
EdgeColorOff
 70
    22
 71
     2
 72
     2
 73
     0
 90
        0
 40
-0.6
 41
-30.0
 62
     5
 63
     7
 74
     1
 91
        4
 64
     7
 65
   257
 75
     1
175
     1
 42
1.0
 92
        8
 66
     7
 43
1.0
 76
     1
 77
     6
 78
     2
 67
     7
 79
     5
170
     0
171
     0
290
     0
174
     0
 93
        1
 44
0.0
173
     0
291
     1
 45
0.0
1001
ACAD
1000
AcDbSavedByObjectVersion
1070
     0
  0
VISUALSTYLE
  5
4068
102
{ACAD_XDICTIONARY
360
40CE
102
}
102
{ACAD_REACTORS
330
4059
102
}
330
4059
100
AcDbVisualStyle
  2
Facepattern
 70
    15
 71
     2
 72
     2
 73
     0
 90
        0
 40
-0.6
 41
-30.0
 62
     5
 63
     7
 74
     1
 91
        4
 64
     7
 65
   257
 75
     1
175
     1
 42
1.0
 92
        8
 66
     7
 43
1.0
 76
     1
 77
     6
 78
     2
 67
     7
 79
     5
170
     0
171
     0
290
     0
174
     0
 93
        1
 44
0.0
173
     0
291
     1
 45
0.0
1001
ACAD
1000
AcDbSavedByObjectVersion
1070
     0
  0
VISUALSTYLE
  5
405A
102
{ACAD_XDICTIONARY
360
40B2
102
}
102
{ACAD_REACTORS
330
4059
102
}
330
4059
100
AcDbVisualStyle
  2
Flat
 70
     0
 71
     2
 72
     1
 73
     1
 90
        2
 40
-0.6
 41
30.0
 62
     5
 63
     7
 74
     0
 91
        0
 64
     7
 65
   257
 75
     1
175
     1
 42
1.0
 92
        8
 66
     7
 43
1.0
 76
     1
 77
     6
 78
     2
 67
     7
 79
     5
170
     0
171
     0
290
     0
174
     0
 93
       13
 44
0.0
173
     0
291
     1
 45
0.0
1001
ACAD
1000
AcDbSavedByObjectVersion
1070
     0
  0
VISUALSTYLE
  5
405B
102
{ACAD_XDICTIONARY
360
40B4
102
}
102
{ACAD_REACTORS
330
4059
102
}
330
4059
100
AcDbVisualStyle
  2
FlatWithEdges
 70
     1
 71
     2
 72
     1
 73
     1
 90
        2
 40
-0.6
 41
30.0
 62
     5
 63
     7
 74
     1
 91
        0
 64
     7
 65
   257
 75
     1
175
     1
 42
1.0
 92
        0
 66
   257
 43
1.0
 76
     1
 77
     6
 78
     2
 67
     7
 79
     5
170
     0
171
     0
290
     0
174
     0
 93
       13
 44
0.0
173
     0
291
     1
 45
0.0
1001
ACAD
1000
AcDbSavedByObjectVersion
1070
     0
  0
VISUALSTYLE
  5
405C
102
{ACAD_XDICTIONARY
360
40B6
102
}
102
{ACAD_REACTORS
330
4059
102
}
330
4059
100
AcDbVisualStyle
  2
Gouraud
 70
     2
 71
     2
 72
     2
 73
     1
 90
        2
 40
-0.6
 41
30.0
 62
     5
 63
     7
 74
     0
 91
        0
 64
     7
 65
   257
 75
     1
175
     1
 42
1.0
 92
        0
 66
     7
 43
1.0
 76
     1
 77
     6
 78
     2
 67
     7
 79
     5
170
     0
171
     0
290
     0
174
     0
 93
       13
 44
0.0
173
     0
291
     1
 45
0.0
1001
ACAD
1000
AcDbSavedByObjectVersion
1070
     0
  0
VISUALSTYLE
  5
405D
102
{ACAD_XDICTIONARY
360
40B8
102
}
102
{ACAD_REACTORS
330
4059
102
}
330
4059
100
AcDbVisualStyle
  2
GouraudWithEdges
 70
     3
 71
     2
 72
     2
 73
     1
 90
        2
 40
-0.6
 41
30.0
 62
     5
 63
     7
 74
     1
 91
        0
 64
     7
 65
   257
 75
     1
175
     1
 42
1.0
 92
        0
 66
   257
 43
1.0
 76
     1
 77
     6
 78
     2
 67
     7
 79
     5
170
     0
171
     0
290
     0
174
     0
 93
       13
 44
0.0
173
     0
291
     1
 45
0.0
1001
ACAD
1000
AcDbSavedByObjectVersion
1070
     0
  0
VISUALSTYLE
  5
4061
102
{ACAD_XDICTIONARY
360
40C0
102
}
102
{ACAD_REACTORS
330
4059
102
}
330
4059
100
AcDbVisualStyle
  2
Hidden
 70
     6
 71
     1
 72
     2
 73
     2
 90
        0
 40
-0.6
 41
-30.0
 62
     5
 63
     7
 74
     2
 91
        2
 64
     7
 65
   257
 75
     2
175
     1
 42
40.0
 92
        0
 66
   257
 43
1.0
 76
     1
 77
     6
 78
     2
 67
     7
 79
     3
170
     0
171
     0
290
     0
174
     0
 93
        1
 44
0.0
173
     0
291
     0
 45
0.0
1001
ACAD
1000
AcDbSavedByObjectVersion
1070
     0
  0
VISUALSTYLE
  5
406F
102
{ACAD_XDICTIONARY
360
40DC
102
}
102
{ACAD_REACTORS
330
4059
102
}
330
4059
100
AcDbVisualStyle
  2
JitterOff
 70
    20
 71
     2
 72
     2
 73
     0
 90
        0
 40
-0.6
 41
-30.0
 62
     5
 63
     7
 74
     1
 91
        4
 64
     7
 65
   257
 75
     1
175
     1
 42
1.0
 92
       10
 66
     7
 43
1.0
 76
     1
 77
     6
 78
     2
 67
     7
 79
     5
170
     0
171
     0
290
     0
174
     0
 93
        1
 44
0.0
173
     0
291
     1
 45
0.0
1001
ACAD
1000
AcDbSavedByObjectVersion
1070
     0
  0
VISUALSTYLE
  5
4067
102
{ACAD_XDICTIONARY
360
40CC
102
}
102
{ACAD_REACTORS
330
4059
102
}
330
4059
100
AcDbVisualStyle
  2
Linepattern
 70
    14
 71
     2
 72
     2
 73
     0
 90
        0
 40
-0.6
 41
-30.0
 62
     5
 63
     7
 74
     1
 91
        4
 64
     7
 65
   257
 75
     7
175
     7
 42
1.0
 92
        8
 66
     7
 43
1.0
 76
     1
 77
     6
 78
     2
 67
     7
 79
     5
170
     0
171
     0
290
     0
174
     0
 93
        1
 44
0.0
173
     0
291
     1
 45
0.0
1001
ACAD
1000
AcDbSavedByObjectVersion
1070
     0
  0
VISUALSTYLE
  5
4070
102
{ACAD_XDICTIONARY
360
40DE
102
}
102
{ACAD_REACTORS
330
4059
102
}
330
4059
100
AcDbVisualStyle
  2
OverhangOff
 70
    21
 71
     2
 72
     2
 73
     0
 90
        0
 40
-0.6
 41
-30.0
 62
     5
 63
     7
 74
     1
 91
        4
 64
     7
 65
   257
 75
     1
175
     1
 42
1.0
 92
        9
 66
     7
 43
1.0
 76
     1
 77
     6
 78
     2
 67
     7
 79
     5
170
     0
171
     0
290
     0
174
     0
 93
        1
 44
0.0
173
     0
291
     1
 45
0.0
1001
ACAD
1000
AcDbSavedByObjectVersion
1070
     0
  0
VISUALSTYLE
  5
4063
102
{ACAD_XDICTIONARY
360
40C4
102
}
102
{ACAD_REACTORS
330
4059
102
}
330
4059
100
AcDbVisualStyle
  2
Realistic
 70
     8
 71
     2
 72
     3
 73
     0
 90
        2
 40
-0.6
 41
30.0
 62
     5
 63
     7
 74
     0
 91
        0
 64
     7
 65
   257
 75
     1
175
     1
 42
1.0
 92
        8
 66
   257
 43
1.0
 76
     1
 77
     6
 78
     2
 67
     7
 79
     3
170
     0
171
     0
290
     0
174
     0
 93
       13
 44
0.0
173
     0
291
     0
 45
0.0
1001
ACAD
1000
AcDbSavedByObjectVersion
1070
     0
  0
VISUALSTYLE
  5
406E
102
{ACAD_XDICTIONARY
360
40DA
102
}
102
{ACAD_REACTORS
330
4059
102
}
330
4059
100
AcDbVisualStyle
  2
Shaded
 70
    27
 71
     2
 72
     2
 73
     1
 90
        2
 40
-0.6
 41
30.0
 62
     5
 63
     7
 74
     0
 91
        4
 64
     7
 65
   257
 75
     1
175
     1
 42
1.0
 92
        8
 66
   257
 43
1.0
 76
     1
 77
     6
 78
     2
 67
     8
 79
     3
170
     0
171
     0
290
     0
174
     0
 93
        5
 44
0.0
173
     0
291
     0
 45
0.0
1001
ACAD
1000
AcDbSavedByObjectVersion
1070
     0
  0
VISUALSTYLE
  5
406D
102
{ACAD_XDICTIONARY
360
40D8
102
}
102
{ACAD_REACTORS
330
4059
102
}
330
4059
100
AcDbVisualStyle
  2
Shaded with edges
 70
    26
 71
     2
 72
     2
 73
     1
 90
        2
 40
-0.6
 41
30.0
 62
     5
 63
     7
 74
     1
 91
       10
 64
     7
 65
   257
 75
     2
175
     1
 42
1.0
 92
        8
 66
   257
 43
1.0
 76
     1
 77
     6
 78
     2
 67
     7
 79
     3
170
     0
171
     0
290
     0
174
     0
 93
        5
 44
0.0
173
     0
291
     0
 45
0.0
1001
ACAD
1000
AcDbSavedByObjectVersion
1070
     0
  0
VISUALSTYLE
  5
406A
102
{ACAD_XDICTIONARY
360
40D2
102
}
102
{ACAD_REACTORS
330
4059
102
}
330
4059
100
AcDbVisualStyle
  2
Shades of Gray
 70
    23
 71
     2
 72
     2
 73
     3
 90
        0
 40
-0.6
 41
-30.0
 62
     5
 63
     7
 74
     2
 91
        2
 64
     7
 65
     7
 75
     1
175
     1
 42
40.0
 92
        8
 66
     7
 43
1.0
 76
     1
 77
     6
 78
     2
 67
     7
 79
     3
170
     0
171
     0
290
     0
174
     0
 93
        1
 44
0.0
173
     0
291
     0
 45
0.0
1001
ACAD
1000
AcDbSavedByObjectVersion
1070
     0
  0
VISUALSTYLE
  5
406B
102
{ACAD_XDICTIONARY
360
40D4
102
}
102
{ACAD_REACTORS
330
4059
102
}
330
4059
100
AcDbVisualStyle
  2
Sketchy
 70
    24
 71
     1
 72
     2
 73
     2
 90
        0
 40
-0.6
 41
-30.0
 62
     5
 63
     7
 74
     2
 91
        2
 64
     7
 65
     7
 75
     1
175
     1
 42
40.0
 92
       11
 66
     7
 43
1.0
 76
     1
 77
     6
 78
     2
 67
     7
 79
     6
170
     0
171
     0
290
     0
174
     0
 93
        1
 44
0.0
173
     0
291
     0
 45
0.0
1001
ACAD
1000
AcDbSavedByObjectVersion
1070
     0
  0
VISUALSTYLE
  5
4066
102
{ACAD_XDICTIONARY
360
40CA
102
}
102
{ACAD_REACTORS
330
4059
102
}
330
4059
100
AcDbVisualStyle
  2
Thicken
 70
    13
 71
     2
 72
     2
 73
     0
 90
        0
 40
-0.6
 41
-30.0
 62
     5
 63
     7
 74
     1
 91
        4
 64
     7
 65
   257
 75
     1
175
     1
 42
1.0
 92
       12
 66
     7
 43
1.0
 76
     1
 77
     6
 78
     2
 67
     7
 79
     5
170
     0
171
     0
290
     0
174
     0
 93
        1
 44
0.0
173
     0
291
     1
 45
0.0
1001
ACAD
1000
AcDbSavedByObjectVersion
1070
     0
  0
VISUALSTYLE
  5
4060
102
{ACAD_XDICTIONARY
360
40BE
102
}
102
{ACAD_REACTORS
330
4059
102
}
330
4059
100
AcDbVisualStyle
  2
Wireframe
 70
     5
 71
     0
 72
     2
 73
     0
 90
        0
 40
-0.6
 41
-30.0
 62
     5
 63
     7
 74
     1
 91
        4
 64
     7
 65
   257
 75
     1
175
     1
 42
1.0
 92
        0
 66
   257
 43
1.0
 76
     1
 77
     6
 78
     2
 67
     7
 79
     3
170
     0
171
     0
290
     0
174
     0
 93
        1
 44
0.0
173
     0
291
     0
 45
0.0
1001
ACAD
1000
AcDbSavedByObjectVersion
1070
     0
  0
VISUALSTYLE
  5
406C
102
{ACAD_XDICTIONARY
360
40D6
102
}
102
{ACAD_REACTORS
330
4059
102
}
330
4059
100
AcDbVisualStyle
  2
X-Ray
 70
    25
 71
     2
 72
     2
 73
     1
 90
        1
 40
0.5
 41
-30.0
 62
     5
 63
     7
 74
     1
 91
        0
 64
     7
 65
   257
 75
     1
175
     1
 42
1.0
 92
        8
 66
     7
 43
1.0
 76
     1
 77
     6
 78
     2
 67
     7
 79
     3
170
     0
171
     0
290
     0
174
     0
 93
       13
 44
0.0
173
     0
291
     0
 45
0.0
1001
ACAD
1000
AcDbSavedByObjectVersion
1070
     0
  0
DICTIONARYVAR
  5
40A5
102
{ACAD_REACTORS
330
40A0
102
}
330
40A0
100
DictionaryVariables
280
     0
  1
1:1
  0
DICTIONARYVAR
  5
40A2
102
{ACAD_REACTORS
330
40A0
102
}
330
40A0
100
DictionaryVariables
280
     0
  1
STANDARD
  0
DICTIONARYVAR
  5
40A1
102
{ACAD_REACTORS
330
40A0
102
}
330
40A0
100
DictionaryVariables
280
     0
  1
STANDARD
  0
DICTIONARYVAR
  5
40A3
102
{ACAD_REACTORS
330
40A0
102
}
330
40A0
100
DictionaryVariables
280
     0
  1
Imperial24
  0
DICTIONARYVAR
  5
40A4
102
{ACAD_REACTORS
330
40A0
102
}
330
40A0
100
DictionaryVariables
280
     0
  1
Imperial24
  0
DICTIONARYVAR
  5
40A8
102
{ACAD_REACTORS
330
40A0
102
}
330
40A0
100
DictionaryVariables
280
     0
  1
1
  0
DICTIONARYVAR
  5
40A7
102
{ACAD_REACTORS
330
40A0
102
}
330
40A0
100
DictionaryVariables
280
     0
  1
0
  0
DICTIONARYVAR
  5
40A6
102
{ACAD_REACTORS
330
40A0
102
}
330
40A0
100
DictionaryVariables
280
     0
  1
127
  0
DICTIONARYVAR
  5
40A9
102
{ACAD_REACTORS
330
40A0
102
}
330
40A0
100
DictionaryVariables
280
     0
  1
2
  0
DICTIONARY
  5
40E6
330
408C
100
AcDbDictionary
280
     1
281
     1
  3
ACAD_XREC_ROUNDTRIP
360
40E7
  0
DICTIONARY
  5
40E8
330
408D
100
AcDbDictionary
280
     1
281
     1
  3
ACAD_XREC_ROUNDTRIP
360
40E9
  0
DICTIONARY
  5
40EA
330
408E
100
AcDbDictionary
280
     1
281
     1
  3
ACAD_XREC_ROUNDTRIP
360
40EB
  0
DICTIONARY
  5
404A
330
4049
100
AcDbDictionary
280
     1
281
     1
  3
ACAD_XREC_ROUNDTRIP
360
40B0
  3
BUMPTILE
360
404C
  3
DIFFUSETILE
360
404B
  3
OPACITYTILE
360
404F
  3
REFLECTIONTILE
360
404E
  3
REFRACTIONTILE
360
4050
  3
SPECULARTILE
360
404D
  0
DICTIONARY
  5
4042
330
4041
100
AcDbDictionary
280
     1
281
     1
  3
ACAD_XREC_ROUNDTRIP
360
40AF
  3
BUMPTILE
360
4044
  3
DIFFUSETILE
360
4043
  3
OPACITYTILE
360
4047
  3
REFLECTIONTILE
360
4046
  3
REFRACTIONTILE
360
4048
  3
SPECULARTILE
360
4045
  0
DICTIONARY
  5
4052
330
4051
100
AcDbDictionary
280
     1
281
     1
  3
ACAD_XREC_ROUNDTRIP
360
40B1
  3
BUMPTILE
360
4054
  3
DIFFUSETILE
360
4053
  3
OPACITYTILE
360
4057
  3
REFLECTIONTILE
360
4056
  3
REFRACTIONTILE
360
4058
  3
SPECULARTILE
360
4055
  0
DICTIONARY
  5
40E4
330
408A
100
AcDbDictionary
280
     1
281
     1
  3
ACAD_XREC_ROUNDTRIP
360
40E5
  0
DICTIONARY
  5
40AB
330
4074
100
AcDbDictionary
280
     1
281
     1
  3
ACAD_ROUNDTRIP_2008_TABLESTYLE_CELLSTYLEMAP
360
40AC
  3
ACAD_XREC_ROUNDTRIP
360
40E2
  0
DICTIONARY
  5
40BC
330
405F
100
AcDbDictionary
280
     1
281
     1
  3
ACAD_XREC_ROUNDTRIP
360
40BD
  0
DICTIONARY
  5
40BA
330
405E
100
AcDbDictionary
280
     1
281
     1
  3
ACAD_XREC_ROUNDTRIP
360
40BB
  0
DICTIONARY
  5
40C8
330
4065
100
AcDbDictionary
280
     1
281
     1
  3
ACAD_XREC_ROUNDTRIP
360
40C9
  0
DICTIONARY
  5
40D0
330
4069
100
AcDbDictionary
280
     1
281
     1
  3
ACAD_XREC_ROUNDTRIP
360
40D1
  0
DICTIONARY
  5
40C2
330
4062
100
AcDbDictionary
280
     1
281
     1
  3
ACAD_XREC_ROUNDTRIP
360
40C3
  0
DICTIONARY
  5
40C6
330
4064
100
AcDbDictionary
280
     1
281
     1
  3
ACAD_XREC_ROUNDTRIP
360
40C7
  0
DICTIONARY
  5
40E0
330
4071
100
AcDbDictionary
280
     1
281
     1
  3
ACAD_XREC_ROUNDTRIP
360
40E1
  0
DICTIONARY
  5
40CE
330
4068
100
AcDbDictionary
280
     1
281
     1
  3
ACAD_XREC_ROUNDTRIP
360
40CF
  0
DICTIONARY
  5
40B2
330
405A
100
AcDbDictionary
280
     1
281
     1
  3
ACAD_XREC_ROUNDTRIP
360
40B3
  0
DICTIONARY
  5
40B4
330
405B
100
AcDbDictionary
280
     1
281
     1
  3
ACAD_XREC_ROUNDTRIP
360
40B5
  0
DICTIONARY
  5
40B6
330
405C
100
AcDbDictionary
280
     1
281
     1
  3
ACAD_XREC_ROUNDTRIP
360
40B7
  0
DICTIONARY
  5
40B8
330
405D
100
AcDbDictionary
280
     1
281
     1
  3
ACAD_XREC_ROUNDTRIP
360
40B9
  0
DICTIONARY
  5
40C0
330
4061
100
AcDbDictionary
280
     1
281
     1
  3
ACAD_XREC_ROUNDTRIP
360
40C1
  0
DICTIONARY
  5
40DC
330
406F
100
AcDbDictionary
280
     1
281
     1
  3
ACAD_XREC_ROUNDTRIP
360
40DD
  0
DICTIONARY
  5
40CC
330
4067
100
AcDbDictionary
280
     1
281
     1
  3
ACAD_XREC_ROUNDTRIP
360
40CD
  0
DICTIONARY
  5
40DE
330
4070
100
AcDbDictionary
280
     1
281
     1
  3
ACAD_XREC_ROUNDTRIP
360
40DF
  0
DICTIONARY
  5
40C4
330
4063
100
AcDbDictionary
280
     1
281
     1
  3
ACAD_XREC_ROUNDTRIP
360
40C5
  0
DICTIONARY
  5
40DA
330
406E
100
AcDbDictionary
280
     1
281
     1
  3
ACAD_XREC_ROUNDTRIP
360
40DB
  0
DICTIONARY
  5
40D8
330
406D
100
AcDbDictionary
280
     1
281
     1
  3
ACAD_XREC_ROUNDTRIP
360
40D9
  0
DICTIONARY
  5
40D2
330
406A
100
AcDbDictionary
280
     1
281
     1
  3
ACAD_XREC_ROUNDTRIP
360
40D3
  0
DICTIONARY
  5
40D4
330
406B
100
AcDbDictionary
280
     1
281
     1
  3
ACAD_XREC_ROUNDTRIP
360
40D5
  0
DICTIONARY
  5
40CA
330
4066
100
AcDbDictionary
280
     1
281
     1
  3
ACAD_XREC_ROUNDTRIP
360
40CB
  0
DICTIONARY
  5
40BE
330
4060
100
AcDbDictionary
280
     1
281
     1
  3
ACAD_XREC_ROUNDTRIP
360
40BF
  0
DICTIONARY
  5
40D6
330
406C
100
AcDbDictionary
280
     1
281
     1
  3
ACAD_XREC_ROUNDTRIP
360
40D7
  0
XRECORD
  5
40E7
102
{ACAD_REACTORS
330
40E6
102
}
330
40E6
100
AcDbXrecord
280
     1
102
DISPLAYNAME
  1
Imperial24
102
FLAGS
 90
        0
  0
XRECORD
  5
40E9
102
{ACAD_REACTORS
330
40E8
102
}
330
40E8
100
AcDbXrecord
280
     1
102
SHADEPLOT
 70
     0
102
SHADEPLOTRESLEVEL
 70
     2
102
SHADEPLOTCUSTOMDPI
 70
   300
  0
XRECORD
  5
40EB
102
{ACAD_REACTORS
330
40EA
102
}
330
40EA
100
AcDbXrecord
280
     1
102
SHADEPLOT
 70
     0
102
SHADEPLOTRESLEVEL
 70
     2
102
SHADEPLOTCUSTOMDPI
 70
   300
  0
XRECORD
  5
40B0
102
{ACAD_REACTORS
330
404A
102
}
330
404A
100
AcDbXrecord
280
     1
102
MATERIAL
148
0.0
149
0.0
149
0.0
 93
        0
 94
      127
282
     0
 72
     0
 77
     0
171
     0
175
     0
179
     0
273
     0
  0
XRECORD
  5
404C
102
{ACAD_REACTORS
330
404A
102
}
330
404A
100
AcDbXrecord
280
     1
270
     1
271
     1
  0
XRECORD
  5
404B
102
{ACAD_REACTORS
330
404A
102
}
330
404A
100
AcDbXrecord
280
     1
270
     1
271
     1
  0
XRECORD
  5
404F
102
{ACAD_REACTORS
330
404A
102
}
330
404A
100
AcDbXrecord
280
     1
270
     1
271
     1
  0
XRECORD
  5
404E
102
{ACAD_REACTORS
330
404A
102
}
330
404A
100
AcDbXrecord
280
     1
270
     1
271
     1
  0
XRECORD
  5
4050
102
{ACAD_REACTORS
330
404A
102
}
330
404A
100
AcDbXrecord
280
     1
270
     1
271
     1
  0
XRECORD
  5
404D
102
{ACAD_REACTORS
330
404A
102
}
330
404A
100
AcDbXrecord
280
     1
270
     1
271
     1
  0
XRECORD
  5
40AF
102
{ACAD_REACTORS
330
4042
102
}
330
4042
100
AcDbXrecord
280
     1
102
MATERIAL
148
0.0
149
0.0
149
0.0
 93
        0
 94
      127
282
     0
 72
     0
 77
     0
171
     0
175
     0
179
     0
273
     0
  0
XRECORD
  5
4044
102
{ACAD_REACTORS
330
4042
102
}
330
4042
100
AcDbXrecord
280
     1
270
     1
271
     1
  0
XRECORD
  5
4043
102
{ACAD_REACTORS
330
4042
102
}
330
4042
100
AcDbXrecord
280
     1
270
     1
271
     1
  0
XRECORD
  5
4047
102
{ACAD_REACTORS
330
4042
102
}
330
4042
100
AcDbXrecord
280
     1
270
     1
271
     1
  0
XRECORD
  5
4046
102
{ACAD_REACTORS
330
4042
102
}
330
4042
100
AcDbXrecord
280
     1
270
     1
271
     1
  0
XRECORD
  5
4048
102
{ACAD_REACTORS
330
4042
102
}
330
4042
100
AcDbXrecord
280
     1
270
     1
271
     1
  0
XRECORD
  5
4045
102
{ACAD_REACTORS
330
4042
102
}
330
4042
100
AcDbXrecord
280
     1
270
     1
271
     1
  0
XRECORD
  5
40B1
102
{ACAD_REACTORS
330
4052
102
}
330
4052
100
AcDbXrecord
280
     1
102
MATERIAL
148
0.0
149
0.0
149
0.0
 93
        0
 94
      127
282
     0
 72
     0
 77
     0
171
     0
175
     0
179
     0
273
     0
  0
XRECORD
  5
4054
102
{ACAD_REACTORS
330
4052
102
}
330
4052
100
AcDbXrecord
280
     1
270
     1
271
     1
  0
XRECORD
  5
4053
102
{ACAD_REACTORS
330
4052
102
}
330
4052
100
AcDbXrecord
280
     1
270
     1
271
     1
  0
XRECORD
  5
4057
102
{ACAD_REACTORS
330
4052
102
}
330
4052
100
AcDbXrecord
280
     1
270
     1
271
     1
  0
XRECORD
  5
4056
102
{ACAD_REACTORS
330
4052
102
}
330
4052
100
AcDbXrecord
280
     1
270
     1
271
     1
  0
XRECORD
  5
4058
102
{ACAD_REACTORS
330
4052
102
}
330
4052
100
AcDbXrecord
280
     1
270
     1
271
     1
  0
XRECORD
  5
4055
102
{ACAD_REACTORS
330
4052
102
}
330
4052
100
AcDbXrecord
280
     1
270
     1
271
     1
  0
XRECORD
  5
40E5
102
{ACAD_REACTORS
330
40E4
102
}
330
40E4
100
AcDbXrecord
280
     1
102
DISPLAYNAME
  1
Imperial24
102
FLAGS
 90
        0
  0
CELLSTYLEMAP
  5
40AC
102
{ACAD_REACTORS
330
40AB
102
}
330
40AB
100
AcDbCellStyleMap
 90
        3
300
CELLSTYLE
  1
TABLEFORMAT_BEGIN
 90
        5
170
     1
 91
        0
 92
    32768
 62
   257
 93
        1
300
CONTENTFORMAT
  1
CONTENTFORMAT_BEGIN
 90
        0
 91
        0
 92
      512
 93
        0
300

 40
0.0
140
1.0
 94
        5
 62
     0
340
F
144
0.25
309
CONTENTFORMAT_END
171
     0
 94
        0
309
TABLEFORMAT_END
  1
CELLSTYLE_BEGIN
 90
        1
 91
        1
300
_TITLE
309
CELLSTYLE_END
300
CELLSTYLE
  1
TABLEFORMAT_BEGIN
 90
        5
170
     1
 91
        0
 92
        0
 62
   257
 93
        1
300
CONTENTFORMAT
  1
CONTENTFORMAT_BEGIN
 90
        0
 91
        0
 92
      512
 93
        0
300

 40
0.0
140
1.0
 94
        5
 62
     0
340
F
144
0.18
309
CONTENTFORMAT_END
171
     0
 94
        0
309
TABLEFORMAT_END
  1
CELLSTYLE_BEGIN
 90
        2
 91
        1
300
_HEADER
309
CELLSTYLE_END
300
CELLSTYLE
  1
TABLEFORMAT_BEGIN
 90
        5
170
     1
 91
        0
 92
        0
 62
   257
 93
        1
300
CONTENTFORMAT
  1
CONTENTFORMAT_BEGIN
 90
        0
 91
        0
 92
      512
 93
        0
300

 40
0.0
140
1.0
 94
        2
 62
     0
340
F
144
0.18
309
CONTENTFORMAT_END
171
     0
 94
        0
309
TABLEFORMAT_END
  1
CELLSTYLE_BEGIN
 90
        3
 91
        2
300
_DATA
309
CELLSTYLE_END
  0
XRECORD
  5
40E2
102
{ACAD_REACTORS
330
40AB
102
}
330
40AB
100
AcDbXrecord
280
     1
102
ACAD_ROUNDTRIP_PRE2007_TABLESTYLE
 90
      512
 91
        0
  1

 92
      512
 93
        0
  2

 94
      512
 95
        0
  3

  0
XRECORD
  5
40BD
102
{ACAD_REACTORS
330
40BC
102
}
330
40BC
100
AcDbXrecord
280
     1
102
RTVSPost2010Prop28
280
     1
102
RTVSPost2010PropOp28
 70
     1
102
RTVSPost2010Prop29
280
     1
102
RTVSPost2010PropOp29
 70
     1
102
RTVSPost2010Prop30
280
     0
102
RTVSPost2010PropOp30
 70
     1
102
RTVSPost2010Prop31
280
     0
102
RTVSPost2010PropOp31
 70
     1
102
RTVSPost2010Prop32
280
     0
102
RTVSPost2010PropOp32
 70
     1
102
RTVSPost2010Prop33
280
     0
102
RTVSPost2010PropOp33
 70
     1
102
RTVSPost2010Prop34
280
     0
102
RTVSPost2010PropOp34
 70
     1
102
RTVSPost2010Prop35
280
     0
102
RTVSPost2010PropOp35
 70
     1
102
RTVSPost2010Prop36
280
     0
102
RTVSPost2010PropOp36
 70
     1
102
RTVSPost2010Prop37
 90
       50
102
RTVSPost2010PropOp37
 70
     1
102
RTVSPost2010Prop38
140
0.0
102
RTVSPost2010PropOp38
 70
     1
102
RTVSPost2010Prop39
140
1.0
102
RTVSPost2010PropOp39
 70
     1
102
RTVSPost2010Prop40
 90
        0
102
RTVSPost2010PropOp40
 70
     1
102
RTVSPost2010Prop41ColorIndex
 90
       18
102
RTVSPost2010Prop41ColorRGB
 90
        0
102
RTVSPost2010PropOp41
 70
     1
102
RTVSPost2010Prop42
 90
       50
102
RTVSPost2010PropOp42
 70
     1
102
RTVSPost2010Prop43
 90
        3
102
RTVSPost2010PropOp43
 70
     1
102
RTVSPost2010Prop44ColorIndex
 90
        5
102
RTVSPost2010Prop44ColorRGB
 90
      255
102
RTVSPost2010PropOp44
 70
     1
102
RTVSPost2010Prop45
280
     0
102
RTVSPost2010PropOp45
 70
     1
102
RTVSPost2010Prop46
 90
       50
102
RTVSPost2010PropOp46
 70
     1
102
RTVSPost2010Prop47
 90
       50
102
RTVSPost2010PropOp47
 70
     1
102
RTVSPost2010Prop48
 90
       50
102
RTVSPost2010PropOp48
 70
     1
102
RTVSPost2010Prop49
280
     0
102
RTVSPost2010PropOp49
 70
     1
102
RTVSPost2010Prop50
 90
       50
102
RTVSPost2010PropOp50
 70
     1
102
RTVSPost2010Prop51ColorIndex
 90
      256
102
RTVSPost2010Prop51ColorRGB
 90
-16777216
102
RTVSPost2010PropOp51
 70
     0
102
RTVSPost2010Prop52
140
1.0
102
RTVSPost2010PropOp52
 70
     0
102
RTVSPost2010Prop53
 90
        2
102
RTVSPost2010PropOp53
 70
     1
102
RTVSPost2010Prop54
  1
strokes_ogs.tif
102
RTVSPost2010PropOp54
 70
     1
102
RTVSPost2010Prop55
280
     0
102
RTVSPost2010PropOp55
 70
     1
102
RTVSPost2010Prop56
140
1.0
102
RTVSPost2010PropOp56
 70
     1
102
RTVSPost2010Prop57
140
1.0
102
RTVSPost2010PropOp57
 70
     1
102
RTVSPropertyOp0
 70
     1
102
RTVSPropertyOp1
 70
     1
102
RTVSPropertyOp2
 70
     1
102
RTVSPropertyOp3
 70
     1
102
RTVSPropertyOp4
 70
     1
102
RTVSPropertyOp5
 70
     1
102
RTVSPropertyOp6
 70
     1
102
RTVSPropertyOp7
 70
     1
102
RTVSPropertyOp8
 70
     1
102
RTVSPropertyOp9
 70
     1
102
RTVSPropertyOp10
 70
     1
102
RTVSPropertyOp11
 70
     1
102
RTVSPropertyOp12
 70
     1
102
RTVSPropertyOp13
 70
     1
102
RTVSPropertyOp14
 70
     1
102
RTVSPropertyOp15
 70
     1
102
RTVSPropertyOp16
 70
     1
102
RTVSPropertyOp17
 70
     1
102
RTVSPropertyOp18
 70
     1
102
RTVSPropertyOp19
 70
     1
102
RTVSPropertyOp20
 70
     1
102
RTVSPropertyOp21
 70
     1
102
RTVSPropertyOp22
 70
     1
102
RTVSPropertyOp23
 70
     1
102
RTVSPropertyOp24
 70
     1
102
RTVSPropertyOp25
 70
     1
102
RTVSPropertyOp26
 70
     1
102
RTVSPropertyOp27
 70
     1
102
RTVSPropertyOp28
 70
     1
102
RTVSPropertyOp29
 70
     1
102
RTVSPropertyOp30
 70
     1
102
RTVSPropertyOp31
 70
     1
102
RTVSPropertyOp32
 70
     1
102
RTVSPropertyOp33
 70
     1
102
RTVSPropertyOp34
 70
     1
102
RTVSPropertyOp35
 70
     1
102
RTVSPropertyOp36
 70
     1
102
RTVSPropertyOp37
 70
     1
102
RTVSPropertyOp38
 70
     1
102
RTVSPropertyOp39
 70
     1
102
RTVSPropertyOp40
 70
     1
102
RTVSPropertyOp41
 70
     1
102
RTVSPropertyOp42
 70
     1
102
RTVSPropertyOp43
 70
     1
102
RTVSPropertyOp44
 70
     1
102
RTVSPropertyOp45
 70
     1
102
RTVSPropertyOp46
 70
     1
102
RTVSPropertyOp47
 70
     1
102
RTVSPropertyOp48
 70
     1
102
RTVSPropertyOp49
 70
     1
102
RTVSPropertyOp50
 70
     1
102
RTVSPropertyOp51
 70
     0
102
RTVSPropertyOp52
 70
     0
102
RTVSPropertyOp53
 70
     1
102
RTVSPropertyOp54
 70
     1
102
RTVSPropertyOp55
 70
     1
102
RTVSPropertyOp56
 70
     1
102
RTVSPropertyOp57
 70
     1
102
RTVSPropertyOp58
 70
     1
102
RTVSPropertyOp59
 70
     1
102
RTVSPropertyOp60
 70
     1
102
RTVSPropertyOp61
 70
     1
102
RTVSPropertyOp62
 70
     1
  0
XRECORD
  5
40BB
102
{ACAD_REACTORS
330
40BA
102
}
330
40BA
100
AcDbXrecord
280
     1
102
RTVSPost2010Prop28
280
     0
102
RTVSPost2010PropOp28
 70
     1
102
RTVSPost2010Prop29
280
     1
102
RTVSPost2010PropOp29
 70
     1
102
RTVSPost2010Prop30
280
     1
102
RTVSPost2010PropOp30
 70
     1
102
RTVSPost2010Prop31
280
     0
102
RTVSPost2010PropOp31
 70
     1
102
RTVSPost2010Prop32
280
     0
102
RTVSPost2010PropOp32
 70
     1
102
RTVSPost2010Prop33
280
     0
102
RTVSPost2010PropOp33
 70
     1
102
RTVSPost2010Prop34
280
     0
102
RTVSPost2010PropOp34
 70
     1
102
RTVSPost2010Prop35
280
     0
102
RTVSPost2010PropOp35
 70
     1
102
RTVSPost2010Prop36
280
     0
102
RTVSPost2010PropOp36
 70
     1
102
RTVSPost2010Prop37
 90
       50
102
RTVSPost2010PropOp37
 70
     1
102
RTVSPost2010Prop38
140
0.0
102
RTVSPost2010PropOp38
 70
     1
102
RTVSPost2010Prop39
140
1.0
102
RTVSPost2010PropOp39
 70
     1
102
RTVSPost2010Prop40
 90
        0
102
RTVSPost2010PropOp40
 70
     1
102
RTVSPost2010Prop41ColorIndex
 90
       18
102
RTVSPost2010Prop41ColorRGB
 90
        0
102
RTVSPost2010PropOp41
 70
     1
102
RTVSPost2010Prop42
 90
       50
102
RTVSPost2010PropOp42
 70
     1
102
RTVSPost2010Prop43
 90
        3
102
RTVSPost2010PropOp43
 70
     1
102
RTVSPost2010Prop44ColorIndex
 90
        5
102
RTVSPost2010Prop44ColorRGB
 90
      255
102
RTVSPost2010PropOp44
 70
     1
102
RTVSPost2010Prop45
280
     0
102
RTVSPost2010PropOp45
 70
     1
102
RTVSPost2010Prop46
 90
       50
102
RTVSPost2010PropOp46
 70
     1
102
RTVSPost2010Prop47
 90
       50
102
RTVSPost2010PropOp47
 70
     1
102
RTVSPost2010Prop48
 90
       50
102
RTVSPost2010PropOp48
 70
     1
102
RTVSPost2010Prop49
280
     0
102
RTVSPost2010PropOp49
 70
     1
102
RTVSPost2010Prop50
 90
       50
102
RTVSPost2010PropOp50
 70
     1
102
RTVSPost2010Prop51ColorIndex
 90
      256
102
RTVSPost2010Prop51ColorRGB
 90
-16777216
102
RTVSPost2010PropOp51
 70
     0
102
RTVSPost2010Prop52
140
1.0
102
RTVSPost2010PropOp52
 70
     0
102
RTVSPost2010Prop53
 90
        2
102
RTVSPost2010PropOp53
 70
     1
102
RTVSPost2010Prop54
  1
strokes_ogs.tif
102
RTVSPost2010PropOp54
 70
     1
102
RTVSPost2010Prop55
280
     0
102
RTVSPost2010PropOp55
 70
     1
102
RTVSPost2010Prop56
140
1.0
102
RTVSPost2010PropOp56
 70
     1
102
RTVSPost2010Prop57
140
1.0
102
RTVSPost2010PropOp57
 70
     1
102
RTVSPropertyOp0
 70
     1
102
RTVSPropertyOp1
 70
     1
102
RTVSPropertyOp2
 70
     1
102
RTVSPropertyOp3
 70
     1
102
RTVSPropertyOp4
 70
     1
102
RTVSPropertyOp5
 70
     1
102
RTVSPropertyOp6
 70
     1
102
RTVSPropertyOp7
 70
     1
102
RTVSPropertyOp8
 70
     1
102
RTVSPropertyOp9
 70
     1
102
RTVSPropertyOp10
 70
     1
102
RTVSPropertyOp11
 70
     1
102
RTVSPropertyOp12
 70
     1
102
RTVSPropertyOp13
 70
     1
102
RTVSPropertyOp14
 70
     1
102
RTVSPropertyOp15
 70
     1
102
RTVSPropertyOp16
 70
     1
102
RTVSPropertyOp17
 70
     1
102
RTVSPropertyOp18
 70
     1
102
RTVSPropertyOp19
 70
     1
102
RTVSPropertyOp20
 70
     1
102
RTVSPropertyOp21
 70
     1
102
RTVSPropertyOp22
 70
     1
102
RTVSPropertyOp23
 70
     1
102
RTVSPropertyOp24
 70
     1
102
RTVSPropertyOp25
 70
     1
102
RTVSPropertyOp26
 70
     1
102
RTVSPropertyOp27
 70
     1
102
RTVSPropertyOp28
 70
     1
102
RTVSPropertyOp29
 70
     1
102
RTVSPropertyOp30
 70
     1
102
RTVSPropertyOp31
 70
     1
102
RTVSPropertyOp32
 70
     1
102
RTVSPropertyOp33
 70
     1
102
RTVSPropertyOp34
 70
     1
102
RTVSPropertyOp35
 70
     1
102
RTVSPropertyOp36
 70
     1
102
RTVSPropertyOp37
 70
     1
102
RTVSPropertyOp38
 70
     1
102
RTVSPropertyOp39
 70
     1
102
RTVSPropertyOp40
 70
     1
102
RTVSPropertyOp41
 70
     1
102
RTVSPropertyOp42
 70
     1
102
RTVSPropertyOp43
 70
     1
102
RTVSPropertyOp44
 70
     1
102
RTVSPropertyOp45
 70
     1
102
RTVSPropertyOp46
 70
     1
102
RTVSPropertyOp47
 70
     1
102
RTVSPropertyOp48
 70
     1
102
RTVSPropertyOp49
 70
     1
102
RTVSPropertyOp50
 70
     1
102
RTVSPropertyOp51
 70
     0
102
RTVSPropertyOp52
 70
     0
102
RTVSPropertyOp53
 70
     1
102
RTVSPropertyOp54
 70
     1
102
RTVSPropertyOp55
 70
     1
102
RTVSPropertyOp56
 70
     1
102
RTVSPropertyOp57
 70
     1
102
RTVSPropertyOp58
 70
     1
102
RTVSPropertyOp59
 70
     1
102
RTVSPropertyOp60
 70
     1
102
RTVSPropertyOp61
 70
     1
102
RTVSPropertyOp62
 70
     1
  0
XRECORD
  5
40C9
102
{ACAD_REACTORS
330
40C8
102
}
330
40C8
100
AcDbXrecord
280
     1
102
RTVSPost2010Prop28
280
     0
102
RTVSPost2010PropOp28
 70
     1
102
RTVSPost2010Prop29
280
     1
102
RTVSPost2010PropOp29
 70
     1
102
RTVSPost2010Prop30
280
     1
102
RTVSPost2010PropOp30
 70
     1
102
RTVSPost2010Prop31
280
     0
102
RTVSPost2010PropOp31
 70
     1
102
RTVSPost2010Prop32
280
     0
102
RTVSPost2010PropOp32
 70
     1
102
RTVSPost2010Prop33
280
     0
102
RTVSPost2010PropOp33
 70
     1
102
RTVSPost2010Prop34
280
     0
102
RTVSPost2010PropOp34
 70
     1
102
RTVSPost2010Prop35
280
     0
102
RTVSPost2010PropOp35
 70
     1
102
RTVSPost2010Prop36
280
     0
102
RTVSPost2010PropOp36
 70
     1
102
RTVSPost2010Prop37
 90
       50
102
RTVSPost2010PropOp37
 70
     1
102
RTVSPost2010Prop38
140
0.0
102
RTVSPost2010PropOp38
 70
     1
102
RTVSPost2010Prop39
140
1.0
102
RTVSPost2010PropOp39
 70
     1
102
RTVSPost2010Prop40
 90
        0
102
RTVSPost2010PropOp40
 70
     1
102
RTVSPost2010Prop41ColorIndex
 90
       18
102
RTVSPost2010Prop41ColorRGB
 90
        0
102
RTVSPost2010PropOp41
 70
     1
102
RTVSPost2010Prop42
 90
       50
102
RTVSPost2010PropOp42
 70
     1
102
RTVSPost2010Prop43
 90
        3
102
RTVSPost2010PropOp43
 70
     1
102
RTVSPost2010Prop44ColorIndex
 90
        5
102
RTVSPost2010Prop44ColorRGB
 90
      255
102
RTVSPost2010PropOp44
 70
     1
102
RTVSPost2010Prop45
280
     0
102
RTVSPost2010PropOp45
 70
     1
102
RTVSPost2010Prop46
 90
       50
102
RTVSPost2010PropOp46
 70
     1
102
RTVSPost2010Prop47
 90
       50
102
RTVSPost2010PropOp47
 70
     1
102
RTVSPost2010Prop48
 90
       50
102
RTVSPost2010PropOp48
 70
     1
102
RTVSPost2010Prop49
280
     0
102
RTVSPost2010PropOp49
 70
     1
102
RTVSPost2010Prop50
 90
       50
102
RTVSPost2010PropOp50
 70
     1
102
RTVSPost2010Prop51ColorIndex
 90
      256
102
RTVSPost2010Prop51ColorRGB
 90
-16777216
102
RTVSPost2010PropOp51
 70
     0
102
RTVSPost2010Prop52
140
1.0
102
RTVSPost2010PropOp52
 70
     0
102
RTVSPost2010Prop53
 90
        2
102
RTVSPost2010PropOp53
 70
     1
102
RTVSPost2010Prop54
  1
strokes_ogs.tif
102
RTVSPost2010PropOp54
 70
     1
102
RTVSPost2010Prop55
280
     0
102
RTVSPost2010PropOp55
 70
     1
102
RTVSPost2010Prop56
140
1.0
102
RTVSPost2010PropOp56
 70
     1
102
RTVSPost2010Prop57
140
1.0
102
RTVSPost2010PropOp57
 70
     1
102
RTVSPropertyOp0
 70
     1
102
RTVSPropertyOp1
 70
     1
102
RTVSPropertyOp2
 70
     1
102
RTVSPropertyOp3
 70
     1
102
RTVSPropertyOp4
 70
     1
102
RTVSPropertyOp5
 70
     1
102
RTVSPropertyOp6
 70
     1
102
RTVSPropertyOp7
 70
     1
102
RTVSPropertyOp8
 70
     1
102
RTVSPropertyOp9
 70
     1
102
RTVSPropertyOp10
 70
     1
102
RTVSPropertyOp11
 70
     1
102
RTVSPropertyOp12
 70
     1
102
RTVSPropertyOp13
 70
     1
102
RTVSPropertyOp14
 70
     1
102
RTVSPropertyOp15
 70
     1
102
RTVSPropertyOp16
 70
     1
102
RTVSPropertyOp17
 70
     1
102
RTVSPropertyOp18
 70
     1
102
RTVSPropertyOp19
 70
     1
102
RTVSPropertyOp20
 70
     1
102
RTVSPropertyOp21
 70
     1
102
RTVSPropertyOp22
 70
     1
102
RTVSPropertyOp23
 70
     1
102
RTVSPropertyOp24
 70
     1
102
RTVSPropertyOp25
 70
     1
102
RTVSPropertyOp26
 70
     1
102
RTVSPropertyOp27
 70
     1
102
RTVSPropertyOp28
 70
     1
102
RTVSPropertyOp29
 70
     1
102
RTVSPropertyOp30
 70
     1
102
RTVSPropertyOp31
 70
     1
102
RTVSPropertyOp32
 70
     1
102
RTVSPropertyOp33
 70
     1
102
RTVSPropertyOp34
 70
     1
102
RTVSPropertyOp35
 70
     1
102
RTVSPropertyOp36
 70
     1
102
RTVSPropertyOp37
 70
     1
102
RTVSPropertyOp38
 70
     1
102
RTVSPropertyOp39
 70
     1
102
RTVSPropertyOp40
 70
     1
102
RTVSPropertyOp41
 70
     1
102
RTVSPropertyOp42
 70
     1
102
RTVSPropertyOp43
 70
     1
102
RTVSPropertyOp44
 70
     1
102
RTVSPropertyOp45
 70
     1
102
RTVSPropertyOp46
 70
     1
102
RTVSPropertyOp47
 70
     1
102
RTVSPropertyOp48
 70
     1
102
RTVSPropertyOp49
 70
     1
102
RTVSPropertyOp50
 70
     1
102
RTVSPropertyOp51
 70
     0
102
RTVSPropertyOp52
 70
     0
102
RTVSPropertyOp53
 70
     1
102
RTVSPropertyOp54
 70
     1
102
RTVSPropertyOp55
 70
     1
102
RTVSPropertyOp56
 70
     1
102
RTVSPropertyOp57
 70
     1
102
RTVSPropertyOp58
 70
     1
102
RTVSPropertyOp59
 70
     1
102
RTVSPropertyOp60
 70
     1
102
RTVSPropertyOp61
 70
     1
102
RTVSPropertyOp62
 70
     1
  0
XRECORD
  5
40D1
102
{ACAD_REACTORS
330
40D0
102
}
330
40D0
100
AcDbXrecord
280
     1
102
RTVSPost2010Prop28
280
     0
102
RTVSPost2010PropOp28
 70
     1
102
RTVSPost2010Prop29
280
     1
102
RTVSPost2010PropOp29
 70
     1
102
RTVSPost2010Prop30
280
     1
102
RTVSPost2010PropOp30
 70
     1
102
RTVSPost2010Prop31
280
     0
102
RTVSPost2010PropOp31
 70
     1
102
RTVSPost2010Prop32
280
     0
102
RTVSPost2010PropOp32
 70
     1
102
RTVSPost2010Prop33
280
     0
102
RTVSPost2010PropOp33
 70
     1
102
RTVSPost2010Prop34
280
     0
102
RTVSPost2010PropOp34
 70
     1
102
RTVSPost2010Prop35
280
     0
102
RTVSPost2010PropOp35
 70
     1
102
RTVSPost2010Prop36
280
     0
102
RTVSPost2010PropOp36
 70
     1
102
RTVSPost2010Prop37
 90
       50
102
RTVSPost2010PropOp37
 70
     1
102
RTVSPost2010Prop38
140
0.0
102
RTVSPost2010PropOp38
 70
     1
102
RTVSPost2010Prop39
140
1.0
102
RTVSPost2010PropOp39
 70
     1
102
RTVSPost2010Prop40
 90
        0
102
RTVSPost2010PropOp40
 70
     1
102
RTVSPost2010Prop41ColorIndex
 90
       18
102
RTVSPost2010Prop41ColorRGB
 90
        0
102
RTVSPost2010PropOp41
 70
     1
102
RTVSPost2010Prop42
 90
       50
102
RTVSPost2010PropOp42
 70
     1
102
RTVSPost2010Prop43
 90
        3
102
RTVSPost2010PropOp43
 70
     1
102
RTVSPost2010Prop44ColorIndex
 90
        5
102
RTVSPost2010Prop44ColorRGB
 90
      255
102
RTVSPost2010PropOp44
 70
     1
102
RTVSPost2010Prop45
280
     0
102
RTVSPost2010PropOp45
 70
     1
102
RTVSPost2010Prop46
 90
       50
102
RTVSPost2010PropOp46
 70
     1
102
RTVSPost2010Prop47
 90
       50
102
RTVSPost2010PropOp47
 70
     1
102
RTVSPost2010Prop48
 90
       50
102
RTVSPost2010PropOp48
 70
     1
102
RTVSPost2010Prop49
280
     0
102
RTVSPost2010PropOp49
 70
     1
102
RTVSPost2010Prop50
 90
       50
102
RTVSPost2010PropOp50
 70
     1
102
RTVSPost2010Prop51ColorIndex
 90
      256
102
RTVSPost2010Prop51ColorRGB
 90
-16777216
102
RTVSPost2010PropOp51
 70
     0
102
RTVSPost2010Prop52
140
1.0
102
RTVSPost2010PropOp52
 70
     0
102
RTVSPost2010Prop53
 90
        2
102
RTVSPost2010PropOp53
 70
     1
102
RTVSPost2010Prop54
  1
strokes_ogs.tif
102
RTVSPost2010PropOp54
 70
     1
102
RTVSPost2010Prop55
280
     0
102
RTVSPost2010PropOp55
 70
     1
102
RTVSPost2010Prop56
140
1.0
102
RTVSPost2010PropOp56
 70
     1
102
RTVSPost2010Prop57
140
1.0
102
RTVSPost2010PropOp57
 70
     1
102
RTVSPropertyOp0
 70
     1
102
RTVSPropertyOp1
 70
     1
102
RTVSPropertyOp2
 70
     1
102
RTVSPropertyOp3
 70
     1
102
RTVSPropertyOp4
 70
     1
102
RTVSPropertyOp5
 70
     1
102
RTVSPropertyOp6
 70
     1
102
RTVSPropertyOp7
 70
     1
102
RTVSPropertyOp8
 70
     1
102
RTVSPropertyOp9
 70
     1
102
RTVSPropertyOp10
 70
     1
102
RTVSPropertyOp11
 70
     1
102
RTVSPropertyOp12
 70
     1
102
RTVSPropertyOp13
 70
     1
102
RTVSPropertyOp14
 70
     1
102
RTVSPropertyOp15
 70
     1
102
RTVSPropertyOp16
 70
     1
102
RTVSPropertyOp17
 70
     1
102
RTVSPropertyOp18
 70
     1
102
RTVSPropertyOp19
 70
     1
102
RTVSPropertyOp20
 70
     1
102
RTVSPropertyOp21
 70
     1
102
RTVSPropertyOp22
 70
     1
102
RTVSPropertyOp23
 70
     1
102
RTVSPropertyOp24
 70
     1
102
RTVSPropertyOp25
 70
     1
102
RTVSPropertyOp26
 70
     1
102
RTVSPropertyOp27
 70
     1
102
RTVSPropertyOp28
 70
     1
102
RTVSPropertyOp29
 70
     1
102
RTVSPropertyOp30
 70
     1
102
RTVSPropertyOp31
 70
     1
102
RTVSPropertyOp32
 70
     1
102
RTVSPropertyOp33
 70
     1
102
RTVSPropertyOp34
 70
     1
102
RTVSPropertyOp35
 70
     1
102
RTVSPropertyOp36
 70
     1
102
RTVSPropertyOp37
 70
     1
102
RTVSPropertyOp38
 70
     1
102
RTVSPropertyOp39
 70
     1
102
RTVSPropertyOp40
 70
     1
102
RTVSPropertyOp41
 70
     1
102
RTVSPropertyOp42
 70
     1
102
RTVSPropertyOp43
 70
     1
102
RTVSPropertyOp44
 70
     1
102
RTVSPropertyOp45
 70
     1
102
RTVSPropertyOp46
 70
     1
102
RTVSPropertyOp47
 70
     1
102
RTVSPropertyOp48
 70
     1
102
RTVSPropertyOp49
 70
     1
102
RTVSPropertyOp50
 70
     1
102
RTVSPropertyOp51
 70
     0
102
RTVSPropertyOp52
 70
     0
102
RTVSPropertyOp53
 70
     1
102
RTVSPropertyOp54
 70
     1
102
RTVSPropertyOp55
 70
     1
102
RTVSPropertyOp56
 70
     1
102
RTVSPropertyOp57
 70
     1
102
RTVSPropertyOp58
 70
     1
102
RTVSPropertyOp59
 70
     1
102
RTVSPropertyOp60
 70
     1
102
RTVSPropertyOp61
 70
     1
102
RTVSPropertyOp62
 70
     1
  0
XRECORD
  5
40C3
102
{ACAD_REACTORS
330
40C2
102
}
330
40C2
100
AcDbXrecord
280
     1
102
RTVSPost2010Prop28
280
     0
102
RTVSPost2010PropOp28
 70
     1
102
RTVSPost2010Prop29
280
     1
102
RTVSPost2010PropOp29
 70
     1
102
RTVSPost2010Prop30
280
     1
102
RTVSPost2010PropOp30
 70
     1
102
RTVSPost2010Prop31
280
     0
102
RTVSPost2010PropOp31
 70
     1
102
RTVSPost2010Prop32
280
     0
102
RTVSPost2010PropOp32
 70
     1
102
RTVSPost2010Prop33
280
     0
102
RTVSPost2010PropOp33
 70
     1
102
RTVSPost2010Prop34
280
     0
102
RTVSPost2010PropOp34
 70
     1
102
RTVSPost2010Prop35
280
     0
102
RTVSPost2010PropOp35
 70
     1
102
RTVSPost2010Prop36
280
     0
102
RTVSPost2010PropOp36
 70
     1
102
RTVSPost2010Prop37
 90
       50
102
RTVSPost2010PropOp37
 70
     1
102
RTVSPost2010Prop38
140
0.0
102
RTVSPost2010PropOp38
 70
     1
102
RTVSPost2010Prop39
140
1.0
102
RTVSPost2010PropOp39
 70
     1
102
RTVSPost2010Prop40
 90
        0
102
RTVSPost2010PropOp40
 70
     1
102
RTVSPost2010Prop41ColorIndex
 90
       18
102
RTVSPost2010Prop41ColorRGB
 90
        0
102
RTVSPost2010PropOp41
 70
     1
102
RTVSPost2010Prop42
 90
       50
102
RTVSPost2010PropOp42
 70
     1
102
RTVSPost2010Prop43
 90
        3
102
RTVSPost2010PropOp43
 70
     1
102
RTVSPost2010Prop44ColorIndex
 90
        5
102
RTVSPost2010Prop44ColorRGB
 90
      255
102
RTVSPost2010PropOp44
 70
     1
102
RTVSPost2010Prop45
280
     0
102
RTVSPost2010PropOp45
 70
     1
102
RTVSPost2010Prop46
 90
       50
102
RTVSPost2010PropOp46
 70
     1
102
RTVSPost2010Prop47
 90
       50
102
RTVSPost2010PropOp47
 70
     1
102
RTVSPost2010Prop48
 90
       50
102
RTVSPost2010PropOp48
 70
     1
102
RTVSPost2010Prop49
280
     0
102
RTVSPost2010PropOp49
 70
     1
102
RTVSPost2010Prop50
 90
       50
102
RTVSPost2010PropOp50
 70
     1
102
RTVSPost2010Prop51ColorIndex
 90
      256
102
RTVSPost2010Prop51ColorRGB
 90
-16777216
102
RTVSPost2010PropOp51
 70
     0
102
RTVSPost2010Prop52
140
1.0
102
RTVSPost2010PropOp52
 70
     0
102
RTVSPost2010Prop53
 90
        2
102
RTVSPost2010PropOp53
 70
     1
102
RTVSPost2010Prop54
  1
strokes_ogs.tif
102
RTVSPost2010PropOp54
 70
     1
102
RTVSPost2010Prop55
280
     0
102
RTVSPost2010PropOp55
 70
     1
102
RTVSPost2010Prop56
140
1.0
102
RTVSPost2010PropOp56
 70
     1
102
RTVSPost2010Prop57
140
1.0
102
RTVSPost2010PropOp57
 70
     1
102
RTVSPropertyOp0
 70
     1
102
RTVSPropertyOp1
 70
     1
102
RTVSPropertyOp2
 70
     1
102
RTVSPropertyOp3
 70
     1
102
RTVSPropertyOp4
 70
     1
102
RTVSPropertyOp5
 70
     1
102
RTVSPropertyOp6
 70
     1
102
RTVSPropertyOp7
 70
     1
102
RTVSPropertyOp8
 70
     1
102
RTVSPropertyOp9
 70
     1
102
RTVSPropertyOp10
 70
     1
102
RTVSPropertyOp11
 70
     1
102
RTVSPropertyOp12
 70
     1
102
RTVSPropertyOp13
 70
     1
102
RTVSPropertyOp14
 70
     1
102
RTVSPropertyOp15
 70
     1
102
RTVSPropertyOp16
 70
     1
102
RTVSPropertyOp17
 70
     1
102
RTVSPropertyOp18
 70
     1
102
RTVSPropertyOp19
 70
     1
102
RTVSPropertyOp20
 70
     1
102
RTVSPropertyOp21
 70
     1
102
RTVSPropertyOp22
 70
     1
102
RTVSPropertyOp23
 70
     1
102
RTVSPropertyOp24
 70
     1
102
RTVSPropertyOp25
 70
     1
102
RTVSPropertyOp26
 70
     1
102
RTVSPropertyOp27
 70
     1
102
RTVSPropertyOp28
 70
     1
102
RTVSPropertyOp29
 70
     1
102
RTVSPropertyOp30
 70
     1
102
RTVSPropertyOp31
 70
     1
102
RTVSPropertyOp32
 70
     1
102
RTVSPropertyOp33
 70
     1
102
RTVSPropertyOp34
 70
     1
102
RTVSPropertyOp35
 70
     1
102
RTVSPropertyOp36
 70
     1
102
RTVSPropertyOp37
 70
     1
102
RTVSPropertyOp38
 70
     1
102
RTVSPropertyOp39
 70
     1
102
RTVSPropertyOp40
 70
     1
102
RTVSPropertyOp41
 70
     1
102
RTVSPropertyOp42
 70
     1
102
RTVSPropertyOp43
 70
     1
102
RTVSPropertyOp44
 70
     1
102
RTVSPropertyOp45
 70
     1
102
RTVSPropertyOp46
 70
     1
102
RTVSPropertyOp47
 70
     1
102
RTVSPropertyOp48
 70
     1
102
RTVSPropertyOp49
 70
     1
102
RTVSPropertyOp50
 70
     1
102
RTVSPropertyOp51
 70
     0
102
RTVSPropertyOp52
 70
     0
102
RTVSPropertyOp53
 70
     1
102
RTVSPropertyOp54
 70
     1
102
RTVSPropertyOp55
 70
     1
102
RTVSPropertyOp56
 70
     1
102
RTVSPropertyOp57
 70
     1
102
RTVSPropertyOp58
 70
     1
102
RTVSPropertyOp59
 70
     1
102
RTVSPropertyOp60
 70
     1
102
RTVSPropertyOp61
 70
     1
102
RTVSPropertyOp62
 70
     1
  0
XRECORD
  5
40C7
102
{ACAD_REACTORS
330
40C6
102
}
330
40C6
100
AcDbXrecord
280
     1
102
RTVSPost2010Prop28
280
     0
102
RTVSPost2010PropOp28
 70
     1
102
RTVSPost2010Prop29
280
     1
102
RTVSPost2010PropOp29
 70
     1
102
RTVSPost2010Prop30
280
     1
102
RTVSPost2010PropOp30
 70
     1
102
RTVSPost2010Prop31
280
     0
102
RTVSPost2010PropOp31
 70
     1
102
RTVSPost2010Prop32
280
     0
102
RTVSPost2010PropOp32
 70
     1
102
RTVSPost2010Prop33
280
     0
102
RTVSPost2010PropOp33
 70
     1
102
RTVSPost2010Prop34
280
     0
102
RTVSPost2010PropOp34
 70
     1
102
RTVSPost2010Prop35
280
     0
102
RTVSPost2010PropOp35
 70
     1
102
RTVSPost2010Prop36
280
     0
102
RTVSPost2010PropOp36
 70
     1
102
RTVSPost2010Prop37
 90
       50
102
RTVSPost2010PropOp37
 70
     1
102
RTVSPost2010Prop38
140
0.0
102
RTVSPost2010PropOp38
 70
     1
102
RTVSPost2010Prop39
140
1.0
102
RTVSPost2010PropOp39
 70
     1
102
RTVSPost2010Prop40
 90
        0
102
RTVSPost2010PropOp40
 70
     1
102
RTVSPost2010Prop41ColorIndex
 90
       18
102
RTVSPost2010Prop41ColorRGB
 90
        0
102
RTVSPost2010PropOp41
 70
     1
102
RTVSPost2010Prop42
 90
       50
102
RTVSPost2010PropOp42
 70
     1
102
RTVSPost2010Prop43
 90
        3
102
RTVSPost2010PropOp43
 70
     1
102
RTVSPost2010Prop44ColorIndex
 90
        5
102
RTVSPost2010Prop44ColorRGB
 90
      255
102
RTVSPost2010PropOp44
 70
     1
102
RTVSPost2010Prop45
280
     0
102
RTVSPost2010PropOp45
 70
     1
102
RTVSPost2010Prop46
 90
       50
102
RTVSPost2010PropOp46
 70
     1
102
RTVSPost2010Prop47
 90
       50
102
RTVSPost2010PropOp47
 70
     1
102
RTVSPost2010Prop48
 90
       50
102
RTVSPost2010PropOp48
 70
     1
102
RTVSPost2010Prop49
280
     0
102
RTVSPost2010PropOp49
 70
     1
102
RTVSPost2010Prop50
 90
       50
102
RTVSPost2010PropOp50
 70
     1
102
RTVSPost2010Prop51ColorIndex
 90
      256
102
RTVSPost2010Prop51ColorRGB
 90
-16777216
102
RTVSPost2010PropOp51
 70
     0
102
RTVSPost2010Prop52
140
1.0
102
RTVSPost2010PropOp52
 70
     0
102
RTVSPost2010Prop53
 90
        2
102
RTVSPost2010PropOp53
 70
     1
102
RTVSPost2010Prop54
  1
strokes_ogs.tif
102
RTVSPost2010PropOp54
 70
     1
102
RTVSPost2010Prop55
280
     0
102
RTVSPost2010PropOp55
 70
     1
102
RTVSPost2010Prop56
140
1.0
102
RTVSPost2010PropOp56
 70
     1
102
RTVSPost2010Prop57
140
1.0
102
RTVSPost2010PropOp57
 70
     1
102
RTVSPropertyOp0
 70
     1
102
RTVSPropertyOp1
 70
     1
102
RTVSPropertyOp2
 70
     1
102
RTVSPropertyOp3
 70
     1
102
RTVSPropertyOp4
 70
     1
102
RTVSPropertyOp5
 70
     1
102
RTVSPropertyOp6
 70
     1
102
RTVSPropertyOp7
 70
     1
102
RTVSPropertyOp8
 70
     1
102
RTVSPropertyOp9
 70
     1
102
RTVSPropertyOp10
 70
     1
102
RTVSPropertyOp11
 70
     1
102
RTVSPropertyOp12
 70
     1
102
RTVSPropertyOp13
 70
     1
102
RTVSPropertyOp14
 70
     1
102
RTVSPropertyOp15
 70
     1
102
RTVSPropertyOp16
 70
     1
102
RTVSPropertyOp17
 70
     1
102
RTVSPropertyOp18
 70
     1
102
RTVSPropertyOp19
 70
     1
102
RTVSPropertyOp20
 70
     1
102
RTVSPropertyOp21
 70
     1
102
RTVSPropertyOp22
 70
     1
102
RTVSPropertyOp23
 70
     1
102
RTVSPropertyOp24
 70
     1
102
RTVSPropertyOp25
 70
     1
102
RTVSPropertyOp26
 70
     1
102
RTVSPropertyOp27
 70
     1
102
RTVSPropertyOp28
 70
     1
102
RTVSPropertyOp29
 70
     1
102
RTVSPropertyOp30
 70
     1
102
RTVSPropertyOp31
 70
     1
102
RTVSPropertyOp32
 70
     1
102
RTVSPropertyOp33
 70
     1
102
RTVSPropertyOp34
 70
     1
102
RTVSPropertyOp35
 70
     1
102
RTVSPropertyOp36
 70
     1
102
RTVSPropertyOp37
 70
     1
102
RTVSPropertyOp38
 70
     1
102
RTVSPropertyOp39
 70
     1
102
RTVSPropertyOp40
 70
     1
102
RTVSPropertyOp41
 70
     1
102
RTVSPropertyOp42
 70
     1
102
RTVSPropertyOp43
 70
     1
102
RTVSPropertyOp44
 70
     1
102
RTVSPropertyOp45
 70
     1
102
RTVSPropertyOp46
 70
     1
102
RTVSPropertyOp47
 70
     1
102
RTVSPropertyOp48
 70
     1
102
RTVSPropertyOp49
 70
     1
102
RTVSPropertyOp50
 70
     1
102
RTVSPropertyOp51
 70
     0
102
RTVSPropertyOp52
 70
     0
102
RTVSPropertyOp53
 70
     1
102
RTVSPropertyOp54
 70
     1
102
RTVSPropertyOp55
 70
     1
102
RTVSPropertyOp56
 70
     1
102
RTVSPropertyOp57
 70
     1
102
RTVSPropertyOp58
 70
     1
102
RTVSPropertyOp59
 70
     1
102
RTVSPropertyOp60
 70
     1
102
RTVSPropertyOp61
 70
     1
102
RTVSPropertyOp62
 70
     1
  0
XRECORD
  5
40E1
102
{ACAD_REACTORS
330
40E0
102
}
330
40E0
100
AcDbXrecord
280
     1
102
RTVSPost2010Prop28
280
     0
102
RTVSPost2010PropOp28
 70
     1
102
RTVSPost2010Prop29
280
     1
102
RTVSPost2010PropOp29
 70
     1
102
RTVSPost2010Prop30
280
     1
102
RTVSPost2010PropOp30
 70
     1
102
RTVSPost2010Prop31
280
     0
102
RTVSPost2010PropOp31
 70
     1
102
RTVSPost2010Prop32
280
     0
102
RTVSPost2010PropOp32
 70
     1
102
RTVSPost2010Prop33
280
     0
102
RTVSPost2010PropOp33
 70
     1
102
RTVSPost2010Prop34
280
     0
102
RTVSPost2010PropOp34
 70
     1
102
RTVSPost2010Prop35
280
     0
102
RTVSPost2010PropOp35
 70
     1
102
RTVSPost2010Prop36
280
     0
102
RTVSPost2010PropOp36
 70
     1
102
RTVSPost2010Prop37
 90
       50
102
RTVSPost2010PropOp37
 70
     0
102
RTVSPost2010Prop38
140
0.0
102
RTVSPost2010PropOp38
 70
     0
102
RTVSPost2010Prop39
140
1.0
102
RTVSPost2010PropOp39
 70
     0
102
RTVSPost2010Prop40
 90
        0
102
RTVSPost2010PropOp40
 70
     0
102
RTVSPost2010Prop41ColorIndex
 90
       18
102
RTVSPost2010Prop41ColorRGB
 90
        0
102
RTVSPost2010PropOp41
 70
     0
102
RTVSPost2010Prop42
 90
       50
102
RTVSPost2010PropOp42
 70
     0
102
RTVSPost2010Prop43
 90
        3
102
RTVSPost2010PropOp43
 70
     0
102
RTVSPost2010Prop44ColorIndex
 90
        5
102
RTVSPost2010Prop44ColorRGB
 90
      255
102
RTVSPost2010PropOp44
 70
     0
102
RTVSPost2010Prop45
280
     0
102
RTVSPost2010PropOp45
 70
     1
102
RTVSPost2010Prop46
 90
       50
102
RTVSPost2010PropOp46
 70
     0
102
RTVSPost2010Prop47
 90
       50
102
RTVSPost2010PropOp47
 70
     0
102
RTVSPost2010Prop48
 90
       50
102
RTVSPost2010PropOp48
 70
     0
102
RTVSPost2010Prop49
280
     0
102
RTVSPost2010PropOp49
 70
     1
102
RTVSPost2010Prop50
 90
       50
102
RTVSPost2010PropOp50
 70
     0
102
RTVSPost2010Prop51ColorIndex
 90
      256
102
RTVSPost2010Prop51ColorRGB
 90
-16777216
102
RTVSPost2010PropOp51
 70
     0
102
RTVSPost2010Prop52
140
1.0
102
RTVSPost2010PropOp52
 70
     0
102
RTVSPost2010Prop53
 90
        2
102
RTVSPost2010PropOp53
 70
     0
102
RTVSPost2010Prop54
  1
strokes_ogs.tif
102
RTVSPost2010PropOp54
 70
     0
102
RTVSPost2010Prop55
280
     0
102
RTVSPost2010PropOp55
 70
     1
102
RTVSPost2010Prop56
140
1.0
102
RTVSPost2010PropOp56
 70
     0
102
RTVSPost2010Prop57
140
1.0
102
RTVSPost2010PropOp57
 70
     0
102
RTVSPropertyOp0
 70
     0
102
RTVSPropertyOp1
 70
     0
102
RTVSPropertyOp2
 70
     0
102
RTVSPropertyOp3
 70
     0
102
RTVSPropertyOp4
 70
     0
102
RTVSPropertyOp5
 70
     0
102
RTVSPropertyOp6
 70
     0
102
RTVSPropertyOp7
 70
     0
102
RTVSPropertyOp8
 70
     0
102
RTVSPropertyOp9
 70
     0
102
RTVSPropertyOp10
 70
     0
102
RTVSPropertyOp11
 70
     0
102
RTVSPropertyOp12
 70
     0
102
RTVSPropertyOp13
 70
     0
102
RTVSPropertyOp14
 70
     2
102
RTVSPropertyOp15
 70
     0
102
RTVSPropertyOp16
 70
     0
102
RTVSPropertyOp17
 70
     0
102
RTVSPropertyOp18
 70
     0
102
RTVSPropertyOp19
 70
     0
102
RTVSPropertyOp20
 70
     0
102
RTVSPropertyOp21
 70
     0
102
RTVSPropertyOp22
 70
     0
102
RTVSPropertyOp23
 70
     0
102
RTVSPropertyOp24
 70
     0
102
RTVSPropertyOp25
 70
     0
102
RTVSPropertyOp26
 70
     0
102
RTVSPropertyOp27
 70
     0
102
RTVSPropertyOp28
 70
     1
102
RTVSPropertyOp29
 70
     1
102
RTVSPropertyOp30
 70
     1
102
RTVSPropertyOp31
 70
     1
102
RTVSPropertyOp32
 70
     1
102
RTVSPropertyOp33
 70
     1
102
RTVSPropertyOp34
 70
     1
102
RTVSPropertyOp35
 70
     1
102
RTVSPropertyOp36
 70
     1
102
RTVSPropertyOp37
 70
     0
102
RTVSPropertyOp38
 70
     0
102
RTVSPropertyOp39
 70
     0
102
RTVSPropertyOp40
 70
     0
102
RTVSPropertyOp41
 70
     0
102
RTVSPropertyOp42
 70
     0
102
RTVSPropertyOp43
 70
     0
102
RTVSPropertyOp44
 70
     0
102
RTVSPropertyOp45
 70
     1
102
RTVSPropertyOp46
 70
     0
102
RTVSPropertyOp47
 70
     0
102
RTVSPropertyOp48
 70
     0
102
RTVSPropertyOp49
 70
     1
102
RTVSPropertyOp50
 70
     0
102
RTVSPropertyOp51
 70
     0
102
RTVSPropertyOp52
 70
     0
102
RTVSPropertyOp53
 70
     0
102
RTVSPropertyOp54
 70
     0
102
RTVSPropertyOp55
 70
     1
102
RTVSPropertyOp56
 70
     0
102
RTVSPropertyOp57
 70
     0
102
RTVSPropertyOp58
 70
     0
102
RTVSPropertyOp59
 70
     0
102
RTVSPropertyOp60
 70
     0
102
RTVSPropertyOp61
 70
     0
102
RTVSPropertyOp62
 70
     0
  0
XRECORD
  5
40CF
102
{ACAD_REACTORS
330
40CE
102
}
330
40CE
100
AcDbXrecord
280
     1
102
RTVSPost2010Prop28
280
     0
102
RTVSPost2010PropOp28
 70
     1
102
RTVSPost2010Prop29
280
     1
102
RTVSPost2010PropOp29
 70
     1
102
RTVSPost2010Prop30
280
     1
102
RTVSPost2010PropOp30
 70
     1
102
RTVSPost2010Prop31
280
     0
102
RTVSPost2010PropOp31
 70
     1
102
RTVSPost2010Prop32
280
     0
102
RTVSPost2010PropOp32
 70
     1
102
RTVSPost2010Prop33
280
     0
102
RTVSPost2010PropOp33
 70
     1
102
RTVSPost2010Prop34
280
     0
102
RTVSPost2010PropOp34
 70
     1
102
RTVSPost2010Prop35
280
     0
102
RTVSPost2010PropOp35
 70
     1
102
RTVSPost2010Prop36
280
     0
102
RTVSPost2010PropOp36
 70
     1
102
RTVSPost2010Prop37
 90
       50
102
RTVSPost2010PropOp37
 70
     1
102
RTVSPost2010Prop38
140
0.0
102
RTVSPost2010PropOp38
 70
     1
102
RTVSPost2010Prop39
140
1.0
102
RTVSPost2010PropOp39
 70
     1
102
RTVSPost2010Prop40
 90
        0
102
RTVSPost2010PropOp40
 70
     1
102
RTVSPost2010Prop41ColorIndex
 90
       18
102
RTVSPost2010Prop41ColorRGB
 90
        0
102
RTVSPost2010PropOp41
 70
     1
102
RTVSPost2010Prop42
 90
       50
102
RTVSPost2010PropOp42
 70
     1
102
RTVSPost2010Prop43
 90
        3
102
RTVSPost2010PropOp43
 70
     1
102
RTVSPost2010Prop44ColorIndex
 90
        5
102
RTVSPost2010Prop44ColorRGB
 90
      255
102
RTVSPost2010PropOp44
 70
     1
102
RTVSPost2010Prop45
280
     0
102
RTVSPost2010PropOp45
 70
     1
102
RTVSPost2010Prop46
 90
       50
102
RTVSPost2010PropOp46
 70
     1
102
RTVSPost2010Prop47
 90
       50
102
RTVSPost2010PropOp47
 70
     1
102
RTVSPost2010Prop48
 90
       50
102
RTVSPost2010PropOp48
 70
     1
102
RTVSPost2010Prop49
280
     0
102
RTVSPost2010PropOp49
 70
     1
102
RTVSPost2010Prop50
 90
       50
102
RTVSPost2010PropOp50
 70
     1
102
RTVSPost2010Prop51ColorIndex
 90
      256
102
RTVSPost2010Prop51ColorRGB
 90
-16777216
102
RTVSPost2010PropOp51
 70
     0
102
RTVSPost2010Prop52
140
1.0
102
RTVSPost2010PropOp52
 70
     0
102
RTVSPost2010Prop53
 90
        2
102
RTVSPost2010PropOp53
 70
     1
102
RTVSPost2010Prop54
  1
strokes_ogs.tif
102
RTVSPost2010PropOp54
 70
     1
102
RTVSPost2010Prop55
280
     0
102
RTVSPost2010PropOp55
 70
     1
102
RTVSPost2010Prop56
140
1.0
102
RTVSPost2010PropOp56
 70
     1
102
RTVSPost2010Prop57
140
1.0
102
RTVSPost2010PropOp57
 70
     1
102
RTVSPropertyOp0
 70
     1
102
RTVSPropertyOp1
 70
     1
102
RTVSPropertyOp2
 70
     1
102
RTVSPropertyOp3
 70
     1
102
RTVSPropertyOp4
 70
     1
102
RTVSPropertyOp5
 70
     1
102
RTVSPropertyOp6
 70
     1
102
RTVSPropertyOp7
 70
     1
102
RTVSPropertyOp8
 70
     1
102
RTVSPropertyOp9
 70
     1
102
RTVSPropertyOp10
 70
     1
102
RTVSPropertyOp11
 70
     1
102
RTVSPropertyOp12
 70
     1
102
RTVSPropertyOp13
 70
     1
102
RTVSPropertyOp14
 70
     1
102
RTVSPropertyOp15
 70
     1
102
RTVSPropertyOp16
 70
     1
102
RTVSPropertyOp17
 70
     1
102
RTVSPropertyOp18
 70
     1
102
RTVSPropertyOp19
 70
     1
102
RTVSPropertyOp20
 70
     1
102
RTVSPropertyOp21
 70
     1
102
RTVSPropertyOp22
 70
     1
102
RTVSPropertyOp23
 70
     1
102
RTVSPropertyOp24
 70
     1
102
RTVSPropertyOp25
 70
     1
102
RTVSPropertyOp26
 70
     1
102
RTVSPropertyOp27
 70
     1
102
RTVSPropertyOp28
 70
     1
102
RTVSPropertyOp29
 70
     1
102
RTVSPropertyOp30
 70
     1
102
RTVSPropertyOp31
 70
     1
102
RTVSPropertyOp32
 70
     1
102
RTVSPropertyOp33
 70
     1
102
RTVSPropertyOp34
 70
     1
102
RTVSPropertyOp35
 70
     1
102
RTVSPropertyOp36
 70
     1
102
RTVSPropertyOp37
 70
     1
102
RTVSPropertyOp38
 70
     1
102
RTVSPropertyOp39
 70
     1
102
RTVSPropertyOp40
 70
     1
102
RTVSPropertyOp41
 70
     1
102
RTVSPropertyOp42
 70
     1
102
RTVSPropertyOp43
 70
     1
102
RTVSPropertyOp44
 70
     1
102
RTVSPropertyOp45
 70
     1
102
RTVSPropertyOp46
 70
     1
102
RTVSPropertyOp47
 70
     1
102
RTVSPropertyOp48
 70
     1
102
RTVSPropertyOp49
 70
     1
102
RTVSPropertyOp50
 70
     1
102
RTVSPropertyOp51
 70
     0
102
RTVSPropertyOp52
 70
     0
102
RTVSPropertyOp53
 70
     1
102
RTVSPropertyOp54
 70
     1
102
RTVSPropertyOp55
 70
     1
102
RTVSPropertyOp56
 70
     1
102
RTVSPropertyOp57
 70
     1
102
RTVSPropertyOp58
 70
     1
102
RTVSPropertyOp59
 70
     1
102
RTVSPropertyOp60
 70
     1
102
RTVSPropertyOp61
 70
     1
102
RTVSPropertyOp62
 70
     1
  0
XRECORD
  5
40B3
102
{ACAD_REACTORS
330
40B2
102
}
330
40B2
100
AcDbXrecord
280
     1
102
RTVSPost2010Prop28
280
     0
102
RTVSPost2010PropOp28
 70
     1
102
RTVSPost2010Prop29
280
     1
102
RTVSPost2010PropOp29
 70
     1
102
RTVSPost2010Prop30
280
     1
102
RTVSPost2010PropOp30
 70
     1
102
RTVSPost2010Prop31
280
     0
102
RTVSPost2010PropOp31
 70
     1
102
RTVSPost2010Prop32
280
     0
102
RTVSPost2010PropOp32
 70
     1
102
RTVSPost2010Prop33
280
     0
102
RTVSPost2010PropOp33
 70
     1
102
RTVSPost2010Prop34
280
     0
102
RTVSPost2010PropOp34
 70
     1
102
RTVSPost2010Prop35
280
     0
102
RTVSPost2010PropOp35
 70
     1
102
RTVSPost2010Prop36
280
     0
102
RTVSPost2010PropOp36
 70
     1
102
RTVSPost2010Prop37
 90
       50
102
RTVSPost2010PropOp37
 70
     1
102
RTVSPost2010Prop38
140
0.0
102
RTVSPost2010PropOp38
 70
     1
102
RTVSPost2010Prop39
140
1.0
102
RTVSPost2010PropOp39
 70
     1
102
RTVSPost2010Prop40
 90
        0
102
RTVSPost2010PropOp40
 70
     1
102
RTVSPost2010Prop41ColorIndex
 90
       18
102
RTVSPost2010Prop41ColorRGB
 90
        0
102
RTVSPost2010PropOp41
 70
     1
102
RTVSPost2010Prop42
 90
       50
102
RTVSPost2010PropOp42
 70
     1
102
RTVSPost2010Prop43
 90
        3
102
RTVSPost2010PropOp43
 70
     1
102
RTVSPost2010Prop44ColorIndex
 90
        5
102
RTVSPost2010Prop44ColorRGB
 90
      255
102
RTVSPost2010PropOp44
 70
     1
102
RTVSPost2010Prop45
280
     0
102
RTVSPost2010PropOp45
 70
     1
102
RTVSPost2010Prop46
 90
       50
102
RTVSPost2010PropOp46
 70
     1
102
RTVSPost2010Prop47
 90
       50
102
RTVSPost2010PropOp47
 70
     1
102
RTVSPost2010Prop48
 90
       50
102
RTVSPost2010PropOp48
 70
     1
102
RTVSPost2010Prop49
280
     0
102
RTVSPost2010PropOp49
 70
     1
102
RTVSPost2010Prop50
 90
       50
102
RTVSPost2010PropOp50
 70
     1
102
RTVSPost2010Prop51ColorIndex
 90
      256
102
RTVSPost2010Prop51ColorRGB
 90
-16777216
102
RTVSPost2010PropOp51
 70
     0
102
RTVSPost2010Prop52
140
1.0
102
RTVSPost2010PropOp52
 70
     0
102
RTVSPost2010Prop53
 90
        2
102
RTVSPost2010PropOp53
 70
     1
102
RTVSPost2010Prop54
  1
strokes_ogs.tif
102
RTVSPost2010PropOp54
 70
     1
102
RTVSPost2010Prop55
280
     0
102
RTVSPost2010PropOp55
 70
     1
102
RTVSPost2010Prop56
140
1.0
102
RTVSPost2010PropOp56
 70
     1
102
RTVSPost2010Prop57
140
1.0
102
RTVSPost2010PropOp57
 70
     1
102
RTVSPropertyOp0
 70
     1
102
RTVSPropertyOp1
 70
     1
102
RTVSPropertyOp2
 70
     1
102
RTVSPropertyOp3
 70
     1
102
RTVSPropertyOp4
 70
     1
102
RTVSPropertyOp5
 70
     1
102
RTVSPropertyOp6
 70
     1
102
RTVSPropertyOp7
 70
     1
102
RTVSPropertyOp8
 70
     1
102
RTVSPropertyOp9
 70
     1
102
RTVSPropertyOp10
 70
     1
102
RTVSPropertyOp11
 70
     1
102
RTVSPropertyOp12
 70
     1
102
RTVSPropertyOp13
 70
     1
102
RTVSPropertyOp14
 70
     1
102
RTVSPropertyOp15
 70
     1
102
RTVSPropertyOp16
 70
     1
102
RTVSPropertyOp17
 70
     1
102
RTVSPropertyOp18
 70
     1
102
RTVSPropertyOp19
 70
     1
102
RTVSPropertyOp20
 70
     1
102
RTVSPropertyOp21
 70
     1
102
RTVSPropertyOp22
 70
     1
102
RTVSPropertyOp23
 70
     1
102
RTVSPropertyOp24
 70
     1
102
RTVSPropertyOp25
 70
     1
102
RTVSPropertyOp26
 70
     1
102
RTVSPropertyOp27
 70
     1
102
RTVSPropertyOp28
 70
     1
102
RTVSPropertyOp29
 70
     1
102
RTVSPropertyOp30
 70
     1
102
RTVSPropertyOp31
 70
     1
102
RTVSPropertyOp32
 70
     1
102
RTVSPropertyOp33
 70
     1
102
RTVSPropertyOp34
 70
     1
102
RTVSPropertyOp35
 70
     1
102
RTVSPropertyOp36
 70
     1
102
RTVSPropertyOp37
 70
     1
102
RTVSPropertyOp38
 70
     1
102
RTVSPropertyOp39
 70
     1
102
RTVSPropertyOp40
 70
     1
102
RTVSPropertyOp41
 70
     1
102
RTVSPropertyOp42
 70
     1
102
RTVSPropertyOp43
 70
     1
102
RTVSPropertyOp44
 70
     1
102
RTVSPropertyOp45
 70
     1
102
RTVSPropertyOp46
 70
     1
102
RTVSPropertyOp47
 70
     1
102
RTVSPropertyOp48
 70
     1
102
RTVSPropertyOp49
 70
     1
102
RTVSPropertyOp50
 70
     1
102
RTVSPropertyOp51
 70
     0
102
RTVSPropertyOp52
 70
     0
102
RTVSPropertyOp53
 70
     1
102
RTVSPropertyOp54
 70
     1
102
RTVSPropertyOp55
 70
     1
102
RTVSPropertyOp56
 70
     1
102
RTVSPropertyOp57
 70
     1
102
RTVSPropertyOp58
 70
     1
102
RTVSPropertyOp59
 70
     1
102
RTVSPropertyOp60
 70
     1
102
RTVSPropertyOp61
 70
     1
102
RTVSPropertyOp62
 70
     1
  0
XRECORD
  5
40B5
102
{ACAD_REACTORS
330
40B4
102
}
330
40B4
100
AcDbXrecord
280
     1
102
RTVSPost2010Prop28
280
     0
102
RTVSPost2010PropOp28
 70
     1
102
RTVSPost2010Prop29
280
     1
102
RTVSPost2010PropOp29
 70
     1
102
RTVSPost2010Prop30
280
     1
102
RTVSPost2010PropOp30
 70
     1
102
RTVSPost2010Prop31
280
     0
102
RTVSPost2010PropOp31
 70
     1
102
RTVSPost2010Prop32
280
     0
102
RTVSPost2010PropOp32
 70
     1
102
RTVSPost2010Prop33
280
     0
102
RTVSPost2010PropOp33
 70
     1
102
RTVSPost2010Prop34
280
     0
102
RTVSPost2010PropOp34
 70
     1
102
RTVSPost2010Prop35
280
     0
102
RTVSPost2010PropOp35
 70
     1
102
RTVSPost2010Prop36
280
     0
102
RTVSPost2010PropOp36
 70
     1
102
RTVSPost2010Prop37
 90
       50
102
RTVSPost2010PropOp37
 70
     1
102
RTVSPost2010Prop38
140
0.0
102
RTVSPost2010PropOp38
 70
     1
102
RTVSPost2010Prop39
140
1.0
102
RTVSPost2010PropOp39
 70
     1
102
RTVSPost2010Prop40
 90
        0
102
RTVSPost2010PropOp40
 70
     1
102
RTVSPost2010Prop41ColorIndex
 90
       18
102
RTVSPost2010Prop41ColorRGB
 90
        0
102
RTVSPost2010PropOp41
 70
     1
102
RTVSPost2010Prop42
 90
       50
102
RTVSPost2010PropOp42
 70
     1
102
RTVSPost2010Prop43
 90
        3
102
RTVSPost2010PropOp43
 70
     1
102
RTVSPost2010Prop44ColorIndex
 90
        5
102
RTVSPost2010Prop44ColorRGB
 90
      255
102
RTVSPost2010PropOp44
 70
     1
102
RTVSPost2010Prop45
280
     0
102
RTVSPost2010PropOp45
 70
     1
102
RTVSPost2010Prop46
 90
       50
102
RTVSPost2010PropOp46
 70
     1
102
RTVSPost2010Prop47
 90
       50
102
RTVSPost2010PropOp47
 70
     1
102
RTVSPost2010Prop48
 90
       50
102
RTVSPost2010PropOp48
 70
     1
102
RTVSPost2010Prop49
280
     0
102
RTVSPost2010PropOp49
 70
     1
102
RTVSPost2010Prop50
 90
       50
102
RTVSPost2010PropOp50
 70
     1
102
RTVSPost2010Prop51ColorIndex
 90
      256
102
RTVSPost2010Prop51ColorRGB
 90
-16777216
102
RTVSPost2010PropOp51
 70
     0
102
RTVSPost2010Prop52
140
1.0
102
RTVSPost2010PropOp52
 70
     0
102
RTVSPost2010Prop53
 90
        2
102
RTVSPost2010PropOp53
 70
     1
102
RTVSPost2010Prop54
  1
strokes_ogs.tif
102
RTVSPost2010PropOp54
 70
     1
102
RTVSPost2010Prop55
280
     0
102
RTVSPost2010PropOp55
 70
     1
102
RTVSPost2010Prop56
140
1.0
102
RTVSPost2010PropOp56
 70
     1
102
RTVSPost2010Prop57
140
1.0
102
RTVSPost2010PropOp57
 70
     1
102
RTVSPropertyOp0
 70
     1
102
RTVSPropertyOp1
 70
     1
102
RTVSPropertyOp2
 70
     1
102
RTVSPropertyOp3
 70
     1
102
RTVSPropertyOp4
 70
     1
102
RTVSPropertyOp5
 70
     1
102
RTVSPropertyOp6
 70
     1
102
RTVSPropertyOp7
 70
     1
102
RTVSPropertyOp8
 70
     1
102
RTVSPropertyOp9
 70
     1
102
RTVSPropertyOp10
 70
     1
102
RTVSPropertyOp11
 70
     1
102
RTVSPropertyOp12
 70
     1
102
RTVSPropertyOp13
 70
     1
102
RTVSPropertyOp14
 70
     1
102
RTVSPropertyOp15
 70
     1
102
RTVSPropertyOp16
 70
     1
102
RTVSPropertyOp17
 70
     1
102
RTVSPropertyOp18
 70
     1
102
RTVSPropertyOp19
 70
     1
102
RTVSPropertyOp20
 70
     1
102
RTVSPropertyOp21
 70
     1
102
RTVSPropertyOp22
 70
     1
102
RTVSPropertyOp23
 70
     1
102
RTVSPropertyOp24
 70
     1
102
RTVSPropertyOp25
 70
     1
102
RTVSPropertyOp26
 70
     1
102
RTVSPropertyOp27
 70
     1
102
RTVSPropertyOp28
 70
     1
102
RTVSPropertyOp29
 70
     1
102
RTVSPropertyOp30
 70
     1
102
RTVSPropertyOp31
 70
     1
102
RTVSPropertyOp32
 70
     1
102
RTVSPropertyOp33
 70
     1
102
RTVSPropertyOp34
 70
     1
102
RTVSPropertyOp35
 70
     1
102
RTVSPropertyOp36
 70
     1
102
RTVSPropertyOp37
 70
     1
102
RTVSPropertyOp38
 70
     1
102
RTVSPropertyOp39
 70
     1
102
RTVSPropertyOp40
 70
     1
102
RTVSPropertyOp41
 70
     1
102
RTVSPropertyOp42
 70
     1
102
RTVSPropertyOp43
 70
     1
102
RTVSPropertyOp44
 70
     1
102
RTVSPropertyOp45
 70
     1
102
RTVSPropertyOp46
 70
     1
102
RTVSPropertyOp47
 70
     1
102
RTVSPropertyOp48
 70
     1
102
RTVSPropertyOp49
 70
     1
102
RTVSPropertyOp50
 70
     1
102
RTVSPropertyOp51
 70
     0
102
RTVSPropertyOp52
 70
     0
102
RTVSPropertyOp53
 70
     1
102
RTVSPropertyOp54
 70
     1
102
RTVSPropertyOp55
 70
     1
102
RTVSPropertyOp56
 70
     1
102
RTVSPropertyOp57
 70
     1
102
RTVSPropertyOp58
 70
     1
102
RTVSPropertyOp59
 70
     1
102
RTVSPropertyOp60
 70
     1
102
RTVSPropertyOp61
 70
     1
102
RTVSPropertyOp62
 70
     1
  0
XRECORD
  5
40B7
102
{ACAD_REACTORS
330
40B6
102
}
330
40B6
100
AcDbXrecord
280
     1
102
RTVSPost2010Prop28
280
     0
102
RTVSPost2010PropOp28
 70
     1
102
RTVSPost2010Prop29
280
     1
102
RTVSPost2010PropOp29
 70
     1
102
RTVSPost2010Prop30
280
     1
102
RTVSPost2010PropOp30
 70
     1
102
RTVSPost2010Prop31
280
     0
102
RTVSPost2010PropOp31
 70
     1
102
RTVSPost2010Prop32
280
     0
102
RTVSPost2010PropOp32
 70
     1
102
RTVSPost2010Prop33
280
     0
102
RTVSPost2010PropOp33
 70
     1
102
RTVSPost2010Prop34
280
     0
102
RTVSPost2010PropOp34
 70
     1
102
RTVSPost2010Prop35
280
     0
102
RTVSPost2010PropOp35
 70
     1
102
RTVSPost2010Prop36
280
     0
102
RTVSPost2010PropOp36
 70
     1
102
RTVSPost2010Prop37
 90
       50
102
RTVSPost2010PropOp37
 70
     1
102
RTVSPost2010Prop38
140
0.0
102
RTVSPost2010PropOp38
 70
     1
102
RTVSPost2010Prop39
140
1.0
102
RTVSPost2010PropOp39
 70
     1
102
RTVSPost2010Prop40
 90
        0
102
RTVSPost2010PropOp40
 70
     1
102
RTVSPost2010Prop41ColorIndex
 90
       18
102
RTVSPost2010Prop41ColorRGB
 90
        0
102
RTVSPost2010PropOp41
 70
     1
102
RTVSPost2010Prop42
 90
       50
102
RTVSPost2010PropOp42
 70
     1
102
RTVSPost2010Prop43
 90
        3
102
RTVSPost2010PropOp43
 70
     1
102
RTVSPost2010Prop44ColorIndex
 90
        5
102
RTVSPost2010Prop44ColorRGB
 90
      255
102
RTVSPost2010PropOp44
 70
     1
102
RTVSPost2010Prop45
280
     0
102
RTVSPost2010PropOp45
 70
     1
102
RTVSPost2010Prop46
 90
       50
102
RTVSPost2010PropOp46
 70
     1
102
RTVSPost2010Prop47
 90
       50
102
RTVSPost2010PropOp47
 70
     1
102
RTVSPost2010Prop48
 90
       50
102
RTVSPost2010PropOp48
 70
     1
102
RTVSPost2010Prop49
280
     0
102
RTVSPost2010PropOp49
 70
     1
102
RTVSPost2010Prop50
 90
       50
102
RTVSPost2010PropOp50
 70
     1
102
RTVSPost2010Prop51ColorIndex
 90
      256
102
RTVSPost2010Prop51ColorRGB
 90
-16777216
102
RTVSPost2010PropOp51
 70
     0
102
RTVSPost2010Prop52
140
1.0
102
RTVSPost2010PropOp52
 70
     0
102
RTVSPost2010Prop53
 90
        2
102
RTVSPost2010PropOp53
 70
     1
102
RTVSPost2010Prop54
  1
strokes_ogs.tif
102
RTVSPost2010PropOp54
 70
     1
102
RTVSPost2010Prop55
280
     0
102
RTVSPost2010PropOp55
 70
     1
102
RTVSPost2010Prop56
140
1.0
102
RTVSPost2010PropOp56
 70
     1
102
RTVSPost2010Prop57
140
1.0
102
RTVSPost2010PropOp57
 70
     1
102
RTVSPropertyOp0
 70
     1
102
RTVSPropertyOp1
 70
     1
102
RTVSPropertyOp2
 70
     1
102
RTVSPropertyOp3
 70
     1
102
RTVSPropertyOp4
 70
     1
102
RTVSPropertyOp5
 70
     1
102
RTVSPropertyOp6
 70
     1
102
RTVSPropertyOp7
 70
     1
102
RTVSPropertyOp8
 70
     1
102
RTVSPropertyOp9
 70
     1
102
RTVSPropertyOp10
 70
     1
102
RTVSPropertyOp11
 70
     1
102
RTVSPropertyOp12
 70
     1
102
RTVSPropertyOp13
 70
     1
102
RTVSPropertyOp14
 70
     1
102
RTVSPropertyOp15
 70
     1
102
RTVSPropertyOp16
 70
     1
102
RTVSPropertyOp17
 70
     1
102
RTVSPropertyOp18
 70
     1
102
RTVSPropertyOp19
 70
     1
102
RTVSPropertyOp20
 70
     1
102
RTVSPropertyOp21
 70
     1
102
RTVSPropertyOp22
 70
     1
102
RTVSPropertyOp23
 70
     1
102
RTVSPropertyOp24
 70
     1
102
RTVSPropertyOp25
 70
     1
102
RTVSPropertyOp26
 70
     1
102
RTVSPropertyOp27
 70
     1
102
RTVSPropertyOp28
 70
     1
102
RTVSPropertyOp29
 70
     1
102
RTVSPropertyOp30
 70
     1
102
RTVSPropertyOp31
 70
     1
102
RTVSPropertyOp32
 70
     1
102
RTVSPropertyOp33
 70
     1
102
RTVSPropertyOp34
 70
     1
102
RTVSPropertyOp35
 70
     1
102
RTVSPropertyOp36
 70
     1
102
RTVSPropertyOp37
 70
     1
102
RTVSPropertyOp38
 70
     1
102
RTVSPropertyOp39
 70
     1
102
RTVSPropertyOp40
 70
     1
102
RTVSPropertyOp41
 70
     1
102
RTVSPropertyOp42
 70
     1
102
RTVSPropertyOp43
 70
     1
102
RTVSPropertyOp44
 70
     1
102
RTVSPropertyOp45
 70
     1
102
RTVSPropertyOp46
 70
     1
102
RTVSPropertyOp47
 70
     1
102
RTVSPropertyOp48
 70
     1
102
RTVSPropertyOp49
 70
     1
102
RTVSPropertyOp50
 70
     1
102
RTVSPropertyOp51
 70
     0
102
RTVSPropertyOp52
 70
     0
102
RTVSPropertyOp53
 70
     1
102
RTVSPropertyOp54
 70
     1
102
RTVSPropertyOp55
 70
     1
102
RTVSPropertyOp56
 70
     1
102
RTVSPropertyOp57
 70
     1
102
RTVSPropertyOp58
 70
     1
102
RTVSPropertyOp59
 70
     1
102
RTVSPropertyOp60
 70
     1
102
RTVSPropertyOp61
 70
     1
102
RTVSPropertyOp62
 70
     1
  0
XRECORD
  5
40B9
102
{ACAD_REACTORS
330
40B8
102
}
330
40B8
100
AcDbXrecord
280
     1
102
RTVSPost2010Prop28
280
     0
102
RTVSPost2010PropOp28
 70
     1
102
RTVSPost2010Prop29
280
     1
102
RTVSPost2010PropOp29
 70
     1
102
RTVSPost2010Prop30
280
     1
102
RTVSPost2010PropOp30
 70
     1
102
RTVSPost2010Prop31
280
     0
102
RTVSPost2010PropOp31
 70
     1
102
RTVSPost2010Prop32
280
     0
102
RTVSPost2010PropOp32
 70
     1
102
RTVSPost2010Prop33
280
     0
102
RTVSPost2010PropOp33
 70
     1
102
RTVSPost2010Prop34
280
     0
102
RTVSPost2010PropOp34
 70
     1
102
RTVSPost2010Prop35
280
     0
102
RTVSPost2010PropOp35
 70
     1
102
RTVSPost2010Prop36
280
     0
102
RTVSPost2010PropOp36
 70
     1
102
RTVSPost2010Prop37
 90
       50
102
RTVSPost2010PropOp37
 70
     1
102
RTVSPost2010Prop38
140
0.0
102
RTVSPost2010PropOp38
 70
     1
102
RTVSPost2010Prop39
140
1.0
102
RTVSPost2010PropOp39
 70
     1
102
RTVSPost2010Prop40
 90
        0
102
RTVSPost2010PropOp40
 70
     1
102
RTVSPost2010Prop41ColorIndex
 90
       18
102
RTVSPost2010Prop41ColorRGB
 90
        0
102
RTVSPost2010PropOp41
 70
     1
102
RTVSPost2010Prop42
 90
       50
102
RTVSPost2010PropOp42
 70
     1
102
RTVSPost2010Prop43
 90
        3
102
RTVSPost2010PropOp43
 70
     1
102
RTVSPost2010Prop44ColorIndex
 90
        5
102
RTVSPost2010Prop44ColorRGB
 90
      255
102
RTVSPost2010PropOp44
 70
     1
102
RTVSPost2010Prop45
280
     0
102
RTVSPost2010PropOp45
 70
     1
102
RTVSPost2010Prop46
 90
       50
102
RTVSPost2010PropOp46
 70
     1
102
RTVSPost2010Prop47
 90
       50
102
RTVSPost2010PropOp47
 70
     1
102
RTVSPost2010Prop48
 90
       50
102
RTVSPost2010PropOp48
 70
     1
102
RTVSPost2010Prop49
280
     0
102
RTVSPost2010PropOp49
 70
     1
102
RTVSPost2010Prop50
 90
       50
102
RTVSPost2010PropOp50
 70
     1
102
RTVSPost2010Prop51ColorIndex
 90
      256
102
RTVSPost2010Prop51ColorRGB
 90
-16777216
102
RTVSPost2010PropOp51
 70
     0
102
RTVSPost2010Prop52
140
1.0
102
RTVSPost2010PropOp52
 70
     0
102
RTVSPost2010Prop53
 90
        2
102
RTVSPost2010PropOp53
 70
     1
102
RTVSPost2010Prop54
  1
strokes_ogs.tif
102
RTVSPost2010PropOp54
 70
     1
102
RTVSPost2010Prop55
280
     0
102
RTVSPost2010PropOp55
 70
     1
102
RTVSPost2010Prop56
140
1.0
102
RTVSPost2010PropOp56
 70
     1
102
RTVSPost2010Prop57
140
1.0
102
RTVSPost2010PropOp57
 70
     1
102
RTVSPropertyOp0
 70
     1
102
RTVSPropertyOp1
 70
     1
102
RTVSPropertyOp2
 70
     1
102
RTVSPropertyOp3
 70
     1
102
RTVSPropertyOp4
 70
     1
102
RTVSPropertyOp5
 70
     1
102
RTVSPropertyOp6
 70
     1
102
RTVSPropertyOp7
 70
     1
102
RTVSPropertyOp8
 70
     1
102
RTVSPropertyOp9
 70
     1
102
RTVSPropertyOp10
 70
     1
102
RTVSPropertyOp11
 70
     1
102
RTVSPropertyOp12
 70
     1
102
RTVSPropertyOp13
 70
     1
102
RTVSPropertyOp14
 70
     1
102
RTVSPropertyOp15
 70
     1
102
RTVSPropertyOp16
 70
     1
102
RTVSPropertyOp17
 70
     1
102
RTVSPropertyOp18
 70
     1
102
RTVSPropertyOp19
 70
     1
102
RTVSPropertyOp20
 70
     1
102
RTVSPropertyOp21
 70
     1
102
RTVSPropertyOp22
 70
     1
102
RTVSPropertyOp23
 70
     1
102
RTVSPropertyOp24
 70
     1
102
RTVSPropertyOp25
 70
     1
102
RTVSPropertyOp26
 70
     1
102
RTVSPropertyOp27
 70
     1
102
RTVSPropertyOp28
 70
     1
102
RTVSPropertyOp29
 70
     1
102
RTVSPropertyOp30
 70
     1
102
RTVSPropertyOp31
 70
     1
102
RTVSPropertyOp32
 70
     1
102
RTVSPropertyOp33
 70
     1
102
RTVSPropertyOp34
 70
     1
102
RTVSPropertyOp35
 70
     1
102
RTVSPropertyOp36
 70
     1
102
RTVSPropertyOp37
 70
     1
102
RTVSPropertyOp38
 70
     1
102
RTVSPropertyOp39
 70
     1
102
RTVSPropertyOp40
 70
     1
102
RTVSPropertyOp41
 70
     1
102
RTVSPropertyOp42
 70
     1
102
RTVSPropertyOp43
 70
     1
102
RTVSPropertyOp44
 70
     1
102
RTVSPropertyOp45
 70
     1
102
RTVSPropertyOp46
 70
     1
102
RTVSPropertyOp47
 70
     1
102
RTVSPropertyOp48
 70
     1
102
RTVSPropertyOp49
 70
     1
102
RTVSPropertyOp50
 70
     1
102
RTVSPropertyOp51
 70
     0
102
RTVSPropertyOp52
 70
     0
102
RTVSPropertyOp53
 70
     1
102
RTVSPropertyOp54
 70
     1
102
RTVSPropertyOp55
 70
     1
102
RTVSPropertyOp56
 70
     1
102
RTVSPropertyOp57
 70
     1
102
RTVSPropertyOp58
 70
     1
102
RTVSPropertyOp59
 70
     1
102
RTVSPropertyOp60
 70
     1
102
RTVSPropertyOp61
 70
     1
102
RTVSPropertyOp62
 70
     1
  0
XRECORD
  5
40C1
102
{ACAD_REACTORS
330
40C0
102
}
330
40C0
100
AcDbXrecord
280
     1
102
RTVSPost2010Prop28
280
     0
102
RTVSPost2010PropOp28
 70
     1
102
RTVSPost2010Prop29
280
     1
102
RTVSPost2010PropOp29
 70
     1
102
RTVSPost2010Prop30
280
     1
102
RTVSPost2010PropOp30
 70
     1
102
RTVSPost2010Prop31
280
     0
102
RTVSPost2010PropOp31
 70
     1
102
RTVSPost2010Prop32
280
     0
102
RTVSPost2010PropOp32
 70
     1
102
RTVSPost2010Prop33
280
     0
102
RTVSPost2010PropOp33
 70
     1
102
RTVSPost2010Prop34
280
     0
102
RTVSPost2010PropOp34
 70
     1
102
RTVSPost2010Prop35
280
     0
102
RTVSPost2010PropOp35
 70
     1
102
RTVSPost2010Prop36
280
     0
102
RTVSPost2010PropOp36
 70
     1
102
RTVSPost2010Prop37
 90
       50
102
RTVSPost2010PropOp37
 70
     1
102
RTVSPost2010Prop38
140
0.0
102
RTVSPost2010PropOp38
 70
     1
102
RTVSPost2010Prop39
140
1.0
102
RTVSPost2010PropOp39
 70
     1
102
RTVSPost2010Prop40
 90
        0
102
RTVSPost2010PropOp40
 70
     1
102
RTVSPost2010Prop41ColorIndex
 90
       18
102
RTVSPost2010Prop41ColorRGB
 90
        0
102
RTVSPost2010PropOp41
 70
     1
102
RTVSPost2010Prop42
 90
       50
102
RTVSPost2010PropOp42
 70
     1
102
RTVSPost2010Prop43
 90
        3
102
RTVSPost2010PropOp43
 70
     1
102
RTVSPost2010Prop44ColorIndex
 90
        5
102
RTVSPost2010Prop44ColorRGB
 90
      255
102
RTVSPost2010PropOp44
 70
     1
102
RTVSPost2010Prop45
280
     0
102
RTVSPost2010PropOp45
 70
     1
102
RTVSPost2010Prop46
 90
       50
102
RTVSPost2010PropOp46
 70
     1
102
RTVSPost2010Prop47
 90
       50
102
RTVSPost2010PropOp47
 70
     1
102
RTVSPost2010Prop48
 90
       50
102
RTVSPost2010PropOp48
 70
     1
102
RTVSPost2010Prop49
280
     0
102
RTVSPost2010PropOp49
 70
     1
102
RTVSPost2010Prop50
 90
       50
102
RTVSPost2010PropOp50
 70
     1
102
RTVSPost2010Prop51ColorIndex
 90
      256
102
RTVSPost2010Prop51ColorRGB
 90
-16777216
102
RTVSPost2010PropOp51
 70
     0
102
RTVSPost2010Prop52
140
1.0
102
RTVSPost2010PropOp52
 70
     0
102
RTVSPost2010Prop53
 90
        2
102
RTVSPost2010PropOp53
 70
     1
102
RTVSPost2010Prop54
  1
strokes_ogs.tif
102
RTVSPost2010PropOp54
 70
     1
102
RTVSPost2010Prop55
280
     0
102
RTVSPost2010PropOp55
 70
     1
102
RTVSPost2010Prop56
140
1.0
102
RTVSPost2010PropOp56
 70
     1
102
RTVSPost2010Prop57
140
1.0
102
RTVSPost2010PropOp57
 70
     1
102
RTVSPropertyOp0
 70
     1
102
RTVSPropertyOp1
 70
     1
102
RTVSPropertyOp2
 70
     1
102
RTVSPropertyOp3
 70
     1
102
RTVSPropertyOp4
 70
     1
102
RTVSPropertyOp5
 70
     1
102
RTVSPropertyOp6
 70
     1
102
RTVSPropertyOp7
 70
     1
102
RTVSPropertyOp8
 70
     1
102
RTVSPropertyOp9
 70
     1
102
RTVSPropertyOp10
 70
     1
102
RTVSPropertyOp11
 70
     1
102
RTVSPropertyOp12
 70
     1
102
RTVSPropertyOp13
 70
     1
102
RTVSPropertyOp14
 70
     1
102
RTVSPropertyOp15
 70
     1
102
RTVSPropertyOp16
 70
     1
102
RTVSPropertyOp17
 70
     1
102
RTVSPropertyOp18
 70
     1
102
RTVSPropertyOp19
 70
     1
102
RTVSPropertyOp20
 70
     1
102
RTVSPropertyOp21
 70
     1
102
RTVSPropertyOp22
 70
     1
102
RTVSPropertyOp23
 70
     1
102
RTVSPropertyOp24
 70
     1
102
RTVSPropertyOp25
 70
     1
102
RTVSPropertyOp26
 70
     1
102
RTVSPropertyOp27
 70
     1
102
RTVSPropertyOp28
 70
     1
102
RTVSPropertyOp29
 70
     1
102
RTVSPropertyOp30
 70
     1
102
RTVSPropertyOp31
 70
     1
102
RTVSPropertyOp32
 70
     1
102
RTVSPropertyOp33
 70
     1
102
RTVSPropertyOp34
 70
     1
102
RTVSPropertyOp35
 70
     1
102
RTVSPropertyOp36
 70
     1
102
RTVSPropertyOp37
 70
     1
102
RTVSPropertyOp38
 70
     1
102
RTVSPropertyOp39
 70
     1
102
RTVSPropertyOp40
 70
     1
102
RTVSPropertyOp41
 70
     1
102
RTVSPropertyOp42
 70
     1
102
RTVSPropertyOp43
 70
     1
102
RTVSPropertyOp44
 70
     1
102
RTVSPropertyOp45
 70
     1
102
RTVSPropertyOp46
 70
     1
102
RTVSPropertyOp47
 70
     1
102
RTVSPropertyOp48
 70
     1
102
RTVSPropertyOp49
 70
     1
102
RTVSPropertyOp50
 70
     1
102
RTVSPropertyOp51
 70
     0
102
RTVSPropertyOp52
 70
     0
102
RTVSPropertyOp53
 70
     1
102
RTVSPropertyOp54
 70
     1
102
RTVSPropertyOp55
 70
     1
102
RTVSPropertyOp56
 70
     1
102
RTVSPropertyOp57
 70
     1
102
RTVSPropertyOp58
 70
     1
102
RTVSPropertyOp59
 70
     1
102
RTVSPropertyOp60
 70
     1
102
RTVSPropertyOp61
 70
     1
102
RTVSPropertyOp62
 70
     1
  0
XRECORD
  5
40DD
102
{ACAD_REACTORS
330
40DC
102
}
330
40DC
100
AcDbXrecord
280
     1
102
RTVSPost2010Prop28
280
     0
102
RTVSPost2010PropOp28
 70
     1
102
RTVSPost2010Prop29
280
     1
102
RTVSPost2010PropOp29
 70
     1
102
RTVSPost2010Prop30
280
     1
102
RTVSPost2010PropOp30
 70
     1
102
RTVSPost2010Prop31
280
     0
102
RTVSPost2010PropOp31
 70
     1
102
RTVSPost2010Prop32
280
     0
102
RTVSPost2010PropOp32
 70
     1
102
RTVSPost2010Prop33
280
     0
102
RTVSPost2010PropOp33
 70
     1
102
RTVSPost2010Prop34
280
     0
102
RTVSPost2010PropOp34
 70
     1
102
RTVSPost2010Prop35
280
     0
102
RTVSPost2010PropOp35
 70
     1
102
RTVSPost2010Prop36
280
     0
102
RTVSPost2010PropOp36
 70
     1
102
RTVSPost2010Prop37
 90
       50
102
RTVSPost2010PropOp37
 70
     0
102
RTVSPost2010Prop38
140
0.0
102
RTVSPost2010PropOp38
 70
     0
102
RTVSPost2010Prop39
140
1.0
102
RTVSPost2010PropOp39
 70
     0
102
RTVSPost2010Prop40
 90
        0
102
RTVSPost2010PropOp40
 70
     0
102
RTVSPost2010Prop41ColorIndex
 90
       18
102
RTVSPost2010Prop41ColorRGB
 90
        0
102
RTVSPost2010PropOp41
 70
     0
102
RTVSPost2010Prop42
 90
       50
102
RTVSPost2010PropOp42
 70
     0
102
RTVSPost2010Prop43
 90
        3
102
RTVSPost2010PropOp43
 70
     0
102
RTVSPost2010Prop44ColorIndex
 90
        5
102
RTVSPost2010Prop44ColorRGB
 90
      255
102
RTVSPost2010PropOp44
 70
     0
102
RTVSPost2010Prop45
280
     0
102
RTVSPost2010PropOp45
 70
     1
102
RTVSPost2010Prop46
 90
       50
102
RTVSPost2010PropOp46
 70
     0
102
RTVSPost2010Prop47
 90
       50
102
RTVSPost2010PropOp47
 70
     0
102
RTVSPost2010Prop48
 90
       50
102
RTVSPost2010PropOp48
 70
     0
102
RTVSPost2010Prop49
280
     0
102
RTVSPost2010PropOp49
 70
     1
102
RTVSPost2010Prop50
 90
       50
102
RTVSPost2010PropOp50
 70
     0
102
RTVSPost2010Prop51ColorIndex
 90
      256
102
RTVSPost2010Prop51ColorRGB
 90
-16777216
102
RTVSPost2010PropOp51
 70
     0
102
RTVSPost2010Prop52
140
1.0
102
RTVSPost2010PropOp52
 70
     0
102
RTVSPost2010Prop53
 90
        2
102
RTVSPost2010PropOp53
 70
     0
102
RTVSPost2010Prop54
  1
strokes_ogs.tif
102
RTVSPost2010PropOp54
 70
     0
102
RTVSPost2010Prop55
280
     0
102
RTVSPost2010PropOp55
 70
     1
102
RTVSPost2010Prop56
140
1.0
102
RTVSPost2010PropOp56
 70
     0
102
RTVSPost2010Prop57
140
1.0
102
RTVSPost2010PropOp57
 70
     0
102
RTVSPropertyOp0
 70
     0
102
RTVSPropertyOp1
 70
     0
102
RTVSPropertyOp2
 70
     0
102
RTVSPropertyOp3
 70
     0
102
RTVSPropertyOp4
 70
     0
102
RTVSPropertyOp5
 70
     0
102
RTVSPropertyOp6
 70
     0
102
RTVSPropertyOp7
 70
     0
102
RTVSPropertyOp8
 70
     0
102
RTVSPropertyOp9
 70
     0
102
RTVSPropertyOp10
 70
     0
102
RTVSPropertyOp11
 70
     0
102
RTVSPropertyOp12
 70
     0
102
RTVSPropertyOp13
 70
     0
102
RTVSPropertyOp14
 70
     2
102
RTVSPropertyOp15
 70
     0
102
RTVSPropertyOp16
 70
     0
102
RTVSPropertyOp17
 70
     0
102
RTVSPropertyOp18
 70
     0
102
RTVSPropertyOp19
 70
     0
102
RTVSPropertyOp20
 70
     0
102
RTVSPropertyOp21
 70
     0
102
RTVSPropertyOp22
 70
     0
102
RTVSPropertyOp23
 70
     0
102
RTVSPropertyOp24
 70
     0
102
RTVSPropertyOp25
 70
     0
102
RTVSPropertyOp26
 70
     0
102
RTVSPropertyOp27
 70
     0
102
RTVSPropertyOp28
 70
     1
102
RTVSPropertyOp29
 70
     1
102
RTVSPropertyOp30
 70
     1
102
RTVSPropertyOp31
 70
     1
102
RTVSPropertyOp32
 70
     1
102
RTVSPropertyOp33
 70
     1
102
RTVSPropertyOp34
 70
     1
102
RTVSPropertyOp35
 70
     1
102
RTVSPropertyOp36
 70
     1
102
RTVSPropertyOp37
 70
     0
102
RTVSPropertyOp38
 70
     0
102
RTVSPropertyOp39
 70
     0
102
RTVSPropertyOp40
 70
     0
102
RTVSPropertyOp41
 70
     0
102
RTVSPropertyOp42
 70
     0
102
RTVSPropertyOp43
 70
     0
102
RTVSPropertyOp44
 70
     0
102
RTVSPropertyOp45
 70
     1
102
RTVSPropertyOp46
 70
     0
102
RTVSPropertyOp47
 70
     0
102
RTVSPropertyOp48
 70
     0
102
RTVSPropertyOp49
 70
     1
102
RTVSPropertyOp50
 70
     0
102
RTVSPropertyOp51
 70
     0
102
RTVSPropertyOp52
 70
     0
102
RTVSPropertyOp53
 70
     0
102
RTVSPropertyOp54
 70
     0
102
RTVSPropertyOp55
 70
     1
102
RTVSPropertyOp56
 70
     0
102
RTVSPropertyOp57
 70
     0
102
RTVSPropertyOp58
 70
     0
102
RTVSPropertyOp59
 70
     0
102
RTVSPropertyOp60
 70
     0
102
RTVSPropertyOp61
 70
     0
102
RTVSPropertyOp62
 70
     0
  0
XRECORD
  5
40CD
102
{ACAD_REACTORS
330
40CC
102
}
330
40CC
100
AcDbXrecord
280
     1
102
RTVSPost2010Prop28
280
     0
102
RTVSPost2010PropOp28
 70
     1
102
RTVSPost2010Prop29
280
     1
102
RTVSPost2010PropOp29
 70
     1
102
RTVSPost2010Prop30
280
     1
102
RTVSPost2010PropOp30
 70
     1
102
RTVSPost2010Prop31
280
     0
102
RTVSPost2010PropOp31
 70
     1
102
RTVSPost2010Prop32
280
     0
102
RTVSPost2010PropOp32
 70
     1
102
RTVSPost2010Prop33
280
     0
102
RTVSPost2010PropOp33
 70
     1
102
RTVSPost2010Prop34
280
     0
102
RTVSPost2010PropOp34
 70
     1
102
RTVSPost2010Prop35
280
     0
102
RTVSPost2010PropOp35
 70
     1
102
RTVSPost2010Prop36
280
     0
102
RTVSPost2010PropOp36
 70
     1
102
RTVSPost2010Prop37
 90
       50
102
RTVSPost2010PropOp37
 70
     1
102
RTVSPost2010Prop38
140
0.0
102
RTVSPost2010PropOp38
 70
     1
102
RTVSPost2010Prop39
140
1.0
102
RTVSPost2010PropOp39
 70
     1
102
RTVSPost2010Prop40
 90
        0
102
RTVSPost2010PropOp40
 70
     1
102
RTVSPost2010Prop41ColorIndex
 90
       18
102
RTVSPost2010Prop41ColorRGB
 90
        0
102
RTVSPost2010PropOp41
 70
     1
102
RTVSPost2010Prop42
 90
       50
102
RTVSPost2010PropOp42
 70
     1
102
RTVSPost2010Prop43
 90
        3
102
RTVSPost2010PropOp43
 70
     1
102
RTVSPost2010Prop44ColorIndex
 90
        5
102
RTVSPost2010Prop44ColorRGB
 90
      255
102
RTVSPost2010PropOp44
 70
     1
102
RTVSPost2010Prop45
280
     0
102
RTVSPost2010PropOp45
 70
     1
102
RTVSPost2010Prop46
 90
       50
102
RTVSPost2010PropOp46
 70
     1
102
RTVSPost2010Prop47
 90
       50
102
RTVSPost2010PropOp47
 70
     1
102
RTVSPost2010Prop48
 90
       50
102
RTVSPost2010PropOp48
 70
     1
102
RTVSPost2010Prop49
280
     0
102
RTVSPost2010PropOp49
 70
     1
102
RTVSPost2010Prop50
 90
       50
102
RTVSPost2010PropOp50
 70
     1
102
RTVSPost2010Prop51ColorIndex
 90
      256
102
RTVSPost2010Prop51ColorRGB
 90
-16777216
102
RTVSPost2010PropOp51
 70
     0
102
RTVSPost2010Prop52
140
1.0
102
RTVSPost2010PropOp52
 70
     0
102
RTVSPost2010Prop53
 90
        2
102
RTVSPost2010PropOp53
 70
     1
102
RTVSPost2010Prop54
  1
strokes_ogs.tif
102
RTVSPost2010PropOp54
 70
     1
102
RTVSPost2010Prop55
280
     0
102
RTVSPost2010PropOp55
 70
     1
102
RTVSPost2010Prop56
140
1.0
102
RTVSPost2010PropOp56
 70
     1
102
RTVSPost2010Prop57
140
1.0
102
RTVSPost2010PropOp57
 70
     1
102
RTVSPropertyOp0
 70
     1
102
RTVSPropertyOp1
 70
     1
102
RTVSPropertyOp2
 70
     1
102
RTVSPropertyOp3
 70
     1
102
RTVSPropertyOp4
 70
     1
102
RTVSPropertyOp5
 70
     1
102
RTVSPropertyOp6
 70
     1
102
RTVSPropertyOp7
 70
     1
102
RTVSPropertyOp8
 70
     1
102
RTVSPropertyOp9
 70
     1
102
RTVSPropertyOp10
 70
     1
102
RTVSPropertyOp11
 70
     1
102
RTVSPropertyOp12
 70
     1
102
RTVSPropertyOp13
 70
     1
102
RTVSPropertyOp14
 70
     1
102
RTVSPropertyOp15
 70
     1
102
RTVSPropertyOp16
 70
     1
102
RTVSPropertyOp17
 70
     1
102
RTVSPropertyOp18
 70
     1
102
RTVSPropertyOp19
 70
     1
102
RTVSPropertyOp20
 70
     1
102
RTVSPropertyOp21
 70
     1
102
RTVSPropertyOp22
 70
     1
102
RTVSPropertyOp23
 70
     1
102
RTVSPropertyOp24
 70
     1
102
RTVSPropertyOp25
 70
     1
102
RTVSPropertyOp26
 70
     1
102
RTVSPropertyOp27
 70
     1
102
RTVSPropertyOp28
 70
     1
102
RTVSPropertyOp29
 70
     1
102
RTVSPropertyOp30
 70
     1
102
RTVSPropertyOp31
 70
     1
102
RTVSPropertyOp32
 70
     1
102
RTVSPropertyOp33
 70
     1
102
RTVSPropertyOp34
 70
     1
102
RTVSPropertyOp35
 70
     1
102
RTVSPropertyOp36
 70
     1
102
RTVSPropertyOp37
 70
     1
102
RTVSPropertyOp38
 70
     1
102
RTVSPropertyOp39
 70
     1
102
RTVSPropertyOp40
 70
     1
102
RTVSPropertyOp41
 70
     1
102
RTVSPropertyOp42
 70
     1
102
RTVSPropertyOp43
 70
     1
102
RTVSPropertyOp44
 70
     1
102
RTVSPropertyOp45
 70
     1
102
RTVSPropertyOp46
 70
     1
102
RTVSPropertyOp47
 70
     1
102
RTVSPropertyOp48
 70
     1
102
RTVSPropertyOp49
 70
     1
102
RTVSPropertyOp50
 70
     1
102
RTVSPropertyOp51
 70
     0
102
RTVSPropertyOp52
 70
     0
102
RTVSPropertyOp53
 70
     1
102
RTVSPropertyOp54
 70
     1
102
RTVSPropertyOp55
 70
     1
102
RTVSPropertyOp56
 70
     1
102
RTVSPropertyOp57
 70
     1
102
RTVSPropertyOp58
 70
     1
102
RTVSPropertyOp59
 70
     1
102
RTVSPropertyOp60
 70
     1
102
RTVSPropertyOp61
 70
     1
102
RTVSPropertyOp62
 70
     1
  0
XRECORD
  5
40DF
102
{ACAD_REACTORS
330
40DE
102
}
330
40DE
100
AcDbXrecord
280
     1
102
RTVSPost2010Prop28
280
     0
102
RTVSPost2010PropOp28
 70
     1
102
RTVSPost2010Prop29
280
     1
102
RTVSPost2010PropOp29
 70
     1
102
RTVSPost2010Prop30
280
     1
102
RTVSPost2010PropOp30
 70
     1
102
RTVSPost2010Prop31
280
     0
102
RTVSPost2010PropOp31
 70
     1
102
RTVSPost2010Prop32
280
     0
102
RTVSPost2010PropOp32
 70
     1
102
RTVSPost2010Prop33
280
     0
102
RTVSPost2010PropOp33
 70
     1
102
RTVSPost2010Prop34
280
     0
102
RTVSPost2010PropOp34
 70
     1
102
RTVSPost2010Prop35
280
     0
102
RTVSPost2010PropOp35
 70
     1
102
RTVSPost2010Prop36
280
     0
102
RTVSPost2010PropOp36
 70
     1
102
RTVSPost2010Prop37
 90
       50
102
RTVSPost2010PropOp37
 70
     0
102
RTVSPost2010Prop38
140
0.0
102
RTVSPost2010PropOp38
 70
     0
102
RTVSPost2010Prop39
140
1.0
102
RTVSPost2010PropOp39
 70
     0
102
RTVSPost2010Prop40
 90
        0
102
RTVSPost2010PropOp40
 70
     0
102
RTVSPost2010Prop41ColorIndex
 90
       18
102
RTVSPost2010Prop41ColorRGB
 90
        0
102
RTVSPost2010PropOp41
 70
     0
102
RTVSPost2010Prop42
 90
       50
102
RTVSPost2010PropOp42
 70
     0
102
RTVSPost2010Prop43
 90
        3
102
RTVSPost2010PropOp43
 70
     0
102
RTVSPost2010Prop44ColorIndex
 90
        5
102
RTVSPost2010Prop44ColorRGB
 90
      255
102
RTVSPost2010PropOp44
 70
     0
102
RTVSPost2010Prop45
280
     0
102
RTVSPost2010PropOp45
 70
     1
102
RTVSPost2010Prop46
 90
       50
102
RTVSPost2010PropOp46
 70
     0
102
RTVSPost2010Prop47
 90
       50
102
RTVSPost2010PropOp47
 70
     0
102
RTVSPost2010Prop48
 90
       50
102
RTVSPost2010PropOp48
 70
     0
102
RTVSPost2010Prop49
280
     0
102
RTVSPost2010PropOp49
 70
     1
102
RTVSPost2010Prop50
 90
       50
102
RTVSPost2010PropOp50
 70
     0
102
RTVSPost2010Prop51ColorIndex
 90
      256
102
RTVSPost2010Prop51ColorRGB
 90
-16777216
102
RTVSPost2010PropOp51
 70
     0
102
RTVSPost2010Prop52
140
1.0
102
RTVSPost2010PropOp52
 70
     0
102
RTVSPost2010Prop53
 90
        2
102
RTVSPost2010PropOp53
 70
     0
102
RTVSPost2010Prop54
  1
strokes_ogs.tif
102
RTVSPost2010PropOp54
 70
     0
102
RTVSPost2010Prop55
280
     0
102
RTVSPost2010PropOp55
 70
     1
102
RTVSPost2010Prop56
140
1.0
102
RTVSPost2010PropOp56
 70
     0
102
RTVSPost2010Prop57
140
1.0
102
RTVSPost2010PropOp57
 70
     0
102
RTVSPropertyOp0
 70
     0
102
RTVSPropertyOp1
 70
     0
102
RTVSPropertyOp2
 70
     0
102
RTVSPropertyOp3
 70
     0
102
RTVSPropertyOp4
 70
     0
102
RTVSPropertyOp5
 70
     0
102
RTVSPropertyOp6
 70
     0
102
RTVSPropertyOp7
 70
     0
102
RTVSPropertyOp8
 70
     0
102
RTVSPropertyOp9
 70
     0
102
RTVSPropertyOp10
 70
     0
102
RTVSPropertyOp11
 70
     0
102
RTVSPropertyOp12
 70
     0
102
RTVSPropertyOp13
 70
     0
102
RTVSPropertyOp14
 70
     2
102
RTVSPropertyOp15
 70
     0
102
RTVSPropertyOp16
 70
     0
102
RTVSPropertyOp17
 70
     0
102
RTVSPropertyOp18
 70
     0
102
RTVSPropertyOp19
 70
     0
102
RTVSPropertyOp20
 70
     0
102
RTVSPropertyOp21
 70
     0
102
RTVSPropertyOp22
 70
     0
102
RTVSPropertyOp23
 70
     0
102
RTVSPropertyOp24
 70
     0
102
RTVSPropertyOp25
 70
     0
102
RTVSPropertyOp26
 70
     0
102
RTVSPropertyOp27
 70
     0
102
RTVSPropertyOp28
 70
     1
102
RTVSPropertyOp29
 70
     1
102
RTVSPropertyOp30
 70
     1
102
RTVSPropertyOp31
 70
     1
102
RTVSPropertyOp32
 70
     1
102
RTVSPropertyOp33
 70
     1
102
RTVSPropertyOp34
 70
     1
102
RTVSPropertyOp35
 70
     1
102
RTVSPropertyOp36
 70
     1
102
RTVSPropertyOp37
 70
     0
102
RTVSPropertyOp38
 70
     0
102
RTVSPropertyOp39
 70
     0
102
RTVSPropertyOp40
 70
     0
102
RTVSPropertyOp41
 70
     0
102
RTVSPropertyOp42
 70
     0
102
RTVSPropertyOp43
 70
     0
102
RTVSPropertyOp44
 70
     0
102
RTVSPropertyOp45
 70
     1
102
RTVSPropertyOp46
 70
     0
102
RTVSPropertyOp47
 70
     0
102
RTVSPropertyOp48
 70
     0
102
RTVSPropertyOp49
 70
     1
102
RTVSPropertyOp50
 70
     0
102
RTVSPropertyOp51
 70
     0
102
RTVSPropertyOp52
 70
     0
102
RTVSPropertyOp53
 70
     0
102
RTVSPropertyOp54
 70
     0
102
RTVSPropertyOp55
 70
     1
102
RTVSPropertyOp56
 70
     0
102
RTVSPropertyOp57
 70
     0
102
RTVSPropertyOp58
 70
     0
102
RTVSPropertyOp59
 70
     0
102
RTVSPropertyOp60
 70
     0
102
RTVSPropertyOp61
 70
     0
102
RTVSPropertyOp62
 70
     0
  0
XRECORD
  5
40C5
102
{ACAD_REACTORS
330
40C4
102
}
330
40C4
100
AcDbXrecord
280
     1
102
RTVSPost2010Prop28
280
     0
102
RTVSPost2010PropOp28
 70
     1
102
RTVSPost2010Prop29
280
     1
102
RTVSPost2010PropOp29
 70
     1
102
RTVSPost2010Prop30
280
     1
102
RTVSPost2010PropOp30
 70
     1
102
RTVSPost2010Prop31
280
     0
102
RTVSPost2010PropOp31
 70
     1
102
RTVSPost2010Prop32
280
     0
102
RTVSPost2010PropOp32
 70
     1
102
RTVSPost2010Prop33
280
     0
102
RTVSPost2010PropOp33
 70
     1
102
RTVSPost2010Prop34
280
     0
102
RTVSPost2010PropOp34
 70
     1
102
RTVSPost2010Prop35
280
     0
102
RTVSPost2010PropOp35
 70
     1
102
RTVSPost2010Prop36
280
     0
102
RTVSPost2010PropOp36
 70
     1
102
RTVSPost2010Prop37
 90
       50
102
RTVSPost2010PropOp37
 70
     1
102
RTVSPost2010Prop38
140
0.0
102
RTVSPost2010PropOp38
 70
     1
102
RTVSPost2010Prop39
140
1.0
102
RTVSPost2010PropOp39
 70
     1
102
RTVSPost2010Prop40
 90
        0
102
RTVSPost2010PropOp40
 70
     1
102
RTVSPost2010Prop41ColorIndex
 90
       18
102
RTVSPost2010Prop41ColorRGB
 90
        0
102
RTVSPost2010PropOp41
 70
     1
102
RTVSPost2010Prop42
 90
       50
102
RTVSPost2010PropOp42
 70
     1
102
RTVSPost2010Prop43
 90
        3
102
RTVSPost2010PropOp43
 70
     1
102
RTVSPost2010Prop44ColorIndex
 90
        5
102
RTVSPost2010Prop44ColorRGB
 90
      255
102
RTVSPost2010PropOp44
 70
     1
102
RTVSPost2010Prop45
280
     0
102
RTVSPost2010PropOp45
 70
     1
102
RTVSPost2010Prop46
 90
       50
102
RTVSPost2010PropOp46
 70
     1
102
RTVSPost2010Prop47
 90
       50
102
RTVSPost2010PropOp47
 70
     1
102
RTVSPost2010Prop48
 90
       50
102
RTVSPost2010PropOp48
 70
     1
102
RTVSPost2010Prop49
280
     0
102
RTVSPost2010PropOp49
 70
     1
102
RTVSPost2010Prop50
 90
       50
102
RTVSPost2010PropOp50
 70
     1
102
RTVSPost2010Prop51ColorIndex
 90
      256
102
RTVSPost2010Prop51ColorRGB
 90
-16777216
102
RTVSPost2010PropOp51
 70
     0
102
RTVSPost2010Prop52
140
1.0
102
RTVSPost2010PropOp52
 70
     0
102
RTVSPost2010Prop53
 90
        2
102
RTVSPost2010PropOp53
 70
     1
102
RTVSPost2010Prop54
  1
strokes_ogs.tif
102
RTVSPost2010PropOp54
 70
     1
102
RTVSPost2010Prop55
280
     0
102
RTVSPost2010PropOp55
 70
     1
102
RTVSPost2010Prop56
140
1.0
102
RTVSPost2010PropOp56
 70
     1
102
RTVSPost2010Prop57
140
1.0
102
RTVSPost2010PropOp57
 70
     1
102
RTVSPropertyOp0
 70
     1
102
RTVSPropertyOp1
 70
     1
102
RTVSPropertyOp2
 70
     1
102
RTVSPropertyOp3
 70
     1
102
RTVSPropertyOp4
 70
     1
102
RTVSPropertyOp5
 70
     1
102
RTVSPropertyOp6
 70
     1
102
RTVSPropertyOp7
 70
     1
102
RTVSPropertyOp8
 70
     1
102
RTVSPropertyOp9
 70
     1
102
RTVSPropertyOp10
 70
     1
102
RTVSPropertyOp11
 70
     1
102
RTVSPropertyOp12
 70
     1
102
RTVSPropertyOp13
 70
     1
102
RTVSPropertyOp14
 70
     1
102
RTVSPropertyOp15
 70
     1
102
RTVSPropertyOp16
 70
     1
102
RTVSPropertyOp17
 70
     1
102
RTVSPropertyOp18
 70
     1
102
RTVSPropertyOp19
 70
     1
102
RTVSPropertyOp20
 70
     1
102
RTVSPropertyOp21
 70
     1
102
RTVSPropertyOp22
 70
     1
102
RTVSPropertyOp23
 70
     1
102
RTVSPropertyOp24
 70
     1
102
RTVSPropertyOp25
 70
     1
102
RTVSPropertyOp26
 70
     1
102
RTVSPropertyOp27
 70
     1
102
RTVSPropertyOp28
 70
     1
102
RTVSPropertyOp29
 70
     1
102
RTVSPropertyOp30
 70
     1
102
RTVSPropertyOp31
 70
     1
102
RTVSPropertyOp32
 70
     1
102
RTVSPropertyOp33
 70
     1
102
RTVSPropertyOp34
 70
     1
102
RTVSPropertyOp35
 70
     1
102
RTVSPropertyOp36
 70
     1
102
RTVSPropertyOp37
 70
     1
102
RTVSPropertyOp38
 70
     1
102
RTVSPropertyOp39
 70
     1
102
RTVSPropertyOp40
 70
     1
102
RTVSPropertyOp41
 70
     1
102
RTVSPropertyOp42
 70
     1
102
RTVSPropertyOp43
 70
     1
102
RTVSPropertyOp44
 70
     1
102
RTVSPropertyOp45
 70
     1
102
RTVSPropertyOp46
 70
     1
102
RTVSPropertyOp47
 70
     1
102
RTVSPropertyOp48
 70
     1
102
RTVSPropertyOp49
 70
     1
102
RTVSPropertyOp50
 70
     1
102
RTVSPropertyOp51
 70
     0
102
RTVSPropertyOp52
 70
     0
102
RTVSPropertyOp53
 70
     1
102
RTVSPropertyOp54
 70
     1
102
RTVSPropertyOp55
 70
     1
102
RTVSPropertyOp56
 70
     1
102
RTVSPropertyOp57
 70
     1
102
RTVSPropertyOp58
 70
     1
102
RTVSPropertyOp59
 70
     1
102
RTVSPropertyOp60
 70
     1
102
RTVSPropertyOp61
 70
     1
102
RTVSPropertyOp62
 70
     1
  0
XRECORD
  5
40DB
102
{ACAD_REACTORS
330
40DA
102
}
330
40DA
100
AcDbXrecord
280
     1
102
RTVSPost2010Prop28
280
     0
102
RTVSPost2010PropOp28
 70
     1
102
RTVSPost2010Prop29
280
     1
102
RTVSPost2010PropOp29
 70
     1
102
RTVSPost2010Prop30
280
     1
102
RTVSPost2010PropOp30
 70
     1
102
RTVSPost2010Prop31
280
     0
102
RTVSPost2010PropOp31
 70
     1
102
RTVSPost2010Prop32
280
     0
102
RTVSPost2010PropOp32
 70
     1
102
RTVSPost2010Prop33
280
     0
102
RTVSPost2010PropOp33
 70
     1
102
RTVSPost2010Prop34
280
     0
102
RTVSPost2010PropOp34
 70
     1
102
RTVSPost2010Prop35
280
     0
102
RTVSPost2010PropOp35
 70
     1
102
RTVSPost2010Prop36
280
     0
102
RTVSPost2010PropOp36
 70
     1
102
RTVSPost2010Prop37
 90
       50
102
RTVSPost2010PropOp37
 70
     1
102
RTVSPost2010Prop38
140
0.0
102
RTVSPost2010PropOp38
 70
     1
102
RTVSPost2010Prop39
140
1.0
102
RTVSPost2010PropOp39
 70
     1
102
RTVSPost2010Prop40
 90
        0
102
RTVSPost2010PropOp40
 70
     1
102
RTVSPost2010Prop41ColorIndex
 90
       18
102
RTVSPost2010Prop41ColorRGB
 90
        0
102
RTVSPost2010PropOp41
 70
     1
102
RTVSPost2010Prop42
 90
       50
102
RTVSPost2010PropOp42
 70
     1
102
RTVSPost2010Prop43
 90
        3
102
RTVSPost2010PropOp43
 70
     1
102
RTVSPost2010Prop44ColorIndex
 90
        5
102
RTVSPost2010Prop44ColorRGB
 90
      255
102
RTVSPost2010PropOp44
 70
     1
102
RTVSPost2010Prop45
280
     0
102
RTVSPost2010PropOp45
 70
     1
102
RTVSPost2010Prop46
 90
       50
102
RTVSPost2010PropOp46
 70
     1
102
RTVSPost2010Prop47
 90
       50
102
RTVSPost2010PropOp47
 70
     1
102
RTVSPost2010Prop48
 90
       50
102
RTVSPost2010PropOp48
 70
     1
102
RTVSPost2010Prop49
280
     0
102
RTVSPost2010PropOp49
 70
     1
102
RTVSPost2010Prop50
 90
       50
102
RTVSPost2010PropOp50
 70
     1
102
RTVSPost2010Prop51ColorIndex
 90
      256
102
RTVSPost2010Prop51ColorRGB
 90
-16777216
102
RTVSPost2010PropOp51
 70
     0
102
RTVSPost2010Prop52
140
1.0
102
RTVSPost2010PropOp52
 70
     0
102
RTVSPost2010Prop53
 90
        2
102
RTVSPost2010PropOp53
 70
     1
102
RTVSPost2010Prop54
  1
strokes_ogs.tif
102
RTVSPost2010PropOp54
 70
     1
102
RTVSPost2010Prop55
280
     0
102
RTVSPost2010PropOp55
 70
     1
102
RTVSPost2010Prop56
140
1.0
102
RTVSPost2010PropOp56
 70
     1
102
RTVSPost2010Prop57
140
1.0
102
RTVSPost2010PropOp57
 70
     1
102
RTVSPropertyOp0
 70
     1
102
RTVSPropertyOp1
 70
     1
102
RTVSPropertyOp2
 70
     1
102
RTVSPropertyOp3
 70
     1
102
RTVSPropertyOp4
 70
     1
102
RTVSPropertyOp5
 70
     1
102
RTVSPropertyOp6
 70
     1
102
RTVSPropertyOp7
 70
     1
102
RTVSPropertyOp8
 70
     1
102
RTVSPropertyOp9
 70
     1
102
RTVSPropertyOp10
 70
     1
102
RTVSPropertyOp11
 70
     1
102
RTVSPropertyOp12
 70
     1
102
RTVSPropertyOp13
 70
     1
102
RTVSPropertyOp14
 70
     1
102
RTVSPropertyOp15
 70
     1
102
RTVSPropertyOp16
 70
     1
102
RTVSPropertyOp17
 70
     1
102
RTVSPropertyOp18
 70
     1
102
RTVSPropertyOp19
 70
     1
102
RTVSPropertyOp20
 70
     1
102
RTVSPropertyOp21
 70
     1
102
RTVSPropertyOp22
 70
     1
102
RTVSPropertyOp23
 70
     1
102
RTVSPropertyOp24
 70
     1
102
RTVSPropertyOp25
 70
     1
102
RTVSPropertyOp26
 70
     1
102
RTVSPropertyOp27
 70
     1
102
RTVSPropertyOp28
 70
     1
102
RTVSPropertyOp29
 70
     1
102
RTVSPropertyOp30
 70
     1
102
RTVSPropertyOp31
 70
     1
102
RTVSPropertyOp32
 70
     1
102
RTVSPropertyOp33
 70
     1
102
RTVSPropertyOp34
 70
     1
102
RTVSPropertyOp35
 70
     1
102
RTVSPropertyOp36
 70
     1
102
RTVSPropertyOp37
 70
     1
102
RTVSPropertyOp38
 70
     1
102
RTVSPropertyOp39
 70
     1
102
RTVSPropertyOp40
 70
     1
102
RTVSPropertyOp41
 70
     1
102
RTVSPropertyOp42
 70
     1
102
RTVSPropertyOp43
 70
     1
102
RTVSPropertyOp44
 70
     1
102
RTVSPropertyOp45
 70
     1
102
RTVSPropertyOp46
 70
     1
102
RTVSPropertyOp47
 70
     1
102
RTVSPropertyOp48
 70
     1
102
RTVSPropertyOp49
 70
     1
102
RTVSPropertyOp50
 70
     1
102
RTVSPropertyOp51
 70
     0
102
RTVSPropertyOp52
 70
     0
102
RTVSPropertyOp53
 70
     1
102
RTVSPropertyOp54
 70
     1
102
RTVSPropertyOp55
 70
     1
102
RTVSPropertyOp56
 70
     1
102
RTVSPropertyOp57
 70
     1
102
RTVSPropertyOp58
 70
     1
102
RTVSPropertyOp59
 70
     1
102
RTVSPropertyOp60
 70
     1
102
RTVSPropertyOp61
 70
     1
102
RTVSPropertyOp62
 70
     1
  0
XRECORD
  5
40D9
102
{ACAD_REACTORS
330
40D8
102
}
330
40D8
100
AcDbXrecord
280
     1
102
RTVSPost2010Prop28
280
     0
102
RTVSPost2010PropOp28
 70
     1
102
RTVSPost2010Prop29
280
     1
102
RTVSPost2010PropOp29
 70
     1
102
RTVSPost2010Prop30
280
     1
102
RTVSPost2010PropOp30
 70
     1
102
RTVSPost2010Prop31
280
     0
102
RTVSPost2010PropOp31
 70
     1
102
RTVSPost2010Prop32
280
     0
102
RTVSPost2010PropOp32
 70
     1
102
RTVSPost2010Prop33
280
     0
102
RTVSPost2010PropOp33
 70
     1
102
RTVSPost2010Prop34
280
     0
102
RTVSPost2010PropOp34
 70
     1
102
RTVSPost2010Prop35
280
     0
102
RTVSPost2010PropOp35
 70
     1
102
RTVSPost2010Prop36
280
     0
102
RTVSPost2010PropOp36
 70
     1
102
RTVSPost2010Prop37
 90
       50
102
RTVSPost2010PropOp37
 70
     1
102
RTVSPost2010Prop38
140
0.0
102
RTVSPost2010PropOp38
 70
     1
102
RTVSPost2010Prop39
140
1.0
102
RTVSPost2010PropOp39
 70
     1
102
RTVSPost2010Prop40
 90
        0
102
RTVSPost2010PropOp40
 70
     1
102
RTVSPost2010Prop41ColorIndex
 90
       18
102
RTVSPost2010Prop41ColorRGB
 90
        0
102
RTVSPost2010PropOp41
 70
     1
102
RTVSPost2010Prop42
 90
       50
102
RTVSPost2010PropOp42
 70
     1
102
RTVSPost2010Prop43
 90
        3
102
RTVSPost2010PropOp43
 70
     1
102
RTVSPost2010Prop44ColorIndex
 90
        5
102
RTVSPost2010Prop44ColorRGB
 90
      255
102
RTVSPost2010PropOp44
 70
     1
102
RTVSPost2010Prop45
280
     0
102
RTVSPost2010PropOp45
 70
     1
102
RTVSPost2010Prop46
 90
       50
102
RTVSPost2010PropOp46
 70
     1
102
RTVSPost2010Prop47
 90
       50
102
RTVSPost2010PropOp47
 70
     1
102
RTVSPost2010Prop48
 90
       50
102
RTVSPost2010PropOp48
 70
     1
102
RTVSPost2010Prop49
280
     0
102
RTVSPost2010PropOp49
 70
     1
102
RTVSPost2010Prop50
 90
       50
102
RTVSPost2010PropOp50
 70
     1
102
RTVSPost2010Prop51ColorIndex
 90
      256
102
RTVSPost2010Prop51ColorRGB
 90
-16777216
102
RTVSPost2010PropOp51
 70
     0
102
RTVSPost2010Prop52
140
1.0
102
RTVSPost2010PropOp52
 70
     0
102
RTVSPost2010Prop53
 90
        2
102
RTVSPost2010PropOp53
 70
     1
102
RTVSPost2010Prop54
  1
strokes_ogs.tif
102
RTVSPost2010PropOp54
 70
     1
102
RTVSPost2010Prop55
280
     0
102
RTVSPost2010PropOp55
 70
     1
102
RTVSPost2010Prop56
140
1.0
102
RTVSPost2010PropOp56
 70
     1
102
RTVSPost2010Prop57
140
1.0
102
RTVSPost2010PropOp57
 70
     1
102
RTVSPropertyOp0
 70
     1
102
RTVSPropertyOp1
 70
     1
102
RTVSPropertyOp2
 70
     1
102
RTVSPropertyOp3
 70
     1
102
RTVSPropertyOp4
 70
     1
102
RTVSPropertyOp5
 70
     1
102
RTVSPropertyOp6
 70
     1
102
RTVSPropertyOp7
 70
     1
102
RTVSPropertyOp8
 70
     1
102
RTVSPropertyOp9
 70
     1
102
RTVSPropertyOp10
 70
     1
102
RTVSPropertyOp11
 70
     1
102
RTVSPropertyOp12
 70
     1
102
RTVSPropertyOp13
 70
     1
102
RTVSPropertyOp14
 70
     1
102
RTVSPropertyOp15
 70
     1
102
RTVSPropertyOp16
 70
     1
102
RTVSPropertyOp17
 70
     1
102
RTVSPropertyOp18
 70
     1
102
RTVSPropertyOp19
 70
     1
102
RTVSPropertyOp20
 70
     1
102
RTVSPropertyOp21
 70
     1
102
RTVSPropertyOp22
 70
     1
102
RTVSPropertyOp23
 70
     1
102
RTVSPropertyOp24
 70
     1
102
RTVSPropertyOp25
 70
     1
102
RTVSPropertyOp26
 70
     1
102
RTVSPropertyOp27
 70
     1
102
RTVSPropertyOp28
 70
     1
102
RTVSPropertyOp29
 70
     1
102
RTVSPropertyOp30
 70
     1
102
RTVSPropertyOp31
 70
     1
102
RTVSPropertyOp32
 70
     1
102
RTVSPropertyOp33
 70
     1
102
RTVSPropertyOp34
 70
     1
102
RTVSPropertyOp35
 70
     1
102
RTVSPropertyOp36
 70
     1
102
RTVSPropertyOp37
 70
     1
102
RTVSPropertyOp38
 70
     1
102
RTVSPropertyOp39
 70
     1
102
RTVSPropertyOp40
 70
     1
102
RTVSPropertyOp41
 70
     1
102
RTVSPropertyOp42
 70
     1
102
RTVSPropertyOp43
 70
     1
102
RTVSPropertyOp44
 70
     1
102
RTVSPropertyOp45
 70
     1
102
RTVSPropertyOp46
 70
     1
102
RTVSPropertyOp47
 70
     1
102
RTVSPropertyOp48
 70
     1
102
RTVSPropertyOp49
 70
     1
102
RTVSPropertyOp50
 70
     1
102
RTVSPropertyOp51
 70
     0
102
RTVSPropertyOp52
 70
     0
102
RTVSPropertyOp53
 70
     1
102
RTVSPropertyOp54
 70
     1
102
RTVSPropertyOp55
 70
     1
102
RTVSPropertyOp56
 70
     1
102
RTVSPropertyOp57
 70
     1
102
RTVSPropertyOp58
 70
     1
102
RTVSPropertyOp59
 70
     1
102
RTVSPropertyOp60
 70
     1
102
RTVSPropertyOp61
 70
     1
102
RTVSPropertyOp62
 70
     1
  0
XRECORD
  5
40D3
102
{ACAD_REACTORS
330
40D2
102
}
330
40D2
100
AcDbXrecord
280
     1
102
RTVSPost2010Prop28
280
     0
102
RTVSPost2010PropOp28
 70
     1
102
RTVSPost2010Prop29
280
     1
102
RTVSPost2010PropOp29
 70
     1
102
RTVSPost2010Prop30
280
     1
102
RTVSPost2010PropOp30
 70
     1
102
RTVSPost2010Prop31
280
     0
102
RTVSPost2010PropOp31
 70
     1
102
RTVSPost2010Prop32
280
     0
102
RTVSPost2010PropOp32
 70
     1
102
RTVSPost2010Prop33
280
     0
102
RTVSPost2010PropOp33
 70
     1
102
RTVSPost2010Prop34
280
     0
102
RTVSPost2010PropOp34
 70
     1
102
RTVSPost2010Prop35
280
     0
102
RTVSPost2010PropOp35
 70
     1
102
RTVSPost2010Prop36
280
     0
102
RTVSPost2010PropOp36
 70
     1
102
RTVSPost2010Prop37
 90
       50
102
RTVSPost2010PropOp37
 70
     1
102
RTVSPost2010Prop38
140
0.0
102
RTVSPost2010PropOp38
 70
     1
102
RTVSPost2010Prop39
140
1.0
102
RTVSPost2010PropOp39
 70
     1
102
RTVSPost2010Prop40
 90
        0
102
RTVSPost2010PropOp40
 70
     1
102
RTVSPost2010Prop41ColorIndex
 90
       18
102
RTVSPost2010Prop41ColorRGB
 90
        0
102
RTVSPost2010PropOp41
 70
     1
102
RTVSPost2010Prop42
 90
       50
102
RTVSPost2010PropOp42
 70
     1
102
RTVSPost2010Prop43
 90
        3
102
RTVSPost2010PropOp43
 70
     1
102
RTVSPost2010Prop44ColorIndex
 90
        5
102
RTVSPost2010Prop44ColorRGB
 90
      255
102
RTVSPost2010PropOp44
 70
     1
102
RTVSPost2010Prop45
280
     0
102
RTVSPost2010PropOp45
 70
     1
102
RTVSPost2010Prop46
 90
       50
102
RTVSPost2010PropOp46
 70
     1
102
RTVSPost2010Prop47
 90
       50
102
RTVSPost2010PropOp47
 70
     1
102
RTVSPost2010Prop48
 90
       50
102
RTVSPost2010PropOp48
 70
     1
102
RTVSPost2010Prop49
280
     0
102
RTVSPost2010PropOp49
 70
     1
102
RTVSPost2010Prop50
 90
       50
102
RTVSPost2010PropOp50
 70
     1
102
RTVSPost2010Prop51ColorIndex
 90
      256
102
RTVSPost2010Prop51ColorRGB
 90
-16777216
102
RTVSPost2010PropOp51
 70
     0
102
RTVSPost2010Prop52
140
1.0
102
RTVSPost2010PropOp52
 70
     0
102
RTVSPost2010Prop53
 90
        2
102
RTVSPost2010PropOp53
 70
     1
102
RTVSPost2010Prop54
  1
strokes_ogs.tif
102
RTVSPost2010PropOp54
 70
     1
102
RTVSPost2010Prop55
280
     0
102
RTVSPost2010PropOp55
 70
     1
102
RTVSPost2010Prop56
140
1.0
102
RTVSPost2010PropOp56
 70
     1
102
RTVSPost2010Prop57
140
1.0
102
RTVSPost2010PropOp57
 70
     1
102
RTVSPropertyOp0
 70
     1
102
RTVSPropertyOp1
 70
     1
102
RTVSPropertyOp2
 70
     1
102
RTVSPropertyOp3
 70
     1
102
RTVSPropertyOp4
 70
     1
102
RTVSPropertyOp5
 70
     1
102
RTVSPropertyOp6
 70
     1
102
RTVSPropertyOp7
 70
     1
102
RTVSPropertyOp8
 70
     1
102
RTVSPropertyOp9
 70
     1
102
RTVSPropertyOp10
 70
     1
102
RTVSPropertyOp11
 70
     1
102
RTVSPropertyOp12
 70
     1
102
RTVSPropertyOp13
 70
     1
102
RTVSPropertyOp14
 70
     1
102
RTVSPropertyOp15
 70
     1
102
RTVSPropertyOp16
 70
     1
102
RTVSPropertyOp17
 70
     1
102
RTVSPropertyOp18
 70
     1
102
RTVSPropertyOp19
 70
     1
102
RTVSPropertyOp20
 70
     1
102
RTVSPropertyOp21
 70
     1
102
RTVSPropertyOp22
 70
     1
102
RTVSPropertyOp23
 70
     1
102
RTVSPropertyOp24
 70
     1
102
RTVSPropertyOp25
 70
     1
102
RTVSPropertyOp26
 70
     1
102
RTVSPropertyOp27
 70
     1
102
RTVSPropertyOp28
 70
     1
102
RTVSPropertyOp29
 70
     1
102
RTVSPropertyOp30
 70
     1
102
RTVSPropertyOp31
 70
     1
102
RTVSPropertyOp32
 70
     1
102
RTVSPropertyOp33
 70
     1
102
RTVSPropertyOp34
 70
     1
102
RTVSPropertyOp35
 70
     1
102
RTVSPropertyOp36
 70
     1
102
RTVSPropertyOp37
 70
     1
102
RTVSPropertyOp38
 70
     1
102
RTVSPropertyOp39
 70
     1
102
RTVSPropertyOp40
 70
     1
102
RTVSPropertyOp41
 70
     1
102
RTVSPropertyOp42
 70
     1
102
RTVSPropertyOp43
 70
     1
102
RTVSPropertyOp44
 70
     1
102
RTVSPropertyOp45
 70
     1
102
RTVSPropertyOp46
 70
     1
102
RTVSPropertyOp47
 70
     1
102
RTVSPropertyOp48
 70
     1
102
RTVSPropertyOp49
 70
     1
102
RTVSPropertyOp50
 70
     1
102
RTVSPropertyOp51
 70
     0
102
RTVSPropertyOp52
 70
     0
102
RTVSPropertyOp53
 70
     1
102
RTVSPropertyOp54
 70
     1
102
RTVSPropertyOp55
 70
     1
102
RTVSPropertyOp56
 70
     1
102
RTVSPropertyOp57
 70
     1
102
RTVSPropertyOp58
 70
     1
102
RTVSPropertyOp59
 70
     1
102
RTVSPropertyOp60
 70
     1
102
RTVSPropertyOp61
 70
     1
102
RTVSPropertyOp62
 70
     1
  0
XRECORD
  5
40D5
102
{ACAD_REACTORS
330
40D4
102
}
330
40D4
100
AcDbXrecord
280
     1
102
RTVSPost2010Prop28
280
     0
102
RTVSPost2010PropOp28
 70
     1
102
RTVSPost2010Prop29
280
     1
102
RTVSPost2010PropOp29
 70
     1
102
RTVSPost2010Prop30
280
     1
102
RTVSPost2010PropOp30
 70
     1
102
RTVSPost2010Prop31
280
     0
102
RTVSPost2010PropOp31
 70
     1
102
RTVSPost2010Prop32
280
     0
102
RTVSPost2010PropOp32
 70
     1
102
RTVSPost2010Prop33
280
     0
102
RTVSPost2010PropOp33
 70
     1
102
RTVSPost2010Prop34
280
     0
102
RTVSPost2010PropOp34
 70
     1
102
RTVSPost2010Prop35
280
     0
102
RTVSPost2010PropOp35
 70
     1
102
RTVSPost2010Prop36
280
     0
102
RTVSPost2010PropOp36
 70
     1
102
RTVSPost2010Prop37
 90
       50
102
RTVSPost2010PropOp37
 70
     1
102
RTVSPost2010Prop38
140
0.0
102
RTVSPost2010PropOp38
 70
     1
102
RTVSPost2010Prop39
140
1.0
102
RTVSPost2010PropOp39
 70
     1
102
RTVSPost2010Prop40
 90
        0
102
RTVSPost2010PropOp40
 70
     1
102
RTVSPost2010Prop41ColorIndex
 90
       18
102
RTVSPost2010Prop41ColorRGB
 90
        0
102
RTVSPost2010PropOp41
 70
     1
102
RTVSPost2010Prop42
 90
       50
102
RTVSPost2010PropOp42
 70
     1
102
RTVSPost2010Prop43
 90
        3
102
RTVSPost2010PropOp43
 70
     1
102
RTVSPost2010Prop44ColorIndex
 90
        5
102
RTVSPost2010Prop44ColorRGB
 90
      255
102
RTVSPost2010PropOp44
 70
     1
102
RTVSPost2010Prop45
280
     0
102
RTVSPost2010PropOp45
 70
     1
102
RTVSPost2010Prop46
 90
       50
102
RTVSPost2010PropOp46
 70
     1
102
RTVSPost2010Prop47
 90
       50
102
RTVSPost2010PropOp47
 70
     1
102
RTVSPost2010Prop48
 90
       50
102
RTVSPost2010PropOp48
 70
     1
102
RTVSPost2010Prop49
280
     0
102
RTVSPost2010PropOp49
 70
     1
102
RTVSPost2010Prop50
 90
       50
102
RTVSPost2010PropOp50
 70
     1
102
RTVSPost2010Prop51ColorIndex
 90
      256
102
RTVSPost2010Prop51ColorRGB
 90
-16777216
102
RTVSPost2010PropOp51
 70
     0
102
RTVSPost2010Prop52
140
1.0
102
RTVSPost2010PropOp52
 70
     0
102
RTVSPost2010Prop53
 90
        2
102
RTVSPost2010PropOp53
 70
     1
102
RTVSPost2010Prop54
  1
strokes_ogs.tif
102
RTVSPost2010PropOp54
 70
     1
102
RTVSPost2010Prop55
280
     0
102
RTVSPost2010PropOp55
 70
     1
102
RTVSPost2010Prop56
140
1.0
102
RTVSPost2010PropOp56
 70
     1
102
RTVSPost2010Prop57
140
1.0
102
RTVSPost2010PropOp57
 70
     1
102
RTVSPropertyOp0
 70
     1
102
RTVSPropertyOp1
 70
     1
102
RTVSPropertyOp2
 70
     1
102
RTVSPropertyOp3
 70
     1
102
RTVSPropertyOp4
 70
     1
102
RTVSPropertyOp5
 70
     1
102
RTVSPropertyOp6
 70
     1
102
RTVSPropertyOp7
 70
     1
102
RTVSPropertyOp8
 70
     1
102
RTVSPropertyOp9
 70
     1
102
RTVSPropertyOp10
 70
     1
102
RTVSPropertyOp11
 70
     1
102
RTVSPropertyOp12
 70
     1
102
RTVSPropertyOp13
 70
     1
102
RTVSPropertyOp14
 70
     1
102
RTVSPropertyOp15
 70
     1
102
RTVSPropertyOp16
 70
     1
102
RTVSPropertyOp17
 70
     1
102
RTVSPropertyOp18
 70
     1
102
RTVSPropertyOp19
 70
     1
102
RTVSPropertyOp20
 70
     1
102
RTVSPropertyOp21
 70
     1
102
RTVSPropertyOp22
 70
     1
102
RTVSPropertyOp23
 70
     1
102
RTVSPropertyOp24
 70
     1
102
RTVSPropertyOp25
 70
     1
102
RTVSPropertyOp26
 70
     1
102
RTVSPropertyOp27
 70
     1
102
RTVSPropertyOp28
 70
     1
102
RTVSPropertyOp29
 70
     1
102
RTVSPropertyOp30
 70
     1
102
RTVSPropertyOp31
 70
     1
102
RTVSPropertyOp32
 70
     1
102
RTVSPropertyOp33
 70
     1
102
RTVSPropertyOp34
 70
     1
102
RTVSPropertyOp35
 70
     1
102
RTVSPropertyOp36
 70
     1
102
RTVSPropertyOp37
 70
     1
102
RTVSPropertyOp38
 70
     1
102
RTVSPropertyOp39
 70
     1
102
RTVSPropertyOp40
 70
     1
102
RTVSPropertyOp41
 70
     1
102
RTVSPropertyOp42
 70
     1
102
RTVSPropertyOp43
 70
     1
102
RTVSPropertyOp44
 70
     1
102
RTVSPropertyOp45
 70
     1
102
RTVSPropertyOp46
 70
     1
102
RTVSPropertyOp47
 70
     1
102
RTVSPropertyOp48
 70
     1
102
RTVSPropertyOp49
 70
     1
102
RTVSPropertyOp50
 70
     1
102
RTVSPropertyOp51
 70
     0
102
RTVSPropertyOp52
 70
     0
102
RTVSPropertyOp53
 70
     1
102
RTVSPropertyOp54
 70
     1
102
RTVSPropertyOp55
 70
     1
102
RTVSPropertyOp56
 70
     1
102
RTVSPropertyOp57
 70
     1
102
RTVSPropertyOp58
 70
     1
102
RTVSPropertyOp59
 70
     1
102
RTVSPropertyOp60
 70
     1
102
RTVSPropertyOp61
 70
     1
102
RTVSPropertyOp62
 70
     1
  0
XRECORD
  5
40CB
102
{ACAD_REACTORS
330
40CA
102
}
330
40CA
100
AcDbXrecord
280
     1
102
RTVSPost2010Prop28
280
     0
102
RTVSPost2010PropOp28
 70
     1
102
RTVSPost2010Prop29
280
     1
102
RTVSPost2010PropOp29
 70
     1
102
RTVSPost2010Prop30
280
     1
102
RTVSPost2010PropOp30
 70
     1
102
RTVSPost2010Prop31
280
     0
102
RTVSPost2010PropOp31
 70
     1
102
RTVSPost2010Prop32
280
     0
102
RTVSPost2010PropOp32
 70
     1
102
RTVSPost2010Prop33
280
     0
102
RTVSPost2010PropOp33
 70
     1
102
RTVSPost2010Prop34
280
     0
102
RTVSPost2010PropOp34
 70
     1
102
RTVSPost2010Prop35
280
     0
102
RTVSPost2010PropOp35
 70
     1
102
RTVSPost2010Prop36
280
     0
102
RTVSPost2010PropOp36
 70
     1
102
RTVSPost2010Prop37
 90
       50
102
RTVSPost2010PropOp37
 70
     1
102
RTVSPost2010Prop38
140
0.0
102
RTVSPost2010PropOp38
 70
     1
102
RTVSPost2010Prop39
140
1.0
102
RTVSPost2010PropOp39
 70
     1
102
RTVSPost2010Prop40
 90
        0
102
RTVSPost2010PropOp40
 70
     1
102
RTVSPost2010Prop41ColorIndex
 90
       18
102
RTVSPost2010Prop41ColorRGB
 90
        0
102
RTVSPost2010PropOp41
 70
     1
102
RTVSPost2010Prop42
 90
       50
102
RTVSPost2010PropOp42
 70
     1
102
RTVSPost2010Prop43
 90
        3
102
RTVSPost2010PropOp43
 70
     1
102
RTVSPost2010Prop44ColorIndex
 90
        5
102
RTVSPost2010Prop44ColorRGB
 90
      255
102
RTVSPost2010PropOp44
 70
     1
102
RTVSPost2010Prop45
280
     0
102
RTVSPost2010PropOp45
 70
     1
102
RTVSPost2010Prop46
 90
       50
102
RTVSPost2010PropOp46
 70
     1
102
RTVSPost2010Prop47
 90
       50
102
RTVSPost2010PropOp47
 70
     1
102
RTVSPost2010Prop48
 90
       50
102
RTVSPost2010PropOp48
 70
     1
102
RTVSPost2010Prop49
280
     0
102
RTVSPost2010PropOp49
 70
     1
102
RTVSPost2010Prop50
 90
       50
102
RTVSPost2010PropOp50
 70
     1
102
RTVSPost2010Prop51ColorIndex
 90
      256
102
RTVSPost2010Prop51ColorRGB
 90
-16777216
102
RTVSPost2010PropOp51
 70
     0
102
RTVSPost2010Prop52
140
1.0
102
RTVSPost2010PropOp52
 70
     0
102
RTVSPost2010Prop53
 90
        2
102
RTVSPost2010PropOp53
 70
     1
102
RTVSPost2010Prop54
  1
strokes_ogs.tif
102
RTVSPost2010PropOp54
 70
     1
102
RTVSPost2010Prop55
280
     0
102
RTVSPost2010PropOp55
 70
     1
102
RTVSPost2010Prop56
140
1.0
102
RTVSPost2010PropOp56
 70
     1
102
RTVSPost2010Prop57
140
1.0
102
RTVSPost2010PropOp57
 70
     1
102
RTVSPropertyOp0
 70
     1
102
RTVSPropertyOp1
 70
     1
102
RTVSPropertyOp2
 70
     1
102
RTVSPropertyOp3
 70
     1
102
RTVSPropertyOp4
 70
     1
102
RTVSPropertyOp5
 70
     1
102
RTVSPropertyOp6
 70
     1
102
RTVSPropertyOp7
 70
     1
102
RTVSPropertyOp8
 70
     1
102
RTVSPropertyOp9
 70
     1
102
RTVSPropertyOp10
 70
     1
102
RTVSPropertyOp11
 70
     1
102
RTVSPropertyOp12
 70
     1
102
RTVSPropertyOp13
 70
     1
102
RTVSPropertyOp14
 70
     1
102
RTVSPropertyOp15
 70
     1
102
RTVSPropertyOp16
 70
     1
102
RTVSPropertyOp17
 70
     1
102
RTVSPropertyOp18
 70
     1
102
RTVSPropertyOp19
 70
     1
102
RTVSPropertyOp20
 70
     1
102
RTVSPropertyOp21
 70
     1
102
RTVSPropertyOp22
 70
     1
102
RTVSPropertyOp23
 70
     1
102
RTVSPropertyOp24
 70
     1
102
RTVSPropertyOp25
 70
     1
102
RTVSPropertyOp26
 70
     1
102
RTVSPropertyOp27
 70
     1
102
RTVSPropertyOp28
 70
     1
102
RTVSPropertyOp29
 70
     1
102
RTVSPropertyOp30
 70
     1
102
RTVSPropertyOp31
 70
     1
102
RTVSPropertyOp32
 70
     1
102
RTVSPropertyOp33
 70
     1
102
RTVSPropertyOp34
 70
     1
102
RTVSPropertyOp35
 70
     1
102
RTVSPropertyOp36
 70
     1
102
RTVSPropertyOp37
 70
     1
102
RTVSPropertyOp38
 70
     1
102
RTVSPropertyOp39
 70
     1
102
RTVSPropertyOp40
 70
     1
102
RTVSPropertyOp41
 70
     1
102
RTVSPropertyOp42
 70
     1
102
RTVSPropertyOp43
 70
     1
102
RTVSPropertyOp44
 70
     1
102
RTVSPropertyOp45
 70
     1
102
RTVSPropertyOp46
 70
     1
102
RTVSPropertyOp47
 70
     1
102
RTVSPropertyOp48
 70
     1
102
RTVSPropertyOp49
 70
     1
102
RTVSPropertyOp50
 70
     1
102
RTVSPropertyOp51
 70
     0
102
RTVSPropertyOp52
 70
     0
102
RTVSPropertyOp53
 70
     1
102
RTVSPropertyOp54
 70
     1
102
RTVSPropertyOp55
 70
     1
102
RTVSPropertyOp56
 70
     1
102
RTVSPropertyOp57
 70
     1
102
RTVSPropertyOp58
 70
     1
102
RTVSPropertyOp59
 70
     1
102
RTVSPropertyOp60
 70
     1
102
RTVSPropertyOp61
 70
     1
102
RTVSPropertyOp62
 70
     1
  0
XRECORD
  5
40BF
102
{ACAD_REACTORS
330
40BE
102
}
330
40BE
100
AcDbXrecord
280
     1
102
RTVSPost2010Prop28
280
     0
102
RTVSPost2010PropOp28
 70
     1
102
RTVSPost2010Prop29
280
     1
102
RTVSPost2010PropOp29
 70
     1
102
RTVSPost2010Prop30
280
     1
102
RTVSPost2010PropOp30
 70
     1
102
RTVSPost2010Prop31
280
     0
102
RTVSPost2010PropOp31
 70
     1
102
RTVSPost2010Prop32
280
     0
102
RTVSPost2010PropOp32
 70
     1
102
RTVSPost2010Prop33
280
     0
102
RTVSPost2010PropOp33
 70
     1
102
RTVSPost2010Prop34
280
     0
102
RTVSPost2010PropOp34
 70
     1
102
RTVSPost2010Prop35
280
     0
102
RTVSPost2010PropOp35
 70
     1
102
RTVSPost2010Prop36
280
     0
102
RTVSPost2010PropOp36
 70
     1
102
RTVSPost2010Prop37
 90
       50
102
RTVSPost2010PropOp37
 70
     1
102
RTVSPost2010Prop38
140
0.0
102
RTVSPost2010PropOp38
 70
     1
102
RTVSPost2010Prop39
140
1.0
102
RTVSPost2010PropOp39
 70
     1
102
RTVSPost2010Prop40
 90
        0
102
RTVSPost2010PropOp40
 70
     1
102
RTVSPost2010Prop41ColorIndex
 90
       18
102
RTVSPost2010Prop41ColorRGB
 90
        0
102
RTVSPost2010PropOp41
 70
     1
102
RTVSPost2010Prop42
 90
       50
102
RTVSPost2010PropOp42
 70
     1
102
RTVSPost2010Prop43
 90
        3
102
RTVSPost2010PropOp43
 70
     1
102
RTVSPost2010Prop44ColorIndex
 90
        5
102
RTVSPost2010Prop44ColorRGB
 90
      255
102
RTVSPost2010PropOp44
 70
     1
102
RTVSPost2010Prop45
280
     0
102
RTVSPost2010PropOp45
 70
     1
102
RTVSPost2010Prop46
 90
       50
102
RTVSPost2010PropOp46
 70
     1
102
RTVSPost2010Prop47
 90
       50
102
RTVSPost2010PropOp47
 70
     1
102
RTVSPost2010Prop48
 90
       50
102
RTVSPost2010PropOp48
 70
     1
102
RTVSPost2010Prop49
280
     0
102
RTVSPost2010PropOp49
 70
     1
102
RTVSPost2010Prop50
 90
       50
102
RTVSPost2010PropOp50
 70
     1
102
RTVSPost2010Prop51ColorIndex
 90
      256
102
RTVSPost2010Prop51ColorRGB
 90
-16777216
102
RTVSPost2010PropOp51
 70
     0
102
RTVSPost2010Prop52
140
1.0
102
RTVSPost2010PropOp52
 70
     0
102
RTVSPost2010Prop53
 90
        2
102
RTVSPost2010PropOp53
 70
     1
102
RTVSPost2010Prop54
  1
strokes_ogs.tif
102
RTVSPost2010PropOp54
 70
     1
102
RTVSPost2010Prop55
280
     0
102
RTVSPost2010PropOp55
 70
     1
102
RTVSPost2010Prop56
140
1.0
102
RTVSPost2010PropOp56
 70
     1
102
RTVSPost2010Prop57
140
1.0
102
RTVSPost2010PropOp57
 70
     1
102
RTVSPropertyOp0
 70
     1
102
RTVSPropertyOp1
 70
     1
102
RTVSPropertyOp2
 70
     1
102
RTVSPropertyOp3
 70
     1
102
RTVSPropertyOp4
 70
     1
102
RTVSPropertyOp5
 70
     1
102
RTVSPropertyOp6
 70
     1
102
RTVSPropertyOp7
 70
     1
102
RTVSPropertyOp8
 70
     1
102
RTVSPropertyOp9
 70
     1
102
RTVSPropertyOp10
 70
     1
102
RTVSPropertyOp11
 70
     1
102
RTVSPropertyOp12
 70
     1
102
RTVSPropertyOp13
 70
     1
102
RTVSPropertyOp14
 70
     1
102
RTVSPropertyOp15
 70
     1
102
RTVSPropertyOp16
 70
     1
102
RTVSPropertyOp17
 70
     1
102
RTVSPropertyOp18
 70
     1
102
RTVSPropertyOp19
 70
     1
102
RTVSPropertyOp20
 70
     1
102
RTVSPropertyOp21
 70
     1
102
RTVSPropertyOp22
 70
     1
102
RTVSPropertyOp23
 70
     1
102
RTVSPropertyOp24
 70
     1
102
RTVSPropertyOp25
 70
     1
102
RTVSPropertyOp26
 70
     1
102
RTVSPropertyOp27
 70
     1
102
RTVSPropertyOp28
 70
     1
102
RTVSPropertyOp29
 70
     1
102
RTVSPropertyOp30
 70
     1
102
RTVSPropertyOp31
 70
     1
102
RTVSPropertyOp32
 70
     1
102
RTVSPropertyOp33
 70
     1
102
RTVSPropertyOp34
 70
     1
102
RTVSPropertyOp35
 70
     1
102
RTVSPropertyOp36
 70
     1
102
RTVSPropertyOp37
 70
     1
102
RTVSPropertyOp38
 70
     1
102
RTVSPropertyOp39
 70
     1
102
RTVSPropertyOp40
 70
     1
102
RTVSPropertyOp41
 70
     1
102
RTVSPropertyOp42
 70
     1
102
RTVSPropertyOp43
 70
     1
102
RTVSPropertyOp44
 70
     1
102
RTVSPropertyOp45
 70
     1
102
RTVSPropertyOp46
 70
     1
102
RTVSPropertyOp47
 70
     1
102
RTVSPropertyOp48
 70
     1
102
RTVSPropertyOp49
 70
     1
102
RTVSPropertyOp50
 70
     1
102
RTVSPropertyOp51
 70
     0
102
RTVSPropertyOp52
 70
     0
102
RTVSPropertyOp53
 70
     1
102
RTVSPropertyOp54
 70
     1
102
RTVSPropertyOp55
 70
     1
102
RTVSPropertyOp56
 70
     1
102
RTVSPropertyOp57
 70
     1
102
RTVSPropertyOp58
 70
     1
102
RTVSPropertyOp59
 70
     1
102
RTVSPropertyOp60
 70
     1
102
RTVSPropertyOp61
 70
     1
102
RTVSPropertyOp62
 70
     1
  0
XRECORD
  5
40D7
102
{ACAD_REACTORS
330
40D6
102
}
330
40D6
100
AcDbXrecord
280
     1
102
RTVSPost2010Prop28
280
     0
102
RTVSPost2010PropOp28
 70
     1
102
RTVSPost2010Prop29
280
     1
102
RTVSPost2010PropOp29
 70
     1
102
RTVSPost2010Prop30
280
     1
102
RTVSPost2010PropOp30
 70
     1
102
RTVSPost2010Prop31
280
     0
102
RTVSPost2010PropOp31
 70
     1
102
RTVSPost2010Prop32
280
     0
102
RTVSPost2010PropOp32
 70
     1
102
RTVSPost2010Prop33
280
     0
102
RTVSPost2010PropOp33
 70
     1
102
RTVSPost2010Prop34
280
     0
102
RTVSPost2010PropOp34
 70
     1
102
RTVSPost2010Prop35
280
     0
102
RTVSPost2010PropOp35
 70
     1
102
RTVSPost2010Prop36
280
     0
102
RTVSPost2010PropOp36
 70
     1
102
RTVSPost2010Prop37
 90
       50
102
RTVSPost2010PropOp37
 70
     1
102
RTVSPost2010Prop38
140
0.0
102
RTVSPost2010PropOp38
 70
     1
102
RTVSPost2010Prop39
140
1.0
102
RTVSPost2010PropOp39
 70
     1
102
RTVSPost2010Prop40
 90
        0
102
RTVSPost2010PropOp40
 70
     1
102
RTVSPost2010Prop41ColorIndex
 90
       18
102
RTVSPost2010Prop41ColorRGB
 90
        0
102
RTVSPost2010PropOp41
 70
     1
102
RTVSPost2010Prop42
 90
       50
102
RTVSPost2010PropOp42
 70
     1
102
RTVSPost2010Prop43
 90
        3
102
RTVSPost2010PropOp43
 70
     1
102
RTVSPost2010Prop44ColorIndex
 90
        5
102
RTVSPost2010Prop44ColorRGB
 90
      255
102
RTVSPost2010PropOp44
 70
     1
102
RTVSPost2010Prop45
280
     0
102
RTVSPost2010PropOp45
 70
     1
102
RTVSPost2010Prop46
 90
       50
102
RTVSPost2010PropOp46
 70
     1
102
RTVSPost2010Prop47
 90
       50
102
RTVSPost2010PropOp47
 70
     1
102
RTVSPost2010Prop48
 90
       50
102
RTVSPost2010PropOp48
 70
     1
102
RTVSPost2010Prop49
280
     0
102
RTVSPost2010PropOp49
 70
     1
102
RTVSPost2010Prop50
 90
       50
102
RTVSPost2010PropOp50
 70
     1
102
RTVSPost2010Prop51ColorIndex
 90
      256
102
RTVSPost2010Prop51ColorRGB
 90
-16777216
102
RTVSPost2010PropOp51
 70
     0
102
RTVSPost2010Prop52
140
1.0
102
RTVSPost2010PropOp52
 70
     0
102
RTVSPost2010Prop53
 90
        2
102
RTVSPost2010PropOp53
 70
     1
102
RTVSPost2010Prop54
  1
strokes_ogs.tif
102
RTVSPost2010PropOp54
 70
     1
102
RTVSPost2010Prop55
280
     0
102
RTVSPost2010PropOp55
 70
     1
102
RTVSPost2010Prop56
140
1.0
102
RTVSPost2010PropOp56
 70
     1
102
RTVSPost2010Prop57
140
1.0
102
RTVSPost2010PropOp57
 70
     1
102
RTVSPropertyOp0
 70
     1
102
RTVSPropertyOp1
 70
     1
102
RTVSPropertyOp2
 70
     1
102
RTVSPropertyOp3
 70
     1
102
RTVSPropertyOp4
 70
     1
102
RTVSPropertyOp5
 70
     1
102
RTVSPropertyOp6
 70
     1
102
RTVSPropertyOp7
 70
     1
102
RTVSPropertyOp8
 70
     1
102
RTVSPropertyOp9
 70
     1
102
RTVSPropertyOp10
 70
     1
102
RTVSPropertyOp11
 70
     1
102
RTVSPropertyOp12
 70
     1
102
RTVSPropertyOp13
 70
     1
102
RTVSPropertyOp14
 70
     1
102
RTVSPropertyOp15
 70
     1
102
RTVSPropertyOp16
 70
     1
102
RTVSPropertyOp17
 70
     1
102
RTVSPropertyOp18
 70
     1
102
RTVSPropertyOp19
 70
     1
102
RTVSPropertyOp20
 70
     1
102
RTVSPropertyOp21
 70
     1
102
RTVSPropertyOp22
 70
     1
102
RTVSPropertyOp23
 70
     1
102
RTVSPropertyOp24
 70
     1
102
RTVSPropertyOp25
 70
     1
102
RTVSPropertyOp26
 70
     1
102
RTVSPropertyOp27
 70
     1
102
RTVSPropertyOp28
 70
     1
102
RTVSPropertyOp29
 70
     1
102
RTVSPropertyOp30
 70
     1
102
RTVSPropertyOp31
 70
     1
102
RTVSPropertyOp32
 70
     1
102
RTVSPropertyOp33
 70
     1
102
RTVSPropertyOp34
 70
     1
102
RTVSPropertyOp35
 70
     1
102
RTVSPropertyOp36
 70
     1
102
RTVSPropertyOp37
 70
     1
102
RTVSPropertyOp38
 70
     1
102
RTVSPropertyOp39
 70
     1
102
RTVSPropertyOp40
 70
     1
102
RTVSPropertyOp41
 70
     1
102
RTVSPropertyOp42
 70
     1
102
RTVSPropertyOp43
 70
     1
102
RTVSPropertyOp44
 70
     1
102
RTVSPropertyOp45
 70
     1
102
RTVSPropertyOp46
 70
     1
102
RTVSPropertyOp47
 70
     1
102
RTVSPropertyOp48
 70
     1
102
RTVSPropertyOp49
 70
     1
102
RTVSPropertyOp50
 70
     1
102
RTVSPropertyOp51
 70
     0
102
RTVSPropertyOp52
 70
     0
102
RTVSPropertyOp53
 70
     1
102
RTVSPropertyOp54
 70
     1
102
RTVSPropertyOp55
 70
     1
102
RTVSPropertyOp56
 70
     1
102
RTVSPropertyOp57
 70
     1
102
RTVSPropertyOp58
 70
     1
102
RTVSPropertyOp59
 70
     1
102
RTVSPropertyOp60
 70
     1
102
RTVSPropertyOp61
 70
     1
102
RTVSPropertyOp62
 70
     1
  0
ENDSEC
  0
EOF
