  0
SECTION
  2
HEADER
  9
$ACADVER
  1
AC1015
  9
$ACADMAINTVER
 70
    20
  9
$DWGCODEPAGE
  3
ANSI_932
  9
$INSBASE
 10
0.0
 20
0.0
 30
0.0
  9
$EXTMIN
 10
5.007655003497972
 20
10.0
 30
0.0
  9
$EXTMAX
 10
259.188142809334
 20
201.1664473404219
 30
0.0
  9
$LIMMIN
 10
0.0000015376081137
 20
-0.0000001931532552
  9
$LIMMAX
 10
346.0000015376081
 20
238.5303028371496
  9
$ORTHOMODE
 70
     1
  9
$REGENMODE
 70
     1
  9
$FILLMODE
 70
     1
  9
$QTEXTMODE
 70
     0
  9
$MIRRTEXT
 70
     1
  9
$LTSCALE
 40
1.0
  9
$ATTMODE
 70
     1
  9
$TEXTSIZE
 40
2.5
  9
$TRACEWID
 40
1.0
  9
$TEXTSTYLE
  7
STANDARD
  9
$CLAYER
  8
0
  9
$CELTYPE
  6
BYLAYER
  9
$CECOLOR
 62
   256
  9
$CELTSCALE
 40
1.0
  9
$DISPSILH
 70
     0
  9
$DIMSCALE
 40
1.0
  9
$DIMASZ
 40
3.0
  9
$DIMEXO
 40
1.0
  9
$DIMDLI
 40
10.0
  9
$DIMRND
 40
0.0
  9
$DIMDLE
 40
0.0
  9
$DIMEXE
 40
1.0
  9
$DIMTP
 40
0.0
  9
$DIMTM
 40
0.0
  9
$DIMTXT
 40
3.2
  9
$DIMCEN
 40
0.0
  9
$DIMTSZ
 40
0.0
  9
$DIMTOL
 70
     0
  9
$DIMLIM
 70
     0
  9
$DIMTIH
 70
     0
  9
$DIMTOH
 70
     0
  9
$DIMSE1
 70
     0
  9
$DIMSE2
 70
     0
  9
$DIMTAD
 70
     3
  9
$DIMZIN
 70
     8
  9
$DIMBLK
  1

  9
$DIMASO
 70
     1
  9
$DIMSHO
 70
     1
  9
$DIMPOST
  1

  9
$DIMAPOST
  1

  9
$DIMALT
 70
     0
  9
$DIMALTD
 70
     2
  9
$DIMALTF
 40
25.4
  9
$DIMLFAC
 40
1.0
  9
$DIMTOFL
 70
     1
  9
$DIMTVP
 40
0.0
  9
$DIMTIX
 70
     0
  9
$DIMSOXD
 70
     0
  9
$DIMSAH
 70
     1
  9
$DIMBLK1
  1
OPEN
  9
$DIMBLK2
  1
OPEN
  9
$DIMSTYLE
  2
STANDARD
  9
$DIMCLRD
 70
     0
  9
$DIMCLRE
 70
     0
  9
$DIMCLRT
 70
     0
  9
$DIMTFAC
 40
1.0
  9
$DIMGAP
 40
1.0
  9
$DIMJUST
 70
     0
  9
$DIMSD1
 70
     0
  9
$DIMSD2
 70
     0
  9
$DIMTOLJ
 70
     1
  9
$DIMTZIN
 70
     0
  9
$DIMALTZ
 70
     0
  9
$DIMALTTZ
 70
     0
  9
$DIMUPT
 70
     0
  9
$DIMDEC
 70
     4
  9
$DIMTDEC
 70
     4
  9
$DIMALTU
 70
     2
  9
$DIMALTTD
 70
     2
  9
$DIMTXSTY
  7
STANDARD
  9
$DIMAUNIT
 70
     0
  9
$DIMADEC
 70
     0
  9
$DIMALTRND
 40
0.0
  9
$DIMAZIN
 70
     0
  9
$DIMDSEP
 70
    46
  9
$DIMATFIT
 70
     3
  9
$DIMFRAC
 70
     0
  9
$DIMLDRBLK
  1
OPEN
  9
$DIMLUNIT
 70
     2
  9
$DIMLWD
 70
    -2
  9
$DIMLWE
 70
    -2
  9
$DIMTMOVE
 70
     0
  9
$LUNITS
 70
     2
  9
$LUPREC
 70
     4
  9
$SKETCHINC
 40
1.0
  9
$FILLETRAD
 40
0.0
  9
$AUNITS
 70
     0
  9
$AUPREC
 70
     0
  9
$MENU
  1
.
  9
$ELEVATION
 40
0.0
  9
$PELEVATION
 40
0.0
  9
$THICKNESS
 40
0.0
  9
$LIMCHECK
 70
     0
  9
$CHAMFERA
 40
10.0
  9
$CHAMFERB
 40
10.0
  9
$CHAMFERC
 40
20.0
  9
$CHAMFERD
 40
0.0
  9
$SKPOLY
 70
     0
  9
$TDCREATE
 40
2453768.664448055
  9
$TDUCREATE
 40
2453768.289448056
  9
$TDUPDATE
 40
2457192.701003264
  9
$TDUUPDATE
 40
2457192.326003264
  9
$TDINDWG
 40
0.0558574421
  9
$TDUSRTIMER
 40
0.0558574306
  9
$USRTIMER
 70
     1
  9
$ANGBASE
 50
0.0
  9
$ANGDIR
 70
     0
  9
$PDMODE
 70
     0
  9
$PDSIZE
 40
0.0
  9
$PLINEWID
 40
0.0
  9
$SPLFRAME
 70
     0
  9
$SPLINETYPE
 70
     6
  9
$SPLINESEGS
 70
     8
  9
$HANDSEED
  5
2EE9
  9
$SURFTAB1
 70
     6
  9
$SURFTAB2
 70
     6
  9
$SURFTYPE
 70
     6
  9
$SURFU
 70
     6
  9
$SURFV
 70
     6
  9
$UCSBASE
  2

  9
$UCSNAME
  2

  9
$UCSORG
 10
0.0
 20
0.0
 30
0.0
  9
$UCSXDIR
 10
1.0
 20
0.0
 30
0.0
  9
$UCSYDIR
 10
0.0
 20
1.0
 30
0.0
  9
$UCSORTHOREF
  2

  9
$UCSORTHOVIEW
 70
     0
  9
$UCSORGTOP
 10
0.0
 20
0.0
 30
0.0
  9
$UCSORGBOTTOM
 10
0.0
 20
0.0
 30
0.0
  9
$UCSORGLEFT
 10
0.0
 20
0.0
 30
0.0
  9
$UCSORGRIGHT
 10
0.0
 20
0.0
 30
0.0
  9
$UCSORGFRONT
 10
0.0
 20
0.0
 30
0.0
  9
$UCSORGBACK
 10
0.0
 20
0.0
 30
0.0
  9
$PUCSBASE
  2

  9
$PUCSNAME
  2

  9
$PUCSORG
 10
0.0
 20
0.0
 30
0.0
  9
$PUCSXDIR
 10
1.0
 20
0.0
 30
0.0
  9
$PUCSYDIR
 10
0.0
 20
1.0
 30
0.0
  9
$PUCSORTHOREF
  2

  9
$PUCSORTHOVIEW
 70
     0
  9
$PUCSORGTOP
 10
0.0
 20
0.0
 30
0.0
  9
$PUCSORGBOTTOM
 10
0.0
 20
0.0
 30
0.0
  9
$PUCSORGLEFT
 10
0.0
 20
0.0
 30
0.0
  9
$PUCSORGRIGHT
 10
0.0
 20
0.0
 30
0.0
  9
$PUCSORGFRONT
 10
0.0
 20
0.0
 30
0.0
  9
$PUCSORGBACK
 10
0.0
 20
0.0
 30
0.0
  9
$USERI1
 70
     0
  9
$USERI2
 70
     0
  9
$USERI3
 70
     0
  9
$USERI4
 70
     0
  9
$USERI5
 70
     0
  9
$USERR1
 40
0.0
  9
$USERR2
 40
0.0
  9
$USERR3
 40
0.0
  9
$USERR4
 40
0.0
  9
$USERR5
 40
0.0
  9
$WORLDVIEW
 70
     1
  9
$SHADEDGE
 70
     3
  9
$SHADEDIF
 70
    70
  9
$TILEMODE
 70
     1
  9
$MAXACTVP
 70
    48
  9
$PINSBASE
 10
0.0
 20
0.0
 30
0.0
  9
$PLIMCHECK
 70
     0
  9
$PEXTMIN
 10
27.8447512626648
 20
20.24591643810271
 30
0.0
  9
$PEXTMAX
 10
250.6027613639831
 20
182.2132479429244
 30
0.0
  9
$PLIMMIN
 10
-3.757080078125
 20
-3.757083177566528
  9
$PLIMMAX
 10
293.2112426757812
 20
206.2162444591522
  9
$UNITMODE
 70
     0
  9
$VISRETAIN
 70
     1
  9
$PLINEGEN
 70
     0
  9
$PSLTSCALE
 70
     1
  9
$TREEDEPTH
 70
  3020
  9
$CMLSTYLE
  2
STANDARD
  9
$CMLJUST
 70
     0
  9
$CMLSCALE
 40
20.0
  9
$PROXYGRAPHICS
 70
     1
  9
$MEASUREMENT
 70
     0
  9
$CELWEIGHT
370
    -1
  9
$ENDCAPS
280
     0
  9
$JOINSTYLE
280
     0
  9
$LWDISPLAY
290
     0
  9
$INSUNITS
 70
     0
  9
$HYPERLINKBASE
  1

  9
$STYLESHEET
  1

  9
$XEDIT
290
     1
  9
$CEPSNTYPE
380
     0
  9
$PSTYLEMODE
290
     1
  9
$FINGERPRINTGUID
  2
{D19CDB6C-7FAF-4FB5-8C52-8DCFCB2EE6C7}
  9
$VERSIONGUID
  2
{928DB880-0A46-4366-9960-470A243F0CF0}
  9
$EXTNAMES
290
     1
  9
$PSVPSCALE
 40
0.0
  9
$OLESTARTUP
290
     0
  0
ENDSEC
  0
SECTION
  2
CLASSES
  0
CLASS
  1
ACDBDICTIONARYWDFLT
  2
AcDbDictionaryWithDefault
  3
ObjectDBX Classes
 90
        0
280
     0
281
     0
  0
CLASS
  1
ACDBPLACEHOLDER
  2
AcDbPlaceHolder
  3
ObjectDBX Classes
 90
        0
280
     0
281
     0
  0
CLASS
  1
LAYOUT
  2
AcDbLayout
  3
ObjectDBX Classes
 90
        0
280
     0
281
     0
  0
CLASS
  1
DICTIONARYVAR
  2
AcDbDictionaryVar
  3
ObjectDBX Classes
 90
        0
280
     0
281
     0
  0
CLASS
  1
MATERIAL
  2
AcDbMaterial
  3
ObjectDBX Classes
 90
     1153
280
     0
281
     0
  0
CLASS
  1
VISUALSTYLE
  2
AcDbVisualStyle
  3
ObjectDBX Classes
 90
     4095
280
     0
281
     0
  0
CLASS
  1
TABLESTYLE
  2
AcDbTableStyle
  3
ObjectDBX Classes
 90
     4095
280
     0
281
     0
  0
CLASS
  1
SCALE
  2
AcDbScale
  3
ObjectDBX Classes
 90
     1153
280
     0
281
     0
  0
CLASS
  1
MLEADERSTYLE
  2
AcDbMLeaderStyle
  3
ACDB_MLEADERSTYLE_CLASS
 90
     4095
280
     0
281
     0
  0
CLASS
  1
ACDBSECTIONVIEWSTYLE
  2
AcDbSectionViewStyle
  3
ObjectDBX Classes
 90
     1025
280
     0
281
     0
  0
CLASS
  1
ACDBDETAILVIEWSTYLE
  2
AcDbDetailViewStyle
  3
ObjectDBX Classes
 90
     1025
280
     0
281
     0
  0
CLASS
  1
CELLSTYLEMAP
  2
AcDbCellStyleMap
  3
ObjectDBX Classes
 90
     1152
280
     0
281
     0
  0
ENDSEC
  0
SECTION
  2
TABLES
  0
TABLE
  2
VPORT
  5
8
330
0
100
AcDbSymbolTable
 70
     1
  0
VPORT
  5
2E33
330
8
100
AcDbSymbolTableRecord
100
AcDbViewportTableRecord
  2
*ACTIVE
 70
     0
 10
0.0
 20
0.0
 11
1.0
 21
1.0
 12
193.542574301997
 22
105.5799416045726
 13
0.0
 23
0.0
 14
10.0
 24
10.0
 15
10.0
 25
10.0
 16
0.0
 26
0.0
 36
1.0
 17
0.0
 27
0.0
 37
0.0
 40
193.0163549293334
 41
2.35006605019815
 42
50.0
 43
0.0
 44
0.0
 50
0.0
 51
0.0
 71
     0
 72
   100
 73
     1
 74
     0
 75
     0
 76
     0
 77
     0
 78
     0
281
     0
 65
     1
110
0.0
120
0.0
130
0.0
111
1.0
121
0.0
131
0.0
112
0.0
122
1.0
132
0.0
 79
     0
146
0.0
1001
ACAD_NAV_VCDISPLAY
1070
     3
  0
ENDTAB
  0
TABLE
  2
LTYPE
  5
5
330
0
100
AcDbSymbolTable
 70
     4
  0
LTYPE
  5
12
330
5
100
AcDbSymbolTableRecord
100
AcDbLinetypeTableRecord
  2
BYBLOCK
 70
     0
  3

 72
    65
 73
     0
 40
0.0
  0
LTYPE
  5
13
330
5
100
AcDbSymbolTableRecord
100
AcDbLinetypeTableRecord
  2
BYLAYER
 70
     0
  3

 72
    65
 73
     0
 40
0.0
  0
LTYPE
  5
14
330
5
100
AcDbSymbolTableRecord
100
AcDbLinetypeTableRecord
  2
CONTINUOUS
 70
     0
  3
Solid line
 72
    65
 73
     0
 40
0.0
  0
LTYPE
  5
4B
330
5
100
AcDbSymbolTableRecord
100
AcDbLinetypeTableRecord
  2
DASHED
 70
     0
  3
Dashed __ __ __ __ __ __ __ __ __ __ __ __ __ _
 72
    65
 73
     2
 40
19.04999999999999
 49
12.7
 74
     0
 49
-6.349999999999998
 74
     0
  0
LTYPE
  5
4C
330
5
100
AcDbSymbolTableRecord
100
AcDbLinetypeTableRecord
  2
CENTER
 70
     0
  3
Center ____ _ ____ _ ____ _ ____ _ ____ _ ____
 72
    65
 73
     4
 40
50.8
 49
31.75
 74
     0
 49
-6.349999999999998
 74
     0
 49
6.349999999999998
 74
     0
 49
-6.349999999999998
 74
     0
  0
LTYPE
  5
4D
330
5
100
AcDbSymbolTableRecord
100
AcDbLinetypeTableRecord
  2
PHANTOM
 70
     0
  3
Phantom ______  __  __  ______  __  __  ______
 72
    65
 73
     6
 40
63.5
 49
31.75
 74
     0
 49
-6.349999999999998
 74
     0
 49
6.349999999999998
 74
     0
 49
-6.349999999999998
 74
     0
 49
6.349999999999998
 74
     0
 49
-6.349999999999998
 74
     0
  0
ENDTAB
  0
TABLE
  2
LAYER
  5
2
330
0
100
AcDbSymbolTable
 70
     8
  0
LAYER
  5
E
102
{ACAD_XDICTIONARY
360
2E8D
102
}
330
2
100
AcDbSymbolTableRecord
100
AcDbLayerTableRecord
  2
0
 70
     0
 62
     7
  6
CONTINUOUS
370
    -3
390
2E3C
  0
LAYER
  5
4E
102
{ACAD_XDICTIONARY
360
2E8F
102
}
330
2
100
AcDbSymbolTableRecord
100
AcDbLayerTableRecord
  2
4
 70
     0
 62
     1
  6
CENTER
370
    -3
390
2E3C
  0
LAYER
  5
4F
102
{ACAD_XDICTIONARY
360
2E91
102
}
330
2
100
AcDbSymbolTableRecord
100
AcDbLayerTableRecord
  2
5
 70
     0
 62
     6
  6
PHANTOM
370
    -3
390
2E3C
  0
LAYER
  5
50
102
{ACAD_XDICTIONARY
360
2E93
102
}
330
2
100
AcDbSymbolTableRecord
100
AcDbLayerTableRecord
  2
1
 70
     0
 62
     7
  6
CONTINUOUS
370
    -3
390
2E3C
  0
LAYER
  5
51
102
{ACAD_XDICTIONARY
360
2E95
102
}
330
2
100
AcDbSymbolTableRecord
100
AcDbLayerTableRecord
  2
2
 70
     0
 62
     4
  6
CONTINUOUS
370
    -3
390
2E3C
  0
LAYER
  5
52
102
{ACAD_XDICTIONARY
360
2E97
102
}
330
2
100
AcDbSymbolTableRecord
100
AcDbLayerTableRecord
  2
3
 70
     0
 62
     2
  6
DASHED
370
    -3
390
2E3C
  0
LAYER
  5
53
102
{ACAD_XDICTIONARY
360
2E99
102
}
330
2
100
AcDbSymbolTableRecord
100
AcDbLayerTableRecord
  2
6
 70
     0
 62
     5
  6
CONTINUOUS
370
    -3
390
2E3C
  0
LAYER
  5
54
102
{ACAD_XDICTIONARY
360
2E9B
102
}
330
2
100
AcDbSymbolTableRecord
100
AcDbLayerTableRecord
  2
7
 70
     0
 62
     3
  6
CONTINUOUS
370
    -3
390
2E3C
  0
ENDTAB
  0
TABLE
  2
STYLE
  5
3
330
0
100
AcDbSymbolTable
 70
     1
  0
STYLE
  5
F
330
3
100
AcDbSymbolTableRecord
100
AcDbTextStyleTableRecord
  2
STANDARD
 70
     0
 40
0.0
 41
1.0
 50
0.0
 71
     0
 42
2.5
  3
simplex.shx
  4

  0
ENDTAB
  0
TABLE
  2
VIEW
  5
6
330
0
100
AcDbSymbolTable
 70
     0
  0
ENDTAB
  0
TABLE
  2
UCS
  5
7
330
0
100
AcDbSymbolTable
 70
     0
  0
ENDTAB
  0
TABLE
  2
APPID
  5
9
330
0
100
AcDbSymbolTable
 70
     5
  0
APPID
  5
10
330
9
100
AcDbSymbolTableRecord
100
AcDbRegAppTableRecord
  2
ACAD
 70
     0
  0
APPID
  5
3E
330
9
100
AcDbSymbolTableRecord
100
AcDbRegAppTableRecord
  2
CONTENTTABDATA
 70
     0
  0
APPID
  5
3F
330
9
100
AcDbSymbolTableRecord
100
AcDbRegAppTableRecord
  2
CONTENTCURRENTTAB
 70
     0
  0
APPID
  5
2EA7
330
9
100
AcDbSymbolTableRecord
100
AcDbRegAppTableRecord
  2
ACAD_NAV_VCDISPLAY
 70
     0
  0
APPID
  5
2EE0
330
9
100
AcDbSymbolTableRecord
100
AcDbRegAppTableRecord
  2
ACAD_MLEADERVER
 70
     0
  0
ENDTAB
  0
TABLE
  2
DIMSTYLE
  5
A
330
0
100
AcDbSymbolTable
 70
     1
100
AcDbDimStyleTable
 71
     0
  0
DIMSTYLE
105
1D
330
A
100
AcDbSymbolTableRecord
100
AcDbDimStyleTableRecord
  2
STANDARD
 70
     0
 41
3.0
 42
1.0
 43
10.0
 44
1.0
 73
     0
 74
     0
 77
     3
 78
     8
140
3.2
141
0.0
147
1.0
172
     1
173
     1
340
F
341
2E
343
2E
344
2E
  0
ENDTAB
  0
TABLE
  2
BLOCK_RECORD
  5
1
330
0
100
AcDbSymbolTable
 70
     1
  0
BLOCK_RECORD
  5
18
102
{ACAD_XDICTIONARY
360
2E36
102
}
330
1
100
AcDbSymbolTableRecord
100
AcDbBlockTableRecord
  2
*MODEL_SPACE
340
2E8A
  0
BLOCK_RECORD
  5
15
102
{ACAD_XDICTIONARY
360
2E34
102
}
330
1
100
AcDbSymbolTableRecord
100
AcDbBlockTableRecord
  2
*PAPER_SPACE
340
2E8B
  0
BLOCK_RECORD
  5
2E
330
1
100
AcDbSymbolTableRecord
100
AcDbBlockTableRecord
  2
_OPEN
340
0
  0
ENDTAB
  0
ENDSEC
  0
SECTION
  2
BLOCKS
  0
BLOCK
  5
19
330
18
100
AcDbEntity
  8
0
100
AcDbBlockBegin
  2
*MODEL_SPACE
 70
     0
 10
0.0
 20
0.0
 30
0.0
  3
*MODEL_SPACE
  1

  0
ENDBLK
  5
1A
330
18
100
AcDbEntity
  8
0
100
AcDbBlockEnd
  0
BLOCK
  5
16
330
15
100
AcDbEntity
 67
     1
  8
0
100
AcDbBlockBegin
  2
*PAPER_SPACE
 70
     0
 10
0.0
 20
0.0
 30
0.0
  3
*PAPER_SPACE
  1

  0
ENDBLK
  5
17
330
15
100
AcDbEntity
 67
     1
  8
0
100
AcDbBlockEnd
  0
BLOCK
  5
2F
330
2E
100
AcDbEntity
  8
0
100
AcDbBlockBegin
  2
_OPEN
 70
     0
 10
0.0
 20
0.0
 30
0.0
  3
_OPEN
  1

  0
LINE
  5
30
330
2E
100
AcDbEntity
  8
0
  6
ByBlock
 62
     0
100
AcDbLine
 10
-1.0
 20
0.1666666666666666
 30
0.0
 11
0.0
 21
0.0
 31
0.0
  0
LINE
  5
31
330
2E
100
AcDbEntity
  8
0
  6
ByBlock
 62
     0
100
AcDbLine
 10
0.0
 20
0.0
 30
0.0
 11
-1.0
 21
-0.1666666666666666
 31
0.0
  0
LINE
  5
32
330
2E
100
AcDbEntity
  8
0
  6
ByBlock
 62
     0
100
AcDbLine
 10
0.0
 20
0.0
 30
0.0
 11
-1.0
 21
0.0
 31
0.0
  0
ENDBLK
  5
33
330
2E
100
AcDbEntity
  8
0
100
AcDbBlockEnd
  0
ENDSEC
  0
SECTION
  2
ENTITIES
  0
TEXT
  5
63
330
18
100
AcDbEntity
  8
4
  6
CENTER
 48
0.25
100
AcDbText
 10
23.97950852663849
 20
10.0
 30
0.0
 40
1.399999999999999
  1
4
100
AcDbText
  0
TEXT
  5
64
330
18
100
AcDbEntity
  8
7
  6
Continuous
 48
0.25
100
AcDbText
 10
9.999997526638502
 20
26.0000007607689
 30
0.0
 40
3.0
  1
CODE No.2728
100
AcDbText
  0
TEXT
  5
65
330
18
100
AcDbEntity
  8
7
  6
Continuous
 48
0.25
100
AcDbText
 10
9.999997526638502
 20
18.00000076076889
 30
0.0
 40
3.0
  1
TYPE No.TEH-1055-U3
100
AcDbText
  0
TEXT
  5
66
330
18
100
AcDbEntity
  8
1
  6
Continuous
 48
0.25
100
AcDbText
 10
9.999997526638502
 20
10.00000076076889
 30
0.0
 40
1.399999999999999
  1
LAYER
100
AcDbText
  0
TEXT
  5
67
330
18
100
AcDbEntity
  8
2
  6
Continuous
 48
0.25
100
AcDbText
 10
19.9795085266385
 20
10.0
 30
0.0
 40
1.399999999999999
  1
2
100
AcDbText
  0
TEXT
  5
68
330
18
100
AcDbEntity
  8
3
  6
DASHED
 48
0.25
100
AcDbText
 10
21.9795085266385
 20
10.0
 30
0.0
 40
1.399999999999999
  1
3
100
AcDbText
  0
TEXT
  5
69
330
18
100
AcDbEntity
  8
1
  6
Continuous
 48
0.25
100
AcDbText
 10
17.9795085266385
 20
10.0
 30
0.0
 40
1.399999999999999
  1
1
100
AcDbText
  0
TEXT
  5
6A
330
18
100
AcDbEntity
  8
5
  6
PHANTOM
 48
0.25
100
AcDbText
 10
25.9795085266385
 20
10.0
 30
0.0
 40
1.399999999999999
  1
5
100
AcDbText
  0
TEXT
  5
6B
330
18
100
AcDbEntity
  8
6
  6
Continuous
 48
0.25
100
AcDbText
 10
27.9795085266385
 20
10.0
 30
0.0
 40
1.399999999999999
  1
6
100
AcDbText
  0
TEXT
  5
6C
330
18
100
AcDbEntity
  8
7
  6
Continuous
 48
0.25
100
AcDbText
 10
29.9795085266385
 20
10.0
 30
0.0
 40
1.399999999999999
  1
7
100
AcDbText
  0
LINE
  5
1175
330
18
100
AcDbEntity
  8
1
  6
Continuous
100
AcDbLine
 10
114.5708099377255
 20
182.6664468891963
 30
0.0
 11
114.5708099377255
 21
172.1664463904731
 31
0.0
  0
LINE
  5
1176
330
18
100
AcDbEntity
  8
1
  6
Continuous
100
AcDbLine
 10
102.5708093677561
 20
172.1664463904731
 30
0.0
 11
102.5708093677561
 21
182.6664468891963
 31
0.0
  0
LINE
  5
1177
330
18
100
AcDbEntity
  8
1
  6
Continuous
100
AcDbLine
 10
74.5708080378276
 20
169.1664462479807
 30
0.0
 11
69.57080780034022
 21
174.166446485468
 31
0.0
  0
LINE
  5
134E
330
18
100
AcDbEntity
  8
1
  6
Continuous
100
AcDbLine
 10
114.5708099377255
 20
110.4089648278415
 30
0.0
 11
114.5708099377255
 21
123.4089654453084
 31
0.0
  0
LINE
  5
134F
330
18
100
AcDbEntity
  8
1
  6
Continuous
100
AcDbLine
 10
111.5708097952332
 20
110.4089648278415
 30
0.0
 11
111.5708097952332
 21
123.4089654453084
 31
0.0
  0
LINE
  5
1350
330
18
100
AcDbEntity
  8
1
  6
Continuous
100
AcDbLine
 10
74.57080803782753
 20
110.4089648278415
 30
0.0
 11
74.57080803782753
 21
123.4089654453084
 31
0.0
  0
LINE
  5
1351
330
18
100
AcDbEntity
  8
1
  6
Continuous
100
AcDbLine
 10
69.57080780034027
 20
110.4089648278415
 30
0.0
 11
69.57080780034029
 21
123.4089654453084
 31
0.0
  0
LINE
  5
1354
330
18
100
AcDbEntity
  8
1
  6
Continuous
100
AcDbLine
 10
114.5708099377255
 20
96.80896380040648
 30
0.0
 11
114.5708099377255
 21
108.8089643703758
 31
0.0
  0
LINE
  5
1355
330
18
100
AcDbEntity
  8
1
  6
Continuous
100
AcDbLine
 10
111.5708097952332
 20
96.80896380040648
 30
0.0
 11
111.5708097952332
 21
108.8089643703758
 31
0.0
  0
LINE
  5
1356
330
18
100
AcDbEntity
  8
1
  6
Continuous
100
AcDbLine
 10
105.5708095102485
 20
96.80896380040648
 30
0.0
 11
105.5708095102485
 21
108.8089643703758
 31
0.0
  0
LINE
  5
1357
330
18
100
AcDbEntity
  8
1
  6
Continuous
100
AcDbLine
 10
102.5708093677561
 20
96.80896380040648
 30
0.0
 11
102.5708093677561
 21
108.8089643703759
 31
0.0
  0
LINE
  5
135A
330
18
100
AcDbEntity
  8
1
  6
Continuous
100
AcDbLine
 10
114.5708099377255
 20
96.80896380040648
 30
0.0
 11
102.5708093677561
 21
96.80896380040648
 31
0.0
  0
LINE
  5
135D
330
18
100
AcDbEntity
  8
1
  6
Continuous
100
AcDbLine
 10
103.0708093915049
 20
110.4089644463718
 30
0.0
 11
103.0708093915049
 21
108.8089643703758
 31
0.0
  0
LINE
  5
135E
330
18
100
AcDbEntity
  8
1
  6
Continuous
100
AcDbLine
 10
114.5708099377255
 20
108.8089643703758
 30
0.0
 11
102.5708093677561
 21
108.8089643703759
 31
0.0
  0
LINE
  5
135F
330
18
100
AcDbEntity
  8
1
  6
Continuous
100
AcDbLine
 10
114.0708099139768
 20
108.8089643703758
 30
0.0
 11
114.0708099139768
 21
110.4089644463718
 31
0.0
  0
LINE
  5
1360
330
18
100
AcDbEntity
  8
1
  6
Continuous
100
AcDbLine
 10
114.5708099377255
 20
110.4089648278415
 30
0.0
 11
69.57080780034027
 21
110.4089648278415
 31
0.0
  0
LINE
  5
1364
330
18
100
AcDbEntity
  8
1
  6
Continuous
100
AcDbLine
 10
102.5708093677561
 20
137.0089664727434
 30
0.0
 11
102.5708093677561
 21
125.0089659027741
 31
0.0
  0
LINE
  5
1365
330
18
100
AcDbEntity
  8
1
  6
Continuous
100
AcDbLine
 10
105.5708095102485
 20
137.0089664727434
 30
0.0
 11
105.5708095102485
 21
125.008965902774
 31
0.0
  0
LINE
  5
1366
330
18
100
AcDbEntity
  8
1
  6
Continuous
100
AcDbLine
 10
111.5708097952332
 20
137.0089664727434
 30
0.0
 11
111.5708097952332
 21
125.008965902774
 31
0.0
  0
LINE
  5
1367
330
18
100
AcDbEntity
  8
1
  6
Continuous
100
AcDbLine
 10
114.5708099377255
 20
137.0089664727434
 30
0.0
 11
114.5708099377255
 21
125.008965902774
 31
0.0
  0
LINE
  5
136A
330
18
100
AcDbEntity
  8
1
  6
Continuous
100
AcDbLine
 10
103.0708093915049
 20
125.008965902774
 30
0.0
 11
103.0708093915049
 21
123.4089658267781
 31
0.0
  0
LINE
  5
136B
330
18
100
AcDbEntity
  8
1
  6
Continuous
100
AcDbLine
 10
102.5708093677561
 20
125.0089659027741
 30
0.0
 11
114.5708099377255
 21
125.008965902774
 31
0.0
  0
LINE
  5
136C
330
18
100
AcDbEntity
  8
1
  6
Continuous
100
AcDbLine
 10
114.0708099139768
 20
123.4089658267781
 30
0.0
 11
114.0708099139768
 21
125.008965902774
 31
0.0
  0
LINE
  5
136D
330
18
100
AcDbEntity
  8
1
  6
Continuous
100
AcDbLine
 10
114.5708099377255
 20
123.4089654453084
 30
0.0
 11
69.57080780034029
 21
123.4089654453084
 31
0.0
  0
LINE
  5
1370
330
18
100
AcDbEntity
  8
1
  6
Continuous
100
AcDbLine
 10
102.5708093677561
 20
137.0089664727434
 30
0.0
 11
114.5708099377255
 21
137.0089664727434
 31
0.0
  0
LINE
  5
1371
330
18
100
AcDbEntity
  8
1
  6
Continuous
100
AcDbLine
 10
111.5708097952332
 20
169.1664462479807
 30
0.0
 11
74.5708080378276
 21
169.1664462479807
 31
0.0
  0
LINE
  5
1372
330
18
100
AcDbEntity
  8
1
  6
Continuous
100
AcDbLine
 10
102.5708093677561
 20
172.1664463904731
 30
0.0
 11
105.5708095102485
 21
169.1664462479807
 31
0.0
  0
LINE
  5
1373
330
18
100
AcDbEntity
  8
1
  6
Continuous
100
AcDbLine
 10
111.5708097952332
 20
169.1664462479807
 30
0.0
 11
114.5708099377255
 21
172.1664463904731
 31
0.0
  0
LINE
  5
137B
330
18
100
AcDbEntity
  8
1
  6
Continuous
100
AcDbLine
 10
152.3794748061139
 20
110.4089648278415
 30
0.0
 11
152.3794748061139
 21
123.4089654453084
 31
0.0
  0
LINE
  5
137C
330
18
100
AcDbEntity
  8
1
  6
Continuous
100
AcDbLine
 10
149.3794746636215
 20
110.4089648278413
 30
0.0
 11
149.3794746636215
 21
123.4089654453083
 31
0.0
  0
LINE
  5
137D
330
18
100
AcDbEntity
  8
1
  6
Continuous
100
AcDbLine
 10
158.3794750910986
 20
110.4089648278415
 30
0.0
 11
158.3794750910986
 21
123.4089654453084
 31
0.0
  0
LINE
  5
137E
330
18
100
AcDbEntity
  8
1
  6
Continuous
100
AcDbLine
 10
161.3794752335909
 20
110.4089648278415
 30
0.0
 11
161.3794752335909
 21
123.4089654453084
 31
0.0
  0
LINE
  5
137F
330
18
100
AcDbEntity
  8
1
  6
Continuous
100
AcDbLine
 10
162.3794752810884
 20
110.4089648278415
 30
0.0
 11
162.3794752810884
 21
123.4089654453084
 31
0.0
  0
LINE
  5
1385
330
18
100
AcDbEntity
  8
1
  6
Continuous
100
AcDbLine
 10
152.3794748061139
 20
96.80896380040648
 30
0.0
 11
152.3794748061139
 21
108.8089643703758
 31
0.0
  0
LINE
  5
1386
330
18
100
AcDbEntity
  8
1
  6
Continuous
100
AcDbLine
 10
149.3794746636215
 20
96.80896380040648
 30
0.0
 11
149.3794746636215
 21
108.8089643703758
 31
0.0
  0
LINE
  5
1387
330
18
100
AcDbEntity
  8
1
  6
Continuous
100
AcDbLine
 10
162.8794753048371
 20
96.80896380040648
 30
0.0
 11
162.8794753048371
 21
108.8089643703758
 31
0.0
  0
LINE
  5
138C
330
18
100
AcDbEntity
  8
1
  6
Continuous
100
AcDbLine
 10
149.3794746636215
 20
96.80896380040648
 30
0.0
 11
162.8794753048371
 21
96.80896380040648
 31
0.0
  0
LINE
  5
13BF
330
18
100
AcDbEntity
  8
1
  6
Continuous
100
AcDbLine
 10
149.3794746636215
 20
108.8089643703758
 30
0.0
 11
162.8794753048371
 21
108.8089643703758
 31
0.0
  0
LINE
  5
13C3
330
18
100
AcDbEntity
  8
1
  6
Continuous
100
AcDbLine
 10
149.8794746873703
 20
110.4089644463718
 30
0.0
 11
149.8794746873703
 21
108.8089643703758
 31
0.0
  0
LINE
  5
13F0
330
18
100
AcDbEntity
  8
1
  6
Continuous
100
AcDbLine
 10
160.8794752098422
 20
108.8089643703758
 30
0.0
 11
160.8794752098422
 21
110.4089644463718
 31
0.0
  0
LINE
  5
13F1
330
18
100
AcDbEntity
  8
1
  6
Continuous
100
AcDbLine
 10
162.3794752810884
 20
110.4089648278415
 30
0.0
 11
149.3794746636215
 21
110.4089648278413
 31
0.0
  0
LINE
  5
1400
330
18
100
AcDbEntity
  8
1
  6
Continuous
100
AcDbLine
 10
162.3794752810884
 20
113.9089649940826
 30
0.0
 11
164.3794757575531
 21
113.9089649940826
 31
0.0
  0
LINE
  5
1415
330
18
100
AcDbEntity
  8
1
  6
Continuous
100
AcDbLine
 10
164.3794757575531
 20
119.9089652790673
 30
0.0
 11
162.3794752810884
 21
119.9089652790673
 31
0.0
  0
LINE
  5
1421
330
18
100
AcDbEntity
  8
1
  6
Continuous
100
AcDbLine
 10
176.7794759650517
 20
119.9089652790673
 30
0.0
 11
170.1794758423034
 21
119.9089652790673
 31
0.0
  0
LINE
  5
1422
330
18
100
AcDbEntity
  8
1
  6
Continuous
100
AcDbLine
 10
170.1794758423034
 20
113.9089649940826
 30
0.0
 11
176.7794759650517
 21
113.9089649940826
 31
0.0
  0
LINE
  5
1427
330
18
100
AcDbEntity
  8
1
  6
Continuous
100
AcDbLine
 10
177.9294760196737
 20
113.9509251045258
 30
0.0
 11
177.9294760196737
 21
119.8670051686241
 31
0.0
  0
LINE
  5
1428
330
18
100
AcDbEntity
  8
1
  6
Continuous
100
AcDbLine
 10
178.3794760410476
 20
114.4084650677976
 30
0.0
 11
178.3794760410476
 21
119.4094652053523
 31
0.0
  0
LINE
  5
142A
330
18
100
AcDbEntity
  8
1
  6
Continuous
100
AcDbLine
 10
178.3794760410476
 20
114.4084650677976
 30
0.0
 11
177.9294760196737
 21
113.9509251045257
 31
0.0
  0
LINE
  5
142B
330
18
100
AcDbEntity
  8
1
  6
Continuous
100
AcDbLine
 10
176.7794759650517
 20
113.9509251045258
 30
0.0
 11
177.9294760196737
 21
113.9509251045258
 31
0.0
  0
LINE
  5
142C
330
18
100
AcDbEntity
  8
1
  6
Continuous
100
AcDbLine
 10
176.7794759650517
 20
113.9509251045258
 30
0.0
 11
176.7794759650517
 21
113.9089649940826
 31
0.0
  0
LINE
  5
142D
330
18
100
AcDbEntity
  8
1
  6
Continuous
100
AcDbLine
 10
177.9294760196737
 20
119.8670051686242
 30
0.0
 11
178.3794760410476
 21
119.4094652053523
 31
0.0
  0
LINE
  5
142E
330
18
100
AcDbEntity
  8
1
  6
Continuous
100
AcDbLine
 10
176.7794759650517
 20
119.9089652790673
 30
0.0
 11
176.7794759650517
 21
119.8670051686241
 31
0.0
  0
LINE
  5
142F
330
18
100
AcDbEntity
  8
1
  6
Continuous
100
AcDbLine
 10
176.7794759650517
 20
119.8670051686243
 30
0.0
 11
177.9294760196737
 21
119.8670051686243
 31
0.0
  0
LINE
  5
1484
330
18
100
AcDbEntity
  8
1
  6
Continuous
100
AcDbLine
 10
162.8794753048371
 20
137.0089664727434
 30
0.0
 11
162.8794753048371
 21
125.008965902774
 31
0.0
  0
LINE
  5
1485
330
18
100
AcDbEntity
  8
1
  6
Continuous
100
AcDbLine
 10
152.3794748061139
 20
137.0089664727434
 30
0.0
 11
152.3794748061139
 21
125.008965902774
 31
0.0
  0
LINE
  5
1486
330
18
100
AcDbEntity
  8
1
  6
Continuous
100
AcDbLine
 10
149.3794746636215
 20
137.0089664727434
 30
0.0
 11
149.3794746636215
 21
125.008965902774
 31
0.0
  0
LINE
  5
1487
330
18
100
AcDbEntity
  8
1
  6
Continuous
100
AcDbLine
 10
162.8794753048371
 20
125.008965902774
 30
0.0
 11
149.3794746636215
 21
125.008965902774
 31
0.0
  0
LINE
  5
148B
330
18
100
AcDbEntity
  8
1
  6
Continuous
100
AcDbLine
 10
149.8794746873703
 20
125.008965902774
 30
0.0
 11
149.8794746873703
 21
123.4089658267781
 31
0.0
  0
LINE
  5
149B
330
18
100
AcDbEntity
  8
1
  6
Continuous
100
AcDbLine
 10
160.8794752098422
 20
123.4089658267781
 30
0.0
 11
160.8794752098422
 21
125.008965902774
 31
0.0
  0
LINE
  5
149C
330
18
100
AcDbEntity
  8
1
  6
Continuous
100
AcDbLine
 10
162.3794752810884
 20
123.4089654453084
 30
0.0
 11
149.3794746636215
 21
123.4089654453083
 31
0.0
  0
LINE
  5
14B1
330
18
100
AcDbEntity
  8
1
  6
Continuous
100
AcDbLine
 10
162.8794753048371
 20
137.0089664727434
 30
0.0
 11
149.3794746636215
 21
137.0089664727434
 31
0.0
  0
LINE
  5
15CA
330
18
100
AcDbEntity
  8
1
  6
Continuous
100
AcDbLine
 10
102.5708093677561
 20
181.1664468179501
 30
0.0
 11
87.5708086552944
 21
181.1664468179501
 31
0.0
  0
LINE
  5
15D2
330
18
100
AcDbEntity
  8
1
  6
Continuous
100
AcDbLine
 10
87.5708086552944
 20
182.1664468654475
 30
0.0
 11
69.57080780034022
 21
182.1664468654475
 31
0.0
  0
LINE
  5
15D3
330
18
100
AcDbEntity
  8
1
  6
Continuous
100
AcDbLine
 10
69.57080780034022
 20
182.1664468654475
 30
0.0
 11
69.57080780034022
 21
174.166446485468
 31
0.0
  0
LINE
  5
15EC
330
18
100
AcDbEntity
  8
1
  6
Continuous
100
AcDbLine
 10
87.5708086552944
 20
182.1664468654475
 30
0.0
 11
87.5708086552944
 21
181.1664468179501
 31
0.0
  0
LINE
  5
162D
330
18
100
AcDbEntity
  8
1
  6
Continuous
100
AcDbLine
 10
102.5708093677561
 20
182.6664468891963
 30
0.0
 11
114.5708099377255
 21
182.6664468891963
 31
0.0
  0
LINE
  5
1F1C
330
18
100
AcDbEntity
  8
1
  6
Continuous
100
AcDbLine
 10
111.5708097952331
 20
190.4664474504113
 30
0.0
 11
111.5708097952331
 21
191.6664482249948
 31
0.0
  0
LINE
  5
1F1D
330
18
100
AcDbEntity
  8
2
  6
Continuous
 48
0.2
100
AcDbLine
 10
111.0293096527408
 20
192.2079474591656
 30
0.0
 11
111.0293096527408
 21
190.4664474504114
 31
0.0
  0
LINE
  5
1F1E
330
18
100
AcDbEntity
  8
1
  6
Continuous
100
AcDbLine
 10
105.5708095102484
 20
191.6664482249949
 30
0.0
 11
105.5708095102484
 21
190.4664474504113
 31
0.0
  0
LINE
  5
1F1F
330
18
100
AcDbEntity
  8
2
  6
Continuous
 48
0.2
100
AcDbLine
 10
106.1123096527408
 20
192.2079474591656
 30
0.0
 11
106.1123096527408
 21
190.4664474504114
 31
0.0
  0
ARC
  5
1F20
330
18
100
AcDbEntity
  8
1
  6
Continuous
100
AcDbCircle
 10
108.5708088700877
 20
175.4346574585981
 30
0.0
 40
14.94079642921764
100
AcDbArc
 50
78.85966714905461
 51
101.1403328509453
  0
LINE
  5
1F21
330
18
100
AcDbEntity
  8
1
  6
Continuous
100
AcDbLine
 10
103.820808644475
 20
190.4664474504113
 30
0.0
 11
113.3208090957003
 21
190.4664474504114
 31
0.0
  0
ARC
  5
1F22
330
18
100
AcDbEntity
  8
1
  6
Continuous
100
AcDbCircle
 10
108.5708088700877
 20
200.2982371952379
 30
0.0
 40
14.94079642921764
100
AcDbArc
 50
258.8596671490547
 51
281.1403328509453
  0
LINE
  5
1F23
330
18
100
AcDbEntity
  8
1
  6
Continuous
100
AcDbLine
 10
103.0708093915048
 20
185.2664473941594
 30
0.0
 11
114.0708099139768
 21
185.2664473941595
 31
0.0
  0
LINE
  5
1F24
330
18
100
AcDbEntity
  8
1
  6
Continuous
100
AcDbLine
 10
114.0708099139769
 20
184.6664473656609
 30
0.0
 11
103.0708093915048
 21
184.666447365661
 31
0.0
  0
LINE
  5
1F25
330
18
100
AcDbEntity
  8
1
  6
Continuous
100
AcDbLine
 10
103.8210840387379
 20
190.4665476857256
 30
0.0
 11
102.7973059039648
 21
190.0939229181758
 31
0.0
  0
LINE
  5
1F26
330
18
100
AcDbEntity
  8
1
  6
Continuous
100
AcDbLine
 10
102.7973059039648
 20
190.0939229181758
 30
0.0
 11
102.7972059039648
 21
190.0938865211523
 31
0.0
  0
ARC
  5
1F27
330
18
100
AcDbEntity
  8
1
  6
Continuous
100
AcDbCircle
 10
104.2406765200305
 20
186.5346543893079
 30
0.0
 40
3.840799498515785
100
AcDbArc
 50
67.9260981821169
 51
112.0753465723804
  0
LINE
  5
1F28
330
18
100
AcDbEntity
  8
1
  6
Continuous
100
AcDbLine
 10
102.7973059039648
 20
185.6389717356603
 30
0.0
 11
103.8208081204358
 21
185.2664473941594
 31
0.0
  0
LINE
  5
1F29
330
18
100
AcDbEntity
  8
1
  6
Continuous
100
AcDbLine
 10
102.7972059039648
 20
185.6390081326838
 30
0.0
 11
102.7973059039648
 21
185.6389717356603
 31
0.0
  0
LINE
  5
1F2A
330
18
100
AcDbEntity
  8
1
  6
Continuous
100
AcDbLine
 10
103.4894719825784
 20
185.2664473941594
 30
0.0
 11
103.4894719825784
 21
184.666447365661
 31
0.0
  0
LINE
  5
1F2C
330
18
100
AcDbEntity
  8
1
  6
Continuous
100
AcDbLine
 10
103.0708093915048
 20
185.2664473941594
 30
0.0
 11
103.0708093915048
 21
184.666447365661
 31
0.0
  0
LINE
  5
1F2F
330
18
100
AcDbEntity
  8
1
  6
Continuous
100
AcDbLine
 10
104.7995937479626
 20
185.2664473941594
 30
0.0
 11
104.7995937479626
 21
184.666447365661
 31
0.0
  0
LINE
  5
1F30
330
18
100
AcDbEntity
  8
1
  6
Continuous
100
AcDbLine
 10
104.6817221714931
 20
185.2664473941594
 30
0.0
 11
104.6817221714931
 21
184.666447365661
 31
0.0
  0
ARC
  5
1F31
330
18
100
AcDbEntity
  8
1
  6
Continuous
100
AcDbCircle
 10
104.2406765200305
 20
189.1982402645282
 30
0.0
 40
3.840799498515785
100
AcDbArc
 50
247.9246534276196
 51
292.0739018178831
  0
LINE
  5
1F32
330
18
100
AcDbEntity
  8
1
  6
Continuous
100
AcDbLine
 10
102.7973059039648
 20
190.0939229181758
 30
0.0
 11
102.7973059039648
 21
185.6389717356601
 31
0.0
  0
LINE
  5
1F33
330
18
100
AcDbEntity
  8
1
  6
Continuous
100
AcDbLine
 10
105.6840573870263
 20
190.0939229181758
 30
0.0
 11
105.6840573870263
 21
185.6389717356604
 31
0.0
  0
LINE
  5
1F34
330
18
100
AcDbEntity
  8
1
  6
Continuous
100
AcDbLine
 10
114.3443118362105
 20
190.0939229181758
 30
0.0
 11
113.3208090957003
 21
190.4664474504114
 31
0.0
  0
LINE
  5
1F35
330
18
100
AcDbEntity
  8
1
  6
Continuous
100
AcDbLine
 10
114.3444118362106
 20
190.0938865211523
 30
0.0
 11
114.3443118362105
 21
190.0939229181758
 31
0.0
  0
ARC
  5
1F36
330
18
100
AcDbEntity
  8
1
  6
Continuous
100
AcDbCircle
 10
112.9009360946798
 20
186.5346806669604
 30
0.0
 40
3.840773220860136
100
AcDbArc
 50
67.9260217220985
 51
112.0739782779014
  0
LINE
  5
1F37
330
18
100
AcDbEntity
  8
1
  6
Continuous
100
AcDbLine
 10
113.3208096197398
 20
185.2664473941594
 30
0.0
 11
114.3443118362105
 21
185.6389717356604
 31
0.0
  0
LINE
  5
1F38
330
18
100
AcDbEntity
  8
1
  6
Continuous
100
AcDbLine
 10
112.5742998142304
 20
185.2664473941594
 30
0.0
 11
112.5742998142304
 21
184.666447365661
 31
0.0
  0
LINE
  5
1F39
330
18
100
AcDbEntity
  8
1
  6
Continuous
100
AcDbLine
 10
114.3443118362105
 20
185.6389717356604
 30
0.0
 11
114.3444118362106
 21
185.6390081326838
 31
0.0
  0
LINE
  5
1F3A
330
18
100
AcDbEntity
  8
1
  6
Continuous
100
AcDbLine
 10
114.0708099139768
 20
185.2664473941595
 30
0.0
 11
114.0708099139769
 21
184.6664473656609
 31
0.0
  0
LINE
  5
1F3B
330
18
100
AcDbEntity
  8
1
  6
Continuous
100
AcDbLine
 10
113.7127341181821
 20
185.2664473941594
 30
0.0
 11
113.7127341181821
 21
184.666447365661
 31
0.0
  0
LINE
  5
1F3C
330
18
100
AcDbEntity
  8
1
  6
Continuous
100
AcDbLine
 10
110.6755686307198
 20
185.2664473941594
 30
0.0
 11
110.6755686307198
 21
184.666447365661
 31
0.0
  0
LINE
  5
1F3D
330
18
100
AcDbEntity
  8
1
  6
Continuous
100
AcDbLine
 10
110.8263704249214
 20
185.2664473941594
 30
0.0
 11
110.8263704249214
 21
184.666447365661
 31
0.0
  0
LINE
  5
1F3E
330
18
100
AcDbEntity
  8
1
  6
Continuous
100
AcDbLine
 10
112.4598971339885
 20
185.2664473941594
 30
0.0
 11
112.4598971339885
 21
184.666447365661
 31
0.0
  0
ARC
  5
1F3F
330
18
100
AcDbEntity
  8
1
  6
Continuous
100
AcDbCircle
 10
112.9009360946798
 20
189.1982139868756
 30
0.0
 40
3.840773220860136
100
AcDbArc
 50
247.9260217220984
 51
292.0739782779015
  0
LINE
  5
1F40
330
18
100
AcDbEntity
  8
1
  6
Continuous
100
AcDbLine
 10
108.5708096527408
 20
185.2664473941594
 30
0.0
 11
108.5708096527408
 21
184.666447365661
 31
0.0
  0
LINE
  5
1F41
330
18
100
AcDbEntity
  8
1
  6
Continuous
100
AcDbLine
 10
108.7350523547572
 20
185.2664473941594
 30
0.0
 11
108.7350523547572
 21
184.666447365661
 31
0.0
  0
LINE
  5
1F42
330
18
100
AcDbEntity
  8
1
  6
Continuous
100
AcDbLine
 10
106.618729822075
 20
185.2664473941594
 30
0.0
 11
106.618729822075
 21
184.666447365661
 31
0.0
  0
LINE
  5
1F43
330
18
100
AcDbEntity
  8
1
  6
Continuous
100
AcDbLine
 10
106.4660506747619
 20
185.2664473941594
 30
0.0
 11
106.4660506747619
 21
184.666447365661
 31
0.0
  0
LINE
  5
1F44
330
18
100
AcDbEntity
  8
1
  6
Continuous
100
AcDbLine
 10
114.3443118362105
 20
190.0939229181758
 30
0.0
 11
114.3443118362105
 21
185.6389717356601
 31
0.0
  0
LINE
  5
1F45
330
18
100
AcDbEntity
  8
1
  6
Continuous
100
AcDbLine
 10
111.4575603531488
 20
190.0939229181758
 30
0.0
 11
111.4575603531488
 21
185.6389717356603
 31
0.0
  0
LINE
  5
1F46
330
18
100
AcDbEntity
  8
1
  6
Continuous
100
AcDbLine
 10
106.570909557746
 20
192.6665473641708
 30
0.0
 11
105.5708095102484
 21
191.6664473166734
 31
0.0
  0
LINE
  5
1F47
330
18
100
AcDbEntity
  8
1
  6
Continuous
100
AcDbLine
 10
105.57081041857
 20
191.6664482249949
 30
0.0
 11
111.5708097952331
 21
191.6664482249948
 31
0.0
  0
LINE
  5
1F48
330
18
100
AcDbEntity
  8
1
  6
Continuous
100
AcDbLine
 10
111.5708097952331
 20
191.6664473166733
 30
0.0
 11
110.5708097477358
 21
192.6664473641707
 31
0.0
  0
LINE
  5
1F49
330
18
100
AcDbEntity
  8
1
  6
Continuous
100
AcDbLine
 10
106.570809557746
 20
192.6664473641708
 30
0.0
 11
110.5708097477358
 21
192.6664473641707
 31
0.0
  0
LINE
  5
1F4A
330
18
100
AcDbEntity
  8
1
  6
Continuous
100
AcDbLine
 10
111.5708097952331
 20
182.6664468891963
 30
0.0
 11
111.5708097952331
 21
184.666447365661
 31
0.0
  0
LINE
  5
1F4B
330
18
100
AcDbEntity
  8
2
  6
Continuous
 48
0.2
100
AcDbLine
 10
111.0293096527408
 20
184.6664473656609
 30
0.0
 11
111.0293096527408
 21
182.6664468891963
 31
0.0
  0
LINE
  5
1F4C
330
18
100
AcDbEntity
  8
4
  6
CENTER
 48
0.15
100
AcDbLine
 10
108.5708096527409
 20
195.6664473641708
 30
0.0
 11
108.5708096527408
 21
166.1664462479807
 31
0.0
  0
LINE
  5
1F4D
330
18
100
AcDbEntity
  8
1
  6
Continuous
100
AcDbLine
 10
105.5708095102484
 20
184.666447365661
 30
0.0
 11
105.5708095102484
 21
182.6664468891963
 31
0.0
  0
LINE
  5
1F4E
330
18
100
AcDbEntity
  8
2
  6
Continuous
 48
0.2
100
AcDbLine
 10
106.1123096527408
 20
184.6664473656609
 30
0.0
 11
106.1123096527408
 21
182.6664468891963
 31
0.0
  0
LINE
  5
1F9F
330
18
100
AcDbEntity
  8
2
  6
Continuous
 48
0.2
100
AcDbLine
 10
76.11230822781729
 20
198.1665476254068
 30
0.0
 11
76.11230822781729
 21
189.9664474266627
 31
0.0
  0
LINE
  5
1FA0
330
18
100
AcDbEntity
  8
2
  6
Continuous
 48
0.2
100
AcDbLine
 10
81.02930822781733
 20
198.1664476254067
 30
0.0
 11
81.02930822781733
 21
189.9664474266627
 31
0.0
  0
LINE
  5
1FA1
330
18
100
AcDbEntity
  8
1
  6
Continuous
100
AcDbLine
 10
81.57080837030958
 20
189.9664474266626
 30
0.0
 11
81.57080837030958
 21
197.7164476040329
 31
0.0
  0
LINE
  5
1FA2
330
18
100
AcDbEntity
  8
1
  6
Continuous
100
AcDbLine
 10
75.57080808532488
 20
197.716447604033
 30
0.0
 11
75.57080808532488
 21
189.9664474266626
 31
0.0
  0
ARC
  5
1FA3
330
18
100
AcDbEntity
  8
1
  6
Continuous
100
AcDbCircle
 10
78.5708074451642
 20
174.9346574348494
 30
0.0
 40
14.94079642921764
100
AcDbArc
 50
78.85966714905461
 51
101.1403328509453
  0
LINE
  5
1FA4
330
18
100
AcDbEntity
  8
1
  6
Continuous
100
AcDbLine
 10
73.82080721955142
 20
189.9664474266626
 30
0.0
 11
83.32080767077675
 21
189.9664474266627
 31
0.0
  0
ARC
  5
1FA5
330
18
100
AcDbEntity
  8
1
  6
Continuous
100
AcDbCircle
 10
78.5708074451642
 20
199.7982371714892
 30
0.0
 40
14.94079642921764
100
AcDbArc
 50
258.8596671490547
 51
281.1403328509453
  0
LINE
  5
1FA6
330
18
100
AcDbEntity
  8
1
  6
Continuous
100
AcDbLine
 10
73.07080796658127
 20
184.7664473704107
 30
0.0
 11
84.07080848905323
 21
184.7664473704108
 31
0.0
  0
LINE
  5
1FA7
330
18
100
AcDbEntity
  8
1
  6
Continuous
100
AcDbLine
 10
84.07080848905335
 20
184.1664473419122
 30
0.0
 11
73.07080796658127
 21
184.1664473419123
 31
0.0
  0
LINE
  5
1FA8
330
18
100
AcDbEntity
  8
1
  6
Continuous
100
AcDbLine
 10
73.82108261381439
 20
189.966547661977
 30
0.0
 11
72.79730447904128
 21
189.593922894427
 31
0.0
  0
LINE
  5
1FA9
330
18
100
AcDbEntity
  8
1
  6
Continuous
100
AcDbLine
 10
72.79730447904128
 20
189.593922894427
 30
0.0
 11
72.79720447904131
 21
189.5938864974036
 31
0.0
  0
ARC
  5
1FAA
330
18
100
AcDbEntity
  8
1
  6
Continuous
100
AcDbCircle
 10
74.24067509510703
 20
186.0346543655591
 30
0.0
 40
3.840799498515785
100
AcDbArc
 50
67.9260981821169
 51
112.0753465723804
  0
LINE
  5
1FAB
330
18
100
AcDbEntity
  8
1
  6
Continuous
100
AcDbLine
 10
72.79730447904128
 20
185.1389717119116
 30
0.0
 11
73.82080669551228
 21
184.7664473704107
 31
0.0
  0
LINE
  5
1FAC
330
18
100
AcDbEntity
  8
1
  6
Continuous
100
AcDbLine
 10
72.79720447904131
 20
185.139008108935
 30
0.0
 11
72.79730447904128
 21
185.1389717119116
 31
0.0
  0
LINE
  5
1FAD
330
18
100
AcDbEntity
  8
1
  6
Continuous
100
AcDbLine
 10
73.48947055765489
 20
184.7664473704107
 30
0.0
 11
73.48947055765489
 21
184.1664473419123
 31
0.0
  0
LINE
  5
1FAF
330
18
100
AcDbEntity
  8
1
  6
Continuous
100
AcDbLine
 10
73.07080796658127
 20
184.7664473704107
 30
0.0
 11
73.07080796658127
 21
184.1664473419123
 31
0.0
  0
LINE
  5
1FB2
330
18
100
AcDbEntity
  8
1
  6
Continuous
100
AcDbLine
 10
74.79959232303909
 20
184.7664473704107
 30
0.0
 11
74.79959232303909
 21
184.1664473419123
 31
0.0
  0
LINE
  5
1FB3
330
18
100
AcDbEntity
  8
1
  6
Continuous
100
AcDbLine
 10
74.68172074656959
 20
184.7664473704107
 30
0.0
 11
74.68172074656959
 21
184.1664473419123
 31
0.0
  0
ARC
  5
1FB4
330
18
100
AcDbEntity
  8
1
  6
Continuous
100
AcDbCircle
 10
74.24067509510703
 20
188.6982402407794
 30
0.0
 40
3.840799498515785
100
AcDbArc
 50
247.9246534276196
 51
292.0739018178831
  0
LINE
  5
1FB5
330
18
100
AcDbEntity
  8
1
  6
Continuous
100
AcDbLine
 10
72.79730447904128
 20
189.593922894427
 30
0.0
 11
72.79730447904128
 21
185.1389717119115
 31
0.0
  0
LINE
  5
1FB6
330
18
100
AcDbEntity
  8
1
  6
Continuous
100
AcDbLine
 10
75.68405596210279
 20
189.593922894427
 30
0.0
 11
75.68405596210279
 21
185.1389717119116
 31
0.0
  0
LINE
  5
1FB7
330
18
100
AcDbEntity
  8
1
  6
Continuous
100
AcDbLine
 10
84.34431041128702
 20
189.593922894427
 30
0.0
 11
83.32080767077675
 21
189.9664474266627
 31
0.0
  0
LINE
  5
1FB8
330
18
100
AcDbEntity
  8
1
  6
Continuous
100
AcDbLine
 10
84.3444104112871
 20
189.5938864974036
 30
0.0
 11
84.34431041128702
 21
189.593922894427
 31
0.0
  0
ARC
  5
1FB9
330
18
100
AcDbEntity
  8
1
  6
Continuous
100
AcDbCircle
 10
82.90093466975623
 20
186.0346806432117
 30
0.0
 40
3.840773220860136
100
AcDbArc
 50
67.9260217220985
 51
112.0739782779014
  0
LINE
  5
1FBA
330
18
100
AcDbEntity
  8
1
  6
Continuous
100
AcDbLine
 10
83.32080819481623
 20
184.7664473704107
 30
0.0
 11
84.34431041128702
 21
185.1389717119116
 31
0.0
  0
LINE
  5
1FBB
330
18
100
AcDbEntity
  8
1
  6
Continuous
100
AcDbLine
 10
82.57429838930685
 20
184.7664473704107
 30
0.0
 11
82.57429838930685
 21
184.1664473419123
 31
0.0
  0
LINE
  5
1FBC
330
18
100
AcDbEntity
  8
1
  6
Continuous
100
AcDbLine
 10
84.34431041128702
 20
185.1389717119116
 30
0.0
 11
84.3444104112871
 21
185.139008108935
 31
0.0
  0
LINE
  5
1FBD
330
18
100
AcDbEntity
  8
1
  6
Continuous
100
AcDbLine
 10
84.07080848905323
 20
184.7664473704108
 30
0.0
 11
84.07080848905335
 21
184.1664473419122
 31
0.0
  0
LINE
  5
1FBE
330
18
100
AcDbEntity
  8
1
  6
Continuous
100
AcDbLine
 10
83.71273269325859
 20
184.7664473704107
 30
0.0
 11
83.71273269325859
 21
184.1664473419123
 31
0.0
  0
LINE
  5
1FBF
330
18
100
AcDbEntity
  8
1
  6
Continuous
100
AcDbLine
 10
80.67556720579629
 20
184.7664473704107
 30
0.0
 11
80.67556720579629
 21
184.1664473419123
 31
0.0
  0
LINE
  5
1FC0
330
18
100
AcDbEntity
  8
1
  6
Continuous
100
AcDbLine
 10
80.82636899999787
 20
184.7664473704107
 30
0.0
 11
80.82636899999787
 21
184.1664473419123
 31
0.0
  0
LINE
  5
1FC1
330
18
100
AcDbEntity
  8
1
  6
Continuous
100
AcDbLine
 10
82.45989570906502
 20
184.7664473704107
 30
0.0
 11
82.45989570906502
 21
184.1664473419123
 31
0.0
  0
ARC
  5
1FC2
330
18
100
AcDbEntity
  8
1
  6
Continuous
100
AcDbCircle
 10
82.90093466975623
 20
188.6982139631269
 30
0.0
 40
3.840773220860136
100
AcDbArc
 50
247.9260217220984
 51
292.0739782779015
  0
LINE
  5
1FC3
330
18
100
AcDbEntity
  8
1
  6
Continuous
100
AcDbLine
 10
78.57080822781725
 20
184.7664473704107
 30
0.0
 11
78.57080822781725
 21
184.1664473419123
 31
0.0
  0
LINE
  5
1FC4
330
18
100
AcDbEntity
  8
1
  6
Continuous
100
AcDbLine
 10
78.73505092983364
 20
184.7664473704107
 30
0.0
 11
78.73505092983364
 21
184.1664473419123
 31
0.0
  0
LINE
  5
1FC5
330
18
100
AcDbEntity
  8
1
  6
Continuous
100
AcDbLine
 10
76.6187283971515
 20
184.7664473704107
 30
0.0
 11
76.6187283971515
 21
184.1664473419123
 31
0.0
  0
LINE
  5
1FC6
330
18
100
AcDbEntity
  8
1
  6
Continuous
100
AcDbLine
 10
76.46604924983832
 20
184.7664473704107
 30
0.0
 11
76.46604924983832
 21
184.1664473419123
 31
0.0
  0
LINE
  5
1FC7
330
18
100
AcDbEntity
  8
1
  6
Continuous
100
AcDbLine
 10
84.34431041128702
 20
189.593922894427
 30
0.0
 11
84.34431041128702
 21
185.1389717119115
 31
0.0
  0
LINE
  5
1FC8
330
18
100
AcDbEntity
  8
1
  6
Continuous
100
AcDbLine
 10
81.45755892822526
 20
189.593922894427
 30
0.0
 11
81.45755892822526
 21
185.1389717119116
 31
0.0
  0
LINE
  5
1FC9
330
18
100
AcDbEntity
  8
1
  6
Continuous
100
AcDbLine
 10
78.07080820406851
 20
197.7164476040329
 30
0.0
 11
75.57080808532488
 21
197.7164476040329
 31
0.0
  0
LINE
  5
1FCA
330
18
100
AcDbEntity
  8
1
  6
Continuous
100
AcDbLine
 10
78.07080820406851
 20
198.1664476254067
 30
0.0
 11
76.02080810669868
 21
198.1664476254067
 31
0.0
  0
LINE
  5
1FCB
330
18
100
AcDbEntity
  8
1
  6
Continuous
100
AcDbLine
 10
76.02080810669868
 20
198.1664476254067
 30
0.0
 11
75.57080808532488
 21
197.716447604033
 31
0.0
  0
LINE
  5
1FCC
330
18
100
AcDbEntity
  8
1
  6
Continuous
100
AcDbLine
 10
75.57080808532496
 20
197.716447604033
 30
0.0
 11
75.57070808532485
 21
197.716347604033
 31
0.0
  0
LINE
  5
1FCD
330
18
100
AcDbEntity
  8
1
  6
Continuous
100
AcDbLine
 10
81.57080837030958
 20
197.7164476040329
 30
0.0
 11
81.12070834893572
 21
198.1665476254068
 31
0.0
  0
LINE
  5
1FCF
330
18
100
AcDbEntity
  8
1
  6
Continuous
100
AcDbLine
 10
78.07080820406851
 20
196.5664475494109
 30
0.0
 11
78.07080820406854
 21
198.1664476254069
 31
0.0
  0
LINE
  5
1FD0
330
18
100
AcDbEntity
  8
1
  6
Continuous
100
AcDbLine
 10
79.07080825156597
 20
196.5664475494109
 30
0.0
 11
79.07080825156597
 21
198.1664476254067
 31
0.0
  0
LINE
  5
1FD1
330
18
100
AcDbEntity
  8
1
  6
Continuous
100
AcDbLine
 10
78.07080820406851
 20
196.5664475494109
 30
0.0
 11
79.07080825156592
 21
196.5664475494109
 31
0.0
  0
LINE
  5
1FD4
330
18
100
AcDbEntity
  8
1
  6
Continuous
100
AcDbLine
 10
81.57080837030958
 20
197.7164476040329
 30
0.0
 11
79.07080825156592
 21
197.7164476040329
 31
0.0
  0
LINE
  5
1FD5
330
18
100
AcDbEntity
  8
1
  6
Continuous
100
AcDbLine
 10
81.12080834893575
 20
198.1664476254067
 30
0.0
 11
79.07080825156597
 21
198.1664476254067
 31
0.0
  0
LINE
  5
1FD6
330
18
100
AcDbEntity
  8
4
  6
CENTER
 48
0.15
100
AcDbLine
 10
78.57080822781736
 20
201.1664473404219
 30
0.0
 11
78.57080822781725
 21
165.666446224232
 31
0.0
  0
LINE
  5
1FD7
330
18
100
AcDbEntity
  8
1
  6
Continuous
100
AcDbLine
 10
75.57080808532488
 20
184.1664473419123
 30
0.0
 11
75.57080808532488
 21
182.1664468654475
 31
0.0
  0
LINE
  5
1FD8
330
18
100
AcDbEntity
  8
2
  6
Continuous
 48
0.2
100
AcDbLine
 10
76.11230822781729
 20
184.1664473419122
 30
0.0
 11
76.11230822781729
 21
182.1664468654475
 31
0.0
  0
LINE
  5
1FD9
330
18
100
AcDbEntity
  8
1
  6
Continuous
100
AcDbLine
 10
81.57080837030958
 20
182.1664468654475
 30
0.0
 11
81.57080837030958
 21
184.1664473419123
 31
0.0
  0
LINE
  5
1FDA
330
18
100
AcDbEntity
  8
2
  6
Continuous
 48
0.2
100
AcDbLine
 10
81.02930822781733
 20
184.1664473419122
 30
0.0
 11
81.02930822781733
 21
182.1664468654475
 31
0.0
  0
LINE
  5
1FDB
330
18
100
AcDbEntity
  8
4
  6
CENTER
 48
0.15
100
AcDbLine
 10
108.5708096527408
 20
140.0089664727434
 30
0.0
 11
108.5708096527408
 21
93.80896380040647
 31
0.0
  0
LINE
  5
1FDC
330
18
100
AcDbEntity
  8
4
  6
CENTER
 48
0.15
100
AcDbLine
 10
78.57080822781725
 20
126.4089654453084
 30
0.0
 11
78.57080822781725
 21
107.4089648278415
 31
0.0
  0
LINE
  5
1FDD
330
18
100
AcDbEntity
  8
4
  6
CENTER
 48
0.15
100
AcDbLine
 10
117.5708099377255
 20
131.0089661877587
 30
0.0
 11
99.5708093677562
 21
131.0089661877587
 31
0.0
  0
LINE
  5
1FDE
330
18
100
AcDbEntity
  8
4
  6
CENTER
 48
0.15
100
AcDbLine
 10
117.5708099377255
 20
116.9089651365749
 30
0.0
 11
66.57080780034029
 21
116.9089651365749
 31
0.0
  0
LINE
  5
1FDF
330
18
100
AcDbEntity
  8
4
  6
CENTER
 48
0.15
100
AcDbLine
 10
117.5708099377255
 20
102.8089640853911
 30
0.0
 11
99.5708093677562
 21
102.8089640853911
 31
0.0
  0
LINE
  5
203F
330
18
100
AcDbEntity
  8
4
  6
CENTER
 48
0.15
100
AcDbLine
 10
175.8794757798116
 20
131.0089661877587
 30
0.0
 11
146.3794746636215
 21
131.0089661877587
 31
0.0
  0
ARC
  5
2040
330
18
100
AcDbEntity
  8
1
  6
Continuous
100
AcDbCircle
 10
176.8112578735546
 20
133.5089663065021
 30
0.0
 40
11.24078869192407
100
AcDbArc
 50
167.1497095614943
 51
192.8502904385055
  0
ARC
  5
2041
330
18
100
AcDbEntity
  8
1
  6
Continuous
100
AcDbCircle
 10
159.3476936115633
 20
133.5089663065021
 30
0.0
 40
11.24078869192407
100
AcDbArc
 50
347.1497095614943
 51
12.85029043850557
  0
LINE
  5
2042
330
18
100
AcDbEntity
  8
1
  6
Continuous
100
AcDbLine
 10
165.4794758098003
 20
136.5089664489947
 30
0.0
 11
165.4794758098006
 21
125.5089659265227
 31
0.0
  0
LINE
  5
2043
330
18
100
AcDbEntity
  8
1
  6
Continuous
100
AcDbLine
 10
164.8794757813018
 20
125.5089659265227
 30
0.0
 11
164.8794757813018
 21
136.5089664489947
 31
0.0
  0
LINE
  5
2044
330
18
100
AcDbEntity
  8
1
  6
Continuous
100
AcDbLine
 10
171.8794757323142
 20
128.0089660452664
 30
0.0
 11
171.8794757323142
 21
134.008966330251
 31
0.0
  0
LINE
  5
2045
330
18
100
AcDbEntity
  8
1
  6
Continuous
100
AcDbLine
 10
172.8794757798116
 20
129.0089660927638
 30
0.0
 11
172.8794757798117
 21
133.0089662827536
 31
0.0
  0
LINE
  5
2046
330
18
100
AcDbEntity
  8
1
  6
Continuous
100
AcDbLine
 10
170.6794761013666
 20
126.2589666086671
 30
0.0
 11
170.6794761013666
 21
135.7589657668504
 31
0.0
  0
LINE
  5
2047
330
18
100
AcDbEntity
  8
1
  6
Continuous
100
AcDbLine
 10
162.8794753048372
 20
128.0089660452664
 30
0.0
 11
164.8794757813018
 21
128.0089660452664
 31
0.0
  0
LINE
  5
2048
330
18
100
AcDbEntity
  8
2
  6
Continuous
 48
0.2
100
AcDbLine
 10
164.8794757813018
 20
128.5504661877588
 30
0.0
 11
162.8794753048372
 21
128.5504661877588
 31
0.0
  0
LINE
  5
2049
330
18
100
AcDbEntity
  8
1
  6
Continuous
100
AcDbLine
 10
165.4794758098003
 20
126.2589654381069
 30
0.0
 11
165.5704681819542
 21
126.0089659502715
 31
0.0
  0
LINE
  5
204A
330
18
100
AcDbEntity
  8
1
  6
Continuous
100
AcDbLine
 10
165.4794758098003
 20
125.8670417223175
 30
0.0
 11
164.8794757813018
 21
125.8670417223175
 31
0.0
  0
LINE
  5
204B
330
18
100
AcDbEntity
  8
1
  6
Continuous
100
AcDbLine
 10
165.4794758098006
 20
125.5089659265227
 30
0.0
 11
164.8794757813018
 21
125.5089659265227
 31
0.0
  0
LINE
  5
204C
330
18
100
AcDbEntity
  8
1
  6
Continuous
100
AcDbLine
 10
165.4794758098003
 20
130.8447234857423
 30
0.0
 11
164.8794757813018
 21
130.8447234857423
 31
0.0
  0
LINE
  5
204D
330
18
100
AcDbEntity
  8
1
  6
Continuous
100
AcDbLine
 10
165.4794758098003
 20
128.9042072097798
 30
0.0
 11
164.8794757813018
 21
128.9042072097798
 31
0.0
  0
LINE
  5
204E
330
18
100
AcDbEntity
  8
1
  6
Continuous
100
AcDbLine
 10
165.4794758098003
 20
128.7534054155781
 30
0.0
 11
164.8794757813018
 21
128.7534054155781
 31
0.0
  0
LINE
  5
204F
330
18
100
AcDbEntity
  8
1
  6
Continuous
100
AcDbLine
 10
165.4794758098003
 20
127.119878706511
 30
0.0
 11
164.8794757813018
 21
127.119878706511
 31
0.0
  0
LINE
  5
2050
330
18
100
AcDbEntity
  8
1
  6
Continuous
100
AcDbLine
 10
165.4794758098003
 20
127.0054760262691
 30
0.0
 11
164.8794757813018
 21
127.0054760262691
 31
0.0
  0
LINE
  5
2051
330
18
100
AcDbEntity
  8
1
  6
Continuous
100
AcDbLine
 10
170.5884833031637
 20
126.0089659502715
 30
0.0
 11
170.6794761013666
 21
126.2589666086671
 31
0.0
  0
LINE
  5
2052
330
18
100
AcDbEntity
  8
1
  6
Continuous
100
AcDbLine
 10
170.6794758660522
 20
128.0089660452664
 30
0.0
 11
171.8794757323142
 21
128.0089660452664
 31
0.0
  0
LINE
  5
2055
330
18
100
AcDbEntity
  8
2
  6
Continuous
 48
0.2
100
AcDbLine
 10
172.4209758748065
 20
128.5504661877587
 30
0.0
 11
170.6794758660523
 21
128.5504661877587
 31
0.0
  0
LINE
  5
2056
330
18
100
AcDbEntity
  8
1
  6
Continuous
100
AcDbLine
 10
170.5884833031637
 20
126.0089659502715
 30
0.0
 11
165.5704681819542
 21
126.0089659502715
 31
0.0
  0
LINE
  5
2057
330
18
100
AcDbEntity
  8
1
  6
Continuous
100
AcDbLine
 10
171.8794757323142
 20
128.0089660452664
 30
0.0
 11
172.8794757798116
 21
129.0089660927638
 31
0.0
  0
LINE
  5
2058
330
18
100
AcDbEntity
  8
1
  6
Continuous
100
AcDbLine
 10
165.4794758098003
 20
131.0089661877587
 30
0.0
 11
164.8794757813018
 21
131.0089661877587
 31
0.0
  0
LINE
  5
2059
330
18
100
AcDbEntity
  8
1
  6
Continuous
100
AcDbLine
 10
170.3069513338166
 20
131.0089661877586
 30
0.0
 11
165.8520001513011
 21
131.0089661877586
 31
0.0
  0
ARC
  5
205A
330
18
100
AcDbEntity
  8
1
  6
Continuous
100
AcDbCircle
 10
176.8112578735546
 20
128.5089660690151
 30
0.0
 40
11.24078869192407
100
AcDbArc
 50
167.1497095614943
 51
192.8502904385055
  0
ARC
  5
205B
330
18
100
AcDbEntity
  8
1
  6
Continuous
100
AcDbCircle
 10
159.3476936115633
 20
128.5089660690151
 30
0.0
 40
11.24078869192407
100
AcDbArc
 50
347.1497095614943
 51
12.85029043850557
  0
LINE
  5
205C
330
18
100
AcDbEntity
  8
1
  6
Continuous
100
AcDbLine
 10
164.8794757813018
 20
134.0089663302511
 30
0.0
 11
162.8794753048372
 21
134.0089663302511
 31
0.0
  0
LINE
  5
205D
330
18
100
AcDbEntity
  8
2
  6
Continuous
 48
0.2
100
AcDbLine
 10
164.8794757813018
 20
133.4674661877587
 30
0.0
 11
162.8794753048372
 21
133.4674661877587
 31
0.0
  0
LINE
  5
205E
330
18
100
AcDbEntity
  8
1
  6
Continuous
100
AcDbLine
 10
165.4794758098003
 20
136.0903038579212
 30
0.0
 11
164.8794757813018
 21
136.0903038579212
 31
0.0
  0
LINE
  5
205F
330
18
100
AcDbEntity
  8
1
  6
Continuous
100
AcDbLine
 10
165.4794758098003
 20
136.5065135689489
 30
0.0
 11
164.8794757813018
 21
136.5065135689489
 31
0.0
  0
LINE
  5
2060
330
18
100
AcDbEntity
  8
1
  6
Continuous
100
AcDbLine
 10
165.4794758098003
 20
136.5089664489947
 30
0.0
 11
164.8794757813018
 21
136.5089664489947
 31
0.0
  0
LINE
  5
2061
330
18
100
AcDbEntity
  8
1
  6
Continuous
100
AcDbLine
 10
165.5704681819541
 20
136.0089664252459
 30
0.0
 11
165.4794758098003
 21
135.7589669374106
 31
0.0
  0
LINE
  5
2062
330
18
100
AcDbEntity
  8
1
  6
Continuous
100
AcDbLine
 10
165.4794758098003
 20
132.9610460184246
 30
0.0
 11
164.8794757813018
 21
132.9610460184246
 31
0.0
  0
LINE
  5
2063
330
18
100
AcDbEntity
  8
1
  6
Continuous
100
AcDbLine
 10
165.4794758098003
 20
133.1137251657377
 30
0.0
 11
164.8794757813018
 21
133.1137251657377
 31
0.0
  0
LINE
  5
2064
330
18
100
AcDbEntity
  8
1
  6
Continuous
100
AcDbLine
 10
165.4794758098003
 20
134.7801820925369
 30
0.0
 11
164.8794757813018
 21
134.7801820925369
 31
0.0
  0
LINE
  5
2065
330
18
100
AcDbEntity
  8
1
  6
Continuous
100
AcDbLine
 10
165.4794758098003
 20
134.8980536690065
 30
0.0
 11
164.8794757813018
 21
134.8980536690065
 31
0.0
  0
LINE
  5
2066
330
18
100
AcDbEntity
  8
1
  6
Continuous
100
AcDbLine
 10
171.8794757323142
 20
134.0089663302511
 30
0.0
 11
170.6794758660522
 21
134.0089663302511
 31
0.0
  0
LINE
  5
2069
330
18
100
AcDbEntity
  8
1
  6
Continuous
100
AcDbLine
 10
170.6794761013666
 20
135.7589657668504
 30
0.0
 11
170.5884833031637
 21
136.0089664252459
 31
0.0
  0
LINE
  5
206A
330
18
100
AcDbEntity
  8
2
  6
Continuous
 48
0.2
100
AcDbLine
 10
172.4209758748065
 20
133.4674661877587
 30
0.0
 11
170.6794758660523
 21
133.4674661877587
 31
0.0
  0
LINE
  5
206B
330
18
100
AcDbEntity
  8
1
  6
Continuous
100
AcDbLine
 10
170.5884833031637
 20
136.0089664252459
 30
0.0
 11
165.5704681819541
 21
136.0089664252459
 31
0.0
  0
LINE
  5
206C
330
18
100
AcDbEntity
  8
1
  6
Continuous
100
AcDbLine
 10
172.8794757798117
 20
133.0089662827536
 30
0.0
 11
171.8794757323142
 21
134.0089663302511
 31
0.0
  0
LINE
  5
206D
330
18
100
AcDbEntity
  8
4
  6
CENTER
 48
0.15
100
AcDbLine
 10
181.3794760410475
 20
116.9089651365749
 30
0.0
 11
146.3794746636215
 21
116.9089651365749
 31
0.0
  0
LINE
  5
206E
330
18
100
AcDbEntity
  8
1
  6
Continuous
100
AcDbLine
 10
171.8794757323142
 20
105.8089642278834
 30
0.0
 11
172.8794757798116
 21
104.808964180386
 31
0.0
  0
LINE
  5
206F
330
18
100
AcDbEntity
  8
1
  6
Continuous
100
AcDbLine
 10
172.8794757798117
 20
100.8089639903962
 30
0.0
 11
171.8794757323142
 21
99.80896394289885
 31
0.0
  0
LINE
  5
2070
330
18
100
AcDbEntity
  8
4
  6
CENTER
 48
0.15
100
AcDbLine
 10
175.8794757798116
 20
102.8089640853911
 30
0.0
 11
146.3794746636215
 21
102.8089640853911
 31
0.0
  0
LINE
  5
2071
330
18
100
AcDbEntity
  8
2
  6
Continuous
 48
0.2
100
AcDbLine
 10
172.4209758748065
 20
100.3504640853911
 30
0.0
 11
170.6794758660523
 21
100.3504640853911
 31
0.0
  0
LINE
  5
2072
330
18
100
AcDbEntity
  8
2
  6
Continuous
 48
0.2
100
AcDbLine
 10
172.4209758748065
 20
105.2674640853912
 30
0.0
 11
170.6794758660523
 21
105.2674640853912
 31
0.0
  0
LINE
  5
2073
330
18
100
AcDbEntity
  8
1
  6
Continuous
100
AcDbLine
 10
170.6794761013666
 20
107.5589636644828
 30
0.0
 11
170.6794761013666
 21
98.05896450629948
 31
0.0
  0
LINE
  5
2074
330
18
100
AcDbEntity
  8
1
  6
Continuous
100
AcDbLine
 10
164.8794757813018
 20
108.3089643466271
 30
0.0
 11
164.8794757813018
 21
97.30896382415521
 31
0.0
  0
LINE
  5
2075
330
18
100
AcDbEntity
  8
1
  6
Continuous
100
AcDbLine
 10
165.4794758098003
 20
97.30896382415521
 30
0.0
 11
165.4794758098006
 21
108.3089643466271
 31
0.0
  0
ARC
  5
2076
330
18
100
AcDbEntity
  8
1
  6
Continuous
100
AcDbCircle
 10
159.3476936115633
 20
100.3089639666477
 30
0.0
 40
11.24078869192407
100
AcDbArc
 50
347.1497095614944
 51
12.85029043850562
  0
ARC
  5
2077
330
18
100
AcDbEntity
  8
1
  6
Continuous
100
AcDbCircle
 10
176.8112578735546
 20
100.3089639666477
 30
0.0
 40
11.24078869192407
100
AcDbArc
 50
167.1497095614943
 51
192.8502904385055
  0
LINE
  5
2078
330
18
100
AcDbEntity
  8
1
  6
Continuous
100
AcDbLine
 10
170.6794758660522
 20
105.8089642278835
 30
0.0
 11
171.8794757323142
 21
105.8089642278834
 31
0.0
  0
LINE
  5
2079
330
18
100
AcDbEntity
  8
1
  6
Continuous
100
AcDbLine
 10
171.8794757323142
 20
99.80896394289885
 30
0.0
 11
170.6794758660522
 21
99.80896394289885
 31
0.0
  0
LINE
  5
207A
330
18
100
AcDbEntity
  8
1
  6
Continuous
100
AcDbLine
 10
165.4794758098003
 20
100.7042051074122
 30
0.0
 11
164.8794757813018
 21
100.7042051074122
 31
0.0
  0
LINE
  5
207B
330
18
100
AcDbEntity
  8
1
  6
Continuous
100
AcDbLine
 10
165.4794758098003
 20
100.8568842547253
 30
0.0
 11
164.8794757813018
 21
100.8568842547253
 31
0.0
  0
LINE
  5
207C
330
18
100
AcDbEntity
  8
2
  6
Continuous
 48
0.2
100
AcDbLine
 10
164.8794757813018
 20
100.3504640853911
 30
0.0
 11
162.8794753048372
 21
100.3504640853911
 31
0.0
  0
LINE
  5
207D
330
18
100
AcDbEntity
  8
1
  6
Continuous
100
AcDbLine
 10
164.8794757813018
 20
99.80896394289885
 30
0.0
 11
162.8794753048372
 21
99.80896394289885
 31
0.0
  0
ARC
  5
207E
330
18
100
AcDbEntity
  8
1
  6
Continuous
100
AcDbCircle
 10
159.3476936115633
 20
105.3089642041348
 30
0.0
 40
11.24078869192407
100
AcDbArc
 50
347.1497095614944
 51
12.85029043850562
  0
ARC
  5
207F
330
18
100
AcDbEntity
  8
1
  6
Continuous
100
AcDbCircle
 10
176.8112578735546
 20
105.3089642041348
 30
0.0
 40
11.24078869192407
100
AcDbArc
 50
167.1497095614943
 51
192.8502904385055
  0
LINE
  5
2080
330
18
100
AcDbEntity
  8
1
  6
Continuous
100
AcDbLine
 10
170.3069513338166
 20
102.8089640853913
 30
0.0
 11
165.8520001513011
 21
102.8089640853913
 31
0.0
  0
LINE
  5
2081
330
18
100
AcDbEntity
  8
1
  6
Continuous
100
AcDbLine
 10
165.4794758098003
 20
102.8089640853911
 30
0.0
 11
164.8794757813018
 21
102.8089640853911
 31
0.0
  0
LINE
  5
2082
330
18
100
AcDbEntity
  8
1
  6
Continuous
100
AcDbLine
 10
170.5884833031637
 20
107.8089643228783
 30
0.0
 11
165.5704681819542
 21
107.8089643228783
 31
0.0
  0
LINE
  5
2083
330
18
100
AcDbEntity
  8
1
  6
Continuous
100
AcDbLine
 10
170.5884833031637
 20
107.8089643228783
 30
0.0
 11
170.6794761013666
 21
107.5589636644828
 31
0.0
  0
LINE
  5
2084
330
18
100
AcDbEntity
  8
1
  6
Continuous
100
AcDbLine
 10
165.4794758098003
 20
106.8124542468807
 30
0.0
 11
164.8794757813018
 21
106.8124542468807
 31
0.0
  0
LINE
  5
2085
330
18
100
AcDbEntity
  8
1
  6
Continuous
100
AcDbLine
 10
165.4794758098003
 20
106.6980515666388
 30
0.0
 11
164.8794757813018
 21
106.6980515666388
 31
0.0
  0
LINE
  5
2086
330
18
100
AcDbEntity
  8
1
  6
Continuous
100
AcDbLine
 10
165.4794758098003
 20
105.0645248575718
 30
0.0
 11
164.8794757813018
 21
105.0645248575718
 31
0.0
  0
LINE
  5
2087
330
18
100
AcDbEntity
  8
1
  6
Continuous
100
AcDbLine
 10
165.4794758098003
 20
104.9137230633701
 30
0.0
 11
164.8794757813018
 21
104.9137230633701
 31
0.0
  0
LINE
  5
2088
330
18
100
AcDbEntity
  8
1
  6
Continuous
100
AcDbLine
 10
165.4794758098003
 20
102.9732067874075
 30
0.0
 11
164.8794757813018
 21
102.9732067874075
 31
0.0
  0
LINE
  5
2089
330
18
100
AcDbEntity
  8
1
  6
Continuous
100
AcDbLine
 10
165.4794758098006
 20
108.3089643466271
 30
0.0
 11
164.8794757813018
 21
108.3089643466271
 31
0.0
  0
LINE
  5
208A
330
18
100
AcDbEntity
  8
1
  6
Continuous
100
AcDbLine
 10
165.4794758098003
 20
107.9508885508324
 30
0.0
 11
164.8794757813018
 21
107.9508885508324
 31
0.0
  0
LINE
  5
208B
330
18
100
AcDbEntity
  8
1
  6
Continuous
100
AcDbLine
 10
165.4794758098003
 20
107.558964835043
 30
0.0
 11
165.5704681819542
 21
107.8089643228783
 31
0.0
  0
LINE
  5
208C
330
18
100
AcDbEntity
  8
2
  6
Continuous
 48
0.2
100
AcDbLine
 10
164.8794757813018
 20
105.2674640853911
 30
0.0
 11
162.8794753048372
 21
105.2674640853911
 31
0.0
  0
LINE
  5
208D
330
18
100
AcDbEntity
  8
1
  6
Continuous
100
AcDbLine
 10
162.8794753048372
 20
105.8089642278835
 30
0.0
 11
164.8794757813018
 21
105.8089642278835
 31
0.0
  0
LINE
  5
208E
330
18
100
AcDbEntity
  8
1
  6
Continuous
100
AcDbLine
 10
171.8794757323142
 20
105.8089642278834
 30
0.0
 11
171.8794757323142
 21
99.80896394289889
 31
0.0
  0
LINE
  5
208F
330
18
100
AcDbEntity
  8
1
  6
Continuous
100
AcDbLine
 10
170.5884833031637
 20
97.80896384790406
 30
0.0
 11
165.5704681819541
 21
97.80896384790406
 31
0.0
  0
LINE
  5
2090
330
18
100
AcDbEntity
  8
1
  6
Continuous
100
AcDbLine
 10
170.6794761013666
 20
98.05896450629948
 30
0.0
 11
170.5884833031637
 21
97.80896384790406
 31
0.0
  0
LINE
  5
2091
330
18
100
AcDbEntity
  8
1
  6
Continuous
100
AcDbLine
 10
165.4794758098003
 20
98.91987660414343
 30
0.0
 11
164.8794757813018
 21
98.91987660414343
 31
0.0
  0
LINE
  5
2092
330
18
100
AcDbEntity
  8
1
  6
Continuous
100
AcDbLine
 10
165.4794758098003
 20
99.03774818061295
 30
0.0
 11
164.8794757813018
 21
99.03774818061295
 31
0.0
  0
LINE
  5
2093
330
18
100
AcDbEntity
  8
1
  6
Continuous
100
AcDbLine
 10
165.5704681819541
 20
97.80896384790406
 30
0.0
 11
165.4794758098003
 21
98.05896333573926
 31
0.0
  0
LINE
  5
2094
330
18
100
AcDbEntity
  8
1
  6
Continuous
100
AcDbLine
 10
165.4794758098003
 20
97.30896382415521
 30
0.0
 11
164.8794757813018
 21
97.30896382415521
 31
0.0
  0
LINE
  5
2095
330
18
100
AcDbEntity
  8
1
  6
Continuous
100
AcDbLine
 10
165.4794758098003
 20
97.31141670420106
 30
0.0
 11
164.8794757813018
 21
97.31141670420106
 31
0.0
  0
LINE
  5
2096
330
18
100
AcDbEntity
  8
1
  6
Continuous
100
AcDbLine
 10
165.4794758098003
 20
97.72762641522868
 30
0.0
 11
164.8794757813018
 21
97.72762641522868
 31
0.0
  0
LINE
  5
2097
330
18
100
AcDbEntity
  8
1
  6
Continuous
100
AcDbLine
 10
172.8794757798116
 20
104.808964180386
 30
0.0
 11
172.8794757798117
 21
100.8089639903962
 31
0.0
  0
ARC
  5
2099
330
18
100
AcDbEntity
  8
1
  6
Continuous
100
AcDbCircle
 10
176.3112578498059
 20
114.4089650178315
 30
0.0
 40
11.24078869192407
100
AcDbArc
 50
167.1497095614943
 51
192.8502904385055
  0
ARC
  5
209A
330
18
100
AcDbEntity
  8
1
  6
Continuous
100
AcDbCircle
 10
158.8476935878145
 20
114.4089650178315
 30
0.0
 40
11.24078869192407
100
AcDbArc
 50
347.1497095614944
 51
12.85029043850562
  0
LINE
  5
209B
330
18
100
AcDbEntity
  8
1
  6
Continuous
100
AcDbLine
 10
164.9794757860515
 20
111.408964875339
 30
0.0
 11
164.9794757860519
 21
122.4089653978109
 31
0.0
  0
LINE
  5
209C
330
18
100
AcDbEntity
  8
1
  6
Continuous
100
AcDbLine
 10
164.379475757553
 20
122.4089653978109
 30
0.0
 11
164.3794757575531
 21
111.408964875339
 31
0.0
  0
LINE
  5
209D
330
18
100
AcDbEntity
  8
1
  6
Continuous
100
AcDbLine
 10
170.1794760776179
 20
121.6589647156666
 30
0.0
 11
170.1794760776179
 21
112.1589655574832
 31
0.0
  0
LINE
  5
209E
330
18
100
AcDbEntity
  8
1
  6
Continuous
100
AcDbLine
 10
164.9794757860516
 20
111.8276274664124
 30
0.0
 11
164.3794757575531
 21
111.8276274664124
 31
0.0
  0
LINE
  5
209F
330
18
100
AcDbEntity
  8
1
  6
Continuous
100
AcDbLine
 10
164.9794757860516
 20
111.4114177553848
 30
0.0
 11
164.3794757575531
 21
111.4114177553848
 31
0.0
  0
LINE
  5
20A0
330
18
100
AcDbEntity
  8
1
  6
Continuous
100
AcDbLine
 10
164.9794757860515
 20
111.408964875339
 30
0.0
 11
164.3794757575531
 21
111.408964875339
 31
0.0
  0
LINE
  5
20A1
330
18
100
AcDbEntity
  8
1
  6
Continuous
100
AcDbLine
 10
165.0704681582053
 20
111.9089648990878
 30
0.0
 11
164.9794757860516
 21
112.158964386923
 31
0.0
  0
LINE
  5
20A2
330
18
100
AcDbEntity
  8
1
  6
Continuous
100
AcDbLine
 10
164.9794757860516
 20
113.1377492317967
 30
0.0
 11
164.3794757575531
 21
113.1377492317967
 31
0.0
  0
LINE
  5
20A3
330
18
100
AcDbEntity
  8
1
  6
Continuous
100
AcDbLine
 10
164.9794757860516
 20
113.0198776553272
 30
0.0
 11
164.3794757575531
 21
113.0198776553272
 31
0.0
  0
LINE
  5
20A4
330
18
100
AcDbEntity
  8
1
  6
Continuous
100
AcDbLine
 10
170.1794760776179
 20
112.1589655574832
 30
0.0
 11
170.0884832794149
 21
111.9089648990878
 31
0.0
  0
LINE
  5
20A5
330
18
100
AcDbEntity
  8
1
  6
Continuous
100
AcDbLine
 10
170.0884832794149
 20
111.9089648990878
 30
0.0
 11
165.0704681582053
 21
111.9089648990878
 31
0.0
  0
LINE
  5
20A6
330
18
100
AcDbEntity
  8
1
  6
Continuous
100
AcDbLine
 10
164.9794757860516
 20
114.9568853059091
 30
0.0
 11
164.3794757575531
 21
114.9568853059091
 31
0.0
  0
LINE
  5
20A7
330
18
100
AcDbEntity
  8
1
  6
Continuous
100
AcDbLine
 10
164.9794757860516
 20
114.804206158596
 30
0.0
 11
164.3794757575531
 21
114.804206158596
 31
0.0
  0
LINE
  5
20A8
330
18
100
AcDbEntity
  8
1
  6
Continuous
100
AcDbLine
 10
164.9794757860516
 20
121.6589658862267
 30
0.0
 11
165.0704681582054
 21
121.9089653740621
 31
0.0
  0
LINE
  5
20A9
330
18
100
AcDbEntity
  8
1
  6
Continuous
100
AcDbLine
 10
164.9794757860516
 20
122.0508896020162
 30
0.0
 11
164.3794757575531
 21
122.0508896020162
 31
0.0
  0
LINE
  5
20AA
330
18
100
AcDbEntity
  8
1
  6
Continuous
100
AcDbLine
 10
164.9794757860519
 20
122.4089653978109
 30
0.0
 11
164.379475757553
 21
122.4089653978109
 31
0.0
  0
LINE
  5
20AB
330
18
100
AcDbEntity
  8
1
  6
Continuous
100
AcDbLine
 10
164.9794757860516
 20
117.0732078385913
 30
0.0
 11
164.3794757575531
 21
117.0732078385913
 31
0.0
  0
LINE
  5
20AC
330
18
100
AcDbEntity
  8
1
  6
Continuous
100
AcDbLine
 10
164.9794757860516
 20
119.0137241145538
 30
0.0
 11
164.3794757575531
 21
119.0137241145538
 31
0.0
  0
LINE
  5
20AD
330
18
100
AcDbEntity
  8
1
  6
Continuous
100
AcDbLine
 10
164.9794757860516
 20
119.1645259087555
 30
0.0
 11
164.3794757575531
 21
119.1645259087555
 31
0.0
  0
LINE
  5
20AE
330
18
100
AcDbEntity
  8
1
  6
Continuous
100
AcDbLine
 10
164.9794757860516
 20
120.7980526178227
 30
0.0
 11
164.3794757575531
 21
120.7980526178227
 31
0.0
  0
LINE
  5
20AF
330
18
100
AcDbEntity
  8
1
  6
Continuous
100
AcDbLine
 10
164.9794757860516
 20
120.9124552980645
 30
0.0
 11
164.3794757575531
 21
120.9124552980645
 31
0.0
  0
LINE
  5
20B0
330
18
100
AcDbEntity
  8
1
  6
Continuous
100
AcDbLine
 10
170.0884832794149
 20
121.9089653740621
 30
0.0
 11
170.1794760776179
 21
121.6589647156666
 31
0.0
  0
LINE
  5
20B1
330
18
100
AcDbEntity
  8
1
  6
Continuous
100
AcDbLine
 10
170.0884832794149
 20
121.9089653740621
 30
0.0
 11
165.0704681582054
 21
121.9089653740621
 31
0.0
  0
LINE
  5
20B2
330
18
100
AcDbEntity
  8
1
  6
Continuous
100
AcDbLine
 10
164.9794757860516
 20
116.9089651365749
 30
0.0
 11
164.3794757575531
 21
116.9089651365749
 31
0.0
  0
LINE
  5
20B3
330
18
100
AcDbEntity
  8
1
  6
Continuous
100
AcDbLine
 10
169.8069513100679
 20
116.908965136575
 30
0.0
 11
165.3520001275524
 21
116.908965136575
 31
0.0
  0
ARC
  5
20B4
330
18
100
AcDbEntity
  8
1
  6
Continuous
100
AcDbCircle
 10
176.3112578498059
 20
119.4089652553186
 30
0.0
 40
11.24078869192407
100
AcDbArc
 50
167.1497095614943
 51
192.8502904385055
  0
ARC
  5
20B5
330
18
100
AcDbEntity
  8
1
  6
Continuous
100
AcDbCircle
 10
158.8476935878145
 20
119.4089652553186
 30
0.0
 40
11.24078869192407
100
AcDbArc
 50
347.1497095614944
 51
12.85029043850562
  0
LINE
  5
20B6
330
18
100
AcDbEntity
  8
4
  6
CENTER
 48
0.15
100
AcDbLine
 10
217.1881409569335
 20
140.0089664727434
 30
0.0
 11
217.1881409569335
 21
93.80896380040647
 31
0.0
  0
LINE
  5
20BC
330
18
100
AcDbEntity
  8
4
  6
CENTER
 48
0.15
100
AcDbLine
 10
208.1881406719487
 20
116.9089651365749
 30
0.0
 11
259.188142809334
 21
116.9089651365749
 31
0.0
  0
LINE
  5
20BD
330
18
100
AcDbEntity
  8
1
  6
Continuous
100
AcDbLine
 10
211.1881406719487
 20
123.4089654453084
 30
0.0
 11
256.188142809334
 21
123.4089654453084
 31
0.0
  0
LINE
  5
20BE
330
18
100
AcDbEntity
  8
1
  6
Continuous
100
AcDbLine
 10
211.1881406719487
 20
110.4089648278415
 30
0.0
 11
256.188142809334
 21
110.4089648278415
 31
0.0
  0
LINE
  5
20BF
330
18
100
AcDbEntity
  8
4
  6
CENTER
 48
0.15
100
AcDbLine
 10
247.1881423818571
 20
126.4089654453084
 30
0.0
 11
247.1881423818571
 21
107.4089648278415
 31
0.0
  0
LINE
  5
20C0
330
18
100
AcDbEntity
  8
1
  6
Continuous
100
AcDbLine
 10
256.188142809334
 20
110.4089648278415
 30
0.0
 11
256.188142809334
 21
123.4089654453084
 31
0.0
  0
LINE
  5
20C2
330
18
100
AcDbEntity
  8
1
  6
Continuous
100
AcDbLine
 10
211.6881406956975
 20
123.4089658267781
 30
0.0
 11
211.6881406956975
 21
125.008965902774
 31
0.0
  0
LINE
  5
20C3
330
18
100
AcDbEntity
  8
1
  6
Continuous
100
AcDbLine
 10
222.6881412181694
 20
125.008965902774
 30
0.0
 11
222.6881412181694
 21
123.4089658267781
 31
0.0
  0
LINE
  5
20C5
330
18
100
AcDbEntity
  8
1
  6
Continuous
100
AcDbLine
 10
214.1881408144411
 20
110.4089648278415
 30
0.0
 11
214.1881408144411
 21
123.4089654453084
 31
0.0
  0
LINE
  5
20C6
330
18
100
AcDbEntity
  8
1
  6
Continuous
100
AcDbLine
 10
211.1881406719487
 20
110.4089648278415
 30
0.0
 11
211.1881406719487
 21
123.4089654453084
 31
0.0
  0
LINE
  5
20CA
330
18
100
AcDbEntity
  8
4
  6
CENTER
 48
0.15
100
AcDbLine
 10
208.1881406719487
 20
131.0089661877587
 30
0.0
 11
226.1881412419181
 21
131.0089661877587
 31
0.0
  0
LINE
  5
20CB
330
18
100
AcDbEntity
  8
1
  6
Continuous
100
AcDbLine
 10
223.1881412419181
 20
137.0089664727434
 30
0.0
 11
223.1881412419181
 21
125.0089659027741
 31
0.0
  0
LINE
  5
20CC
330
18
100
AcDbEntity
  8
1
  6
Continuous
100
AcDbLine
 10
211.1881406719487
 20
137.0089664727434
 30
0.0
 11
211.1881406719487
 21
125.008965902774
 31
0.0
  0
LINE
  5
20CF
330
18
100
AcDbEntity
  8
1
  6
Continuous
100
AcDbLine
 10
223.1881412419181
 20
125.0089659027741
 30
0.0
 11
211.1881406719487
 21
125.008965902774
 31
0.0
  0
LINE
  5
20D0
330
18
100
AcDbEntity
  8
1
  6
Continuous
100
AcDbLine
 10
223.1881412419181
 20
137.0089664727434
 30
0.0
 11
211.1881406719487
 21
137.0089664727434
 31
0.0
  0
LINE
  5
20D1
330
18
100
AcDbEntity
  8
1
  6
Continuous
100
AcDbLine
 10
214.3013902565254
 20
136.0089664252459
 30
0.0
 11
220.074893222648
 21
136.0089664252459
 31
0.0
  0
LINE
  5
20D2
330
18
100
AcDbEntity
  8
1
  6
Continuous
100
AcDbLine
 10
214.3013902565254
 20
126.0089659502714
 30
0.0
 11
220.074893222648
 21
126.0089659502714
 31
0.0
  0
CIRCLE
  5
20D3
330
18
100
AcDbEntity
  8
1
  6
Continuous
100
AcDbCircle
 10
217.1881417395867
 20
131.0089661877586
 30
0.0
 40
3.0
  0
CIRCLE
  5
20D4
330
18
100
AcDbEntity
  8
1
  6
Continuous
100
AcDbCircle
 10
217.1881417395867
 20
131.0089661877586
 30
0.0
 40
4.75
  0
LINE
  5
20D5
330
18
100
AcDbEntity
  8
1
  6
Continuous
100
AcDbLine
 10
220.0748932226479
 20
126.0089659502715
 30
0.0
 11
222.9616447057094
 21
131.0089661877586
 31
0.0
  0
LINE
  5
20D6
330
18
100
AcDbEntity
  8
1
  6
Continuous
100
AcDbLine
 10
221.1916311184232
 20
127.2377502829804
 30
0.0
 11
220.9093758936357
 21
127.454332334458
 31
0.0
  0
ARC
  5
20D7
330
18
100
AcDbEntity
  8
1
  6
Continuous
100
AcDbCircle
 10
217.1881409569337
 20
131.0089661877586
 30
0.0
 40
5.500000261235891
100
AcDbArc
 50
339.2112386164197
 51
354.4712077140109
  0
LINE
  5
20D8
330
18
100
AcDbEntity
  8
1
  6
Continuous
100
AcDbLine
 10
221.8474000727335
 20
129.0790378713835
 30
0.0
 11
222.2694786270961
 21
128.9042072097796
 31
0.0
  0
LINE
  5
20D9
330
18
100
AcDbEntity
  8
1
  6
Continuous
100
AcDbLine
 10
222.3300654223749
 20
129.0568863570928
 30
0.0
 11
221.9009892109136
 21
129.1718569814453
 31
0.0
  0
ARC
  5
20DA
330
18
100
AcDbEntity
  8
1
  6
Continuous
100
AcDbCircle
 10
217.1881409569336
 20
131.0089661877586
 30
0.0
 40
5.500000261235925
100
AcDbArc
 50
316.7112386164081
 51
337.4999999999963
  0
LINE
  5
20DB
330
18
100
AcDbEntity
  8
1
  6
Continuous
100
AcDbLine
 10
220.8483956648127
 20
127.3487114798795
 30
0.0
 11
221.0772284381813
 21
127.1198787065108
 31
0.0
  0
ARC
  5
20DC
330
18
100
AcDbEntity
  8
1
  6
Continuous
100
AcDbCircle
 10
217.1881409569336
 20
131.0089661877586
 30
0.0
 40
5.500000261236003
100
AcDbArc
 50
305.5879885924452
 51
315.0
  0
ARC
  5
20DD
330
18
100
AcDbEntity
  8
1
  6
Continuous
100
AcDbCircle
 10
217.1881409569336
 20
131.0089661877586
 30
0.0
 40
5.500000261236003
100
AcDbArc
 50
24.21123861641257
 51
45.0
  0
LINE
  5
20DE
330
18
100
AcDbEntity
  8
1
  6
Continuous
100
AcDbLine
 10
221.8474000727336
 20
132.9388945041338
 30
0.0
 11
222.2694786270961
 21
133.1137251657376
 31
0.0
  0
LINE
  5
20DF
330
18
100
AcDbEntity
  8
1
  6
Continuous
100
AcDbLine
 10
222.2043595004777
 20
133.2645269599393
 30
0.0
 11
221.7956369401576
 21
133.0285508797145
 31
0.0
  0
LINE
  5
20E0
330
18
100
AcDbEntity
  8
1
  6
Continuous
100
AcDbLine
 10
220.8483956648128
 20
134.6692208956378
 30
0.0
 11
221.0772284381813
 21
134.8980536690063
 31
0.0
  0
LINE
  5
20E1
330
18
100
AcDbEntity
  8
1
  6
Continuous
100
AcDbLine
 10
220.9593568617118
 20
135.0124563492482
 30
0.0
 11
220.782955818616
 21
134.7825660340902
 31
0.0
  0
ARC
  5
20E2
330
18
100
AcDbEntity
  8
1
  6
Continuous
100
AcDbCircle
 10
217.1881409569336
 20
131.0089661877587
 30
0.0
 40
5.500000261235925
100
AcDbArc
 50
46.71123861640809
 51
54.51851395855108
  0
LINE
  5
20E3
330
18
100
AcDbEntity
  8
1
  6
Continuous
100
AcDbLine
 10
220.074893222648
 20
136.0089664252459
 30
0.0
 11
222.9616447057096
 21
131.0089661877587
 31
0.0
  0
ARC
  5
20E4
330
18
100
AcDbEntity
  8
1
  6
Continuous
100
AcDbCircle
 10
217.1881409569337
 20
131.0089661877587
 30
0.0
 40
5.500000261235849
100
AcDbArc
 50
5.604558321489223
 51
22.50000000000423
  0
CIRCLE
  5
20E5
330
18
100
AcDbEntity
  8
2
  6
Continuous
100
AcDbCircle
 10
217.1881409569337
 20
131.0089661203613
 30
0.0
 40
2.458499999999999
  0
LINE
  5
20E6
330
18
100
AcDbEntity
  8
1
  6
Continuous
100
AcDbLine
 10
213.5278872414187
 20
127.3487124722438
 30
0.0
 11
213.2990534756859
 21
127.1198787065108
 31
0.0
  0
LINE
  5
20E7
330
18
100
AcDbEntity
  8
1
  6
Continuous
100
AcDbLine
 10
213.4169250521554
 20
127.005476026269
 30
0.0
 11
213.5933269884779
 21
127.2353675055028
 31
0.0
  0
LINE
  5
20E8
330
18
100
AcDbEntity
  8
1
  6
Continuous
100
AcDbLine
 10
212.5288831043469
 20
129.0790383946235
 30
0.0
 11
212.106803286771
 21
128.9042072097796
 31
0.0
  0
LINE
  5
20E9
330
18
100
AcDbEntity
  8
1
  6
Continuous
100
AcDbLine
 10
212.1719224133895
 20
128.7534054155779
 30
0.0
 11
212.5806461476893
 21
128.9893821736001
 31
0.0
  0
ARC
  5
20EA
330
18
100
AcDbEntity
  8
1
  6
Continuous
100
AcDbCircle
 10
217.1881409569336
 20
131.0089661877586
 30
0.0
 40
5.500000261236003
100
AcDbArc
 50
204.2112386164125
 51
225.0
  0
LINE
  5
20EB
330
18
100
AcDbEntity
  8
1
  6
Continuous
100
AcDbLine
 10
219.4437017291142
 20
125.9927476442145
 30
0.0
 11
219.4343380857465
 21
126.0089659502714
 31
0.0
  0
LINE
  5
20EC
330
18
100
AcDbEntity
  8
1
  6
Continuous
100
AcDbLine
 10
219.2592088671699
 20
126.0089659502714
 30
0.0
 11
219.2928999349125
 21
125.9276285175961
 31
0.0
  0
ARC
  5
20ED
330
18
100
AcDbEntity
  8
1
  6
Continuous
100
AcDbCircle
 10
217.1881409569336
 20
131.0089661877586
 30
0.0
 40
5.500000261236003
100
AcDbArc
 50
294.2112386164125
 51
294.575323453986
  0
LINE
  5
20EE
330
18
100
AcDbEntity
  8
1
  6
Continuous
100
AcDbLine
 10
215.1170730466973
 20
126.0089659502714
 30
0.0
 11
215.0833819789546
 21
125.9276285175961
 31
0.0
  0
LINE
  5
20EF
330
18
100
AcDbEntity
  8
1
  6
Continuous
100
AcDbLine
 10
215.2360611262678
 20
125.8670417223173
 30
0.0
 11
215.2740896085344
 21
126.0089659502714
 31
0.0
  0
ARC
  5
20F0
330
18
100
AcDbEntity
  8
1
  6
Continuous
100
AcDbCircle
 10
217.1881409569335
 20
131.0089661877586
 30
0.0
 40
5.500000261235925
100
AcDbArc
 50
245.5597312822482
 51
247.4999999999963
  0
ARC
  5
20F1
330
18
100
AcDbEntity
  8
1
  6
Continuous
100
AcDbCircle
 10
217.1881409569335
 20
131.0089661877586
 30
0.0
 40
5.500000261235925
100
AcDbArc
 50
226.711238616408
 51
234.518545000424
  0
ARC
  5
20F2
330
18
100
AcDbEntity
  8
1
  6
Continuous
100
AcDbCircle
 10
217.1881409569335
 20
131.0089661877587
 30
0.0
 40
5.500000261235925
100
AcDbArc
 50
136.711238616408
 51
157.4999999999963
  0
LINE
  5
20F3
330
18
100
AcDbEntity
  8
1
  6
Continuous
100
AcDbLine
 10
212.5288831043471
 20
132.9388939808936
 30
0.0
 11
212.106803286771
 21
133.1137251657376
 31
0.0
  0
LINE
  5
20F4
330
18
100
AcDbEntity
  8
1
  6
Continuous
100
AcDbLine
 10
212.0462164914923
 20
132.9610460184244
 30
0.0
 11
212.4752940585485
 21
132.8460750308414
 31
0.0
  0
LINE
  5
20F5
330
18
100
AcDbEntity
  8
1
  6
Continuous
100
AcDbLine
 10
213.5278872414188
 20
134.6692199032733
 30
0.0
 11
213.2990534756859
 21
134.8980536690063
 31
0.0
  0
LINE
  5
20F6
330
18
100
AcDbEntity
  8
1
  6
Continuous
100
AcDbLine
 10
213.184650795444
 20
134.7801820925368
 30
0.0
 11
213.4669071049774
 21
134.5635992087043
 31
0.0
  0
LINE
  5
20F7
330
18
100
AcDbEntity
  8
1
  6
Continuous
100
AcDbLine
 10
219.2592088671699
 20
136.0089664252459
 30
0.0
 11
219.2928999349125
 21
136.090303857921
 31
0.0
  0
LINE
  5
20F8
330
18
100
AcDbEntity
  8
1
  6
Continuous
100
AcDbLine
 10
219.1402207875994
 20
136.1508906531999
 30
0.0
 11
219.1021923053327
 21
136.0089664252459
 31
0.0
  0
ARC
  5
20F9
330
18
100
AcDbEntity
  8
1
  6
Continuous
100
AcDbCircle
 10
217.1881409569336
 20
131.0089661877587
 30
0.0
 40
5.500000261235925
100
AcDbArc
 50
65.55973128225033
 51
67.49999999999632
  0
LINE
  5
20FA
330
18
100
AcDbEntity
  8
1
  6
Continuous
100
AcDbLine
 10
215.1170730466973
 20
136.0089664252459
 30
0.0
 11
215.0833819789546
 21
136.090303857921
 31
0.0
  0
LINE
  5
20FB
330
18
100
AcDbEntity
  8
1
  6
Continuous
100
AcDbLine
 10
214.9325801847529
 20
136.0251847313027
 30
0.0
 11
214.9419438281206
 21
136.0089664252459
 31
0.0
  0
ARC
  5
20FC
330
18
100
AcDbEntity
  8
1
  6
Continuous
100
AcDbCircle
 10
217.1881409569336
 20
131.0089661877586
 30
0.0
 40
5.500000261236003
100
AcDbArc
 50
114.2112386164125
 51
114.575323453986
  0
ARC
  5
20FD
330
18
100
AcDbEntity
  8
1
  6
Continuous
100
AcDbCircle
 10
217.1881409569336
 20
131.0089661877586
 30
0.0
 40
5.500000261236003
100
AcDbArc
 50
125.5879556761728
 51
135.0
  0
ARC
  5
20FE
330
18
100
AcDbEntity
  8
1
  6
Continuous
100
AcDbCircle
 10
217.1881409569336
 20
131.0089661877588
 30
0.0
 40
5.500000261235891
100
AcDbArc
 50
69.21123861641977
 51
90.0
  0
LINE
  5
20FF
330
18
100
AcDbEntity
  8
1
  6
Continuous
100
AcDbLine
 10
217.0238982549172
 20
136.5065135689487
 30
0.0
 11
217.0894015790532
 21
136.0089664252459
 31
0.0
  0
LINE
  5
2100
330
18
100
AcDbEntity
  8
1
  6
Continuous
100
AcDbLine
 10
217.1881409569336
 20
136.0089664252459
 30
0.0
 11
217.1881409569336
 21
136.5089664489946
 31
0.0
  0
ARC
  5
2101
330
18
100
AcDbEntity
  8
1
  6
Continuous
100
AcDbCircle
 10
217.1881409569335
 20
131.0089661877588
 30
0.0
 40
5.500000261235849
100
AcDbArc
 50
91.71123861641426
 51
112.5000000000042
  0
ARC
  5
2102
330
18
100
AcDbEntity
  8
1
  6
Continuous
100
AcDbCircle
 10
217.1881409569334
 20
131.0089661877586
 30
0.0
 40
5.500000261235849
100
AcDbArc
 50
185.6045246759826
 51
202.5000000000042
  0
LINE
  5
2103
330
18
100
AcDbEntity
  8
1
  6
Continuous
100
AcDbLine
 10
217.35238365895
 20
125.5114188065685
 30
0.0
 11
217.2868803348139
 21
126.0089659502714
 31
0.0
  0
LINE
  5
2104
330
18
100
AcDbEntity
  8
1
  6
Continuous
100
AcDbLine
 10
217.1881409569336
 20
126.0089659502714
 30
0.0
 11
217.1881409569336
 21
125.5089659265226
 31
0.0
  0
ARC
  5
2105
330
18
100
AcDbEntity
  8
1
  6
Continuous
100
AcDbCircle
 10
217.1881409569336
 20
131.0089661877585
 30
0.0
 40
5.500000261235891
100
AcDbArc
 50
249.2112386164197
 51
270.0
  0
ARC
  5
2106
330
18
100
AcDbEntity
  8
1
  6
Continuous
100
AcDbCircle
 10
217.1881409569335
 20
131.0089661877586
 30
0.0
 40
5.500000261235891
100
AcDbArc
 50
159.2112386164197
 51
174.4712393943775
  0
LINE
  5
2107
330
18
100
AcDbEntity
  8
1
  6
Continuous
100
AcDbLine
 10
211.414638773464
 20
131.0089661877586
 30
0.0
 11
214.3013902565256
 21
136.0089664252458
 31
0.0
  0
LINE
  5
2108
330
18
100
AcDbEntity
  8
1
  6
Continuous
100
AcDbLine
 10
211.4146387734638
 20
131.0089661877586
 30
0.0
 11
214.3013902565254
 21
126.0089659502714
 31
0.0
  0
ARC
  5
2109
330
18
100
AcDbEntity
  8
1
  6
Continuous
100
AcDbCircle
 10
217.1881409569336
 20
131.0089661877585
 30
0.0
 40
5.500000261235849
100
AcDbArc
 50
271.7112386164142
 51
292.5000000000036
  0
LINE
  5
210A
330
18
100
AcDbEntity
  8
1
  6
Continuous
100
AcDbLine
 10
222.6881412181694
 20
108.8089643703758
 30
0.0
 11
222.6881412181694
 21
110.4089644463718
 31
0.0
  0
LINE
  5
210B
330
18
100
AcDbEntity
  8
1
  6
Continuous
100
AcDbLine
 10
211.6881406956975
 20
110.4089644463718
 30
0.0
 11
211.6881406956975
 21
108.8089643703758
 31
0.0
  0
LINE
  5
210C
330
18
100
AcDbEntity
  8
1
  6
Continuous
100
AcDbLine
 10
222.9616431404034
 20
102.808964085391
 30
0.0
 11
220.0748916573418
 21
97.80896384790381
 31
0.0
  0
LINE
  5
210D
330
18
100
AcDbEntity
  8
1
  6
Continuous
100
AcDbLine
 10
222.9616431404032
 20
102.808964085391
 30
0.0
 11
220.0748916573416
 21
107.8089643228782
 31
0.0
  0
ARC
  5
210E
330
18
100
AcDbEntity
  8
1
  6
Continuous
100
AcDbCircle
 10
217.1881409569335
 20
102.808964085391
 30
0.0
 40
5.500000261236003
100
AcDbArc
 50
45.0
 51
54.41204432382718
  0
ARC
  5
210F
330
18
100
AcDbEntity
  8
1
  6
Continuous
100
AcDbCircle
 10
217.1881409569336
 20
102.808964085391
 30
0.0
 40
5.500000261235925
100
AcDbArc
 50
305.4814549995758
 51
313.2887613835919
  0
CIRCLE
  5
2110
330
18
100
AcDbEntity
  8
1
  6
Continuous
100
AcDbCircle
 10
217.1881401742805
 20
102.808964085391
 30
0.0
 40
4.75
  0
LINE
  5
2111
330
18
100
AcDbEntity
  8
1
  6
Continuous
100
AcDbLine
 10
211.1881406719487
 20
96.80896380040648
 30
0.0
 11
211.1881406719487
 21
108.8089643703758
 31
0.0
  0
LINE
  5
2112
330
18
100
AcDbEntity
  8
1
  6
Continuous
100
AcDbLine
 10
223.1881412419181
 20
96.80896380040643
 30
0.0
 11
223.1881412419181
 21
108.8089643703758
 31
0.0
  0
CIRCLE
  5
2113
330
18
100
AcDbEntity
  8
2
  6
Continuous
100
AcDbCircle
 10
217.1881409569334
 20
102.8089640179936
 30
0.0
 40
2.458499999999999
  0
LINE
  5
2114
330
18
100
AcDbEntity
  8
1
  6
Continuous
100
AcDbLine
 10
214.3013886912191
 20
107.8089643228783
 30
0.0
 11
211.4146372081576
 21
102.8089640853911
 31
0.0
  0
CIRCLE
  5
2115
330
18
100
AcDbEntity
  8
1
  6
Continuous
100
AcDbCircle
 10
217.1881401742805
 20
102.808964085391
 30
0.0
 40
3.0
  0
LINE
  5
2116
330
18
100
AcDbEntity
  8
1
  6
Continuous
100
AcDbLine
 10
223.1881412419181
 20
108.8089643703758
 30
0.0
 11
211.1881406719487
 21
108.8089643703758
 31
0.0
  0
ARC
  5
2117
330
18
100
AcDbEntity
  8
1
  6
Continuous
100
AcDbCircle
 10
217.1881409569335
 20
102.8089640853909
 30
0.0
 40
5.500000261235849
100
AcDbArc
 50
247.4999999999963
 51
268.2887613835857
  0
ARC
  5
2118
330
18
100
AcDbEntity
  8
1
  6
Continuous
100
AcDbCircle
 10
217.1881409569336
 20
102.8089640853909
 30
0.0
 40
5.500000261235891
100
AcDbArc
 50
270.0
 51
290.7887613835801
  0
LINE
  5
2119
330
18
100
AcDbEntity
  8
1
  6
Continuous
100
AcDbLine
 10
217.1881409569336
 20
97.80896384790381
 30
0.0
 11
217.1881409569336
 21
97.30896382415508
 31
0.0
  0
LINE
  5
211A
330
18
100
AcDbEntity
  8
1
  6
Continuous
100
AcDbLine
 10
217.0238982549172
 20
97.311416704201
 30
0.0
 11
217.0894015790532
 21
97.80896384790381
 31
0.0
  0
ARC
  5
211B
330
18
100
AcDbEntity
  8
1
  6
Continuous
100
AcDbCircle
 10
217.1881409569336
 20
102.808964085391
 30
0.0
 40
5.500000261235925
100
AcDbArc
 50
292.5000000000036
 51
294.4402687177517
  0
LINE
  5
211C
330
18
100
AcDbEntity
  8
1
  6
Continuous
100
AcDbLine
 10
219.1402207875994
 20
97.66703961994981
 30
0.0
 11
219.1021923053327
 21
97.80896384790381
 31
0.0
  0
LINE
  5
211D
330
18
100
AcDbEntity
  8
1
  6
Continuous
100
AcDbLine
 10
219.2592088671698
 20
97.80896384790381
 30
0.0
 11
219.2928999349126
 21
97.72762641522858
 31
0.0
  0
ARC
  5
211E
330
18
100
AcDbEntity
  8
1
  6
Continuous
100
AcDbCircle
 10
217.1881409569336
 20
102.808964085391
 30
0.0
 40
5.500000261236003
100
AcDbArc
 50
245.4246765460139
 51
245.7887613835874
  0
LINE
  5
211F
330
18
100
AcDbEntity
  8
1
  6
Continuous
100
AcDbLine
 10
215.1170730466973
 20
97.80896384790381
 30
0.0
 11
215.0833819789546
 21
97.72762641522858
 31
0.0
  0
LINE
  5
2120
330
18
100
AcDbEntity
  8
1
  6
Continuous
100
AcDbLine
 10
214.9325801847529
 20
97.792745541847
 30
0.0
 11
214.9419438281206
 21
97.80896384790388
 31
0.0
  0
ARC
  5
2121
330
18
100
AcDbEntity
  8
1
  6
Continuous
100
AcDbCircle
 10
217.1881409569336
 20
102.808964085391
 30
0.0
 40
5.500000261236003
100
AcDbArc
 50
225.0
 51
234.4120114075547
  0
LINE
  5
2122
330
18
100
AcDbEntity
  8
1
  6
Continuous
100
AcDbLine
 10
213.5278862490545
 20
99.14870937751196
 30
0.0
 11
213.2990534756859
 21
98.91987660414329
 31
0.0
  0
ARC
  5
2123
330
18
100
AcDbEntity
  8
1
  6
Continuous
100
AcDbCircle
 10
217.1881409569335
 20
102.808964085391
 30
0.0
 40
5.500000261235925
100
AcDbArc
 50
202.5000000000036
 51
223.2887613835919
  0
LINE
  5
2124
330
18
100
AcDbEntity
  8
1
  6
Continuous
100
AcDbLine
 10
212.0462164914923
 20
100.8568842547252
 30
0.0
 11
212.4752927029536
 21
100.9718548790777
 31
0.0
  0
LINE
  5
2125
330
18
100
AcDbEntity
  8
1
  6
Continuous
100
AcDbLine
 10
212.5288818411337
 20
100.8790357690159
 30
0.0
 11
212.1068032867711
 21
100.704205107412
 31
0.0
  0
ARC
  5
2126
330
18
100
AcDbEntity
  8
1
  6
Continuous
100
AcDbCircle
 10
217.1881409569334
 20
102.808964085391
 30
0.0
 40
5.500000261235891
100
AcDbArc
 50
185.5287922859891
 51
200.7887613835802
  0
LINE
  5
2127
330
18
100
AcDbEntity
  8
1
  6
Continuous
100
AcDbLine
 10
213.184650795444
 20
99.03774818061293
 30
0.0
 11
213.4669060202316
 21
99.2543302320905
 31
0.0
  0
LINE
  5
2128
330
18
100
AcDbEntity
  8
1
  6
Continuous
100
AcDbLine
 10
214.3013886912193
 20
97.80896384790393
 30
0.0
 11
211.4146372081578
 21
102.808964085391
 31
0.0
  0
LINE
  5
2129
330
18
100
AcDbEntity
  8
1
  6
Continuous
100
AcDbLine
 10
220.0748916573418
 20
97.80896384790381
 30
0.0
 11
214.3013886912191
 21
97.80896384790381
 31
0.0
  0
ARC
  5
212A
330
18
100
AcDbEntity
  8
1
  6
Continuous
100
AcDbCircle
 10
217.1881409569336
 20
102.8089640853911
 30
0.0
 40
5.500000261235849
100
AcDbArc
 50
67.49999999999578
 51
88.28876138358577
  0
LINE
  5
212B
330
18
100
AcDbEntity
  8
1
  6
Continuous
100
AcDbLine
 10
217.1881409569336
 20
107.8089643228783
 30
0.0
 11
217.1881409569336
 21
108.308964346627
 31
0.0
  0
LINE
  5
212C
330
18
100
AcDbEntity
  8
1
  6
Continuous
100
AcDbLine
 10
217.35238365895
 20
108.3065114665811
 30
0.0
 11
217.2868803348139
 21
107.8089643228783
 31
0.0
  0
ARC
  5
212D
330
18
100
AcDbEntity
  8
1
  6
Continuous
100
AcDbCircle
 10
217.1881409569336
 20
102.8089640853911
 30
0.0
 40
5.500000261235891
100
AcDbArc
 50
90.0
 51
110.7887613835802
  0
ARC
  5
212E
330
18
100
AcDbEntity
  8
1
  6
Continuous
100
AcDbCircle
 10
217.1881409569335
 20
102.808964085391
 30
0.0
 40
5.500000261236003
100
AcDbArc
 50
65.42467654601392
 51
65.78876138358743
  0
LINE
  5
212F
330
18
100
AcDbEntity
  8
1
  6
Continuous
100
AcDbLine
 10
219.4437017291142
 20
107.8251826289351
 30
0.0
 11
219.4343380857466
 21
107.8089643228783
 31
0.0
  0
LINE
  5
2130
330
18
100
AcDbEntity
  8
1
  6
Continuous
100
AcDbLine
 10
219.2592088671699
 20
107.8089643228783
 30
0.0
 11
219.2928999349126
 21
107.8903017555535
 31
0.0
  0
ARC
  5
2131
330
18
100
AcDbEntity
  8
1
  6
Continuous
100
AcDbCircle
 10
217.1881409569335
 20
102.8089640853911
 30
0.0
 40
5.500000261235925
100
AcDbArc
 50
112.5000000000035
 51
114.4402687177496
  0
LINE
  5
2132
330
18
100
AcDbEntity
  8
1
  6
Continuous
100
AcDbLine
 10
215.2360611262678
 20
107.9508885508323
 30
0.0
 11
215.2740896085345
 21
107.8089643228783
 31
0.0
  0
LINE
  5
2133
330
18
100
AcDbEntity
  8
1
  6
Continuous
100
AcDbLine
 10
215.1170730466973
 20
107.8089643228783
 30
0.0
 11
215.0833819789546
 21
107.8903017555535
 31
0.0
  0
ARC
  5
2134
330
18
100
AcDbEntity
  8
1
  6
Continuous
100
AcDbCircle
 10
217.1881409569334
 20
102.8089640853911
 30
0.0
 40
5.500000261235849
100
AcDbArc
 50
157.4999999999957
 51
174.3954416785108
  0
ARC
  5
2135
330
18
100
AcDbEntity
  8
1
  6
Continuous
100
AcDbCircle
 10
217.1881409569335
 20
102.8089640853911
 30
0.0
 40
5.500000261235925
100
AcDbArc
 50
125.4814860414489
 51
133.2887613835919
  0
LINE
  5
2136
330
18
100
AcDbEntity
  8
1
  6
Continuous
100
AcDbLine
 10
213.4169250521555
 20
106.8124542468806
 30
0.0
 11
213.5933260952512
 21
106.5825639317226
 31
0.0
  0
LINE
  5
2137
330
18
100
AcDbEntity
  8
1
  6
Continuous
100
AcDbLine
 10
213.5278862490543
 20
106.4692187932702
 30
0.0
 11
213.2990534756859
 21
106.6980515666387
 31
0.0
  0
LINE
  5
2138
330
18
100
AcDbEntity
  8
1
  6
Continuous
100
AcDbLine
 10
212.1719224133895
 20
105.0645248575717
 30
0.0
 11
212.5806449737097
 21
104.828548777347
 31
0.0
  0
LINE
  5
2139
330
18
100
AcDbEntity
  8
1
  6
Continuous
100
AcDbLine
 10
212.5288818411335
 20
104.7388924017662
 30
0.0
 11
212.1068032867711
 21
104.91372306337
 31
0.0
  0
ARC
  5
213A
330
18
100
AcDbEntity
  8
1
  6
Continuous
100
AcDbCircle
 10
217.1881409569336
 20
102.808964085391
 30
0.0
 40
5.500000261236003
100
AcDbArc
 50
135.0
 51
155.7887613835873
  0
LINE
  5
213B
330
18
100
AcDbEntity
  8
1
  6
Continuous
100
AcDbLine
 10
220.0748916573418
 20
107.8089643228783
 30
0.0
 11
214.3013886912191
 21
107.8089643228783
 31
0.0
  0
LINE
  5
213C
330
18
100
AcDbEntity
  8
1
  6
Continuous
100
AcDbLine
 10
223.1881412419181
 20
96.80896380040643
 30
0.0
 11
211.1881406719487
 21
96.80896380040648
 31
0.0
  0
ARC
  5
213D
330
18
100
AcDbEntity
  8
1
  6
Continuous
100
AcDbCircle
 10
217.1881409569337
 20
102.808964085391
 30
0.0
 40
5.500000261235849
100
AcDbArc
 50
337.4999999999957
 51
354.3954753240174
  0
ARC
  5
213E
330
18
100
AcDbEntity
  8
1
  6
Continuous
100
AcDbCircle
 10
217.1881409569335
 20
102.808964085391
 30
0.0
 40
5.500000261236003
100
AcDbArc
 50
315.0
 51
335.7887613835874
  0
LINE
  5
213F
330
18
100
AcDbEntity
  8
1
  6
Continuous
100
AcDbLine
 10
222.2043595004777
 20
100.5534033132103
 30
0.0
 11
221.7956357661779
 21
100.7893800712325
 31
0.0
  0
LINE
  5
2140
330
18
100
AcDbEntity
  8
1
  6
Continuous
100
AcDbLine
 10
221.8473988095203
 20
100.8790362922559
 30
0.0
 11
222.2694786270961
 21
100.704205107412
 31
0.0
  0
LINE
  5
2141
330
18
100
AcDbEntity
  8
1
  6
Continuous
100
AcDbLine
 10
220.9593568617118
 20
98.80547392390148
 30
0.0
 11
220.7829549253893
 21
99.03536540313522
 31
0.0
  0
LINE
  5
2142
330
18
100
AcDbEntity
  8
1
  6
Continuous
100
AcDbLine
 10
220.8483946724484
 20
99.14871036987623
 30
0.0
 11
221.0772284381813
 21
98.91987660414329
 31
0.0
  0
ARC
  5
2143
330
18
100
AcDbEntity
  8
1
  6
Continuous
100
AcDbCircle
 10
217.1881409569336
 20
102.808964085391
 30
0.0
 40
5.500000261235891
100
AcDbArc
 50
5.528760605622409
 51
20.78876138358023
  0
LINE
  5
2144
330
18
100
AcDbEntity
  8
1
  6
Continuous
100
AcDbLine
 10
221.1916311184232
 20
106.5801799901692
 30
0.0
 11
220.9093748088897
 21
106.3635971063368
 31
0.0
  0
LINE
  5
2145
330
18
100
AcDbEntity
  8
1
  6
Continuous
100
AcDbLine
 10
220.8483946724483
 20
106.4692178009057
 30
0.0
 11
221.0772284381813
 21
106.6980515666387
 31
0.0
  0
LINE
  5
2146
330
18
100
AcDbEntity
  8
1
  6
Continuous
100
AcDbLine
 10
222.3300654223749
 20
104.7610439160568
 30
0.0
 11
221.9009878553186
 21
104.6460729284738
 31
0.0
  0
LINE
  5
2147
330
18
100
AcDbEntity
  8
1
  6
Continuous
100
AcDbLine
 10
221.8473988095201
 20
104.738891878526
 30
0.0
 11
222.2694786270961
 21
104.91372306337
 31
0.0
  0
ARC
  5
2148
330
18
100
AcDbEntity
  8
1
  6
Continuous
100
AcDbCircle
 10
217.1881409569336
 20
102.8089640853911
 30
0.0
 40
5.500000261235925
100
AcDbArc
 50
22.50000000000367
 51
43.2887613835919
  0
LINE
  5
2149
330
18
100
AcDbEntity
  8
4
  6
CENTER
 48
0.15
100
AcDbLine
 10
208.1881406719487
 20
102.8089640853911
 30
0.0
 11
226.1881412419181
 21
102.8089640853911
 31
0.0
  0
ARC
  5
214B
330
18
100
AcDbEntity
  8
1
  6
Continuous
100
AcDbCircle
 10
247.188141599204
 20
116.908965136575
 30
0.0
 40
5.500000261236003
100
AcDbArc
 50
125.5879556761728
 51
135.0
  0
ARC
  5
214C
330
18
100
AcDbEntity
  8
1
  6
Continuous
100
AcDbCircle
 10
247.1881415992039
 20
116.9089651365749
 30
0.0
 40
5.500000261235925
100
AcDbArc
 50
226.711238616408
 51
234.518545000424
  0
CIRCLE
  5
214D
330
18
100
AcDbEntity
  8
1
  6
Continuous
100
AcDbCircle
 10
247.188142381857
 20
116.908965136575
 30
0.0
 40
4.75
  0
ARC
  5
2150
330
18
100
AcDbEntity
  8
1
  6
Continuous
100
AcDbCircle
 10
247.188141599204
 20
116.9089651365748
 30
0.0
 40
5.500000261235849
100
AcDbArc
 50
271.7112386164142
 51
292.5000000000036
  0
ARC
  5
2151
330
18
100
AcDbEntity
  8
1
  6
Continuous
100
AcDbCircle
 10
247.1881415992039
 20
116.9089651365748
 30
0.0
 40
5.500000261235891
100
AcDbArc
 50
249.2112386164197
 51
270.0
  0
LINE
  5
2152
330
18
100
AcDbEntity
  8
1
  6
Continuous
100
AcDbLine
 10
247.1881415992039
 20
111.9089648990877
 30
0.0
 11
247.1881415992039
 21
111.408964875339
 31
0.0
  0
LINE
  5
2153
330
18
100
AcDbEntity
  8
1
  6
Continuous
100
AcDbLine
 10
247.3523843012203
 20
111.4114177553849
 30
0.0
 11
247.2868809770843
 21
111.9089648990877
 31
0.0
  0
ARC
  5
2154
330
18
100
AcDbEntity
  8
1
  6
Continuous
100
AcDbCircle
 10
247.1881415992039
 20
116.9089651365749
 30
0.0
 40
5.500000261235925
100
AcDbArc
 50
245.5597312822482
 51
247.4999999999963
  0
LINE
  5
2155
330
18
100
AcDbEntity
  8
1
  6
Continuous
100
AcDbLine
 10
245.2360617685381
 20
111.7670406711337
 30
0.0
 11
245.2740902508048
 21
111.9089648990877
 31
0.0
  0
LINE
  5
2156
330
18
100
AcDbEntity
  8
1
  6
Continuous
100
AcDbLine
 10
245.1170736889677
 20
111.9089648990877
 30
0.0
 11
245.0833826212249
 21
111.8276274664124
 31
0.0
  0
ARC
  5
2157
330
18
100
AcDbEntity
  8
1
  6
Continuous
100
AcDbCircle
 10
247.1881415992039
 20
116.908965136575
 30
0.0
 40
5.500000261236003
100
AcDbArc
 50
294.2112386164125
 51
294.575323453986
  0
LINE
  5
2158
330
18
100
AcDbEntity
  8
1
  6
Continuous
100
AcDbLine
 10
249.2592095094402
 20
111.9089648990877
 30
0.0
 11
249.2929005771829
 21
111.8276274664124
 31
0.0
  0
LINE
  5
2159
330
18
100
AcDbEntity
  8
1
  6
Continuous
100
AcDbLine
 10
249.4437023713846
 20
111.8927465930309
 30
0.0
 11
249.4343387280169
 21
111.9089648990877
 31
0.0
  0
ARC
  5
215A
330
18
100
AcDbEntity
  8
1
  6
Continuous
100
AcDbCircle
 10
247.1881415992039
 20
116.908965136575
 30
0.0
 40
5.500000261236003
100
AcDbArc
 50
305.5879885924452
 51
315.0
  0
LINE
  5
215B
330
18
100
AcDbEntity
  8
1
  6
Continuous
100
AcDbLine
 10
250.848396307083
 20
113.2487104286958
 30
0.0
 11
251.0772290804516
 21
113.0198776553272
 31
0.0
  0
ARC
  5
215C
330
18
100
AcDbEntity
  8
1
  6
Continuous
100
AcDbCircle
 10
247.188141599204
 20
116.9089651365749
 30
0.0
 40
5.500000261235925
100
AcDbArc
 50
316.7112386164081
 51
337.4999999999963
  0
LINE
  5
215D
330
18
100
AcDbEntity
  8
1
  6
Continuous
100
AcDbLine
 10
252.3300660646452
 20
114.9568853059091
 30
0.0
 11
251.9009898531839
 21
115.0718559302616
 31
0.0
  0
LINE
  5
215E
330
18
100
AcDbEntity
  8
1
  6
Continuous
100
AcDbLine
 10
251.8474007150038
 20
114.9790368201998
 30
0.0
 11
252.2694792693664
 21
114.804206158596
 31
0.0
  0
ARC
  5
215F
330
18
100
AcDbEntity
  8
1
  6
Continuous
100
AcDbCircle
 10
247.188141599204
 20
116.908965136575
 30
0.0
 40
5.500000261235891
100
AcDbArc
 50
339.2112386164197
 51
354.4712077140109
  0
LINE
  5
2160
330
18
100
AcDbEntity
  8
1
  6
Continuous
100
AcDbLine
 10
251.1916317606935
 20
113.1377492317968
 30
0.0
 11
250.909376535906
 21
113.3543312832744
 31
0.0
  0
LINE
  5
2161
330
18
100
AcDbEntity
  8
1
  6
Continuous
100
AcDbLine
 10
244.3013908987957
 20
111.9089648990877
 30
0.0
 11
250.0748938649184
 21
111.9089648990877
 31
0.0
  0
ARC
  5
2162
330
18
100
AcDbEntity
  8
1
  6
Continuous
100
AcDbCircle
 10
247.1881415992039
 20
116.9089651365751
 30
0.0
 40
5.500000261235849
100
AcDbArc
 50
91.71123861641426
 51
112.5000000000042
  0
LINE
  5
2163
330
18
100
AcDbEntity
  8
1
  6
Continuous
100
AcDbLine
 10
247.1881415992039
 20
121.9089653740622
 30
0.0
 11
247.1881415992039
 21
122.4089653978109
 31
0.0
  0
LINE
  5
2164
330
18
100
AcDbEntity
  8
1
  6
Continuous
100
AcDbLine
 10
247.0238988971875
 20
122.406512517765
 30
0.0
 11
247.0894022213236
 21
121.9089653740622
 31
0.0
  0
ARC
  5
2165
330
18
100
AcDbEntity
  8
1
  6
Continuous
100
AcDbCircle
 10
247.1881415992039
 20
116.9089651365751
 30
0.0
 40
5.500000261235891
100
AcDbArc
 50
69.21123861641977
 51
90.0
  0
ARC
  5
2166
330
18
100
AcDbEntity
  8
1
  6
Continuous
100
AcDbCircle
 10
247.188141599204
 20
116.908965136575
 30
0.0
 40
5.500000261236003
100
AcDbArc
 50
114.2112386164125
 51
114.575323453986
  0
LINE
  5
2167
330
18
100
AcDbEntity
  8
1
  6
Continuous
100
AcDbLine
 10
244.9325808270232
 20
121.925183680119
 30
0.0
 11
244.9419444703909
 21
121.9089653740622
 31
0.0
  0
LINE
  5
2168
330
18
100
AcDbEntity
  8
1
  6
Continuous
100
AcDbLine
 10
245.1170736889676
 20
121.9089653740622
 30
0.0
 11
245.0833826212249
 21
121.9903028067374
 31
0.0
  0
ARC
  5
2169
330
18
100
AcDbEntity
  8
1
  6
Continuous
100
AcDbCircle
 10
247.188141599204
 20
116.908965136575
 30
0.0
 40
5.500000261235925
100
AcDbArc
 50
65.55973128225033
 51
67.49999999999632
  0
LINE
  5
216A
330
18
100
AcDbEntity
  8
1
  6
Continuous
100
AcDbLine
 10
249.1402214298697
 20
122.0508896020162
 30
0.0
 11
249.1021929476031
 21
121.9089653740622
 31
0.0
  0
LINE
  5
216B
330
18
100
AcDbEntity
  8
1
  6
Continuous
100
AcDbLine
 10
249.2592095094402
 20
121.9089653740622
 30
0.0
 11
249.2929005771829
 21
121.9903028067374
 31
0.0
  0
ARC
  5
216C
330
18
100
AcDbEntity
  8
1
  6
Continuous
100
AcDbCircle
 10
247.188141599204
 20
116.908965136575
 30
0.0
 40
5.500000261235849
100
AcDbArc
 50
5.604558321489223
 51
22.50000000000423
  0
ARC
  5
216D
330
18
100
AcDbEntity
  8
1
  6
Continuous
100
AcDbCircle
 10
247.188141599204
 20
116.908965136575
 30
0.0
 40
5.500000261235925
100
AcDbArc
 50
46.71123861640809
 51
54.51851395855108
  0
LINE
  5
216E
330
18
100
AcDbEntity
  8
1
  6
Continuous
100
AcDbLine
 10
250.9593575039821
 20
120.9124552980645
 30
0.0
 11
250.7829564608864
 21
120.6825649829065
 31
0.0
  0
LINE
  5
216F
330
18
100
AcDbEntity
  8
1
  6
Continuous
100
AcDbLine
 10
250.8483963070831
 20
120.5692198444542
 30
0.0
 11
251.0772290804516
 21
120.7980526178227
 31
0.0
  0
LINE
  5
2170
330
18
100
AcDbEntity
  8
1
  6
Continuous
100
AcDbLine
 10
252.204360142748
 20
119.1645259087556
 30
0.0
 11
251.7956375824279
 21
118.9285498285309
 31
0.0
  0
LINE
  5
2171
330
18
100
AcDbEntity
  8
1
  6
Continuous
100
AcDbLine
 10
251.847400715004
 20
118.8388934529501
 30
0.0
 11
252.2694792693664
 21
119.0137241145539
 31
0.0
  0
ARC
  5
2172
330
18
100
AcDbEntity
  8
1
  6
Continuous
100
AcDbCircle
 10
247.1881415992039
 20
116.908965136575
 30
0.0
 40
5.500000261236003
100
AcDbArc
 50
24.21123861641257
 51
45.0
  0
LINE
  5
2173
330
18
100
AcDbEntity
  8
1
  6
Continuous
100
AcDbLine
 10
244.3013908987957
 20
121.9089653740622
 30
0.0
 11
250.0748938649184
 21
121.9089653740622
 31
0.0
  0
ARC
  5
2174
330
18
100
AcDbEntity
  8
1
  6
Continuous
100
AcDbCircle
 10
247.1881415992038
 20
116.9089651365749
 30
0.0
 40
5.500000261235849
100
AcDbArc
 50
185.6045246759826
 51
202.5000000000042
  0
ARC
  5
2175
330
18
100
AcDbEntity
  8
1
  6
Continuous
100
AcDbCircle
 10
247.188141599204
 20
116.908965136575
 30
0.0
 40
5.500000261236003
100
AcDbArc
 50
204.2112386164125
 51
225.0
  0
LINE
  5
2176
330
18
100
AcDbEntity
  8
1
  6
Continuous
100
AcDbLine
 10
242.1719230556598
 20
114.6534043643943
 30
0.0
 11
242.5806467899596
 21
114.8893811224164
 31
0.0
  0
LINE
  5
2177
330
18
100
AcDbEntity
  8
1
  6
Continuous
100
AcDbLine
 10
242.5288837466172
 20
114.9790373434398
 30
0.0
 11
242.1068039290414
 21
114.804206158596
 31
0.0
  0
LINE
  5
2178
330
18
100
AcDbEntity
  8
1
  6
Continuous
100
AcDbLine
 10
243.4169256944258
 20
112.9054749750853
 30
0.0
 11
243.5933276307482
 21
113.1353664543191
 31
0.0
  0
LINE
  5
2179
330
18
100
AcDbEntity
  8
1
  6
Continuous
100
AcDbLine
 10
243.5278878836891
 20
113.24871142106
 30
0.0
 11
243.2990541179562
 21
113.0198776553272
 31
0.0
  0
ARC
  5
217A
330
18
100
AcDbEntity
  8
1
  6
Continuous
100
AcDbCircle
 10
247.1881415992039
 20
116.908965136575
 30
0.0
 40
5.500000261235891
100
AcDbArc
 50
159.2112386164197
 51
174.4712393943775
  0
LINE
  5
217B
330
18
100
AcDbEntity
  8
1
  6
Continuous
100
AcDbLine
 10
243.1846514377143
 20
120.6801810413531
 30
0.0
 11
243.4669077472478
 21
120.4635981575207
 31
0.0
  0
LINE
  5
217C
330
18
100
AcDbEntity
  8
1
  6
Continuous
100
AcDbLine
 10
243.5278878836892
 20
120.5692188520897
 30
0.0
 11
243.2990541179562
 21
120.7980526178227
 31
0.0
  0
LINE
  5
217D
330
18
100
AcDbEntity
  8
1
  6
Continuous
100
AcDbLine
 10
242.0462171337626
 20
118.8610449672407
 30
0.0
 11
242.4752947008189
 21
118.7460739796577
 31
0.0
  0
LINE
  5
217E
330
18
100
AcDbEntity
  8
1
  6
Continuous
100
AcDbLine
 10
242.5288837466175
 20
118.8388929297099
 30
0.0
 11
242.1068039290414
 21
119.0137241145539
 31
0.0
  0
ARC
  5
217F
330
18
100
AcDbEntity
  8
1
  6
Continuous
100
AcDbCircle
 10
247.1881415992039
 20
116.908965136575
 30
0.0
 40
5.500000261235925
100
AcDbArc
 50
136.711238616408
 51
157.4999999999963
  0
LINE
  5
2180
330
18
100
AcDbEntity
  8
1
  6
Continuous
100
AcDbLine
 10
250.0748938649184
 20
121.9089653740622
 30
0.0
 11
252.9616453479799
 21
116.908965136575
 31
0.0
  0
LINE
  5
2181
330
18
100
AcDbEntity
  8
1
  6
Continuous
100
AcDbLine
 10
250.0748938649182
 20
111.9089648990878
 30
0.0
 11
252.9616453479797
 21
116.9089651365749
 31
0.0
  0
LINE
  5
2182
330
18
100
AcDbEntity
  8
1
  6
Continuous
100
AcDbLine
 10
241.4146394157341
 20
116.9089651365749
 30
0.0
 11
244.3013908987957
 21
111.9089648990877
 31
0.0
  0
LINE
  5
2183
330
18
100
AcDbEntity
  8
1
  6
Continuous
100
AcDbLine
 10
241.4146394157343
 20
116.9089651365749
 30
0.0
 11
244.3013908987959
 21
121.9089653740621
 31
0.0
  0
LINE
  5
2185
330
18
100
AcDbEntity
  8
1
  6
Continuous
100
AcDbLine
 10
246.6881423581083
 20
119.8670050241105
 30
0.0
 11
246.6881423581083
 21
113.9509252490394
 31
0.0
  0
LINE
  5
2186
330
18
100
AcDbEntity
  8
1
  6
Continuous
100
AcDbLine
 10
247.6881424056058
 20
119.8670050241105
 30
0.0
 11
247.6881424056058
 21
113.9509252490394
 31
0.0
  0
CIRCLE
  5
2189
330
18
100
AcDbEntity
  8
1
  6
Continuous
100
AcDbCircle
 10
247.1881423818571
 20
116.908965919228
 30
0.0
 40
3.0
  0
CIRCLE
  5
218A
330
18
100
AcDbEntity
  8
2
  6
Continuous
100
AcDbCircle
 10
247.1881423144596
 20
116.9089651365751
 30
0.0
 40
2.458499999999999
  0
LINE
  5
224A
330
18
100
AcDbEntity
  8
1
  6
Continuous
100
AcDbLine
 10
87.5708086552944
 20
51.65148340770233
 30
0.0
 11
69.57080780034022
 21
51.65148340770233
 31
0.0
  0
ARC
  5
224B
330
18
100
AcDbEntity
  8
1
  6
Continuous
100
AcDbCircle
 10
78.5708074451642
 20
58.88327283830047
 30
0.0
 40
14.94079642921764
100
AcDbArc
 50
258.8596671490546
 51
281.1403328509453
  0
LINE
  5
224C
330
18
100
AcDbEntity
  8
1
  6
Continuous
100
AcDbLine
 10
73.82080721955142
 20
43.85148284648729
 30
0.0
 11
83.32080767077675
 21
43.85148284648724
 31
0.0
  0
ARC
  5
224D
330
18
100
AcDbEntity
  8
1
  6
Continuous
100
AcDbCircle
 10
78.5708074451642
 20
34.01969310166075
 30
0.0
 40
14.94079642921764
100
AcDbArc
 50
78.85966714905466
 51
101.1403328509453
  0
LINE
  5
224E
330
18
100
AcDbEntity
  8
1
  6
Continuous
100
AcDbLine
 10
73.07080796658127
 20
49.0514829027392
 30
0.0
 11
84.07080848905323
 21
49.05148290273913
 31
0.0
  0
LINE
  5
224F
330
18
100
AcDbEntity
  8
1
  6
Continuous
100
AcDbLine
 10
84.07080848905335
 20
49.65148293123771
 30
0.0
 11
73.07080796658127
 21
49.65148293123767
 31
0.0
  0
LINE
  5
2250
330
18
100
AcDbEntity
  8
1
  6
Continuous
100
AcDbLine
 10
81.57080837030958
 20
36.10148266911696
 30
0.0
 11
79.07080825156592
 21
36.10148266911696
 31
0.0
  0
LINE
  5
2251
330
18
100
AcDbEntity
  8
1
  6
Continuous
100
AcDbLine
 10
81.12080834893575
 20
35.65148264774308
 30
0.0
 11
79.07080825156597
 21
35.65148264774308
 31
0.0
  0
LINE
  5
2252
330
18
100
AcDbEntity
  8
1
  6
Continuous
100
AcDbLine
 10
111.5708097952332
 20
64.65148402516923
 30
0.0
 11
74.5708080378276
 21
64.65148402516923
 31
0.0
  0
LINE
  5
2253
330
18
100
AcDbEntity
  8
1
  6
Continuous
100
AcDbLine
 10
72.79730447904128
 20
44.22400737872286
 30
0.0
 11
72.79730447904128
 21
48.67895856123837
 31
0.0
  0
LINE
  5
2254
330
18
100
AcDbEntity
  8
1
  6
Continuous
100
AcDbLine
 10
75.68405596210279
 20
44.22400737872286
 30
0.0
 11
75.68405596210279
 21
48.67895856123826
 31
0.0
  0
LINE
  5
2255
330
18
100
AcDbEntity
  8
4
  6
CENTER
 48
0.15
100
AcDbLine
 10
78.57080822781736
 20
32.65148293272787
 30
0.0
 11
78.57080822781725
 21
68.15148404891792
 31
0.0
  0
LINE
  5
2256
330
18
100
AcDbEntity
  8
1
  6
Continuous
100
AcDbLine
 10
69.57080780034022
 20
51.65148340770233
 30
0.0
 11
69.57080780034022
 21
59.65148378768191
 31
0.0
  0
LINE
  5
2257
330
18
100
AcDbEntity
  8
1
  6
Continuous
100
AcDbLine
 10
74.5708080378276
 20
64.65148402516923
 30
0.0
 11
69.57080780034022
 21
59.65148378768191
 31
0.0
  0
LINE
  5
2258
330
18
100
AcDbEntity
  8
1
  6
Continuous
100
AcDbLine
 10
72.79730447904128
 20
48.67895856123832
 30
0.0
 11
73.82080669551228
 21
49.0514829027392
 31
0.0
  0
LINE
  5
2259
330
18
100
AcDbEntity
  8
1
  6
Continuous
100
AcDbLine
 10
72.79720447904131
 20
48.67892216421487
 30
0.0
 11
72.79730447904128
 21
48.67895856123832
 31
0.0
  0
LINE
  5
225A
330
18
100
AcDbEntity
  8
1
  6
Continuous
100
AcDbLine
 10
73.48947055765489
 20
49.0514829027392
 30
0.0
 11
73.48947055765489
 21
49.65148293123767
 31
0.0
  0
LINE
  5
225C
330
18
100
AcDbEntity
  8
1
  6
Continuous
100
AcDbLine
 10
73.07080796658127
 20
49.0514829027392
 30
0.0
 11
73.07080796658127
 21
49.65148293123767
 31
0.0
  0
LINE
  5
225F
330
18
100
AcDbEntity
  8
1
  6
Continuous
100
AcDbLine
 10
74.79959232303909
 20
49.0514829027392
 30
0.0
 11
74.79959232303909
 21
49.65148293123767
 31
0.0
  0
LINE
  5
2260
330
18
100
AcDbEntity
  8
1
  6
Continuous
100
AcDbLine
 10
74.68172074656959
 20
49.0514829027392
 30
0.0
 11
74.68172074656959
 21
49.65148293123767
 31
0.0
  0
ARC
  5
2261
330
18
100
AcDbEntity
  8
1
  6
Continuous
100
AcDbCircle
 10
74.24067509510703
 20
45.11969003237047
 30
0.0
 40
3.840799498515785
100
AcDbArc
 50
67.92609818211689
 51
112.0753465723803
  0
LINE
  5
2262
330
18
100
AcDbEntity
  8
1
  6
Continuous
100
AcDbLine
 10
78.57080822781725
 20
49.0514829027392
 30
0.0
 11
78.57080822781725
 21
49.65148293123767
 31
0.0
  0
LINE
  5
2263
330
18
100
AcDbEntity
  8
1
  6
Continuous
100
AcDbLine
 10
78.73505092983364
 20
49.0514829027392
 30
0.0
 11
78.73505092983364
 21
49.65148293123767
 31
0.0
  0
LINE
  5
2264
330
18
100
AcDbEntity
  8
1
  6
Continuous
100
AcDbLine
 10
76.6187283971515
 20
49.0514829027392
 30
0.0
 11
76.6187283971515
 21
49.65148293123767
 31
0.0
  0
LINE
  5
2265
330
18
100
AcDbEntity
  8
1
  6
Continuous
100
AcDbLine
 10
76.46604924983832
 20
49.0514829027392
 30
0.0
 11
76.46604924983832
 21
49.65148293123767
 31
0.0
  0
LINE
  5
2266
330
18
100
AcDbEntity
  8
1
  6
Continuous
100
AcDbLine
 10
75.57080808532488
 20
49.65148293123767
 30
0.0
 11
75.57080808532488
 21
51.65148340770233
 31
0.0
  0
LINE
  5
2267
330
18
100
AcDbEntity
  8
2
  6
Continuous
 48
0.2
100
AcDbLine
 10
76.11230822781729
 20
49.65148293123771
 30
0.0
 11
76.11230822781729
 21
51.65148340770233
 31
0.0
  0
LINE
  5
2268
330
18
100
AcDbEntity
  8
1
  6
Continuous
100
AcDbLine
 10
78.07080820406851
 20
36.10148266911696
 30
0.0
 11
75.57080808532488
 21
36.10148266911696
 31
0.0
  0
LINE
  5
2269
330
18
100
AcDbEntity
  8
1
  6
Continuous
100
AcDbLine
 10
78.07080820406851
 20
35.65148264774308
 30
0.0
 11
76.02080810669875
 21
35.65148264774308
 31
0.0
  0
LINE
  5
226A
330
18
100
AcDbEntity
  8
1
  6
Continuous
100
AcDbLine
 10
76.02090810669873
 20
35.65138264774307
 30
0.0
 11
75.57080808532488
 21
36.10148266911693
 31
0.0
  0
LINE
  5
226C
330
18
100
AcDbEntity
  8
1
  6
Continuous
100
AcDbLine
 10
78.07080820406851
 20
37.251482723739
 30
0.0
 11
78.07080820406851
 21
35.65148264774308
 31
0.0
  0
LINE
  5
226D
330
18
100
AcDbEntity
  8
1
  6
Continuous
100
AcDbLine
 10
79.07080825156597
 20
37.251482723739
 30
0.0
 11
79.07080825156597
 21
35.65148264774308
 31
0.0
  0
LINE
  5
226E
330
18
100
AcDbEntity
  8
1
  6
Continuous
100
AcDbLine
 10
78.07080820406851
 20
37.25148272373903
 30
0.0
 11
79.07080825156592
 21
37.25148272373903
 31
0.0
  0
LINE
  5
2271
330
18
100
AcDbEntity
  8
1
  6
Continuous
100
AcDbLine
 10
73.82108261381439
 20
43.85138261117289
 30
0.0
 11
72.79730447904128
 21
44.22400737872286
 31
0.0
  0
LINE
  5
2272
330
18
100
AcDbEntity
  8
1
  6
Continuous
100
AcDbLine
 10
72.79730447904128
 20
44.22400737872286
 30
0.0
 11
72.79720447904131
 21
44.22404377574632
 31
0.0
  0
ARC
  5
2273
330
18
100
AcDbEntity
  8
1
  6
Continuous
100
AcDbCircle
 10
74.24067509510703
 20
47.78327590759076
 30
0.0
 40
3.840799498515785
100
AcDbArc
 50
247.9246534276196
 51
292.0739018178831
  0
LINE
  5
2274
330
18
100
AcDbEntity
  8
2
  6
Continuous
 48
0.2
100
AcDbLine
 10
76.11230822781729
 20
35.65138264774307
 30
0.0
 11
76.11230822781729
 21
43.85148284648724
 31
0.0
  0
LINE
  5
2275
330
18
100
AcDbEntity
  8
1
  6
Continuous
100
AcDbLine
 10
75.57080808532488
 20
36.10148266911693
 30
0.0
 11
75.57080808532488
 21
43.85148284648729
 31
0.0
  0
LINE
  5
2276
330
18
100
AcDbEntity
  8
1
  6
Continuous
100
AcDbLine
 10
114.3443118362105
 20
43.72400735497413
 30
0.0
 11
114.3443118362105
 21
48.17895853748964
 31
0.0
  0
LINE
  5
2277
330
18
100
AcDbEntity
  8
1
  6
Continuous
100
AcDbLine
 10
111.4575603531488
 20
43.72400735497413
 30
0.0
 11
111.4575603531488
 21
48.17895853748959
 31
0.0
  0
LINE
  5
2278
330
18
100
AcDbEntity
  8
1
  6
Continuous
100
AcDbLine
 10
102.7973059039648
 20
43.72400735497413
 30
0.0
 11
102.7973059039648
 21
48.17895853748964
 31
0.0
  0
LINE
  5
2279
330
18
100
AcDbEntity
  8
1
  6
Continuous
100
AcDbLine
 10
105.6840573870263
 20
43.72400735497413
 30
0.0
 11
105.6840573870263
 21
48.17895853748954
 31
0.0
  0
LINE
  5
227A
330
18
100
AcDbEntity
  8
1
  6
Continuous
100
AcDbLine
 10
84.34431041128702
 20
44.22400737872286
 30
0.0
 11
84.34431041128702
 21
48.67895856123837
 31
0.0
  0
LINE
  5
227B
330
18
100
AcDbEntity
  8
1
  6
Continuous
100
AcDbLine
 10
81.45755892822526
 20
44.22400737872286
 30
0.0
 11
81.45755892822526
 21
48.67895856123832
 31
0.0
  0
LINE
  5
227C
330
18
100
AcDbEntity
  8
4
  6
CENTER
 48
0.15
100
AcDbLine
 10
108.5708096527409
 20
38.15148290897914
 30
0.0
 11
108.5708096527408
 21
67.6514840251692
 31
0.0
  0
LINE
  5
227D
330
18
100
AcDbEntity
  8
1
  6
Continuous
100
AcDbLine
 10
102.5708093677561
 20
52.65148345519978
 30
0.0
 11
87.5708086552944
 21
52.65148345519978
 31
0.0
  0
LINE
  5
227E
330
18
100
AcDbEntity
  8
1
  6
Continuous
100
AcDbLine
 10
87.5708086552944
 20
51.65148340770233
 30
0.0
 11
87.5708086552944
 21
52.65148345519978
 31
0.0
  0
LINE
  5
227F
330
18
100
AcDbEntity
  8
1
  6
Continuous
100
AcDbLine
 10
83.32080819481623
 20
49.0514829027392
 30
0.0
 11
84.34431041128702
 21
48.67895856123826
 31
0.0
  0
LINE
  5
2280
330
18
100
AcDbEntity
  8
1
  6
Continuous
100
AcDbLine
 10
82.57429838930685
 20
49.0514829027392
 30
0.0
 11
82.57429838930685
 21
49.65148293123767
 31
0.0
  0
LINE
  5
2281
330
18
100
AcDbEntity
  8
1
  6
Continuous
100
AcDbLine
 10
84.34431041128702
 20
48.67895856123826
 30
0.0
 11
84.3444104112871
 21
48.67892216421487
 31
0.0
  0
LINE
  5
2282
330
18
100
AcDbEntity
  8
1
  6
Continuous
100
AcDbLine
 10
84.07080848905323
 20
49.05148290273913
 30
0.0
 11
84.07080848905335
 21
49.65148293123771
 31
0.0
  0
LINE
  5
2283
330
18
100
AcDbEntity
  8
1
  6
Continuous
100
AcDbLine
 10
83.71273269325859
 20
49.0514829027392
 30
0.0
 11
83.71273269325859
 21
49.65148293123767
 31
0.0
  0
LINE
  5
2284
330
18
100
AcDbEntity
  8
1
  6
Continuous
100
AcDbLine
 10
80.67556720579629
 20
49.0514829027392
 30
0.0
 11
80.67556720579629
 21
49.65148293123767
 31
0.0
  0
LINE
  5
2285
330
18
100
AcDbEntity
  8
1
  6
Continuous
100
AcDbLine
 10
80.82636899999787
 20
49.0514829027392
 30
0.0
 11
80.82636899999787
 21
49.65148293123767
 31
0.0
  0
LINE
  5
2286
330
18
100
AcDbEntity
  8
1
  6
Continuous
100
AcDbLine
 10
82.45989570906502
 20
49.0514829027392
 30
0.0
 11
82.45989570906502
 21
49.65148293123767
 31
0.0
  0
ARC
  5
2287
330
18
100
AcDbEntity
  8
1
  6
Continuous
100
AcDbCircle
 10
82.90093466975623
 20
45.11971631002299
 30
0.0
 40
3.840773220860136
100
AcDbArc
 50
67.9260217220985
 51
112.0739782779015
  0
LINE
  5
2288
330
18
100
AcDbEntity
  8
1
  6
Continuous
100
AcDbLine
 10
81.57080837030958
 20
51.65148340770233
 30
0.0
 11
81.57080837030958
 21
49.65148293123767
 31
0.0
  0
LINE
  5
2289
330
18
100
AcDbEntity
  8
2
  6
Continuous
 48
0.2
100
AcDbLine
 10
81.02930822781733
 20
49.65148293123771
 30
0.0
 11
81.02930822781733
 21
51.65148340770233
 31
0.0
  0
LINE
  5
228A
330
18
100
AcDbEntity
  8
1
  6
Continuous
100
AcDbLine
 10
114.5708099377255
 20
51.15148338395361
 30
0.0
 11
114.5708099377255
 21
61.65148388267684
 31
0.0
  0
LINE
  5
228B
330
18
100
AcDbEntity
  8
1
  6
Continuous
100
AcDbLine
 10
102.5708093677561
 20
61.65148388267684
 30
0.0
 11
102.5708093677561
 21
51.15148338395361
 31
0.0
  0
LINE
  5
228C
330
18
100
AcDbEntity
  8
1
  6
Continuous
100
AcDbLine
 10
102.5708093677561
 20
61.65148388267684
 30
0.0
 11
105.5708095102485
 21
64.65148402516923
 31
0.0
  0
LINE
  5
228D
330
18
100
AcDbEntity
  8
1
  6
Continuous
100
AcDbLine
 10
111.5708097952332
 20
64.6514840251692
 30
0.0
 11
114.5708099377255
 21
61.65148388267684
 31
0.0
  0
LINE
  5
228E
330
18
100
AcDbEntity
  8
1
  6
Continuous
100
AcDbLine
 10
102.5708093677561
 20
51.15148338395361
 30
0.0
 11
114.5708099377255
 21
51.15148338395361
 31
0.0
  0
ARC
  5
228F
330
18
100
AcDbEntity
  8
1
  6
Continuous
100
AcDbCircle
 10
108.5708088700877
 20
33.51969307791203
 30
0.0
 40
14.94079642921764
100
AcDbArc
 50
78.85966714905466
 51
101.1403328509453
  0
LINE
  5
2290
330
18
100
AcDbEntity
  8
1
  6
Continuous
100
AcDbLine
 10
103.0708093915048
 20
48.55148287899048
 30
0.0
 11
114.0708099139768
 21
48.5514828789904
 31
0.0
  0
LINE
  5
2291
330
18
100
AcDbEntity
  8
1
  6
Continuous
100
AcDbLine
 10
114.0708099139769
 20
49.15148290748899
 30
0.0
 11
103.0708093915048
 21
49.15148290748894
 31
0.0
  0
LINE
  5
2292
330
18
100
AcDbEntity
  8
1
  6
Continuous
100
AcDbLine
 10
102.7973059039648
 20
48.17895853748959
 30
0.0
 11
103.8208081204358
 21
48.55148287899047
 31
0.0
  0
LINE
  5
2293
330
18
100
AcDbEntity
  8
1
  6
Continuous
100
AcDbLine
 10
102.7972059039648
 20
48.17892214046613
 30
0.0
 11
102.7973059039648
 21
48.17895853748959
 31
0.0
  0
LINE
  5
2294
330
18
100
AcDbEntity
  8
1
  6
Continuous
100
AcDbLine
 10
103.4894719825784
 20
48.55148287899047
 30
0.0
 11
103.4894719825784
 21
49.15148290748894
 31
0.0
  0
LINE
  5
2296
330
18
100
AcDbEntity
  8
1
  6
Continuous
100
AcDbLine
 10
103.0708093915048
 20
48.55148287899048
 30
0.0
 11
103.0708093915048
 21
49.15148290748894
 31
0.0
  0
LINE
  5
2299
330
18
100
AcDbEntity
  8
1
  6
Continuous
100
AcDbLine
 10
104.7995937479626
 20
48.55148287899047
 30
0.0
 11
104.7995937479626
 21
49.15148290748894
 31
0.0
  0
LINE
  5
229A
330
18
100
AcDbEntity
  8
1
  6
Continuous
100
AcDbLine
 10
104.6817221714931
 20
48.55148287899047
 30
0.0
 11
104.6817221714931
 21
49.15148290748894
 31
0.0
  0
ARC
  5
229B
330
18
100
AcDbEntity
  8
1
  6
Continuous
100
AcDbCircle
 10
104.2406765200305
 20
44.61969000862175
 30
0.0
 40
3.840799498515785
100
AcDbArc
 50
67.92609818211689
 51
112.0753465723803
  0
LINE
  5
229C
330
18
100
AcDbEntity
  8
1
  6
Continuous
100
AcDbLine
 10
110.6755686307198
 20
48.55148287899047
 30
0.0
 11
110.6755686307198
 21
49.15148290748894
 31
0.0
  0
LINE
  5
229D
330
18
100
AcDbEntity
  8
1
  6
Continuous
100
AcDbLine
 10
110.8263704249214
 20
48.55148287899047
 30
0.0
 11
110.8263704249214
 21
49.15148290748894
 31
0.0
  0
LINE
  5
229E
330
18
100
AcDbEntity
  8
1
  6
Continuous
100
AcDbLine
 10
108.5708096527408
 20
48.55148287899047
 30
0.0
 11
108.5708096527408
 21
49.15148290748894
 31
0.0
  0
LINE
  5
229F
330
18
100
AcDbEntity
  8
1
  6
Continuous
100
AcDbLine
 10
108.7350523547572
 20
48.55148287899047
 30
0.0
 11
108.7350523547572
 21
49.15148290748894
 31
0.0
  0
LINE
  5
22A0
330
18
100
AcDbEntity
  8
1
  6
Continuous
100
AcDbLine
 10
106.618729822075
 20
48.55148287899047
 30
0.0
 11
106.618729822075
 21
49.15148290748894
 31
0.0
  0
LINE
  5
22A1
330
18
100
AcDbEntity
  8
1
  6
Continuous
100
AcDbLine
 10
106.4660506747619
 20
48.55148287899047
 30
0.0
 11
106.4660506747619
 21
49.15148290748894
 31
0.0
  0
LINE
  5
22A2
330
18
100
AcDbEntity
  8
2
  6
Continuous
 48
0.2
100
AcDbLine
 10
111.0293096527408
 20
49.15148290748899
 30
0.0
 11
111.0293096527408
 21
51.15148338395361
 31
0.0
  0
LINE
  5
22A3
330
18
100
AcDbEntity
  8
1
  6
Continuous
100
AcDbLine
 10
105.5708095102484
 20
49.15148290748894
 30
0.0
 11
105.5708095102484
 21
51.15148338395361
 31
0.0
  0
LINE
  5
22A4
330
18
100
AcDbEntity
  8
2
  6
Continuous
 48
0.2
100
AcDbLine
 10
106.1123096527408
 20
49.15148290748899
 30
0.0
 11
106.1123096527408
 21
51.15148338395361
 31
0.0
  0
LINE
  5
22A5
330
18
100
AcDbEntity
  8
1
  6
Continuous
100
AcDbLine
 10
113.3208096197398
 20
48.55148287899047
 30
0.0
 11
114.3443118362105
 21
48.17895853748954
 31
0.0
  0
LINE
  5
22A6
330
18
100
AcDbEntity
  8
1
  6
Continuous
100
AcDbLine
 10
112.5742998142304
 20
48.55148287899047
 30
0.0
 11
112.5742998142304
 21
49.15148290748894
 31
0.0
  0
LINE
  5
22A7
330
18
100
AcDbEntity
  8
1
  6
Continuous
100
AcDbLine
 10
114.3443118362105
 20
48.17895853748954
 30
0.0
 11
114.3444118362106
 21
48.17892214046613
 31
0.0
  0
LINE
  5
22A8
330
18
100
AcDbEntity
  8
1
  6
Continuous
100
AcDbLine
 10
114.0708099139768
 20
48.5514828789904
 30
0.0
 11
114.0708099139769
 21
49.15148290748899
 31
0.0
  0
LINE
  5
22A9
330
18
100
AcDbEntity
  8
1
  6
Continuous
100
AcDbLine
 10
113.7127341181821
 20
48.55148287899047
 30
0.0
 11
113.7127341181821
 21
49.15148290748894
 31
0.0
  0
LINE
  5
22AA
330
18
100
AcDbEntity
  8
1
  6
Continuous
100
AcDbLine
 10
112.4598971339885
 20
48.55148287899047
 30
0.0
 11
112.4598971339885
 21
49.15148290748894
 31
0.0
  0
ARC
  5
22AB
330
18
100
AcDbEntity
  8
1
  6
Continuous
100
AcDbCircle
 10
112.9009360946798
 20
44.61971628627426
 30
0.0
 40
3.840773220860136
100
AcDbArc
 50
67.9260217220985
 51
112.0739782779015
  0
LINE
  5
22AC
330
18
100
AcDbEntity
  8
1
  6
Continuous
100
AcDbLine
 10
111.5708097952331
 20
51.15148338395361
 30
0.0
 11
111.5708097952331
 21
49.15148290748894
 31
0.0
  0
LINE
  5
22AD
330
18
100
AcDbEntity
  8
1
  6
Continuous
100
AcDbLine
 10
81.57080837030958
 20
36.10148266911699
 30
0.0
 11
81.12070834893572
 21
35.65138264774307
 31
0.0
  0
LINE
  5
22AF
330
18
100
AcDbEntity
  8
1
  6
Continuous
100
AcDbLine
 10
84.34431041128702
 20
44.22400737872286
 30
0.0
 11
83.32080767077675
 21
43.85148284648724
 31
0.0
  0
LINE
  5
22B0
330
18
100
AcDbEntity
  8
1
  6
Continuous
100
AcDbLine
 10
84.3444104112871
 20
44.22404377574632
 30
0.0
 11
84.34431041128702
 21
44.22400737872286
 31
0.0
  0
ARC
  5
22B1
330
18
100
AcDbEntity
  8
1
  6
Continuous
100
AcDbCircle
 10
82.90093466975623
 20
47.78324962993823
 30
0.0
 40
3.840773220860136
100
AcDbArc
 50
247.9260217220984
 51
292.0739782779015
  0
LINE
  5
22B2
330
18
100
AcDbEntity
  8
2
  6
Continuous
 48
0.2
100
AcDbLine
 10
81.02930822781733
 20
35.65148264774308
 30
0.0
 11
81.02930822781733
 21
43.85148284648724
 31
0.0
  0
LINE
  5
22B3
330
18
100
AcDbEntity
  8
1
  6
Continuous
100
AcDbLine
 10
81.57080837030958
 20
43.85148284648729
 30
0.0
 11
81.57080837030958
 21
36.10148266911699
 31
0.0
  0
LINE
  5
22B4
330
18
100
AcDbEntity
  8
1
  6
Continuous
100
AcDbLine
 10
105.57081041857
 20
42.15148204815503
 30
0.0
 11
111.5708097952331
 21
42.15148204815508
 31
0.0
  0
LINE
  5
22B5
330
18
100
AcDbEntity
  8
1
  6
Continuous
100
AcDbLine
 10
111.5708097952331
 20
42.15148295647661
 30
0.0
 11
110.5708097477358
 21
41.15148290897915
 31
0.0
  0
ARC
  5
22B6
330
18
100
AcDbEntity
  8
1
  6
Continuous
100
AcDbCircle
 10
108.5708088700877
 20
58.38327281455175
 30
0.0
 40
14.94079642921764
100
AcDbArc
 50
258.8596671490546
 51
281.1403328509453
  0
LINE
  5
22B7
330
18
100
AcDbEntity
  8
1
  6
Continuous
100
AcDbLine
 10
103.820808644475
 20
43.35148282273856
 30
0.0
 11
113.3208090957003
 21
43.3514828227385
 31
0.0
  0
LINE
  5
22B8
330
18
100
AcDbEntity
  8
1
  6
Continuous
100
AcDbLine
 10
106.570909557746
 20
41.15138290897905
 30
0.0
 11
105.5708095102484
 21
42.15148295647654
 31
0.0
  0
LINE
  5
22B9
330
18
100
AcDbEntity
  8
1
  6
Continuous
100
AcDbLine
 10
106.570809557746
 20
41.15148290897908
 30
0.0
 11
110.5708097477358
 21
41.15148290897915
 31
0.0
  0
LINE
  5
22BA
330
18
100
AcDbEntity
  8
1
  6
Continuous
100
AcDbLine
 10
103.8210840387379
 20
43.35138258742418
 30
0.0
 11
102.7973059039648
 21
43.72400735497413
 31
0.0
  0
LINE
  5
22BB
330
18
100
AcDbEntity
  8
1
  6
Continuous
100
AcDbLine
 10
102.7973059039648
 20
43.72400735497413
 30
0.0
 11
102.7972059039648
 21
43.72404375199757
 31
0.0
  0
ARC
  5
22BC
330
18
100
AcDbEntity
  8
1
  6
Continuous
100
AcDbCircle
 10
104.2406765200305
 20
47.28327588384202
 30
0.0
 40
3.840799498515785
100
AcDbArc
 50
247.9246534276196
 51
292.0739018178831
  0
LINE
  5
22BD
330
18
100
AcDbEntity
  8
2
  6
Continuous
 48
0.2
100
AcDbLine
 10
111.0293096527408
 20
41.6099828139843
 30
0.0
 11
111.0293096527408
 21
43.3514828227385
 31
0.0
  0
LINE
  5
22BE
330
18
100
AcDbEntity
  8
1
  6
Continuous
100
AcDbLine
 10
105.5708095102484
 20
42.15148204815503
 30
0.0
 11
105.5708095102484
 21
43.35148282273856
 31
0.0
  0
LINE
  5
22BF
330
18
100
AcDbEntity
  8
2
  6
Continuous
 48
0.2
100
AcDbLine
 10
106.1123096527408
 20
41.6099828139843
 30
0.0
 11
106.1123096527408
 21
43.3514828227385
 31
0.0
  0
LINE
  5
22C0
330
18
100
AcDbEntity
  8
1
  6
Continuous
100
AcDbLine
 10
114.3443118362105
 20
43.72400735497413
 30
0.0
 11
113.3208090957003
 21
43.3514828227385
 31
0.0
  0
LINE
  5
22C1
330
18
100
AcDbEntity
  8
1
  6
Continuous
100
AcDbLine
 10
114.3444118362106
 20
43.72404375199757
 30
0.0
 11
114.3443118362105
 21
43.72400735497413
 31
0.0
  0
ARC
  5
22C2
330
18
100
AcDbEntity
  8
1
  6
Continuous
100
AcDbCircle
 10
112.9009360946798
 20
47.28324960618951
 30
0.0
 40
3.840773220860136
100
AcDbArc
 50
247.9260217220984
 51
292.0739782779015
  0
LINE
  5
22C3
330
18
100
AcDbEntity
  8
1
  6
Continuous
100
AcDbLine
 10
111.5708097952331
 20
43.35148282273856
 30
0.0
 11
111.5708097952331
 21
42.15148204815508
 31
0.0
  0
LINE
  5
22C4
330
18
100
AcDbEntity
  8
3
  6
DASHED
 48
0.2
100
AcDbLine
 10
105.5708095102485
 20
131.9089658490352
 30
0.0
 11
111.5708097952332
 21
131.9089658490353
 31
0.0
  0
LINE
  5
22C5
330
18
100
AcDbEntity
  8
3
  6
DASHED
 48
0.2
100
AcDbLine
 10
105.5708095102485
 20
131.9089658490352
 30
0.0
 11
105.5708095102485
 21
101.9089644241132
 31
0.0
  0
LINE
  5
22C6
330
18
100
AcDbEntity
  8
3
  6
DASHED
 48
0.2
100
AcDbLine
 10
111.5708097952332
 20
131.9089658490353
 30
0.0
 11
111.5708097952332
 21
101.9089644241132
 31
0.0
  0
LINE
  5
22C7
330
18
100
AcDbEntity
  8
3
  6
DASHED
 48
0.2
100
AcDbLine
 10
105.5708095102485
 20
101.9089644241132
 30
0.0
 11
111.5708097952332
 21
101.9089644241132
 31
0.0
  0
LINE
  5
22C8
330
18
100
AcDbEntity
  8
4
  6
CENTER
 48
0.15
100
AcDbLine
 10
99.5708093677562
 20
175.1664468891963
 30
0.0
 11
117.5708099377255
 21
175.1664468891963
 31
0.0
  0
LINE
  5
22C9
330
18
100
AcDbEntity
  8
4
  6
CENTER
 48
0.15
100
AcDbLine
 10
155.3794746636215
 20
140.0089664727434
 30
0.0
 11
155.3794746636215
 21
93.80896380040647
 31
0.0
  0
LINE
  5
22CB
330
18
100
AcDbEntity
  8
4
  6
CENTER
 48
0.15
100
AcDbLine
 10
31.00765638092406
 20
140.0089664727434
 30
0.0
 11
31.00765638092406
 21
93.80896380040647
 31
0.0
  0
LINE
  5
22CC
330
18
100
AcDbEntity
  8
1
  6
Continuous
100
AcDbLine
 10
34.0076562384317
 20
96.80896380040648
 30
0.0
 11
34.0076562384317
 21
108.8089643703758
 31
0.0
  0
LINE
  5
22CD
330
18
100
AcDbEntity
  8
1
  6
Continuous
100
AcDbLine
 10
23.50765573970846
 20
96.80896380040648
 30
0.0
 11
23.50765573970846
 21
108.8089643703758
 31
0.0
  0
LINE
  5
22CE
330
18
100
AcDbEntity
  8
1
  6
Continuous
100
AcDbLine
 10
37.00765638092406
 20
96.80896380040648
 30
0.0
 11
37.00765638092406
 21
108.8089643703758
 31
0.0
  0
LINE
  5
22CF
330
18
100
AcDbEntity
  8
1
  6
Continuous
100
AcDbLine
 10
15.70765494317896
 20
107.5589636644828
 30
0.0
 11
15.70765494317896
 21
98.05896450629948
 31
0.0
  0
LINE
  5
22D0
330
18
100
AcDbEntity
  8
1
  6
Continuous
100
AcDbLine
 10
21.5076552632438
 20
108.3089643466271
 30
0.0
 11
21.50765526324375
 21
97.30896382415521
 31
0.0
  0
LINE
  5
22D1
330
18
100
AcDbEntity
  8
1
  6
Continuous
100
AcDbLine
 10
20.90765523474533
 20
97.30896382415521
 30
0.0
 11
20.90765523474493
 21
108.3089643466271
 31
0.0
  0
ARC
  5
22D2
330
18
100
AcDbEntity
  8
1
  6
Continuous
100
AcDbCircle
 10
27.03943743298231
 20
100.3089639666477
 30
0.0
 40
11.24078869192407
100
AcDbArc
 50
167.1497095614943
 51
192.8502904385055
  0
ARC
  5
22D3
330
18
100
AcDbEntity
  8
1
  6
Continuous
100
AcDbCircle
 10
9.575873170990972
 20
100.3089639666477
 30
0.0
 40
11.24078869192407
100
AcDbArc
 50
347.1497095614944
 51
12.85029043850561
  0
LINE
  5
22D4
330
18
100
AcDbEntity
  8
1
  6
Continuous
100
AcDbLine
 10
14.50765531223135
 20
105.8089642278834
 30
0.0
 11
14.50765531223135
 21
99.80896394289889
 31
0.0
  0
LINE
  5
22D5
330
18
100
AcDbEntity
  8
1
  6
Continuous
100
AcDbLine
 10
13.50765526473395
 20
104.808964180386
 30
0.0
 11
13.50765526473392
 21
100.8089639903962
 31
0.0
  0
LINE
  5
22D6
330
18
100
AcDbEntity
  8
2
  6
Continuous
 48
0.2
100
AcDbLine
 10
21.5076552632438
 20
100.3504640853911
 30
0.0
 11
23.50765573970841
 21
100.3504640853911
 31
0.0
  0
LINE
  5
22D7
330
18
100
AcDbEntity
  8
1
  6
Continuous
100
AcDbLine
 10
21.50765526324375
 20
99.80896394289885
 30
0.0
 11
23.50765573970841
 21
99.80896394289885
 31
0.0
  0
LINE
  5
22D8
330
18
100
AcDbEntity
  8
1
  6
Continuous
100
AcDbLine
 10
37.00765638092406
 20
96.80896380040648
 30
0.0
 11
23.50765573970846
 21
96.80896380040648
 31
0.0
  0
LINE
  5
22D9
330
18
100
AcDbEntity
  8
1
  6
Continuous
100
AcDbLine
 10
14.5076553122314
 20
99.80896394289885
 30
0.0
 11
15.70765517849338
 21
99.80896394289885
 31
0.0
  0
LINE
  5
22DA
330
18
100
AcDbEntity
  8
1
  6
Continuous
100
AcDbLine
 10
20.90765523474527
 20
100.7042051074122
 30
0.0
 11
21.50765526324375
 21
100.7042051074122
 31
0.0
  0
LINE
  5
22DB
330
18
100
AcDbEntity
  8
1
  6
Continuous
100
AcDbLine
 10
20.90765523474527
 20
100.8568842547253
 30
0.0
 11
21.50765526324375
 21
100.8568842547253
 31
0.0
  0
LINE
  5
22DC
330
18
100
AcDbEntity
  8
1
  6
Continuous
100
AcDbLine
 10
15.79864774138189
 20
97.80896384790406
 30
0.0
 11
20.81666286259149
 21
97.80896384790406
 31
0.0
  0
LINE
  5
22DD
330
18
100
AcDbEntity
  8
1
  6
Continuous
100
AcDbLine
 10
15.70765494317896
 20
98.05896450629948
 30
0.0
 11
15.79864774138189
 21
97.80896384790406
 31
0.0
  0
LINE
  5
22DE
330
18
100
AcDbEntity
  8
1
  6
Continuous
100
AcDbLine
 10
20.90765523474527
 20
98.91987660414343
 30
0.0
 11
21.50765526324375
 21
98.91987660414343
 31
0.0
  0
LINE
  5
22DF
330
18
100
AcDbEntity
  8
1
  6
Continuous
100
AcDbLine
 10
20.90765523474527
 20
99.03774818061295
 30
0.0
 11
21.50765526324375
 21
99.03774818061295
 31
0.0
  0
LINE
  5
22E0
330
18
100
AcDbEntity
  8
1
  6
Continuous
100
AcDbLine
 10
20.81666286259149
 20
97.80896384790406
 30
0.0
 11
20.90765523474527
 21
98.05896333573926
 31
0.0
  0
LINE
  5
22E1
330
18
100
AcDbEntity
  8
1
  6
Continuous
100
AcDbLine
 10
20.90765523474533
 20
97.30896382415521
 30
0.0
 11
21.50765526324375
 21
97.30896382415521
 31
0.0
  0
LINE
  5
22E2
330
18
100
AcDbEntity
  8
1
  6
Continuous
100
AcDbLine
 10
20.90765523474527
 20
97.31141670420106
 30
0.0
 11
21.50765526324375
 21
97.31141670420106
 31
0.0
  0
LINE
  5
22E3
330
18
100
AcDbEntity
  8
1
  6
Continuous
100
AcDbLine
 10
20.90765523474527
 20
97.72762641522868
 30
0.0
 11
21.50765526324375
 21
97.72762641522868
 31
0.0
  0
LINE
  5
22E4
330
18
100
AcDbEntity
  8
1
  6
Continuous
100
AcDbLine
 10
13.50765526473392
 20
100.8089639903962
 30
0.0
 11
14.5076553122314
 21
99.80896394289885
 31
0.0
  0
LINE
  5
22E5
330
18
100
AcDbEntity
  8
2
  6
Continuous
 48
0.2
100
AcDbLine
 10
13.96615516973912
 20
100.3504640853911
 30
0.0
 11
15.70765517849332
 21
100.3504640853911
 31
0.0
  0
LINE
  5
22E6
330
18
100
AcDbEntity
  8
1
  6
Continuous
100
AcDbLine
 10
23.50765573970841
 20
128.0089660452664
 30
0.0
 11
21.50765526324375
 21
128.0089660452664
 31
0.0
  0
LINE
  5
22E7
330
18
100
AcDbEntity
  8
2
  6
Continuous
 48
0.2
100
AcDbLine
 10
21.5076552632438
 20
128.5504661877588
 30
0.0
 11
23.50765573970841
 21
128.5504661877588
 31
0.0
  0
LINE
  5
22E8
330
18
100
AcDbEntity
  8
1
  6
Continuous
100
AcDbLine
 10
21.50765526324375
 20
134.0089663302511
 30
0.0
 11
23.50765573970841
 21
134.0089663302511
 31
0.0
  0
LINE
  5
22E9
330
18
100
AcDbEntity
  8
2
  6
Continuous
 48
0.2
100
AcDbLine
 10
21.5076552632438
 20
133.4674661877587
 30
0.0
 11
23.50765573970841
 21
133.4674661877587
 31
0.0
  0
LINE
  5
22EA
330
18
100
AcDbEntity
  8
1
  6
Continuous
100
AcDbLine
 10
24.00765576345719
 20
113.9089649940826
 30
0.0
 11
22.00765528699253
 21
113.9089649940826
 31
0.0
  0
LINE
  5
22EB
330
18
100
AcDbEntity
  8
1
  6
Continuous
100
AcDbLine
 10
22.00765528699253
 20
119.9089652790673
 30
0.0
 11
24.00765576345719
 21
119.9089652790673
 31
0.0
  0
LINE
  5
22EC
330
18
100
AcDbEntity
  8
2
  6
Continuous
 48
0.2
100
AcDbLine
 10
21.5076552632438
 20
105.2674640853911
 30
0.0
 11
23.50765573970841
 21
105.2674640853911
 31
0.0
  0
LINE
  5
22ED
330
18
100
AcDbEntity
  8
1
  6
Continuous
100
AcDbLine
 10
23.50765573970841
 20
105.8089642278835
 30
0.0
 11
21.50765526324375
 21
105.8089642278835
 31
0.0
  0
LINE
  5
22EE
330
18
100
AcDbEntity
  8
4
  6
CENTER
 48
0.15
100
AcDbLine
 10
10.50765526473395
 20
131.0089661877587
 30
0.0
 11
40.00765638092405
 21
131.0089661877587
 31
0.0
  0
LINE
  5
22EF
330
18
100
AcDbEntity
  8
4
  6
CENTER
 48
0.15
100
AcDbLine
 10
5.007655003497972
 20
116.9089651365749
 30
0.0
 11
40.00765638092405
 21
116.9089651365749
 31
0.0
  0
LINE
  5
22F0
330
18
100
AcDbEntity
  8
4
  6
CENTER
 48
0.15
100
AcDbLine
 10
10.50765526473395
 20
102.8089640853911
 30
0.0
 11
40.00765638092405
 21
102.8089640853911
 31
0.0
  0
LINE
  5
22F1
330
18
100
AcDbEntity
  8
1
  6
Continuous
100
AcDbLine
 10
36.50765635717533
 20
125.008965902774
 30
0.0
 11
36.50765635717533
 21
123.4089658267781
 31
0.0
  0
LINE
  5
22F2
330
18
100
AcDbEntity
  8
1
  6
Continuous
100
AcDbLine
 10
25.50765583470337
 20
123.4089658267781
 30
0.0
 11
25.50765583470337
 21
125.008965902774
 31
0.0
  0
LINE
  5
22F6
330
18
100
AcDbEntity
  8
1
  6
Continuous
100
AcDbLine
 10
24.00765576345719
 20
110.4089648278415
 30
0.0
 11
24.00765576345719
 21
123.4089654453084
 31
0.0
  0
LINE
  5
22F7
330
18
100
AcDbEntity
  8
1
  6
Continuous
100
AcDbLine
 10
37.00765638092406
 20
110.4089648278413
 30
0.0
 11
37.00765638092406
 21
123.4089654453083
 31
0.0
  0
LINE
  5
22F8
330
18
100
AcDbEntity
  8
1
  6
Continuous
100
AcDbLine
 10
24.00765576345719
 20
110.4089648278415
 30
0.0
 11
37.00765638092406
 21
110.4089648278413
 31
0.0
  0
LINE
  5
22F9
330
18
100
AcDbEntity
  8
1
  6
Continuous
100
AcDbLine
 10
37.00765638092406
 20
108.8089643703758
 30
0.0
 11
23.50765573970846
 21
108.8089643703758
 31
0.0
  0
LINE
  5
22FA
330
18
100
AcDbEntity
  8
1
  6
Continuous
100
AcDbLine
 10
36.50765635717533
 20
110.4089644463718
 30
0.0
 11
36.50765635717533
 21
108.8089643703758
 31
0.0
  0
LINE
  5
22FB
330
18
100
AcDbEntity
  8
1
  6
Continuous
100
AcDbLine
 10
25.50765583470337
 20
108.8089643703758
 30
0.0
 11
25.50765583470337
 21
110.4089644463718
 31
0.0
  0
LINE
  5
22FC
330
18
100
AcDbEntity
  8
1
  6
Continuous
100
AcDbLine
 10
24.00765576345719
 20
123.4089654453084
 30
0.0
 11
37.00765638092406
 21
123.4089654453083
 31
0.0
  0
LINE
  5
22FD
330
18
100
AcDbEntity
  8
1
  6
Continuous
100
AcDbLine
 10
23.50765573970846
 20
137.0089664727434
 30
0.0
 11
23.50765573970846
 21
125.008965902774
 31
0.0
  0
LINE
  5
22FE
330
18
100
AcDbEntity
  8
1
  6
Continuous
100
AcDbLine
 10
34.0076562384317
 20
137.0089664727434
 30
0.0
 11
34.0076562384317
 21
125.008965902774
 31
0.0
  0
LINE
  5
22FF
330
18
100
AcDbEntity
  8
1
  6
Continuous
100
AcDbLine
 10
37.00765638092406
 20
137.0089664727434
 30
0.0
 11
37.00765638092406
 21
125.008965902774
 31
0.0
  0
LINE
  5
2300
330
18
100
AcDbEntity
  8
1
  6
Continuous
100
AcDbLine
 10
23.50765573970846
 20
125.008965902774
 30
0.0
 11
37.00765638092406
 21
125.008965902774
 31
0.0
  0
LINE
  5
2301
330
18
100
AcDbEntity
  8
1
  6
Continuous
100
AcDbLine
 10
23.50765573970846
 20
137.0089664727434
 30
0.0
 11
37.00765638092406
 21
137.0089664727434
 31
0.0
  0
ARC
  5
2302
330
18
100
AcDbEntity
  8
1
  6
Continuous
100
AcDbCircle
 10
10.07587319473972
 20
114.4089650178315
 30
0.0
 40
11.24078869192407
100
AcDbArc
 50
347.1497095614944
 51
12.85029043850561
  0
ARC
  5
2303
330
18
100
AcDbEntity
  8
1
  6
Continuous
100
AcDbCircle
 10
27.53943745673106
 20
114.4089650178315
 30
0.0
 40
11.24078869192407
100
AcDbArc
 50
167.1497095614943
 51
192.8502904385055
  0
LINE
  5
2304
330
18
100
AcDbEntity
  8
1
  6
Continuous
100
AcDbLine
 10
21.40765525849408
 20
111.408964875339
 30
0.0
 11
21.40765525849368
 21
122.4089653978109
 31
0.0
  0
LINE
  5
2305
330
18
100
AcDbEntity
  8
1
  6
Continuous
100
AcDbLine
 10
22.00765528699256
 20
122.4089653978109
 30
0.0
 11
22.0076552869925
 21
111.408964875339
 31
0.0
  0
LINE
  5
2306
330
18
100
AcDbEntity
  8
1
  6
Continuous
100
AcDbLine
 10
16.20765496692771
 20
121.6589647156666
 30
0.0
 11
16.20765496692771
 21
112.1589655574832
 31
0.0
  0
LINE
  5
2307
330
18
100
AcDbEntity
  8
1
  6
Continuous
100
AcDbLine
 10
15.70765517849338
 20
105.8089642278835
 30
0.0
 11
14.50765531223135
 21
105.8089642278834
 31
0.0
  0
ARC
  5
2308
330
18
100
AcDbEntity
  8
1
  6
Continuous
100
AcDbCircle
 10
27.03943743298231
 20
105.3089642041348
 30
0.0
 40
11.24078869192407
100
AcDbArc
 50
167.1497095614943
 51
192.8502904385055
  0
ARC
  5
2309
330
18
100
AcDbEntity
  8
1
  6
Continuous
100
AcDbCircle
 10
9.575873170990972
 20
105.3089642041348
 30
0.0
 40
11.24078869192407
100
AcDbArc
 50
347.1497095614944
 51
12.85029043850561
  0
LINE
  5
230A
330
18
100
AcDbEntity
  8
1
  6
Continuous
100
AcDbLine
 10
16.08017971072894
 20
102.8089640853913
 30
0.0
 11
20.53513089324445
 21
102.8089640853913
 31
0.0
  0
LINE
  5
230B
330
18
100
AcDbEntity
  8
1
  6
Continuous
100
AcDbLine
 10
20.90765523474527
 20
102.8089640853911
 30
0.0
 11
21.50765526324375
 21
102.8089640853911
 31
0.0
  0
LINE
  5
230C
330
18
100
AcDbEntity
  8
1
  6
Continuous
100
AcDbLine
 10
15.79864774138189
 20
107.8089643228783
 30
0.0
 11
20.81666286259144
 21
107.8089643228783
 31
0.0
  0
LINE
  5
230D
330
18
100
AcDbEntity
  8
1
  6
Continuous
100
AcDbLine
 10
15.79864774138189
 20
107.8089643228783
 30
0.0
 11
15.70765494317896
 21
107.5589636644828
 31
0.0
  0
LINE
  5
230E
330
18
100
AcDbEntity
  8
1
  6
Continuous
100
AcDbLine
 10
20.90765523474527
 20
106.8124542468807
 30
0.0
 11
21.50765526324375
 21
106.8124542468807
 31
0.0
  0
LINE
  5
230F
330
18
100
AcDbEntity
  8
1
  6
Continuous
100
AcDbLine
 10
20.90765523474527
 20
106.6980515666388
 30
0.0
 11
21.50765526324375
 21
106.6980515666388
 31
0.0
  0
LINE
  5
2310
330
18
100
AcDbEntity
  8
1
  6
Continuous
100
AcDbLine
 10
20.90765523474527
 20
105.0645248575718
 30
0.0
 11
21.50765526324375
 21
105.0645248575718
 31
0.0
  0
LINE
  5
2311
330
18
100
AcDbEntity
  8
1
  6
Continuous
100
AcDbLine
 10
20.90765523474527
 20
104.9137230633701
 30
0.0
 11
21.50765526324375
 21
104.9137230633701
 31
0.0
  0
LINE
  5
2312
330
18
100
AcDbEntity
  8
1
  6
Continuous
100
AcDbLine
 10
20.90765523474527
 20
102.9732067874075
 30
0.0
 11
21.50765526324375
 21
102.9732067874075
 31
0.0
  0
LINE
  5
2313
330
18
100
AcDbEntity
  8
1
  6
Continuous
100
AcDbLine
 10
20.90765523474493
 20
108.3089643466271
 30
0.0
 11
21.5076552632438
 21
108.3089643466271
 31
0.0
  0
LINE
  5
2314
330
18
100
AcDbEntity
  8
1
  6
Continuous
100
AcDbLine
 10
20.90765523474527
 20
107.9508885508324
 30
0.0
 11
21.50765526324375
 21
107.9508885508324
 31
0.0
  0
LINE
  5
2315
330
18
100
AcDbEntity
  8
1
  6
Continuous
100
AcDbLine
 10
20.90765523474527
 20
107.558964835043
 30
0.0
 11
20.81666286259144
 21
107.8089643228783
 31
0.0
  0
LINE
  5
2316
330
18
100
AcDbEntity
  8
1
  6
Continuous
100
AcDbLine
 10
21.40765525849403
 20
111.8276274664124
 30
0.0
 11
22.0076552869925
 21
111.8276274664124
 31
0.0
  0
LINE
  5
2317
330
18
100
AcDbEntity
  8
1
  6
Continuous
100
AcDbLine
 10
21.40765525849403
 20
111.4114177553848
 30
0.0
 11
22.0076552869925
 21
111.4114177553848
 31
0.0
  0
LINE
  5
2318
330
18
100
AcDbEntity
  8
1
  6
Continuous
100
AcDbLine
 10
21.40765525849408
 20
111.408964875339
 30
0.0
 11
22.0076552869925
 21
111.408964875339
 31
0.0
  0
LINE
  5
2319
330
18
100
AcDbEntity
  8
1
  6
Continuous
100
AcDbLine
 10
21.31666288634025
 20
111.9089648990878
 30
0.0
 11
21.40765525849403
 21
112.158964386923
 31
0.0
  0
LINE
  5
231A
330
18
100
AcDbEntity
  8
1
  6
Continuous
100
AcDbLine
 10
21.40765525849403
 20
113.0198776553272
 30
0.0
 11
22.0076552869925
 21
113.0198776553272
 31
0.0
  0
LINE
  5
231B
330
18
100
AcDbEntity
  8
1
  6
Continuous
100
AcDbLine
 10
16.20765496692771
 20
112.1589655574832
 30
0.0
 11
16.29864776513065
 21
111.9089648990878
 31
0.0
  0
LINE
  5
231C
330
18
100
AcDbEntity
  8
1
  6
Continuous
100
AcDbLine
 10
16.29864776513065
 20
111.9089648990878
 30
0.0
 11
21.31666288634025
 21
111.9089648990878
 31
0.0
  0
LINE
  5
231D
330
18
100
AcDbEntity
  8
1
  6
Continuous
100
AcDbLine
 10
14.50765531223135
 20
105.8089642278834
 30
0.0
 11
13.50765526473395
 21
104.808964180386
 31
0.0
  0
LINE
  5
231E
330
18
100
AcDbEntity
  8
2
  6
Continuous
 48
0.2
100
AcDbLine
 10
13.96615516973912
 20
105.2674640853912
 30
0.0
 11
15.70765517849332
 21
105.2674640853912
 31
0.0
  0
LINE
  5
231F
330
18
100
AcDbEntity
  8
1
  6
Continuous
100
AcDbLine
 10
9.607655079493897
 20
119.9089652790673
 30
0.0
 11
16.20765520224216
 21
119.9089652790673
 31
0.0
  0
LINE
  5
2320
330
18
100
AcDbEntity
  8
1
  6
Continuous
100
AcDbLine
 10
16.20765520224216
 20
113.9089649940826
 30
0.0
 11
9.607655079493897
 21
113.9089649940826
 31
0.0
  0
LINE
  5
2321
330
18
100
AcDbEntity
  8
1
  6
Continuous
100
AcDbLine
 10
21.40765525849403
 20
113.1377492317967
 30
0.0
 11
22.0076552869925
 21
113.1377492317967
 31
0.0
  0
LINE
  5
2322
330
18
100
AcDbEntity
  8
1
  6
Continuous
100
AcDbLine
 10
21.40765525849403
 20
114.9568853059091
 30
0.0
 11
22.0076552869925
 21
114.9568853059091
 31
0.0
  0
LINE
  5
2323
330
18
100
AcDbEntity
  8
1
  6
Continuous
100
AcDbLine
 10
21.40765525849403
 20
114.804206158596
 30
0.0
 11
22.0076552869925
 21
114.804206158596
 31
0.0
  0
LINE
  5
2324
330
18
100
AcDbEntity
  8
1
  6
Continuous
100
AcDbLine
 10
21.40765525849403
 20
121.6589658862267
 30
0.0
 11
21.31666288634019
 21
121.9089653740621
 31
0.0
  0
LINE
  5
2325
330
18
100
AcDbEntity
  8
1
  6
Continuous
100
AcDbLine
 10
21.40765525849403
 20
122.0508896020162
 30
0.0
 11
22.0076552869925
 21
122.0508896020162
 31
0.0
  0
LINE
  5
2326
330
18
100
AcDbEntity
  8
1
  6
Continuous
100
AcDbLine
 10
21.40765525849368
 20
122.4089653978109
 30
0.0
 11
22.00765528699256
 21
122.4089653978109
 31
0.0
  0
LINE
  5
2327
330
18
100
AcDbEntity
  8
1
  6
Continuous
100
AcDbLine
 10
21.40765525849403
 20
117.0732078385913
 30
0.0
 11
22.0076552869925
 21
117.0732078385913
 31
0.0
  0
LINE
  5
2328
330
18
100
AcDbEntity
  8
1
  6
Continuous
100
AcDbLine
 10
21.40765525849403
 20
119.0137241145538
 30
0.0
 11
22.0076552869925
 21
119.0137241145538
 31
0.0
  0
LINE
  5
2329
330
18
100
AcDbEntity
  8
1
  6
Continuous
100
AcDbLine
 10
21.40765525849403
 20
119.1645259087555
 30
0.0
 11
22.0076552869925
 21
119.1645259087555
 31
0.0
  0
LINE
  5
232A
330
18
100
AcDbEntity
  8
1
  6
Continuous
100
AcDbLine
 10
21.40765525849403
 20
120.7980526178227
 30
0.0
 11
22.0076552869925
 21
120.7980526178227
 31
0.0
  0
LINE
  5
232B
330
18
100
AcDbEntity
  8
1
  6
Continuous
100
AcDbLine
 10
21.40765525849403
 20
120.9124552980645
 30
0.0
 11
22.0076552869925
 21
120.9124552980645
 31
0.0
  0
LINE
  5
232C
330
18
100
AcDbEntity
  8
1
  6
Continuous
100
AcDbLine
 10
16.29864776513065
 20
121.9089653740621
 30
0.0
 11
16.20765496692771
 21
121.6589647156666
 31
0.0
  0
LINE
  5
232D
330
18
100
AcDbEntity
  8
1
  6
Continuous
100
AcDbLine
 10
16.29864776513065
 20
121.9089653740621
 30
0.0
 11
21.31666288634019
 21
121.9089653740621
 31
0.0
  0
LINE
  5
232E
330
18
100
AcDbEntity
  8
1
  6
Continuous
100
AcDbLine
 10
21.40765525849403
 20
116.9089651365749
 30
0.0
 11
22.0076552869925
 21
116.9089651365749
 31
0.0
  0
LINE
  5
232F
330
18
100
AcDbEntity
  8
1
  6
Continuous
100
AcDbLine
 10
16.58017973447769
 20
116.908965136575
 30
0.0
 11
21.0351309169932
 21
116.908965136575
 31
0.0
  0
ARC
  5
2330
330
18
100
AcDbEntity
  8
1
  6
Continuous
100
AcDbCircle
 10
10.07587319473972
 20
119.4089652553186
 30
0.0
 40
11.24078869192407
100
AcDbArc
 50
347.1497095614944
 51
12.85029043850561
  0
ARC
  5
2331
330
18
100
AcDbEntity
  8
1
  6
Continuous
100
AcDbCircle
 10
27.53943745673106
 20
119.4089652553186
 30
0.0
 40
11.24078869192407
100
AcDbArc
 50
167.1497095614943
 51
192.8502904385055
  0
LINE
  5
2332
330
18
100
AcDbEntity
  8
1
  6
Continuous
100
AcDbLine
 10
8.007655003497973
 20
114.4084650677976
 30
0.0
 11
8.007655003497973
 21
119.4094652053523
 31
0.0
  0
LINE
  5
2333
330
18
100
AcDbEntity
  8
1
  6
Continuous
100
AcDbLine
 10
8.007655003497973
 20
114.4084650677976
 30
0.0
 11
8.457655024871938
 21
113.9509251045257
 31
0.0
  0
LINE
  5
2334
330
18
100
AcDbEntity
  8
1
  6
Continuous
100
AcDbLine
 10
9.607655079493897
 20
113.9509251045258
 30
0.0
 11
9.607655079493897
 21
113.9089649940826
 31
0.0
  0
LINE
  5
2335
330
18
100
AcDbEntity
  8
1
  6
Continuous
100
AcDbLine
 10
8.457655024871938
 20
119.8670051686242
 30
0.0
 11
8.007655003497973
 21
119.4094652053523
 31
0.0
  0
LINE
  5
2336
330
18
100
AcDbEntity
  8
1
  6
Continuous
100
AcDbLine
 10
9.607655079493897
 20
119.9089652790673
 30
0.0
 11
9.607655079493897
 21
119.8670051686241
 31
0.0
  0
LINE
  5
2337
330
18
100
AcDbEntity
  8
1
  6
Continuous
100
AcDbLine
 10
9.607655079493897
 20
119.8670051686243
 30
0.0
 11
8.457655024871883
 21
119.8670051686243
 31
0.0
  0
LINE
  5
2338
330
18
100
AcDbEntity
  8
1
  6
Continuous
100
AcDbLine
 10
8.457655024871883
 20
113.9509251045258
 30
0.0
 11
8.457655024871883
 21
119.8670051686241
 31
0.0
  0
LINE
  5
2339
330
18
100
AcDbEntity
  8
1
  6
Continuous
100
AcDbLine
 10
9.607655079493897
 20
113.9509251045258
 30
0.0
 11
8.457655024871883
 21
113.9509251045258
 31
0.0
  0
ARC
  5
233A
330
18
100
AcDbEntity
  8
1
  6
Continuous
100
AcDbCircle
 10
9.575873170990972
 20
133.5089663065021
 30
0.0
 40
11.24078869192407
100
AcDbArc
 50
347.1497095614943
 51
12.85029043850559
  0
ARC
  5
233B
330
18
100
AcDbEntity
  8
1
  6
Continuous
100
AcDbCircle
 10
27.03943743298231
 20
133.5089663065021
 30
0.0
 40
11.24078869192407
100
AcDbArc
 50
167.1497095614943
 51
192.8502904385056
  0
LINE
  5
233C
330
18
100
AcDbEntity
  8
1
  6
Continuous
100
AcDbLine
 10
20.90765523474533
 20
136.5089664489947
 30
0.0
 11
20.90765523474493
 21
125.5089659265227
 31
0.0
  0
LINE
  5
233D
330
18
100
AcDbEntity
  8
1
  6
Continuous
100
AcDbLine
 10
21.5076552632438
 20
125.5089659265227
 30
0.0
 11
21.50765526324375
 21
136.5089664489947
 31
0.0
  0
LINE
  5
233E
330
18
100
AcDbEntity
  8
1
  6
Continuous
100
AcDbLine
 10
15.70765494317896
 20
126.2589666086671
 30
0.0
 11
15.70765494317896
 21
135.7589657668504
 31
0.0
  0
LINE
  5
233F
330
18
100
AcDbEntity
  8
1
  6
Continuous
100
AcDbLine
 10
13.50765526473395
 20
129.0089660927638
 30
0.0
 11
13.50765526473392
 21
133.0089662827536
 31
0.0
  0
LINE
  5
2340
330
18
100
AcDbEntity
  8
1
  6
Continuous
100
AcDbLine
 10
14.50765531223135
 20
128.0089660452664
 30
0.0
 11
14.50765531223135
 21
134.008966330251
 31
0.0
  0
LINE
  5
2341
330
18
100
AcDbEntity
  8
1
  6
Continuous
100
AcDbLine
 10
20.90765523474527
 20
126.2589654381069
 30
0.0
 11
20.81666286259144
 21
126.0089659502715
 31
0.0
  0
LINE
  5
2342
330
18
100
AcDbEntity
  8
1
  6
Continuous
100
AcDbLine
 10
20.90765523474527
 20
125.8670417223175
 30
0.0
 11
21.50765526324375
 21
125.8670417223175
 31
0.0
  0
LINE
  5
2343
330
18
100
AcDbEntity
  8
1
  6
Continuous
100
AcDbLine
 10
20.90765523474493
 20
125.5089659265227
 30
0.0
 11
21.5076552632438
 21
125.5089659265227
 31
0.0
  0
LINE
  5
2344
330
18
100
AcDbEntity
  8
1
  6
Continuous
100
AcDbLine
 10
20.90765523474527
 20
130.8447234857423
 30
0.0
 11
21.50765526324375
 21
130.8447234857423
 31
0.0
  0
LINE
  5
2345
330
18
100
AcDbEntity
  8
1
  6
Continuous
100
AcDbLine
 10
20.90765523474527
 20
128.9042072097798
 30
0.0
 11
21.50765526324375
 21
128.9042072097798
 31
0.0
  0
LINE
  5
2346
330
18
100
AcDbEntity
  8
1
  6
Continuous
100
AcDbLine
 10
20.90765523474527
 20
128.7534054155781
 30
0.0
 11
21.50765526324375
 21
128.7534054155781
 31
0.0
  0
LINE
  5
2347
330
18
100
AcDbEntity
  8
1
  6
Continuous
100
AcDbLine
 10
20.90765523474527
 20
127.119878706511
 30
0.0
 11
21.50765526324375
 21
127.119878706511
 31
0.0
  0
LINE
  5
2348
330
18
100
AcDbEntity
  8
1
  6
Continuous
100
AcDbLine
 10
20.90765523474527
 20
127.0054760262691
 30
0.0
 11
21.50765526324375
 21
127.0054760262691
 31
0.0
  0
LINE
  5
2349
330
18
100
AcDbEntity
  8
1
  6
Continuous
100
AcDbLine
 10
15.79864774138189
 20
126.0089659502715
 30
0.0
 11
15.70765494317896
 21
126.2589666086671
 31
0.0
  0
LINE
  5
234A
330
18
100
AcDbEntity
  8
1
  6
Continuous
100
AcDbLine
 10
15.79864774138189
 20
126.0089659502715
 30
0.0
 11
20.81666286259144
 21
126.0089659502715
 31
0.0
  0
LINE
  5
234B
330
18
100
AcDbEntity
  8
1
  6
Continuous
100
AcDbLine
 10
20.90765523474527
 20
131.0089661877587
 30
0.0
 11
21.50765526324375
 21
131.0089661877587
 31
0.0
  0
LINE
  5
234C
330
18
100
AcDbEntity
  8
1
  6
Continuous
100
AcDbLine
 10
16.08017971072894
 20
131.0089661877586
 30
0.0
 11
20.53513089324445
 21
131.0089661877586
 31
0.0
  0
ARC
  5
234D
330
18
100
AcDbEntity
  8
1
  6
Continuous
100
AcDbCircle
 10
9.575873170990972
 20
128.5089660690151
 30
0.0
 40
11.24078869192407
100
AcDbArc
 50
347.1497095614943
 51
12.85029043850559
  0
ARC
  5
234E
330
18
100
AcDbEntity
  8
1
  6
Continuous
100
AcDbCircle
 10
27.03943743298231
 20
128.5089660690151
 30
0.0
 40
11.24078869192407
100
AcDbArc
 50
167.1497095614943
 51
192.8502904385056
  0
LINE
  5
234F
330
18
100
AcDbEntity
  8
1
  6
Continuous
100
AcDbLine
 10
20.90765523474527
 20
132.9610460184246
 30
0.0
 11
21.50765526324375
 21
132.9610460184246
 31
0.0
  0
LINE
  5
2350
330
18
100
AcDbEntity
  8
1
  6
Continuous
100
AcDbLine
 10
20.90765523474527
 20
133.1137251657377
 30
0.0
 11
21.50765526324375
 21
133.1137251657377
 31
0.0
  0
LINE
  5
2351
330
18
100
AcDbEntity
  8
1
  6
Continuous
100
AcDbLine
 10
14.5076553122314
 20
134.0089663302511
 30
0.0
 11
15.70765517849338
 21
134.0089663302511
 31
0.0
  0
LINE
  5
2352
330
18
100
AcDbEntity
  8
1
  6
Continuous
100
AcDbLine
 10
15.70765517849338
 20
128.0089660452664
 30
0.0
 11
14.50765531223135
 21
128.0089660452664
 31
0.0
  0
LINE
  5
2353
330
18
100
AcDbEntity
  8
2
  6
Continuous
 48
0.2
100
AcDbLine
 10
13.96615516973912
 20
128.5504661877587
 30
0.0
 11
15.70765517849332
 21
128.5504661877587
 31
0.0
  0
LINE
  5
2354
330
18
100
AcDbEntity
  8
2
  6
Continuous
 48
0.2
100
AcDbLine
 10
13.96615516973912
 20
133.4674661877587
 30
0.0
 11
15.70765517849332
 21
133.4674661877587
 31
0.0
  0
LINE
  5
2355
330
18
100
AcDbEntity
  8
1
  6
Continuous
100
AcDbLine
 10
13.50765526473392
 20
133.0089662827536
 30
0.0
 11
14.5076553122314
 21
134.0089663302511
 31
0.0
  0
LINE
  5
2356
330
18
100
AcDbEntity
  8
1
  6
Continuous
100
AcDbLine
 10
14.50765531223135
 20
128.0089660452664
 30
0.0
 11
13.50765526473395
 21
129.0089660927638
 31
0.0
  0
LINE
  5
2357
330
18
100
AcDbEntity
  8
1
  6
Continuous
100
AcDbLine
 10
20.90765523474527
 20
136.0903038579212
 30
0.0
 11
21.50765526324375
 21
136.0903038579212
 31
0.0
  0
LINE
  5
2358
330
18
100
AcDbEntity
  8
1
  6
Continuous
100
AcDbLine
 10
20.90765523474527
 20
136.5065135689489
 30
0.0
 11
21.50765526324375
 21
136.5065135689489
 31
0.0
  0
LINE
  5
2359
330
18
100
AcDbEntity
  8
1
  6
Continuous
100
AcDbLine
 10
20.90765523474533
 20
136.5089664489947
 30
0.0
 11
21.50765526324375
 21
136.5089664489947
 31
0.0
  0
LINE
  5
235A
330
18
100
AcDbEntity
  8
1
  6
Continuous
100
AcDbLine
 10
20.81666286259149
 20
136.0089664252459
 30
0.0
 11
20.90765523474527
 21
135.7589669374106
 31
0.0
  0
LINE
  5
235B
330
18
100
AcDbEntity
  8
1
  6
Continuous
100
AcDbLine
 10
20.90765523474527
 20
134.7801820925369
 30
0.0
 11
21.50765526324375
 21
134.7801820925369
 31
0.0
  0
LINE
  5
235C
330
18
100
AcDbEntity
  8
1
  6
Continuous
100
AcDbLine
 10
20.90765523474527
 20
134.8980536690065
 30
0.0
 11
21.50765526324375
 21
134.8980536690065
 31
0.0
  0
LINE
  5
235D
330
18
100
AcDbEntity
  8
1
  6
Continuous
100
AcDbLine
 10
15.70765494317896
 20
135.7589657668504
 30
0.0
 11
15.79864774138189
 21
136.0089664252459
 31
0.0
  0
LINE
  5
235E
330
18
100
AcDbEntity
  8
1
  6
Continuous
100
AcDbLine
 10
15.79864774138189
 20
136.0089664252459
 30
0.0
 11
20.81666286259149
 21
136.0089664252459
 31
0.0
  0
LINE
  5
247F
330
18
100
AcDbEntity
  8
4
  6
CENTER
 48
0.15
100
AcDbLine
 10
99.5708093677562
 20
58.65148338395361
 30
0.0
 11
117.5708099377255
 21
58.65148338395361
 31
0.0
  0
LINE
  5
2480
330
18
100
AcDbEntity
  8
2
  6
Continuous
 48
0.2
100
AcDbLine
 10
177.9209761360425
 20
119.3674651365749
 30
0.0
 11
170.1794760776179
 21
119.3674651365749
 31
0.0
  0
LINE
  5
2481
330
18
100
AcDbEntity
  8
2
  6
Continuous
 48
0.2
100
AcDbLine
 10
177.9209761360425
 20
114.4504651365749
 30
0.0
 11
170.1794758423034
 21
114.4504651365749
 31
0.0
  0
LINE
  5
2482
330
18
100
AcDbEntity
  8
2
  6
Continuous
 48
0.2
100
AcDbLine
 10
164.3794757575531
 20
114.450465136575
 30
0.0
 11
162.3794752810884
 21
114.450465136575
 31
0.0
  0
LINE
  5
2483
330
18
100
AcDbEntity
  8
2
  6
Continuous
 48
0.2
100
AcDbLine
 10
164.3794757575531
 20
119.3674651365749
 30
0.0
 11
162.3794752810884
 21
119.3674651365749
 31
0.0
  0
LINE
  5
2488
330
18
100
AcDbEntity
  8
2
  6
Continuous
 48
0.2
100
AcDbLine
 10
22.00765528699253
 20
114.450465136575
 30
0.0
 11
24.00765576345719
 21
114.450465136575
 31
0.0
  0
LINE
  5
2489
330
18
100
AcDbEntity
  8
2
  6
Continuous
 48
0.2
100
AcDbLine
 10
22.00765528699253
 20
119.3674651365749
 30
0.0
 11
24.00765576345719
 21
119.3674651365749
 31
0.0
  0
LINE
  5
248A
330
18
100
AcDbEntity
  8
2
  6
Continuous
 48
0.2
100
AcDbLine
 10
8.466154908503142
 20
119.3674651365749
 30
0.0
 11
16.20765496692771
 21
119.3674651365749
 31
0.0
  0
LINE
  5
248B
330
18
100
AcDbEntity
  8
2
  6
Continuous
 48
0.2
100
AcDbLine
 10
8.466154908503142
 20
114.4504651365749
 30
0.0
 11
16.20765520224216
 21
114.4504651365749
 31
0.0
  0
LINE
  5
2E1A
330
18
100
AcDbEntity
  8
1
  6
Continuous
100
AcDbLine
 10
32.00765638092406
 20
110.4089648278413
 30
0.0
 11
32.00765638092406
 21
123.4089654453083
 31
0.0
  0
LINE
  5
2E1B
330
18
100
AcDbEntity
  8
1
  6
Continuous
100
AcDbLine
 10
238.1881419543799
 20
110.4089648278415
 30
0.0
 11
238.1881419543799
 21
123.4089654453084
 31
0.0
  0
ENDSEC
  0
SECTION
  2
OBJECTS
  0
DICTIONARY
  5
C
330
0
100
AcDbDictionary
281
     1
  3
ACAD_CIP_PREVIOUS_PRODUCT_INFO
350
2E8C
  3
ACAD_COLOR
350
2E6F
  3
ACAD_DETAILVIEWSTYLE
350
2E88
  3
ACAD_GROUP
350
D
  3
ACAD_LAYOUT
350
94
  3
ACAD_MATERIAL
350
2E3D
  3
ACAD_MLEADERSTYLE
350
2E84
  3
ACAD_MLINESTYLE
350
1B
  3
ACAD_PLOTSETTINGS
350
95
  3
ACAD_PLOTSTYLENAME
350
2E3B
  3
ACAD_SCALELIST
350
2E72
  3
ACAD_SECTIONVIEWSTYLE
350
2E86
  3
ACAD_TABLESTYLE
350
2E70
  3
ACAD_VISUALSTYLE
350
2E56
  3
ACDB_RECOMPOSE_DATA
350
2EAA
  3
AcDbVariableDictionary
350
2E9D
  3
CONTENTDICTIONARY
350
3D
  3
DWGPROPS
350
2EAB
  0
DICTIONARY
  5
2E8D
330
E
100
AcDbDictionary
280
     1
281
     1
  3
ADSK_XREC_LAYER_RECONCILED
360
2E8E
  0
DICTIONARY
  5
2E8F
330
4E
100
AcDbDictionary
280
     1
281
     1
  3
ADSK_XREC_LAYER_RECONCILED
360
2E90
  0
DICTIONARY
  5
2E91
330
4F
100
AcDbDictionary
280
     1
281
     1
  3
ADSK_XREC_LAYER_RECONCILED
360
2E92
  0
DICTIONARY
  5
2E93
330
50
100
AcDbDictionary
280
     1
281
     1
  3
ADSK_XREC_LAYER_RECONCILED
360
2E94
  0
DICTIONARY
  5
2E95
330
51
100
AcDbDictionary
280
     1
281
     1
  3
ADSK_XREC_LAYER_RECONCILED
360
2E96
  0
DICTIONARY
  5
2E97
330
52
100
AcDbDictionary
280
     1
281
     1
  3
ADSK_XREC_LAYER_RECONCILED
360
2E98
  0
DICTIONARY
  5
2E99
330
53
100
AcDbDictionary
280
     1
281
     1
  3
ADSK_XREC_LAYER_RECONCILED
360
2E9A
  0
DICTIONARY
  5
2E9B
330
54
100
AcDbDictionary
280
     1
281
     1
  3
ADSK_XREC_LAYER_RECONCILED
360
2E9C
  0
DICTIONARY
  5
2E36
330
18
100
AcDbDictionary
281
     1
  3
ACAD_LAYOUTSELFREF
350
2E37
  0
DICTIONARY
  5
2E34
330
15
100
AcDbDictionary
281
     1
  3
ACAD_LAYOUTSELFREF
350
2E35
  0
XRECORD
  5
2E8C
102
{ACAD_REACTORS
330
C
102
}
330
C
100
AcDbXrecord
280
     1
300
ACDLT
300
2014
300
ACDLT_F_S
  0
DICTIONARY
  5
2E6F
102
{ACAD_REACTORS
330
C
102
}
330
C
100
AcDbDictionary
281
     1
  0
DICTIONARY
  5
2E88
102
{ACAD_REACTORS
330
C
102
}
330
C
100
AcDbDictionary
281
     1
  3
Imperial24
350
2E89
  0
DICTIONARY
  5
D
102
{ACAD_REACTORS
330
C
102
}
330
C
100
AcDbDictionary
281
     1
  0
DICTIONARY
  5
94
102
{ACAD_REACTORS
330
C
102
}
330
C
100
AcDbDictionary
281
     1
  3
Model
350
2E8A
  3
レイアウト1
350
2E8B
  0
DICTIONARY
  5
2E3D
102
{ACAD_REACTORS
330
C
102
}
330
C
100
AcDbDictionary
281
     1
  3
ByBlock
350
2E46
  3
ByLayer
350
2E3E
  3
Global
350
2E4E
  0
DICTIONARY
  5
2E84
102
{ACAD_REACTORS
330
C
102
}
330
C
100
AcDbDictionary
281
     1
  3
Standard
350
2E85
  0
DICTIONARY
  5
1B
102
{ACAD_REACTORS
330
C
102
}
330
C
100
AcDbDictionary
281
     1
  3
STANDARD
350
1C
  0
DICTIONARY
  5
95
102
{ACAD_REACTORS
330
C
102
}
330
C
100
AcDbDictionary
281
     1
  0
ACDBDICTIONARYWDFLT
  5
2E3B
102
{ACAD_REACTORS
330
C
102
}
330
C
100
AcDbDictionary
281
     1
  3
Normal
350
2E3C
100
AcDbDictionaryWithDefault
340
2E3C
  0
DICTIONARY
  5
2E72
102
{ACAD_REACTORS
330
C
102
}
330
C
100
AcDbDictionary
281
     1
  3
A0
350
2E73
  3
A1
350
2E74
  3
A2
350
2E75
  3
A3
350
2E76
  3
A4
350
2E77
  3
A5
350
2E78
  3
A6
350
2E79
  3
A7
350
2E7A
  3
A8
350
2E7B
  3
A9
350
2E7C
  3
B0
350
2E7D
  3
B1
350
2E7E
  3
B2
350
2E7F
  3
B3
350
2E80
  3
B4
350
2E81
  3
B5
350
2E82
  3
B6
350
2E83
  0
DICTIONARY
  5
2E86
102
{ACAD_REACTORS
330
C
102
}
330
C
100
AcDbDictionary
281
     1
  3
Imperial24
350
2E87
  0
DICTIONARY
  5
2E70
102
{ACAD_REACTORS
330
C
102
}
330
C
100
AcDbDictionary
281
     1
  3
Standard
350
2E71
  0
DICTIONARY
  5
2E56
102
{ACAD_REACTORS
330
C
102
}
330
C
100
AcDbDictionary
281
     1
  3
2dWireframe
350
2E5C
  3
Basic
350
2E5B
  3
Brighten
350
2E62
  3
ColorChange
350
2E66
  3
Conceptual
350
2E5F
  3
Dim
350
2E61
  3
EdgeColorOff
350
2E6E
  3
Facepattern
350
2E65
  3
Flat
350
2E57
  3
FlatWithEdges
350
2E58
  3
Gouraud
350
2E59
  3
GouraudWithEdges
350
2E5A
  3
Hidden
350
2E5E
  3
JitterOff
350
2E6C
  3
Linepattern
350
2E64
  3
OverhangOff
350
2E6D
  3
Realistic
350
2E60
  3
Shaded
350
2E6B
  3
Shaded with edges
350
2E6A
  3
Shades of Gray
350
2E67
  3
Sketchy
350
2E68
  3
Thicken
350
2E63
  3
Wireframe
350
2E5D
  3
X-Ray
350
2E69
  0
XRECORD
  5
2EAA
102
{ACAD_REACTORS
330
C
102
}
330
C
100
AcDbXrecord
280
     1
 90
        1
330
2E71
  0
DICTIONARY
  5
2E9D
102
{ACAD_REACTORS
330
C
102
}
330
C
100
AcDbDictionary
281
     1
  3
CANNOSCALE
350
2EA2
  3
CMLEADERSTYLE
350
2E9F
  3
CTABLESTYLE
350
2E9E
  3
CVIEWDETAILSTYLE
350
2EA0
  3
CVIEWSECTIONSTYLE
350
2EA1
  3
DIMASSOC
350
2EA5
  3
INDEXCTL
350
2EA4
  3
SORTENTS
350
2EA3
  3
XCLIPFRAME
350
2EA6
  0
DICTIONARY
  5
3D
102
{ACAD_REACTORS
330
C
102
}
330
C
100
AcDbDictionary
281
     1
  0
XRECORD
  5
2EAB
102
{ACAD_REACTORS
330
C
102
}
330
C
100
AcDbXrecord
280
     1
  1
DWGPROPS COOKIE
  2

  3

  4

  6

  7

  8
Yoshitsune
  9

300
=
301
=
302
=
303
=
304
=
305
=
306
=
307
=
308
=
309
=
 40
0.0558567592592593
 41
2453768.664448055
 42
2457192.701003264
  1

 90
        0
  0
XRECORD
  5
2E8E
102
{ACAD_REACTORS
330
2E8D
102
}
330
2E8D
100
AcDbXrecord
280
     1
290
     1
  0
XRECORD
  5
2E90
102
{ACAD_REACTORS
330
2E8F
102
}
330
2E8F
100
AcDbXrecord
280
     1
290
     1
  0
XRECORD
  5
2E92
102
{ACAD_REACTORS
330
2E91
102
}
330
2E91
100
AcDbXrecord
280
     1
290
     1
  0
XRECORD
  5
2E94
102
{ACAD_REACTORS
330
2E93
102
}
330
2E93
100
AcDbXrecord
280
     1
290
     1
  0
XRECORD
  5
2E96
102
{ACAD_REACTORS
330
2E95
102
}
330
2E95
100
AcDbXrecord
280
     1
290
     1
  0
XRECORD
  5
2E98
102
{ACAD_REACTORS
330
2E97
102
}
330
2E97
100
AcDbXrecord
280
     1
290
     1
  0
XRECORD
  5
2E9A
102
{ACAD_REACTORS
330
2E99
102
}
330
2E99
100
AcDbXrecord
280
     1
290
     1
  0
XRECORD
  5
2E9C
102
{ACAD_REACTORS
330
2E9B
102
}
330
2E9B
100
AcDbXrecord
280
     1
290
     1
  0
XRECORD
  5
2E37
102
{ACAD_REACTORS
330
2E36
102
}
330
2E36
100
AcDbXrecord
280
     1
340
18
  0
XRECORD
  5
2E35
102
{ACAD_REACTORS
330
2E34
102
}
330
2E34
100
AcDbXrecord
280
     1
340
15
  0
ACDBDETAILVIEWSTYLE
  5
2E89
102
{ACAD_XDICTIONARY
360
2EE3
102
}
102
{ACAD_REACTORS
330
2E88
102
}
330
2E88
100
AcDbModelDocViewStyle
 70
     0
  3
Imperial24
290
     0
100
AcDbDetailViewStyle
 70
     0
 71
     0
 90
        3
 71
     1
340
F
 40
0.24
340
0
 40
0.24
300

 40
0.36
280
     3
 71
     2
340
14
 90
       25
 71
     3
340
F
 40
0.24
 90
        1
 40
0.75
 90
        1
300
%<\AcVar ViewType \f "%tc1">% %<\AcVar ViewDetailId>%\PSCALE %<\AcVar ViewScale \f "%sn">%
 71
     4
340
14
 90
       25
340
14
 90
       25
280
     0
  0
LAYOUT
  5
2E8A
102
{ACAD_XDICTIONARY
360
2EE5
102
}
102
{ACAD_REACTORS
330
94
102
}
330
94
100
AcDbPlotSettings
  1

  2
Canon LBP9100C
  4

  6

 40
0.0
 41
0.0
 42
0.0
 43
0.0
 44
0.0
 45
0.0
 46
0.0
 47
0.0
 48
0.0
 49
0.0
140
0.0
141
0.0
142
1.0
143
1.0
 70
  1712
 72
     0
 73
     0
 74
     0
  7

 75
     0
147
1.0
148
0.0
149
0.0
100
AcDbLayout
  1
Model
 70
     1
 71
     0
 10
0.0
 20
0.0
 11
12.0
 21
9.0
 12
0.0
 22
0.0
 32
0.0
 14
0.0
 24
0.0
 34
0.0
 15
0.0
 25
0.0
 35
0.0
146
0.0
 13
0.0
 23
0.0
 33
0.0
 16
1.0
 26
0.0
 36
0.0
 17
0.0
 27
1.0
 37
0.0
 76
     0
330
18
331
2E33
  0
LAYOUT
  5
2E8B
102
{ACAD_XDICTIONARY
360
2EE7
102
}
102
{ACAD_REACTORS
330
94
102
}
330
94
100
AcDbPlotSettings
  1

  2
Canon LBP9100C
  4

  6

 40
0.0
 41
0.0
 42
0.0
 43
0.0
 44
0.0
 45
0.0
 46
0.0
 47
0.0
 48
0.0
 49
0.0
140
0.0
141
0.0
142
1.0
143
1.0
 70
   688
 72
     0
 73
     0
 74
     5
  7

 75
    16
147
1.0
148
0.0
149
0.0
100
AcDbLayout
  1
レイアウト1
 70
     1
 71
     1
 10
-3.757080078125
 20
-3.757083177566528
 11
293.2112426757812
 21
206.2162444591522
 12
0.0
 22
0.0
 32
0.0
 14
27.8447512626648
 24
20.24591643810271
 34
0.0
 15
250.6027613639831
 25
182.2132479429244
 35
0.0
146
0.0
 13
0.0
 23
0.0
 33
0.0
 16
1.0
 26
0.0
 36
0.0
 17
0.0
 27
1.0
 37
0.0
 76
     0
330
15
  0
MATERIAL
  5
2E46
102
{ACAD_XDICTIONARY
360
2E47
102
}
102
{ACAD_REACTORS
330
2E3D
102
}
330
2E3D
100
AcDbMaterial
  1
ByBlock
 72
     0
 43
0.0208333333333333
 43
0.0
 43
0.0
 43
0.0
 43
0.0
 43
0.0208333333333333
 43
0.0
 43
0.0
 43
0.0
 43
0.0
 43
1.0
 43
0.0
 43
0.0
 43
0.0
 43
0.0
 43
1.0
 77
     0
 47
0.0208333333333333
 47
0.0
 47
0.0
 47
0.0
 47
0.0
 47
0.0208333333333333
 47
0.0
 47
0.0
 47
0.0
 47
0.0
 47
1.0
 47
0.0
 47
0.0
 47
0.0
 47
0.0
 47
1.0
171
     0
 49
0.0208333333333333
 49
0.0
 49
0.0
 49
0.0
 49
0.0
 49
0.0208333333333333
 49
0.0
 49
0.0
 49
0.0
 49
0.0
 49
1.0
 49
0.0
 49
0.0
 49
0.0
 49
0.0
 49
1.0
175
     0
142
0.0208333333333333
142
0.0
142
0.0
142
0.0
142
0.0
142
0.0208333333333333
142
0.0
142
0.0
142
0.0
142
0.0
142
1.0
142
0.0
142
0.0
142
0.0
142
0.0
142
1.0
179
     0
144
0.0208333333333333
144
0.0
144
0.0
144
0.0
144
0.0
144
0.0208333333333333
144
0.0
144
0.0
144
0.0
144
0.0
144
1.0
144
0.0
144
0.0
144
0.0
144
0.0
144
1.0
147
0.0208333333333333
147
0.0
147
0.0
147
0.0
147
0.0
147
0.0208333333333333
147
0.0
147
0.0
147
0.0
147
0.0
147
1.0
147
0.0
147
0.0
147
0.0
147
0.0
147
1.0
  0
MATERIAL
  5
2E3E
102
{ACAD_XDICTIONARY
360
2E3F
102
}
102
{ACAD_REACTORS
330
2E3D
102
}
330
2E3D
100
AcDbMaterial
  1
ByLayer
 72
     0
 43
0.0208333333333333
 43
0.0
 43
0.0
 43
0.0
 43
0.0
 43
0.0208333333333333
 43
0.0
 43
0.0
 43
0.0
 43
0.0
 43
1.0
 43
0.0
 43
0.0
 43
0.0
 43
0.0
 43
1.0
 77
     0
 47
0.0208333333333333
 47
0.0
 47
0.0
 47
0.0
 47
0.0
 47
0.0208333333333333
 47
0.0
 47
0.0
 47
0.0
 47
0.0
 47
1.0
 47
0.0
 47
0.0
 47
0.0
 47
0.0
 47
1.0
171
     0
 49
0.0208333333333333
 49
0.0
 49
0.0
 49
0.0
 49
0.0
 49
0.0208333333333333
 49
0.0
 49
0.0
 49
0.0
 49
0.0
 49
1.0
 49
0.0
 49
0.0
 49
0.0
 49
0.0
 49
1.0
175
     0
142
0.0208333333333333
142
0.0
142
0.0
142
0.0
142
0.0
142
0.0208333333333333
142
0.0
142
0.0
142
0.0
142
0.0
142
1.0
142
0.0
142
0.0
142
0.0
142
0.0
142
1.0
179
     0
144
0.0208333333333333
144
0.0
144
0.0
144
0.0
144
0.0
144
0.0208333333333333
144
0.0
144
0.0
144
0.0
144
0.0
144
1.0
144
0.0
144
0.0
144
0.0
144
0.0
144
1.0
147
0.0208333333333333
147
0.0
147
0.0
147
0.0
147
0.0
147
0.0208333333333333
147
0.0
147
0.0
147
0.0
147
0.0
147
1.0
147
0.0
147
0.0
147
0.0
147
0.0
147
1.0
  0
MATERIAL
  5
2E4E
102
{ACAD_XDICTIONARY
360
2E4F
102
}
102
{ACAD_REACTORS
330
2E3D
102
}
330
2E3D
100
AcDbMaterial
  1
Global
 72
     0
 43
0.0208333333333333
 43
0.0
 43
0.0
 43
0.0
 43
0.0
 43
0.0208333333333333
 43
0.0
 43
0.0
 43
0.0
 43
0.0
 43
1.0
 43
0.0
 43
0.0
 43
0.0
 43
0.0
 43
1.0
 77
     0
 47
0.0208333333333333
 47
0.0
 47
0.0
 47
0.0
 47
0.0
 47
0.0208333333333333
 47
0.0
 47
0.0
 47
0.0
 47
0.0
 47
1.0
 47
0.0
 47
0.0
 47
0.0
 47
0.0
 47
1.0
171
     0
 49
0.0208333333333333
 49
0.0
 49
0.0
 49
0.0
 49
0.0
 49
0.0208333333333333
 49
0.0
 49
0.0
 49
0.0
 49
0.0
 49
1.0
 49
0.0
 49
0.0
 49
0.0
 49
0.0
 49
1.0
175
     0
142
0.0208333333333333
142
0.0
142
0.0
142
0.0
142
0.0
142
0.0208333333333333
142
0.0
142
0.0
142
0.0
142
0.0
142
1.0
142
0.0
142
0.0
142
0.0
142
0.0
142
1.0
179
     0
144
0.0208333333333333
144
0.0
144
0.0
144
0.0
144
0.0
144
0.0208333333333333
144
0.0
144
0.0
144
0.0
144
0.0
144
1.0
144
0.0
144
0.0
144
0.0
144
0.0
144
1.0
147
0.0208333333333333
147
0.0
147
0.0
147
0.0
147
0.0
147
0.0208333333333333
147
0.0
147
0.0
147
0.0
147
0.0
147
1.0
147
0.0
147
0.0
147
0.0
147
0.0
147
1.0
  0
MLEADERSTYLE
  5
2E85
102
{ACAD_REACTORS
330
2E84
102
}
330
2E84
100
AcDbMLeaderStyle
170
     2
171
     1
172
     0
 90
        2
 40
0.0
 41
0.0
173
     1
 91
-1056964608
340
12
 92
       -2
290
     1
 42
0.09
291
     1
 43
0.36
  3
Standard
 44
0.18
300

342
F
174
     1
178
     6
175
     1
176
     0
 93
-1056964608
 45
0.18
292
     0
297
     0
 46
0.18
 94
-1056964608
 47
1.0
 49
1.0
140
1.0
293
     1
141
0.0
294
     1
177
     0
142
1.0
295
     0
296
     0
143
0.125
1001
ACAD_MLEADERVER
1070
     2
  0
MLINESTYLE
  5
1C
102
{ACAD_REACTORS
330
1B
102
}
330
1B
100
AcDbMlineStyle
  2
STANDARD
 70
     0
  3

 62
   256
 51
90.0
 52
90.0
 71
     2
 49
0.5
 62
   256
  6
BYLAYER
 49
-0.5
 62
   256
  6
BYLAYER
  0
ACDBPLACEHOLDER
  5
2E3C
102
{ACAD_REACTORS
330
2E3B
102
}
330
2E3B
  0
SCALE
  5
2E73
102
{ACAD_REACTORS
330
2E72
102
}
330
2E72
100
AcDbScale
 70
     0
300
1:1
140
1.0
141
1.0
290
     1
  0
SCALE
  5
2E74
102
{ACAD_REACTORS
330
2E72
102
}
330
2E72
100
AcDbScale
 70
     0
300
1/128" = 1'-0"
140
0.0078125
141
12.0
290
     0
  0
SCALE
  5
2E75
102
{ACAD_REACTORS
330
2E72
102
}
330
2E72
100
AcDbScale
 70
     0
300
1/64" = 1'-0"
140
0.015625
141
12.0
290
     0
  0
SCALE
  5
2E76
102
{ACAD_REACTORS
330
2E72
102
}
330
2E72
100
AcDbScale
 70
     0
300
1/32" = 1'-0"
140
0.03125
141
12.0
290
     0
  0
SCALE
  5
2E77
102
{ACAD_REACTORS
330
2E72
102
}
330
2E72
100
AcDbScale
 70
     0
300
1/16" = 1'-0"
140
0.0625
141
12.0
290
     0
  0
SCALE
  5
2E78
102
{ACAD_REACTORS
330
2E72
102
}
330
2E72
100
AcDbScale
 70
     0
300
3/32" = 1'-0"
140
0.09375
141
12.0
290
     0
  0
SCALE
  5
2E79
102
{ACAD_REACTORS
330
2E72
102
}
330
2E72
100
AcDbScale
 70
     0
300
1/8" = 1'-0"
140
0.125
141
12.0
290
     0
  0
SCALE
  5
2E7A
102
{ACAD_REACTORS
330
2E72
102
}
330
2E72
100
AcDbScale
 70
     0
300
3/16" = 1'-0"
140
0.1875
141
12.0
290
     0
  0
SCALE
  5
2E7B
102
{ACAD_REACTORS
330
2E72
102
}
330
2E72
100
AcDbScale
 70
     0
300
1/4" = 1'-0"
140
0.25
141
12.0
290
     0
  0
SCALE
  5
2E7C
102
{ACAD_REACTORS
330
2E72
102
}
330
2E72
100
AcDbScale
 70
     0
300
3/8" = 1'-0"
140
0.375
141
12.0
290
     0
  0
SCALE
  5
2E7D
102
{ACAD_REACTORS
330
2E72
102
}
330
2E72
100
AcDbScale
 70
     0
300
1/2" = 1'-0"
140
0.5
141
12.0
290
     0
  0
SCALE
  5
2E7E
102
{ACAD_REACTORS
330
2E72
102
}
330
2E72
100
AcDbScale
 70
     0
300
3/4" = 1'-0"
140
0.75
141
12.0
290
     0
  0
SCALE
  5
2E7F
102
{ACAD_REACTORS
330
2E72
102
}
330
2E72
100
AcDbScale
 70
     0
300
1" = 1'-0"
140
1.0
141
12.0
290
     0
  0
SCALE
  5
2E80
102
{ACAD_REACTORS
330
2E72
102
}
330
2E72
100
AcDbScale
 70
     0
300
1-1/2" = 1'-0"
140
1.5
141
12.0
290
     0
  0
SCALE
  5
2E81
102
{ACAD_REACTORS
330
2E72
102
}
330
2E72
100
AcDbScale
 70
     0
300
3" = 1'-0"
140
3.0
141
12.0
290
     0
  0
SCALE
  5
2E82
102
{ACAD_REACTORS
330
2E72
102
}
330
2E72
100
AcDbScale
 70
     0
300
6" = 1'-0"
140
6.0
141
12.0
290
     0
  0
SCALE
  5
2E83
102
{ACAD_REACTORS
330
2E72
102
}
330
2E72
100
AcDbScale
 70
     0
300
1'-0" = 1'-0"
140
12.0
141
12.0
290
     0
  0
ACDBSECTIONVIEWSTYLE
  5
2E87
102
{ACAD_XDICTIONARY
360
2EE1
102
}
102
{ACAD_REACTORS
330
2E86
102
}
330
2E86
100
AcDbModelDocViewStyle
 70
     0
  3
Imperial24
290
     0
100
AcDbSectionViewStyle
 70
     0
 71
     0
 90
       78
 71
     1
340
F
 40
0.24
340
0
340
0
 40
0.24
300
I, O, Q, S, X, Z
 40
0.48
 90
        3
 40
0.18
 90
        1
 71
     2
340
14
 90
       25
340
14
 90
       50
 40
0.24
 40
0.0
 40
0.24
 71
     3
340
F
 40
0.24
 90
        1
 40
0.75
 90
        1
300
%<\AcVar ViewType \f "%tc1">% %<\AcVar ViewSectionStartId>%-%<\AcVar ViewSectionEndId>%\PSCALE %<\AcVar ViewScale \f "%sn">%
 71
     4
300
ANSI31
 40
1.0
 90
        0
290
     0
290
     0
 90
        6
 40
0.0
 40
1.570796326794896
 40
0.2617993877991494
 40
1.308996938995747
 40
-0.2617993877991494
 40
1.832595714594046
  0
TABLESTYLE
  5
2E71
102
{ACAD_XDICTIONARY
360
2EA8
102
}
102
{ACAD_REACTORS
330
2E70
102
}
330
2E70
100
AcDbTableStyle
  3
Standard
 70
     0
 71
     0
 40
0.06
 41
0.06
280
     0
281
     0
  7
STANDARD
140
0.18
170
     2
 62
     0
 63
     7
283
     0
274
    -2
284
     1
 64
     0
275
    -2
285
     1
 65
     0
276
    -2
286
     1
 66
     0
277
    -2
287
     1
 67
     0
278
    -2
288
     1
 68
     0
279
    -2
289
     1
 69
     0
  7
STANDARD
140
0.25
170
     5
 62
     0
 63
     7
283
     0
274
    -2
284
     1
 64
     0
275
    -2
285
     1
 65
     0
276
    -2
286
     1
 66
     0
277
    -2
287
     1
 67
     0
278
    -2
288
     1
 68
     0
279
    -2
289
     1
 69
     0
  7
STANDARD
140
0.18
170
     5
 62
     0
 63
     7
283
     0
274
    -2
284
     1
 64
     0
275
    -2
285
     1
 65
     0
276
    -2
286
     1
 66
     0
277
    -2
287
     1
 67
     0
278
    -2
288
     1
 68
     0
279
    -2
289
     1
 69
     0
  0
VISUALSTYLE
  5
2E5C
102
{ACAD_XDICTIONARY
360
2EB9
102
}
102
{ACAD_REACTORS
330
2E56
102
}
330
2E56
100
AcDbVisualStyle
  2
2dWireframe
 70
     4
 71
     0
 72
     2
 73
     0
 90
        0
 40
-0.6
 41
-30.0
 62
     5
 63
     7
 74
     1
 91
        4
 64
     7
 65
   257
 75
     1
175
     1
 42
1.0
 92
        0
 66
   257
 43
1.0
 76
     1
 77
     6
 78
     2
 67
     7
 79
     5
170
     0
171
     0
290
     0
174
     0
 93
        1
 44
0.0
173
     0
291
     0
 45
0.0
1001
ACAD
1000
AcDbSavedByObjectVersion
1070
     0
  0
VISUALSTYLE
  5
2E5B
102
{ACAD_XDICTIONARY
360
2EB7
102
}
102
{ACAD_REACTORS
330
2E56
102
}
330
2E56
100
AcDbVisualStyle
  2
Basic
 70
     7
 71
     1
 72
     0
 73
     1
 90
        0
 40
-0.6
 41
-30.0
 62
     5
 63
     7
 74
     0
 91
        4
 64
     7
 65
   257
 75
     1
175
     1
 42
1.0
 92
        8
 66
     7
 43
1.0
 76
     1
 77
     6
 78
     2
 67
     7
 79
     5
170
     0
171
     0
290
     0
174
     0
 93
        1
 44
0.0
173
     0
291
     1
 45
0.0
1001
ACAD
1000
AcDbSavedByObjectVersion
1070
     0
  0
VISUALSTYLE
  5
2E62
102
{ACAD_XDICTIONARY
360
2EC5
102
}
102
{ACAD_REACTORS
330
2E56
102
}
330
2E56
100
AcDbVisualStyle
  2
Brighten
 70
    12
 71
     2
 72
     2
 73
     0
 90
        0
 40
-0.6
 41
-30.0
 62
     5
 63
     7
 74
     1
 91
        4
 64
     7
 65
   257
 75
     1
175
     1
 42
1.0
 92
        8
 66
     7
 43
1.0
 76
     1
 77
     6
 78
     2
 67
     7
 79
     5
170
     0
171
     0
290
     0
174
     0
 93
        1
 44
50.0
173
     0
291
     1
 45
0.0
1001
ACAD
1000
AcDbSavedByObjectVersion
1070
     0
  0
VISUALSTYLE
  5
2E66
102
{ACAD_XDICTIONARY
360
2ECD
102
}
102
{ACAD_REACTORS
330
2E56
102
}
330
2E56
100
AcDbVisualStyle
  2
ColorChange
 70
    16
 71
     2
 72
     2
 73
     3
 90
        0
 40
-0.6
 41
-30.0
 62
     5
 63
     8
 74
     1
 91
        4
 64
     7
 65
   257
 75
     1
175
     1
 42
1.0
 92
        8
 66
     8
 43
1.0
 76
     1
 77
     6
 78
     2
 67
     7
 79
     5
170
     0
171
     0
290
     0
174
     0
 93
        1
 44
0.0
173
     0
291
     1
 45
0.0
1001
ACAD
1000
AcDbSavedByObjectVersion
1070
     0
  0
VISUALSTYLE
  5
2E5F
102
{ACAD_XDICTIONARY
360
2EBF
102
}
102
{ACAD_REACTORS
330
2E56
102
}
330
2E56
100
AcDbVisualStyle
  2
Conceptual
 70
     9
 71
     3
 72
     2
 73
     0
 90
        0
 40
-0.6
 41
-30.0
 62
     5
 63
     7
 74
     2
 91
        2
 64
     7
 65
   257
 75
     1
175
     1
 42
179.0
 92
        8
 66
     7
 43
1.0
 76
     1
 77
     6
 78
     2
 67
     7
 79
     3
170
     0
171
     0
290
     0
174
     0
 93
        1
 44
0.0
173
     0
291
     0
 45
0.0
1001
ACAD
1000
AcDbSavedByObjectVersion
1070
     0
  0
VISUALSTYLE
  5
2E61
102
{ACAD_XDICTIONARY
360
2EC3
102
}
102
{ACAD_REACTORS
330
2E56
102
}
330
2E56
100
AcDbVisualStyle
  2
Dim
 70
    11
 71
     2
 72
     2
 73
     0
 90
        0
 40
-0.6
 41
-30.0
 62
     5
 63
     7
 74
     1
 91
        4
 64
     7
 65
   257
 75
     1
175
     1
 42
1.0
 92
        8
 66
     7
 43
1.0
 76
     1
 77
     6
 78
     2
 67
     7
 79
     5
170
     0
171
     0
290
     0
174
     0
 93
        1
 44
-50.0
173
     0
291
     1
 45
0.0
1001
ACAD
1000
AcDbSavedByObjectVersion
1070
     0
  0
VISUALSTYLE
  5
2E6E
102
{ACAD_XDICTIONARY
360
2EDD
102
}
102
{ACAD_REACTORS
330
2E56
102
}
330
2E56
100
AcDbVisualStyle
  2
EdgeColorOff
 70
    22
 71
     2
 72
     2
 73
     0
 90
        0
 40
-0.6
 41
-30.0
 62
     5
 63
     7
 74
     1
 91
        4
 64
     7
 65
   257
 75
     1
175
     1
 42
1.0
 92
        8
 66
     7
 43
1.0
 76
     1
 77
     6
 78
     2
 67
     7
 79
     5
170
     0
171
     0
290
     0
174
     0
 93
        1
 44
0.0
173
     0
291
     1
 45
0.0
1001
ACAD
1000
AcDbSavedByObjectVersion
1070
     0
  0
VISUALSTYLE
  5
2E65
102
{ACAD_XDICTIONARY
360
2ECB
102
}
102
{ACAD_REACTORS
330
2E56
102
}
330
2E56
100
AcDbVisualStyle
  2
Facepattern
 70
    15
 71
     2
 72
     2
 73
     0
 90
        0
 40
-0.6
 41
-30.0
 62
     5
 63
     7
 74
     1
 91
        4
 64
     7
 65
   257
 75
     1
175
     1
 42
1.0
 92
        8
 66
     7
 43
1.0
 76
     1
 77
     6
 78
     2
 67
     7
 79
     5
170
     0
171
     0
290
     0
174
     0
 93
        1
 44
0.0
173
     0
291
     1
 45
0.0
1001
ACAD
1000
AcDbSavedByObjectVersion
1070
     0
  0
VISUALSTYLE
  5
2E57
102
{ACAD_XDICTIONARY
360
2EAF
102
}
102
{ACAD_REACTORS
330
2E56
102
}
330
2E56
100
AcDbVisualStyle
  2
Flat
 70
     0
 71
     2
 72
     1
 73
     1
 90
        2
 40
-0.6
 41
30.0
 62
     5
 63
     7
 74
     0
 91
        0
 64
     7
 65
   257
 75
     1
175
     1
 42
1.0
 92
        8
 66
     7
 43
1.0
 76
     1
 77
     6
 78
     2
 67
     7
 79
     5
170
     0
171
     0
290
     0
174
     0
 93
       13
 44
0.0
173
     0
291
     1
 45
0.0
1001
ACAD
1000
AcDbSavedByObjectVersion
1070
     0
  0
VISUALSTYLE
  5
2E58
102
{ACAD_XDICTIONARY
360
2EB1
102
}
102
{ACAD_REACTORS
330
2E56
102
}
330
2E56
100
AcDbVisualStyle
  2
FlatWithEdges
 70
     1
 71
     2
 72
     1
 73
     1
 90
        2
 40
-0.6
 41
30.0
 62
     5
 63
     7
 74
     1
 91
        0
 64
     7
 65
   257
 75
     1
175
     1
 42
1.0
 92
        0
 66
   257
 43
1.0
 76
     1
 77
     6
 78
     2
 67
     7
 79
     5
170
     0
171
     0
290
     0
174
     0
 93
       13
 44
0.0
173
     0
291
     1
 45
0.0
1001
ACAD
1000
AcDbSavedByObjectVersion
1070
     0
  0
VISUALSTYLE
  5
2E59
102
{ACAD_XDICTIONARY
360
2EB3
102
}
102
{ACAD_REACTORS
330
2E56
102
}
330
2E56
100
AcDbVisualStyle
  2
Gouraud
 70
     2
 71
     2
 72
     2
 73
     1
 90
        2
 40
-0.6
 41
30.0
 62
     5
 63
     7
 74
     0
 91
        0
 64
     7
 65
   257
 75
     1
175
     1
 42
1.0
 92
        0
 66
     7
 43
1.0
 76
     1
 77
     6
 78
     2
 67
     7
 79
     5
170
     0
171
     0
290
     0
174
     0
 93
       13
 44
0.0
173
     0
291
     1
 45
0.0
1001
ACAD
1000
AcDbSavedByObjectVersion
1070
     0
  0
VISUALSTYLE
  5
2E5A
102
{ACAD_XDICTIONARY
360
2EB5
102
}
102
{ACAD_REACTORS
330
2E56
102
}
330
2E56
100
AcDbVisualStyle
  2
GouraudWithEdges
 70
     3
 71
     2
 72
     2
 73
     1
 90
        2
 40
-0.6
 41
30.0
 62
     5
 63
     7
 74
     1
 91
        0
 64
     7
 65
   257
 75
     1
175
     1
 42
1.0
 92
        0
 66
   257
 43
1.0
 76
     1
 77
     6
 78
     2
 67
     7
 79
     5
170
     0
171
     0
290
     0
174
     0
 93
       13
 44
0.0
173
     0
291
     1
 45
0.0
1001
ACAD
1000
AcDbSavedByObjectVersion
1070
     0
  0
VISUALSTYLE
  5
2E5E
102
{ACAD_XDICTIONARY
360
2EBD
102
}
102
{ACAD_REACTORS
330
2E56
102
}
330
2E56
100
AcDbVisualStyle
  2
Hidden
 70
     6
 71
     1
 72
     2
 73
     2
 90
        0
 40
-0.6
 41
-30.0
 62
     5
 63
     7
 74
     2
 91
        2
 64
     7
 65
   257
 75
     2
175
     1
 42
40.0
 92
        0
 66
   257
 43
1.0
 76
     1
 77
     6
 78
     2
 67
     7
 79
     3
170
     0
171
     0
290
     0
174
     0
 93
        1
 44
0.0
173
     0
291
     0
 45
0.0
1001
ACAD
1000
AcDbSavedByObjectVersion
1070
     0
  0
VISUALSTYLE
  5
2E6C
102
{ACAD_XDICTIONARY
360
2ED9
102
}
102
{ACAD_REACTORS
330
2E56
102
}
330
2E56
100
AcDbVisualStyle
  2
JitterOff
 70
    20
 71
     2
 72
     2
 73
     0
 90
        0
 40
-0.6
 41
-30.0
 62
     5
 63
     7
 74
     1
 91
        4
 64
     7
 65
   257
 75
     1
175
     1
 42
1.0
 92
       10
 66
     7
 43
1.0
 76
     1
 77
     6
 78
     2
 67
     7
 79
     5
170
     0
171
     0
290
     0
174
     0
 93
        1
 44
0.0
173
     0
291
     1
 45
0.0
1001
ACAD
1000
AcDbSavedByObjectVersion
1070
     0
  0
VISUALSTYLE
  5
2E64
102
{ACAD_XDICTIONARY
360
2EC9
102
}
102
{ACAD_REACTORS
330
2E56
102
}
330
2E56
100
AcDbVisualStyle
  2
Linepattern
 70
    14
 71
     2
 72
     2
 73
     0
 90
        0
 40
-0.6
 41
-30.0
 62
     5
 63
     7
 74
     1
 91
        4
 64
     7
 65
   257
 75
     7
175
     7
 42
1.0
 92
        8
 66
     7
 43
1.0
 76
     1
 77
     6
 78
     2
 67
     7
 79
     5
170
     0
171
     0
290
     0
174
     0
 93
        1
 44
0.0
173
     0
291
     1
 45
0.0
1001
ACAD
1000
AcDbSavedByObjectVersion
1070
     0
  0
VISUALSTYLE
  5
2E6D
102
{ACAD_XDICTIONARY
360
2EDB
102
}
102
{ACAD_REACTORS
330
2E56
102
}
330
2E56
100
AcDbVisualStyle
  2
OverhangOff
 70
    21
 71
     2
 72
     2
 73
     0
 90
        0
 40
-0.6
 41
-30.0
 62
     5
 63
     7
 74
     1
 91
        4
 64
     7
 65
   257
 75
     1
175
     1
 42
1.0
 92
        9
 66
     7
 43
1.0
 76
     1
 77
     6
 78
     2
 67
     7
 79
     5
170
     0
171
     0
290
     0
174
     0
 93
        1
 44
0.0
173
     0
291
     1
 45
0.0
1001
ACAD
1000
AcDbSavedByObjectVersion
1070
     0
  0
VISUALSTYLE
  5
2E60
102
{ACAD_XDICTIONARY
360
2EC1
102
}
102
{ACAD_REACTORS
330
2E56
102
}
330
2E56
100
AcDbVisualStyle
  2
Realistic
 70
     8
 71
     2
 72
     3
 73
     0
 90
        2
 40
-0.6
 41
30.0
 62
     5
 63
     7
 74
     0
 91
        0
 64
     7
 65
   257
 75
     1
175
     1
 42
1.0
 92
        8
 66
   257
 43
1.0
 76
     1
 77
     6
 78
     2
 67
     7
 79
     3
170
     0
171
     0
290
     0
174
     0
 93
       13
 44
0.0
173
     0
291
     0
 45
0.0
1001
ACAD
1000
AcDbSavedByObjectVersion
1070
     0
  0
VISUALSTYLE
  5
2E6B
102
{ACAD_XDICTIONARY
360
2ED7
102
}
102
{ACAD_REACTORS
330
2E56
102
}
330
2E56
100
AcDbVisualStyle
  2
Shaded
 70
    27
 71
     2
 72
     2
 73
     1
 90
        2
 40
-0.6
 41
30.0
 62
     5
 63
     7
 74
     0
 91
        4
 64
     7
 65
   257
 75
     1
175
     1
 42
1.0
 92
        8
 66
   257
 43
1.0
 76
     1
 77
     6
 78
     2
 67
     8
 79
     3
170
     0
171
     0
290
     0
174
     0
 93
        5
 44
0.0
173
     0
291
     0
 45
0.0
1001
ACAD
1000
AcDbSavedByObjectVersion
1070
     0
  0
VISUALSTYLE
  5
2E6A
102
{ACAD_XDICTIONARY
360
2ED5
102
}
102
{ACAD_REACTORS
330
2E56
102
}
330
2E56
100
AcDbVisualStyle
  2
Shaded with edges
 70
    26
 71
     2
 72
     2
 73
     1
 90
        2
 40
-0.6
 41
30.0
 62
     5
 63
     7
 74
     1
 91
       10
 64
     7
 65
   257
 75
     2
175
     1
 42
1.0
 92
        8
 66
   257
 43
1.0
 76
     1
 77
     6
 78
     2
 67
     7
 79
     3
170
     0
171
     0
290
     0
174
     0
 93
        5
 44
0.0
173
     0
291
     0
 45
0.0
1001
ACAD
1000
AcDbSavedByObjectVersion
1070
     0
  0
VISUALSTYLE
  5
2E67
102
{ACAD_XDICTIONARY
360
2ECF
102
}
102
{ACAD_REACTORS
330
2E56
102
}
330
2E56
100
AcDbVisualStyle
  2
Shades of Gray
 70
    23
 71
     2
 72
     2
 73
     3
 90
        0
 40
-0.6
 41
-30.0
 62
     5
 63
     7
 74
     2
 91
        2
 64
     7
 65
     7
 75
     1
175
     1
 42
40.0
 92
        8
 66
     7
 43
1.0
 76
     1
 77
     6
 78
     2
 67
     7
 79
     3
170
     0
171
     0
290
     0
174
     0
 93
        1
 44
0.0
173
     0
291
     0
 45
0.0
1001
ACAD
1000
AcDbSavedByObjectVersion
1070
     0
  0
VISUALSTYLE
  5
2E68
102
{ACAD_XDICTIONARY
360
2ED1
102
}
102
{ACAD_REACTORS
330
2E56
102
}
330
2E56
100
AcDbVisualStyle
  2
Sketchy
 70
    24
 71
     1
 72
     2
 73
     2
 90
        0
 40
-0.6
 41
-30.0
 62
     5
 63
     7
 74
     2
 91
        2
 64
     7
 65
     7
 75
     1
175
     1
 42
40.0
 92
       11
 66
     7
 43
1.0
 76
     1
 77
     6
 78
     2
 67
     7
 79
     6
170
     0
171
     0
290
     0
174
     0
 93
        1
 44
0.0
173
     0
291
     0
 45
0.0
1001
ACAD
1000
AcDbSavedByObjectVersion
1070
     0
  0
VISUALSTYLE
  5
2E63
102
{ACAD_XDICTIONARY
360
2EC7
102
}
102
{ACAD_REACTORS
330
2E56
102
}
330
2E56
100
AcDbVisualStyle
  2
Thicken
 70
    13
 71
     2
 72
     2
 73
     0
 90
        0
 40
-0.6
 41
-30.0
 62
     5
 63
     7
 74
     1
 91
        4
 64
     7
 65
   257
 75
     1
175
     1
 42
1.0
 92
       12
 66
     7
 43
1.0
 76
     1
 77
     6
 78
     2
 67
     7
 79
     5
170
     0
171
     0
290
     0
174
     0
 93
        1
 44
0.0
173
     0
291
     1
 45
0.0
1001
ACAD
1000
AcDbSavedByObjectVersion
1070
     0
  0
VISUALSTYLE
  5
2E5D
102
{ACAD_XDICTIONARY
360
2EBB
102
}
102
{ACAD_REACTORS
330
2E56
102
}
330
2E56
100
AcDbVisualStyle
  2
Wireframe
 70
     5
 71
     0
 72
     2
 73
     0
 90
        0
 40
-0.6
 41
-30.0
 62
     5
 63
     7
 74
     1
 91
        4
 64
     7
 65
   257
 75
     1
175
     1
 42
1.0
 92
        0
 66
   257
 43
1.0
 76
     1
 77
     6
 78
     2
 67
     7
 79
     3
170
     0
171
     0
290
     0
174
     0
 93
        1
 44
0.0
173
     0
291
     0
 45
0.0
1001
ACAD
1000
AcDbSavedByObjectVersion
1070
     0
  0
VISUALSTYLE
  5
2E69
102
{ACAD_XDICTIONARY
360
2ED3
102
}
102
{ACAD_REACTORS
330
2E56
102
}
330
2E56
100
AcDbVisualStyle
  2
X-Ray
 70
    25
 71
     2
 72
     2
 73
     1
 90
        1
 40
0.5
 41
-30.0
 62
     5
 63
     7
 74
     1
 91
        0
 64
     7
 65
   257
 75
     1
175
     1
 42
1.0
 92
        8
 66
     7
 43
1.0
 76
     1
 77
     6
 78
     2
 67
     7
 79
     3
170
     0
171
     0
290
     0
174
     0
 93
       13
 44
0.0
173
     0
291
     0
 45
0.0
1001
ACAD
1000
AcDbSavedByObjectVersion
1070
     0
  0
DICTIONARYVAR
  5
2EA2
102
{ACAD_REACTORS
330
2E9D
102
}
330
2E9D
100
DictionaryVariables
280
     0
  1
1:1
  0
DICTIONARYVAR
  5
2E9F
102
{ACAD_REACTORS
330
2E9D
102
}
330
2E9D
100
DictionaryVariables
280
     0
  1
STANDARD
  0
DICTIONARYVAR
  5
2E9E
102
{ACAD_REACTORS
330
2E9D
102
}
330
2E9D
100
DictionaryVariables
280
     0
  1
STANDARD
  0
DICTIONARYVAR
  5
2EA0
102
{ACAD_REACTORS
330
2E9D
102
}
330
2E9D
100
DictionaryVariables
280
     0
  1
Imperial24
  0
DICTIONARYVAR
  5
2EA1
102
{ACAD_REACTORS
330
2E9D
102
}
330
2E9D
100
DictionaryVariables
280
     0
  1
Imperial24
  0
DICTIONARYVAR
  5
2EA5
102
{ACAD_REACTORS
330
2E9D
102
}
330
2E9D
100
DictionaryVariables
280
     0
  1
1
  0
DICTIONARYVAR
  5
2EA4
102
{ACAD_REACTORS
330
2E9D
102
}
330
2E9D
100
DictionaryVariables
280
     0
  1
0
  0
DICTIONARYVAR
  5
2EA3
102
{ACAD_REACTORS
330
2E9D
102
}
330
2E9D
100
DictionaryVariables
280
     0
  1
127
  0
DICTIONARYVAR
  5
2EA6
102
{ACAD_REACTORS
330
2E9D
102
}
330
2E9D
100
DictionaryVariables
280
     0
  1
2
  0
DICTIONARY
  5
2EE3
330
2E89
100
AcDbDictionary
280
     1
281
     1
  3
ACAD_XREC_ROUNDTRIP
360
2EE4
  0
DICTIONARY
  5
2EE5
330
2E8A
100
AcDbDictionary
280
     1
281
     1
  3
ACAD_XREC_ROUNDTRIP
360
2EE6
  0
DICTIONARY
  5
2EE7
330
2E8B
100
AcDbDictionary
280
     1
281
     1
  3
ACAD_XREC_ROUNDTRIP
360
2EE8
  0
DICTIONARY
  5
2E47
330
2E46
100
AcDbDictionary
280
     1
281
     1
  3
ACAD_XREC_ROUNDTRIP
360
2EAD
  3
BUMPTILE
360
2E49
  3
DIFFUSETILE
360
2E48
  3
OPACITYTILE
360
2E4C
  3
REFLECTIONTILE
360
2E4B
  3
REFRACTIONTILE
360
2E4D
  3
SPECULARTILE
360
2E4A
  0
DICTIONARY
  5
2E3F
330
2E3E
100
AcDbDictionary
280
     1
281
     1
  3
ACAD_XREC_ROUNDTRIP
360
2EAC
  3
BUMPTILE
360
2E41
  3
DIFFUSETILE
360
2E40
  3
OPACITYTILE
360
2E44
  3
REFLECTIONTILE
360
2E43
  3
REFRACTIONTILE
360
2E45
  3
SPECULARTILE
360
2E42
  0
DICTIONARY
  5
2E4F
330
2E4E
100
AcDbDictionary
280
     1
281
     1
  3
ACAD_XREC_ROUNDTRIP
360
2EAE
  3
BUMPTILE
360
2E51
  3
DIFFUSETILE
360
2E50
  3
OPACITYTILE
360
2E54
  3
REFLECTIONTILE
360
2E53
  3
REFRACTIONTILE
360
2E55
  3
SPECULARTILE
360
2E52
  0
DICTIONARY
  5
2EE1
330
2E87
100
AcDbDictionary
280
     1
281
     1
  3
ACAD_XREC_ROUNDTRIP
360
2EE2
  0
DICTIONARY
  5
2EA8
330
2E71
100
AcDbDictionary
280
     1
281
     1
  3
ACAD_ROUNDTRIP_2008_TABLESTYLE_CELLSTYLEMAP
360
2EA9
  3
ACAD_XREC_ROUNDTRIP
360
2EDF
  0
DICTIONARY
  5
2EB9
330
2E5C
100
AcDbDictionary
280
     1
281
     1
  3
ACAD_XREC_ROUNDTRIP
360
2EBA
  0
DICTIONARY
  5
2EB7
330
2E5B
100
AcDbDictionary
280
     1
281
     1
  3
ACAD_XREC_ROUNDTRIP
360
2EB8
  0
DICTIONARY
  5
2EC5
330
2E62
100
AcDbDictionary
280
     1
281
     1
  3
ACAD_XREC_ROUNDTRIP
360
2EC6
  0
DICTIONARY
  5
2ECD
330
2E66
100
AcDbDictionary
280
     1
281
     1
  3
ACAD_XREC_ROUNDTRIP
360
2ECE
  0
DICTIONARY
  5
2EBF
330
2E5F
100
AcDbDictionary
280
     1
281
     1
  3
ACAD_XREC_ROUNDTRIP
360
2EC0
  0
DICTIONARY
  5
2EC3
330
2E61
100
AcDbDictionary
280
     1
281
     1
  3
ACAD_XREC_ROUNDTRIP
360
2EC4
  0
DICTIONARY
  5
2EDD
330
2E6E
100
AcDbDictionary
280
     1
281
     1
  3
ACAD_XREC_ROUNDTRIP
360
2EDE
  0
DICTIONARY
  5
2ECB
330
2E65
100
AcDbDictionary
280
     1
281
     1
  3
ACAD_XREC_ROUNDTRIP
360
2ECC
  0
DICTIONARY
  5
2EAF
330
2E57
100
AcDbDictionary
280
     1
281
     1
  3
ACAD_XREC_ROUNDTRIP
360
2EB0
  0
DICTIONARY
  5
2EB1
330
2E58
100
AcDbDictionary
280
     1
281
     1
  3
ACAD_XREC_ROUNDTRIP
360
2EB2
  0
DICTIONARY
  5
2EB3
330
2E59
100
AcDbDictionary
280
     1
281
     1
  3
ACAD_XREC_ROUNDTRIP
360
2EB4
  0
DICTIONARY
  5
2EB5
330
2E5A
100
AcDbDictionary
280
     1
281
     1
  3
ACAD_XREC_ROUNDTRIP
360
2EB6
  0
DICTIONARY
  5
2EBD
330
2E5E
100
AcDbDictionary
280
     1
281
     1
  3
ACAD_XREC_ROUNDTRIP
360
2EBE
  0
DICTIONARY
  5
2ED9
330
2E6C
100
AcDbDictionary
280
     1
281
     1
  3
ACAD_XREC_ROUNDTRIP
360
2EDA
  0
DICTIONARY
  5
2EC9
330
2E64
100
AcDbDictionary
280
     1
281
     1
  3
ACAD_XREC_ROUNDTRIP
360
2ECA
  0
DICTIONARY
  5
2EDB
330
2E6D
100
AcDbDictionary
280
     1
281
     1
  3
ACAD_XREC_ROUNDTRIP
360
2EDC
  0
DICTIONARY
  5
2EC1
330
2E60
100
AcDbDictionary
280
     1
281
     1
  3
ACAD_XREC_ROUNDTRIP
360
2EC2
  0
DICTIONARY
  5
2ED7
330
2E6B
100
AcDbDictionary
280
     1
281
     1
  3
ACAD_XREC_ROUNDTRIP
360
2ED8
  0
DICTIONARY
  5
2ED5
330
2E6A
100
AcDbDictionary
280
     1
281
     1
  3
ACAD_XREC_ROUNDTRIP
360
2ED6
  0
DICTIONARY
  5
2ECF
330
2E67
100
AcDbDictionary
280
     1
281
     1
  3
ACAD_XREC_ROUNDTRIP
360
2ED0
  0
DICTIONARY
  5
2ED1
330
2E68
100
AcDbDictionary
280
     1
281
     1
  3
ACAD_XREC_ROUNDTRIP
360
2ED2
  0
DICTIONARY
  5
2EC7
330
2E63
100
AcDbDictionary
280
     1
281
     1
  3
ACAD_XREC_ROUNDTRIP
360
2EC8
  0
DICTIONARY
  5
2EBB
330
2E5D
100
AcDbDictionary
280
     1
281
     1
  3
ACAD_XREC_ROUNDTRIP
360
2EBC
  0
DICTIONARY
  5
2ED3
330
2E69
100
AcDbDictionary
280
     1
281
     1
  3
ACAD_XREC_ROUNDTRIP
360
2ED4
  0
XRECORD
  5
2EE4
102
{ACAD_REACTORS
330
2EE3
102
}
330
2EE3
100
AcDbXrecord
280
     1
102
DISPLAYNAME
  1
Imperial24
102
FLAGS
 90
        0
  0
XRECORD
  5
2EE6
102
{ACAD_REACTORS
330
2EE5
102
}
330
2EE5
100
AcDbXrecord
280
     1
102
SHADEPLOT
 70
     0
102
SHADEPLOTRESLEVEL
 70
     2
102
SHADEPLOTCUSTOMDPI
 70
   300
  0
XRECORD
  5
2EE8
102
{ACAD_REACTORS
330
2EE7
102
}
330
2EE7
100
AcDbXrecord
280
     1
102
SHADEPLOT
 70
     0
102
SHADEPLOTRESLEVEL
 70
     2
102
SHADEPLOTCUSTOMDPI
 70
   300
  0
XRECORD
  5
2EAD
102
{ACAD_REACTORS
330
2E47
102
}
330
2E47
100
AcDbXrecord
280
     1
102
MATERIAL
148
0.0
149
0.0
149
0.0
 93
        0
 94
      127
282
     0
 72
     0
 77
     0
171
     0
175
     0
179
     0
273
     0
  0
XRECORD
  5
2E49
102
{ACAD_REACTORS
330
2E47
102
}
330
2E47
100
AcDbXrecord
280
     1
270
     1
271
     1
  0
XRECORD
  5
2E48
102
{ACAD_REACTORS
330
2E47
102
}
330
2E47
100
AcDbXrecord
280
     1
270
     1
271
     1
  0
XRECORD
  5
2E4C
102
{ACAD_REACTORS
330
2E47
102
}
330
2E47
100
AcDbXrecord
280
     1
270
     1
271
     1
  0
XRECORD
  5
2E4B
102
{ACAD_REACTORS
330
2E47
102
}
330
2E47
100
AcDbXrecord
280
     1
270
     1
271
     1
  0
XRECORD
  5
2E4D
102
{ACAD_REACTORS
330
2E47
102
}
330
2E47
100
AcDbXrecord
280
     1
270
     1
271
     1
  0
XRECORD
  5
2E4A
102
{ACAD_REACTORS
330
2E47
102
}
330
2E47
100
AcDbXrecord
280
     1
270
     1
271
     1
  0
XRECORD
  5
2EAC
102
{ACAD_REACTORS
330
2E3F
102
}
330
2E3F
100
AcDbXrecord
280
     1
102
MATERIAL
148
0.0
149
0.0
149
0.0
 93
        0
 94
      127
282
     0
 72
     0
 77
     0
171
     0
175
     0
179
     0
273
     0
  0
XRECORD
  5
2E41
102
{ACAD_REACTORS
330
2E3F
102
}
330
2E3F
100
AcDbXrecord
280
     1
270
     1
271
     1
  0
XRECORD
  5
2E40
102
{ACAD_REACTORS
330
2E3F
102
}
330
2E3F
100
AcDbXrecord
280
     1
270
     1
271
     1
  0
XRECORD
  5
2E44
102
{ACAD_REACTORS
330
2E3F
102
}
330
2E3F
100
AcDbXrecord
280
     1
270
     1
271
     1
  0
XRECORD
  5
2E43
102
{ACAD_REACTORS
330
2E3F
102
}
330
2E3F
100
AcDbXrecord
280
     1
270
     1
271
     1
  0
XRECORD
  5
2E45
102
{ACAD_REACTORS
330
2E3F
102
}
330
2E3F
100
AcDbXrecord
280
     1
270
     1
271
     1
  0
XRECORD
  5
2E42
102
{ACAD_REACTORS
330
2E3F
102
}
330
2E3F
100
AcDbXrecord
280
     1
270
     1
271
     1
  0
XRECORD
  5
2EAE
102
{ACAD_REACTORS
330
2E4F
102
}
330
2E4F
100
AcDbXrecord
280
     1
102
MATERIAL
148
0.0
149
0.0
149
0.0
 93
        0
 94
      127
282
     0
 72
     0
 77
     0
171
     0
175
     0
179
     0
273
     0
  0
XRECORD
  5
2E51
102
{ACAD_REACTORS
330
2E4F
102
}
330
2E4F
100
AcDbXrecord
280
     1
270
     1
271
     1
  0
XRECORD
  5
2E50
102
{ACAD_REACTORS
330
2E4F
102
}
330
2E4F
100
AcDbXrecord
280
     1
270
     1
271
     1
  0
XRECORD
  5
2E54
102
{ACAD_REACTORS
330
2E4F
102
}
330
2E4F
100
AcDbXrecord
280
     1
270
     1
271
     1
  0
XRECORD
  5
2E53
102
{ACAD_REACTORS
330
2E4F
102
}
330
2E4F
100
AcDbXrecord
280
     1
270
     1
271
     1
  0
XRECORD
  5
2E55
102
{ACAD_REACTORS
330
2E4F
102
}
330
2E4F
100
AcDbXrecord
280
     1
270
     1
271
     1
  0
XRECORD
  5
2E52
102
{ACAD_REACTORS
330
2E4F
102
}
330
2E4F
100
AcDbXrecord
280
     1
270
     1
271
     1
  0
XRECORD
  5
2EE2
102
{ACAD_REACTORS
330
2EE1
102
}
330
2EE1
100
AcDbXrecord
280
     1
102
DISPLAYNAME
  1
Imperial24
102
FLAGS
 90
        0
  0
CELLSTYLEMAP
  5
2EA9
102
{ACAD_REACTORS
330
2EA8
102
}
330
2EA8
100
AcDbCellStyleMap
 90
        3
300
CELLSTYLE
  1
TABLEFORMAT_BEGIN
 90
        5
170
     1
 91
        0
 92
    32768
 62
   257
 93
        1
300
CONTENTFORMAT
  1
CONTENTFORMAT_BEGIN
 90
        0
 91
        0
 92
      512
 93
        0
300

 40
0.0
140
1.0
 94
        5
 62
     0
340
F
144
0.25
309
CONTENTFORMAT_END
171
     0
 94
        0
309
TABLEFORMAT_END
  1
CELLSTYLE_BEGIN
 90
        1
 91
        1
300
_TITLE
309
CELLSTYLE_END
300
CELLSTYLE
  1
TABLEFORMAT_BEGIN
 90
        5
170
     1
 91
        0
 92
        0
 62
   257
 93
        1
300
CONTENTFORMAT
  1
CONTENTFORMAT_BEGIN
 90
        0
 91
        0
 92
      512
 93
        0
300

 40
0.0
140
1.0
 94
        5
 62
     0
340
F
144
0.18
309
CONTENTFORMAT_END
171
     0
 94
        0
309
TABLEFORMAT_END
  1
CELLSTYLE_BEGIN
 90
        2
 91
        1
300
_HEADER
309
CELLSTYLE_END
300
CELLSTYLE
  1
TABLEFORMAT_BEGIN
 90
        5
170
     1
 91
        0
 92
        0
 62
   257
 93
        1
300
CONTENTFORMAT
  1
CONTENTFORMAT_BEGIN
 90
        0
 91
        0
 92
      512
 93
        0
300

 40
0.0
140
1.0
 94
        2
 62
     0
340
F
144
0.18
309
CONTENTFORMAT_END
171
     0
 94
        0
309
TABLEFORMAT_END
  1
CELLSTYLE_BEGIN
 90
        3
 91
        2
300
_DATA
309
CELLSTYLE_END
  0
XRECORD
  5
2EDF
102
{ACAD_REACTORS
330
2EA8
102
}
330
2EA8
100
AcDbXrecord
280
     1
102
ACAD_ROUNDTRIP_PRE2007_TABLESTYLE
 90
      512
 91
        0
  1

 92
      512
 93
        0
  2

 94
      512
 95
        0
  3

  0
XRECORD
  5
2EBA
102
{ACAD_REACTORS
330
2EB9
102
}
330
2EB9
100
AcDbXrecord
280
     1
102
RTVSPost2010Prop28
280
     1
102
RTVSPost2010PropOp28
 70
     1
102
RTVSPost2010Prop29
280
     1
102
RTVSPost2010PropOp29
 70
     1
102
RTVSPost2010Prop30
280
     0
102
RTVSPost2010PropOp30
 70
     1
102
RTVSPost2010Prop31
280
     0
102
RTVSPost2010PropOp31
 70
     1
102
RTVSPost2010Prop32
280
     0
102
RTVSPost2010PropOp32
 70
     1
102
RTVSPost2010Prop33
280
     0
102
RTVSPost2010PropOp33
 70
     1
102
RTVSPost2010Prop34
280
     0
102
RTVSPost2010PropOp34
 70
     1
102
RTVSPost2010Prop35
280
     0
102
RTVSPost2010PropOp35
 70
     1
102
RTVSPost2010Prop36
280
     0
102
RTVSPost2010PropOp36
 70
     1
102
RTVSPost2010Prop37
 90
       50
102
RTVSPost2010PropOp37
 70
     1
102
RTVSPost2010Prop38
140
0.0
102
RTVSPost2010PropOp38
 70
     1
102
RTVSPost2010Prop39
140
1.0
102
RTVSPost2010PropOp39
 70
     1
102
RTVSPost2010Prop40
 90
        0
102
RTVSPost2010PropOp40
 70
     1
102
RTVSPost2010Prop41ColorIndex
 90
       18
102
RTVSPost2010Prop41ColorRGB
 90
        0
102
RTVSPost2010PropOp41
 70
     1
102
RTVSPost2010Prop42
 90
       50
102
RTVSPost2010PropOp42
 70
     1
102
RTVSPost2010Prop43
 90
        3
102
RTVSPost2010PropOp43
 70
     1
102
RTVSPost2010Prop44ColorIndex
 90
        5
102
RTVSPost2010Prop44ColorRGB
 90
      255
102
RTVSPost2010PropOp44
 70
     1
102
RTVSPost2010Prop45
280
     0
102
RTVSPost2010PropOp45
 70
     1
102
RTVSPost2010Prop46
 90
       50
102
RTVSPost2010PropOp46
 70
     1
102
RTVSPost2010Prop47
 90
       50
102
RTVSPost2010PropOp47
 70
     1
102
RTVSPost2010Prop48
 90
       50
102
RTVSPost2010PropOp48
 70
     1
102
RTVSPost2010Prop49
280
     0
102
RTVSPost2010PropOp49
 70
     1
102
RTVSPost2010Prop50
 90
       50
102
RTVSPost2010PropOp50
 70
     1
102
RTVSPost2010Prop51ColorIndex
 90
      256
102
RTVSPost2010Prop51ColorRGB
 90
-16777216
102
RTVSPost2010PropOp51
 70
     0
102
RTVSPost2010Prop52
140
1.0
102
RTVSPost2010PropOp52
 70
     0
102
RTVSPost2010Prop53
 90
        2
102
RTVSPost2010PropOp53
 70
     1
102
RTVSPost2010Prop54
  1
strokes_ogs.tif
102
RTVSPost2010PropOp54
 70
     1
102
RTVSPost2010Prop55
280
     0
102
RTVSPost2010PropOp55
 70
     1
102
RTVSPost2010Prop56
140
1.0
102
RTVSPost2010PropOp56
 70
     1
102
RTVSPost2010Prop57
140
1.0
102
RTVSPost2010PropOp57
 70
     1
102
RTVSPropertyOp0
 70
     1
102
RTVSPropertyOp1
 70
     1
102
RTVSPropertyOp2
 70
     1
102
RTVSPropertyOp3
 70
     1
102
RTVSPropertyOp4
 70
     1
102
RTVSPropertyOp5
 70
     1
102
RTVSPropertyOp6
 70
     1
102
RTVSPropertyOp7
 70
     1
102
RTVSPropertyOp8
 70
     1
102
RTVSPropertyOp9
 70
     1
102
RTVSPropertyOp10
 70
     1
102
RTVSPropertyOp11
 70
     1
102
RTVSPropertyOp12
 70
     1
102
RTVSPropertyOp13
 70
     1
102
RTVSPropertyOp14
 70
     1
102
RTVSPropertyOp15
 70
     1
102
RTVSPropertyOp16
 70
     1
102
RTVSPropertyOp17
 70
     1
102
RTVSPropertyOp18
 70
     1
102
RTVSPropertyOp19
 70
     1
102
RTVSPropertyOp20
 70
     1
102
RTVSPropertyOp21
 70
     1
102
RTVSPropertyOp22
 70
     1
102
RTVSPropertyOp23
 70
     1
102
RTVSPropertyOp24
 70
     1
102
RTVSPropertyOp25
 70
     1
102
RTVSPropertyOp26
 70
     1
102
RTVSPropertyOp27
 70
     1
102
RTVSPropertyOp28
 70
     1
102
RTVSPropertyOp29
 70
     1
102
RTVSPropertyOp30
 70
     1
102
RTVSPropertyOp31
 70
     1
102
RTVSPropertyOp32
 70
     1
102
RTVSPropertyOp33
 70
     1
102
RTVSPropertyOp34
 70
     1
102
RTVSPropertyOp35
 70
     1
102
RTVSPropertyOp36
 70
     1
102
RTVSPropertyOp37
 70
     1
102
RTVSPropertyOp38
 70
     1
102
RTVSPropertyOp39
 70
     1
102
RTVSPropertyOp40
 70
     1
102
RTVSPropertyOp41
 70
     1
102
RTVSPropertyOp42
 70
     1
102
RTVSPropertyOp43
 70
     1
102
RTVSPropertyOp44
 70
     1
102
RTVSPropertyOp45
 70
     1
102
RTVSPropertyOp46
 70
     1
102
RTVSPropertyOp47
 70
     1
102
RTVSPropertyOp48
 70
     1
102
RTVSPropertyOp49
 70
     1
102
RTVSPropertyOp50
 70
     1
102
RTVSPropertyOp51
 70
     0
102
RTVSPropertyOp52
 70
     0
102
RTVSPropertyOp53
 70
     1
102
RTVSPropertyOp54
 70
     1
102
RTVSPropertyOp55
 70
     1
102
RTVSPropertyOp56
 70
     1
102
RTVSPropertyOp57
 70
     1
102
RTVSPropertyOp58
 70
     1
102
RTVSPropertyOp59
 70
     1
102
RTVSPropertyOp60
 70
     1
102
RTVSPropertyOp61
 70
     1
102
RTVSPropertyOp62
 70
     1
  0
XRECORD
  5
2EB8
102
{ACAD_REACTORS
330
2EB7
102
}
330
2EB7
100
AcDbXrecord
280
     1
102
RTVSPost2010Prop28
280
     0
102
RTVSPost2010PropOp28
 70
     1
102
RTVSPost2010Prop29
280
     1
102
RTVSPost2010PropOp29
 70
     1
102
RTVSPost2010Prop30
280
     1
102
RTVSPost2010PropOp30
 70
     1
102
RTVSPost2010Prop31
280
     0
102
RTVSPost2010PropOp31
 70
     1
102
RTVSPost2010Prop32
280
     0
102
RTVSPost2010PropOp32
 70
     1
102
RTVSPost2010Prop33
280
     0
102
RTVSPost2010PropOp33
 70
     1
102
RTVSPost2010Prop34
280
     0
102
RTVSPost2010PropOp34
 70
     1
102
RTVSPost2010Prop35
280
     0
102
RTVSPost2010PropOp35
 70
     1
102
RTVSPost2010Prop36
280
     0
102
RTVSPost2010PropOp36
 70
     1
102
RTVSPost2010Prop37
 90
       50
102
RTVSPost2010PropOp37
 70
     1
102
RTVSPost2010Prop38
140
0.0
102
RTVSPost2010PropOp38
 70
     1
102
RTVSPost2010Prop39
140
1.0
102
RTVSPost2010PropOp39
 70
     1
102
RTVSPost2010Prop40
 90
        0
102
RTVSPost2010PropOp40
 70
     1
102
RTVSPost2010Prop41ColorIndex
 90
       18
102
RTVSPost2010Prop41ColorRGB
 90
        0
102
RTVSPost2010PropOp41
 70
     1
102
RTVSPost2010Prop42
 90
       50
102
RTVSPost2010PropOp42
 70
     1
102
RTVSPost2010Prop43
 90
        3
102
RTVSPost2010PropOp43
 70
     1
102
RTVSPost2010Prop44ColorIndex
 90
        5
102
RTVSPost2010Prop44ColorRGB
 90
      255
102
RTVSPost2010PropOp44
 70
     1
102
RTVSPost2010Prop45
280
     0
102
RTVSPost2010PropOp45
 70
     1
102
RTVSPost2010Prop46
 90
       50
102
RTVSPost2010PropOp46
 70
     1
102
RTVSPost2010Prop47
 90
       50
102
RTVSPost2010PropOp47
 70
     1
102
RTVSPost2010Prop48
 90
       50
102
RTVSPost2010PropOp48
 70
     1
102
RTVSPost2010Prop49
280
     0
102
RTVSPost2010PropOp49
 70
     1
102
RTVSPost2010Prop50
 90
       50
102
RTVSPost2010PropOp50
 70
     1
102
RTVSPost2010Prop51ColorIndex
 90
      256
102
RTVSPost2010Prop51ColorRGB
 90
-16777216
102
RTVSPost2010PropOp51
 70
     0
102
RTVSPost2010Prop52
140
1.0
102
RTVSPost2010PropOp52
 70
     0
102
RTVSPost2010Prop53
 90
        2
102
RTVSPost2010PropOp53
 70
     1
102
RTVSPost2010Prop54
  1
strokes_ogs.tif
102
RTVSPost2010PropOp54
 70
     1
102
RTVSPost2010Prop55
280
     0
102
RTVSPost2010PropOp55
 70
     1
102
RTVSPost2010Prop56
140
1.0
102
RTVSPost2010PropOp56
 70
     1
102
RTVSPost2010Prop57
140
1.0
102
RTVSPost2010PropOp57
 70
     1
102
RTVSPropertyOp0
 70
     1
102
RTVSPropertyOp1
 70
     1
102
RTVSPropertyOp2
 70
     1
102
RTVSPropertyOp3
 70
     1
102
RTVSPropertyOp4
 70
     1
102
RTVSPropertyOp5
 70
     1
102
RTVSPropertyOp6
 70
     1
102
RTVSPropertyOp7
 70
     1
102
RTVSPropertyOp8
 70
     1
102
RTVSPropertyOp9
 70
     1
102
RTVSPropertyOp10
 70
     1
102
RTVSPropertyOp11
 70
     1
102
RTVSPropertyOp12
 70
     1
102
RTVSPropertyOp13
 70
     1
102
RTVSPropertyOp14
 70
     1
102
RTVSPropertyOp15
 70
     1
102
RTVSPropertyOp16
 70
     1
102
RTVSPropertyOp17
 70
     1
102
RTVSPropertyOp18
 70
     1
102
RTVSPropertyOp19
 70
     1
102
RTVSPropertyOp20
 70
     1
102
RTVSPropertyOp21
 70
     1
102
RTVSPropertyOp22
 70
     1
102
RTVSPropertyOp23
 70
     1
102
RTVSPropertyOp24
 70
     1
102
RTVSPropertyOp25
 70
     1
102
RTVSPropertyOp26
 70
     1
102
RTVSPropertyOp27
 70
     1
102
RTVSPropertyOp28
 70
     1
102
RTVSPropertyOp29
 70
     1
102
RTVSPropertyOp30
 70
     1
102
RTVSPropertyOp31
 70
     1
102
RTVSPropertyOp32
 70
     1
102
RTVSPropertyOp33
 70
     1
102
RTVSPropertyOp34
 70
     1
102
RTVSPropertyOp35
 70
     1
102
RTVSPropertyOp36
 70
     1
102
RTVSPropertyOp37
 70
     1
102
RTVSPropertyOp38
 70
     1
102
RTVSPropertyOp39
 70
     1
102
RTVSPropertyOp40
 70
     1
102
RTVSPropertyOp41
 70
     1
102
RTVSPropertyOp42
 70
     1
102
RTVSPropertyOp43
 70
     1
102
RTVSPropertyOp44
 70
     1
102
RTVSPropertyOp45
 70
     1
102
RTVSPropertyOp46
 70
     1
102
RTVSPropertyOp47
 70
     1
102
RTVSPropertyOp48
 70
     1
102
RTVSPropertyOp49
 70
     1
102
RTVSPropertyOp50
 70
     1
102
RTVSPropertyOp51
 70
     0
102
RTVSPropertyOp52
 70
     0
102
RTVSPropertyOp53
 70
     1
102
RTVSPropertyOp54
 70
     1
102
RTVSPropertyOp55
 70
     1
102
RTVSPropertyOp56
 70
     1
102
RTVSPropertyOp57
 70
     1
102
RTVSPropertyOp58
 70
     1
102
RTVSPropertyOp59
 70
     1
102
RTVSPropertyOp60
 70
     1
102
RTVSPropertyOp61
 70
     1
102
RTVSPropertyOp62
 70
     1
  0
XRECORD
  5
2EC6
102
{ACAD_REACTORS
330
2EC5
102
}
330
2EC5
100
AcDbXrecord
280
     1
102
RTVSPost2010Prop28
280
     0
102
RTVSPost2010PropOp28
 70
     1
102
RTVSPost2010Prop29
280
     1
102
RTVSPost2010PropOp29
 70
     1
102
RTVSPost2010Prop30
280
     1
102
RTVSPost2010PropOp30
 70
     1
102
RTVSPost2010Prop31
280
     0
102
RTVSPost2010PropOp31
 70
     1
102
RTVSPost2010Prop32
280
     0
102
RTVSPost2010PropOp32
 70
     1
102
RTVSPost2010Prop33
280
     0
102
RTVSPost2010PropOp33
 70
     1
102
RTVSPost2010Prop34
280
     0
102
RTVSPost2010PropOp34
 70
     1
102
RTVSPost2010Prop35
280
     0
102
RTVSPost2010PropOp35
 70
     1
102
RTVSPost2010Prop36
280
     0
102
RTVSPost2010PropOp36
 70
     1
102
RTVSPost2010Prop37
 90
       50
102
RTVSPost2010PropOp37
 70
     1
102
RTVSPost2010Prop38
140
0.0
102
RTVSPost2010PropOp38
 70
     1
102
RTVSPost2010Prop39
140
1.0
102
RTVSPost2010PropOp39
 70
     1
102
RTVSPost2010Prop40
 90
        0
102
RTVSPost2010PropOp40
 70
     1
102
RTVSPost2010Prop41ColorIndex
 90
       18
102
RTVSPost2010Prop41ColorRGB
 90
        0
102
RTVSPost2010PropOp41
 70
     1
102
RTVSPost2010Prop42
 90
       50
102
RTVSPost2010PropOp42
 70
     1
102
RTVSPost2010Prop43
 90
        3
102
RTVSPost2010PropOp43
 70
     1
102
RTVSPost2010Prop44ColorIndex
 90
        5
102
RTVSPost2010Prop44ColorRGB
 90
      255
102
RTVSPost2010PropOp44
 70
     1
102
RTVSPost2010Prop45
280
     0
102
RTVSPost2010PropOp45
 70
     1
102
RTVSPost2010Prop46
 90
       50
102
RTVSPost2010PropOp46
 70
     1
102
RTVSPost2010Prop47
 90
       50
102
RTVSPost2010PropOp47
 70
     1
102
RTVSPost2010Prop48
 90
       50
102
RTVSPost2010PropOp48
 70
     1
102
RTVSPost2010Prop49
280
     0
102
RTVSPost2010PropOp49
 70
     1
102
RTVSPost2010Prop50
 90
       50
102
RTVSPost2010PropOp50
 70
     1
102
RTVSPost2010Prop51ColorIndex
 90
      256
102
RTVSPost2010Prop51ColorRGB
 90
-16777216
102
RTVSPost2010PropOp51
 70
     0
102
RTVSPost2010Prop52
140
1.0
102
RTVSPost2010PropOp52
 70
     0
102
RTVSPost2010Prop53
 90
        2
102
RTVSPost2010PropOp53
 70
     1
102
RTVSPost2010Prop54
  1
strokes_ogs.tif
102
RTVSPost2010PropOp54
 70
     1
102
RTVSPost2010Prop55
280
     0
102
RTVSPost2010PropOp55
 70
     1
102
RTVSPost2010Prop56
140
1.0
102
RTVSPost2010PropOp56
 70
     1
102
RTVSPost2010Prop57
140
1.0
102
RTVSPost2010PropOp57
 70
     1
102
RTVSPropertyOp0
 70
     1
102
RTVSPropertyOp1
 70
     1
102
RTVSPropertyOp2
 70
     1
102
RTVSPropertyOp3
 70
     1
102
RTVSPropertyOp4
 70
     1
102
RTVSPropertyOp5
 70
     1
102
RTVSPropertyOp6
 70
     1
102
RTVSPropertyOp7
 70
     1
102
RTVSPropertyOp8
 70
     1
102
RTVSPropertyOp9
 70
     1
102
RTVSPropertyOp10
 70
     1
102
RTVSPropertyOp11
 70
     1
102
RTVSPropertyOp12
 70
     1
102
RTVSPropertyOp13
 70
     1
102
RTVSPropertyOp14
 70
     1
102
RTVSPropertyOp15
 70
     1
102
RTVSPropertyOp16
 70
     1
102
RTVSPropertyOp17
 70
     1
102
RTVSPropertyOp18
 70
     1
102
RTVSPropertyOp19
 70
     1
102
RTVSPropertyOp20
 70
     1
102
RTVSPropertyOp21
 70
     1
102
RTVSPropertyOp22
 70
     1
102
RTVSPropertyOp23
 70
     1
102
RTVSPropertyOp24
 70
     1
102
RTVSPropertyOp25
 70
     1
102
RTVSPropertyOp26
 70
     1
102
RTVSPropertyOp27
 70
     1
102
RTVSPropertyOp28
 70
     1
102
RTVSPropertyOp29
 70
     1
102
RTVSPropertyOp30
 70
     1
102
RTVSPropertyOp31
 70
     1
102
RTVSPropertyOp32
 70
     1
102
RTVSPropertyOp33
 70
     1
102
RTVSPropertyOp34
 70
     1
102
RTVSPropertyOp35
 70
     1
102
RTVSPropertyOp36
 70
     1
102
RTVSPropertyOp37
 70
     1
102
RTVSPropertyOp38
 70
     1
102
RTVSPropertyOp39
 70
     1
102
RTVSPropertyOp40
 70
     1
102
RTVSPropertyOp41
 70
     1
102
RTVSPropertyOp42
 70
     1
102
RTVSPropertyOp43
 70
     1
102
RTVSPropertyOp44
 70
     1
102
RTVSPropertyOp45
 70
     1
102
RTVSPropertyOp46
 70
     1
102
RTVSPropertyOp47
 70
     1
102
RTVSPropertyOp48
 70
     1
102
RTVSPropertyOp49
 70
     1
102
RTVSPropertyOp50
 70
     1
102
RTVSPropertyOp51
 70
     0
102
RTVSPropertyOp52
 70
     0
102
RTVSPropertyOp53
 70
     1
102
RTVSPropertyOp54
 70
     1
102
RTVSPropertyOp55
 70
     1
102
RTVSPropertyOp56
 70
     1
102
RTVSPropertyOp57
 70
     1
102
RTVSPropertyOp58
 70
     1
102
RTVSPropertyOp59
 70
     1
102
RTVSPropertyOp60
 70
     1
102
RTVSPropertyOp61
 70
     1
102
RTVSPropertyOp62
 70
     1
  0
XRECORD
  5
2ECE
102
{ACAD_REACTORS
330
2ECD
102
}
330
2ECD
100
AcDbXrecord
280
     1
102
RTVSPost2010Prop28
280
     0
102
RTVSPost2010PropOp28
 70
     1
102
RTVSPost2010Prop29
280
     1
102
RTVSPost2010PropOp29
 70
     1
102
RTVSPost2010Prop30
280
     1
102
RTVSPost2010PropOp30
 70
     1
102
RTVSPost2010Prop31
280
     0
102
RTVSPost2010PropOp31
 70
     1
102
RTVSPost2010Prop32
280
     0
102
RTVSPost2010PropOp32
 70
     1
102
RTVSPost2010Prop33
280
     0
102
RTVSPost2010PropOp33
 70
     1
102
RTVSPost2010Prop34
280
     0
102
RTVSPost2010PropOp34
 70
     1
102
RTVSPost2010Prop35
280
     0
102
RTVSPost2010PropOp35
 70
     1
102
RTVSPost2010Prop36
280
     0
102
RTVSPost2010PropOp36
 70
     1
102
RTVSPost2010Prop37
 90
       50
102
RTVSPost2010PropOp37
 70
     1
102
RTVSPost2010Prop38
140
0.0
102
RTVSPost2010PropOp38
 70
     1
102
RTVSPost2010Prop39
140
1.0
102
RTVSPost2010PropOp39
 70
     1
102
RTVSPost2010Prop40
 90
        0
102
RTVSPost2010PropOp40
 70
     1
102
RTVSPost2010Prop41ColorIndex
 90
       18
102
RTVSPost2010Prop41ColorRGB
 90
        0
102
RTVSPost2010PropOp41
 70
     1
102
RTVSPost2010Prop42
 90
       50
102
RTVSPost2010PropOp42
 70
     1
102
RTVSPost2010Prop43
 90
        3
102
RTVSPost2010PropOp43
 70
     1
102
RTVSPost2010Prop44ColorIndex
 90
        5
102
RTVSPost2010Prop44ColorRGB
 90
      255
102
RTVSPost2010PropOp44
 70
     1
102
RTVSPost2010Prop45
280
     0
102
RTVSPost2010PropOp45
 70
     1
102
RTVSPost2010Prop46
 90
       50
102
RTVSPost2010PropOp46
 70
     1
102
RTVSPost2010Prop47
 90
       50
102
RTVSPost2010PropOp47
 70
     1
102
RTVSPost2010Prop48
 90
       50
102
RTVSPost2010PropOp48
 70
     1
102
RTVSPost2010Prop49
280
     0
102
RTVSPost2010PropOp49
 70
     1
102
RTVSPost2010Prop50
 90
       50
102
RTVSPost2010PropOp50
 70
     1
102
RTVSPost2010Prop51ColorIndex
 90
      256
102
RTVSPost2010Prop51ColorRGB
 90
-16777216
102
RTVSPost2010PropOp51
 70
     0
102
RTVSPost2010Prop52
140
1.0
102
RTVSPost2010PropOp52
 70
     0
102
RTVSPost2010Prop53
 90
        2
102
RTVSPost2010PropOp53
 70
     1
102
RTVSPost2010Prop54
  1
strokes_ogs.tif
102
RTVSPost2010PropOp54
 70
     1
102
RTVSPost2010Prop55
280
     0
102
RTVSPost2010PropOp55
 70
     1
102
RTVSPost2010Prop56
140
1.0
102
RTVSPost2010PropOp56
 70
     1
102
RTVSPost2010Prop57
140
1.0
102
RTVSPost2010PropOp57
 70
     1
102
RTVSPropertyOp0
 70
     1
102
RTVSPropertyOp1
 70
     1
102
RTVSPropertyOp2
 70
     1
102
RTVSPropertyOp3
 70
     1
102
RTVSPropertyOp4
 70
     1
102
RTVSPropertyOp5
 70
     1
102
RTVSPropertyOp6
 70
     1
102
RTVSPropertyOp7
 70
     1
102
RTVSPropertyOp8
 70
     1
102
RTVSPropertyOp9
 70
     1
102
RTVSPropertyOp10
 70
     1
102
RTVSPropertyOp11
 70
     1
102
RTVSPropertyOp12
 70
     1
102
RTVSPropertyOp13
 70
     1
102
RTVSPropertyOp14
 70
     1
102
RTVSPropertyOp15
 70
     1
102
RTVSPropertyOp16
 70
     1
102
RTVSPropertyOp17
 70
     1
102
RTVSPropertyOp18
 70
     1
102
RTVSPropertyOp19
 70
     1
102
RTVSPropertyOp20
 70
     1
102
RTVSPropertyOp21
 70
     1
102
RTVSPropertyOp22
 70
     1
102
RTVSPropertyOp23
 70
     1
102
RTVSPropertyOp24
 70
     1
102
RTVSPropertyOp25
 70
     1
102
RTVSPropertyOp26
 70
     1
102
RTVSPropertyOp27
 70
     1
102
RTVSPropertyOp28
 70
     1
102
RTVSPropertyOp29
 70
     1
102
RTVSPropertyOp30
 70
     1
102
RTVSPropertyOp31
 70
     1
102
RTVSPropertyOp32
 70
     1
102
RTVSPropertyOp33
 70
     1
102
RTVSPropertyOp34
 70
     1
102
RTVSPropertyOp35
 70
     1
102
RTVSPropertyOp36
 70
     1
102
RTVSPropertyOp37
 70
     1
102
RTVSPropertyOp38
 70
     1
102
RTVSPropertyOp39
 70
     1
102
RTVSPropertyOp40
 70
     1
102
RTVSPropertyOp41
 70
     1
102
RTVSPropertyOp42
 70
     1
102
RTVSPropertyOp43
 70
     1
102
RTVSPropertyOp44
 70
     1
102
RTVSPropertyOp45
 70
     1
102
RTVSPropertyOp46
 70
     1
102
RTVSPropertyOp47
 70
     1
102
RTVSPropertyOp48
 70
     1
102
RTVSPropertyOp49
 70
     1
102
RTVSPropertyOp50
 70
     1
102
RTVSPropertyOp51
 70
     0
102
RTVSPropertyOp52
 70
     0
102
RTVSPropertyOp53
 70
     1
102
RTVSPropertyOp54
 70
     1
102
RTVSPropertyOp55
 70
     1
102
RTVSPropertyOp56
 70
     1
102
RTVSPropertyOp57
 70
     1
102
RTVSPropertyOp58
 70
     1
102
RTVSPropertyOp59
 70
     1
102
RTVSPropertyOp60
 70
     1
102
RTVSPropertyOp61
 70
     1
102
RTVSPropertyOp62
 70
     1
  0
XRECORD
  5
2EC0
102
{ACAD_REACTORS
330
2EBF
102
}
330
2EBF
100
AcDbXrecord
280
     1
102
RTVSPost2010Prop28
280
     0
102
RTVSPost2010PropOp28
 70
     1
102
RTVSPost2010Prop29
280
     1
102
RTVSPost2010PropOp29
 70
     1
102
RTVSPost2010Prop30
280
     1
102
RTVSPost2010PropOp30
 70
     1
102
RTVSPost2010Prop31
280
     0
102
RTVSPost2010PropOp31
 70
     1
102
RTVSPost2010Prop32
280
     0
102
RTVSPost2010PropOp32
 70
     1
102
RTVSPost2010Prop33
280
     0
102
RTVSPost2010PropOp33
 70
     1
102
RTVSPost2010Prop34
280
     0
102
RTVSPost2010PropOp34
 70
     1
102
RTVSPost2010Prop35
280
     0
102
RTVSPost2010PropOp35
 70
     1
102
RTVSPost2010Prop36
280
     0
102
RTVSPost2010PropOp36
 70
     1
102
RTVSPost2010Prop37
 90
       50
102
RTVSPost2010PropOp37
 70
     1
102
RTVSPost2010Prop38
140
0.0
102
RTVSPost2010PropOp38
 70
     1
102
RTVSPost2010Prop39
140
1.0
102
RTVSPost2010PropOp39
 70
     1
102
RTVSPost2010Prop40
 90
        0
102
RTVSPost2010PropOp40
 70
     1
102
RTVSPost2010Prop41ColorIndex
 90
       18
102
RTVSPost2010Prop41ColorRGB
 90
        0
102
RTVSPost2010PropOp41
 70
     1
102
RTVSPost2010Prop42
 90
       50
102
RTVSPost2010PropOp42
 70
     1
102
RTVSPost2010Prop43
 90
        3
102
RTVSPost2010PropOp43
 70
     1
102
RTVSPost2010Prop44ColorIndex
 90
        5
102
RTVSPost2010Prop44ColorRGB
 90
      255
102
RTVSPost2010PropOp44
 70
     1
102
RTVSPost2010Prop45
280
     0
102
RTVSPost2010PropOp45
 70
     1
102
RTVSPost2010Prop46
 90
       50
102
RTVSPost2010PropOp46
 70
     1
102
RTVSPost2010Prop47
 90
       50
102
RTVSPost2010PropOp47
 70
     1
102
RTVSPost2010Prop48
 90
       50
102
RTVSPost2010PropOp48
 70
     1
102
RTVSPost2010Prop49
280
     0
102
RTVSPost2010PropOp49
 70
     1
102
RTVSPost2010Prop50
 90
       50
102
RTVSPost2010PropOp50
 70
     1
102
RTVSPost2010Prop51ColorIndex
 90
      256
102
RTVSPost2010Prop51ColorRGB
 90
-16777216
102
RTVSPost2010PropOp51
 70
     0
102
RTVSPost2010Prop52
140
1.0
102
RTVSPost2010PropOp52
 70
     0
102
RTVSPost2010Prop53
 90
        2
102
RTVSPost2010PropOp53
 70
     1
102
RTVSPost2010Prop54
  1
strokes_ogs.tif
102
RTVSPost2010PropOp54
 70
     1
102
RTVSPost2010Prop55
280
     0
102
RTVSPost2010PropOp55
 70
     1
102
RTVSPost2010Prop56
140
1.0
102
RTVSPost2010PropOp56
 70
     1
102
RTVSPost2010Prop57
140
1.0
102
RTVSPost2010PropOp57
 70
     1
102
RTVSPropertyOp0
 70
     1
102
RTVSPropertyOp1
 70
     1
102
RTVSPropertyOp2
 70
     1
102
RTVSPropertyOp3
 70
     1
102
RTVSPropertyOp4
 70
     1
102
RTVSPropertyOp5
 70
     1
102
RTVSPropertyOp6
 70
     1
102
RTVSPropertyOp7
 70
     1
102
RTVSPropertyOp8
 70
     1
102
RTVSPropertyOp9
 70
     1
102
RTVSPropertyOp10
 70
     1
102
RTVSPropertyOp11
 70
     1
102
RTVSPropertyOp12
 70
     1
102
RTVSPropertyOp13
 70
     1
102
RTVSPropertyOp14
 70
     1
102
RTVSPropertyOp15
 70
     1
102
RTVSPropertyOp16
 70
     1
102
RTVSPropertyOp17
 70
     1
102
RTVSPropertyOp18
 70
     1
102
RTVSPropertyOp19
 70
     1
102
RTVSPropertyOp20
 70
     1
102
RTVSPropertyOp21
 70
     1
102
RTVSPropertyOp22
 70
     1
102
RTVSPropertyOp23
 70
     1
102
RTVSPropertyOp24
 70
     1
102
RTVSPropertyOp25
 70
     1
102
RTVSPropertyOp26
 70
     1
102
RTVSPropertyOp27
 70
     1
102
RTVSPropertyOp28
 70
     1
102
RTVSPropertyOp29
 70
     1
102
RTVSPropertyOp30
 70
     1
102
RTVSPropertyOp31
 70
     1
102
RTVSPropertyOp32
 70
     1
102
RTVSPropertyOp33
 70
     1
102
RTVSPropertyOp34
 70
     1
102
RTVSPropertyOp35
 70
     1
102
RTVSPropertyOp36
 70
     1
102
RTVSPropertyOp37
 70
     1
102
RTVSPropertyOp38
 70
     1
102
RTVSPropertyOp39
 70
     1
102
RTVSPropertyOp40
 70
     1
102
RTVSPropertyOp41
 70
     1
102
RTVSPropertyOp42
 70
     1
102
RTVSPropertyOp43
 70
     1
102
RTVSPropertyOp44
 70
     1
102
RTVSPropertyOp45
 70
     1
102
RTVSPropertyOp46
 70
     1
102
RTVSPropertyOp47
 70
     1
102
RTVSPropertyOp48
 70
     1
102
RTVSPropertyOp49
 70
     1
102
RTVSPropertyOp50
 70
     1
102
RTVSPropertyOp51
 70
     0
102
RTVSPropertyOp52
 70
     0
102
RTVSPropertyOp53
 70
     1
102
RTVSPropertyOp54
 70
     1
102
RTVSPropertyOp55
 70
     1
102
RTVSPropertyOp56
 70
     1
102
RTVSPropertyOp57
 70
     1
102
RTVSPropertyOp58
 70
     1
102
RTVSPropertyOp59
 70
     1
102
RTVSPropertyOp60
 70
     1
102
RTVSPropertyOp61
 70
     1
102
RTVSPropertyOp62
 70
     1
  0
XRECORD
  5
2EC4
102
{ACAD_REACTORS
330
2EC3
102
}
330
2EC3
100
AcDbXrecord
280
     1
102
RTVSPost2010Prop28
280
     0
102
RTVSPost2010PropOp28
 70
     1
102
RTVSPost2010Prop29
280
     1
102
RTVSPost2010PropOp29
 70
     1
102
RTVSPost2010Prop30
280
     1
102
RTVSPost2010PropOp30
 70
     1
102
RTVSPost2010Prop31
280
     0
102
RTVSPost2010PropOp31
 70
     1
102
RTVSPost2010Prop32
280
     0
102
RTVSPost2010PropOp32
 70
     1
102
RTVSPost2010Prop33
280
     0
102
RTVSPost2010PropOp33
 70
     1
102
RTVSPost2010Prop34
280
     0
102
RTVSPost2010PropOp34
 70
     1
102
RTVSPost2010Prop35
280
     0
102
RTVSPost2010PropOp35
 70
     1
102
RTVSPost2010Prop36
280
     0
102
RTVSPost2010PropOp36
 70
     1
102
RTVSPost2010Prop37
 90
       50
102
RTVSPost2010PropOp37
 70
     1
102
RTVSPost2010Prop38
140
0.0
102
RTVSPost2010PropOp38
 70
     1
102
RTVSPost2010Prop39
140
1.0
102
RTVSPost2010PropOp39
 70
     1
102
RTVSPost2010Prop40
 90
        0
102
RTVSPost2010PropOp40
 70
     1
102
RTVSPost2010Prop41ColorIndex
 90
       18
102
RTVSPost2010Prop41ColorRGB
 90
        0
102
RTVSPost2010PropOp41
 70
     1
102
RTVSPost2010Prop42
 90
       50
102
RTVSPost2010PropOp42
 70
     1
102
RTVSPost2010Prop43
 90
        3
102
RTVSPost2010PropOp43
 70
     1
102
RTVSPost2010Prop44ColorIndex
 90
        5
102
RTVSPost2010Prop44ColorRGB
 90
      255
102
RTVSPost2010PropOp44
 70
     1
102
RTVSPost2010Prop45
280
     0
102
RTVSPost2010PropOp45
 70
     1
102
RTVSPost2010Prop46
 90
       50
102
RTVSPost2010PropOp46
 70
     1
102
RTVSPost2010Prop47
 90
       50
102
RTVSPost2010PropOp47
 70
     1
102
RTVSPost2010Prop48
 90
       50
102
RTVSPost2010PropOp48
 70
     1
102
RTVSPost2010Prop49
280
     0
102
RTVSPost2010PropOp49
 70
     1
102
RTVSPost2010Prop50
 90
       50
102
RTVSPost2010PropOp50
 70
     1
102
RTVSPost2010Prop51ColorIndex
 90
      256
102
RTVSPost2010Prop51ColorRGB
 90
-16777216
102
RTVSPost2010PropOp51
 70
     0
102
RTVSPost2010Prop52
140
1.0
102
RTVSPost2010PropOp52
 70
     0
102
RTVSPost2010Prop53
 90
        2
102
RTVSPost2010PropOp53
 70
     1
102
RTVSPost2010Prop54
  1
strokes_ogs.tif
102
RTVSPost2010PropOp54
 70
     1
102
RTVSPost2010Prop55
280
     0
102
RTVSPost2010PropOp55
 70
     1
102
RTVSPost2010Prop56
140
1.0
102
RTVSPost2010PropOp56
 70
     1
102
RTVSPost2010Prop57
140
1.0
102
RTVSPost2010PropOp57
 70
     1
102
RTVSPropertyOp0
 70
     1
102
RTVSPropertyOp1
 70
     1
102
RTVSPropertyOp2
 70
     1
102
RTVSPropertyOp3
 70
     1
102
RTVSPropertyOp4
 70
     1
102
RTVSPropertyOp5
 70
     1
102
RTVSPropertyOp6
 70
     1
102
RTVSPropertyOp7
 70
     1
102
RTVSPropertyOp8
 70
     1
102
RTVSPropertyOp9
 70
     1
102
RTVSPropertyOp10
 70
     1
102
RTVSPropertyOp11
 70
     1
102
RTVSPropertyOp12
 70
     1
102
RTVSPropertyOp13
 70
     1
102
RTVSPropertyOp14
 70
     1
102
RTVSPropertyOp15
 70
     1
102
RTVSPropertyOp16
 70
     1
102
RTVSPropertyOp17
 70
     1
102
RTVSPropertyOp18
 70
     1
102
RTVSPropertyOp19
 70
     1
102
RTVSPropertyOp20
 70
     1
102
RTVSPropertyOp21
 70
     1
102
RTVSPropertyOp22
 70
     1
102
RTVSPropertyOp23
 70
     1
102
RTVSPropertyOp24
 70
     1
102
RTVSPropertyOp25
 70
     1
102
RTVSPropertyOp26
 70
     1
102
RTVSPropertyOp27
 70
     1
102
RTVSPropertyOp28
 70
     1
102
RTVSPropertyOp29
 70
     1
102
RTVSPropertyOp30
 70
     1
102
RTVSPropertyOp31
 70
     1
102
RTVSPropertyOp32
 70
     1
102
RTVSPropertyOp33
 70
     1
102
RTVSPropertyOp34
 70
     1
102
RTVSPropertyOp35
 70
     1
102
RTVSPropertyOp36
 70
     1
102
RTVSPropertyOp37
 70
     1
102
RTVSPropertyOp38
 70
     1
102
RTVSPropertyOp39
 70
     1
102
RTVSPropertyOp40
 70
     1
102
RTVSPropertyOp41
 70
     1
102
RTVSPropertyOp42
 70
     1
102
RTVSPropertyOp43
 70
     1
102
RTVSPropertyOp44
 70
     1
102
RTVSPropertyOp45
 70
     1
102
RTVSPropertyOp46
 70
     1
102
RTVSPropertyOp47
 70
     1
102
RTVSPropertyOp48
 70
     1
102
RTVSPropertyOp49
 70
     1
102
RTVSPropertyOp50
 70
     1
102
RTVSPropertyOp51
 70
     0
102
RTVSPropertyOp52
 70
     0
102
RTVSPropertyOp53
 70
     1
102
RTVSPropertyOp54
 70
     1
102
RTVSPropertyOp55
 70
     1
102
RTVSPropertyOp56
 70
     1
102
RTVSPropertyOp57
 70
     1
102
RTVSPropertyOp58
 70
     1
102
RTVSPropertyOp59
 70
     1
102
RTVSPropertyOp60
 70
     1
102
RTVSPropertyOp61
 70
     1
102
RTVSPropertyOp62
 70
     1
  0
XRECORD
  5
2EDE
102
{ACAD_REACTORS
330
2EDD
102
}
330
2EDD
100
AcDbXrecord
280
     1
102
RTVSPost2010Prop28
280
     0
102
RTVSPost2010PropOp28
 70
     1
102
RTVSPost2010Prop29
280
     1
102
RTVSPost2010PropOp29
 70
     1
102
RTVSPost2010Prop30
280
     1
102
RTVSPost2010PropOp30
 70
     1
102
RTVSPost2010Prop31
280
     0
102
RTVSPost2010PropOp31
 70
     1
102
RTVSPost2010Prop32
280
     0
102
RTVSPost2010PropOp32
 70
     1
102
RTVSPost2010Prop33
280
     0
102
RTVSPost2010PropOp33
 70
     1
102
RTVSPost2010Prop34
280
     0
102
RTVSPost2010PropOp34
 70
     1
102
RTVSPost2010Prop35
280
     0
102
RTVSPost2010PropOp35
 70
     1
102
RTVSPost2010Prop36
280
     0
102
RTVSPost2010PropOp36
 70
     1
102
RTVSPost2010Prop37
 90
       50
102
RTVSPost2010PropOp37
 70
     0
102
RTVSPost2010Prop38
140
0.0
102
RTVSPost2010PropOp38
 70
     0
102
RTVSPost2010Prop39
140
1.0
102
RTVSPost2010PropOp39
 70
     0
102
RTVSPost2010Prop40
 90
        0
102
RTVSPost2010PropOp40
 70
     0
102
RTVSPost2010Prop41ColorIndex
 90
       18
102
RTVSPost2010Prop41ColorRGB
 90
        0
102
RTVSPost2010PropOp41
 70
     0
102
RTVSPost2010Prop42
 90
       50
102
RTVSPost2010PropOp42
 70
     0
102
RTVSPost2010Prop43
 90
        3
102
RTVSPost2010PropOp43
 70
     0
102
RTVSPost2010Prop44ColorIndex
 90
        5
102
RTVSPost2010Prop44ColorRGB
 90
      255
102
RTVSPost2010PropOp44
 70
     0
102
RTVSPost2010Prop45
280
     0
102
RTVSPost2010PropOp45
 70
     1
102
RTVSPost2010Prop46
 90
       50
102
RTVSPost2010PropOp46
 70
     0
102
RTVSPost2010Prop47
 90
       50
102
RTVSPost2010PropOp47
 70
     0
102
RTVSPost2010Prop48
 90
       50
102
RTVSPost2010PropOp48
 70
     0
102
RTVSPost2010Prop49
280
     0
102
RTVSPost2010PropOp49
 70
     1
102
RTVSPost2010Prop50
 90
       50
102
RTVSPost2010PropOp50
 70
     0
102
RTVSPost2010Prop51ColorIndex
 90
      256
102
RTVSPost2010Prop51ColorRGB
 90
-16777216
102
RTVSPost2010PropOp51
 70
     0
102
RTVSPost2010Prop52
140
1.0
102
RTVSPost2010PropOp52
 70
     0
102
RTVSPost2010Prop53
 90
        2
102
RTVSPost2010PropOp53
 70
     0
102
RTVSPost2010Prop54
  1
strokes_ogs.tif
102
RTVSPost2010PropOp54
 70
     0
102
RTVSPost2010Prop55
280
     0
102
RTVSPost2010PropOp55
 70
     1
102
RTVSPost2010Prop56
140
1.0
102
RTVSPost2010PropOp56
 70
     0
102
RTVSPost2010Prop57
140
1.0
102
RTVSPost2010PropOp57
 70
     0
102
RTVSPropertyOp0
 70
     0
102
RTVSPropertyOp1
 70
     0
102
RTVSPropertyOp2
 70
     0
102
RTVSPropertyOp3
 70
     0
102
RTVSPropertyOp4
 70
     0
102
RTVSPropertyOp5
 70
     0
102
RTVSPropertyOp6
 70
     0
102
RTVSPropertyOp7
 70
     0
102
RTVSPropertyOp8
 70
     0
102
RTVSPropertyOp9
 70
     0
102
RTVSPropertyOp10
 70
     0
102
RTVSPropertyOp11
 70
     0
102
RTVSPropertyOp12
 70
     0
102
RTVSPropertyOp13
 70
     0
102
RTVSPropertyOp14
 70
     2
102
RTVSPropertyOp15
 70
     0
102
RTVSPropertyOp16
 70
     0
102
RTVSPropertyOp17
 70
     0
102
RTVSPropertyOp18
 70
     0
102
RTVSPropertyOp19
 70
     0
102
RTVSPropertyOp20
 70
     0
102
RTVSPropertyOp21
 70
     0
102
RTVSPropertyOp22
 70
     0
102
RTVSPropertyOp23
 70
     0
102
RTVSPropertyOp24
 70
     0
102
RTVSPropertyOp25
 70
     0
102
RTVSPropertyOp26
 70
     0
102
RTVSPropertyOp27
 70
     0
102
RTVSPropertyOp28
 70
     1
102
RTVSPropertyOp29
 70
     1
102
RTVSPropertyOp30
 70
     1
102
RTVSPropertyOp31
 70
     1
102
RTVSPropertyOp32
 70
     1
102
RTVSPropertyOp33
 70
     1
102
RTVSPropertyOp34
 70
     1
102
RTVSPropertyOp35
 70
     1
102
RTVSPropertyOp36
 70
     1
102
RTVSPropertyOp37
 70
     0
102
RTVSPropertyOp38
 70
     0
102
RTVSPropertyOp39
 70
     0
102
RTVSPropertyOp40
 70
     0
102
RTVSPropertyOp41
 70
     0
102
RTVSPropertyOp42
 70
     0
102
RTVSPropertyOp43
 70
     0
102
RTVSPropertyOp44
 70
     0
102
RTVSPropertyOp45
 70
     1
102
RTVSPropertyOp46
 70
     0
102
RTVSPropertyOp47
 70
     0
102
RTVSPropertyOp48
 70
     0
102
RTVSPropertyOp49
 70
     1
102
RTVSPropertyOp50
 70
     0
102
RTVSPropertyOp51
 70
     0
102
RTVSPropertyOp52
 70
     0
102
RTVSPropertyOp53
 70
     0
102
RTVSPropertyOp54
 70
     0
102
RTVSPropertyOp55
 70
     1
102
RTVSPropertyOp56
 70
     0
102
RTVSPropertyOp57
 70
     0
102
RTVSPropertyOp58
 70
     0
102
RTVSPropertyOp59
 70
     0
102
RTVSPropertyOp60
 70
     0
102
RTVSPropertyOp61
 70
     0
102
RTVSPropertyOp62
 70
     0
  0
XRECORD
  5
2ECC
102
{ACAD_REACTORS
330
2ECB
102
}
330
2ECB
100
AcDbXrecord
280
     1
102
RTVSPost2010Prop28
280
     0
102
RTVSPost2010PropOp28
 70
     1
102
RTVSPost2010Prop29
280
     1
102
RTVSPost2010PropOp29
 70
     1
102
RTVSPost2010Prop30
280
     1
102
RTVSPost2010PropOp30
 70
     1
102
RTVSPost2010Prop31
280
     0
102
RTVSPost2010PropOp31
 70
     1
102
RTVSPost2010Prop32
280
     0
102
RTVSPost2010PropOp32
 70
     1
102
RTVSPost2010Prop33
280
     0
102
RTVSPost2010PropOp33
 70
     1
102
RTVSPost2010Prop34
280
     0
102
RTVSPost2010PropOp34
 70
     1
102
RTVSPost2010Prop35
280
     0
102
RTVSPost2010PropOp35
 70
     1
102
RTVSPost2010Prop36
280
     0
102
RTVSPost2010PropOp36
 70
     1
102
RTVSPost2010Prop37
 90
       50
102
RTVSPost2010PropOp37
 70
     1
102
RTVSPost2010Prop38
140
0.0
102
RTVSPost2010PropOp38
 70
     1
102
RTVSPost2010Prop39
140
1.0
102
RTVSPost2010PropOp39
 70
     1
102
RTVSPost2010Prop40
 90
        0
102
RTVSPost2010PropOp40
 70
     1
102
RTVSPost2010Prop41ColorIndex
 90
       18
102
RTVSPost2010Prop41ColorRGB
 90
        0
102
RTVSPost2010PropOp41
 70
     1
102
RTVSPost2010Prop42
 90
       50
102
RTVSPost2010PropOp42
 70
     1
102
RTVSPost2010Prop43
 90
        3
102
RTVSPost2010PropOp43
 70
     1
102
RTVSPost2010Prop44ColorIndex
 90
        5
102
RTVSPost2010Prop44ColorRGB
 90
      255
102
RTVSPost2010PropOp44
 70
     1
102
RTVSPost2010Prop45
280
     0
102
RTVSPost2010PropOp45
 70
     1
102
RTVSPost2010Prop46
 90
       50
102
RTVSPost2010PropOp46
 70
     1
102
RTVSPost2010Prop47
 90
       50
102
RTVSPost2010PropOp47
 70
     1
102
RTVSPost2010Prop48
 90
       50
102
RTVSPost2010PropOp48
 70
     1
102
RTVSPost2010Prop49
280
     0
102
RTVSPost2010PropOp49
 70
     1
102
RTVSPost2010Prop50
 90
       50
102
RTVSPost2010PropOp50
 70
     1
102
RTVSPost2010Prop51ColorIndex
 90
      256
102
RTVSPost2010Prop51ColorRGB
 90
-16777216
102
RTVSPost2010PropOp51
 70
     0
102
RTVSPost2010Prop52
140
1.0
102
RTVSPost2010PropOp52
 70
     0
102
RTVSPost2010Prop53
 90
        2
102
RTVSPost2010PropOp53
 70
     1
102
RTVSPost2010Prop54
  1
strokes_ogs.tif
102
RTVSPost2010PropOp54
 70
     1
102
RTVSPost2010Prop55
280
     0
102
RTVSPost2010PropOp55
 70
     1
102
RTVSPost2010Prop56
140
1.0
102
RTVSPost2010PropOp56
 70
     1
102
RTVSPost2010Prop57
140
1.0
102
RTVSPost2010PropOp57
 70
     1
102
RTVSPropertyOp0
 70
     1
102
RTVSPropertyOp1
 70
     1
102
RTVSPropertyOp2
 70
     1
102
RTVSPropertyOp3
 70
     1
102
RTVSPropertyOp4
 70
     1
102
RTVSPropertyOp5
 70
     1
102
RTVSPropertyOp6
 70
     1
102
RTVSPropertyOp7
 70
     1
102
RTVSPropertyOp8
 70
     1
102
RTVSPropertyOp9
 70
     1
102
RTVSPropertyOp10
 70
     1
102
RTVSPropertyOp11
 70
     1
102
RTVSPropertyOp12
 70
     1
102
RTVSPropertyOp13
 70
     1
102
RTVSPropertyOp14
 70
     1
102
RTVSPropertyOp15
 70
     1
102
RTVSPropertyOp16
 70
     1
102
RTVSPropertyOp17
 70
     1
102
RTVSPropertyOp18
 70
     1
102
RTVSPropertyOp19
 70
     1
102
RTVSPropertyOp20
 70
     1
102
RTVSPropertyOp21
 70
     1
102
RTVSPropertyOp22
 70
     1
102
RTVSPropertyOp23
 70
     1
102
RTVSPropertyOp24
 70
     1
102
RTVSPropertyOp25
 70
     1
102
RTVSPropertyOp26
 70
     1
102
RTVSPropertyOp27
 70
     1
102
RTVSPropertyOp28
 70
     1
102
RTVSPropertyOp29
 70
     1
102
RTVSPropertyOp30
 70
     1
102
RTVSPropertyOp31
 70
     1
102
RTVSPropertyOp32
 70
     1
102
RTVSPropertyOp33
 70
     1
102
RTVSPropertyOp34
 70
     1
102
RTVSPropertyOp35
 70
     1
102
RTVSPropertyOp36
 70
     1
102
RTVSPropertyOp37
 70
     1
102
RTVSPropertyOp38
 70
     1
102
RTVSPropertyOp39
 70
     1
102
RTVSPropertyOp40
 70
     1
102
RTVSPropertyOp41
 70
     1
102
RTVSPropertyOp42
 70
     1
102
RTVSPropertyOp43
 70
     1
102
RTVSPropertyOp44
 70
     1
102
RTVSPropertyOp45
 70
     1
102
RTVSPropertyOp46
 70
     1
102
RTVSPropertyOp47
 70
     1
102
RTVSPropertyOp48
 70
     1
102
RTVSPropertyOp49
 70
     1
102
RTVSPropertyOp50
 70
     1
102
RTVSPropertyOp51
 70
     0
102
RTVSPropertyOp52
 70
     0
102
RTVSPropertyOp53
 70
     1
102
RTVSPropertyOp54
 70
     1
102
RTVSPropertyOp55
 70
     1
102
RTVSPropertyOp56
 70
     1
102
RTVSPropertyOp57
 70
     1
102
RTVSPropertyOp58
 70
     1
102
RTVSPropertyOp59
 70
     1
102
RTVSPropertyOp60
 70
     1
102
RTVSPropertyOp61
 70
     1
102
RTVSPropertyOp62
 70
     1
  0
XRECORD
  5
2EB0
102
{ACAD_REACTORS
330
2EAF
102
}
330
2EAF
100
AcDbXrecord
280
     1
102
RTVSPost2010Prop28
280
     0
102
RTVSPost2010PropOp28
 70
     1
102
RTVSPost2010Prop29
280
     1
102
RTVSPost2010PropOp29
 70
     1
102
RTVSPost2010Prop30
280
     1
102
RTVSPost2010PropOp30
 70
     1
102
RTVSPost2010Prop31
280
     0
102
RTVSPost2010PropOp31
 70
     1
102
RTVSPost2010Prop32
280
     0
102
RTVSPost2010PropOp32
 70
     1
102
RTVSPost2010Prop33
280
     0
102
RTVSPost2010PropOp33
 70
     1
102
RTVSPost2010Prop34
280
     0
102
RTVSPost2010PropOp34
 70
     1
102
RTVSPost2010Prop35
280
     0
102
RTVSPost2010PropOp35
 70
     1
102
RTVSPost2010Prop36
280
     0
102
RTVSPost2010PropOp36
 70
     1
102
RTVSPost2010Prop37
 90
       50
102
RTVSPost2010PropOp37
 70
     1
102
RTVSPost2010Prop38
140
0.0
102
RTVSPost2010PropOp38
 70
     1
102
RTVSPost2010Prop39
140
1.0
102
RTVSPost2010PropOp39
 70
     1
102
RTVSPost2010Prop40
 90
        0
102
RTVSPost2010PropOp40
 70
     1
102
RTVSPost2010Prop41ColorIndex
 90
       18
102
RTVSPost2010Prop41ColorRGB
 90
        0
102
RTVSPost2010PropOp41
 70
     1
102
RTVSPost2010Prop42
 90
       50
102
RTVSPost2010PropOp42
 70
     1
102
RTVSPost2010Prop43
 90
        3
102
RTVSPost2010PropOp43
 70
     1
102
RTVSPost2010Prop44ColorIndex
 90
        5
102
RTVSPost2010Prop44ColorRGB
 90
      255
102
RTVSPost2010PropOp44
 70
     1
102
RTVSPost2010Prop45
280
     0
102
RTVSPost2010PropOp45
 70
     1
102
RTVSPost2010Prop46
 90
       50
102
RTVSPost2010PropOp46
 70
     1
102
RTVSPost2010Prop47
 90
       50
102
RTVSPost2010PropOp47
 70
     1
102
RTVSPost2010Prop48
 90
       50
102
RTVSPost2010PropOp48
 70
     1
102
RTVSPost2010Prop49
280
     0
102
RTVSPost2010PropOp49
 70
     1
102
RTVSPost2010Prop50
 90
       50
102
RTVSPost2010PropOp50
 70
     1
102
RTVSPost2010Prop51ColorIndex
 90
      256
102
RTVSPost2010Prop51ColorRGB
 90
-16777216
102
RTVSPost2010PropOp51
 70
     0
102
RTVSPost2010Prop52
140
1.0
102
RTVSPost2010PropOp52
 70
     0
102
RTVSPost2010Prop53
 90
        2
102
RTVSPost2010PropOp53
 70
     1
102
RTVSPost2010Prop54
  1
strokes_ogs.tif
102
RTVSPost2010PropOp54
 70
     1
102
RTVSPost2010Prop55
280
     0
102
RTVSPost2010PropOp55
 70
     1
102
RTVSPost2010Prop56
140
1.0
102
RTVSPost2010PropOp56
 70
     1
102
RTVSPost2010Prop57
140
1.0
102
RTVSPost2010PropOp57
 70
     1
102
RTVSPropertyOp0
 70
     1
102
RTVSPropertyOp1
 70
     1
102
RTVSPropertyOp2
 70
     1
102
RTVSPropertyOp3
 70
     1
102
RTVSPropertyOp4
 70
     1
102
RTVSPropertyOp5
 70
     1
102
RTVSPropertyOp6
 70
     1
102
RTVSPropertyOp7
 70
     1
102
RTVSPropertyOp8
 70
     1
102
RTVSPropertyOp9
 70
     1
102
RTVSPropertyOp10
 70
     1
102
RTVSPropertyOp11
 70
     1
102
RTVSPropertyOp12
 70
     1
102
RTVSPropertyOp13
 70
     1
102
RTVSPropertyOp14
 70
     1
102
RTVSPropertyOp15
 70
     1
102
RTVSPropertyOp16
 70
     1
102
RTVSPropertyOp17
 70
     1
102
RTVSPropertyOp18
 70
     1
102
RTVSPropertyOp19
 70
     1
102
RTVSPropertyOp20
 70
     1
102
RTVSPropertyOp21
 70
     1
102
RTVSPropertyOp22
 70
     1
102
RTVSPropertyOp23
 70
     1
102
RTVSPropertyOp24
 70
     1
102
RTVSPropertyOp25
 70
     1
102
RTVSPropertyOp26
 70
     1
102
RTVSPropertyOp27
 70
     1
102
RTVSPropertyOp28
 70
     1
102
RTVSPropertyOp29
 70
     1
102
RTVSPropertyOp30
 70
     1
102
RTVSPropertyOp31
 70
     1
102
RTVSPropertyOp32
 70
     1
102
RTVSPropertyOp33
 70
     1
102
RTVSPropertyOp34
 70
     1
102
RTVSPropertyOp35
 70
     1
102
RTVSPropertyOp36
 70
     1
102
RTVSPropertyOp37
 70
     1
102
RTVSPropertyOp38
 70
     1
102
RTVSPropertyOp39
 70
     1
102
RTVSPropertyOp40
 70
     1
102
RTVSPropertyOp41
 70
     1
102
RTVSPropertyOp42
 70
     1
102
RTVSPropertyOp43
 70
     1
102
RTVSPropertyOp44
 70
     1
102
RTVSPropertyOp45
 70
     1
102
RTVSPropertyOp46
 70
     1
102
RTVSPropertyOp47
 70
     1
102
RTVSPropertyOp48
 70
     1
102
RTVSPropertyOp49
 70
     1
102
RTVSPropertyOp50
 70
     1
102
RTVSPropertyOp51
 70
     0
102
RTVSPropertyOp52
 70
     0
102
RTVSPropertyOp53
 70
     1
102
RTVSPropertyOp54
 70
     1
102
RTVSPropertyOp55
 70
     1
102
RTVSPropertyOp56
 70
     1
102
RTVSPropertyOp57
 70
     1
102
RTVSPropertyOp58
 70
     1
102
RTVSPropertyOp59
 70
     1
102
RTVSPropertyOp60
 70
     1
102
RTVSPropertyOp61
 70
     1
102
RTVSPropertyOp62
 70
     1
  0
XRECORD
  5
2EB2
102
{ACAD_REACTORS
330
2EB1
102
}
330
2EB1
100
AcDbXrecord
280
     1
102
RTVSPost2010Prop28
280
     0
102
RTVSPost2010PropOp28
 70
     1
102
RTVSPost2010Prop29
280
     1
102
RTVSPost2010PropOp29
 70
     1
102
RTVSPost2010Prop30
280
     1
102
RTVSPost2010PropOp30
 70
     1
102
RTVSPost2010Prop31
280
     0
102
RTVSPost2010PropOp31
 70
     1
102
RTVSPost2010Prop32
280
     0
102
RTVSPost2010PropOp32
 70
     1
102
RTVSPost2010Prop33
280
     0
102
RTVSPost2010PropOp33
 70
     1
102
RTVSPost2010Prop34
280
     0
102
RTVSPost2010PropOp34
 70
     1
102
RTVSPost2010Prop35
280
     0
102
RTVSPost2010PropOp35
 70
     1
102
RTVSPost2010Prop36
280
     0
102
RTVSPost2010PropOp36
 70
     1
102
RTVSPost2010Prop37
 90
       50
102
RTVSPost2010PropOp37
 70
     1
102
RTVSPost2010Prop38
140
0.0
102
RTVSPost2010PropOp38
 70
     1
102
RTVSPost2010Prop39
140
1.0
102
RTVSPost2010PropOp39
 70
     1
102
RTVSPost2010Prop40
 90
        0
102
RTVSPost2010PropOp40
 70
     1
102
RTVSPost2010Prop41ColorIndex
 90
       18
102
RTVSPost2010Prop41ColorRGB
 90
        0
102
RTVSPost2010PropOp41
 70
     1
102
RTVSPost2010Prop42
 90
       50
102
RTVSPost2010PropOp42
 70
     1
102
RTVSPost2010Prop43
 90
        3
102
RTVSPost2010PropOp43
 70
     1
102
RTVSPost2010Prop44ColorIndex
 90
        5
102
RTVSPost2010Prop44ColorRGB
 90
      255
102
RTVSPost2010PropOp44
 70
     1
102
RTVSPost2010Prop45
280
     0
102
RTVSPost2010PropOp45
 70
     1
102
RTVSPost2010Prop46
 90
       50
102
RTVSPost2010PropOp46
 70
     1
102
RTVSPost2010Prop47
 90
       50
102
RTVSPost2010PropOp47
 70
     1
102
RTVSPost2010Prop48
 90
       50
102
RTVSPost2010PropOp48
 70
     1
102
RTVSPost2010Prop49
280
     0
102
RTVSPost2010PropOp49
 70
     1
102
RTVSPost2010Prop50
 90
       50
102
RTVSPost2010PropOp50
 70
     1
102
RTVSPost2010Prop51ColorIndex
 90
      256
102
RTVSPost2010Prop51ColorRGB
 90
-16777216
102
RTVSPost2010PropOp51
 70
     0
102
RTVSPost2010Prop52
140
1.0
102
RTVSPost2010PropOp52
 70
     0
102
RTVSPost2010Prop53
 90
        2
102
RTVSPost2010PropOp53
 70
     1
102
RTVSPost2010Prop54
  1
strokes_ogs.tif
102
RTVSPost2010PropOp54
 70
     1
102
RTVSPost2010Prop55
280
     0
102
RTVSPost2010PropOp55
 70
     1
102
RTVSPost2010Prop56
140
1.0
102
RTVSPost2010PropOp56
 70
     1
102
RTVSPost2010Prop57
140
1.0
102
RTVSPost2010PropOp57
 70
     1
102
RTVSPropertyOp0
 70
     1
102
RTVSPropertyOp1
 70
     1
102
RTVSPropertyOp2
 70
     1
102
RTVSPropertyOp3
 70
     1
102
RTVSPropertyOp4
 70
     1
102
RTVSPropertyOp5
 70
     1
102
RTVSPropertyOp6
 70
     1
102
RTVSPropertyOp7
 70
     1
102
RTVSPropertyOp8
 70
     1
102
RTVSPropertyOp9
 70
     1
102
RTVSPropertyOp10
 70
     1
102
RTVSPropertyOp11
 70
     1
102
RTVSPropertyOp12
 70
     1
102
RTVSPropertyOp13
 70
     1
102
RTVSPropertyOp14
 70
     1
102
RTVSPropertyOp15
 70
     1
102
RTVSPropertyOp16
 70
     1
102
RTVSPropertyOp17
 70
     1
102
RTVSPropertyOp18
 70
     1
102
RTVSPropertyOp19
 70
     1
102
RTVSPropertyOp20
 70
     1
102
RTVSPropertyOp21
 70
     1
102
RTVSPropertyOp22
 70
     1
102
RTVSPropertyOp23
 70
     1
102
RTVSPropertyOp24
 70
     1
102
RTVSPropertyOp25
 70
     1
102
RTVSPropertyOp26
 70
     1
102
RTVSPropertyOp27
 70
     1
102
RTVSPropertyOp28
 70
     1
102
RTVSPropertyOp29
 70
     1
102
RTVSPropertyOp30
 70
     1
102
RTVSPropertyOp31
 70
     1
102
RTVSPropertyOp32
 70
     1
102
RTVSPropertyOp33
 70
     1
102
RTVSPropertyOp34
 70
     1
102
RTVSPropertyOp35
 70
     1
102
RTVSPropertyOp36
 70
     1
102
RTVSPropertyOp37
 70
     1
102
RTVSPropertyOp38
 70
     1
102
RTVSPropertyOp39
 70
     1
102
RTVSPropertyOp40
 70
     1
102
RTVSPropertyOp41
 70
     1
102
RTVSPropertyOp42
 70
     1
102
RTVSPropertyOp43
 70
     1
102
RTVSPropertyOp44
 70
     1
102
RTVSPropertyOp45
 70
     1
102
RTVSPropertyOp46
 70
     1
102
RTVSPropertyOp47
 70
     1
102
RTVSPropertyOp48
 70
     1
102
RTVSPropertyOp49
 70
     1
102
RTVSPropertyOp50
 70
     1
102
RTVSPropertyOp51
 70
     0
102
RTVSPropertyOp52
 70
     0
102
RTVSPropertyOp53
 70
     1
102
RTVSPropertyOp54
 70
     1
102
RTVSPropertyOp55
 70
     1
102
RTVSPropertyOp56
 70
     1
102
RTVSPropertyOp57
 70
     1
102
RTVSPropertyOp58
 70
     1
102
RTVSPropertyOp59
 70
     1
102
RTVSPropertyOp60
 70
     1
102
RTVSPropertyOp61
 70
     1
102
RTVSPropertyOp62
 70
     1
  0
XRECORD
  5
2EB4
102
{ACAD_REACTORS
330
2EB3
102
}
330
2EB3
100
AcDbXrecord
280
     1
102
RTVSPost2010Prop28
280
     0
102
RTVSPost2010PropOp28
 70
     1
102
RTVSPost2010Prop29
280
     1
102
RTVSPost2010PropOp29
 70
     1
102
RTVSPost2010Prop30
280
     1
102
RTVSPost2010PropOp30
 70
     1
102
RTVSPost2010Prop31
280
     0
102
RTVSPost2010PropOp31
 70
     1
102
RTVSPost2010Prop32
280
     0
102
RTVSPost2010PropOp32
 70
     1
102
RTVSPost2010Prop33
280
     0
102
RTVSPost2010PropOp33
 70
     1
102
RTVSPost2010Prop34
280
     0
102
RTVSPost2010PropOp34
 70
     1
102
RTVSPost2010Prop35
280
     0
102
RTVSPost2010PropOp35
 70
     1
102
RTVSPost2010Prop36
280
     0
102
RTVSPost2010PropOp36
 70
     1
102
RTVSPost2010Prop37
 90
       50
102
RTVSPost2010PropOp37
 70
     1
102
RTVSPost2010Prop38
140
0.0
102
RTVSPost2010PropOp38
 70
     1
102
RTVSPost2010Prop39
140
1.0
102
RTVSPost2010PropOp39
 70
     1
102
RTVSPost2010Prop40
 90
        0
102
RTVSPost2010PropOp40
 70
     1
102
RTVSPost2010Prop41ColorIndex
 90
       18
102
RTVSPost2010Prop41ColorRGB
 90
        0
102
RTVSPost2010PropOp41
 70
     1
102
RTVSPost2010Prop42
 90
       50
102
RTVSPost2010PropOp42
 70
     1
102
RTVSPost2010Prop43
 90
        3
102
RTVSPost2010PropOp43
 70
     1
102
RTVSPost2010Prop44ColorIndex
 90
        5
102
RTVSPost2010Prop44ColorRGB
 90
      255
102
RTVSPost2010PropOp44
 70
     1
102
RTVSPost2010Prop45
280
     0
102
RTVSPost2010PropOp45
 70
     1
102
RTVSPost2010Prop46
 90
       50
102
RTVSPost2010PropOp46
 70
     1
102
RTVSPost2010Prop47
 90
       50
102
RTVSPost2010PropOp47
 70
     1
102
RTVSPost2010Prop48
 90
       50
102
RTVSPost2010PropOp48
 70
     1
102
RTVSPost2010Prop49
280
     0
102
RTVSPost2010PropOp49
 70
     1
102
RTVSPost2010Prop50
 90
       50
102
RTVSPost2010PropOp50
 70
     1
102
RTVSPost2010Prop51ColorIndex
 90
      256
102
RTVSPost2010Prop51ColorRGB
 90
-16777216
102
RTVSPost2010PropOp51
 70
     0
102
RTVSPost2010Prop52
140
1.0
102
RTVSPost2010PropOp52
 70
     0
102
RTVSPost2010Prop53
 90
        2
102
RTVSPost2010PropOp53
 70
     1
102
RTVSPost2010Prop54
  1
strokes_ogs.tif
102
RTVSPost2010PropOp54
 70
     1
102
RTVSPost2010Prop55
280
     0
102
RTVSPost2010PropOp55
 70
     1
102
RTVSPost2010Prop56
140
1.0
102
RTVSPost2010PropOp56
 70
     1
102
RTVSPost2010Prop57
140
1.0
102
RTVSPost2010PropOp57
 70
     1
102
RTVSPropertyOp0
 70
     1
102
RTVSPropertyOp1
 70
     1
102
RTVSPropertyOp2
 70
     1
102
RTVSPropertyOp3
 70
     1
102
RTVSPropertyOp4
 70
     1
102
RTVSPropertyOp5
 70
     1
102
RTVSPropertyOp6
 70
     1
102
RTVSPropertyOp7
 70
     1
102
RTVSPropertyOp8
 70
     1
102
RTVSPropertyOp9
 70
     1
102
RTVSPropertyOp10
 70
     1
102
RTVSPropertyOp11
 70
     1
102
RTVSPropertyOp12
 70
     1
102
RTVSPropertyOp13
 70
     1
102
RTVSPropertyOp14
 70
     1
102
RTVSPropertyOp15
 70
     1
102
RTVSPropertyOp16
 70
     1
102
RTVSPropertyOp17
 70
     1
102
RTVSPropertyOp18
 70
     1
102
RTVSPropertyOp19
 70
     1
102
RTVSPropertyOp20
 70
     1
102
RTVSPropertyOp21
 70
     1
102
RTVSPropertyOp22
 70
     1
102
RTVSPropertyOp23
 70
     1
102
RTVSPropertyOp24
 70
     1
102
RTVSPropertyOp25
 70
     1
102
RTVSPropertyOp26
 70
     1
102
RTVSPropertyOp27
 70
     1
102
RTVSPropertyOp28
 70
     1
102
RTVSPropertyOp29
 70
     1
102
RTVSPropertyOp30
 70
     1
102
RTVSPropertyOp31
 70
     1
102
RTVSPropertyOp32
 70
     1
102
RTVSPropertyOp33
 70
     1
102
RTVSPropertyOp34
 70
     1
102
RTVSPropertyOp35
 70
     1
102
RTVSPropertyOp36
 70
     1
102
RTVSPropertyOp37
 70
     1
102
RTVSPropertyOp38
 70
     1
102
RTVSPropertyOp39
 70
     1
102
RTVSPropertyOp40
 70
     1
102
RTVSPropertyOp41
 70
     1
102
RTVSPropertyOp42
 70
     1
102
RTVSPropertyOp43
 70
     1
102
RTVSPropertyOp44
 70
     1
102
RTVSPropertyOp45
 70
     1
102
RTVSPropertyOp46
 70
     1
102
RTVSPropertyOp47
 70
     1
102
RTVSPropertyOp48
 70
     1
102
RTVSPropertyOp49
 70
     1
102
RTVSPropertyOp50
 70
     1
102
RTVSPropertyOp51
 70
     0
102
RTVSPropertyOp52
 70
     0
102
RTVSPropertyOp53
 70
     1
102
RTVSPropertyOp54
 70
     1
102
RTVSPropertyOp55
 70
     1
102
RTVSPropertyOp56
 70
     1
102
RTVSPropertyOp57
 70
     1
102
RTVSPropertyOp58
 70
     1
102
RTVSPropertyOp59
 70
     1
102
RTVSPropertyOp60
 70
     1
102
RTVSPropertyOp61
 70
     1
102
RTVSPropertyOp62
 70
     1
  0
XRECORD
  5
2EB6
102
{ACAD_REACTORS
330
2EB5
102
}
330
2EB5
100
AcDbXrecord
280
     1
102
RTVSPost2010Prop28
280
     0
102
RTVSPost2010PropOp28
 70
     1
102
RTVSPost2010Prop29
280
     1
102
RTVSPost2010PropOp29
 70
     1
102
RTVSPost2010Prop30
280
     1
102
RTVSPost2010PropOp30
 70
     1
102
RTVSPost2010Prop31
280
     0
102
RTVSPost2010PropOp31
 70
     1
102
RTVSPost2010Prop32
280
     0
102
RTVSPost2010PropOp32
 70
     1
102
RTVSPost2010Prop33
280
     0
102
RTVSPost2010PropOp33
 70
     1
102
RTVSPost2010Prop34
280
     0
102
RTVSPost2010PropOp34
 70
     1
102
RTVSPost2010Prop35
280
     0
102
RTVSPost2010PropOp35
 70
     1
102
RTVSPost2010Prop36
280
     0
102
RTVSPost2010PropOp36
 70
     1
102
RTVSPost2010Prop37
 90
       50
102
RTVSPost2010PropOp37
 70
     1
102
RTVSPost2010Prop38
140
0.0
102
RTVSPost2010PropOp38
 70
     1
102
RTVSPost2010Prop39
140
1.0
102
RTVSPost2010PropOp39
 70
     1
102
RTVSPost2010Prop40
 90
        0
102
RTVSPost2010PropOp40
 70
     1
102
RTVSPost2010Prop41ColorIndex
 90
       18
102
RTVSPost2010Prop41ColorRGB
 90
        0
102
RTVSPost2010PropOp41
 70
     1
102
RTVSPost2010Prop42
 90
       50
102
RTVSPost2010PropOp42
 70
     1
102
RTVSPost2010Prop43
 90
        3
102
RTVSPost2010PropOp43
 70
     1
102
RTVSPost2010Prop44ColorIndex
 90
        5
102
RTVSPost2010Prop44ColorRGB
 90
      255
102
RTVSPost2010PropOp44
 70
     1
102
RTVSPost2010Prop45
280
     0
102
RTVSPost2010PropOp45
 70
     1
102
RTVSPost2010Prop46
 90
       50
102
RTVSPost2010PropOp46
 70
     1
102
RTVSPost2010Prop47
 90
       50
102
RTVSPost2010PropOp47
 70
     1
102
RTVSPost2010Prop48
 90
       50
102
RTVSPost2010PropOp48
 70
     1
102
RTVSPost2010Prop49
280
     0
102
RTVSPost2010PropOp49
 70
     1
102
RTVSPost2010Prop50
 90
       50
102
RTVSPost2010PropOp50
 70
     1
102
RTVSPost2010Prop51ColorIndex
 90
      256
102
RTVSPost2010Prop51ColorRGB
 90
-16777216
102
RTVSPost2010PropOp51
 70
     0
102
RTVSPost2010Prop52
140
1.0
102
RTVSPost2010PropOp52
 70
     0
102
RTVSPost2010Prop53
 90
        2
102
RTVSPost2010PropOp53
 70
     1
102
RTVSPost2010Prop54
  1
strokes_ogs.tif
102
RTVSPost2010PropOp54
 70
     1
102
RTVSPost2010Prop55
280
     0
102
RTVSPost2010PropOp55
 70
     1
102
RTVSPost2010Prop56
140
1.0
102
RTVSPost2010PropOp56
 70
     1
102
RTVSPost2010Prop57
140
1.0
102
RTVSPost2010PropOp57
 70
     1
102
RTVSPropertyOp0
 70
     1
102
RTVSPropertyOp1
 70
     1
102
RTVSPropertyOp2
 70
     1
102
RTVSPropertyOp3
 70
     1
102
RTVSPropertyOp4
 70
     1
102
RTVSPropertyOp5
 70
     1
102
RTVSPropertyOp6
 70
     1
102
RTVSPropertyOp7
 70
     1
102
RTVSPropertyOp8
 70
     1
102
RTVSPropertyOp9
 70
     1
102
RTVSPropertyOp10
 70
     1
102
RTVSPropertyOp11
 70
     1
102
RTVSPropertyOp12
 70
     1
102
RTVSPropertyOp13
 70
     1
102
RTVSPropertyOp14
 70
     1
102
RTVSPropertyOp15
 70
     1
102
RTVSPropertyOp16
 70
     1
102
RTVSPropertyOp17
 70
     1
102
RTVSPropertyOp18
 70
     1
102
RTVSPropertyOp19
 70
     1
102
RTVSPropertyOp20
 70
     1
102
RTVSPropertyOp21
 70
     1
102
RTVSPropertyOp22
 70
     1
102
RTVSPropertyOp23
 70
     1
102
RTVSPropertyOp24
 70
     1
102
RTVSPropertyOp25
 70
     1
102
RTVSPropertyOp26
 70
     1
102
RTVSPropertyOp27
 70
     1
102
RTVSPropertyOp28
 70
     1
102
RTVSPropertyOp29
 70
     1
102
RTVSPropertyOp30
 70
     1
102
RTVSPropertyOp31
 70
     1
102
RTVSPropertyOp32
 70
     1
102
RTVSPropertyOp33
 70
     1
102
RTVSPropertyOp34
 70
     1
102
RTVSPropertyOp35
 70
     1
102
RTVSPropertyOp36
 70
     1
102
RTVSPropertyOp37
 70
     1
102
RTVSPropertyOp38
 70
     1
102
RTVSPropertyOp39
 70
     1
102
RTVSPropertyOp40
 70
     1
102
RTVSPropertyOp41
 70
     1
102
RTVSPropertyOp42
 70
     1
102
RTVSPropertyOp43
 70
     1
102
RTVSPropertyOp44
 70
     1
102
RTVSPropertyOp45
 70
     1
102
RTVSPropertyOp46
 70
     1
102
RTVSPropertyOp47
 70
     1
102
RTVSPropertyOp48
 70
     1
102
RTVSPropertyOp49
 70
     1
102
RTVSPropertyOp50
 70
     1
102
RTVSPropertyOp51
 70
     0
102
RTVSPropertyOp52
 70
     0
102
RTVSPropertyOp53
 70
     1
102
RTVSPropertyOp54
 70
     1
102
RTVSPropertyOp55
 70
     1
102
RTVSPropertyOp56
 70
     1
102
RTVSPropertyOp57
 70
     1
102
RTVSPropertyOp58
 70
     1
102
RTVSPropertyOp59
 70
     1
102
RTVSPropertyOp60
 70
     1
102
RTVSPropertyOp61
 70
     1
102
RTVSPropertyOp62
 70
     1
  0
XRECORD
  5
2EBE
102
{ACAD_REACTORS
330
2EBD
102
}
330
2EBD
100
AcDbXrecord
280
     1
102
RTVSPost2010Prop28
280
     0
102
RTVSPost2010PropOp28
 70
     1
102
RTVSPost2010Prop29
280
     1
102
RTVSPost2010PropOp29
 70
     1
102
RTVSPost2010Prop30
280
     1
102
RTVSPost2010PropOp30
 70
     1
102
RTVSPost2010Prop31
280
     0
102
RTVSPost2010PropOp31
 70
     1
102
RTVSPost2010Prop32
280
     0
102
RTVSPost2010PropOp32
 70
     1
102
RTVSPost2010Prop33
280
     0
102
RTVSPost2010PropOp33
 70
     1
102
RTVSPost2010Prop34
280
     0
102
RTVSPost2010PropOp34
 70
     1
102
RTVSPost2010Prop35
280
     0
102
RTVSPost2010PropOp35
 70
     1
102
RTVSPost2010Prop36
280
     0
102
RTVSPost2010PropOp36
 70
     1
102
RTVSPost2010Prop37
 90
       50
102
RTVSPost2010PropOp37
 70
     1
102
RTVSPost2010Prop38
140
0.0
102
RTVSPost2010PropOp38
 70
     1
102
RTVSPost2010Prop39
140
1.0
102
RTVSPost2010PropOp39
 70
     1
102
RTVSPost2010Prop40
 90
        0
102
RTVSPost2010PropOp40
 70
     1
102
RTVSPost2010Prop41ColorIndex
 90
       18
102
RTVSPost2010Prop41ColorRGB
 90
        0
102
RTVSPost2010PropOp41
 70
     1
102
RTVSPost2010Prop42
 90
       50
102
RTVSPost2010PropOp42
 70
     1
102
RTVSPost2010Prop43
 90
        3
102
RTVSPost2010PropOp43
 70
     1
102
RTVSPost2010Prop44ColorIndex
 90
        5
102
RTVSPost2010Prop44ColorRGB
 90
      255
102
RTVSPost2010PropOp44
 70
     1
102
RTVSPost2010Prop45
280
     0
102
RTVSPost2010PropOp45
 70
     1
102
RTVSPost2010Prop46
 90
       50
102
RTVSPost2010PropOp46
 70
     1
102
RTVSPost2010Prop47
 90
       50
102
RTVSPost2010PropOp47
 70
     1
102
RTVSPost2010Prop48
 90
       50
102
RTVSPost2010PropOp48
 70
     1
102
RTVSPost2010Prop49
280
     0
102
RTVSPost2010PropOp49
 70
     1
102
RTVSPost2010Prop50
 90
       50
102
RTVSPost2010PropOp50
 70
     1
102
RTVSPost2010Prop51ColorIndex
 90
      256
102
RTVSPost2010Prop51ColorRGB
 90
-16777216
102
RTVSPost2010PropOp51
 70
     0
102
RTVSPost2010Prop52
140
1.0
102
RTVSPost2010PropOp52
 70
     0
102
RTVSPost2010Prop53
 90
        2
102
RTVSPost2010PropOp53
 70
     1
102
RTVSPost2010Prop54
  1
strokes_ogs.tif
102
RTVSPost2010PropOp54
 70
     1
102
RTVSPost2010Prop55
280
     0
102
RTVSPost2010PropOp55
 70
     1
102
RTVSPost2010Prop56
140
1.0
102
RTVSPost2010PropOp56
 70
     1
102
RTVSPost2010Prop57
140
1.0
102
RTVSPost2010PropOp57
 70
     1
102
RTVSPropertyOp0
 70
     1
102
RTVSPropertyOp1
 70
     1
102
RTVSPropertyOp2
 70
     1
102
RTVSPropertyOp3
 70
     1
102
RTVSPropertyOp4
 70
     1
102
RTVSPropertyOp5
 70
     1
102
RTVSPropertyOp6
 70
     1
102
RTVSPropertyOp7
 70
     1
102
RTVSPropertyOp8
 70
     1
102
RTVSPropertyOp9
 70
     1
102
RTVSPropertyOp10
 70
     1
102
RTVSPropertyOp11
 70
     1
102
RTVSPropertyOp12
 70
     1
102
RTVSPropertyOp13
 70
     1
102
RTVSPropertyOp14
 70
     1
102
RTVSPropertyOp15
 70
     1
102
RTVSPropertyOp16
 70
     1
102
RTVSPropertyOp17
 70
     1
102
RTVSPropertyOp18
 70
     1
102
RTVSPropertyOp19
 70
     1
102
RTVSPropertyOp20
 70
     1
102
RTVSPropertyOp21
 70
     1
102
RTVSPropertyOp22
 70
     1
102
RTVSPropertyOp23
 70
     1
102
RTVSPropertyOp24
 70
     1
102
RTVSPropertyOp25
 70
     1
102
RTVSPropertyOp26
 70
     1
102
RTVSPropertyOp27
 70
     1
102
RTVSPropertyOp28
 70
     1
102
RTVSPropertyOp29
 70
     1
102
RTVSPropertyOp30
 70
     1
102
RTVSPropertyOp31
 70
     1
102
RTVSPropertyOp32
 70
     1
102
RTVSPropertyOp33
 70
     1
102
RTVSPropertyOp34
 70
     1
102
RTVSPropertyOp35
 70
     1
102
RTVSPropertyOp36
 70
     1
102
RTVSPropertyOp37
 70
     1
102
RTVSPropertyOp38
 70
     1
102
RTVSPropertyOp39
 70
     1
102
RTVSPropertyOp40
 70
     1
102
RTVSPropertyOp41
 70
     1
102
RTVSPropertyOp42
 70
     1
102
RTVSPropertyOp43
 70
     1
102
RTVSPropertyOp44
 70
     1
102
RTVSPropertyOp45
 70
     1
102
RTVSPropertyOp46
 70
     1
102
RTVSPropertyOp47
 70
     1
102
RTVSPropertyOp48
 70
     1
102
RTVSPropertyOp49
 70
     1
102
RTVSPropertyOp50
 70
     1
102
RTVSPropertyOp51
 70
     0
102
RTVSPropertyOp52
 70
     0
102
RTVSPropertyOp53
 70
     1
102
RTVSPropertyOp54
 70
     1
102
RTVSPropertyOp55
 70
     1
102
RTVSPropertyOp56
 70
     1
102
RTVSPropertyOp57
 70
     1
102
RTVSPropertyOp58
 70
     1
102
RTVSPropertyOp59
 70
     1
102
RTVSPropertyOp60
 70
     1
102
RTVSPropertyOp61
 70
     1
102
RTVSPropertyOp62
 70
     1
  0
XRECORD
  5
2EDA
102
{ACAD_REACTORS
330
2ED9
102
}
330
2ED9
100
AcDbXrecord
280
     1
102
RTVSPost2010Prop28
280
     0
102
RTVSPost2010PropOp28
 70
     1
102
RTVSPost2010Prop29
280
     1
102
RTVSPost2010PropOp29
 70
     1
102
RTVSPost2010Prop30
280
     1
102
RTVSPost2010PropOp30
 70
     1
102
RTVSPost2010Prop31
280
     0
102
RTVSPost2010PropOp31
 70
     1
102
RTVSPost2010Prop32
280
     0
102
RTVSPost2010PropOp32
 70
     1
102
RTVSPost2010Prop33
280
     0
102
RTVSPost2010PropOp33
 70
     1
102
RTVSPost2010Prop34
280
     0
102
RTVSPost2010PropOp34
 70
     1
102
RTVSPost2010Prop35
280
     0
102
RTVSPost2010PropOp35
 70
     1
102
RTVSPost2010Prop36
280
     0
102
RTVSPost2010PropOp36
 70
     1
102
RTVSPost2010Prop37
 90
       50
102
RTVSPost2010PropOp37
 70
     0
102
RTVSPost2010Prop38
140
0.0
102
RTVSPost2010PropOp38
 70
     0
102
RTVSPost2010Prop39
140
1.0
102
RTVSPost2010PropOp39
 70
     0
102
RTVSPost2010Prop40
 90
        0
102
RTVSPost2010PropOp40
 70
     0
102
RTVSPost2010Prop41ColorIndex
 90
       18
102
RTVSPost2010Prop41ColorRGB
 90
        0
102
RTVSPost2010PropOp41
 70
     0
102
RTVSPost2010Prop42
 90
       50
102
RTVSPost2010PropOp42
 70
     0
102
RTVSPost2010Prop43
 90
        3
102
RTVSPost2010PropOp43
 70
     0
102
RTVSPost2010Prop44ColorIndex
 90
        5
102
RTVSPost2010Prop44ColorRGB
 90
      255
102
RTVSPost2010PropOp44
 70
     0
102
RTVSPost2010Prop45
280
     0
102
RTVSPost2010PropOp45
 70
     1
102
RTVSPost2010Prop46
 90
       50
102
RTVSPost2010PropOp46
 70
     0
102
RTVSPost2010Prop47
 90
       50
102
RTVSPost2010PropOp47
 70
     0
102
RTVSPost2010Prop48
 90
       50
102
RTVSPost2010PropOp48
 70
     0
102
RTVSPost2010Prop49
280
     0
102
RTVSPost2010PropOp49
 70
     1
102
RTVSPost2010Prop50
 90
       50
102
RTVSPost2010PropOp50
 70
     0
102
RTVSPost2010Prop51ColorIndex
 90
      256
102
RTVSPost2010Prop51ColorRGB
 90
-16777216
102
RTVSPost2010PropOp51
 70
     0
102
RTVSPost2010Prop52
140
1.0
102
RTVSPost2010PropOp52
 70
     0
102
RTVSPost2010Prop53
 90
        2
102
RTVSPost2010PropOp53
 70
     0
102
RTVSPost2010Prop54
  1
strokes_ogs.tif
102
RTVSPost2010PropOp54
 70
     0
102
RTVSPost2010Prop55
280
     0
102
RTVSPost2010PropOp55
 70
     1
102
RTVSPost2010Prop56
140
1.0
102
RTVSPost2010PropOp56
 70
     0
102
RTVSPost2010Prop57
140
1.0
102
RTVSPost2010PropOp57
 70
     0
102
RTVSPropertyOp0
 70
     0
102
RTVSPropertyOp1
 70
     0
102
RTVSPropertyOp2
 70
     0
102
RTVSPropertyOp3
 70
     0
102
RTVSPropertyOp4
 70
     0
102
RTVSPropertyOp5
 70
     0
102
RTVSPropertyOp6
 70
     0
102
RTVSPropertyOp7
 70
     0
102
RTVSPropertyOp8
 70
     0
102
RTVSPropertyOp9
 70
     0
102
RTVSPropertyOp10
 70
     0
102
RTVSPropertyOp11
 70
     0
102
RTVSPropertyOp12
 70
     0
102
RTVSPropertyOp13
 70
     0
102
RTVSPropertyOp14
 70
     2
102
RTVSPropertyOp15
 70
     0
102
RTVSPropertyOp16
 70
     0
102
RTVSPropertyOp17
 70
     0
102
RTVSPropertyOp18
 70
     0
102
RTVSPropertyOp19
 70
     0
102
RTVSPropertyOp20
 70
     0
102
RTVSPropertyOp21
 70
     0
102
RTVSPropertyOp22
 70
     0
102
RTVSPropertyOp23
 70
     0
102
RTVSPropertyOp24
 70
     0
102
RTVSPropertyOp25
 70
     0
102
RTVSPropertyOp26
 70
     0
102
RTVSPropertyOp27
 70
     0
102
RTVSPropertyOp28
 70
     1
102
RTVSPropertyOp29
 70
     1
102
RTVSPropertyOp30
 70
     1
102
RTVSPropertyOp31
 70
     1
102
RTVSPropertyOp32
 70
     1
102
RTVSPropertyOp33
 70
     1
102
RTVSPropertyOp34
 70
     1
102
RTVSPropertyOp35
 70
     1
102
RTVSPropertyOp36
 70
     1
102
RTVSPropertyOp37
 70
     0
102
RTVSPropertyOp38
 70
     0
102
RTVSPropertyOp39
 70
     0
102
RTVSPropertyOp40
 70
     0
102
RTVSPropertyOp41
 70
     0
102
RTVSPropertyOp42
 70
     0
102
RTVSPropertyOp43
 70
     0
102
RTVSPropertyOp44
 70
     0
102
RTVSPropertyOp45
 70
     1
102
RTVSPropertyOp46
 70
     0
102
RTVSPropertyOp47
 70
     0
102
RTVSPropertyOp48
 70
     0
102
RTVSPropertyOp49
 70
     1
102
RTVSPropertyOp50
 70
     0
102
RTVSPropertyOp51
 70
     0
102
RTVSPropertyOp52
 70
     0
102
RTVSPropertyOp53
 70
     0
102
RTVSPropertyOp54
 70
     0
102
RTVSPropertyOp55
 70
     1
102
RTVSPropertyOp56
 70
     0
102
RTVSPropertyOp57
 70
     0
102
RTVSPropertyOp58
 70
     0
102
RTVSPropertyOp59
 70
     0
102
RTVSPropertyOp60
 70
     0
102
RTVSPropertyOp61
 70
     0
102
RTVSPropertyOp62
 70
     0
  0
XRECORD
  5
2ECA
102
{ACAD_REACTORS
330
2EC9
102
}
330
2EC9
100
AcDbXrecord
280
     1
102
RTVSPost2010Prop28
280
     0
102
RTVSPost2010PropOp28
 70
     1
102
RTVSPost2010Prop29
280
     1
102
RTVSPost2010PropOp29
 70
     1
102
RTVSPost2010Prop30
280
     1
102
RTVSPost2010PropOp30
 70
     1
102
RTVSPost2010Prop31
280
     0
102
RTVSPost2010PropOp31
 70
     1
102
RTVSPost2010Prop32
280
     0
102
RTVSPost2010PropOp32
 70
     1
102
RTVSPost2010Prop33
280
     0
102
RTVSPost2010PropOp33
 70
     1
102
RTVSPost2010Prop34
280
     0
102
RTVSPost2010PropOp34
 70
     1
102
RTVSPost2010Prop35
280
     0
102
RTVSPost2010PropOp35
 70
     1
102
RTVSPost2010Prop36
280
     0
102
RTVSPost2010PropOp36
 70
     1
102
RTVSPost2010Prop37
 90
       50
102
RTVSPost2010PropOp37
 70
     1
102
RTVSPost2010Prop38
140
0.0
102
RTVSPost2010PropOp38
 70
     1
102
RTVSPost2010Prop39
140
1.0
102
RTVSPost2010PropOp39
 70
     1
102
RTVSPost2010Prop40
 90
        0
102
RTVSPost2010PropOp40
 70
     1
102
RTVSPost2010Prop41ColorIndex
 90
       18
102
RTVSPost2010Prop41ColorRGB
 90
        0
102
RTVSPost2010PropOp41
 70
     1
102
RTVSPost2010Prop42
 90
       50
102
RTVSPost2010PropOp42
 70
     1
102
RTVSPost2010Prop43
 90
        3
102
RTVSPost2010PropOp43
 70
     1
102
RTVSPost2010Prop44ColorIndex
 90
        5
102
RTVSPost2010Prop44ColorRGB
 90
      255
102
RTVSPost2010PropOp44
 70
     1
102
RTVSPost2010Prop45
280
     0
102
RTVSPost2010PropOp45
 70
     1
102
RTVSPost2010Prop46
 90
       50
102
RTVSPost2010PropOp46
 70
     1
102
RTVSPost2010Prop47
 90
       50
102
RTVSPost2010PropOp47
 70
     1
102
RTVSPost2010Prop48
 90
       50
102
RTVSPost2010PropOp48
 70
     1
102
RTVSPost2010Prop49
280
     0
102
RTVSPost2010PropOp49
 70
     1
102
RTVSPost2010Prop50
 90
       50
102
RTVSPost2010PropOp50
 70
     1
102
RTVSPost2010Prop51ColorIndex
 90
      256
102
RTVSPost2010Prop51ColorRGB
 90
-16777216
102
RTVSPost2010PropOp51
 70
     0
102
RTVSPost2010Prop52
140
1.0
102
RTVSPost2010PropOp52
 70
     0
102
RTVSPost2010Prop53
 90
        2
102
RTVSPost2010PropOp53
 70
     1
102
RTVSPost2010Prop54
  1
strokes_ogs.tif
102
RTVSPost2010PropOp54
 70
     1
102
RTVSPost2010Prop55
280
     0
102
RTVSPost2010PropOp55
 70
     1
102
RTVSPost2010Prop56
140
1.0
102
RTVSPost2010PropOp56
 70
     1
102
RTVSPost2010Prop57
140
1.0
102
RTVSPost2010PropOp57
 70
     1
102
RTVSPropertyOp0
 70
     1
102
RTVSPropertyOp1
 70
     1
102
RTVSPropertyOp2
 70
     1
102
RTVSPropertyOp3
 70
     1
102
RTVSPropertyOp4
 70
     1
102
RTVSPropertyOp5
 70
     1
102
RTVSPropertyOp6
 70
     1
102
RTVSPropertyOp7
 70
     1
102
RTVSPropertyOp8
 70
     1
102
RTVSPropertyOp9
 70
     1
102
RTVSPropertyOp10
 70
     1
102
RTVSPropertyOp11
 70
     1
102
RTVSPropertyOp12
 70
     1
102
RTVSPropertyOp13
 70
     1
102
RTVSPropertyOp14
 70
     1
102
RTVSPropertyOp15
 70
     1
102
RTVSPropertyOp16
 70
     1
102
RTVSPropertyOp17
 70
     1
102
RTVSPropertyOp18
 70
     1
102
RTVSPropertyOp19
 70
     1
102
RTVSPropertyOp20
 70
     1
102
RTVSPropertyOp21
 70
     1
102
RTVSPropertyOp22
 70
     1
102
RTVSPropertyOp23
 70
     1
102
RTVSPropertyOp24
 70
     1
102
RTVSPropertyOp25
 70
     1
102
RTVSPropertyOp26
 70
     1
102
RTVSPropertyOp27
 70
     1
102
RTVSPropertyOp28
 70
     1
102
RTVSPropertyOp29
 70
     1
102
RTVSPropertyOp30
 70
     1
102
RTVSPropertyOp31
 70
     1
102
RTVSPropertyOp32
 70
     1
102
RTVSPropertyOp33
 70
     1
102
RTVSPropertyOp34
 70
     1
102
RTVSPropertyOp35
 70
     1
102
RTVSPropertyOp36
 70
     1
102
RTVSPropertyOp37
 70
     1
102
RTVSPropertyOp38
 70
     1
102
RTVSPropertyOp39
 70
     1
102
RTVSPropertyOp40
 70
     1
102
RTVSPropertyOp41
 70
     1
102
RTVSPropertyOp42
 70
     1
102
RTVSPropertyOp43
 70
     1
102
RTVSPropertyOp44
 70
     1
102
RTVSPropertyOp45
 70
     1
102
RTVSPropertyOp46
 70
     1
102
RTVSPropertyOp47
 70
     1
102
RTVSPropertyOp48
 70
     1
102
RTVSPropertyOp49
 70
     1
102
RTVSPropertyOp50
 70
     1
102
RTVSPropertyOp51
 70
     0
102
RTVSPropertyOp52
 70
     0
102
RTVSPropertyOp53
 70
     1
102
RTVSPropertyOp54
 70
     1
102
RTVSPropertyOp55
 70
     1
102
RTVSPropertyOp56
 70
     1
102
RTVSPropertyOp57
 70
     1
102
RTVSPropertyOp58
 70
     1
102
RTVSPropertyOp59
 70
     1
102
RTVSPropertyOp60
 70
     1
102
RTVSPropertyOp61
 70
     1
102
RTVSPropertyOp62
 70
     1
  0
XRECORD
  5
2EDC
102
{ACAD_REACTORS
330
2EDB
102
}
330
2EDB
100
AcDbXrecord
280
     1
102
RTVSPost2010Prop28
280
     0
102
RTVSPost2010PropOp28
 70
     1
102
RTVSPost2010Prop29
280
     1
102
RTVSPost2010PropOp29
 70
     1
102
RTVSPost2010Prop30
280
     1
102
RTVSPost2010PropOp30
 70
     1
102
RTVSPost2010Prop31
280
     0
102
RTVSPost2010PropOp31
 70
     1
102
RTVSPost2010Prop32
280
     0
102
RTVSPost2010PropOp32
 70
     1
102
RTVSPost2010Prop33
280
     0
102
RTVSPost2010PropOp33
 70
     1
102
RTVSPost2010Prop34
280
     0
102
RTVSPost2010PropOp34
 70
     1
102
RTVSPost2010Prop35
280
     0
102
RTVSPost2010PropOp35
 70
     1
102
RTVSPost2010Prop36
280
     0
102
RTVSPost2010PropOp36
 70
     1
102
RTVSPost2010Prop37
 90
       50
102
RTVSPost2010PropOp37
 70
     0
102
RTVSPost2010Prop38
140
0.0
102
RTVSPost2010PropOp38
 70
     0
102
RTVSPost2010Prop39
140
1.0
102
RTVSPost2010PropOp39
 70
     0
102
RTVSPost2010Prop40
 90
        0
102
RTVSPost2010PropOp40
 70
     0
102
RTVSPost2010Prop41ColorIndex
 90
       18
102
RTVSPost2010Prop41ColorRGB
 90
        0
102
RTVSPost2010PropOp41
 70
     0
102
RTVSPost2010Prop42
 90
       50
102
RTVSPost2010PropOp42
 70
     0
102
RTVSPost2010Prop43
 90
        3
102
RTVSPost2010PropOp43
 70
     0
102
RTVSPost2010Prop44ColorIndex
 90
        5
102
RTVSPost2010Prop44ColorRGB
 90
      255
102
RTVSPost2010PropOp44
 70
     0
102
RTVSPost2010Prop45
280
     0
102
RTVSPost2010PropOp45
 70
     1
102
RTVSPost2010Prop46
 90
       50
102
RTVSPost2010PropOp46
 70
     0
102
RTVSPost2010Prop47
 90
       50
102
RTVSPost2010PropOp47
 70
     0
102
RTVSPost2010Prop48
 90
       50
102
RTVSPost2010PropOp48
 70
     0
102
RTVSPost2010Prop49
280
     0
102
RTVSPost2010PropOp49
 70
     1
102
RTVSPost2010Prop50
 90
       50
102
RTVSPost2010PropOp50
 70
     0
102
RTVSPost2010Prop51ColorIndex
 90
      256
102
RTVSPost2010Prop51ColorRGB
 90
-16777216
102
RTVSPost2010PropOp51
 70
     0
102
RTVSPost2010Prop52
140
1.0
102
RTVSPost2010PropOp52
 70
     0
102
RTVSPost2010Prop53
 90
        2
102
RTVSPost2010PropOp53
 70
     0
102
RTVSPost2010Prop54
  1
strokes_ogs.tif
102
RTVSPost2010PropOp54
 70
     0
102
RTVSPost2010Prop55
280
     0
102
RTVSPost2010PropOp55
 70
     1
102
RTVSPost2010Prop56
140
1.0
102
RTVSPost2010PropOp56
 70
     0
102
RTVSPost2010Prop57
140
1.0
102
RTVSPost2010PropOp57
 70
     0
102
RTVSPropertyOp0
 70
     0
102
RTVSPropertyOp1
 70
     0
102
RTVSPropertyOp2
 70
     0
102
RTVSPropertyOp3
 70
     0
102
RTVSPropertyOp4
 70
     0
102
RTVSPropertyOp5
 70
     0
102
RTVSPropertyOp6
 70
     0
102
RTVSPropertyOp7
 70
     0
102
RTVSPropertyOp8
 70
     0
102
RTVSPropertyOp9
 70
     0
102
RTVSPropertyOp10
 70
     0
102
RTVSPropertyOp11
 70
     0
102
RTVSPropertyOp12
 70
     0
102
RTVSPropertyOp13
 70
     0
102
RTVSPropertyOp14
 70
     2
102
RTVSPropertyOp15
 70
     0
102
RTVSPropertyOp16
 70
     0
102
RTVSPropertyOp17
 70
     0
102
RTVSPropertyOp18
 70
     0
102
RTVSPropertyOp19
 70
     0
102
RTVSPropertyOp20
 70
     0
102
RTVSPropertyOp21
 70
     0
102
RTVSPropertyOp22
 70
     0
102
RTVSPropertyOp23
 70
     0
102
RTVSPropertyOp24
 70
     0
102
RTVSPropertyOp25
 70
     0
102
RTVSPropertyOp26
 70
     0
102
RTVSPropertyOp27
 70
     0
102
RTVSPropertyOp28
 70
     1
102
RTVSPropertyOp29
 70
     1
102
RTVSPropertyOp30
 70
     1
102
RTVSPropertyOp31
 70
     1
102
RTVSPropertyOp32
 70
     1
102
RTVSPropertyOp33
 70
     1
102
RTVSPropertyOp34
 70
     1
102
RTVSPropertyOp35
 70
     1
102
RTVSPropertyOp36
 70
     1
102
RTVSPropertyOp37
 70
     0
102
RTVSPropertyOp38
 70
     0
102
RTVSPropertyOp39
 70
     0
102
RTVSPropertyOp40
 70
     0
102
RTVSPropertyOp41
 70
     0
102
RTVSPropertyOp42
 70
     0
102
RTVSPropertyOp43
 70
     0
102
RTVSPropertyOp44
 70
     0
102
RTVSPropertyOp45
 70
     1
102
RTVSPropertyOp46
 70
     0
102
RTVSPropertyOp47
 70
     0
102
RTVSPropertyOp48
 70
     0
102
RTVSPropertyOp49
 70
     1
102
RTVSPropertyOp50
 70
     0
102
RTVSPropertyOp51
 70
     0
102
RTVSPropertyOp52
 70
     0
102
RTVSPropertyOp53
 70
     0
102
RTVSPropertyOp54
 70
     0
102
RTVSPropertyOp55
 70
     1
102
RTVSPropertyOp56
 70
     0
102
RTVSPropertyOp57
 70
     0
102
RTVSPropertyOp58
 70
     0
102
RTVSPropertyOp59
 70
     0
102
RTVSPropertyOp60
 70
     0
102
RTVSPropertyOp61
 70
     0
102
RTVSPropertyOp62
 70
     0
  0
XRECORD
  5
2EC2
102
{ACAD_REACTORS
330
2EC1
102
}
330
2EC1
100
AcDbXrecord
280
     1
102
RTVSPost2010Prop28
280
     0
102
RTVSPost2010PropOp28
 70
     1
102
RTVSPost2010Prop29
280
     1
102
RTVSPost2010PropOp29
 70
     1
102
RTVSPost2010Prop30
280
     1
102
RTVSPost2010PropOp30
 70
     1
102
RTVSPost2010Prop31
280
     0
102
RTVSPost2010PropOp31
 70
     1
102
RTVSPost2010Prop32
280
     0
102
RTVSPost2010PropOp32
 70
     1
102
RTVSPost2010Prop33
280
     0
102
RTVSPost2010PropOp33
 70
     1
102
RTVSPost2010Prop34
280
     0
102
RTVSPost2010PropOp34
 70
     1
102
RTVSPost2010Prop35
280
     0
102
RTVSPost2010PropOp35
 70
     1
102
RTVSPost2010Prop36
280
     0
102
RTVSPost2010PropOp36
 70
     1
102
RTVSPost2010Prop37
 90
       50
102
RTVSPost2010PropOp37
 70
     1
102
RTVSPost2010Prop38
140
0.0
102
RTVSPost2010PropOp38
 70
     1
102
RTVSPost2010Prop39
140
1.0
102
RTVSPost2010PropOp39
 70
     1
102
RTVSPost2010Prop40
 90
        0
102
RTVSPost2010PropOp40
 70
     1
102
RTVSPost2010Prop41ColorIndex
 90
       18
102
RTVSPost2010Prop41ColorRGB
 90
        0
102
RTVSPost2010PropOp41
 70
     1
102
RTVSPost2010Prop42
 90
       50
102
RTVSPost2010PropOp42
 70
     1
102
RTVSPost2010Prop43
 90
        3
102
RTVSPost2010PropOp43
 70
     1
102
RTVSPost2010Prop44ColorIndex
 90
        5
102
RTVSPost2010Prop44ColorRGB
 90
      255
102
RTVSPost2010PropOp44
 70
     1
102
RTVSPost2010Prop45
280
     0
102
RTVSPost2010PropOp45
 70
     1
102
RTVSPost2010Prop46
 90
       50
102
RTVSPost2010PropOp46
 70
     1
102
RTVSPost2010Prop47
 90
       50
102
RTVSPost2010PropOp47
 70
     1
102
RTVSPost2010Prop48
 90
       50
102
RTVSPost2010PropOp48
 70
     1
102
RTVSPost2010Prop49
280
     0
102
RTVSPost2010PropOp49
 70
     1
102
RTVSPost2010Prop50
 90
       50
102
RTVSPost2010PropOp50
 70
     1
102
RTVSPost2010Prop51ColorIndex
 90
      256
102
RTVSPost2010Prop51ColorRGB
 90
-16777216
102
RTVSPost2010PropOp51
 70
     0
102
RTVSPost2010Prop52
140
1.0
102
RTVSPost2010PropOp52
 70
     0
102
RTVSPost2010Prop53
 90
        2
102
RTVSPost2010PropOp53
 70
     1
102
RTVSPost2010Prop54
  1
strokes_ogs.tif
102
RTVSPost2010PropOp54
 70
     1
102
RTVSPost2010Prop55
280
     0
102
RTVSPost2010PropOp55
 70
     1
102
RTVSPost2010Prop56
140
1.0
102
RTVSPost2010PropOp56
 70
     1
102
RTVSPost2010Prop57
140
1.0
102
RTVSPost2010PropOp57
 70
     1
102
RTVSPropertyOp0
 70
     1
102
RTVSPropertyOp1
 70
     1
102
RTVSPropertyOp2
 70
     1
102
RTVSPropertyOp3
 70
     1
102
RTVSPropertyOp4
 70
     1
102
RTVSPropertyOp5
 70
     1
102
RTVSPropertyOp6
 70
     1
102
RTVSPropertyOp7
 70
     1
102
RTVSPropertyOp8
 70
     1
102
RTVSPropertyOp9
 70
     1
102
RTVSPropertyOp10
 70
     1
102
RTVSPropertyOp11
 70
     1
102
RTVSPropertyOp12
 70
     1
102
RTVSPropertyOp13
 70
     1
102
RTVSPropertyOp14
 70
     1
102
RTVSPropertyOp15
 70
     1
102
RTVSPropertyOp16
 70
     1
102
RTVSPropertyOp17
 70
     1
102
RTVSPropertyOp18
 70
     1
102
RTVSPropertyOp19
 70
     1
102
RTVSPropertyOp20
 70
     1
102
RTVSPropertyOp21
 70
     1
102
RTVSPropertyOp22
 70
     1
102
RTVSPropertyOp23
 70
     1
102
RTVSPropertyOp24
 70
     1
102
RTVSPropertyOp25
 70
     1
102
RTVSPropertyOp26
 70
     1
102
RTVSPropertyOp27
 70
     1
102
RTVSPropertyOp28
 70
     1
102
RTVSPropertyOp29
 70
     1
102
RTVSPropertyOp30
 70
     1
102
RTVSPropertyOp31
 70
     1
102
RTVSPropertyOp32
 70
     1
102
RTVSPropertyOp33
 70
     1
102
RTVSPropertyOp34
 70
     1
102
RTVSPropertyOp35
 70
     1
102
RTVSPropertyOp36
 70
     1
102
RTVSPropertyOp37
 70
     1
102
RTVSPropertyOp38
 70
     1
102
RTVSPropertyOp39
 70
     1
102
RTVSPropertyOp40
 70
     1
102
RTVSPropertyOp41
 70
     1
102
RTVSPropertyOp42
 70
     1
102
RTVSPropertyOp43
 70
     1
102
RTVSPropertyOp44
 70
     1
102
RTVSPropertyOp45
 70
     1
102
RTVSPropertyOp46
 70
     1
102
RTVSPropertyOp47
 70
     1
102
RTVSPropertyOp48
 70
     1
102
RTVSPropertyOp49
 70
     1
102
RTVSPropertyOp50
 70
     1
102
RTVSPropertyOp51
 70
     0
102
RTVSPropertyOp52
 70
     0
102
RTVSPropertyOp53
 70
     1
102
RTVSPropertyOp54
 70
     1
102
RTVSPropertyOp55
 70
     1
102
RTVSPropertyOp56
 70
     1
102
RTVSPropertyOp57
 70
     1
102
RTVSPropertyOp58
 70
     1
102
RTVSPropertyOp59
 70
     1
102
RTVSPropertyOp60
 70
     1
102
RTVSPropertyOp61
 70
     1
102
RTVSPropertyOp62
 70
     1
  0
XRECORD
  5
2ED8
102
{ACAD_REACTORS
330
2ED7
102
}
330
2ED7
100
AcDbXrecord
280
     1
102
RTVSPost2010Prop28
280
     0
102
RTVSPost2010PropOp28
 70
     1
102
RTVSPost2010Prop29
280
     1
102
RTVSPost2010PropOp29
 70
     1
102
RTVSPost2010Prop30
280
     1
102
RTVSPost2010PropOp30
 70
     1
102
RTVSPost2010Prop31
280
     0
102
RTVSPost2010PropOp31
 70
     1
102
RTVSPost2010Prop32
280
     0
102
RTVSPost2010PropOp32
 70
     1
102
RTVSPost2010Prop33
280
     0
102
RTVSPost2010PropOp33
 70
     1
102
RTVSPost2010Prop34
280
     0
102
RTVSPost2010PropOp34
 70
     1
102
RTVSPost2010Prop35
280
     0
102
RTVSPost2010PropOp35
 70
     1
102
RTVSPost2010Prop36
280
     0
102
RTVSPost2010PropOp36
 70
     1
102
RTVSPost2010Prop37
 90
       50
102
RTVSPost2010PropOp37
 70
     1
102
RTVSPost2010Prop38
140
0.0
102
RTVSPost2010PropOp38
 70
     1
102
RTVSPost2010Prop39
140
1.0
102
RTVSPost2010PropOp39
 70
     1
102
RTVSPost2010Prop40
 90
        0
102
RTVSPost2010PropOp40
 70
     1
102
RTVSPost2010Prop41ColorIndex
 90
       18
102
RTVSPost2010Prop41ColorRGB
 90
        0
102
RTVSPost2010PropOp41
 70
     1
102
RTVSPost2010Prop42
 90
       50
102
RTVSPost2010PropOp42
 70
     1
102
RTVSPost2010Prop43
 90
        3
102
RTVSPost2010PropOp43
 70
     1
102
RTVSPost2010Prop44ColorIndex
 90
        5
102
RTVSPost2010Prop44ColorRGB
 90
      255
102
RTVSPost2010PropOp44
 70
     1
102
RTVSPost2010Prop45
280
     0
102
RTVSPost2010PropOp45
 70
     1
102
RTVSPost2010Prop46
 90
       50
102
RTVSPost2010PropOp46
 70
     1
102
RTVSPost2010Prop47
 90
       50
102
RTVSPost2010PropOp47
 70
     1
102
RTVSPost2010Prop48
 90
       50
102
RTVSPost2010PropOp48
 70
     1
102
RTVSPost2010Prop49
280
     0
102
RTVSPost2010PropOp49
 70
     1
102
RTVSPost2010Prop50
 90
       50
102
RTVSPost2010PropOp50
 70
     1
102
RTVSPost2010Prop51ColorIndex
 90
      256
102
RTVSPost2010Prop51ColorRGB
 90
-16777216
102
RTVSPost2010PropOp51
 70
     0
102
RTVSPost2010Prop52
140
1.0
102
RTVSPost2010PropOp52
 70
     0
102
RTVSPost2010Prop53
 90
        2
102
RTVSPost2010PropOp53
 70
     1
102
RTVSPost2010Prop54
  1
strokes_ogs.tif
102
RTVSPost2010PropOp54
 70
     1
102
RTVSPost2010Prop55
280
     0
102
RTVSPost2010PropOp55
 70
     1
102
RTVSPost2010Prop56
140
1.0
102
RTVSPost2010PropOp56
 70
     1
102
RTVSPost2010Prop57
140
1.0
102
RTVSPost2010PropOp57
 70
     1
102
RTVSPropertyOp0
 70
     1
102
RTVSPropertyOp1
 70
     1
102
RTVSPropertyOp2
 70
     1
102
RTVSPropertyOp3
 70
     1
102
RTVSPropertyOp4
 70
     1
102
RTVSPropertyOp5
 70
     1
102
RTVSPropertyOp6
 70
     1
102
RTVSPropertyOp7
 70
     1
102
RTVSPropertyOp8
 70
     1
102
RTVSPropertyOp9
 70
     1
102
RTVSPropertyOp10
 70
     1
102
RTVSPropertyOp11
 70
     1
102
RTVSPropertyOp12
 70
     1
102
RTVSPropertyOp13
 70
     1
102
RTVSPropertyOp14
 70
     1
102
RTVSPropertyOp15
 70
     1
102
RTVSPropertyOp16
 70
     1
102
RTVSPropertyOp17
 70
     1
102
RTVSPropertyOp18
 70
     1
102
RTVSPropertyOp19
 70
     1
102
RTVSPropertyOp20
 70
     1
102
RTVSPropertyOp21
 70
     1
102
RTVSPropertyOp22
 70
     1
102
RTVSPropertyOp23
 70
     1
102
RTVSPropertyOp24
 70
     1
102
RTVSPropertyOp25
 70
     1
102
RTVSPropertyOp26
 70
     1
102
RTVSPropertyOp27
 70
     1
102
RTVSPropertyOp28
 70
     1
102
RTVSPropertyOp29
 70
     1
102
RTVSPropertyOp30
 70
     1
102
RTVSPropertyOp31
 70
     1
102
RTVSPropertyOp32
 70
     1
102
RTVSPropertyOp33
 70
     1
102
RTVSPropertyOp34
 70
     1
102
RTVSPropertyOp35
 70
     1
102
RTVSPropertyOp36
 70
     1
102
RTVSPropertyOp37
 70
     1
102
RTVSPropertyOp38
 70
     1
102
RTVSPropertyOp39
 70
     1
102
RTVSPropertyOp40
 70
     1
102
RTVSPropertyOp41
 70
     1
102
RTVSPropertyOp42
 70
     1
102
RTVSPropertyOp43
 70
     1
102
RTVSPropertyOp44
 70
     1
102
RTVSPropertyOp45
 70
     1
102
RTVSPropertyOp46
 70
     1
102
RTVSPropertyOp47
 70
     1
102
RTVSPropertyOp48
 70
     1
102
RTVSPropertyOp49
 70
     1
102
RTVSPropertyOp50
 70
     1
102
RTVSPropertyOp51
 70
     0
102
RTVSPropertyOp52
 70
     0
102
RTVSPropertyOp53
 70
     1
102
RTVSPropertyOp54
 70
     1
102
RTVSPropertyOp55
 70
     1
102
RTVSPropertyOp56
 70
     1
102
RTVSPropertyOp57
 70
     1
102
RTVSPropertyOp58
 70
     1
102
RTVSPropertyOp59
 70
     1
102
RTVSPropertyOp60
 70
     1
102
RTVSPropertyOp61
 70
     1
102
RTVSPropertyOp62
 70
     1
  0
XRECORD
  5
2ED6
102
{ACAD_REACTORS
330
2ED5
102
}
330
2ED5
100
AcDbXrecord
280
     1
102
RTVSPost2010Prop28
280
     0
102
RTVSPost2010PropOp28
 70
     1
102
RTVSPost2010Prop29
280
     1
102
RTVSPost2010PropOp29
 70
     1
102
RTVSPost2010Prop30
280
     1
102
RTVSPost2010PropOp30
 70
     1
102
RTVSPost2010Prop31
280
     0
102
RTVSPost2010PropOp31
 70
     1
102
RTVSPost2010Prop32
280
     0
102
RTVSPost2010PropOp32
 70
     1
102
RTVSPost2010Prop33
280
     0
102
RTVSPost2010PropOp33
 70
     1
102
RTVSPost2010Prop34
280
     0
102
RTVSPost2010PropOp34
 70
     1
102
RTVSPost2010Prop35
280
     0
102
RTVSPost2010PropOp35
 70
     1
102
RTVSPost2010Prop36
280
     0
102
RTVSPost2010PropOp36
 70
     1
102
RTVSPost2010Prop37
 90
       50
102
RTVSPost2010PropOp37
 70
     1
102
RTVSPost2010Prop38
140
0.0
102
RTVSPost2010PropOp38
 70
     1
102
RTVSPost2010Prop39
140
1.0
102
RTVSPost2010PropOp39
 70
     1
102
RTVSPost2010Prop40
 90
        0
102
RTVSPost2010PropOp40
 70
     1
102
RTVSPost2010Prop41ColorIndex
 90
       18
102
RTVSPost2010Prop41ColorRGB
 90
        0
102
RTVSPost2010PropOp41
 70
     1
102
RTVSPost2010Prop42
 90
       50
102
RTVSPost2010PropOp42
 70
     1
102
RTVSPost2010Prop43
 90
        3
102
RTVSPost2010PropOp43
 70
     1
102
RTVSPost2010Prop44ColorIndex
 90
        5
102
RTVSPost2010Prop44ColorRGB
 90
      255
102
RTVSPost2010PropOp44
 70
     1
102
RTVSPost2010Prop45
280
     0
102
RTVSPost2010PropOp45
 70
     1
102
RTVSPost2010Prop46
 90
       50
102
RTVSPost2010PropOp46
 70
     1
102
RTVSPost2010Prop47
 90
       50
102
RTVSPost2010PropOp47
 70
     1
102
RTVSPost2010Prop48
 90
       50
102
RTVSPost2010PropOp48
 70
     1
102
RTVSPost2010Prop49
280
     0
102
RTVSPost2010PropOp49
 70
     1
102
RTVSPost2010Prop50
 90
       50
102
RTVSPost2010PropOp50
 70
     1
102
RTVSPost2010Prop51ColorIndex
 90
      256
102
RTVSPost2010Prop51ColorRGB
 90
-16777216
102
RTVSPost2010PropOp51
 70
     0
102
RTVSPost2010Prop52
140
1.0
102
RTVSPost2010PropOp52
 70
     0
102
RTVSPost2010Prop53
 90
        2
102
RTVSPost2010PropOp53
 70
     1
102
RTVSPost2010Prop54
  1
strokes_ogs.tif
102
RTVSPost2010PropOp54
 70
     1
102
RTVSPost2010Prop55
280
     0
102
RTVSPost2010PropOp55
 70
     1
102
RTVSPost2010Prop56
140
1.0
102
RTVSPost2010PropOp56
 70
     1
102
RTVSPost2010Prop57
140
1.0
102
RTVSPost2010PropOp57
 70
     1
102
RTVSPropertyOp0
 70
     1
102
RTVSPropertyOp1
 70
     1
102
RTVSPropertyOp2
 70
     1
102
RTVSPropertyOp3
 70
     1
102
RTVSPropertyOp4
 70
     1
102
RTVSPropertyOp5
 70
     1
102
RTVSPropertyOp6
 70
     1
102
RTVSPropertyOp7
 70
     1
102
RTVSPropertyOp8
 70
     1
102
RTVSPropertyOp9
 70
     1
102
RTVSPropertyOp10
 70
     1
102
RTVSPropertyOp11
 70
     1
102
RTVSPropertyOp12
 70
     1
102
RTVSPropertyOp13
 70
     1
102
RTVSPropertyOp14
 70
     1
102
RTVSPropertyOp15
 70
     1
102
RTVSPropertyOp16
 70
     1
102
RTVSPropertyOp17
 70
     1
102
RTVSPropertyOp18
 70
     1
102
RTVSPropertyOp19
 70
     1
102
RTVSPropertyOp20
 70
     1
102
RTVSPropertyOp21
 70
     1
102
RTVSPropertyOp22
 70
     1
102
RTVSPropertyOp23
 70
     1
102
RTVSPropertyOp24
 70
     1
102
RTVSPropertyOp25
 70
     1
102
RTVSPropertyOp26
 70
     1
102
RTVSPropertyOp27
 70
     1
102
RTVSPropertyOp28
 70
     1
102
RTVSPropertyOp29
 70
     1
102
RTVSPropertyOp30
 70
     1
102
RTVSPropertyOp31
 70
     1
102
RTVSPropertyOp32
 70
     1
102
RTVSPropertyOp33
 70
     1
102
RTVSPropertyOp34
 70
     1
102
RTVSPropertyOp35
 70
     1
102
RTVSPropertyOp36
 70
     1
102
RTVSPropertyOp37
 70
     1
102
RTVSPropertyOp38
 70
     1
102
RTVSPropertyOp39
 70
     1
102
RTVSPropertyOp40
 70
     1
102
RTVSPropertyOp41
 70
     1
102
RTVSPropertyOp42
 70
     1
102
RTVSPropertyOp43
 70
     1
102
RTVSPropertyOp44
 70
     1
102
RTVSPropertyOp45
 70
     1
102
RTVSPropertyOp46
 70
     1
102
RTVSPropertyOp47
 70
     1
102
RTVSPropertyOp48
 70
     1
102
RTVSPropertyOp49
 70
     1
102
RTVSPropertyOp50
 70
     1
102
RTVSPropertyOp51
 70
     0
102
RTVSPropertyOp52
 70
     0
102
RTVSPropertyOp53
 70
     1
102
RTVSPropertyOp54
 70
     1
102
RTVSPropertyOp55
 70
     1
102
RTVSPropertyOp56
 70
     1
102
RTVSPropertyOp57
 70
     1
102
RTVSPropertyOp58
 70
     1
102
RTVSPropertyOp59
 70
     1
102
RTVSPropertyOp60
 70
     1
102
RTVSPropertyOp61
 70
     1
102
RTVSPropertyOp62
 70
     1
  0
XRECORD
  5
2ED0
102
{ACAD_REACTORS
330
2ECF
102
}
330
2ECF
100
AcDbXrecord
280
     1
102
RTVSPost2010Prop28
280
     0
102
RTVSPost2010PropOp28
 70
     1
102
RTVSPost2010Prop29
280
     1
102
RTVSPost2010PropOp29
 70
     1
102
RTVSPost2010Prop30
280
     1
102
RTVSPost2010PropOp30
 70
     1
102
RTVSPost2010Prop31
280
     0
102
RTVSPost2010PropOp31
 70
     1
102
RTVSPost2010Prop32
280
     0
102
RTVSPost2010PropOp32
 70
     1
102
RTVSPost2010Prop33
280
     0
102
RTVSPost2010PropOp33
 70
     1
102
RTVSPost2010Prop34
280
     0
102
RTVSPost2010PropOp34
 70
     1
102
RTVSPost2010Prop35
280
     0
102
RTVSPost2010PropOp35
 70
     1
102
RTVSPost2010Prop36
280
     0
102
RTVSPost2010PropOp36
 70
     1
102
RTVSPost2010Prop37
 90
       50
102
RTVSPost2010PropOp37
 70
     1
102
RTVSPost2010Prop38
140
0.0
102
RTVSPost2010PropOp38
 70
     1
102
RTVSPost2010Prop39
140
1.0
102
RTVSPost2010PropOp39
 70
     1
102
RTVSPost2010Prop40
 90
        0
102
RTVSPost2010PropOp40
 70
     1
102
RTVSPost2010Prop41ColorIndex
 90
       18
102
RTVSPost2010Prop41ColorRGB
 90
        0
102
RTVSPost2010PropOp41
 70
     1
102
RTVSPost2010Prop42
 90
       50
102
RTVSPost2010PropOp42
 70
     1
102
RTVSPost2010Prop43
 90
        3
102
RTVSPost2010PropOp43
 70
     1
102
RTVSPost2010Prop44ColorIndex
 90
        5
102
RTVSPost2010Prop44ColorRGB
 90
      255
102
RTVSPost2010PropOp44
 70
     1
102
RTVSPost2010Prop45
280
     0
102
RTVSPost2010PropOp45
 70
     1
102
RTVSPost2010Prop46
 90
       50
102
RTVSPost2010PropOp46
 70
     1
102
RTVSPost2010Prop47
 90
       50
102
RTVSPost2010PropOp47
 70
     1
102
RTVSPost2010Prop48
 90
       50
102
RTVSPost2010PropOp48
 70
     1
102
RTVSPost2010Prop49
280
     0
102
RTVSPost2010PropOp49
 70
     1
102
RTVSPost2010Prop50
 90
       50
102
RTVSPost2010PropOp50
 70
     1
102
RTVSPost2010Prop51ColorIndex
 90
      256
102
RTVSPost2010Prop51ColorRGB
 90
-16777216
102
RTVSPost2010PropOp51
 70
     0
102
RTVSPost2010Prop52
140
1.0
102
RTVSPost2010PropOp52
 70
     0
102
RTVSPost2010Prop53
 90
        2
102
RTVSPost2010PropOp53
 70
     1
102
RTVSPost2010Prop54
  1
strokes_ogs.tif
102
RTVSPost2010PropOp54
 70
     1
102
RTVSPost2010Prop55
280
     0
102
RTVSPost2010PropOp55
 70
     1
102
RTVSPost2010Prop56
140
1.0
102
RTVSPost2010PropOp56
 70
     1
102
RTVSPost2010Prop57
140
1.0
102
RTVSPost2010PropOp57
 70
     1
102
RTVSPropertyOp0
 70
     1
102
RTVSPropertyOp1
 70
     1
102
RTVSPropertyOp2
 70
     1
102
RTVSPropertyOp3
 70
     1
102
RTVSPropertyOp4
 70
     1
102
RTVSPropertyOp5
 70
     1
102
RTVSPropertyOp6
 70
     1
102
RTVSPropertyOp7
 70
     1
102
RTVSPropertyOp8
 70
     1
102
RTVSPropertyOp9
 70
     1
102
RTVSPropertyOp10
 70
     1
102
RTVSPropertyOp11
 70
     1
102
RTVSPropertyOp12
 70
     1
102
RTVSPropertyOp13
 70
     1
102
RTVSPropertyOp14
 70
     1
102
RTVSPropertyOp15
 70
     1
102
RTVSPropertyOp16
 70
     1
102
RTVSPropertyOp17
 70
     1
102
RTVSPropertyOp18
 70
     1
102
RTVSPropertyOp19
 70
     1
102
RTVSPropertyOp20
 70
     1
102
RTVSPropertyOp21
 70
     1
102
RTVSPropertyOp22
 70
     1
102
RTVSPropertyOp23
 70
     1
102
RTVSPropertyOp24
 70
     1
102
RTVSPropertyOp25
 70
     1
102
RTVSPropertyOp26
 70
     1
102
RTVSPropertyOp27
 70
     1
102
RTVSPropertyOp28
 70
     1
102
RTVSPropertyOp29
 70
     1
102
RTVSPropertyOp30
 70
     1
102
RTVSPropertyOp31
 70
     1
102
RTVSPropertyOp32
 70
     1
102
RTVSPropertyOp33
 70
     1
102
RTVSPropertyOp34
 70
     1
102
RTVSPropertyOp35
 70
     1
102
RTVSPropertyOp36
 70
     1
102
RTVSPropertyOp37
 70
     1
102
RTVSPropertyOp38
 70
     1
102
RTVSPropertyOp39
 70
     1
102
RTVSPropertyOp40
 70
     1
102
RTVSPropertyOp41
 70
     1
102
RTVSPropertyOp42
 70
     1
102
RTVSPropertyOp43
 70
     1
102
RTVSPropertyOp44
 70
     1
102
RTVSPropertyOp45
 70
     1
102
RTVSPropertyOp46
 70
     1
102
RTVSPropertyOp47
 70
     1
102
RTVSPropertyOp48
 70
     1
102
RTVSPropertyOp49
 70
     1
102
RTVSPropertyOp50
 70
     1
102
RTVSPropertyOp51
 70
     0
102
RTVSPropertyOp52
 70
     0
102
RTVSPropertyOp53
 70
     1
102
RTVSPropertyOp54
 70
     1
102
RTVSPropertyOp55
 70
     1
102
RTVSPropertyOp56
 70
     1
102
RTVSPropertyOp57
 70
     1
102
RTVSPropertyOp58
 70
     1
102
RTVSPropertyOp59
 70
     1
102
RTVSPropertyOp60
 70
     1
102
RTVSPropertyOp61
 70
     1
102
RTVSPropertyOp62
 70
     1
  0
XRECORD
  5
2ED2
102
{ACAD_REACTORS
330
2ED1
102
}
330
2ED1
100
AcDbXrecord
280
     1
102
RTVSPost2010Prop28
280
     0
102
RTVSPost2010PropOp28
 70
     1
102
RTVSPost2010Prop29
280
     1
102
RTVSPost2010PropOp29
 70
     1
102
RTVSPost2010Prop30
280
     1
102
RTVSPost2010PropOp30
 70
     1
102
RTVSPost2010Prop31
280
     0
102
RTVSPost2010PropOp31
 70
     1
102
RTVSPost2010Prop32
280
     0
102
RTVSPost2010PropOp32
 70
     1
102
RTVSPost2010Prop33
280
     0
102
RTVSPost2010PropOp33
 70
     1
102
RTVSPost2010Prop34
280
     0
102
RTVSPost2010PropOp34
 70
     1
102
RTVSPost2010Prop35
280
     0
102
RTVSPost2010PropOp35
 70
     1
102
RTVSPost2010Prop36
280
     0
102
RTVSPost2010PropOp36
 70
     1
102
RTVSPost2010Prop37
 90
       50
102
RTVSPost2010PropOp37
 70
     1
102
RTVSPost2010Prop38
140
0.0
102
RTVSPost2010PropOp38
 70
     1
102
RTVSPost2010Prop39
140
1.0
102
RTVSPost2010PropOp39
 70
     1
102
RTVSPost2010Prop40
 90
        0
102
RTVSPost2010PropOp40
 70
     1
102
RTVSPost2010Prop41ColorIndex
 90
       18
102
RTVSPost2010Prop41ColorRGB
 90
        0
102
RTVSPost2010PropOp41
 70
     1
102
RTVSPost2010Prop42
 90
       50
102
RTVSPost2010PropOp42
 70
     1
102
RTVSPost2010Prop43
 90
        3
102
RTVSPost2010PropOp43
 70
     1
102
RTVSPost2010Prop44ColorIndex
 90
        5
102
RTVSPost2010Prop44ColorRGB
 90
      255
102
RTVSPost2010PropOp44
 70
     1
102
RTVSPost2010Prop45
280
     0
102
RTVSPost2010PropOp45
 70
     1
102
RTVSPost2010Prop46
 90
       50
102
RTVSPost2010PropOp46
 70
     1
102
RTVSPost2010Prop47
 90
       50
102
RTVSPost2010PropOp47
 70
     1
102
RTVSPost2010Prop48
 90
       50
102
RTVSPost2010PropOp48
 70
     1
102
RTVSPost2010Prop49
280
     0
102
RTVSPost2010PropOp49
 70
     1
102
RTVSPost2010Prop50
 90
       50
102
RTVSPost2010PropOp50
 70
     1
102
RTVSPost2010Prop51ColorIndex
 90
      256
102
RTVSPost2010Prop51ColorRGB
 90
-16777216
102
RTVSPost2010PropOp51
 70
     0
102
RTVSPost2010Prop52
140
1.0
102
RTVSPost2010PropOp52
 70
     0
102
RTVSPost2010Prop53
 90
        2
102
RTVSPost2010PropOp53
 70
     1
102
RTVSPost2010Prop54
  1
strokes_ogs.tif
102
RTVSPost2010PropOp54
 70
     1
102
RTVSPost2010Prop55
280
     0
102
RTVSPost2010PropOp55
 70
     1
102
RTVSPost2010Prop56
140
1.0
102
RTVSPost2010PropOp56
 70
     1
102
RTVSPost2010Prop57
140
1.0
102
RTVSPost2010PropOp57
 70
     1
102
RTVSPropertyOp0
 70
     1
102
RTVSPropertyOp1
 70
     1
102
RTVSPropertyOp2
 70
     1
102
RTVSPropertyOp3
 70
     1
102
RTVSPropertyOp4
 70
     1
102
RTVSPropertyOp5
 70
     1
102
RTVSPropertyOp6
 70
     1
102
RTVSPropertyOp7
 70
     1
102
RTVSPropertyOp8
 70
     1
102
RTVSPropertyOp9
 70
     1
102
RTVSPropertyOp10
 70
     1
102
RTVSPropertyOp11
 70
     1
102
RTVSPropertyOp12
 70
     1
102
RTVSPropertyOp13
 70
     1
102
RTVSPropertyOp14
 70
     1
102
RTVSPropertyOp15
 70
     1
102
RTVSPropertyOp16
 70
     1
102
RTVSPropertyOp17
 70
     1
102
RTVSPropertyOp18
 70
     1
102
RTVSPropertyOp19
 70
     1
102
RTVSPropertyOp20
 70
     1
102
RTVSPropertyOp21
 70
     1
102
RTVSPropertyOp22
 70
     1
102
RTVSPropertyOp23
 70
     1
102
RTVSPropertyOp24
 70
     1
102
RTVSPropertyOp25
 70
     1
102
RTVSPropertyOp26
 70
     1
102
RTVSPropertyOp27
 70
     1
102
RTVSPropertyOp28
 70
     1
102
RTVSPropertyOp29
 70
     1
102
RTVSPropertyOp30
 70
     1
102
RTVSPropertyOp31
 70
     1
102
RTVSPropertyOp32
 70
     1
102
RTVSPropertyOp33
 70
     1
102
RTVSPropertyOp34
 70
     1
102
RTVSPropertyOp35
 70
     1
102
RTVSPropertyOp36
 70
     1
102
RTVSPropertyOp37
 70
     1
102
RTVSPropertyOp38
 70
     1
102
RTVSPropertyOp39
 70
     1
102
RTVSPropertyOp40
 70
     1
102
RTVSPropertyOp41
 70
     1
102
RTVSPropertyOp42
 70
     1
102
RTVSPropertyOp43
 70
     1
102
RTVSPropertyOp44
 70
     1
102
RTVSPropertyOp45
 70
     1
102
RTVSPropertyOp46
 70
     1
102
RTVSPropertyOp47
 70
     1
102
RTVSPropertyOp48
 70
     1
102
RTVSPropertyOp49
 70
     1
102
RTVSPropertyOp50
 70
     1
102
RTVSPropertyOp51
 70
     0
102
RTVSPropertyOp52
 70
     0
102
RTVSPropertyOp53
 70
     1
102
RTVSPropertyOp54
 70
     1
102
RTVSPropertyOp55
 70
     1
102
RTVSPropertyOp56
 70
     1
102
RTVSPropertyOp57
 70
     1
102
RTVSPropertyOp58
 70
     1
102
RTVSPropertyOp59
 70
     1
102
RTVSPropertyOp60
 70
     1
102
RTVSPropertyOp61
 70
     1
102
RTVSPropertyOp62
 70
     1
  0
XRECORD
  5
2EC8
102
{ACAD_REACTORS
330
2EC7
102
}
330
2EC7
100
AcDbXrecord
280
     1
102
RTVSPost2010Prop28
280
     0
102
RTVSPost2010PropOp28
 70
     1
102
RTVSPost2010Prop29
280
     1
102
RTVSPost2010PropOp29
 70
     1
102
RTVSPost2010Prop30
280
     1
102
RTVSPost2010PropOp30
 70
     1
102
RTVSPost2010Prop31
280
     0
102
RTVSPost2010PropOp31
 70
     1
102
RTVSPost2010Prop32
280
     0
102
RTVSPost2010PropOp32
 70
     1
102
RTVSPost2010Prop33
280
     0
102
RTVSPost2010PropOp33
 70
     1
102
RTVSPost2010Prop34
280
     0
102
RTVSPost2010PropOp34
 70
     1
102
RTVSPost2010Prop35
280
     0
102
RTVSPost2010PropOp35
 70
     1
102
RTVSPost2010Prop36
280
     0
102
RTVSPost2010PropOp36
 70
     1
102
RTVSPost2010Prop37
 90
       50
102
RTVSPost2010PropOp37
 70
     1
102
RTVSPost2010Prop38
140
0.0
102
RTVSPost2010PropOp38
 70
     1
102
RTVSPost2010Prop39
140
1.0
102
RTVSPost2010PropOp39
 70
     1
102
RTVSPost2010Prop40
 90
        0
102
RTVSPost2010PropOp40
 70
     1
102
RTVSPost2010Prop41ColorIndex
 90
       18
102
RTVSPost2010Prop41ColorRGB
 90
        0
102
RTVSPost2010PropOp41
 70
     1
102
RTVSPost2010Prop42
 90
       50
102
RTVSPost2010PropOp42
 70
     1
102
RTVSPost2010Prop43
 90
        3
102
RTVSPost2010PropOp43
 70
     1
102
RTVSPost2010Prop44ColorIndex
 90
        5
102
RTVSPost2010Prop44ColorRGB
 90
      255
102
RTVSPost2010PropOp44
 70
     1
102
RTVSPost2010Prop45
280
     0
102
RTVSPost2010PropOp45
 70
     1
102
RTVSPost2010Prop46
 90
       50
102
RTVSPost2010PropOp46
 70
     1
102
RTVSPost2010Prop47
 90
       50
102
RTVSPost2010PropOp47
 70
     1
102
RTVSPost2010Prop48
 90
       50
102
RTVSPost2010PropOp48
 70
     1
102
RTVSPost2010Prop49
280
     0
102
RTVSPost2010PropOp49
 70
     1
102
RTVSPost2010Prop50
 90
       50
102
RTVSPost2010PropOp50
 70
     1
102
RTVSPost2010Prop51ColorIndex
 90
      256
102
RTVSPost2010Prop51ColorRGB
 90
-16777216
102
RTVSPost2010PropOp51
 70
     0
102
RTVSPost2010Prop52
140
1.0
102
RTVSPost2010PropOp52
 70
     0
102
RTVSPost2010Prop53
 90
        2
102
RTVSPost2010PropOp53
 70
     1
102
RTVSPost2010Prop54
  1
strokes_ogs.tif
102
RTVSPost2010PropOp54
 70
     1
102
RTVSPost2010Prop55
280
     0
102
RTVSPost2010PropOp55
 70
     1
102
RTVSPost2010Prop56
140
1.0
102
RTVSPost2010PropOp56
 70
     1
102
RTVSPost2010Prop57
140
1.0
102
RTVSPost2010PropOp57
 70
     1
102
RTVSPropertyOp0
 70
     1
102
RTVSPropertyOp1
 70
     1
102
RTVSPropertyOp2
 70
     1
102
RTVSPropertyOp3
 70
     1
102
RTVSPropertyOp4
 70
     1
102
RTVSPropertyOp5
 70
     1
102
RTVSPropertyOp6
 70
     1
102
RTVSPropertyOp7
 70
     1
102
RTVSPropertyOp8
 70
     1
102
RTVSPropertyOp9
 70
     1
102
RTVSPropertyOp10
 70
     1
102
RTVSPropertyOp11
 70
     1
102
RTVSPropertyOp12
 70
     1
102
RTVSPropertyOp13
 70
     1
102
RTVSPropertyOp14
 70
     1
102
RTVSPropertyOp15
 70
     1
102
RTVSPropertyOp16
 70
     1
102
RTVSPropertyOp17
 70
     1
102
RTVSPropertyOp18
 70
     1
102
RTVSPropertyOp19
 70
     1
102
RTVSPropertyOp20
 70
     1
102
RTVSPropertyOp21
 70
     1
102
RTVSPropertyOp22
 70
     1
102
RTVSPropertyOp23
 70
     1
102
RTVSPropertyOp24
 70
     1
102
RTVSPropertyOp25
 70
     1
102
RTVSPropertyOp26
 70
     1
102
RTVSPropertyOp27
 70
     1
102
RTVSPropertyOp28
 70
     1
102
RTVSPropertyOp29
 70
     1
102
RTVSPropertyOp30
 70
     1
102
RTVSPropertyOp31
 70
     1
102
RTVSPropertyOp32
 70
     1
102
RTVSPropertyOp33
 70
     1
102
RTVSPropertyOp34
 70
     1
102
RTVSPropertyOp35
 70
     1
102
RTVSPropertyOp36
 70
     1
102
RTVSPropertyOp37
 70
     1
102
RTVSPropertyOp38
 70
     1
102
RTVSPropertyOp39
 70
     1
102
RTVSPropertyOp40
 70
     1
102
RTVSPropertyOp41
 70
     1
102
RTVSPropertyOp42
 70
     1
102
RTVSPropertyOp43
 70
     1
102
RTVSPropertyOp44
 70
     1
102
RTVSPropertyOp45
 70
     1
102
RTVSPropertyOp46
 70
     1
102
RTVSPropertyOp47
 70
     1
102
RTVSPropertyOp48
 70
     1
102
RTVSPropertyOp49
 70
     1
102
RTVSPropertyOp50
 70
     1
102
RTVSPropertyOp51
 70
     0
102
RTVSPropertyOp52
 70
     0
102
RTVSPropertyOp53
 70
     1
102
RTVSPropertyOp54
 70
     1
102
RTVSPropertyOp55
 70
     1
102
RTVSPropertyOp56
 70
     1
102
RTVSPropertyOp57
 70
     1
102
RTVSPropertyOp58
 70
     1
102
RTVSPropertyOp59
 70
     1
102
RTVSPropertyOp60
 70
     1
102
RTVSPropertyOp61
 70
     1
102
RTVSPropertyOp62
 70
     1
  0
XRECORD
  5
2EBC
102
{ACAD_REACTORS
330
2EBB
102
}
330
2EBB
100
AcDbXrecord
280
     1
102
RTVSPost2010Prop28
280
     0
102
RTVSPost2010PropOp28
 70
     1
102
RTVSPost2010Prop29
280
     1
102
RTVSPost2010PropOp29
 70
     1
102
RTVSPost2010Prop30
280
     1
102
RTVSPost2010PropOp30
 70
     1
102
RTVSPost2010Prop31
280
     0
102
RTVSPost2010PropOp31
 70
     1
102
RTVSPost2010Prop32
280
     0
102
RTVSPost2010PropOp32
 70
     1
102
RTVSPost2010Prop33
280
     0
102
RTVSPost2010PropOp33
 70
     1
102
RTVSPost2010Prop34
280
     0
102
RTVSPost2010PropOp34
 70
     1
102
RTVSPost2010Prop35
280
     0
102
RTVSPost2010PropOp35
 70
     1
102
RTVSPost2010Prop36
280
     0
102
RTVSPost2010PropOp36
 70
     1
102
RTVSPost2010Prop37
 90
       50
102
RTVSPost2010PropOp37
 70
     1
102
RTVSPost2010Prop38
140
0.0
102
RTVSPost2010PropOp38
 70
     1
102
RTVSPost2010Prop39
140
1.0
102
RTVSPost2010PropOp39
 70
     1
102
RTVSPost2010Prop40
 90
        0
102
RTVSPost2010PropOp40
 70
     1
102
RTVSPost2010Prop41ColorIndex
 90
       18
102
RTVSPost2010Prop41ColorRGB
 90
        0
102
RTVSPost2010PropOp41
 70
     1
102
RTVSPost2010Prop42
 90
       50
102
RTVSPost2010PropOp42
 70
     1
102
RTVSPost2010Prop43
 90
        3
102
RTVSPost2010PropOp43
 70
     1
102
RTVSPost2010Prop44ColorIndex
 90
        5
102
RTVSPost2010Prop44ColorRGB
 90
      255
102
RTVSPost2010PropOp44
 70
     1
102
RTVSPost2010Prop45
280
     0
102
RTVSPost2010PropOp45
 70
     1
102
RTVSPost2010Prop46
 90
       50
102
RTVSPost2010PropOp46
 70
     1
102
RTVSPost2010Prop47
 90
       50
102
RTVSPost2010PropOp47
 70
     1
102
RTVSPost2010Prop48
 90
       50
102
RTVSPost2010PropOp48
 70
     1
102
RTVSPost2010Prop49
280
     0
102
RTVSPost2010PropOp49
 70
     1
102
RTVSPost2010Prop50
 90
       50
102
RTVSPost2010PropOp50
 70
     1
102
RTVSPost2010Prop51ColorIndex
 90
      256
102
RTVSPost2010Prop51ColorRGB
 90
-16777216
102
RTVSPost2010PropOp51
 70
     0
102
RTVSPost2010Prop52
140
1.0
102
RTVSPost2010PropOp52
 70
     0
102
RTVSPost2010Prop53
 90
        2
102
RTVSPost2010PropOp53
 70
     1
102
RTVSPost2010Prop54
  1
strokes_ogs.tif
102
RTVSPost2010PropOp54
 70
     1
102
RTVSPost2010Prop55
280
     0
102
RTVSPost2010PropOp55
 70
     1
102
RTVSPost2010Prop56
140
1.0
102
RTVSPost2010PropOp56
 70
     1
102
RTVSPost2010Prop57
140
1.0
102
RTVSPost2010PropOp57
 70
     1
102
RTVSPropertyOp0
 70
     1
102
RTVSPropertyOp1
 70
     1
102
RTVSPropertyOp2
 70
     1
102
RTVSPropertyOp3
 70
     1
102
RTVSPropertyOp4
 70
     1
102
RTVSPropertyOp5
 70
     1
102
RTVSPropertyOp6
 70
     1
102
RTVSPropertyOp7
 70
     1
102
RTVSPropertyOp8
 70
     1
102
RTVSPropertyOp9
 70
     1
102
RTVSPropertyOp10
 70
     1
102
RTVSPropertyOp11
 70
     1
102
RTVSPropertyOp12
 70
     1
102
RTVSPropertyOp13
 70
     1
102
RTVSPropertyOp14
 70
     1
102
RTVSPropertyOp15
 70
     1
102
RTVSPropertyOp16
 70
     1
102
RTVSPropertyOp17
 70
     1
102
RTVSPropertyOp18
 70
     1
102
RTVSPropertyOp19
 70
     1
102
RTVSPropertyOp20
 70
     1
102
RTVSPropertyOp21
 70
     1
102
RTVSPropertyOp22
 70
     1
102
RTVSPropertyOp23
 70
     1
102
RTVSPropertyOp24
 70
     1
102
RTVSPropertyOp25
 70
     1
102
RTVSPropertyOp26
 70
     1
102
RTVSPropertyOp27
 70
     1
102
RTVSPropertyOp28
 70
     1
102
RTVSPropertyOp29
 70
     1
102
RTVSPropertyOp30
 70
     1
102
RTVSPropertyOp31
 70
     1
102
RTVSPropertyOp32
 70
     1
102
RTVSPropertyOp33
 70
     1
102
RTVSPropertyOp34
 70
     1
102
RTVSPropertyOp35
 70
     1
102
RTVSPropertyOp36
 70
     1
102
RTVSPropertyOp37
 70
     1
102
RTVSPropertyOp38
 70
     1
102
RTVSPropertyOp39
 70
     1
102
RTVSPropertyOp40
 70
     1
102
RTVSPropertyOp41
 70
     1
102
RTVSPropertyOp42
 70
     1
102
RTVSPropertyOp43
 70
     1
102
RTVSPropertyOp44
 70
     1
102
RTVSPropertyOp45
 70
     1
102
RTVSPropertyOp46
 70
     1
102
RTVSPropertyOp47
 70
     1
102
RTVSPropertyOp48
 70
     1
102
RTVSPropertyOp49
 70
     1
102
RTVSPropertyOp50
 70
     1
102
RTVSPropertyOp51
 70
     0
102
RTVSPropertyOp52
 70
     0
102
RTVSPropertyOp53
 70
     1
102
RTVSPropertyOp54
 70
     1
102
RTVSPropertyOp55
 70
     1
102
RTVSPropertyOp56
 70
     1
102
RTVSPropertyOp57
 70
     1
102
RTVSPropertyOp58
 70
     1
102
RTVSPropertyOp59
 70
     1
102
RTVSPropertyOp60
 70
     1
102
RTVSPropertyOp61
 70
     1
102
RTVSPropertyOp62
 70
     1
  0
XRECORD
  5
2ED4
102
{ACAD_REACTORS
330
2ED3
102
}
330
2ED3
100
AcDbXrecord
280
     1
102
RTVSPost2010Prop28
280
     0
102
RTVSPost2010PropOp28
 70
     1
102
RTVSPost2010Prop29
280
     1
102
RTVSPost2010PropOp29
 70
     1
102
RTVSPost2010Prop30
280
     1
102
RTVSPost2010PropOp30
 70
     1
102
RTVSPost2010Prop31
280
     0
102
RTVSPost2010PropOp31
 70
     1
102
RTVSPost2010Prop32
280
     0
102
RTVSPost2010PropOp32
 70
     1
102
RTVSPost2010Prop33
280
     0
102
RTVSPost2010PropOp33
 70
     1
102
RTVSPost2010Prop34
280
     0
102
RTVSPost2010PropOp34
 70
     1
102
RTVSPost2010Prop35
280
     0
102
RTVSPost2010PropOp35
 70
     1
102
RTVSPost2010Prop36
280
     0
102
RTVSPost2010PropOp36
 70
     1
102
RTVSPost2010Prop37
 90
       50
102
RTVSPost2010PropOp37
 70
     1
102
RTVSPost2010Prop38
140
0.0
102
RTVSPost2010PropOp38
 70
     1
102
RTVSPost2010Prop39
140
1.0
102
RTVSPost2010PropOp39
 70
     1
102
RTVSPost2010Prop40
 90
        0
102
RTVSPost2010PropOp40
 70
     1
102
RTVSPost2010Prop41ColorIndex
 90
       18
102
RTVSPost2010Prop41ColorRGB
 90
        0
102
RTVSPost2010PropOp41
 70
     1
102
RTVSPost2010Prop42
 90
       50
102
RTVSPost2010PropOp42
 70
     1
102
RTVSPost2010Prop43
 90
        3
102
RTVSPost2010PropOp43
 70
     1
102
RTVSPost2010Prop44ColorIndex
 90
        5
102
RTVSPost2010Prop44ColorRGB
 90
      255
102
RTVSPost2010PropOp44
 70
     1
102
RTVSPost2010Prop45
280
     0
102
RTVSPost2010PropOp45
 70
     1
102
RTVSPost2010Prop46
 90
       50
102
RTVSPost2010PropOp46
 70
     1
102
RTVSPost2010Prop47
 90
       50
102
RTVSPost2010PropOp47
 70
     1
102
RTVSPost2010Prop48
 90
       50
102
RTVSPost2010PropOp48
 70
     1
102
RTVSPost2010Prop49
280
     0
102
RTVSPost2010PropOp49
 70
     1
102
RTVSPost2010Prop50
 90
       50
102
RTVSPost2010PropOp50
 70
     1
102
RTVSPost2010Prop51ColorIndex
 90
      256
102
RTVSPost2010Prop51ColorRGB
 90
-16777216
102
RTVSPost2010PropOp51
 70
     0
102
RTVSPost2010Prop52
140
1.0
102
RTVSPost2010PropOp52
 70
     0
102
RTVSPost2010Prop53
 90
        2
102
RTVSPost2010PropOp53
 70
     1
102
RTVSPost2010Prop54
  1
strokes_ogs.tif
102
RTVSPost2010PropOp54
 70
     1
102
RTVSPost2010Prop55
280
     0
102
RTVSPost2010PropOp55
 70
     1
102
RTVSPost2010Prop56
140
1.0
102
RTVSPost2010PropOp56
 70
     1
102
RTVSPost2010Prop57
140
1.0
102
RTVSPost2010PropOp57
 70
     1
102
RTVSPropertyOp0
 70
     1
102
RTVSPropertyOp1
 70
     1
102
RTVSPropertyOp2
 70
     1
102
RTVSPropertyOp3
 70
     1
102
RTVSPropertyOp4
 70
     1
102
RTVSPropertyOp5
 70
     1
102
RTVSPropertyOp6
 70
     1
102
RTVSPropertyOp7
 70
     1
102
RTVSPropertyOp8
 70
     1
102
RTVSPropertyOp9
 70
     1
102
RTVSPropertyOp10
 70
     1
102
RTVSPropertyOp11
 70
     1
102
RTVSPropertyOp12
 70
     1
102
RTVSPropertyOp13
 70
     1
102
RTVSPropertyOp14
 70
     1
102
RTVSPropertyOp15
 70
     1
102
RTVSPropertyOp16
 70
     1
102
RTVSPropertyOp17
 70
     1
102
RTVSPropertyOp18
 70
     1
102
RTVSPropertyOp19
 70
     1
102
RTVSPropertyOp20
 70
     1
102
RTVSPropertyOp21
 70
     1
102
RTVSPropertyOp22
 70
     1
102
RTVSPropertyOp23
 70
     1
102
RTVSPropertyOp24
 70
     1
102
RTVSPropertyOp25
 70
     1
102
RTVSPropertyOp26
 70
     1
102
RTVSPropertyOp27
 70
     1
102
RTVSPropertyOp28
 70
     1
102
RTVSPropertyOp29
 70
     1
102
RTVSPropertyOp30
 70
     1
102
RTVSPropertyOp31
 70
     1
102
RTVSPropertyOp32
 70
     1
102
RTVSPropertyOp33
 70
     1
102
RTVSPropertyOp34
 70
     1
102
RTVSPropertyOp35
 70
     1
102
RTVSPropertyOp36
 70
     1
102
RTVSPropertyOp37
 70
     1
102
RTVSPropertyOp38
 70
     1
102
RTVSPropertyOp39
 70
     1
102
RTVSPropertyOp40
 70
     1
102
RTVSPropertyOp41
 70
     1
102
RTVSPropertyOp42
 70
     1
102
RTVSPropertyOp43
 70
     1
102
RTVSPropertyOp44
 70
     1
102
RTVSPropertyOp45
 70
     1
102
RTVSPropertyOp46
 70
     1
102
RTVSPropertyOp47
 70
     1
102
RTVSPropertyOp48
 70
     1
102
RTVSPropertyOp49
 70
     1
102
RTVSPropertyOp50
 70
     1
102
RTVSPropertyOp51
 70
     0
102
RTVSPropertyOp52
 70
     0
102
RTVSPropertyOp53
 70
     1
102
RTVSPropertyOp54
 70
     1
102
RTVSPropertyOp55
 70
     1
102
RTVSPropertyOp56
 70
     1
102
RTVSPropertyOp57
 70
     1
102
RTVSPropertyOp58
 70
     1
102
RTVSPropertyOp59
 70
     1
102
RTVSPropertyOp60
 70
     1
102
RTVSPropertyOp61
 70
     1
102
RTVSPropertyOp62
 70
     1
  0
ENDSEC
  0
EOF
