  0
SECTION
  2
HEADER
  9
$ACADVER
  1
AC1015
  9
$ACADMAINTVER
 70
    20
  9
$DWGCODEPAGE
  3
ANSI_932
  9
$INSBASE
 10
0.0
 20
0.0
 30
0.0
  9
$EXTMIN
 10
9.9999975266385
 20
10.0
 30
0.0
  9
$EXTMAX
 10
236.7528328210642
 20
155.9276071573109
 30
0.0
  9
$LIMMIN
 10
0.0000015376081137
 20
-0.0000001931532552
  9
$LIMMAX
 10
246.0000015376081
 20
169.5909088977557
  9
$ORTHOMODE
 70
     1
  9
$REGENMODE
 70
     1
  9
$FILLMODE
 70
     1
  9
$QTEXTMODE
 70
     0
  9
$MIRRTEXT
 70
     1
  9
$LTSCALE
 40
1.0
  9
$ATTMODE
 70
     1
  9
$TEXTSIZE
 40
2.5
  9
$TRACEWID
 40
1.0
  9
$TEXTSTYLE
  7
STANDARD
  9
$CLAYER
  8
0
  9
$CELTYPE
  6
BYLAYER
  9
$CECOLOR
 62
   256
  9
$CELTSCALE
 40
1.0
  9
$DISPSILH
 70
     0
  9
$DIMSCALE
 40
1.0
  9
$DIMASZ
 40
3.0
  9
$DIMEXO
 40
1.0
  9
$DIMDLI
 40
10.0
  9
$DIMRND
 40
0.0
  9
$DIMDLE
 40
0.0
  9
$DIMEXE
 40
1.0
  9
$DIMTP
 40
0.0
  9
$DIMTM
 40
0.0
  9
$DIMTXT
 40
3.2
  9
$DIMCEN
 40
0.0
  9
$DIMTSZ
 40
0.0
  9
$DIMTOL
 70
     0
  9
$DIMLIM
 70
     0
  9
$DIMTIH
 70
     0
  9
$DIMTOH
 70
     0
  9
$DIMSE1
 70
     0
  9
$DIMSE2
 70
     0
  9
$DIMTAD
 70
     3
  9
$DIMZIN
 70
     8
  9
$DIMBLK
  1

  9
$DIMASO
 70
     1
  9
$DIMSHO
 70
     1
  9
$DIMPOST
  1

  9
$DIMAPOST
  1

  9
$DIMALT
 70
     0
  9
$DIMALTD
 70
     2
  9
$DIMALTF
 40
25.4
  9
$DIMLFAC
 40
1.0
  9
$DIMTOFL
 70
     1
  9
$DIMTVP
 40
0.0
  9
$DIMTIX
 70
     0
  9
$DIMSOXD
 70
     0
  9
$DIMSAH
 70
     1
  9
$DIMBLK1
  1
OPEN
  9
$DIMBLK2
  1
OPEN
  9
$DIMSTYLE
  2
STANDARD
  9
$DIMCLRD
 70
     0
  9
$DIMCLRE
 70
     0
  9
$DIMCLRT
 70
     0
  9
$DIMTFAC
 40
1.0
  9
$DIMGAP
 40
1.0
  9
$DIMJUST
 70
     0
  9
$DIMSD1
 70
     0
  9
$DIMSD2
 70
     0
  9
$DIMTOLJ
 70
     1
  9
$DIMTZIN
 70
     0
  9
$DIMALTZ
 70
     0
  9
$DIMALTTZ
 70
     0
  9
$DIMUPT
 70
     0
  9
$DIMDEC
 70
     4
  9
$DIMTDEC
 70
     4
  9
$DIMALTU
 70
     2
  9
$DIMALTTD
 70
     2
  9
$DIMTXSTY
  7
STANDARD
  9
$DIMAUNIT
 70
     0
  9
$DIMADEC
 70
     0
  9
$DIMALTRND
 40
0.0
  9
$DIMAZIN
 70
     0
  9
$DIMDSEP
 70
    46
  9
$DIMATFIT
 70
     3
  9
$DIMFRAC
 70
     0
  9
$DIMLDRBLK
  1
OPEN
  9
$DIMLUNIT
 70
     2
  9
$DIMLWD
 70
    -2
  9
$DIMLWE
 70
    -2
  9
$DIMTMOVE
 70
     0
  9
$LUNITS
 70
     2
  9
$LUPREC
 70
     4
  9
$SKETCHINC
 40
1.0
  9
$FILLETRAD
 40
0.0
  9
$AUNITS
 70
     0
  9
$AUPREC
 70
     0
  9
$MENU
  1
.
  9
$ELEVATION
 40
0.0
  9
$PELEVATION
 40
0.0
  9
$THICKNESS
 40
0.0
  9
$LIMCHECK
 70
     0
  9
$CHAMFERA
 40
10.0
  9
$CHAMFERB
 40
10.0
  9
$CHAMFERC
 40
20.0
  9
$CHAMFERD
 40
0.0
  9
$SKPOLY
 70
     0
  9
$TDCREATE
 40
2453760.534374630
  9
$TDUCREATE
 40
2453760.159374630
  9
$TDUPDATE
 40
2457192.701282187
  9
$TDUUPDATE
 40
2457192.326282187
  9
$TDINDWG
 40
0.0592004861
  9
$TDUSRTIMER
 40
0.0592004745
  9
$USRTIMER
 70
     1
  9
$ANGBASE
 50
0.0
  9
$ANGDIR
 70
     0
  9
$PDMODE
 70
     0
  9
$PDSIZE
 40
0.0
  9
$PLINEWID
 40
0.0
  9
$SPLFRAME
 70
     0
  9
$SPLINETYPE
 70
     6
  9
$SPLINESEGS
 70
     8
  9
$HANDSEED
  5
1F46
  9
$SURFTAB1
 70
     6
  9
$SURFTAB2
 70
     6
  9
$SURFTYPE
 70
     6
  9
$SURFU
 70
     6
  9
$SURFV
 70
     6
  9
$UCSBASE
  2

  9
$UCSNAME
  2

  9
$UCSORG
 10
0.0
 20
0.0
 30
0.0
  9
$UCSXDIR
 10
1.0
 20
0.0
 30
0.0
  9
$UCSYDIR
 10
0.0
 20
1.0
 30
0.0
  9
$UCSORTHOREF
  2

  9
$UCSORTHOVIEW
 70
     0
  9
$UCSORGTOP
 10
0.0
 20
0.0
 30
0.0
  9
$UCSORGBOTTOM
 10
0.0
 20
0.0
 30
0.0
  9
$UCSORGLEFT
 10
0.0
 20
0.0
 30
0.0
  9
$UCSORGRIGHT
 10
0.0
 20
0.0
 30
0.0
  9
$UCSORGFRONT
 10
0.0
 20
0.0
 30
0.0
  9
$UCSORGBACK
 10
0.0
 20
0.0
 30
0.0
  9
$PUCSBASE
  2

  9
$PUCSNAME
  2

  9
$PUCSORG
 10
0.0
 20
0.0
 30
0.0
  9
$PUCSXDIR
 10
1.0
 20
0.0
 30
0.0
  9
$PUCSYDIR
 10
0.0
 20
1.0
 30
0.0
  9
$PUCSORTHOREF
  2

  9
$PUCSORTHOVIEW
 70
     0
  9
$PUCSORGTOP
 10
0.0
 20
0.0
 30
0.0
  9
$PUCSORGBOTTOM
 10
0.0
 20
0.0
 30
0.0
  9
$PUCSORGLEFT
 10
0.0
 20
0.0
 30
0.0
  9
$PUCSORGRIGHT
 10
0.0
 20
0.0
 30
0.0
  9
$PUCSORGFRONT
 10
0.0
 20
0.0
 30
0.0
  9
$PUCSORGBACK
 10
0.0
 20
0.0
 30
0.0
  9
$USERI1
 70
     0
  9
$USERI2
 70
     0
  9
$USERI3
 70
     0
  9
$USERI4
 70
     0
  9
$USERI5
 70
     0
  9
$USERR1
 40
0.0
  9
$USERR2
 40
0.0
  9
$USERR3
 40
0.0
  9
$USERR4
 40
0.0
  9
$USERR5
 40
0.0
  9
$WORLDVIEW
 70
     1
  9
$SHADEDGE
 70
     3
  9
$SHADEDIF
 70
    70
  9
$TILEMODE
 70
     1
  9
$MAXACTVP
 70
    48
  9
$PINSBASE
 10
0.0
 20
0.0
 30
0.0
  9
$PLIMCHECK
 70
     0
  9
$PEXTMIN
 10
27.8447512626648
 20
20.24591643810271
 30
0.0
  9
$PEXTMAX
 10
250.6027613639831
 20
182.2132479429244
 30
0.0
  9
$PLIMMIN
 10
-3.757080078125
 20
-3.757083177566528
  9
$PLIMMAX
 10
293.2112426757812
 20
206.2162444591522
  9
$UNITMODE
 70
     0
  9
$VISRETAIN
 70
     1
  9
$PLINEGEN
 70
     0
  9
$PSLTSCALE
 70
     1
  9
$TREEDEPTH
 70
  3020
  9
$CMLSTYLE
  2
STANDARD
  9
$CMLJUST
 70
     0
  9
$CMLSCALE
 40
20.0
  9
$PROXYGRAPHICS
 70
     1
  9
$MEASUREMENT
 70
     0
  9
$CELWEIGHT
370
    -1
  9
$ENDCAPS
280
     0
  9
$JOINSTYLE
280
     0
  9
$LWDISPLAY
290
     0
  9
$INSUNITS
 70
     0
  9
$HYPERLINKBASE
  1

  9
$STYLESHEET
  1

  9
$XEDIT
290
     1
  9
$CEPSNTYPE
380
     0
  9
$PSTYLEMODE
290
     1
  9
$FINGERPRINTGUID
  2
{F5B12734-E10C-43C4-B4C0-1B746619387D}
  9
$VERSIONGUID
  2
{A3F7DB7C-1919-404D-935C-63756BBA62E1}
  9
$EXTNAMES
290
     1
  9
$PSVPSCALE
 40
0.0
  9
$OLESTARTUP
290
     0
  0
ENDSEC
  0
SECTION
  2
CLASSES
  0
CLASS
  1
ACDBDICTIONARYWDFLT
  2
AcDbDictionaryWithDefault
  3
ObjectDBX Classes
 90
        0
280
     0
281
     0
  0
CLASS
  1
ACDBPLACEHOLDER
  2
AcDbPlaceHolder
  3
ObjectDBX Classes
 90
        0
280
     0
281
     0
  0
CLASS
  1
LAYOUT
  2
AcDbLayout
  3
ObjectDBX Classes
 90
        0
280
     0
281
     0
  0
CLASS
  1
DICTIONARYVAR
  2
AcDbDictionaryVar
  3
ObjectDBX Classes
 90
        0
280
     0
281
     0
  0
CLASS
  1
MATERIAL
  2
AcDbMaterial
  3
ObjectDBX Classes
 90
     1153
280
     0
281
     0
  0
CLASS
  1
VISUALSTYLE
  2
AcDbVisualStyle
  3
ObjectDBX Classes
 90
     4095
280
     0
281
     0
  0
CLASS
  1
TABLESTYLE
  2
AcDbTableStyle
  3
ObjectDBX Classes
 90
     4095
280
     0
281
     0
  0
CLASS
  1
SCALE
  2
AcDbScale
  3
ObjectDBX Classes
 90
     1153
280
     0
281
     0
  0
CLASS
  1
MLEADERSTYLE
  2
AcDbMLeaderStyle
  3
ACDB_MLEADERSTYLE_CLASS
 90
     4095
280
     0
281
     0
  0
CLASS
  1
ACDBSECTIONVIEWSTYLE
  2
AcDbSectionViewStyle
  3
ObjectDBX Classes
 90
     1025
280
     0
281
     0
  0
CLASS
  1
ACDBDETAILVIEWSTYLE
  2
AcDbDetailViewStyle
  3
ObjectDBX Classes
 90
     1025
280
     0
281
     0
  0
CLASS
  1
CELLSTYLEMAP
  2
AcDbCellStyleMap
  3
ObjectDBX Classes
 90
     1152
280
     0
281
     0
  0
ENDSEC
  0
SECTION
  2
TABLES
  0
TABLE
  2
VPORT
  5
8
330
0
100
AcDbSymbolTable
 70
     1
  0
VPORT
  5
1E90
330
8
100
AcDbSymbolTableRecord
100
AcDbViewportTableRecord
  2
*ACTIVE
 70
     0
 10
0.0
 20
0.0
 11
1.0
 21
1.0
 12
170.2766298958063
 22
82.96462026959892
 13
0.0
 23
0.0
 14
10.0
 24
10.0
 15
10.0
 25
10.0
 16
0.0
 26
0.0
 36
1.0
 17
0.0
 27
0.0
 37
0.0
 40
147.328347741919
 41
2.35006605019815
 42
50.0
 43
0.0
 44
0.0
 50
0.0
 51
0.0
 71
     0
 72
   100
 73
     1
 74
     0
 75
     0
 76
     0
 77
     0
 78
     0
281
     0
 65
     1
110
0.0
120
0.0
130
0.0
111
1.0
121
0.0
131
0.0
112
0.0
122
1.0
132
0.0
 79
     0
146
0.0
1001
ACAD_NAV_VCDISPLAY
1070
     3
  0
ENDTAB
  0
TABLE
  2
LTYPE
  5
5
330
0
100
AcDbSymbolTable
 70
     4
  0
LTYPE
  5
12
330
5
100
AcDbSymbolTableRecord
100
AcDbLinetypeTableRecord
  2
BYBLOCK
 70
     0
  3

 72
    65
 73
     0
 40
0.0
  0
LTYPE
  5
13
330
5
100
AcDbSymbolTableRecord
100
AcDbLinetypeTableRecord
  2
BYLAYER
 70
     0
  3

 72
    65
 73
     0
 40
0.0
  0
LTYPE
  5
14
330
5
100
AcDbSymbolTableRecord
100
AcDbLinetypeTableRecord
  2
CONTINUOUS
 70
     0
  3
Solid line
 72
    65
 73
     0
 40
0.0
  0
LTYPE
  5
4B
330
5
100
AcDbSymbolTableRecord
100
AcDbLinetypeTableRecord
  2
DASHED
 70
     0
  3
Dashed __ __ __ __ __ __ __ __ __ __ __ __ __ _
 72
    65
 73
     2
 40
19.04999999999999
 49
12.7
 74
     0
 49
-6.349999999999998
 74
     0
  0
LTYPE
  5
4C
330
5
100
AcDbSymbolTableRecord
100
AcDbLinetypeTableRecord
  2
CENTER
 70
     0
  3
Center ____ _ ____ _ ____ _ ____ _ ____ _ ____
 72
    65
 73
     4
 40
50.8
 49
31.75
 74
     0
 49
-6.349999999999998
 74
     0
 49
6.349999999999998
 74
     0
 49
-6.349999999999998
 74
     0
  0
LTYPE
  5
4D
330
5
100
AcDbSymbolTableRecord
100
AcDbLinetypeTableRecord
  2
PHANTOM
 70
     0
  3
Phantom ______  __  __  ______  __  __  ______
 72
    65
 73
     6
 40
63.5
 49
31.75
 74
     0
 49
-6.349999999999998
 74
     0
 49
6.349999999999998
 74
     0
 49
-6.349999999999998
 74
     0
 49
6.349999999999998
 74
     0
 49
-6.349999999999998
 74
     0
  0
ENDTAB
  0
TABLE
  2
LAYER
  5
2
330
0
100
AcDbSymbolTable
 70
     8
  0
LAYER
  5
E
102
{ACAD_XDICTIONARY
360
1EEA
102
}
330
2
100
AcDbSymbolTableRecord
100
AcDbLayerTableRecord
  2
0
 70
     0
 62
     7
  6
CONTINUOUS
370
    -3
390
1E99
  0
LAYER
  5
4E
102
{ACAD_XDICTIONARY
360
1EEC
102
}
330
2
100
AcDbSymbolTableRecord
100
AcDbLayerTableRecord
  2
4
 70
     0
 62
     1
  6
CENTER
370
    -3
390
1E99
  0
LAYER
  5
4F
102
{ACAD_XDICTIONARY
360
1EEE
102
}
330
2
100
AcDbSymbolTableRecord
100
AcDbLayerTableRecord
  2
5
 70
     0
 62
     6
  6
PHANTOM
370
    -3
390
1E99
  0
LAYER
  5
50
102
{ACAD_XDICTIONARY
360
1EF0
102
}
330
2
100
AcDbSymbolTableRecord
100
AcDbLayerTableRecord
  2
1
 70
     0
 62
     7
  6
CONTINUOUS
370
    -3
390
1E99
  0
LAYER
  5
51
102
{ACAD_XDICTIONARY
360
1EF2
102
}
330
2
100
AcDbSymbolTableRecord
100
AcDbLayerTableRecord
  2
2
 70
     0
 62
     4
  6
CONTINUOUS
370
    -3
390
1E99
  0
LAYER
  5
52
102
{ACAD_XDICTIONARY
360
1EF4
102
}
330
2
100
AcDbSymbolTableRecord
100
AcDbLayerTableRecord
  2
3
 70
     0
 62
     2
  6
DASHED
370
    -3
390
1E99
  0
LAYER
  5
53
102
{ACAD_XDICTIONARY
360
1EF6
102
}
330
2
100
AcDbSymbolTableRecord
100
AcDbLayerTableRecord
  2
6
 70
     0
 62
     5
  6
CONTINUOUS
370
    -3
390
1E99
  0
LAYER
  5
54
102
{ACAD_XDICTIONARY
360
1EF8
102
}
330
2
100
AcDbSymbolTableRecord
100
AcDbLayerTableRecord
  2
7
 70
     0
 62
     3
  6
CONTINUOUS
370
    -3
390
1E99
  0
ENDTAB
  0
TABLE
  2
STYLE
  5
3
330
0
100
AcDbSymbolTable
 70
     1
  0
STYLE
  5
F
330
3
100
AcDbSymbolTableRecord
100
AcDbTextStyleTableRecord
  2
STANDARD
 70
     0
 40
0.0
 41
1.0
 50
0.0
 71
     0
 42
2.5
  3
simplex.shx
  4

  0
ENDTAB
  0
TABLE
  2
VIEW
  5
6
330
0
100
AcDbSymbolTable
 70
     0
  0
ENDTAB
  0
TABLE
  2
UCS
  5
7
330
0
100
AcDbSymbolTable
 70
     0
  0
ENDTAB
  0
TABLE
  2
APPID
  5
9
330
0
100
AcDbSymbolTable
 70
     5
  0
APPID
  5
10
330
9
100
AcDbSymbolTableRecord
100
AcDbRegAppTableRecord
  2
ACAD
 70
     0
  0
APPID
  5
3E
330
9
100
AcDbSymbolTableRecord
100
AcDbRegAppTableRecord
  2
CONTENTTABDATA
 70
     0
  0
APPID
  5
3F
330
9
100
AcDbSymbolTableRecord
100
AcDbRegAppTableRecord
  2
CONTENTCURRENTTAB
 70
     0
  0
APPID
  5
1F04
330
9
100
AcDbSymbolTableRecord
100
AcDbRegAppTableRecord
  2
ACAD_NAV_VCDISPLAY
 70
     0
  0
APPID
  5
1F3D
330
9
100
AcDbSymbolTableRecord
100
AcDbRegAppTableRecord
  2
ACAD_MLEADERVER
 70
     0
  0
ENDTAB
  0
TABLE
  2
DIMSTYLE
  5
A
330
0
100
AcDbSymbolTable
 70
     1
100
AcDbDimStyleTable
 71
     0
  0
DIMSTYLE
105
1D
330
A
100
AcDbSymbolTableRecord
100
AcDbDimStyleTableRecord
  2
STANDARD
 70
     0
 41
3.0
 42
1.0
 43
10.0
 44
1.0
 73
     0
 74
     0
 77
     3
 78
     8
140
3.2
141
0.0
147
1.0
172
     1
173
     1
340
F
341
2E
343
2E
344
2E
  0
ENDTAB
  0
TABLE
  2
BLOCK_RECORD
  5
1
330
0
100
AcDbSymbolTable
 70
     1
  0
BLOCK_RECORD
  5
18
102
{ACAD_XDICTIONARY
360
1E93
102
}
330
1
100
AcDbSymbolTableRecord
100
AcDbBlockTableRecord
  2
*MODEL_SPACE
340
1EE7
  0
BLOCK_RECORD
  5
15
102
{ACAD_XDICTIONARY
360
1E91
102
}
330
1
100
AcDbSymbolTableRecord
100
AcDbBlockTableRecord
  2
*PAPER_SPACE
340
1EE8
  0
BLOCK_RECORD
  5
2E
330
1
100
AcDbSymbolTableRecord
100
AcDbBlockTableRecord
  2
_OPEN
340
0
  0
ENDTAB
  0
ENDSEC
  0
SECTION
  2
BLOCKS
  0
BLOCK
  5
19
330
18
100
AcDbEntity
  8
0
100
AcDbBlockBegin
  2
*MODEL_SPACE
 70
     0
 10
0.0
 20
0.0
 30
0.0
  3
*MODEL_SPACE
  1

  0
ENDBLK
  5
1A
330
18
100
AcDbEntity
  8
0
100
AcDbBlockEnd
  0
BLOCK
  5
16
330
15
100
AcDbEntity
 67
     1
  8
0
100
AcDbBlockBegin
  2
*PAPER_SPACE
 70
     0
 10
0.0
 20
0.0
 30
0.0
  3
*PAPER_SPACE
  1

  0
ENDBLK
  5
17
330
15
100
AcDbEntity
 67
     1
  8
0
100
AcDbBlockEnd
  0
BLOCK
  5
2F
330
2E
100
AcDbEntity
  8
0
100
AcDbBlockBegin
  2
_OPEN
 70
     0
 10
0.0
 20
0.0
 30
0.0
  3
_OPEN
  1

  0
LINE
  5
30
330
2E
100
AcDbEntity
  8
0
  6
ByBlock
 62
     0
100
AcDbLine
 10
-1.0
 20
0.1666666666666666
 30
0.0
 11
0.0
 21
0.0
 31
0.0
  0
LINE
  5
31
330
2E
100
AcDbEntity
  8
0
  6
ByBlock
 62
     0
100
AcDbLine
 10
0.0
 20
0.0
 30
0.0
 11
-1.0
 21
-0.1666666666666666
 31
0.0
  0
LINE
  5
32
330
2E
100
AcDbEntity
  8
0
  6
ByBlock
 62
     0
100
AcDbLine
 10
0.0
 20
0.0
 30
0.0
 11
-1.0
 21
0.0
 31
0.0
  0
ENDBLK
  5
33
330
2E
100
AcDbEntity
  8
0
100
AcDbBlockEnd
  0
ENDSEC
  0
SECTION
  2
ENTITIES
  0
TEXT
  5
63
330
18
100
AcDbEntity
  8
4
  6
CENTER
 48
0.25
100
AcDbText
 10
23.97950852663849
 20
10.0
 30
0.0
 40
1.399999999999999
  1
4
100
AcDbText
  0
TEXT
  5
64
330
18
100
AcDbEntity
  8
7
  6
Continuous
 48
0.25
100
AcDbText
 10
9.999997526638502
 20
26.0000007607689
 30
0.0
 40
3.0
  1
CODE No.1976
100
AcDbText
  0
TEXT
  5
65
330
18
100
AcDbEntity
  8
7
  6
Continuous
 48
0.25
100
AcDbText
 10
9.999997526638502
 20
18.00000076076889
 30
0.0
 40
3.0
  1
TYPE No.TEL-1022-U66
100
AcDbText
  0
TEXT
  5
66
330
18
100
AcDbEntity
  8
1
  6
Continuous
 48
0.25
100
AcDbText
 10
9.999997526638502
 20
10.00000076076889
 30
0.0
 40
1.399999999999999
  1
LAYER
100
AcDbText
  0
TEXT
  5
67
330
18
100
AcDbEntity
  8
2
  6
Continuous
 48
0.25
100
AcDbText
 10
19.9795085266385
 20
10.0
 30
0.0
 40
1.399999999999999
  1
2
100
AcDbText
  0
TEXT
  5
68
330
18
100
AcDbEntity
  8
3
  6
DASHED
 48
0.25
100
AcDbText
 10
21.9795085266385
 20
10.0
 30
0.0
 40
1.399999999999999
  1
3
100
AcDbText
  0
TEXT
  5
69
330
18
100
AcDbEntity
  8
1
  6
Continuous
 48
0.25
100
AcDbText
 10
17.9795085266385
 20
10.0
 30
0.0
 40
1.399999999999999
  1
1
100
AcDbText
  0
TEXT
  5
6A
330
18
100
AcDbEntity
  8
5
  6
PHANTOM
 48
0.25
100
AcDbText
 10
25.9795085266385
 20
10.0
 30
0.0
 40
1.399999999999999
  1
5
100
AcDbText
  0
TEXT
  5
6B
330
18
100
AcDbEntity
  8
6
  6
Continuous
 48
0.25
100
AcDbText
 10
27.9795085266385
 20
10.0
 30
0.0
 40
1.399999999999999
  1
6
100
AcDbText
  0
TEXT
  5
6C
330
18
100
AcDbEntity
  8
7
  6
Continuous
 48
0.25
100
AcDbText
 10
29.9795085266385
 20
10.0
 30
0.0
 40
1.399999999999999
  1
7
100
AcDbText
  0
LINE
  5
110E
330
18
100
AcDbEntity
  8
1
  6
Continuous
100
AcDbLine
 10
216.9697103887759
 20
90.33788874839109
 30
0.0
 11
215.2376594989394
 21
87.33788860589928
 31
0.0
  0
LINE
  5
110F
330
18
100
AcDbEntity
  8
1
  6
Continuous
100
AcDbLine
 10
204.2680038633089
 20
87.3378886058987
 30
0.0
 11
198.783176045493
 21
96.83788905712276
 31
0.0
  0
ARC
  5
1110
330
18
100
AcDbEntity
  8
2
  6
Continuous
100
AcDbCircle
 10
209.7528316811253
 20
96.8378890571245
 30
0.0
 40
8.00000037997961
100
AcDbArc
 50
196.0449756281409
 51
253.8468023609054
  0
ARC
  5
1111
330
18
100
AcDbEntity
  8
2
  6
Continuous
100
AcDbCircle
 10
209.7528316811253
 20
96.8378890571245
 30
0.0
 40
8.00000037997961
100
AcDbArc
 50
286.044975628141
 51
305.6590876961402
  0
LINE
  5
1112
330
18
100
AcDbEntity
  8
1
  6
Continuous
100
AcDbLine
 10
211.9639664669286
 20
89.14952843611535
 30
0.0
 11
213.1519788634248
 21
90.33754201178556
 31
0.0
  0
LINE
  5
1113
330
18
100
AcDbEntity
  8
1
  6
Continuous
100
AcDbLine
 10
202.0644710601162
 20
94.62675427132117
 30
0.0
 11
207.541696895322
 21
89.14952843611541
 31
0.0
  0
ARC
  5
1114
330
18
100
AcDbEntity
  8
1
  6
Continuous
100
AcDbCircle
 10
209.7528316811253
 20
96.8378890571245
 30
0.0
 40
11.00000052247196
100
AcDbArc
 50
36.22154661983517
 51
323.7784533801656
  0
LINE
  5
113C
330
18
100
AcDbEntity
  8
1
  6
Continuous
100
AcDbLine
 10
215.2376594989394
 20
87.33788860589928
 30
0.0
 11
204.2680038633089
 21
87.3378886058987
 31
0.0
  0
ARC
  5
113D
330
18
100
AcDbEntity
  8
1
  6
Continuous
100
AcDbCircle
 10
209.7528316811253
 20
96.83788905712454
 30
0.0
 40
8.000000379979629
100
AcDbArc
 50
253.9550243718589
 51
286.0449756281441
  0
LINE
  5
119D
330
18
100
AcDbEntity
  8
1
  6
Continuous
100
AcDbLine
 10
150.2280360991587
 20
87.83788862964746
 30
0.0
 11
152.2280361941536
 21
85.83788853465252
 31
0.0
  0
LINE
  5
11A0
330
18
100
AcDbEntity
  8
1
  6
Continuous
100
AcDbLine
 10
152.2280361941536
 20
85.8378885346525
 30
0.0
 11
153.2280362416511
 21
85.8378885346525
 31
0.0
  0
LINE
  5
11A1
330
18
100
AcDbEntity
  8
1
  6
Continuous
100
AcDbLine
 10
158.2280364791383
 20
87.3378886058987
 30
0.0
 11
155.228036336646
 21
87.3378886058987
 31
0.0
  0
LINE
  5
1329
330
18
100
AcDbEntity
  8
1
  6
Continuous
100
AcDbLine
 10
61.82315899114996
 20
147.7276067678318
 30
0.0
 11
47.52315831193608
 21
147.7276067678318
 31
0.0
  0
ARC
  5
1331
330
18
100
AcDbEntity
  8
1
  6
Continuous
100
AcDbCircle
 10
32.22315739449014
 20
144.4276066110901
 30
0.0
 40
12.25000058184376
100
AcDbArc
 50
200.1530742571084
 51
249.8469257428917
  0
ARC
  5
1333
330
18
100
AcDbEntity
  8
1
  6
Continuous
100
AcDbCircle
 10
32.22315739449018
 20
144.4276066110901
 30
0.0
 40
12.25000058184376
100
AcDbArc
 50
290.1530742571082
 51
339.8469257428913
  0
LINE
  5
134A
330
18
100
AcDbEntity
  8
1
  6
Continuous
100
AcDbLine
 10
28.00267143999435
 20
155.9276071573109
 30
0.0
 11
36.44364334898598
 21
155.9276071573109
 31
0.0
  0
ARC
  5
1364
330
18
100
AcDbEntity
  8
1
  6
Continuous
100
AcDbCircle
 10
32.22315739449014
 20
144.4276066110901
 30
0.0
 40
12.25000058184376
100
AcDbArc
 50
110.1530742571081
 51
159.8469257428921
  0
ARC
  5
13AA
330
18
100
AcDbEntity
  8
1
  6
Continuous
100
AcDbCircle
 10
26.12315710475569
 20
146.5776067132097
 30
0.0
 40
2.500000118743614
100
AcDbArc
 50
0.0
 51
180.0
  0
ARC
  5
13AC
330
18
100
AcDbEntity
  8
1
  6
Continuous
100
AcDbCircle
 10
26.12315710475572
 20
142.2776065089706
 30
0.0
 40
2.500000118743621
100
AcDbArc
 50
180.0
 51
0.0
  0
LINE
  5
13B7
330
18
100
AcDbEntity
  8
1
  6
Continuous
100
AcDbLine
 10
23.62315221748264
 20
142.2776065089706
 30
0.0
 11
23.62315221748267
 21
146.5776067132097
 31
0.0
  0
LINE
  5
13B9
330
18
100
AcDbEntity
  8
1
  6
Continuous
100
AcDbLine
 10
20.72315684826947
 20
140.2071206565943
 30
0.0
 11
20.72315684826947
 21
148.6480925655859
 31
0.0
  0
LINE
  5
14E6
330
18
100
AcDbEntity
  8
1
  6
Continuous
100
AcDbLine
 10
28.62315722349933
 20
146.5776067132097
 30
0.0
 11
28.62315722349933
 21
142.2776065089706
 31
0.0
  0
ARC
  5
1659
330
18
100
AcDbEntity
  8
1
  6
Continuous
100
AcDbCircle
 10
32.22315739449014
 20
144.4276066110901
 30
0.0
 40
12.25000058184379
100
AcDbArc
 50
20.15307425710963
 51
69.84692574289188
  0
LINE
  5
19E2
330
18
100
AcDbEntity
  8
1
  6
Continuous
100
AcDbLine
 10
47.52315831193608
 20
142.1776065042208
 30
0.0
 11
60.72315893889617
 21
142.1776065042214
 31
0.0
  0
LINE
  5
19E3
330
18
100
AcDbEntity
  8
1
  6
Continuous
100
AcDbLine
 10
43.72315794071084
 20
148.6480925655865
 30
0.0
 11
43.72315794071083
 21
140.2071206565943
 31
0.0
  0
LINE
  5
19E4
330
18
100
AcDbEntity
  8
1
  6
Continuous
100
AcDbLine
 10
46.94296024968992
 20
149.2333246587126
 30
0.0
 11
43.69981525934987
 21
148.7063135977824
 31
0.0
  0
LINE
  5
19E5
330
18
100
AcDbEntity
  8
1
  6
Continuous
100
AcDbLine
 10
47.52315831193608
 20
147.7276067678318
 30
0.0
 11
47.52315831193608
 21
148.7397982679594
 31
0.0
  0
ARC
  5
19E6
330
18
100
AcDbEntity
  8
1
  6
Continuous
100
AcDbCircle
 10
47.02315828818733
 20
148.7397982679593
 30
0.0
 40
0.500000023748725
100
AcDbArc
 50
0.0000000000195044
 51
99.22988624372772
  0
LINE
  5
19EB
330
18
100
AcDbEntity
  8
1
  6
Continuous
100
AcDbLine
 10
47.52315831193607
 20
140.1154149542211
 30
0.0
 11
47.52315831193608
 21
142.1776065042208
 31
0.0
  0
LINE
  5
19EC
330
18
100
AcDbEntity
  8
1
  6
Continuous
100
AcDbLine
 10
43.69912601328434
 20
140.1490116268836
 30
0.0
 11
46.9429602496899
 21
139.6218885634679
 31
0.0
  0
ARC
  5
19ED
330
18
100
AcDbEntity
  8
1
  6
Continuous
100
AcDbCircle
 10
47.02315828818733
 20
140.1154149542211
 30
0.0
 40
0.5000000237487244
100
AcDbArc
 50
260.7701137562916
 51
0.0
  0
LINE
  5
19F2
330
18
100
AcDbEntity
  8
1
  6
Continuous
100
AcDbLine
 10
36.443643348986
 20
132.9276060648695
 30
0.0
 11
28.00267143999434
 21
132.9276060648695
 31
0.0
  0
ARC
  5
1AF0
330
18
100
AcDbEntity
  8
1
  6
Continuous
100
AcDbCircle
 10
62.32315901489833
 20
145.306027318702
 30
0.0
 40
1.20000005699694
100
AcDbArc
 50
326.0378331790644
 51
13.74621936416623
  0
LINE
  5
1AF1
330
18
100
AcDbEntity
  8
1
  6
Continuous
100
AcDbLine
 10
62.61025212656456
 20
146.8124916017972
 30
0.0
 11
61.82315899114962
 21
147.7276067678318
 31
0.0
  0
LINE
  5
1AF2
330
18
100
AcDbEntity
  8
1
  6
Continuous
100
AcDbLine
 10
63.2329350472504
 20
146.0885282501727
 30
0.0
 11
62.61025212656239
 21
146.8124916017966
 31
0.0
  0
ARC
  5
1AF3
330
18
100
AcDbEntity
  8
1
  6
Continuous
100
AcDbCircle
 10
62.32315901489833
 20
145.306027318702
 30
0.0
 40
1.200000056996926
100
AcDbArc
 50
13.7462193641261
 51
40.69891738267913
  0
LINE
  5
1AF4
330
18
100
AcDbEntity
  8
1
  6
Continuous
100
AcDbLine
 10
62.7081095539005
 20
144.0249938027931
 30
0.0
 11
63.14070240654921
 21
144.4276066110907
 31
0.0
  0
LINE
  5
1AF5
330
18
100
AcDbEntity
  8
1
  6
Continuous
100
AcDbLine
 10
60.72315893889617
 20
142.1776065042214
 30
0.0
 11
62.70810955390254
 21
144.0249938027908
 31
0.0
  0
ARC
  5
1AF6
330
18
100
AcDbEntity
  8
1
  6
Continuous
100
AcDbCircle
 10
62.32315901489833
 20
145.306027318702
 30
0.0
 40
1.200000056996969
100
AcDbArc
 50
312.9442275029528
 51
326.0378331790025
  0
ARC
  5
1AF8
330
18
100
AcDbEntity
  8
1
  6
Continuous
100
AcDbCircle
 10
209.7528316811253
 20
96.8378890571245
 30
0.0
 40
4.575000217300849
100
AcDbArc
 50
103.7982740087446
 51
172.46409065772
  0
ARC
  5
1AF9
330
18
100
AcDbEntity
  8
1
  6
Continuous
100
AcDbCircle
 10
209.7528316811253
 20
96.8378890571245
 30
0.0
 40
6.150000292109329
100
AcDbArc
 50
331.2428429585795
 51
208.7571570414183
  0
ARC
  5
1AFA
330
18
100
AcDbEntity
  8
1
  6
Continuous
100
AcDbCircle
 10
209.7528316811253
 20
96.8378890571245
 30
0.0
 40
3.600000170990828
100
AcDbArc
 50
115.5028222579621
 51
154.4971777420371
  0
ARC
  5
1AFB
330
18
100
AcDbEntity
  8
1
  6
Continuous
100
AcDbCircle
 10
209.7528316811253
 20
96.8378890571245
 30
0.0
 40
3.600000170990828
100
AcDbArc
 50
208.7571570414183
 51
244.4971777420378
  0
ARC
  5
1AFC
330
18
100
AcDbEntity
  8
1
  6
Continuous
100
AcDbCircle
 10
209.7528316811253
 20
96.8378890571245
 30
0.0
 40
6.500000308733437
100
AcDbArc
 50
90.0
 51
270.0
  0
LINE
  5
1AFD
330
18
100
AcDbEntity
  8
1
  6
Continuous
100
AcDbLine
 10
204.2680038633113
 20
106.3378895083497
 30
0.0
 11
215.2376594989417
 21
106.3378895083502
 31
0.0
  0
CIRCLE
  5
1AFE
330
18
100
AcDbEntity
  8
1
  6
Continuous
100
AcDbCircle
 10
209.7528316811253
 20
96.83788886638962
 30
0.0
 40
3.50000016624108
  0
ARC
  5
1B01
330
18
100
AcDbEntity
  8
1
  6
Continuous
100
AcDbCircle
 10
209.7528316811253
 20
96.8378890571245
 30
0.0
 40
7.000000332482161
100
AcDbArc
 50
68.21321070174126
 51
291.7867892982648
  0
ARC
  5
1B02
330
18
100
AcDbEntity
  8
1
  6
Continuous
100
AcDbCircle
 10
209.7528316811253
 20
96.8378890571245
 30
0.0
 40
8.00000037997958
100
AcDbArc
 50
73.95502437186222
 51
106.044975628141
  0
LINE
  5
1B04
330
18
100
AcDbEntity
  8
1
  6
Continuous
100
AcDbLine
 10
121.1271330684237
 20
132.9869369152112
 30
0.0
 11
121.1271330684237
 21
133.9869369627086
 31
0.0
  0
LINE
  5
1B05
330
18
100
AcDbEntity
  8
1
  6
Continuous
100
AcDbLine
 10
99.1271320234798
 20
133.9869369627086
 30
0.0
 11
99.1271320234798
 21
132.9869369152112
 31
0.0
  0
CIRCLE
  5
1B0B
330
18
100
AcDbEntity
  8
1
  6
Continuous
100
AcDbCircle
 10
110.1271325459517
 20
96.8378890571245
 30
0.0
 40
7.000000332482152
  0
ARC
  5
1B0C
330
18
100
AcDbEntity
  8
1
  6
Continuous
100
AcDbCircle
 10
110.1271325459519
 20
96.83788905712448
 30
0.0
 40
24.00000113993893
100
AcDbArc
 50
164.2861389519926
 51
195.7138610480073
  0
ARC
  5
1B0E
330
18
100
AcDbEntity
  8
1
  6
Continuous
100
AcDbCircle
 10
110.7271325744502
 20
96.8378890571245
 30
0.0
 40
2.700000128242836
100
AcDbArc
 50
24.27465219458716
 51
155.7253478054128
  0
LINE
  5
1B11
330
18
100
AcDbEntity
  8
1
  6
Continuous
100
AcDbLine
 10
87.02410134432069
 20
90.33788874839158
 30
0.0
 11
101.2550341771008
 21
90.33788874839109
 31
0.0
  0
LINE
  5
1B14
330
18
100
AcDbEntity
  8
1
  6
Continuous
100
AcDbLine
 10
114.5771327573154
 20
95.72788900440231
 30
0.0
 11
114.5771327573154
 21
97.94788910984669
 31
0.0
  0
LINE
  5
1B17
330
18
100
AcDbEntity
  8
1
  6
Continuous
100
AcDbLine
 10
107.9271324414573
 20
97.94788910984669
 30
0.0
 11
107.9271324414573
 21
95.72788900440235
 31
0.0
  0
LINE
  5
1B19
330
18
100
AcDbEntity
  8
1
  6
Continuous
100
AcDbLine
 10
107.9271324414573
 20
95.72788900440235
 30
0.0
 11
114.5771327573154
 21
95.72788900440231
 31
0.0
  0
LINE
  5
1B1A
330
18
100
AcDbEntity
  8
1
  6
Continuous
100
AcDbLine
 10
107.9271324414573
 20
97.94788910984669
 30
0.0
 11
114.5771327573154
 21
97.94788910984669
 31
0.0
  0
ARC
  5
1B1B
330
18
100
AcDbEntity
  8
1
  6
Continuous
100
AcDbCircle
 10
110.7271325744502
 20
96.8378890571245
 30
0.0
 40
2.70000014232002
100
AcDbArc
 50
204.2746521272272
 51
335.7253478727727
  0
LINE
  5
1B32
330
18
100
AcDbEntity
  8
1
  6
Continuous
100
AcDbLine
 10
101.2550342071925
 20
103.3378893658579
 30
0.0
 11
87.02410134431886
 21
103.3378893658579
 31
0.0
  0
LINE
  5
1B36
330
18
100
AcDbEntity
  8
1
  6
Continuous
100
AcDbLine
 10
116.7271524235471
 20
130.6869368544163
 30
0.0
 11
103.5270203032726
 21
130.6869368544163
 31
0.0
  0
LINE
  5
1B3A
330
18
100
AcDbEntity
  8
1
  6
Continuous
100
AcDbLine
 10
103.2771322205942
 20
130.9869368202163
 30
0.0
 11
103.2771322205942
 21
130.9369368655251
 31
0.0
  0
ARC
  5
1B3B
330
18
100
AcDbEntity
  8
1
  6
Continuous
100
AcDbCircle
 10
103.5271322324686
 20
130.9369368655251
 30
0.0
 40
0.2500000118743642
100
AcDbArc
 50
180.0000000000032
 51
269.974347718238
  0
LINE
  5
1B3D
330
18
100
AcDbEntity
  8
1
  6
Continuous
100
AcDbLine
 10
99.1271320234798
 20
132.9869369152112
 30
0.0
 11
101.1272321184746
 21
130.9868368202163
 31
0.0
  0
LINE
  5
1B3E
330
18
100
AcDbEntity
  8
1
  6
Continuous
100
AcDbLine
 10
119.1271329734288
 20
130.9869368202163
 30
0.0
 11
101.1271321184747
 21
130.9869368202163
 31
0.0
  0
LINE
  5
1B41
330
18
100
AcDbEntity
  8
1
  6
Continuous
100
AcDbLine
 10
116.9771328713093
 20
130.9369368655251
 30
0.0
 11
116.9771328713093
 21
130.9869368202163
 31
0.0
  0
ARC
  5
1B42
330
18
100
AcDbEntity
  8
1
  6
Continuous
100
AcDbCircle
 10
116.7271328594349
 20
130.9369368655251
 30
0.0
 40
0.2500000118743642
100
AcDbArc
 50
270.0044837598747
 51
359.9999999999967
  0
LINE
  5
1B44
330
18
100
AcDbEntity
  8
1
  6
Continuous
100
AcDbLine
 10
121.1271330684237
 20
132.9869369152112
 30
0.0
 11
99.1271320234798
 21
132.9869369152112
 31
0.0
  0
LINE
  5
1B45
330
18
100
AcDbEntity
  8
1
  6
Continuous
100
AcDbLine
 10
119.1271329734288
 20
130.9869368202163
 30
0.0
 11
121.1271330684237
 21
132.9869369152112
 31
0.0
  0
LINE
  5
1B48
330
18
100
AcDbEntity
  8
1
  6
Continuous
100
AcDbLine
 10
169.52803625292
 20
93.87913449116148
 30
0.0
 11
169.52803625292
 21
102.9878893492338
 31
0.0
  0
LINE
  5
1B49
330
18
100
AcDbEntity
  8
1
  6
Continuous
100
AcDbLine
 10
168.8280362196718
 20
93.8791344911614
 30
0.0
 11
168.8280362196718
 21
102.9878893492338
 31
0.0
  0
LINE
  5
1B4A
330
18
100
AcDbEntity
  8
1
  6
Continuous
100
AcDbLine
 10
168.7280369778616
 20
90.33788874839105
 30
0.0
 11
168.7280369778616
 21
103.3378893658579
 31
0.0
  0
LINE
  5
1B4B
330
18
100
AcDbEntity
  8
1
  6
Continuous
100
AcDbLine
 10
158.2280364791383
 20
87.3378886058987
 30
0.0
 11
158.2280364791383
 21
106.3378895083497
 31
0.0
  0
LINE
  5
1B4C
330
18
100
AcDbEntity
  8
1
  6
Continuous
100
AcDbLine
 10
155.228036336646
 20
87.3378886058987
 30
0.0
 11
155.228036336646
 21
106.3378895083502
 31
0.0
  0
LINE
  5
1B4D
330
18
100
AcDbEntity
  8
1
  6
Continuous
100
AcDbLine
 10
149.9280361333587
 20
90.23786917952907
 30
0.0
 11
149.9280361333587
 21
103.4379089347199
 31
0.0
  0
LINE
  5
1B4E
330
18
100
AcDbEntity
  8
1
  6
Continuous
100
AcDbLine
 10
169.7280370730422
 20
100.3378890326307
 30
0.0
 11
169.7280370730422
 21
93.33788870014851
 31
0.0
  0
LINE
  5
1B4F
330
18
100
AcDbEntity
  8
1
  6
Continuous
100
AcDbLine
 10
170.72803712054
 20
93.33788870014856
 30
0.0
 11
170.72803712054
 21
100.3378890326307
 31
0.0
  0
LINE
  5
1B55
330
18
100
AcDbEntity
  8
1
  6
Continuous
100
AcDbLine
 10
158.2280364791383
 20
99.04902384292777
 30
0.0
 11
163.7280367403743
 21
99.04902384292777
 31
0.0
  0
LINE
  5
1B56
330
18
100
AcDbEntity
  8
1
  6
Continuous
100
AcDbLine
 10
158.2280364791383
 20
94.62675427132124
 30
0.0
 11
163.7280367403743
 21
94.62675427132124
 31
0.0
  0
LINE
  5
1B57
330
18
100
AcDbEntity
  8
1
  6
Continuous
100
AcDbLine
 10
158.2280364791383
 20
89.1495284361153
 30
0.0
 11
163.7280367403743
 21
89.1495284361153
 31
0.0
  0
LINE
  5
1B58
330
18
100
AcDbEntity
  8
1
  6
Continuous
100
AcDbLine
 10
158.2280364791383
 20
88.83788867714489
 30
0.0
 11
163.7280367403743
 21
88.83788867714489
 31
0.0
  0
LINE
  5
1B59
330
18
100
AcDbEntity
  8
1
  6
Continuous
100
AcDbLine
 10
153.2280362416511
 20
89.1495284361153
 30
0.0
 11
155.228036336646
 21
89.1495284361153
 31
0.0
  0
LINE
  5
1B5A
330
18
100
AcDbEntity
  8
1
  6
Continuous
100
AcDbLine
 10
153.2280362416511
 20
88.83788867714489
 30
0.0
 11
155.228036336646
 21
88.83788867714489
 31
0.0
  0
LINE
  5
1B5B
330
18
100
AcDbEntity
  8
1
  6
Continuous
100
AcDbLine
 10
150.1780361444675
 20
89.98788873176694
 30
0.0
 11
150.2280360991587
 21
89.98788873176694
 31
0.0
  0
ARC
  5
1B5C
330
18
100
AcDbEntity
  8
1
  6
Continuous
100
AcDbCircle
 10
150.1780361444675
 20
90.23788874364132
 30
0.0
 40
0.2500000118743642
100
AcDbArc
 50
180.0256522821046
 51
269.9999999999934
  0
LINE
  5
1B5D
330
18
100
AcDbEntity
  8
1
  6
Continuous
100
AcDbLine
 10
153.2280362416511
 20
99.04902384292777
 30
0.0
 11
155.228036336646
 21
99.04902384292777
 31
0.0
  0
LINE
  5
1B5E
330
18
100
AcDbEntity
  8
1
  6
Continuous
100
AcDbLine
 10
153.2280362416511
 20
94.62675427132124
 30
0.0
 11
155.228036336646
 21
94.62675427132124
 31
0.0
  0
LINE
  5
1B5F
330
18
100
AcDbEntity
  8
1
  6
Continuous
100
AcDbLine
 10
158.2280364791383
 20
96.83788905712333
 30
0.0
 11
155.228036336646
 21
96.83788905712333
 31
0.0
  0
LINE
  5
1B62
330
18
100
AcDbEntity
  8
1
  6
Continuous
100
AcDbLine
 10
169.7280370730422
 20
93.33788870014851
 30
0.0
 11
170.72803712054
 21
93.33788870014856
 31
0.0
  0
LINE
  5
1B63
330
18
100
AcDbEntity
  8
1
  6
Continuous
100
AcDbLine
 10
168.7280369778616
 20
90.33788874839109
 30
0.0
 11
166.7280368828667
 21
90.33788874839109
 31
0.0
  0
LINE
  5
1B64
330
18
100
AcDbEntity
  8
1
  6
Continuous
100
AcDbLine
 10
164.728036787873
 20
89.83788872464236
 30
0.0
 11
166.2280368591181
 21
89.83788872464236
 31
0.0
  0
LINE
  5
1B68
330
18
100
AcDbEntity
  8
1
  6
Continuous
100
AcDbLine
 10
163.7280367403743
 20
88.83788867714489
 30
0.0
 11
164.728036787873
 21
89.83788872464355
 31
0.0
  0
LINE
  5
1B69
330
18
100
AcDbEntity
  8
1
  6
Continuous
100
AcDbLine
 10
163.7280367403743
 20
88.83788867714489
 30
0.0
 11
163.7280367403743
 21
89.14952843611542
 31
0.0
  0
ARC
  5
1B6B
330
18
100
AcDbEntity
  8
1
  6
Continuous
100
AcDbCircle
 10
166.2280368591179
 20
90.33788874839105
 30
0.0
 40
0.5000000237487284
100
AcDbArc
 50
270.000000000013
 51
0.0104326712176438
  0
LINE
  5
1B6D
330
18
100
AcDbEntity
  8
1
  6
Continuous
100
AcDbLine
 10
169.52803625292
 20
93.87913449116144
 30
0.0
 11
168.8280362196718
 21
93.87913449116144
 31
0.0
  0
LINE
  5
1B6E
330
18
100
AcDbEntity
  8
1
  6
Continuous
100
AcDbLine
 10
168.7280369778616
 20
93.83788872389727
 30
0.0
 11
169.7280370730426
 21
93.83788872389727
 31
0.0
  0
LINE
  5
1B6F
330
18
100
AcDbEntity
  8
1
  6
Continuous
100
AcDbLine
 10
163.7280367403743
 20
94.62675427132124
 30
0.0
 11
163.7280367403743
 21
99.04902384292777
 31
0.0
  0
LINE
  5
1B70
330
18
100
AcDbEntity
  8
1
  6
Continuous
100
AcDbLine
 10
158.2280364791383
 20
104.5262496781336
 30
0.0
 11
163.7280367403744
 21
104.5262496781336
 31
0.0
  0
LINE
  5
1B71
330
18
100
AcDbEntity
  8
1
  6
Continuous
100
AcDbLine
 10
163.7280367403743
 20
104.8378894371041
 30
0.0
 11
158.2280364791383
 21
104.8378894371041
 31
0.0
  0
LINE
  5
1B72
330
18
100
AcDbEntity
  8
1
  6
Continuous
100
AcDbLine
 10
150.2280360991587
 20
87.83788862964746
 30
0.0
 11
150.2280360991587
 21
105.8378894846015
 31
0.0
  0
LINE
  5
1B73
330
18
100
AcDbEntity
  8
1
  6
Continuous
100
AcDbLine
 10
152.2280361941536
 20
85.83788853465252
 30
0.0
 11
152.2280361941536
 21
107.8378895795964
 31
0.0
  0
LINE
  5
1B74
330
18
100
AcDbEntity
  8
1
  6
Continuous
100
AcDbLine
 10
153.2280362416511
 20
85.8378885346525
 30
0.0
 11
153.2280362416511
 21
107.8378895795964
 31
0.0
  0
LINE
  5
1B75
330
18
100
AcDbEntity
  8
1
  6
Continuous
100
AcDbLine
 10
153.2280362416511
 20
104.5262496781336
 30
0.0
 11
155.228036336646
 21
104.5262496781336
 31
0.0
  0
LINE
  5
1B76
330
18
100
AcDbEntity
  8
1
  6
Continuous
100
AcDbLine
 10
155.228036336646
 20
104.8378894371041
 30
0.0
 11
153.2280362416511
 21
104.8378894371041
 31
0.0
  0
LINE
  5
1B77
330
18
100
AcDbEntity
  8
1
  6
Continuous
100
AcDbLine
 10
150.2280360991587
 20
103.687889382482
 30
0.0
 11
150.1780361444675
 21
103.687889382482
 31
0.0
  0
ARC
  5
1B78
330
18
100
AcDbEntity
  8
1
  6
Continuous
100
AcDbCircle
 10
150.1780361444675
 20
103.4378893706077
 30
0.0
 40
0.2500000118743642
100
AcDbArc
 50
90.0
 51
179.9955162419474
  0
LINE
  5
1B7A
330
18
100
AcDbEntity
  8
1
  6
Continuous
100
AcDbLine
 10
152.2280361941536
 20
107.8378895795965
 30
0.0
 11
150.2279360991588
 21
105.8377894846015
 31
0.0
  0
LINE
  5
1B7B
330
18
100
AcDbEntity
  8
1
  6
Continuous
100
AcDbLine
 10
153.2280362416511
 20
107.8378895795965
 30
0.0
 11
152.2280361941536
 21
107.8378895795965
 31
0.0
  0
LINE
  5
1B7D
330
18
100
AcDbEntity
  8
1
  6
Continuous
100
AcDbLine
 10
158.2280364791383
 20
106.3378895083491
 30
0.0
 11
155.228036336646
 21
106.3378895083491
 31
0.0
  0
LINE
  5
1B7E
330
18
100
AcDbEntity
  8
1
  6
Continuous
100
AcDbLine
 10
170.72803712054
 20
100.3378890326307
 30
0.0
 11
169.7280370730422
 21
100.3378890326307
 31
0.0
  0
LINE
  5
1B7F
330
18
100
AcDbEntity
  8
1
  6
Continuous
100
AcDbLine
 10
169.52803625292
 20
102.9878893492338
 30
0.0
 11
168.8280362196718
 21
102.9878893492338
 31
0.0
  0
LINE
  5
1B80
330
18
100
AcDbEntity
  8
1
  6
Continuous
100
AcDbLine
 10
168.7280369778616
 20
103.3378893658579
 30
0.0
 11
166.7280368828667
 21
103.3378893658579
 31
0.0
  0
LINE
  5
1B81
330
18
100
AcDbEntity
  8
1
  6
Continuous
100
AcDbLine
 10
169.7280370730426
 20
99.837889008882
 30
0.0
 11
169.52803625292
 21
99.837889008882
 31
0.0
  0
LINE
  5
1B82
330
18
100
AcDbEntity
  8
1
  6
Continuous
100
AcDbLine
 10
168.8280362196718
 20
99.837889008882
 30
0.0
 11
168.7280369778616
 21
99.837889008882
 31
0.0
  0
LINE
  5
1B83
330
18
100
AcDbEntity
  8
1
  6
Continuous
100
AcDbLine
 10
164.728036787873
 20
103.8378893896066
 30
0.0
 11
164.728036787873
 21
89.83788872464355
 31
0.0
  0
LINE
  5
1B84
330
18
100
AcDbEntity
  8
1
  6
Continuous
100
AcDbLine
 10
166.2280368591181
 20
103.8378893896066
 30
0.0
 11
164.728036787873
 21
103.8378893896066
 31
0.0
  0
LINE
  5
1B85
330
18
100
AcDbEntity
  8
1
  6
Continuous
100
AcDbLine
 10
166.728036874578
 20
103.3379804079342
 30
0.0
 11
166.728036874578
 21
90.33797979062612
 31
0.0
  0
LINE
  5
1B86
330
18
100
AcDbEntity
  8
1
  6
Continuous
100
AcDbLine
 10
163.7280367403743
 20
104.5262496781336
 30
0.0
 11
163.7280367403743
 21
104.837889437104
 31
0.0
  0
LINE
  5
1B87
330
18
100
AcDbEntity
  8
1
  6
Continuous
100
AcDbLine
 10
164.728036787873
 20
103.8378893896054
 30
0.0
 11
163.7280367403743
 21
104.8378894371041
 31
0.0
  0
ARC
  5
1B8A
330
18
100
AcDbEntity
  8
1
  6
Continuous
100
AcDbCircle
 10
166.2280368591179
 20
103.3378893658579
 30
0.0
 40
0.5000000237487284
100
AcDbArc
 50
0.0104326617666333
 51
89.99999999999348
  0
LINE
  5
1B8C
330
18
100
AcDbEntity
  8
1
  6
Continuous
100
AcDbLine
 10
198.783176045493
 20
96.83788905712276
 30
0.0
 11
204.2680038633113
 21
106.3378895083497
 31
0.0
  0
ARC
  5
1B8D
330
18
100
AcDbEntity
  8
2
  6
Continuous
100
AcDbCircle
 10
209.7528316811253
 20
96.8378890571245
 30
0.0
 40
8.00000037997961
100
AcDbArc
 50
106.0449756281408
 51
163.8290129354876
  0
LINE
  5
1B8E
330
18
100
AcDbEntity
  8
1
  6
Continuous
100
AcDbLine
 10
202.0644710601163
 20
99.04902384292801
 30
0.0
 11
207.541696895322
 21
104.5262496781336
 31
0.0
  0
ARC
  5
1B90
330
18
100
AcDbEntity
  8
1
  6
Continuous
100
AcDbCircle
 10
209.7528316811253
 20
96.8378890571245
 30
0.0
 40
8.000000379979628
100
AcDbArc
 50
163.9550243718603
 51
196.0449756281405
  0
LINE
  5
1B91
330
18
100
AcDbEntity
  8
1
  6
Continuous
100
AcDbLine
 10
206.6844981216092
 20
95.15404495104768
 30
0.0
 11
204.3613314250427
 21
93.87913449116146
 31
0.0
  0
LINE
  5
1B93
330
18
100
AcDbEntity
  8
1
  6
Continuous
100
AcDbLine
 10
205.2173463758791
 20
97.43788908562301
 30
0.0
 11
206.3046436206206
 21
97.43788908562295
 31
0.0
  0
LINE
  5
1B94
330
18
100
AcDbEntity
  8
1
  6
Continuous
100
AcDbLine
 10
206.5036008486191
 20
98.38788913074557
 30
0.0
 11
205.4484006199887
 21
98.38788913074557
 31
0.0
  0
LINE
  5
1B95
330
18
100
AcDbEntity
  8
1
  6
Continuous
100
AcDbLine
 10
205.5101908227839
 20
98.33788902331585
 30
0.0
 11
206.590553870757
 21
98.33788893763582
 31
0.0
  0
ARC
  5
1B96
330
18
100
AcDbEntity
  8
1
  6
Continuous
100
AcDbCircle
 10
209.7528316811253
 20
96.83788886638962
 30
0.0
 40
4.500000213738546
100
AcDbArc
 50
160.5287782084215
 51
172.3377418888427
  0
LINE
  5
1B98
330
18
100
AcDbEntity
  8
1
  6
Continuous
100
AcDbLine
 10
116.277132838061
 20
150.2869369739776
 30
0.0
 11
103.9771322538424
 21
150.2869369739776
 31
0.0
  0
LINE
  5
1B99
330
18
100
AcDbEntity
  8
1
  6
Continuous
100
AcDbLine
 10
116.277132838061
 20
149.5869369407293
 30
0.0
 11
103.9771322538424
 21
149.5869369407293
 31
0.0
  0
LINE
  5
1B9A
330
18
100
AcDbEntity
  8
1
  6
Continuous
100
AcDbLine
 10
116.6271328546852
 20
149.4869376989192
 30
0.0
 11
86.12713140601295
 21
149.4869376989192
 31
0.0
  0
LINE
  5
1BA1
330
18
100
AcDbEntity
  8
1
  6
Continuous
100
AcDbLine
 10
107.9159977601485
 20
138.9869372001959
 30
0.0
 11
107.9159977601485
 21
144.486937461432
 31
0.0
  0
LINE
  5
1BA2
330
18
100
AcDbEntity
  8
1
  6
Continuous
100
AcDbLine
 10
112.3382673317551
 20
138.9869372001959
 30
0.0
 11
112.3382673317551
 21
144.486937461432
 31
0.0
  0
LINE
  5
1BA3
330
18
100
AcDbEntity
  8
1
  6
Continuous
100
AcDbLine
 10
102.4387719249425
 20
138.9869372001959
 30
0.0
 11
102.4387719249425
 21
144.486937461432
 31
0.0
  0
LINE
  5
1BA4
330
18
100
AcDbEntity
  8
1
  6
Continuous
100
AcDbLine
 10
102.1271321659721
 20
144.4869374614319
 30
0.0
 11
102.1271321659721
 21
138.9869372001959
 31
0.0
  0
LINE
  5
1BA5
330
18
100
AcDbEntity
  8
1
  6
Continuous
100
AcDbLine
 10
104.6423047281354
 20
138.9869372001959
 30
0.0
 11
104.6423047281354
 21
135.9869370577035
 31
0.0
  0
LINE
  5
1BA6
330
18
100
AcDbEntity
  8
1
  6
Continuous
100
AcDbLine
 10
99.15747691031914
 20
138.9869372001959
 30
0.0
 11
99.15747691031914
 21
135.9869370577035
 31
0.0
  0
LINE
  5
1BA7
330
18
100
AcDbEntity
  8
1
  6
Continuous
100
AcDbLine
 10
121.0967881815844
 20
135.9869370577035
 30
0.0
 11
99.15747691032109
 21
135.9869370577035
 31
0.0
  0
LINE
  5
1BA8
330
18
100
AcDbEntity
  8
1
  6
Continuous
100
AcDbLine
 10
102.4387719249425
 20
133.9869369627086
 30
0.0
 11
102.4387719249425
 21
135.9869370577035
 31
0.0
  0
LINE
  5
1BA9
330
18
100
AcDbEntity
  8
1
  6
Continuous
100
AcDbLine
 10
102.1271321659721
 20
135.9869370577035
 30
0.0
 11
102.1271321659721
 21
133.9869369627086
 31
0.0
  0
LINE
  5
1BAA
330
18
100
AcDbEntity
  8
1
  6
Continuous
100
AcDbLine
 10
107.9159977601485
 20
133.9869369627086
 30
0.0
 11
107.9159977601485
 21
135.9869370577035
 31
0.0
  0
LINE
  5
1BAB
330
18
100
AcDbEntity
  8
1
  6
Continuous
100
AcDbLine
 10
112.3382673317551
 20
133.9869369627086
 30
0.0
 11
112.3382673317551
 21
135.9869370577035
 31
0.0
  0
LINE
  5
1BAC
330
18
100
AcDbEntity
  8
1
  6
Continuous
100
AcDbLine
 10
121.0967881815844
 20
138.9869372001959
 30
0.0
 11
99.15747691031947
 21
138.9869372001959
 31
0.0
  0
LINE
  5
1BAF
330
18
100
AcDbEntity
  8
1
  6
Continuous
100
AcDbLine
 10
86.12713140601295
 20
149.4869376989192
 30
0.0
 11
86.12713140601298
 21
147.4869376035622
 31
0.0
  0
LINE
  5
1BB1
330
18
100
AcDbEntity
  8
1
  6
Continuous
100
AcDbLine
 10
87.02410134431886
 20
149.4869376989191
 30
0.0
 11
87.02410134431886
 21
147.4869376039242
 31
0.0
  0
LINE
  5
1BB3
330
18
100
AcDbEntity
  8
1
  6
Continuous
100
AcDbLine
 10
103.9771322538424
 20
150.2869369739776
 30
0.0
 11
103.9771322538424
 21
149.5869369407293
 31
0.0
  0
LINE
  5
1BB6
330
18
100
AcDbEntity
  8
1
  6
Continuous
100
AcDbLine
 10
103.1271322134696
 20
146.9869375801756
 30
0.0
 11
103.1271322134696
 21
145.4869375089305
 31
0.0
  0
LINE
  5
1BB7
330
18
100
AcDbEntity
  8
1
  6
Continuous
100
AcDbLine
 10
102.4387719249426
 20
144.4869374614319
 30
0.0
 11
102.1271321659721
 21
144.4869374614319
 31
0.0
  0
LINE
  5
1BB8
330
18
100
AcDbEntity
  8
1
  6
Continuous
100
AcDbLine
 10
103.1271322134708
 20
145.4869375089305
 30
0.0
 11
102.1271321659721
 21
144.4869374614319
 31
0.0
  0
ARC
  5
1BBB
330
18
100
AcDbEntity
  8
1
  6
Continuous
100
AcDbCircle
 10
103.6271322372183
 20
146.9869375801755
 30
0.0
 40
0.5000000237487284
100
AcDbArc
 50
90.00218064815173
 51
179.9999999999886
  0
LINE
  5
1BBD
330
18
100
AcDbEntity
  8
1
  6
Continuous
100
AcDbLine
 10
113.1271326884441
 20
149.4869376989192
 30
0.0
 11
113.1271326884441
 21
149.5869369407294
 31
0.0
  0
LINE
  5
1BBE
330
18
100
AcDbEntity
  8
1
  6
Continuous
100
AcDbLine
 10
107.1271324034594
 20
149.5869369407293
 30
0.0
 11
107.1271324034594
 21
149.4869376989191
 31
0.0
  0
LINE
  5
1BBF
330
18
100
AcDbEntity
  8
1
  6
Continuous
100
AcDbLine
 10
112.3382673317552
 20
144.4869374614319
 30
0.0
 11
107.9159977601483
 21
144.4869374614319
 31
0.0
  0
LINE
  5
1BC0
330
18
100
AcDbEntity
  8
1
  6
Continuous
100
AcDbLine
 10
106.6271323797107
 20
150.4869377940998
 30
0.0
 11
113.6271327121928
 21
150.4869377940998
 31
0.0
  0
LINE
  5
1BC1
330
18
100
AcDbEntity
  8
1
  6
Continuous
100
AcDbLine
 10
113.6271327121928
 20
151.4869378415977
 30
0.0
 11
106.6271323797107
 21
151.4869378415977
 31
0.0
  0
LINE
  5
1BC2
330
18
100
AcDbEntity
  8
1
  6
Continuous
100
AcDbLine
 10
113.6271327121928
 20
150.4869377940998
 30
0.0
 11
113.6271327121928
 21
151.4869378415977
 31
0.0
  0
LINE
  5
1BC3
330
18
100
AcDbEntity
  8
1
  6
Continuous
100
AcDbLine
 10
106.6271323797107
 20
151.4869378415977
 30
0.0
 11
106.6271323797107
 21
150.4869377940998
 31
0.0
  0
LINE
  5
1BC4
330
18
100
AcDbEntity
  8
1
  6
Continuous
100
AcDbLine
 10
113.1271326884441
 20
150.2869369739776
 30
0.0
 11
113.1271326884441
 21
150.4869377941002
 31
0.0
  0
LINE
  5
1BC5
330
18
100
AcDbEntity
  8
1
  6
Continuous
100
AcDbLine
 10
107.1271324034594
 20
150.4869377941002
 30
0.0
 11
107.1271324034594
 21
150.2869369739776
 31
0.0
  0
LINE
  5
1BC6
330
18
100
AcDbEntity
  8
1
  6
Continuous
100
AcDbLine
 10
117.815493166961
 20
138.9869372001959
 30
0.0
 11
117.815493166961
 21
144.4869374614319
 31
0.0
  0
LINE
  5
1BC7
330
18
100
AcDbEntity
  8
1
  6
Continuous
100
AcDbLine
 10
118.1271329259313
 20
138.9869372001959
 30
0.0
 11
118.1271329259313
 21
144.4869374614319
 31
0.0
  0
LINE
  5
1BC8
330
18
100
AcDbEntity
  8
1
  6
Continuous
100
AcDbLine
 10
121.0967881815844
 20
138.9869372001959
 30
0.0
 11
121.0967881815844
 21
135.9869370577035
 31
0.0
  0
LINE
  5
1BC9
330
18
100
AcDbEntity
  8
1
  6
Continuous
100
AcDbLine
 10
115.6119603637661
 20
138.9869372001959
 30
0.0
 11
115.6119603637661
 21
135.9869370577035
 31
0.0
  0
LINE
  5
1BCB
330
18
100
AcDbEntity
  8
1
  6
Continuous
100
AcDbLine
 10
121.1271330684237
 20
133.9869369627086
 30
0.0
 11
99.1271320234798
 21
133.9869369627086
 31
0.0
  0
LINE
  5
1BCC
330
18
100
AcDbEntity
  8
1
  6
Continuous
100
AcDbLine
 10
117.815493166961
 20
133.9869369627086
 30
0.0
 11
117.815493166961
 21
135.9869370577035
 31
0.0
  0
LINE
  5
1BCD
330
18
100
AcDbEntity
  8
1
  6
Continuous
100
AcDbLine
 10
118.1271329259313
 20
133.9869369627086
 30
0.0
 11
118.1271329259313
 21
135.9869370577035
 31
0.0
  0
LINE
  5
1BCF
330
18
100
AcDbEntity
  8
1
  6
Continuous
100
AcDbLine
 10
116.277132838061
 20
149.5869369407293
 30
0.0
 11
116.277132838061
 21
150.2869369739776
 31
0.0
  0
LINE
  5
1BD0
330
18
100
AcDbEntity
  8
1
  6
Continuous
100
AcDbLine
 10
116.6271328546852
 20
147.4869376039242
 30
0.0
 11
116.6271328546852
 21
149.4869376989192
 31
0.0
  0
LINE
  5
1BD1
330
18
100
AcDbEntity
  8
1
  6
Continuous
100
AcDbLine
 10
117.1271328784339
 20
145.4869375089305
 30
0.0
 11
117.1271328784339
 21
146.9869375801756
 31
0.0
  0
LINE
  5
1BD2
330
18
100
AcDbEntity
  8
1
  6
Continuous
100
AcDbLine
 10
103.1271322134708
 20
145.4869375089305
 30
0.0
 11
117.1271328784339
 21
145.4869375089305
 31
0.0
  0
LINE
  5
1BD3
330
18
100
AcDbEntity
  8
1
  6
Continuous
100
AcDbLine
 10
86.12713140601298
 20
147.4869376035622
 30
0.0
 11
116.6271518840493
 21
147.4869376035622
 31
0.0
  0
LINE
  5
1BD5
330
18
100
AcDbEntity
  8
1
  6
Continuous
100
AcDbLine
 10
118.1271329259313
 20
144.4869374614319
 30
0.0
 11
117.1271328784326
 21
145.4869375089305
 31
0.0
  0
LINE
  5
1BD6
330
18
100
AcDbEntity
  8
1
  6
Continuous
100
AcDbLine
 10
118.1271329259313
 20
144.4869374614319
 30
0.0
 11
117.815493166961
 21
144.4869374614319
 31
0.0
  0
ARC
  5
1BD8
330
18
100
AcDbEntity
  8
1
  6
Continuous
100
AcDbCircle
 10
116.6271328546852
 20
146.9869375801755
 30
0.0
 40
0.5000000237487284
100
AcDbArc
 50
0.0000000000122133
 51
89.99781941193786
  0
LINE
  5
1BE9
330
18
100
AcDbEntity
  8
1
  6
Continuous
100
AcDbLine
 10
208.9967024622105
 20
100.2552372197172
 30
0.0
 11
208.6616749014987
 21
101.2808614710134
 31
0.0
  0
LINE
  5
1BEA
330
18
100
AcDbEntity
  8
1
  6
Continuous
100
AcDbLine
 10
210.8439884607524
 20
101.2808614710132
 30
0.0
 11
210.5089609000406
 21
100.2552372197171
 31
0.0
  0
ARC
  5
1BEB
330
18
100
AcDbEntity
  8
1
  6
Continuous
100
AcDbCircle
 10
209.7528316811253
 20
96.8378890571245
 30
0.0
 40
4.575000217300847
100
AcDbArc
 50
7.53590934227992
 51
76.20172599124868
  0
LINE
  5
1BEC
330
18
100
AcDbEntity
  8
1
  6
Continuous
100
AcDbLine
 10
211.3028317547464
 20
100.0871198896306
 30
0.0
 11
211.3028317547464
 21
101.142320118261
 31
0.0
  0
LINE
  5
1BED
330
18
100
AcDbEntity
  8
1
  6
Continuous
100
AcDbLine
 10
208.2028316075043
 20
101.142320118261
 30
0.0
 11
208.2028316075043
 21
100.0871198896306
 31
0.0
  0
ARC
  5
1BEE
330
18
100
AcDbEntity
  8
1
  6
Continuous
100
AcDbCircle
 10
209.7528316811253
 20
96.83788905712448
 30
0.0
 40
24.00000113993887
100
AcDbArc
 50
344.2861389519927
 51
15.71386104800732
  0
LINE
  5
1BEF
330
18
100
AcDbEntity
  8
1
  6
Continuous
100
AcDbLine
 10
208.252831609879
 20
100.0001666767581
 30
0.0
 11
208.2528316098793
 21
101.0805297550235
 31
0.0
  0
LINE
  5
1BF0
330
18
100
AcDbEntity
  8
1
  6
Continuous
100
AcDbLine
 10
211.2528317523715
 20
100.0001666767579
 30
0.0
 11
211.2528317523714
 21
101.0805297550235
 31
0.0
  0
LINE
  5
1BF1
330
18
100
AcDbEntity
  8
1
  6
Continuous
100
AcDbLine
 10
232.8558628827564
 20
90.33788874839158
 30
0.0
 11
209.7528316811253
 21
90.33788874839109
 31
0.0
  0
LINE
  5
1BF2
330
18
100
AcDbEntity
  8
1
  6
Continuous
100
AcDbLine
 10
215.1443319372077
 20
93.87913449116126
 30
0.0
 11
212.8211652406414
 21
95.15404495104744
 31
0.0
  0
LINE
  5
1BF3
330
18
100
AcDbEntity
  8
1
  6
Continuous
100
AcDbLine
 10
208.2028316075043
 20
93.58865822461831
 30
0.0
 11
208.2028316075043
 21
92.50689589367247
 31
0.0
  0
LINE
  5
1BF4
330
18
100
AcDbEntity
  8
1
  6
Continuous
100
AcDbLine
 10
211.3028317547464
 20
92.5068958936726
 30
0.0
 11
211.3028317547464
 21
93.58865822461831
 31
0.0
  0
ARC
  5
1BF5
330
18
100
AcDbEntity
  8
1
  6
Continuous
100
AcDbCircle
 10
209.7528316811253
 20
96.83788905712448
 30
0.0
 40
4.600000218488252
100
AcDbArc
 50
250.308442979794
 51
289.691557020206
  0
ARC
  5
1BF6
330
18
100
AcDbEntity
  8
1
  6
Continuous
100
AcDbCircle
 10
209.7528316811253
 20
96.8378890571245
 30
0.0
 40
3.600000170990828
100
AcDbArc
 50
295.5028222579621
 51
331.2428429585787
  0
LINE
  5
1BF7
330
18
100
AcDbEntity
  8
1
  6
Continuous
100
AcDbLine
 10
211.2528317523715
 20
92.59524797775585
 30
0.0
 11
211.2528317523716
 21
93.67561105602115
 31
0.0
  0
LINE
  5
1BF8
330
18
100
AcDbEntity
  8
1
  6
Continuous
100
AcDbLine
 10
208.2528317866603
 20
92.59524791525414
 30
0.0
 11
208.2528316098791
 21
93.67561105602129
 31
0.0
  0
ARC
  5
1BF9
330
18
100
AcDbEntity
  8
1
  6
Continuous
100
AcDbCircle
 10
209.7528316811253
 20
96.83788886638962
 30
0.0
 40
4.500000213738521
100
AcDbArc
 50
250.5287817528923
 51
289.4712206344927
  0
LINE
  5
1BFA
330
18
100
AcDbEntity
  8
1
  6
Continuous
100
AcDbLine
 10
213.2010197416301
 20
97.43788908562295
 30
0.0
 11
214.2883169863714
 21
97.43788908562295
 31
0.0
  0
LINE
  5
1BFB
330
18
100
AcDbEntity
  8
1
  6
Continuous
100
AcDbLine
 10
214.0572627422619
 20
98.38788913074557
 30
0.0
 11
213.0020625136316
 21
98.38788913074557
 31
0.0
  0
ARC
  5
1BFC
330
18
100
AcDbEntity
  8
1
  6
Continuous
100
AcDbCircle
 10
209.7528316811253
 20
96.8378890571245
 30
0.0
 40
3.600000170990828
100
AcDbArc
 50
25.50282225796288
 51
64.49717774203785
  0
LINE
  5
1BFD
330
18
100
AcDbEntity
  8
1
  6
Continuous
100
AcDbLine
 10
213.9954725697591
 20
98.33788893763582
 30
0.0
 11
212.9151094914937
 21
98.33788893763587
 31
0.0
  0
ARC
  5
1BFE
330
18
100
AcDbEntity
  8
1
  6
Continuous
100
AcDbCircle
 10
209.7528316811253
 20
96.83788886638962
 30
0.0
 40
4.500000213738577
100
AcDbArc
 50
7.662258111157273
 51
19.47122063449033
  0
LINE
  5
1BFF
330
18
100
AcDbEntity
  8
1
  6
Continuous
100
AcDbLine
 10
209.7528316811253
 20
103.3378893658579
 30
0.0
 11
232.8558628827583
 21
103.3378893658579
 31
0.0
  0
LINE
  5
1C00
330
18
100
AcDbEntity
  8
1
  6
Continuous
100
AcDbLine
 10
215.2376594989417
 20
106.3378895083502
 30
0.0
 11
216.9697103887787
 21
103.3378893658579
 31
0.0
  0
ARC
  5
1C01
330
18
100
AcDbEntity
  8
2
  6
Continuous
100
AcDbCircle
 10
209.7528316811253
 20
96.8378890571245
 30
0.0
 40
8.00000037997961
100
AcDbArc
 50
54.34091230385977
 51
73.95502437185877
  0
ARC
  5
1C02
330
18
100
AcDbEntity
  8
1
  6
Continuous
100
AcDbCircle
 10
209.7528316811253
 20
96.83788886638962
 30
0.0
 40
4.500000213738545
100
AcDbArc
 50
70.52877936551358
 51
76.27339297319894
  0
ARC
  5
1C03
330
18
100
AcDbEntity
  8
1
  6
Continuous
100
AcDbCircle
 10
209.7528316811253
 20
96.83788886638962
 30
0.0
 40
4.500000213738545
100
AcDbArc
 50
103.7266070268007
 51
109.4712206344864
  0
LINE
  5
1C04
330
18
100
AcDbEntity
  8
1
  6
Continuous
100
AcDbLine
 10
211.9639664669286
 20
104.5262496781335
 30
0.0
 11
213.1520649103922
 21
103.3381496568193
 31
0.0
  0
LINE
  5
1C0F
330
18
100
AcDbEntity
  8
4
  6
CENTER
 48
0.2
100
AcDbLine
 10
66.48878837181536
 20
144.4276066110901
 30
0.0
 11
17.72315684826947
 21
144.4276066110901
 31
0.0
  0
LINE
  5
1C10
330
18
100
AcDbEntity
  8
1
  6
Continuous
100
AcDbLine
 10
42.72315794071086
 20
148.4664804170973
 30
0.0
 11
42.72315794071085
 21
140.3887328050831
 31
0.0
  0
ARC
  5
1C11
330
18
100
AcDbEntity
  8
1
  6
Continuous
100
AcDbCircle
 10
32.22315739449014
 20
144.4276066110901
 30
0.0
 40
11.25000058184379
100
AcDbArc
 50
21.03946973639692
 51
68.96053026360315
  0
ARC
  5
1C12
330
18
100
AcDbEntity
  8
1
  6
Continuous
100
AcDbCircle
 10
32.22315739449018
 20
144.4276066110901
 30
0.0
 40
11.25000058184376
100
AcDbArc
 50
291.0394697363969
 51
338.9605302636028
  0
LINE
  5
1C13
330
18
100
AcDbEntity
  8
1
  6
Continuous
100
AcDbLine
 10
36.26203120049729
 20
133.9276060648695
 30
0.0
 11
28.18428358848306
 21
133.9276060648695
 31
0.0
  0
LINE
  5
1C14
330
18
100
AcDbEntity
  8
1
  6
Continuous
100
AcDbLine
 10
28.18428358848306
 20
154.9276071573109
 30
0.0
 11
36.26203120049726
 21
154.9276071573109
 31
0.0
  0
ARC
  5
1C15
330
18
100
AcDbEntity
  8
1
  6
Continuous
100
AcDbCircle
 10
32.22315739449014
 20
144.4276066110901
 30
0.0
 40
11.25000058184376
100
AcDbArc
 50
111.0394697363969
 51
158.960530263603
  0
LINE
  5
1C16
330
18
100
AcDbEntity
  8
1
  6
Continuous
100
AcDbLine
 10
21.72315684826947
 20
140.3887328050831
 30
0.0
 11
21.72315684826947
 21
148.4664804170973
 31
0.0
  0
ARC
  5
1C17
330
18
100
AcDbEntity
  8
1
  6
Continuous
100
AcDbCircle
 10
32.22315739449014
 20
144.4276066110901
 30
0.0
 40
11.25000058184376
100
AcDbArc
 50
201.039469736397
 51
248.960530263603
  0
CIRCLE
  5
1C18
330
18
100
AcDbEntity
  8
1
  6
Continuous
100
AcDbCircle
 10
110.1271325459517
 20
96.8378890571245
 30
0.0
 40
9.000000427477056
  0
CIRCLE
  5
1C19
330
18
100
AcDbEntity
  8
1
  6
Continuous
100
AcDbCircle
 10
110.1271325459517
 20
96.8378890571245
 30
0.0
 40
11.00000052247197
  0
CIRCLE
  5
1C1A
330
18
100
AcDbEntity
  8
1
  6
Continuous
100
AcDbCircle
 10
110.1271325459517
 20
96.8378890571245
 30
0.0
 40
6.85000032535754
  0
LINE
  5
1C1C
330
18
100
AcDbEntity
  8
4
  6
CENTER
 48
0.2
100
AcDbLine
 10
83.12713140601294
 20
96.83788905712448
 30
0.0
 11
124.1271330684237
 21
96.83788905712452
 31
0.0
  0
LINE
  5
1C1D
330
18
100
AcDbEntity
  8
4
  6
CENTER
 48
0.2
100
AcDbLine
 10
110.1271325459517
 20
82.83788853465251
 30
0.0
 11
110.1271325459517
 21
110.8378895795964
 31
0.0
  0
ARC
  5
1C22
330
18
100
AcDbEntity
  8
1
  6
Continuous
100
AcDbCircle
 10
160.4780365860126
 20
101.7876367605307
 30
0.0
 40
4.2500002018603
100
AcDbArc
 50
319.8808331015493
 51
40.11916689844793
  0
ARC
  5
1C23
330
18
100
AcDbEntity
  8
1
  6
Continuous
100
AcDbCircle
 10
160.4780365860129
 20
91.88814135371826
 30
0.0
 40
4.250000201860107
100
AcDbArc
 50
319.8808331015486
 51
40.11916689845136
  0
LINE
  5
1C24
330
18
100
AcDbEntity
  8
4
  6
CENTER
 48
0.2
100
AcDbLine
 10
146.9280361333587
 20
96.8378890571245
 30
0.0
 11
173.72803712054
 21
96.8378890571245
 31
0.0
  0
ARC
  5
1C25
330
18
100
AcDbEntity
  8
1
  6
Continuous
100
AcDbCircle
 10
105.1773848425455
 20
141.2369373070703
 30
0.0
 40
4.250000201860265
100
AcDbArc
 50
49.88083310155484
 51
130.1191668984456
  0
ARC
  5
1C26
330
18
100
AcDbEntity
  8
1
  6
Continuous
100
AcDbCircle
 10
115.076880249358
 20
141.2369373070705
 30
0.0
 40
4.250000201860029
100
AcDbArc
 50
49.88083310155158
 51
130.1191668984477
  0
LINE
  5
1C27
330
18
100
AcDbEntity
  8
4
  6
CENTER
 48
0.2
100
AcDbLine
 10
110.1271325459517
 20
127.6869368544163
 30
0.0
 11
110.1271325459517
 21
154.4869378415977
 31
0.0
  0
LINE
  5
1C28
330
18
100
AcDbEntity
  8
1
  6
Continuous
100
AcDbLine
 10
119.1271329734289
 20
62.68884129403271
 30
0.0
 11
101.1271321184747
 21
62.68884129403264
 31
0.0
  0
LINE
  5
1C29
330
18
100
AcDbEntity
  8
1
  6
Continuous
100
AcDbLine
 10
121.0967881815845
 20
57.68884105654544
 30
0.0
 11
99.15747691032116
 21
57.68884105654539
 31
0.0
  0
LINE
  5
1C2A
330
18
100
AcDbEntity
  8
1
  6
Continuous
100
AcDbLine
 10
121.0967881815845
 20
54.6888409140531
 30
0.0
 11
99.15747691031956
 21
54.68884091405303
 31
0.0
  0
LINE
  5
1C2B
330
18
100
AcDbEntity
  8
1
  6
Continuous
100
AcDbLine
 10
121.1271330684238
 20
60.68884119903778
 30
0.0
 11
99.12713202347989
 21
60.68884119903771
 31
0.0
  0
LINE
  5
1C2C
330
18
100
AcDbEntity
  8
1
  6
Continuous
100
AcDbLine
 10
121.1271330684238
 20
59.68884115154036
 30
0.0
 11
99.1271320234799
 21
59.68884115154029
 31
0.0
  0
ARC
  5
1C2D
330
18
100
AcDbEntity
  8
1
  6
Continuous
100
AcDbCircle
 10
105.1773848425456
 20
52.43884080717871
 30
0.0
 40
4.250000201860265
100
AcDbArc
 50
229.8808331015544
 51
310.1191668984452
  0
LINE
  5
1C2E
330
18
100
AcDbEntity
  8
1
  6
Continuous
100
AcDbLine
 10
103.1271322134709
 20
48.18884060531843
 30
0.0
 11
117.127132878434
 21
48.18884060531843
 31
0.0
  0
LINE
  5
1C2F
330
18
100
AcDbEntity
  8
1
  6
Continuous
100
AcDbLine
 10
116.6271328546853
 20
44.18884041532982
 30
0.0
 11
86.12713140601305
 21
44.18884041532971
 31
0.0
  0
LINE
  5
1C31
330
18
100
AcDbEntity
  8
1
  6
Continuous
100
AcDbLine
 10
86.12713140601305
 20
46.18884051068675
 30
0.0
 11
116.6271518840494
 21
46.18884051068684
 31
0.0
  0
LINE
  5
1C33
330
18
100
AcDbEntity
  8
1
  6
Continuous
100
AcDbLine
 10
116.7271524235291
 20
62.98884123554189
 30
0.0
 11
103.5270203032673
 21
62.98884123554189
 31
0.0
  0
LINE
  5
1C34
330
18
100
AcDbEntity
  8
1
  6
Continuous
100
AcDbLine
 10
102.1271321659722
 20
49.18884065281702
 30
0.0
 11
102.1271321659722
 21
54.68884091405303
 31
0.0
  0
LINE
  5
1C35
330
18
100
AcDbEntity
  8
1
  6
Continuous
100
AcDbLine
 10
102.4387719249426
 20
54.68884091405303
 30
0.0
 11
102.4387719249426
 21
49.18884065281696
 31
0.0
  0
LINE
  5
1C36
330
18
100
AcDbEntity
  8
1
  6
Continuous
100
AcDbLine
 10
99.1271320234799
 20
59.68884115154029
 30
0.0
 11
99.12713202347989
 21
60.68884119903771
 31
0.0
  0
LINE
  5
1C37
330
18
100
AcDbEntity
  8
1
  6
Continuous
100
AcDbLine
 10
102.1271321659722
 20
57.68884105654539
 30
0.0
 11
102.1271321659722
 21
59.68884115154029
 31
0.0
  0
LINE
  5
1C38
330
18
100
AcDbEntity
  8
1
  6
Continuous
100
AcDbLine
 10
102.4387719249426
 20
59.68884115154029
 30
0.0
 11
102.4387719249426
 21
57.68884105654539
 31
0.0
  0
LINE
  5
1C39
330
18
100
AcDbEntity
  8
1
  6
Continuous
100
AcDbLine
 10
99.15747691031922
 20
54.68884091405303
 30
0.0
 11
99.15747691031922
 21
57.68884105654539
 31
0.0
  0
LINE
  5
1C3A
330
18
100
AcDbEntity
  8
1
  6
Continuous
100
AcDbLine
 10
104.6423047281354
 20
54.68884091405306
 30
0.0
 11
104.6423047281354
 21
57.68884105654541
 31
0.0
  0
LINE
  5
1C3C
330
18
100
AcDbEntity
  8
1
  6
Continuous
100
AcDbLine
 10
99.12713202347989
 20
60.68884119903771
 30
0.0
 11
101.1271321184747
 21
62.68884129403264
 31
0.0
  0
ARC
  5
1C3E
330
18
100
AcDbEntity
  8
1
  6
Continuous
100
AcDbCircle
 10
103.5271322324686
 20
62.73884124872381
 30
0.0
 40
0.2500000118743642
100
AcDbArc
 50
90.025652281762
 51
179.9999999999968
  0
LINE
  5
1C3F
330
18
100
AcDbEntity
  8
1
  6
Continuous
100
AcDbLine
 10
103.2771322205943
 20
62.68884129403267
 30
0.0
 11
103.2771322205943
 21
62.73884124872381
 31
0.0
  0
LINE
  5
1C40
330
18
100
AcDbEntity
  8
1
  6
Continuous
100
AcDbLine
 10
86.12713140601305
 20
44.18884041532971
 30
0.0
 11
86.12713140601305
 21
46.18884051068675
 31
0.0
  0
LINE
  5
1C41
330
18
100
AcDbEntity
  8
1
  6
Continuous
100
AcDbLine
 10
87.02410134431898
 20
44.18884041532976
 30
0.0
 11
87.02410134431898
 21
46.18884051032465
 31
0.0
  0
LINE
  5
1C42
330
18
100
AcDbEntity
  8
1
  6
Continuous
100
AcDbLine
 10
103.1271322134709
 20
48.18884060531843
 30
0.0
 11
102.1271321659722
 21
49.18884065281702
 31
0.0
  0
ARC
  5
1C43
330
18
100
AcDbEntity
  8
1
  6
Continuous
100
AcDbCircle
 10
103.6271322372184
 20
46.68884053407341
 30
0.0
 40
0.5000000237487284
100
AcDbArc
 50
180.0000000000115
 51
269.9978193518483
  0
LINE
  5
1C46
330
18
100
AcDbEntity
  8
1
  6
Continuous
100
AcDbLine
 10
102.4387719249427
 20
49.18884065281699
 30
0.0
 11
102.1271321659722
 21
49.18884065281699
 31
0.0
  0
LINE
  5
1C47
330
18
100
AcDbEntity
  8
1
  6
Continuous
100
AcDbLine
 10
103.1271322134697
 20
46.68884053407332
 30
0.0
 11
103.1271322134697
 21
48.18884060531839
 31
0.0
  0
LINE
  5
1C49
330
18
100
AcDbEntity
  8
4
  6
CENTER
 48
0.2
100
AcDbLine
 10
110.1271325459518
 20
65.98884125983267
 30
0.0
 11
110.1271325459519
 21
39.18884027265127
 31
0.0
  0
LINE
  5
1C4A
330
18
100
AcDbEntity
  8
1
  6
Continuous
100
AcDbLine
 10
118.1271329259314
 20
54.6888409140531
 30
0.0
 11
118.1271329259314
 21
49.18884065281708
 31
0.0
  0
LINE
  5
1C4B
330
18
100
AcDbEntity
  8
1
  6
Continuous
100
AcDbLine
 10
117.815493166961
 20
54.6888409140531
 30
0.0
 11
117.8154931669611
 21
49.1888406528171
 31
0.0
  0
LINE
  5
1C4C
330
18
100
AcDbEntity
  8
1
  6
Continuous
100
AcDbLine
 10
112.3382673317552
 20
54.68884091405306
 30
0.0
 11
112.3382673317552
 21
49.18884065281696
 31
0.0
  0
LINE
  5
1C4D
330
18
100
AcDbEntity
  8
1
  6
Continuous
100
AcDbLine
 10
107.9159977601486
 20
54.68884091405306
 30
0.0
 11
107.9159977601486
 21
49.18884065281699
 31
0.0
  0
LINE
  5
1C4E
330
18
100
AcDbEntity
  8
1
  6
Continuous
100
AcDbLine
 10
118.1271329259314
 20
59.68884115154034
 30
0.0
 11
118.1271329259314
 21
57.68884105654544
 31
0.0
  0
LINE
  5
1C4F
330
18
100
AcDbEntity
  8
1
  6
Continuous
100
AcDbLine
 10
117.815493166961
 20
59.68884115154034
 30
0.0
 11
117.815493166961
 21
57.68884105654544
 31
0.0
  0
LINE
  5
1C50
330
18
100
AcDbEntity
  8
1
  6
Continuous
100
AcDbLine
 10
115.6119603637661
 20
54.68884091405306
 30
0.0
 11
115.6119603637661
 21
57.68884105654541
 31
0.0
  0
LINE
  5
1C51
330
18
100
AcDbEntity
  8
1
  6
Continuous
100
AcDbLine
 10
112.3382673317552
 20
59.68884115154032
 30
0.0
 11
112.3382673317552
 21
57.68884105654541
 31
0.0
  0
LINE
  5
1C52
330
18
100
AcDbEntity
  8
1
  6
Continuous
100
AcDbLine
 10
107.9159977601486
 20
59.68884115154032
 30
0.0
 11
107.9159977601486
 21
57.68884105654541
 31
0.0
  0
ARC
  5
1C53
330
18
100
AcDbEntity
  8
1
  6
Continuous
100
AcDbCircle
 10
116.727132859435
 20
62.73884124872385
 30
0.0
 40
0.2500000118743642
100
AcDbArc
 50
0.0000000000033901
 51
89.99551624012537
  0
LINE
  5
1C54
330
18
100
AcDbEntity
  8
1
  6
Continuous
100
AcDbLine
 10
116.9771328713093
 20
62.73884124872385
 30
0.0
 11
116.9771328713093
 21
62.68884129403271
 31
0.0
  0
LINE
  5
1C56
330
18
100
AcDbEntity
  8
1
  6
Continuous
100
AcDbLine
 10
119.1271329734289
 20
62.68884129403271
 30
0.0
 11
121.1271330684238
 21
60.68884119903779
 31
0.0
  0
LINE
  5
1C57
330
18
100
AcDbEntity
  8
1
  6
Continuous
100
AcDbLine
 10
121.0967881815845
 20
54.6888409140531
 30
0.0
 11
121.0967881815845
 21
57.68884105654544
 31
0.0
  0
LINE
  5
1C5A
330
18
100
AcDbEntity
  8
1
  6
Continuous
100
AcDbLine
 10
121.1271330684238
 20
60.68884119903779
 30
0.0
 11
121.1271330684238
 21
59.68884115154036
 31
0.0
  0
ARC
  5
1C5B
330
18
100
AcDbEntity
  8
1
  6
Continuous
100
AcDbCircle
 10
115.0768802493581
 20
52.43884080717842
 30
0.0
 40
4.250000201860029
100
AcDbArc
 50
229.8808331015524
 51
310.1191668984485
  0
ARC
  5
1C5E
330
18
100
AcDbEntity
  8
1
  6
Continuous
100
AcDbCircle
 10
116.6271328546853
 20
46.68884053407348
 30
0.0
 40
0.5000000237487284
100
AcDbArc
 50
270.0021805880622
 51
359.9999999999878
  0
LINE
  5
1C5F
330
18
100
AcDbEntity
  8
1
  6
Continuous
100
AcDbLine
 10
117.127132878434
 20
48.18884060531843
 30
0.0
 11
117.127132878434
 21
46.68884053407336
 31
0.0
  0
LINE
  5
1C60
330
18
100
AcDbEntity
  8
1
  6
Continuous
100
AcDbLine
 10
116.6271328546853
 20
46.18884051032475
 30
0.0
 11
116.6271328546853
 21
44.18884041532982
 31
0.0
  0
LINE
  5
1C68
330
18
100
AcDbEntity
  8
1
  6
Continuous
100
AcDbLine
 10
112.3382673317553
 20
49.18884065281702
 30
0.0
 11
107.9159977601484
 21
49.18884065281702
 31
0.0
  0
LINE
  5
1C6B
330
18
100
AcDbEntity
  8
1
  6
Continuous
100
AcDbLine
 10
118.1271329259314
 20
49.1888406528171
 30
0.0
 11
117.8154931669611
 21
49.1888406528171
 31
0.0
  0
LINE
  5
1C6C
330
18
100
AcDbEntity
  8
1
  6
Continuous
100
AcDbLine
 10
118.1271329259314
 20
49.18884065281708
 30
0.0
 11
117.1271328784327
 21
48.18884060531843
 31
0.0
  0
LINE
  5
1C6D
330
18
100
AcDbEntity
  8
1
  6
Continuous
100
AcDbLine
 10
106.6271323797108
 20
43.1888403201492
 30
0.0
 11
106.6271323797108
 21
42.18884027265129
 31
0.0
  0
LINE
  5
1C6E
330
18
100
AcDbEntity
  8
1
  6
Continuous
100
AcDbLine
 10
103.9771322538425
 20
43.38884114027139
 30
0.0
 11
107.4971324210337
 21
43.38884114027139
 31
0.0
  0
LINE
  5
1C6F
330
18
100
AcDbEntity
  8
1
  6
Continuous
100
AcDbLine
 10
103.9771322538425
 20
44.08884117351958
 30
0.0
 11
107.4971324210336
 21
44.08884117351958
 31
0.0
  0
LINE
  5
1C70
330
18
100
AcDbEntity
  8
1
  6
Continuous
100
AcDbLine
 10
103.9771322538425
 20
44.08884117351958
 30
0.0
 11
103.9771322538425
 21
43.38884114027139
 31
0.0
  0
LINE
  5
1C71
330
18
100
AcDbEntity
  8
1
  6
Continuous
100
AcDbLine
 10
104.7356322898695
 20
43.38884114027139
 30
0.0
 11
104.7356322898695
 21
44.08884117351958
 31
0.0
  0
LINE
  5
1C72
330
18
100
AcDbEntity
  8
1
  6
Continuous
100
AcDbLine
 10
107.4971324210337
 20
43.38884114027139
 30
0.0
 11
107.4971324210337
 21
44.08884117351958
 31
0.0
  0
LINE
  5
1C73
330
18
100
AcDbEntity
  8
1
  6
Continuous
100
AcDbLine
 10
107.1271324034595
 20
44.18884041532982
 30
0.0
 11
107.1271324034595
 21
44.08884117351958
 31
0.0
  0
LINE
  5
1C74
330
18
100
AcDbEntity
  8
1
  6
Continuous
100
AcDbLine
 10
107.1271324034595
 20
43.38884114027139
 30
0.0
 11
107.1271324034595
 21
43.18884032014881
 31
0.0
  0
LINE
  5
1C75
330
18
100
AcDbEntity
  8
1
  6
Continuous
100
AcDbLine
 10
106.6271323797108
 20
42.18884027265129
 30
0.0
 11
113.6271327121929
 21
42.18884027265129
 31
0.0
  0
LINE
  5
1C76
330
18
100
AcDbEntity
  8
1
  6
Continuous
100
AcDbLine
 10
113.6271327121929
 20
43.18884032014918
 30
0.0
 11
106.6271323797108
 21
43.1888403201492
 31
0.0
  0
LINE
  5
1C77
330
18
100
AcDbEntity
  8
1
  6
Continuous
100
AcDbLine
 10
113.6271327121929
 20
42.18884027265129
 30
0.0
 11
113.6271327121929
 21
43.18884032014918
 31
0.0
  0
LINE
  5
1C78
330
18
100
AcDbEntity
  8
1
  6
Continuous
100
AcDbLine
 10
112.7571326708701
 20
44.08884117351962
 30
0.0
 11
116.2771328380612
 21
44.08884117351962
 31
0.0
  0
LINE
  5
1C79
330
18
100
AcDbEntity
  8
1
  6
Continuous
100
AcDbLine
 10
112.7571326708701
 20
43.38884114027139
 30
0.0
 11
112.7571326708701
 21
44.08884117351962
 31
0.0
  0
LINE
  5
1C7A
330
18
100
AcDbEntity
  8
1
  6
Continuous
100
AcDbLine
 10
112.7571326708701
 20
43.38884114027139
 30
0.0
 11
116.2771328380612
 21
43.38884114027139
 31
0.0
  0
LINE
  5
1C7B
330
18
100
AcDbEntity
  8
1
  6
Continuous
100
AcDbLine
 10
113.1271326884442
 20
43.18884032014878
 30
0.0
 11
113.1271326884442
 21
43.38884114027139
 31
0.0
  0
LINE
  5
1C7C
330
18
100
AcDbEntity
  8
1
  6
Continuous
100
AcDbLine
 10
113.1271326884442
 20
44.08884117351958
 30
0.0
 11
113.1271326884442
 21
44.18884041532982
 31
0.0
  0
LINE
  5
1C7D
330
18
100
AcDbEntity
  8
1
  6
Continuous
100
AcDbLine
 10
115.5186328020345
 20
43.38884114027139
 30
0.0
 11
115.5186328020345
 21
44.08884117351958
 31
0.0
  0
LINE
  5
1C7E
330
18
100
AcDbEntity
  8
1
  6
Continuous
100
AcDbLine
 10
116.2771328380612
 20
43.38884114027139
 30
0.0
 11
116.2771328380612
 21
44.08884117351962
 31
0.0
  0
LINE
  5
1C7F
330
18
100
AcDbEntity
  8
1
  6
Continuous
100
AcDbLine
 10
46.77392192879573
 20
87.3378886058987
 30
0.0
 11
46.77392192879573
 21
106.3378895083497
 31
0.0
  0
LINE
  5
1C80
330
18
100
AcDbEntity
  8
1
  6
Continuous
100
AcDbLine
 10
49.7739220712881
 20
87.3378886058987
 30
0.0
 11
49.7739220712881
 21
106.3378895083502
 31
0.0
  0
LINE
  5
1C81
330
18
100
AcDbEntity
  8
1
  6
Continuous
100
AcDbLine
 10
51.773922166283
 20
85.8378885346525
 30
0.0
 11
51.773922166283
 21
107.8378895795964
 31
0.0
  0
LINE
  5
1C82
330
18
100
AcDbEntity
  8
1
  6
Continuous
100
AcDbLine
 10
52.77392221378045
 20
85.83788853465252
 30
0.0
 11
52.77392221378045
 21
107.8378895795964
 31
0.0
  0
LINE
  5
1C83
330
18
100
AcDbEntity
  8
1
  6
Continuous
100
AcDbLine
 10
54.77392230877534
 20
87.83788862964746
 30
0.0
 11
54.77392230877534
 21
105.8378894846015
 31
0.0
  0
LINE
  5
1C84
330
18
100
AcDbEntity
  8
4
  6
CENTER
 48
0.2
100
AcDbLine
 10
58.07392227457534
 20
96.8378890571245
 30
0.0
 11
31.27392128739393
 21
96.8378890571245
 31
0.0
  0
LINE
  5
1C85
330
18
100
AcDbEntity
  8
1
  6
Continuous
100
AcDbLine
 10
46.77392192879573
 20
88.83788867714489
 30
0.0
 11
41.27392166755975
 21
88.83788867714489
 31
0.0
  0
LINE
  5
1C86
330
18
100
AcDbEntity
  8
1
  6
Continuous
100
AcDbLine
 10
41.27392166755975
 20
104.8378894371041
 30
0.0
 11
46.77392192879573
 21
104.8378894371041
 31
0.0
  0
LINE
  5
1C87
330
18
100
AcDbEntity
  8
1
  6
Continuous
100
AcDbLine
 10
46.77392192879573
 20
104.5262496781336
 30
0.0
 11
41.27392166755964
 21
104.5262496781336
 31
0.0
  0
LINE
  5
1C88
330
18
100
AcDbEntity
  8
1
  6
Continuous
100
AcDbLine
 10
46.77392192879573
 20
89.1495284361153
 30
0.0
 11
41.27392166755975
 21
89.1495284361153
 31
0.0
  0
LINE
  5
1C89
330
18
100
AcDbEntity
  8
1
  6
Continuous
100
AcDbLine
 10
46.77392192879573
 20
94.62675427132124
 30
0.0
 11
41.27392166755975
 21
94.62675427132124
 31
0.0
  0
LINE
  5
1C8A
330
18
100
AcDbEntity
  8
1
  6
Continuous
100
AcDbLine
 10
46.77392192879573
 20
99.04902384292777
 30
0.0
 11
41.27392166755975
 21
99.04902384292777
 31
0.0
  0
LINE
  5
1C8B
330
18
100
AcDbEntity
  8
1
  6
Continuous
100
AcDbLine
 10
55.07392227457534
 20
90.23786917952907
 30
0.0
 11
55.07392227457534
 21
103.4379089347199
 31
0.0
  0
LINE
  5
1C8C
330
18
100
AcDbEntity
  8
1
  6
Continuous
100
AcDbLine
 10
46.77392192879573
 20
87.3378886058987
 30
0.0
 11
49.7739220712881
 21
87.3378886058987
 31
0.0
  0
LINE
  5
1C8D
330
18
100
AcDbEntity
  8
1
  6
Continuous
100
AcDbLine
 10
52.77392221378045
 20
85.8378885346525
 30
0.0
 11
51.773922166283
 21
85.8378885346525
 31
0.0
  0
LINE
  5
1C8E
330
18
100
AcDbEntity
  8
1
  6
Continuous
100
AcDbLine
 10
54.77392230877534
 20
87.83788862964746
 30
0.0
 11
52.77392221378045
 21
85.83788853465252
 31
0.0
  0
ARC
  5
1C91
330
18
100
AcDbEntity
  8
1
  6
Continuous
100
AcDbCircle
 10
54.82392226346656
 20
90.23788874364132
 30
0.0
 40
0.2500000118743642
100
AcDbArc
 50
270.0000000000065
 51
359.9743477178953
  0
LINE
  5
1C92
330
18
100
AcDbEntity
  8
1
  6
Continuous
100
AcDbLine
 10
54.82392226346656
 20
89.98788873176694
 30
0.0
 11
54.77392230877534
 21
89.98788873176694
 31
0.0
  0
LINE
  5
1C93
330
18
100
AcDbEntity
  8
1
  6
Continuous
100
AcDbLine
 10
51.773922166283
 20
88.83788867714489
 30
0.0
 11
49.7739220712881
 21
88.83788867714489
 31
0.0
  0
LINE
  5
1C94
330
18
100
AcDbEntity
  8
1
  6
Continuous
100
AcDbLine
 10
51.773922166283
 20
89.1495284361153
 30
0.0
 11
49.7739220712881
 21
89.1495284361153
 31
0.0
  0
ARC
  5
1C95
330
18
100
AcDbEntity
  8
1
  6
Continuous
100
AcDbCircle
 10
54.82392226346656
 20
103.4378893706077
 30
0.0
 40
0.2500000118743642
100
AcDbArc
 50
0.0044837580525357
 51
90.0
  0
LINE
  5
1C96
330
18
100
AcDbEntity
  8
1
  6
Continuous
100
AcDbLine
 10
54.77392230877534
 20
103.687889382482
 30
0.0
 11
54.82392226346656
 21
103.687889382482
 31
0.0
  0
LINE
  5
1C97
330
18
100
AcDbEntity
  8
1
  6
Continuous
100
AcDbLine
 10
49.7739220712881
 20
104.8378894371041
 30
0.0
 11
51.773922166283
 21
104.8378894371041
 31
0.0
  0
LINE
  5
1C98
330
18
100
AcDbEntity
  8
1
  6
Continuous
100
AcDbLine
 10
51.773922166283
 20
104.5262496781336
 30
0.0
 11
49.7739220712881
 21
104.5262496781336
 31
0.0
  0
LINE
  5
1C99
330
18
100
AcDbEntity
  8
1
  6
Continuous
100
AcDbLine
 10
46.77392192879573
 20
96.83788905712333
 30
0.0
 11
49.7739220712881
 21
96.83788905712333
 31
0.0
  0
LINE
  5
1C9A
330
18
100
AcDbEntity
  8
1
  6
Continuous
100
AcDbLine
 10
51.773922166283
 20
94.62675427132124
 30
0.0
 11
49.7739220712881
 21
94.62675427132124
 31
0.0
  0
LINE
  5
1C9B
330
18
100
AcDbEntity
  8
1
  6
Continuous
100
AcDbLine
 10
51.773922166283
 20
99.04902384292777
 30
0.0
 11
49.7739220712881
 21
99.04902384292777
 31
0.0
  0
ARC
  5
1C9C
330
18
100
AcDbEntity
  8
1
  6
Continuous
100
AcDbCircle
 10
44.52392182192116
 20
91.88814135371826
 30
0.0
 40
4.250000201860107
100
AcDbArc
 50
139.8808331015486
 51
220.1191668984514
  0
LINE
  5
1C9D
330
18
100
AcDbEntity
  8
1
  6
Continuous
100
AcDbLine
 10
35.27392133489185
 20
100.3378890326307
 30
0.0
 11
35.27392133489186
 21
93.33788870014851
 31
0.0
  0
LINE
  5
1C9E
330
18
100
AcDbEntity
  8
1
  6
Continuous
100
AcDbLine
 10
38.27392153335608
 20
103.3379804079342
 30
0.0
 11
38.27392153335608
 21
90.33797979062612
 31
0.0
  0
LINE
  5
1C9F
330
18
100
AcDbEntity
  8
1
  6
Continuous
100
AcDbLine
 10
40.27392162006107
 20
103.8378893896066
 30
0.0
 11
40.27392162006107
 21
89.83788872464355
 31
0.0
  0
LINE
  5
1CA0
330
18
100
AcDbEntity
  8
1
  6
Continuous
100
AcDbLine
 10
34.27392128739393
 20
93.33788870014856
 30
0.0
 11
34.27392128739393
 21
100.3378890326307
 31
0.0
  0
LINE
  5
1CA1
330
18
100
AcDbEntity
  8
1
  6
Continuous
100
AcDbLine
 10
36.2739214300725
 20
90.33788874839105
 30
0.0
 11
36.2739214300725
 21
103.3378893658579
 31
0.0
  0
LINE
  5
1CA2
330
18
100
AcDbEntity
  8
1
  6
Continuous
100
AcDbLine
 10
35.27392133489186
 20
93.33788870014851
 30
0.0
 11
34.27392128739393
 21
93.33788870014856
 31
0.0
  0
ARC
  5
1CA3
330
18
100
AcDbEntity
  8
1
  6
Continuous
100
AcDbCircle
 10
38.77392154881614
 20
90.33788874839105
 30
0.0
 40
0.5000000237487284
100
AcDbArc
 50
179.9895673287823
 51
269.999999999987
  0
LINE
  5
1CA4
330
18
100
AcDbEntity
  8
1
  6
Continuous
100
AcDbLine
 10
41.27392166755975
 20
88.83788867714489
 30
0.0
 11
40.27392162006107
 21
89.83788872464355
 31
0.0
  0
LINE
  5
1CA6
330
18
100
AcDbEntity
  8
1
  6
Continuous
100
AcDbLine
 10
41.27392166755975
 20
88.83788867714489
 30
0.0
 11
41.27392166755975
 21
89.14952843611542
 31
0.0
  0
LINE
  5
1CA8
330
18
100
AcDbEntity
  8
1
  6
Continuous
100
AcDbLine
 10
40.27392162006107
 20
89.83788872464236
 30
0.0
 11
38.77392154881602
 21
89.83788872464236
 31
0.0
  0
LINE
  5
1CA9
330
18
100
AcDbEntity
  8
1
  6
Continuous
100
AcDbLine
 10
36.2739214300725
 20
90.33788874839109
 30
0.0
 11
38.27392152506741
 21
90.33788874839109
 31
0.0
  0
ARC
  5
1CAA
330
18
100
AcDbEntity
  8
1
  6
Continuous
100
AcDbCircle
 10
44.52392182192135
 20
101.7876367605307
 30
0.0
 40
4.2500002018603
100
AcDbArc
 50
139.880833101552
 51
220.1191668984507
  0
ARC
  5
1CAB
330
18
100
AcDbEntity
  8
1
  6
Continuous
100
AcDbCircle
 10
38.77392154881614
 20
103.3378893658579
 30
0.0
 40
0.5000000237487284
100
AcDbArc
 50
90.00000000000651
 51
179.9895673382333
  0
LINE
  5
1CAE
330
18
100
AcDbEntity
  8
1
  6
Continuous
100
AcDbLine
 10
40.27392162006107
 20
103.8378893896054
 30
0.0
 11
41.27392166755975
 21
104.8378894371041
 31
0.0
  0
LINE
  5
1CAF
330
18
100
AcDbEntity
  8
1
  6
Continuous
100
AcDbLine
 10
41.27392166755975
 20
104.5262496781336
 30
0.0
 11
41.27392166755975
 21
104.837889437104
 31
0.0
  0
LINE
  5
1CB0
330
18
100
AcDbEntity
  8
1
  6
Continuous
100
AcDbLine
 10
38.77392154881602
 20
103.8378893896066
 30
0.0
 11
40.27392162006107
 21
103.8378893896066
 31
0.0
  0
LINE
  5
1CB1
330
18
100
AcDbEntity
  8
1
  6
Continuous
100
AcDbLine
 10
36.17392218826228
 20
99.837889008882
 30
0.0
 11
36.2739214300725
 21
99.837889008882
 31
0.0
  0
LINE
  5
1CB2
330
18
100
AcDbEntity
  8
1
  6
Continuous
100
AcDbLine
 10
35.27392133489149
 20
99.837889008882
 30
0.0
 11
35.47392215501406
 21
99.837889008882
 31
0.0
  0
LINE
  5
1CB3
330
18
100
AcDbEntity
  8
1
  6
Continuous
100
AcDbLine
 10
36.2739214300725
 20
103.3378893658579
 30
0.0
 11
38.27392152506741
 21
103.3378893658579
 31
0.0
  0
LINE
  5
1CB4
330
18
100
AcDbEntity
  8
1
  6
Continuous
100
AcDbLine
 10
35.47392215501406
 20
102.9878893492338
 30
0.0
 11
36.17392218826228
 21
102.9878893492338
 31
0.0
  0
LINE
  5
1CB5
330
18
100
AcDbEntity
  8
1
  6
Continuous
100
AcDbLine
 10
34.27392128739393
 20
100.3378890326307
 30
0.0
 11
35.27392133489185
 21
100.3378890326307
 31
0.0
  0
LINE
  5
1CB6
330
18
100
AcDbEntity
  8
1
  6
Continuous
100
AcDbLine
 10
41.27392166755975
 20
94.62675427132124
 30
0.0
 11
41.27392166755975
 21
99.04902384292777
 31
0.0
  0
LINE
  5
1CB7
330
18
100
AcDbEntity
  8
1
  6
Continuous
100
AcDbLine
 10
36.2739214300725
 20
93.83788872389727
 30
0.0
 11
35.27392133489149
 21
93.83788872389727
 31
0.0
  0
LINE
  5
1CB8
330
18
100
AcDbEntity
  8
1
  6
Continuous
100
AcDbLine
 10
35.47392215501406
 20
93.87913449116144
 30
0.0
 11
36.17392218826228
 21
93.87913449116144
 31
0.0
  0
LINE
  5
1CB9
330
18
100
AcDbEntity
  8
1
  6
Continuous
100
AcDbLine
 10
36.17392218826228
 20
93.8791344911614
 30
0.0
 11
36.17392218826228
 21
102.9878893492338
 31
0.0
  0
LINE
  5
1CBA
330
18
100
AcDbEntity
  8
1
  6
Continuous
100
AcDbLine
 10
35.47392215501406
 20
93.87913449116148
 30
0.0
 11
35.47392215501406
 21
102.9878893492338
 31
0.0
  0
LINE
  5
1CBB
330
18
100
AcDbEntity
  8
1
  6
Continuous
100
AcDbLine
 10
46.77392192879573
 20
106.3378895083491
 30
0.0
 11
49.7739220712881
 21
106.3378895083491
 31
0.0
  0
LINE
  5
1CBD
330
18
100
AcDbEntity
  8
1
  6
Continuous
100
AcDbLine
 10
51.773922166283
 20
107.8378895795965
 30
0.0
 11
52.77392221378045
 21
107.8378895795965
 31
0.0
  0
LINE
  5
1CBE
330
18
100
AcDbEntity
  8
1
  6
Continuous
100
AcDbLine
 10
52.77392221378045
 20
107.8378895795965
 30
0.0
 11
54.77402230877533
 21
105.8377894846015
 31
0.0
  0
LINE
  5
1D0B
330
18
100
AcDbEntity
  8
4
  6
CENTER
 48
0.2
100
AcDbLine
 10
195.7528311586534
 20
96.8378890571245
 30
0.0
 11
236.7528328210642
 21
96.8378890571245
 31
0.0
  0
LINE
  5
1D0C
330
18
100
AcDbEntity
  8
4
  6
CENTER
 48
0.2
100
AcDbLine
 10
209.7528316811253
 20
82.83788834391764
 30
0.0
 11
209.7528316811253
 21
110.8378893888616
 31
0.0
  0
ARC
  5
1E12
330
18
100
AcDbEntity
  8
0
  6
Continuous
100
AcDbCircle
 10
209.7528316811253
 20
96.83788905712463
 30
0.0
 40
7.187999999999998
100
AcDbArc
 50
121.867020177736
 51
148.1329798222646
  0
ARC
  5
1E1C
330
18
100
AcDbEntity
  8
2
  6
Continuous
100
AcDbCircle
 10
209.7528316811253
 20
96.83788905712463
 30
0.0
 40
7.187999999999998
100
AcDbArc
 50
64.72715102540137
 51
121.8670201777328
  0
ARC
  5
1E1D
330
18
100
AcDbEntity
  8
2
  6
Continuous
100
AcDbCircle
 10
209.7528316811253
 20
96.83788905712463
 30
0.0
 40
7.187999999999998
100
AcDbArc
 50
148.1329798222677
 51
211.8670201777439
  0
ARC
  5
1E1E
330
18
100
AcDbEntity
  8
2
  6
Continuous
100
AcDbCircle
 10
209.7528316811253
 20
96.83788905712438
 30
0.0
 40
7.187999999999998
100
AcDbArc
 50
238.1329798222671
 51
295.2728489745986
  0
ARC
  5
1E55
330
18
100
AcDbEntity
  8
0
  6
Continuous
100
AcDbCircle
 10
209.7528316811253
 20
96.83788905712091
 30
0.0
 40
7.187999999999998
100
AcDbArc
 50
211.8670201777353
 51
238.1329798222639
  0
ENDSEC
  0
SECTION
  2
OBJECTS
  0
DICTIONARY
  5
C
330
0
100
AcDbDictionary
281
     1
  3
ACAD_CIP_PREVIOUS_PRODUCT_INFO
350
1EE9
  3
ACAD_COLOR
350
1ECC
  3
ACAD_DETAILVIEWSTYLE
350
1EE5
  3
ACAD_GROUP
350
D
  3
ACAD_LAYOUT
350
94
  3
ACAD_MATERIAL
350
1E9A
  3
ACAD_MLEADERSTYLE
350
1EE1
  3
ACAD_MLINESTYLE
350
1B
  3
ACAD_PLOTSETTINGS
350
95
  3
ACAD_PLOTSTYLENAME
350
1E98
  3
ACAD_SCALELIST
350
1ECF
  3
ACAD_SECTIONVIEWSTYLE
350
1EE3
  3
ACAD_TABLESTYLE
350
1ECD
  3
ACAD_VISUALSTYLE
350
1EB3
  3
ACDB_RECOMPOSE_DATA
350
1F07
  3
AcDbVariableDictionary
350
1EFA
  3
CONTENTDICTIONARY
350
3D
  3
DWGPROPS
350
1F08
  0
DICTIONARY
  5
1EEA
330
E
100
AcDbDictionary
280
     1
281
     1
  3
ADSK_XREC_LAYER_RECONCILED
360
1EEB
  0
DICTIONARY
  5
1EEC
330
4E
100
AcDbDictionary
280
     1
281
     1
  3
ADSK_XREC_LAYER_RECONCILED
360
1EED
  0
DICTIONARY
  5
1EEE
330
4F
100
AcDbDictionary
280
     1
281
     1
  3
ADSK_XREC_LAYER_RECONCILED
360
1EEF
  0
DICTIONARY
  5
1EF0
330
50
100
AcDbDictionary
280
     1
281
     1
  3
ADSK_XREC_LAYER_RECONCILED
360
1EF1
  0
DICTIONARY
  5
1EF2
330
51
100
AcDbDictionary
280
     1
281
     1
  3
ADSK_XREC_LAYER_RECONCILED
360
1EF3
  0
DICTIONARY
  5
1EF4
330
52
100
AcDbDictionary
280
     1
281
     1
  3
ADSK_XREC_LAYER_RECONCILED
360
1EF5
  0
DICTIONARY
  5
1EF6
330
53
100
AcDbDictionary
280
     1
281
     1
  3
ADSK_XREC_LAYER_RECONCILED
360
1EF7
  0
DICTIONARY
  5
1EF8
330
54
100
AcDbDictionary
280
     1
281
     1
  3
ADSK_XREC_LAYER_RECONCILED
360
1EF9
  0
DICTIONARY
  5
1E93
330
18
100
AcDbDictionary
281
     1
  3
ACAD_LAYOUTSELFREF
350
1E94
  0
DICTIONARY
  5
1E91
330
15
100
AcDbDictionary
281
     1
  3
ACAD_LAYOUTSELFREF
350
1E92
  0
XRECORD
  5
1EE9
102
{ACAD_REACTORS
330
C
102
}
330
C
100
AcDbXrecord
280
     1
300
ACDLT
300
2014
300
ACDLT_F_S
  0
DICTIONARY
  5
1ECC
102
{ACAD_REACTORS
330
C
102
}
330
C
100
AcDbDictionary
281
     1
  0
DICTIONARY
  5
1EE5
102
{ACAD_REACTORS
330
C
102
}
330
C
100
AcDbDictionary
281
     1
  3
Imperial24
350
1EE6
  0
DICTIONARY
  5
D
102
{ACAD_REACTORS
330
C
102
}
330
C
100
AcDbDictionary
281
     1
  0
DICTIONARY
  5
94
102
{ACAD_REACTORS
330
C
102
}
330
C
100
AcDbDictionary
281
     1
  3
Model
350
1EE7
  3
レイアウト1
350
1EE8
  0
DICTIONARY
  5
1E9A
102
{ACAD_REACTORS
330
C
102
}
330
C
100
AcDbDictionary
281
     1
  3
ByBlock
350
1EA3
  3
ByLayer
350
1E9B
  3
Global
350
1EAB
  0
DICTIONARY
  5
1EE1
102
{ACAD_REACTORS
330
C
102
}
330
C
100
AcDbDictionary
281
     1
  3
Standard
350
1EE2
  0
DICTIONARY
  5
1B
102
{ACAD_REACTORS
330
C
102
}
330
C
100
AcDbDictionary
281
     1
  3
STANDARD
350
1C
  0
DICTIONARY
  5
95
102
{ACAD_REACTORS
330
C
102
}
330
C
100
AcDbDictionary
281
     1
  0
ACDBDICTIONARYWDFLT
  5
1E98
102
{ACAD_REACTORS
330
C
102
}
330
C
100
AcDbDictionary
281
     1
  3
Normal
350
1E99
100
AcDbDictionaryWithDefault
340
1E99
  0
DICTIONARY
  5
1ECF
102
{ACAD_REACTORS
330
C
102
}
330
C
100
AcDbDictionary
281
     1
  3
A0
350
1ED0
  3
A1
350
1ED1
  3
A2
350
1ED2
  3
A3
350
1ED3
  3
A4
350
1ED4
  3
A5
350
1ED5
  3
A6
350
1ED6
  3
A7
350
1ED7
  3
A8
350
1ED8
  3
A9
350
1ED9
  3
B0
350
1EDA
  3
B1
350
1EDB
  3
B2
350
1EDC
  3
B3
350
1EDD
  3
B4
350
1EDE
  3
B5
350
1EDF
  3
B6
350
1EE0
  0
DICTIONARY
  5
1EE3
102
{ACAD_REACTORS
330
C
102
}
330
C
100
AcDbDictionary
281
     1
  3
Imperial24
350
1EE4
  0
DICTIONARY
  5
1ECD
102
{ACAD_REACTORS
330
C
102
}
330
C
100
AcDbDictionary
281
     1
  3
Standard
350
1ECE
  0
DICTIONARY
  5
1EB3
102
{ACAD_REACTORS
330
C
102
}
330
C
100
AcDbDictionary
281
     1
  3
2dWireframe
350
1EB9
  3
Basic
350
1EB8
  3
Brighten
350
1EBF
  3
ColorChange
350
1EC3
  3
Conceptual
350
1EBC
  3
Dim
350
1EBE
  3
EdgeColorOff
350
1ECB
  3
Facepattern
350
1EC2
  3
Flat
350
1EB4
  3
FlatWithEdges
350
1EB5
  3
Gouraud
350
1EB6
  3
GouraudWithEdges
350
1EB7
  3
Hidden
350
1EBB
  3
JitterOff
350
1EC9
  3
Linepattern
350
1EC1
  3
OverhangOff
350
1ECA
  3
Realistic
350
1EBD
  3
Shaded
350
1EC8
  3
Shaded with edges
350
1EC7
  3
Shades of Gray
350
1EC4
  3
Sketchy
350
1EC5
  3
Thicken
350
1EC0
  3
Wireframe
350
1EBA
  3
X-Ray
350
1EC6
  0
XRECORD
  5
1F07
102
{ACAD_REACTORS
330
C
102
}
330
C
100
AcDbXrecord
280
     1
 90
        1
330
1ECE
  0
DICTIONARY
  5
1EFA
102
{ACAD_REACTORS
330
C
102
}
330
C
100
AcDbDictionary
281
     1
  3
CANNOSCALE
350
1EFF
  3
CMLEADERSTYLE
350
1EFC
  3
CTABLESTYLE
350
1EFB
  3
CVIEWDETAILSTYLE
350
1EFD
  3
CVIEWSECTIONSTYLE
350
1EFE
  3
DIMASSOC
350
1F02
  3
INDEXCTL
350
1F01
  3
SORTENTS
350
1F00
  3
XCLIPFRAME
350
1F03
  0
DICTIONARY
  5
3D
102
{ACAD_REACTORS
330
C
102
}
330
C
100
AcDbDictionary
281
     1
  0
XRECORD
  5
1F08
102
{ACAD_REACTORS
330
C
102
}
330
C
100
AcDbXrecord
280
     1
  1
DWGPROPS COOKIE
  2

  3

  4

  6

  7

  8
Yoshitsune
  9

300
=
301
=
302
=
303
=
304
=
305
=
306
=
307
=
308
=
309
=
 40
0.0591998263888889
 41
2453760.53437463
 42
2457192.701282187
  1

 90
        0
  0
XRECORD
  5
1EEB
102
{ACAD_REACTORS
330
1EEA
102
}
330
1EEA
100
AcDbXrecord
280
     1
290
     1
  0
XRECORD
  5
1EED
102
{ACAD_REACTORS
330
1EEC
102
}
330
1EEC
100
AcDbXrecord
280
     1
290
     1
  0
XRECORD
  5
1EEF
102
{ACAD_REACTORS
330
1EEE
102
}
330
1EEE
100
AcDbXrecord
280
     1
290
     1
  0
XRECORD
  5
1EF1
102
{ACAD_REACTORS
330
1EF0
102
}
330
1EF0
100
AcDbXrecord
280
     1
290
     1
  0
XRECORD
  5
1EF3
102
{ACAD_REACTORS
330
1EF2
102
}
330
1EF2
100
AcDbXrecord
280
     1
290
     1
  0
XRECORD
  5
1EF5
102
{ACAD_REACTORS
330
1EF4
102
}
330
1EF4
100
AcDbXrecord
280
     1
290
     1
  0
XRECORD
  5
1EF7
102
{ACAD_REACTORS
330
1EF6
102
}
330
1EF6
100
AcDbXrecord
280
     1
290
     1
  0
XRECORD
  5
1EF9
102
{ACAD_REACTORS
330
1EF8
102
}
330
1EF8
100
AcDbXrecord
280
     1
290
     1
  0
XRECORD
  5
1E94
102
{ACAD_REACTORS
330
1E93
102
}
330
1E93
100
AcDbXrecord
280
     1
340
18
  0
XRECORD
  5
1E92
102
{ACAD_REACTORS
330
1E91
102
}
330
1E91
100
AcDbXrecord
280
     1
340
15
  0
ACDBDETAILVIEWSTYLE
  5
1EE6
102
{ACAD_XDICTIONARY
360
1F40
102
}
102
{ACAD_REACTORS
330
1EE5
102
}
330
1EE5
100
AcDbModelDocViewStyle
 70
     0
  3
Imperial24
290
     0
100
AcDbDetailViewStyle
 70
     0
 71
     0
 90
        3
 71
     1
340
F
 40
0.24
340
0
 40
0.24
300

 40
0.36
280
     3
 71
     2
340
14
 90
       25
 71
     3
340
F
 40
0.24
 90
        1
 40
0.75
 90
        1
300
%<\AcVar ViewType \f "%tc1">% %<\AcVar ViewDetailId>%\PSCALE %<\AcVar ViewScale \f "%sn">%
 71
     4
340
14
 90
       25
340
14
 90
       25
280
     0
  0
LAYOUT
  5
1EE7
102
{ACAD_XDICTIONARY
360
1F42
102
}
102
{ACAD_REACTORS
330
94
102
}
330
94
100
AcDbPlotSettings
  1

  2
Canon LBP9100C
  4

  6

 40
0.0
 41
0.0
 42
0.0
 43
0.0
 44
0.0
 45
0.0
 46
0.0
 47
0.0
 48
0.0
 49
0.0
140
0.0
141
0.0
142
1.0
143
1.0
 70
  1712
 72
     0
 73
     0
 74
     0
  7

 75
     0
147
1.0
148
0.0
149
0.0
100
AcDbLayout
  1
Model
 70
     1
 71
     0
 10
0.0
 20
0.0
 11
12.0
 21
9.0
 12
0.0
 22
0.0
 32
0.0
 14
0.0
 24
0.0
 34
0.0
 15
0.0
 25
0.0
 35
0.0
146
0.0
 13
0.0
 23
0.0
 33
0.0
 16
1.0
 26
0.0
 36
0.0
 17
0.0
 27
1.0
 37
0.0
 76
     0
330
18
331
1E90
  0
LAYOUT
  5
1EE8
102
{ACAD_XDICTIONARY
360
1F44
102
}
102
{ACAD_REACTORS
330
94
102
}
330
94
100
AcDbPlotSettings
  1

  2
Canon LBP9100C
  4

  6

 40
0.0
 41
0.0
 42
0.0
 43
0.0
 44
0.0
 45
0.0
 46
0.0
 47
0.0
 48
0.0
 49
0.0
140
0.0
141
0.0
142
1.0
143
1.0
 70
   688
 72
     0
 73
     0
 74
     5
  7

 75
    16
147
1.0
148
0.0
149
0.0
100
AcDbLayout
  1
レイアウト1
 70
     1
 71
     1
 10
-3.757080078125
 20
-3.757083177566528
 11
293.2112426757812
 21
206.2162444591522
 12
0.0
 22
0.0
 32
0.0
 14
27.8447512626648
 24
20.24591643810271
 34
0.0
 15
250.6027613639831
 25
182.2132479429244
 35
0.0
146
0.0
 13
0.0
 23
0.0
 33
0.0
 16
1.0
 26
0.0
 36
0.0
 17
0.0
 27
1.0
 37
0.0
 76
     0
330
15
  0
MATERIAL
  5
1EA3
102
{ACAD_XDICTIONARY
360
1EA4
102
}
102
{ACAD_REACTORS
330
1E9A
102
}
330
1E9A
100
AcDbMaterial
  1
ByBlock
 72
     0
 43
0.0208333333333333
 43
0.0
 43
0.0
 43
0.0
 43
0.0
 43
0.0208333333333333
 43
0.0
 43
0.0
 43
0.0
 43
0.0
 43
1.0
 43
0.0
 43
0.0
 43
0.0
 43
0.0
 43
1.0
 77
     0
 47
0.0208333333333333
 47
0.0
 47
0.0
 47
0.0
 47
0.0
 47
0.0208333333333333
 47
0.0
 47
0.0
 47
0.0
 47
0.0
 47
1.0
 47
0.0
 47
0.0
 47
0.0
 47
0.0
 47
1.0
171
     0
 49
0.0208333333333333
 49
0.0
 49
0.0
 49
0.0
 49
0.0
 49
0.0208333333333333
 49
0.0
 49
0.0
 49
0.0
 49
0.0
 49
1.0
 49
0.0
 49
0.0
 49
0.0
 49
0.0
 49
1.0
175
     0
142
0.0208333333333333
142
0.0
142
0.0
142
0.0
142
0.0
142
0.0208333333333333
142
0.0
142
0.0
142
0.0
142
0.0
142
1.0
142
0.0
142
0.0
142
0.0
142
0.0
142
1.0
179
     0
144
0.0208333333333333
144
0.0
144
0.0
144
0.0
144
0.0
144
0.0208333333333333
144
0.0
144
0.0
144
0.0
144
0.0
144
1.0
144
0.0
144
0.0
144
0.0
144
0.0
144
1.0
147
0.0208333333333333
147
0.0
147
0.0
147
0.0
147
0.0
147
0.0208333333333333
147
0.0
147
0.0
147
0.0
147
0.0
147
1.0
147
0.0
147
0.0
147
0.0
147
0.0
147
1.0
  0
MATERIAL
  5
1E9B
102
{ACAD_XDICTIONARY
360
1E9C
102
}
102
{ACAD_REACTORS
330
1E9A
102
}
330
1E9A
100
AcDbMaterial
  1
ByLayer
 72
     0
 43
0.0208333333333333
 43
0.0
 43
0.0
 43
0.0
 43
0.0
 43
0.0208333333333333
 43
0.0
 43
0.0
 43
0.0
 43
0.0
 43
1.0
 43
0.0
 43
0.0
 43
0.0
 43
0.0
 43
1.0
 77
     0
 47
0.0208333333333333
 47
0.0
 47
0.0
 47
0.0
 47
0.0
 47
0.0208333333333333
 47
0.0
 47
0.0
 47
0.0
 47
0.0
 47
1.0
 47
0.0
 47
0.0
 47
0.0
 47
0.0
 47
1.0
171
     0
 49
0.0208333333333333
 49
0.0
 49
0.0
 49
0.0
 49
0.0
 49
0.0208333333333333
 49
0.0
 49
0.0
 49
0.0
 49
0.0
 49
1.0
 49
0.0
 49
0.0
 49
0.0
 49
0.0
 49
1.0
175
     0
142
0.0208333333333333
142
0.0
142
0.0
142
0.0
142
0.0
142
0.0208333333333333
142
0.0
142
0.0
142
0.0
142
0.0
142
1.0
142
0.0
142
0.0
142
0.0
142
0.0
142
1.0
179
     0
144
0.0208333333333333
144
0.0
144
0.0
144
0.0
144
0.0
144
0.0208333333333333
144
0.0
144
0.0
144
0.0
144
0.0
144
1.0
144
0.0
144
0.0
144
0.0
144
0.0
144
1.0
147
0.0208333333333333
147
0.0
147
0.0
147
0.0
147
0.0
147
0.0208333333333333
147
0.0
147
0.0
147
0.0
147
0.0
147
1.0
147
0.0
147
0.0
147
0.0
147
0.0
147
1.0
  0
MATERIAL
  5
1EAB
102
{ACAD_XDICTIONARY
360
1EAC
102
}
102
{ACAD_REACTORS
330
1E9A
102
}
330
1E9A
100
AcDbMaterial
  1
Global
 72
     0
 43
0.0208333333333333
 43
0.0
 43
0.0
 43
0.0
 43
0.0
 43
0.0208333333333333
 43
0.0
 43
0.0
 43
0.0
 43
0.0
 43
1.0
 43
0.0
 43
0.0
 43
0.0
 43
0.0
 43
1.0
 77
     0
 47
0.0208333333333333
 47
0.0
 47
0.0
 47
0.0
 47
0.0
 47
0.0208333333333333
 47
0.0
 47
0.0
 47
0.0
 47
0.0
 47
1.0
 47
0.0
 47
0.0
 47
0.0
 47
0.0
 47
1.0
171
     0
 49
0.0208333333333333
 49
0.0
 49
0.0
 49
0.0
 49
0.0
 49
0.0208333333333333
 49
0.0
 49
0.0
 49
0.0
 49
0.0
 49
1.0
 49
0.0
 49
0.0
 49
0.0
 49
0.0
 49
1.0
175
     0
142
0.0208333333333333
142
0.0
142
0.0
142
0.0
142
0.0
142
0.0208333333333333
142
0.0
142
0.0
142
0.0
142
0.0
142
1.0
142
0.0
142
0.0
142
0.0
142
0.0
142
1.0
179
     0
144
0.0208333333333333
144
0.0
144
0.0
144
0.0
144
0.0
144
0.0208333333333333
144
0.0
144
0.0
144
0.0
144
0.0
144
1.0
144
0.0
144
0.0
144
0.0
144
0.0
144
1.0
147
0.0208333333333333
147
0.0
147
0.0
147
0.0
147
0.0
147
0.0208333333333333
147
0.0
147
0.0
147
0.0
147
0.0
147
1.0
147
0.0
147
0.0
147
0.0
147
0.0
147
1.0
  0
MLEADERSTYLE
  5
1EE2
102
{ACAD_REACTORS
330
1EE1
102
}
330
1EE1
100
AcDbMLeaderStyle
170
     2
171
     1
172
     0
 90
        2
 40
0.0
 41
0.0
173
     1
 91
-1056964608
340
12
 92
       -2
290
     1
 42
0.09
291
     1
 43
0.36
  3
Standard
 44
0.18
300

342
F
174
     1
178
     6
175
     1
176
     0
 93
-1056964608
 45
0.18
292
     0
297
     0
 46
0.18
 94
-1056964608
 47
1.0
 49
1.0
140
1.0
293
     1
141
0.0
294
     1
177
     0
142
1.0
295
     0
296
     0
143
0.125
1001
ACAD_MLEADERVER
1070
     2
  0
MLINESTYLE
  5
1C
102
{ACAD_REACTORS
330
1B
102
}
330
1B
100
AcDbMlineStyle
  2
STANDARD
 70
     0
  3

 62
   256
 51
90.0
 52
90.0
 71
     2
 49
0.5
 62
   256
  6
BYLAYER
 49
-0.5
 62
   256
  6
BYLAYER
  0
ACDBPLACEHOLDER
  5
1E99
102
{ACAD_REACTORS
330
1E98
102
}
330
1E98
  0
SCALE
  5
1ED0
102
{ACAD_REACTORS
330
1ECF
102
}
330
1ECF
100
AcDbScale
 70
     0
300
1:1
140
1.0
141
1.0
290
     1
  0
SCALE
  5
1ED1
102
{ACAD_REACTORS
330
1ECF
102
}
330
1ECF
100
AcDbScale
 70
     0
300
1/128" = 1'-0"
140
0.0078125
141
12.0
290
     0
  0
SCALE
  5
1ED2
102
{ACAD_REACTORS
330
1ECF
102
}
330
1ECF
100
AcDbScale
 70
     0
300
1/64" = 1'-0"
140
0.015625
141
12.0
290
     0
  0
SCALE
  5
1ED3
102
{ACAD_REACTORS
330
1ECF
102
}
330
1ECF
100
AcDbScale
 70
     0
300
1/32" = 1'-0"
140
0.03125
141
12.0
290
     0
  0
SCALE
  5
1ED4
102
{ACAD_REACTORS
330
1ECF
102
}
330
1ECF
100
AcDbScale
 70
     0
300
1/16" = 1'-0"
140
0.0625
141
12.0
290
     0
  0
SCALE
  5
1ED5
102
{ACAD_REACTORS
330
1ECF
102
}
330
1ECF
100
AcDbScale
 70
     0
300
3/32" = 1'-0"
140
0.09375
141
12.0
290
     0
  0
SCALE
  5
1ED6
102
{ACAD_REACTORS
330
1ECF
102
}
330
1ECF
100
AcDbScale
 70
     0
300
1/8" = 1'-0"
140
0.125
141
12.0
290
     0
  0
SCALE
  5
1ED7
102
{ACAD_REACTORS
330
1ECF
102
}
330
1ECF
100
AcDbScale
 70
     0
300
3/16" = 1'-0"
140
0.1875
141
12.0
290
     0
  0
SCALE
  5
1ED8
102
{ACAD_REACTORS
330
1ECF
102
}
330
1ECF
100
AcDbScale
 70
     0
300
1/4" = 1'-0"
140
0.25
141
12.0
290
     0
  0
SCALE
  5
1ED9
102
{ACAD_REACTORS
330
1ECF
102
}
330
1ECF
100
AcDbScale
 70
     0
300
3/8" = 1'-0"
140
0.375
141
12.0
290
     0
  0
SCALE
  5
1EDA
102
{ACAD_REACTORS
330
1ECF
102
}
330
1ECF
100
AcDbScale
 70
     0
300
1/2" = 1'-0"
140
0.5
141
12.0
290
     0
  0
SCALE
  5
1EDB
102
{ACAD_REACTORS
330
1ECF
102
}
330
1ECF
100
AcDbScale
 70
     0
300
3/4" = 1'-0"
140
0.75
141
12.0
290
     0
  0
SCALE
  5
1EDC
102
{ACAD_REACTORS
330
1ECF
102
}
330
1ECF
100
AcDbScale
 70
     0
300
1" = 1'-0"
140
1.0
141
12.0
290
     0
  0
SCALE
  5
1EDD
102
{ACAD_REACTORS
330
1ECF
102
}
330
1ECF
100
AcDbScale
 70
     0
300
1-1/2" = 1'-0"
140
1.5
141
12.0
290
     0
  0
SCALE
  5
1EDE
102
{ACAD_REACTORS
330
1ECF
102
}
330
1ECF
100
AcDbScale
 70
     0
300
3" = 1'-0"
140
3.0
141
12.0
290
     0
  0
SCALE
  5
1EDF
102
{ACAD_REACTORS
330
1ECF
102
}
330
1ECF
100
AcDbScale
 70
     0
300
6" = 1'-0"
140
6.0
141
12.0
290
     0
  0
SCALE
  5
1EE0
102
{ACAD_REACTORS
330
1ECF
102
}
330
1ECF
100
AcDbScale
 70
     0
300
1'-0" = 1'-0"
140
12.0
141
12.0
290
     0
  0
ACDBSECTIONVIEWSTYLE
  5
1EE4
102
{ACAD_XDICTIONARY
360
1F3E
102
}
102
{ACAD_REACTORS
330
1EE3
102
}
330
1EE3
100
AcDbModelDocViewStyle
 70
     0
  3
Imperial24
290
     0
100
AcDbSectionViewStyle
 70
     0
 71
     0
 90
       78
 71
     1
340
F
 40
0.24
340
0
340
0
 40
0.24
300
I, O, Q, S, X, Z
 40
0.48
 90
        3
 40
0.18
 90
        1
 71
     2
340
14
 90
       25
340
14
 90
       50
 40
0.24
 40
0.0
 40
0.24
 71
     3
340
F
 40
0.24
 90
        1
 40
0.75
 90
        1
300
%<\AcVar ViewType \f "%tc1">% %<\AcVar ViewSectionStartId>%-%<\AcVar ViewSectionEndId>%\PSCALE %<\AcVar ViewScale \f "%sn">%
 71
     4
300
ANSI31
 40
1.0
 90
        0
290
     0
290
     0
 90
        6
 40
0.0
 40
1.570796326794896
 40
0.2617993877991494
 40
1.308996938995747
 40
-0.2617993877991494
 40
1.832595714594046
  0
TABLESTYLE
  5
1ECE
102
{ACAD_XDICTIONARY
360
1F05
102
}
102
{ACAD_REACTORS
330
1ECD
102
}
330
1ECD
100
AcDbTableStyle
  3
Standard
 70
     0
 71
     0
 40
0.06
 41
0.06
280
     0
281
     0
  7
STANDARD
140
0.18
170
     2
 62
     0
 63
     7
283
     0
274
    -2
284
     1
 64
     0
275
    -2
285
     1
 65
     0
276
    -2
286
     1
 66
     0
277
    -2
287
     1
 67
     0
278
    -2
288
     1
 68
     0
279
    -2
289
     1
 69
     0
  7
STANDARD
140
0.25
170
     5
 62
     0
 63
     7
283
     0
274
    -2
284
     1
 64
     0
275
    -2
285
     1
 65
     0
276
    -2
286
     1
 66
     0
277
    -2
287
     1
 67
     0
278
    -2
288
     1
 68
     0
279
    -2
289
     1
 69
     0
  7
STANDARD
140
0.18
170
     5
 62
     0
 63
     7
283
     0
274
    -2
284
     1
 64
     0
275
    -2
285
     1
 65
     0
276
    -2
286
     1
 66
     0
277
    -2
287
     1
 67
     0
278
    -2
288
     1
 68
     0
279
    -2
289
     1
 69
     0
  0
VISUALSTYLE
  5
1EB9
102
{ACAD_XDICTIONARY
360
1F16
102
}
102
{ACAD_REACTORS
330
1EB3
102
}
330
1EB3
100
AcDbVisualStyle
  2
2dWireframe
 70
     4
 71
     0
 72
     2
 73
     0
 90
        0
 40
-0.6
 41
-30.0
 62
     5
 63
     7
 74
     1
 91
        4
 64
     7
 65
   257
 75
     1
175
     1
 42
1.0
 92
        0
 66
   257
 43
1.0
 76
     1
 77
     6
 78
     2
 67
     7
 79
     5
170
     0
171
     0
290
     0
174
     0
 93
        1
 44
0.0
173
     0
291
     0
 45
0.0
1001
ACAD
1000
AcDbSavedByObjectVersion
1070
     0
  0
VISUALSTYLE
  5
1EB8
102
{ACAD_XDICTIONARY
360
1F14
102
}
102
{ACAD_REACTORS
330
1EB3
102
}
330
1EB3
100
AcDbVisualStyle
  2
Basic
 70
     7
 71
     1
 72
     0
 73
     1
 90
        0
 40
-0.6
 41
-30.0
 62
     5
 63
     7
 74
     0
 91
        4
 64
     7
 65
   257
 75
     1
175
     1
 42
1.0
 92
        8
 66
     7
 43
1.0
 76
     1
 77
     6
 78
     2
 67
     7
 79
     5
170
     0
171
     0
290
     0
174
     0
 93
        1
 44
0.0
173
     0
291
     1
 45
0.0
1001
ACAD
1000
AcDbSavedByObjectVersion
1070
     0
  0
VISUALSTYLE
  5
1EBF
102
{ACAD_XDICTIONARY
360
1F22
102
}
102
{ACAD_REACTORS
330
1EB3
102
}
330
1EB3
100
AcDbVisualStyle
  2
Brighten
 70
    12
 71
     2
 72
     2
 73
     0
 90
        0
 40
-0.6
 41
-30.0
 62
     5
 63
     7
 74
     1
 91
        4
 64
     7
 65
   257
 75
     1
175
     1
 42
1.0
 92
        8
 66
     7
 43
1.0
 76
     1
 77
     6
 78
     2
 67
     7
 79
     5
170
     0
171
     0
290
     0
174
     0
 93
        1
 44
50.0
173
     0
291
     1
 45
0.0
1001
ACAD
1000
AcDbSavedByObjectVersion
1070
     0
  0
VISUALSTYLE
  5
1EC3
102
{ACAD_XDICTIONARY
360
1F2A
102
}
102
{ACAD_REACTORS
330
1EB3
102
}
330
1EB3
100
AcDbVisualStyle
  2
ColorChange
 70
    16
 71
     2
 72
     2
 73
     3
 90
        0
 40
-0.6
 41
-30.0
 62
     5
 63
     8
 74
     1
 91
        4
 64
     7
 65
   257
 75
     1
175
     1
 42
1.0
 92
        8
 66
     8
 43
1.0
 76
     1
 77
     6
 78
     2
 67
     7
 79
     5
170
     0
171
     0
290
     0
174
     0
 93
        1
 44
0.0
173
     0
291
     1
 45
0.0
1001
ACAD
1000
AcDbSavedByObjectVersion
1070
     0
  0
VISUALSTYLE
  5
1EBC
102
{ACAD_XDICTIONARY
360
1F1C
102
}
102
{ACAD_REACTORS
330
1EB3
102
}
330
1EB3
100
AcDbVisualStyle
  2
Conceptual
 70
     9
 71
     3
 72
     2
 73
     0
 90
        0
 40
-0.6
 41
-30.0
 62
     5
 63
     7
 74
     2
 91
        2
 64
     7
 65
   257
 75
     1
175
     1
 42
179.0
 92
        8
 66
     7
 43
1.0
 76
     1
 77
     6
 78
     2
 67
     7
 79
     3
170
     0
171
     0
290
     0
174
     0
 93
        1
 44
0.0
173
     0
291
     0
 45
0.0
1001
ACAD
1000
AcDbSavedByObjectVersion
1070
     0
  0
VISUALSTYLE
  5
1EBE
102
{ACAD_XDICTIONARY
360
1F20
102
}
102
{ACAD_REACTORS
330
1EB3
102
}
330
1EB3
100
AcDbVisualStyle
  2
Dim
 70
    11
 71
     2
 72
     2
 73
     0
 90
        0
 40
-0.6
 41
-30.0
 62
     5
 63
     7
 74
     1
 91
        4
 64
     7
 65
   257
 75
     1
175
     1
 42
1.0
 92
        8
 66
     7
 43
1.0
 76
     1
 77
     6
 78
     2
 67
     7
 79
     5
170
     0
171
     0
290
     0
174
     0
 93
        1
 44
-50.0
173
     0
291
     1
 45
0.0
1001
ACAD
1000
AcDbSavedByObjectVersion
1070
     0
  0
VISUALSTYLE
  5
1ECB
102
{ACAD_XDICTIONARY
360
1F3A
102
}
102
{ACAD_REACTORS
330
1EB3
102
}
330
1EB3
100
AcDbVisualStyle
  2
EdgeColorOff
 70
    22
 71
     2
 72
     2
 73
     0
 90
        0
 40
-0.6
 41
-30.0
 62
     5
 63
     7
 74
     1
 91
        4
 64
     7
 65
   257
 75
     1
175
     1
 42
1.0
 92
        8
 66
     7
 43
1.0
 76
     1
 77
     6
 78
     2
 67
     7
 79
     5
170
     0
171
     0
290
     0
174
     0
 93
        1
 44
0.0
173
     0
291
     1
 45
0.0
1001
ACAD
1000
AcDbSavedByObjectVersion
1070
     0
  0
VISUALSTYLE
  5
1EC2
102
{ACAD_XDICTIONARY
360
1F28
102
}
102
{ACAD_REACTORS
330
1EB3
102
}
330
1EB3
100
AcDbVisualStyle
  2
Facepattern
 70
    15
 71
     2
 72
     2
 73
     0
 90
        0
 40
-0.6
 41
-30.0
 62
     5
 63
     7
 74
     1
 91
        4
 64
     7
 65
   257
 75
     1
175
     1
 42
1.0
 92
        8
 66
     7
 43
1.0
 76
     1
 77
     6
 78
     2
 67
     7
 79
     5
170
     0
171
     0
290
     0
174
     0
 93
        1
 44
0.0
173
     0
291
     1
 45
0.0
1001
ACAD
1000
AcDbSavedByObjectVersion
1070
     0
  0
VISUALSTYLE
  5
1EB4
102
{ACAD_XDICTIONARY
360
1F0C
102
}
102
{ACAD_REACTORS
330
1EB3
102
}
330
1EB3
100
AcDbVisualStyle
  2
Flat
 70
     0
 71
     2
 72
     1
 73
     1
 90
        2
 40
-0.6
 41
30.0
 62
     5
 63
     7
 74
     0
 91
        0
 64
     7
 65
   257
 75
     1
175
     1
 42
1.0
 92
        8
 66
     7
 43
1.0
 76
     1
 77
     6
 78
     2
 67
     7
 79
     5
170
     0
171
     0
290
     0
174
     0
 93
       13
 44
0.0
173
     0
291
     1
 45
0.0
1001
ACAD
1000
AcDbSavedByObjectVersion
1070
     0
  0
VISUALSTYLE
  5
1EB5
102
{ACAD_XDICTIONARY
360
1F0E
102
}
102
{ACAD_REACTORS
330
1EB3
102
}
330
1EB3
100
AcDbVisualStyle
  2
FlatWithEdges
 70
     1
 71
     2
 72
     1
 73
     1
 90
        2
 40
-0.6
 41
30.0
 62
     5
 63
     7
 74
     1
 91
        0
 64
     7
 65
   257
 75
     1
175
     1
 42
1.0
 92
        0
 66
   257
 43
1.0
 76
     1
 77
     6
 78
     2
 67
     7
 79
     5
170
     0
171
     0
290
     0
174
     0
 93
       13
 44
0.0
173
     0
291
     1
 45
0.0
1001
ACAD
1000
AcDbSavedByObjectVersion
1070
     0
  0
VISUALSTYLE
  5
1EB6
102
{ACAD_XDICTIONARY
360
1F10
102
}
102
{ACAD_REACTORS
330
1EB3
102
}
330
1EB3
100
AcDbVisualStyle
  2
Gouraud
 70
     2
 71
     2
 72
     2
 73
     1
 90
        2
 40
-0.6
 41
30.0
 62
     5
 63
     7
 74
     0
 91
        0
 64
     7
 65
   257
 75
     1
175
     1
 42
1.0
 92
        0
 66
     7
 43
1.0
 76
     1
 77
     6
 78
     2
 67
     7
 79
     5
170
     0
171
     0
290
     0
174
     0
 93
       13
 44
0.0
173
     0
291
     1
 45
0.0
1001
ACAD
1000
AcDbSavedByObjectVersion
1070
     0
  0
VISUALSTYLE
  5
1EB7
102
{ACAD_XDICTIONARY
360
1F12
102
}
102
{ACAD_REACTORS
330
1EB3
102
}
330
1EB3
100
AcDbVisualStyle
  2
GouraudWithEdges
 70
     3
 71
     2
 72
     2
 73
     1
 90
        2
 40
-0.6
 41
30.0
 62
     5
 63
     7
 74
     1
 91
        0
 64
     7
 65
   257
 75
     1
175
     1
 42
1.0
 92
        0
 66
   257
 43
1.0
 76
     1
 77
     6
 78
     2
 67
     7
 79
     5
170
     0
171
     0
290
     0
174
     0
 93
       13
 44
0.0
173
     0
291
     1
 45
0.0
1001
ACAD
1000
AcDbSavedByObjectVersion
1070
     0
  0
VISUALSTYLE
  5
1EBB
102
{ACAD_XDICTIONARY
360
1F1A
102
}
102
{ACAD_REACTORS
330
1EB3
102
}
330
1EB3
100
AcDbVisualStyle
  2
Hidden
 70
     6
 71
     1
 72
     2
 73
     2
 90
        0
 40
-0.6
 41
-30.0
 62
     5
 63
     7
 74
     2
 91
        2
 64
     7
 65
   257
 75
     2
175
     1
 42
40.0
 92
        0
 66
   257
 43
1.0
 76
     1
 77
     6
 78
     2
 67
     7
 79
     3
170
     0
171
     0
290
     0
174
     0
 93
        1
 44
0.0
173
     0
291
     0
 45
0.0
1001
ACAD
1000
AcDbSavedByObjectVersion
1070
     0
  0
VISUALSTYLE
  5
1EC9
102
{ACAD_XDICTIONARY
360
1F36
102
}
102
{ACAD_REACTORS
330
1EB3
102
}
330
1EB3
100
AcDbVisualStyle
  2
JitterOff
 70
    20
 71
     2
 72
     2
 73
     0
 90
        0
 40
-0.6
 41
-30.0
 62
     5
 63
     7
 74
     1
 91
        4
 64
     7
 65
   257
 75
     1
175
     1
 42
1.0
 92
       10
 66
     7
 43
1.0
 76
     1
 77
     6
 78
     2
 67
     7
 79
     5
170
     0
171
     0
290
     0
174
     0
 93
        1
 44
0.0
173
     0
291
     1
 45
0.0
1001
ACAD
1000
AcDbSavedByObjectVersion
1070
     0
  0
VISUALSTYLE
  5
1EC1
102
{ACAD_XDICTIONARY
360
1F26
102
}
102
{ACAD_REACTORS
330
1EB3
102
}
330
1EB3
100
AcDbVisualStyle
  2
Linepattern
 70
    14
 71
     2
 72
     2
 73
     0
 90
        0
 40
-0.6
 41
-30.0
 62
     5
 63
     7
 74
     1
 91
        4
 64
     7
 65
   257
 75
     7
175
     7
 42
1.0
 92
        8
 66
     7
 43
1.0
 76
     1
 77
     6
 78
     2
 67
     7
 79
     5
170
     0
171
     0
290
     0
174
     0
 93
        1
 44
0.0
173
     0
291
     1
 45
0.0
1001
ACAD
1000
AcDbSavedByObjectVersion
1070
     0
  0
VISUALSTYLE
  5
1ECA
102
{ACAD_XDICTIONARY
360
1F38
102
}
102
{ACAD_REACTORS
330
1EB3
102
}
330
1EB3
100
AcDbVisualStyle
  2
OverhangOff
 70
    21
 71
     2
 72
     2
 73
     0
 90
        0
 40
-0.6
 41
-30.0
 62
     5
 63
     7
 74
     1
 91
        4
 64
     7
 65
   257
 75
     1
175
     1
 42
1.0
 92
        9
 66
     7
 43
1.0
 76
     1
 77
     6
 78
     2
 67
     7
 79
     5
170
     0
171
     0
290
     0
174
     0
 93
        1
 44
0.0
173
     0
291
     1
 45
0.0
1001
ACAD
1000
AcDbSavedByObjectVersion
1070
     0
  0
VISUALSTYLE
  5
1EBD
102
{ACAD_XDICTIONARY
360
1F1E
102
}
102
{ACAD_REACTORS
330
1EB3
102
}
330
1EB3
100
AcDbVisualStyle
  2
Realistic
 70
     8
 71
     2
 72
     3
 73
     0
 90
        2
 40
-0.6
 41
30.0
 62
     5
 63
     7
 74
     0
 91
        0
 64
     7
 65
   257
 75
     1
175
     1
 42
1.0
 92
        8
 66
   257
 43
1.0
 76
     1
 77
     6
 78
     2
 67
     7
 79
     3
170
     0
171
     0
290
     0
174
     0
 93
       13
 44
0.0
173
     0
291
     0
 45
0.0
1001
ACAD
1000
AcDbSavedByObjectVersion
1070
     0
  0
VISUALSTYLE
  5
1EC8
102
{ACAD_XDICTIONARY
360
1F34
102
}
102
{ACAD_REACTORS
330
1EB3
102
}
330
1EB3
100
AcDbVisualStyle
  2
Shaded
 70
    27
 71
     2
 72
     2
 73
     1
 90
        2
 40
-0.6
 41
30.0
 62
     5
 63
     7
 74
     0
 91
        4
 64
     7
 65
   257
 75
     1
175
     1
 42
1.0
 92
        8
 66
   257
 43
1.0
 76
     1
 77
     6
 78
     2
 67
     8
 79
     3
170
     0
171
     0
290
     0
174
     0
 93
        5
 44
0.0
173
     0
291
     0
 45
0.0
1001
ACAD
1000
AcDbSavedByObjectVersion
1070
     0
  0
VISUALSTYLE
  5
1EC7
102
{ACAD_XDICTIONARY
360
1F32
102
}
102
{ACAD_REACTORS
330
1EB3
102
}
330
1EB3
100
AcDbVisualStyle
  2
Shaded with edges
 70
    26
 71
     2
 72
     2
 73
     1
 90
        2
 40
-0.6
 41
30.0
 62
     5
 63
     7
 74
     1
 91
       10
 64
     7
 65
   257
 75
     2
175
     1
 42
1.0
 92
        8
 66
   257
 43
1.0
 76
     1
 77
     6
 78
     2
 67
     7
 79
     3
170
     0
171
     0
290
     0
174
     0
 93
        5
 44
0.0
173
     0
291
     0
 45
0.0
1001
ACAD
1000
AcDbSavedByObjectVersion
1070
     0
  0
VISUALSTYLE
  5
1EC4
102
{ACAD_XDICTIONARY
360
1F2C
102
}
102
{ACAD_REACTORS
330
1EB3
102
}
330
1EB3
100
AcDbVisualStyle
  2
Shades of Gray
 70
    23
 71
     2
 72
     2
 73
     3
 90
        0
 40
-0.6
 41
-30.0
 62
     5
 63
     7
 74
     2
 91
        2
 64
     7
 65
     7
 75
     1
175
     1
 42
40.0
 92
        8
 66
     7
 43
1.0
 76
     1
 77
     6
 78
     2
 67
     7
 79
     3
170
     0
171
     0
290
     0
174
     0
 93
        1
 44
0.0
173
     0
291
     0
 45
0.0
1001
ACAD
1000
AcDbSavedByObjectVersion
1070
     0
  0
VISUALSTYLE
  5
1EC5
102
{ACAD_XDICTIONARY
360
1F2E
102
}
102
{ACAD_REACTORS
330
1EB3
102
}
330
1EB3
100
AcDbVisualStyle
  2
Sketchy
 70
    24
 71
     1
 72
     2
 73
     2
 90
        0
 40
-0.6
 41
-30.0
 62
     5
 63
     7
 74
     2
 91
        2
 64
     7
 65
     7
 75
     1
175
     1
 42
40.0
 92
       11
 66
     7
 43
1.0
 76
     1
 77
     6
 78
     2
 67
     7
 79
     6
170
     0
171
     0
290
     0
174
     0
 93
        1
 44
0.0
173
     0
291
     0
 45
0.0
1001
ACAD
1000
AcDbSavedByObjectVersion
1070
     0
  0
VISUALSTYLE
  5
1EC0
102
{ACAD_XDICTIONARY
360
1F24
102
}
102
{ACAD_REACTORS
330
1EB3
102
}
330
1EB3
100
AcDbVisualStyle
  2
Thicken
 70
    13
 71
     2
 72
     2
 73
     0
 90
        0
 40
-0.6
 41
-30.0
 62
     5
 63
     7
 74
     1
 91
        4
 64
     7
 65
   257
 75
     1
175
     1
 42
1.0
 92
       12
 66
     7
 43
1.0
 76
     1
 77
     6
 78
     2
 67
     7
 79
     5
170
     0
171
     0
290
     0
174
     0
 93
        1
 44
0.0
173
     0
291
     1
 45
0.0
1001
ACAD
1000
AcDbSavedByObjectVersion
1070
     0
  0
VISUALSTYLE
  5
1EBA
102
{ACAD_XDICTIONARY
360
1F18
102
}
102
{ACAD_REACTORS
330
1EB3
102
}
330
1EB3
100
AcDbVisualStyle
  2
Wireframe
 70
     5
 71
     0
 72
     2
 73
     0
 90
        0
 40
-0.6
 41
-30.0
 62
     5
 63
     7
 74
     1
 91
        4
 64
     7
 65
   257
 75
     1
175
     1
 42
1.0
 92
        0
 66
   257
 43
1.0
 76
     1
 77
     6
 78
     2
 67
     7
 79
     3
170
     0
171
     0
290
     0
174
     0
 93
        1
 44
0.0
173
     0
291
     0
 45
0.0
1001
ACAD
1000
AcDbSavedByObjectVersion
1070
     0
  0
VISUALSTYLE
  5
1EC6
102
{ACAD_XDICTIONARY
360
1F30
102
}
102
{ACAD_REACTORS
330
1EB3
102
}
330
1EB3
100
AcDbVisualStyle
  2
X-Ray
 70
    25
 71
     2
 72
     2
 73
     1
 90
        1
 40
0.5
 41
-30.0
 62
     5
 63
     7
 74
     1
 91
        0
 64
     7
 65
   257
 75
     1
175
     1
 42
1.0
 92
        8
 66
     7
 43
1.0
 76
     1
 77
     6
 78
     2
 67
     7
 79
     3
170
     0
171
     0
290
     0
174
     0
 93
       13
 44
0.0
173
     0
291
     0
 45
0.0
1001
ACAD
1000
AcDbSavedByObjectVersion
1070
     0
  0
DICTIONARYVAR
  5
1EFF
102
{ACAD_REACTORS
330
1EFA
102
}
330
1EFA
100
DictionaryVariables
280
     0
  1
1:1
  0
DICTIONARYVAR
  5
1EFC
102
{ACAD_REACTORS
330
1EFA
102
}
330
1EFA
100
DictionaryVariables
280
     0
  1
STANDARD
  0
DICTIONARYVAR
  5
1EFB
102
{ACAD_REACTORS
330
1EFA
102
}
330
1EFA
100
DictionaryVariables
280
     0
  1
STANDARD
  0
DICTIONARYVAR
  5
1EFD
102
{ACAD_REACTORS
330
1EFA
102
}
330
1EFA
100
DictionaryVariables
280
     0
  1
Imperial24
  0
DICTIONARYVAR
  5
1EFE
102
{ACAD_REACTORS
330
1EFA
102
}
330
1EFA
100
DictionaryVariables
280
     0
  1
Imperial24
  0
DICTIONARYVAR
  5
1F02
102
{ACAD_REACTORS
330
1EFA
102
}
330
1EFA
100
DictionaryVariables
280
     0
  1
1
  0
DICTIONARYVAR
  5
1F01
102
{ACAD_REACTORS
330
1EFA
102
}
330
1EFA
100
DictionaryVariables
280
     0
  1
0
  0
DICTIONARYVAR
  5
1F00
102
{ACAD_REACTORS
330
1EFA
102
}
330
1EFA
100
DictionaryVariables
280
     0
  1
127
  0
DICTIONARYVAR
  5
1F03
102
{ACAD_REACTORS
330
1EFA
102
}
330
1EFA
100
DictionaryVariables
280
     0
  1
2
  0
DICTIONARY
  5
1F40
330
1EE6
100
AcDbDictionary
280
     1
281
     1
  3
ACAD_XREC_ROUNDTRIP
360
1F41
  0
DICTIONARY
  5
1F42
330
1EE7
100
AcDbDictionary
280
     1
281
     1
  3
ACAD_XREC_ROUNDTRIP
360
1F43
  0
DICTIONARY
  5
1F44
330
1EE8
100
AcDbDictionary
280
     1
281
     1
  3
ACAD_XREC_ROUNDTRIP
360
1F45
  0
DICTIONARY
  5
1EA4
330
1EA3
100
AcDbDictionary
280
     1
281
     1
  3
ACAD_XREC_ROUNDTRIP
360
1F0A
  3
BUMPTILE
360
1EA6
  3
DIFFUSETILE
360
1EA5
  3
OPACITYTILE
360
1EA9
  3
REFLECTIONTILE
360
1EA8
  3
REFRACTIONTILE
360
1EAA
  3
SPECULARTILE
360
1EA7
  0
DICTIONARY
  5
1E9C
330
1E9B
100
AcDbDictionary
280
     1
281
     1
  3
ACAD_XREC_ROUNDTRIP
360
1F09
  3
BUMPTILE
360
1E9E
  3
DIFFUSETILE
360
1E9D
  3
OPACITYTILE
360
1EA1
  3
REFLECTIONTILE
360
1EA0
  3
REFRACTIONTILE
360
1EA2
  3
SPECULARTILE
360
1E9F
  0
DICTIONARY
  5
1EAC
330
1EAB
100
AcDbDictionary
280
     1
281
     1
  3
ACAD_XREC_ROUNDTRIP
360
1F0B
  3
BUMPTILE
360
1EAE
  3
DIFFUSETILE
360
1EAD
  3
OPACITYTILE
360
1EB1
  3
REFLECTIONTILE
360
1EB0
  3
REFRACTIONTILE
360
1EB2
  3
SPECULARTILE
360
1EAF
  0
DICTIONARY
  5
1F3E
330
1EE4
100
AcDbDictionary
280
     1
281
     1
  3
ACAD_XREC_ROUNDTRIP
360
1F3F
  0
DICTIONARY
  5
1F05
330
1ECE
100
AcDbDictionary
280
     1
281
     1
  3
ACAD_ROUNDTRIP_2008_TABLESTYLE_CELLSTYLEMAP
360
1F06
  3
ACAD_XREC_ROUNDTRIP
360
1F3C
  0
DICTIONARY
  5
1F16
330
1EB9
100
AcDbDictionary
280
     1
281
     1
  3
ACAD_XREC_ROUNDTRIP
360
1F17
  0
DICTIONARY
  5
1F14
330
1EB8
100
AcDbDictionary
280
     1
281
     1
  3
ACAD_XREC_ROUNDTRIP
360
1F15
  0
DICTIONARY
  5
1F22
330
1EBF
100
AcDbDictionary
280
     1
281
     1
  3
ACAD_XREC_ROUNDTRIP
360
1F23
  0
DICTIONARY
  5
1F2A
330
1EC3
100
AcDbDictionary
280
     1
281
     1
  3
ACAD_XREC_ROUNDTRIP
360
1F2B
  0
DICTIONARY
  5
1F1C
330
1EBC
100
AcDbDictionary
280
     1
281
     1
  3
ACAD_XREC_ROUNDTRIP
360
1F1D
  0
DICTIONARY
  5
1F20
330
1EBE
100
AcDbDictionary
280
     1
281
     1
  3
ACAD_XREC_ROUNDTRIP
360
1F21
  0
DICTIONARY
  5
1F3A
330
1ECB
100
AcDbDictionary
280
     1
281
     1
  3
ACAD_XREC_ROUNDTRIP
360
1F3B
  0
DICTIONARY
  5
1F28
330
1EC2
100
AcDbDictionary
280
     1
281
     1
  3
ACAD_XREC_ROUNDTRIP
360
1F29
  0
DICTIONARY
  5
1F0C
330
1EB4
100
AcDbDictionary
280
     1
281
     1
  3
ACAD_XREC_ROUNDTRIP
360
1F0D
  0
DICTIONARY
  5
1F0E
330
1EB5
100
AcDbDictionary
280
     1
281
     1
  3
ACAD_XREC_ROUNDTRIP
360
1F0F
  0
DICTIONARY
  5
1F10
330
1EB6
100
AcDbDictionary
280
     1
281
     1
  3
ACAD_XREC_ROUNDTRIP
360
1F11
  0
DICTIONARY
  5
1F12
330
1EB7
100
AcDbDictionary
280
     1
281
     1
  3
ACAD_XREC_ROUNDTRIP
360
1F13
  0
DICTIONARY
  5
1F1A
330
1EBB
100
AcDbDictionary
280
     1
281
     1
  3
ACAD_XREC_ROUNDTRIP
360
1F1B
  0
DICTIONARY
  5
1F36
330
1EC9
100
AcDbDictionary
280
     1
281
     1
  3
ACAD_XREC_ROUNDTRIP
360
1F37
  0
DICTIONARY
  5
1F26
330
1EC1
100
AcDbDictionary
280
     1
281
     1
  3
ACAD_XREC_ROUNDTRIP
360
1F27
  0
DICTIONARY
  5
1F38
330
1ECA
100
AcDbDictionary
280
     1
281
     1
  3
ACAD_XREC_ROUNDTRIP
360
1F39
  0
DICTIONARY
  5
1F1E
330
1EBD
100
AcDbDictionary
280
     1
281
     1
  3
ACAD_XREC_ROUNDTRIP
360
1F1F
  0
DICTIONARY
  5
1F34
330
1EC8
100
AcDbDictionary
280
     1
281
     1
  3
ACAD_XREC_ROUNDTRIP
360
1F35
  0
DICTIONARY
  5
1F32
330
1EC7
100
AcDbDictionary
280
     1
281
     1
  3
ACAD_XREC_ROUNDTRIP
360
1F33
  0
DICTIONARY
  5
1F2C
330
1EC4
100
AcDbDictionary
280
     1
281
     1
  3
ACAD_XREC_ROUNDTRIP
360
1F2D
  0
DICTIONARY
  5
1F2E
330
1EC5
100
AcDbDictionary
280
     1
281
     1
  3
ACAD_XREC_ROUNDTRIP
360
1F2F
  0
DICTIONARY
  5
1F24
330
1EC0
100
AcDbDictionary
280
     1
281
     1
  3
ACAD_XREC_ROUNDTRIP
360
1F25
  0
DICTIONARY
  5
1F18
330
1EBA
100
AcDbDictionary
280
     1
281
     1
  3
ACAD_XREC_ROUNDTRIP
360
1F19
  0
DICTIONARY
  5
1F30
330
1EC6
100
AcDbDictionary
280
     1
281
     1
  3
ACAD_XREC_ROUNDTRIP
360
1F31
  0
XRECORD
  5
1F41
102
{ACAD_REACTORS
330
1F40
102
}
330
1F40
100
AcDbXrecord
280
     1
102
DISPLAYNAME
  1
Imperial24
102
FLAGS
 90
        0
  0
XRECORD
  5
1F43
102
{ACAD_REACTORS
330
1F42
102
}
330
1F42
100
AcDbXrecord
280
     1
102
SHADEPLOT
 70
     0
102
SHADEPLOTRESLEVEL
 70
     2
102
SHADEPLOTCUSTOMDPI
 70
   300
  0
XRECORD
  5
1F45
102
{ACAD_REACTORS
330
1F44
102
}
330
1F44
100
AcDbXrecord
280
     1
102
SHADEPLOT
 70
     0
102
SHADEPLOTRESLEVEL
 70
     2
102
SHADEPLOTCUSTOMDPI
 70
   300
  0
XRECORD
  5
1F0A
102
{ACAD_REACTORS
330
1EA4
102
}
330
1EA4
100
AcDbXrecord
280
     1
102
MATERIAL
148
0.0
149
0.0
149
0.0
 93
        0
 94
      127
282
     0
 72
     0
 77
     0
171
     0
175
     0
179
     0
273
     0
  0
XRECORD
  5
1EA6
102
{ACAD_REACTORS
330
1EA4
102
}
330
1EA4
100
AcDbXrecord
280
     1
270
     1
271
     1
  0
XRECORD
  5
1EA5
102
{ACAD_REACTORS
330
1EA4
102
}
330
1EA4
100
AcDbXrecord
280
     1
270
     1
271
     1
  0
XRECORD
  5
1EA9
102
{ACAD_REACTORS
330
1EA4
102
}
330
1EA4
100
AcDbXrecord
280
     1
270
     1
271
     1
  0
XRECORD
  5
1EA8
102
{ACAD_REACTORS
330
1EA4
102
}
330
1EA4
100
AcDbXrecord
280
     1
270
     1
271
     1
  0
XRECORD
  5
1EAA
102
{ACAD_REACTORS
330
1EA4
102
}
330
1EA4
100
AcDbXrecord
280
     1
270
     1
271
     1
  0
XRECORD
  5
1EA7
102
{ACAD_REACTORS
330
1EA4
102
}
330
1EA4
100
AcDbXrecord
280
     1
270
     1
271
     1
  0
XRECORD
  5
1F09
102
{ACAD_REACTORS
330
1E9C
102
}
330
1E9C
100
AcDbXrecord
280
     1
102
MATERIAL
148
0.0
149
0.0
149
0.0
 93
        0
 94
      127
282
     0
 72
     0
 77
     0
171
     0
175
     0
179
     0
273
     0
  0
XRECORD
  5
1E9E
102
{ACAD_REACTORS
330
1E9C
102
}
330
1E9C
100
AcDbXrecord
280
     1
270
     1
271
     1
  0
XRECORD
  5
1E9D
102
{ACAD_REACTORS
330
1E9C
102
}
330
1E9C
100
AcDbXrecord
280
     1
270
     1
271
     1
  0
XRECORD
  5
1EA1
102
{ACAD_REACTORS
330
1E9C
102
}
330
1E9C
100
AcDbXrecord
280
     1
270
     1
271
     1
  0
XRECORD
  5
1EA0
102
{ACAD_REACTORS
330
1E9C
102
}
330
1E9C
100
AcDbXrecord
280
     1
270
     1
271
     1
  0
XRECORD
  5
1EA2
102
{ACAD_REACTORS
330
1E9C
102
}
330
1E9C
100
AcDbXrecord
280
     1
270
     1
271
     1
  0
XRECORD
  5
1E9F
102
{ACAD_REACTORS
330
1E9C
102
}
330
1E9C
100
AcDbXrecord
280
     1
270
     1
271
     1
  0
XRECORD
  5
1F0B
102
{ACAD_REACTORS
330
1EAC
102
}
330
1EAC
100
AcDbXrecord
280
     1
102
MATERIAL
148
0.0
149
0.0
149
0.0
 93
        0
 94
      127
282
     0
 72
     0
 77
     0
171
     0
175
     0
179
     0
273
     0
  0
XRECORD
  5
1EAE
102
{ACAD_REACTORS
330
1EAC
102
}
330
1EAC
100
AcDbXrecord
280
     1
270
     1
271
     1
  0
XRECORD
  5
1EAD
102
{ACAD_REACTORS
330
1EAC
102
}
330
1EAC
100
AcDbXrecord
280
     1
270
     1
271
     1
  0
XRECORD
  5
1EB1
102
{ACAD_REACTORS
330
1EAC
102
}
330
1EAC
100
AcDbXrecord
280
     1
270
     1
271
     1
  0
XRECORD
  5
1EB0
102
{ACAD_REACTORS
330
1EAC
102
}
330
1EAC
100
AcDbXrecord
280
     1
270
     1
271
     1
  0
XRECORD
  5
1EB2
102
{ACAD_REACTORS
330
1EAC
102
}
330
1EAC
100
AcDbXrecord
280
     1
270
     1
271
     1
  0
XRECORD
  5
1EAF
102
{ACAD_REACTORS
330
1EAC
102
}
330
1EAC
100
AcDbXrecord
280
     1
270
     1
271
     1
  0
XRECORD
  5
1F3F
102
{ACAD_REACTORS
330
1F3E
102
}
330
1F3E
100
AcDbXrecord
280
     1
102
DISPLAYNAME
  1
Imperial24
102
FLAGS
 90
        0
  0
CELLSTYLEMAP
  5
1F06
102
{ACAD_REACTORS
330
1F05
102
}
330
1F05
100
AcDbCellStyleMap
 90
        3
300
CELLSTYLE
  1
TABLEFORMAT_BEGIN
 90
        5
170
     1
 91
        0
 92
    32768
 62
   257
 93
        1
300
CONTENTFORMAT
  1
CONTENTFORMAT_BEGIN
 90
        0
 91
        0
 92
      512
 93
        0
300

 40
0.0
140
1.0
 94
        5
 62
     0
340
F
144
0.25
309
CONTENTFORMAT_END
171
     0
 94
        0
309
TABLEFORMAT_END
  1
CELLSTYLE_BEGIN
 90
        1
 91
        1
300
_TITLE
309
CELLSTYLE_END
300
CELLSTYLE
  1
TABLEFORMAT_BEGIN
 90
        5
170
     1
 91
        0
 92
        0
 62
   257
 93
        1
300
CONTENTFORMAT
  1
CONTENTFORMAT_BEGIN
 90
        0
 91
        0
 92
      512
 93
        0
300

 40
0.0
140
1.0
 94
        5
 62
     0
340
F
144
0.18
309
CONTENTFORMAT_END
171
     0
 94
        0
309
TABLEFORMAT_END
  1
CELLSTYLE_BEGIN
 90
        2
 91
        1
300
_HEADER
309
CELLSTYLE_END
300
CELLSTYLE
  1
TABLEFORMAT_BEGIN
 90
        5
170
     1
 91
        0
 92
        0
 62
   257
 93
        1
300
CONTENTFORMAT
  1
CONTENTFORMAT_BEGIN
 90
        0
 91
        0
 92
      512
 93
        0
300

 40
0.0
140
1.0
 94
        2
 62
     0
340
F
144
0.18
309
CONTENTFORMAT_END
171
     0
 94
        0
309
TABLEFORMAT_END
  1
CELLSTYLE_BEGIN
 90
        3
 91
        2
300
_DATA
309
CELLSTYLE_END
  0
XRECORD
  5
1F3C
102
{ACAD_REACTORS
330
1F05
102
}
330
1F05
100
AcDbXrecord
280
     1
102
ACAD_ROUNDTRIP_PRE2007_TABLESTYLE
 90
      512
 91
        0
  1

 92
      512
 93
        0
  2

 94
      512
 95
        0
  3

  0
XRECORD
  5
1F17
102
{ACAD_REACTORS
330
1F16
102
}
330
1F16
100
AcDbXrecord
280
     1
102
RTVSPost2010Prop28
280
     1
102
RTVSPost2010PropOp28
 70
     1
102
RTVSPost2010Prop29
280
     1
102
RTVSPost2010PropOp29
 70
     1
102
RTVSPost2010Prop30
280
     0
102
RTVSPost2010PropOp30
 70
     1
102
RTVSPost2010Prop31
280
     0
102
RTVSPost2010PropOp31
 70
     1
102
RTVSPost2010Prop32
280
     0
102
RTVSPost2010PropOp32
 70
     1
102
RTVSPost2010Prop33
280
     0
102
RTVSPost2010PropOp33
 70
     1
102
RTVSPost2010Prop34
280
     0
102
RTVSPost2010PropOp34
 70
     1
102
RTVSPost2010Prop35
280
     0
102
RTVSPost2010PropOp35
 70
     1
102
RTVSPost2010Prop36
280
     0
102
RTVSPost2010PropOp36
 70
     1
102
RTVSPost2010Prop37
 90
       50
102
RTVSPost2010PropOp37
 70
     1
102
RTVSPost2010Prop38
140
0.0
102
RTVSPost2010PropOp38
 70
     1
102
RTVSPost2010Prop39
140
1.0
102
RTVSPost2010PropOp39
 70
     1
102
RTVSPost2010Prop40
 90
        0
102
RTVSPost2010PropOp40
 70
     1
102
RTVSPost2010Prop41ColorIndex
 90
       18
102
RTVSPost2010Prop41ColorRGB
 90
        0
102
RTVSPost2010PropOp41
 70
     1
102
RTVSPost2010Prop42
 90
       50
102
RTVSPost2010PropOp42
 70
     1
102
RTVSPost2010Prop43
 90
        3
102
RTVSPost2010PropOp43
 70
     1
102
RTVSPost2010Prop44ColorIndex
 90
        5
102
RTVSPost2010Prop44ColorRGB
 90
      255
102
RTVSPost2010PropOp44
 70
     1
102
RTVSPost2010Prop45
280
     0
102
RTVSPost2010PropOp45
 70
     1
102
RTVSPost2010Prop46
 90
       50
102
RTVSPost2010PropOp46
 70
     1
102
RTVSPost2010Prop47
 90
       50
102
RTVSPost2010PropOp47
 70
     1
102
RTVSPost2010Prop48
 90
       50
102
RTVSPost2010PropOp48
 70
     1
102
RTVSPost2010Prop49
280
     0
102
RTVSPost2010PropOp49
 70
     1
102
RTVSPost2010Prop50
 90
       50
102
RTVSPost2010PropOp50
 70
     1
102
RTVSPost2010Prop51ColorIndex
 90
      256
102
RTVSPost2010Prop51ColorRGB
 90
-16777216
102
RTVSPost2010PropOp51
 70
     0
102
RTVSPost2010Prop52
140
1.0
102
RTVSPost2010PropOp52
 70
     0
102
RTVSPost2010Prop53
 90
        2
102
RTVSPost2010PropOp53
 70
     1
102
RTVSPost2010Prop54
  1
strokes_ogs.tif
102
RTVSPost2010PropOp54
 70
     1
102
RTVSPost2010Prop55
280
     0
102
RTVSPost2010PropOp55
 70
     1
102
RTVSPost2010Prop56
140
1.0
102
RTVSPost2010PropOp56
 70
     1
102
RTVSPost2010Prop57
140
1.0
102
RTVSPost2010PropOp57
 70
     1
102
RTVSPropertyOp0
 70
     1
102
RTVSPropertyOp1
 70
     1
102
RTVSPropertyOp2
 70
     1
102
RTVSPropertyOp3
 70
     1
102
RTVSPropertyOp4
 70
     1
102
RTVSPropertyOp5
 70
     1
102
RTVSPropertyOp6
 70
     1
102
RTVSPropertyOp7
 70
     1
102
RTVSPropertyOp8
 70
     1
102
RTVSPropertyOp9
 70
     1
102
RTVSPropertyOp10
 70
     1
102
RTVSPropertyOp11
 70
     1
102
RTVSPropertyOp12
 70
     1
102
RTVSPropertyOp13
 70
     1
102
RTVSPropertyOp14
 70
     1
102
RTVSPropertyOp15
 70
     1
102
RTVSPropertyOp16
 70
     1
102
RTVSPropertyOp17
 70
     1
102
RTVSPropertyOp18
 70
     1
102
RTVSPropertyOp19
 70
     1
102
RTVSPropertyOp20
 70
     1
102
RTVSPropertyOp21
 70
     1
102
RTVSPropertyOp22
 70
     1
102
RTVSPropertyOp23
 70
     1
102
RTVSPropertyOp24
 70
     1
102
RTVSPropertyOp25
 70
     1
102
RTVSPropertyOp26
 70
     1
102
RTVSPropertyOp27
 70
     1
102
RTVSPropertyOp28
 70
     1
102
RTVSPropertyOp29
 70
     1
102
RTVSPropertyOp30
 70
     1
102
RTVSPropertyOp31
 70
     1
102
RTVSPropertyOp32
 70
     1
102
RTVSPropertyOp33
 70
     1
102
RTVSPropertyOp34
 70
     1
102
RTVSPropertyOp35
 70
     1
102
RTVSPropertyOp36
 70
     1
102
RTVSPropertyOp37
 70
     1
102
RTVSPropertyOp38
 70
     1
102
RTVSPropertyOp39
 70
     1
102
RTVSPropertyOp40
 70
     1
102
RTVSPropertyOp41
 70
     1
102
RTVSPropertyOp42
 70
     1
102
RTVSPropertyOp43
 70
     1
102
RTVSPropertyOp44
 70
     1
102
RTVSPropertyOp45
 70
     1
102
RTVSPropertyOp46
 70
     1
102
RTVSPropertyOp47
 70
     1
102
RTVSPropertyOp48
 70
     1
102
RTVSPropertyOp49
 70
     1
102
RTVSPropertyOp50
 70
     1
102
RTVSPropertyOp51
 70
     0
102
RTVSPropertyOp52
 70
     0
102
RTVSPropertyOp53
 70
     1
102
RTVSPropertyOp54
 70
     1
102
RTVSPropertyOp55
 70
     1
102
RTVSPropertyOp56
 70
     1
102
RTVSPropertyOp57
 70
     1
102
RTVSPropertyOp58
 70
     1
102
RTVSPropertyOp59
 70
     1
102
RTVSPropertyOp60
 70
     1
102
RTVSPropertyOp61
 70
     1
102
RTVSPropertyOp62
 70
     1
  0
XRECORD
  5
1F15
102
{ACAD_REACTORS
330
1F14
102
}
330
1F14
100
AcDbXrecord
280
     1
102
RTVSPost2010Prop28
280
     0
102
RTVSPost2010PropOp28
 70
     1
102
RTVSPost2010Prop29
280
     1
102
RTVSPost2010PropOp29
 70
     1
102
RTVSPost2010Prop30
280
     1
102
RTVSPost2010PropOp30
 70
     1
102
RTVSPost2010Prop31
280
     0
102
RTVSPost2010PropOp31
 70
     1
102
RTVSPost2010Prop32
280
     0
102
RTVSPost2010PropOp32
 70
     1
102
RTVSPost2010Prop33
280
     0
102
RTVSPost2010PropOp33
 70
     1
102
RTVSPost2010Prop34
280
     0
102
RTVSPost2010PropOp34
 70
     1
102
RTVSPost2010Prop35
280
     0
102
RTVSPost2010PropOp35
 70
     1
102
RTVSPost2010Prop36
280
     0
102
RTVSPost2010PropOp36
 70
     1
102
RTVSPost2010Prop37
 90
       50
102
RTVSPost2010PropOp37
 70
     1
102
RTVSPost2010Prop38
140
0.0
102
RTVSPost2010PropOp38
 70
     1
102
RTVSPost2010Prop39
140
1.0
102
RTVSPost2010PropOp39
 70
     1
102
RTVSPost2010Prop40
 90
        0
102
RTVSPost2010PropOp40
 70
     1
102
RTVSPost2010Prop41ColorIndex
 90
       18
102
RTVSPost2010Prop41ColorRGB
 90
        0
102
RTVSPost2010PropOp41
 70
     1
102
RTVSPost2010Prop42
 90
       50
102
RTVSPost2010PropOp42
 70
     1
102
RTVSPost2010Prop43
 90
        3
102
RTVSPost2010PropOp43
 70
     1
102
RTVSPost2010Prop44ColorIndex
 90
        5
102
RTVSPost2010Prop44ColorRGB
 90
      255
102
RTVSPost2010PropOp44
 70
     1
102
RTVSPost2010Prop45
280
     0
102
RTVSPost2010PropOp45
 70
     1
102
RTVSPost2010Prop46
 90
       50
102
RTVSPost2010PropOp46
 70
     1
102
RTVSPost2010Prop47
 90
       50
102
RTVSPost2010PropOp47
 70
     1
102
RTVSPost2010Prop48
 90
       50
102
RTVSPost2010PropOp48
 70
     1
102
RTVSPost2010Prop49
280
     0
102
RTVSPost2010PropOp49
 70
     1
102
RTVSPost2010Prop50
 90
       50
102
RTVSPost2010PropOp50
 70
     1
102
RTVSPost2010Prop51ColorIndex
 90
      256
102
RTVSPost2010Prop51ColorRGB
 90
-16777216
102
RTVSPost2010PropOp51
 70
     0
102
RTVSPost2010Prop52
140
1.0
102
RTVSPost2010PropOp52
 70
     0
102
RTVSPost2010Prop53
 90
        2
102
RTVSPost2010PropOp53
 70
     1
102
RTVSPost2010Prop54
  1
strokes_ogs.tif
102
RTVSPost2010PropOp54
 70
     1
102
RTVSPost2010Prop55
280
     0
102
RTVSPost2010PropOp55
 70
     1
102
RTVSPost2010Prop56
140
1.0
102
RTVSPost2010PropOp56
 70
     1
102
RTVSPost2010Prop57
140
1.0
102
RTVSPost2010PropOp57
 70
     1
102
RTVSPropertyOp0
 70
     1
102
RTVSPropertyOp1
 70
     1
102
RTVSPropertyOp2
 70
     1
102
RTVSPropertyOp3
 70
     1
102
RTVSPropertyOp4
 70
     1
102
RTVSPropertyOp5
 70
     1
102
RTVSPropertyOp6
 70
     1
102
RTVSPropertyOp7
 70
     1
102
RTVSPropertyOp8
 70
     1
102
RTVSPropertyOp9
 70
     1
102
RTVSPropertyOp10
 70
     1
102
RTVSPropertyOp11
 70
     1
102
RTVSPropertyOp12
 70
     1
102
RTVSPropertyOp13
 70
     1
102
RTVSPropertyOp14
 70
     1
102
RTVSPropertyOp15
 70
     1
102
RTVSPropertyOp16
 70
     1
102
RTVSPropertyOp17
 70
     1
102
RTVSPropertyOp18
 70
     1
102
RTVSPropertyOp19
 70
     1
102
RTVSPropertyOp20
 70
     1
102
RTVSPropertyOp21
 70
     1
102
RTVSPropertyOp22
 70
     1
102
RTVSPropertyOp23
 70
     1
102
RTVSPropertyOp24
 70
     1
102
RTVSPropertyOp25
 70
     1
102
RTVSPropertyOp26
 70
     1
102
RTVSPropertyOp27
 70
     1
102
RTVSPropertyOp28
 70
     1
102
RTVSPropertyOp29
 70
     1
102
RTVSPropertyOp30
 70
     1
102
RTVSPropertyOp31
 70
     1
102
RTVSPropertyOp32
 70
     1
102
RTVSPropertyOp33
 70
     1
102
RTVSPropertyOp34
 70
     1
102
RTVSPropertyOp35
 70
     1
102
RTVSPropertyOp36
 70
     1
102
RTVSPropertyOp37
 70
     1
102
RTVSPropertyOp38
 70
     1
102
RTVSPropertyOp39
 70
     1
102
RTVSPropertyOp40
 70
     1
102
RTVSPropertyOp41
 70
     1
102
RTVSPropertyOp42
 70
     1
102
RTVSPropertyOp43
 70
     1
102
RTVSPropertyOp44
 70
     1
102
RTVSPropertyOp45
 70
     1
102
RTVSPropertyOp46
 70
     1
102
RTVSPropertyOp47
 70
     1
102
RTVSPropertyOp48
 70
     1
102
RTVSPropertyOp49
 70
     1
102
RTVSPropertyOp50
 70
     1
102
RTVSPropertyOp51
 70
     0
102
RTVSPropertyOp52
 70
     0
102
RTVSPropertyOp53
 70
     1
102
RTVSPropertyOp54
 70
     1
102
RTVSPropertyOp55
 70
     1
102
RTVSPropertyOp56
 70
     1
102
RTVSPropertyOp57
 70
     1
102
RTVSPropertyOp58
 70
     1
102
RTVSPropertyOp59
 70
     1
102
RTVSPropertyOp60
 70
     1
102
RTVSPropertyOp61
 70
     1
102
RTVSPropertyOp62
 70
     1
  0
XRECORD
  5
1F23
102
{ACAD_REACTORS
330
1F22
102
}
330
1F22
100
AcDbXrecord
280
     1
102
RTVSPost2010Prop28
280
     0
102
RTVSPost2010PropOp28
 70
     1
102
RTVSPost2010Prop29
280
     1
102
RTVSPost2010PropOp29
 70
     1
102
RTVSPost2010Prop30
280
     1
102
RTVSPost2010PropOp30
 70
     1
102
RTVSPost2010Prop31
280
     0
102
RTVSPost2010PropOp31
 70
     1
102
RTVSPost2010Prop32
280
     0
102
RTVSPost2010PropOp32
 70
     1
102
RTVSPost2010Prop33
280
     0
102
RTVSPost2010PropOp33
 70
     1
102
RTVSPost2010Prop34
280
     0
102
RTVSPost2010PropOp34
 70
     1
102
RTVSPost2010Prop35
280
     0
102
RTVSPost2010PropOp35
 70
     1
102
RTVSPost2010Prop36
280
     0
102
RTVSPost2010PropOp36
 70
     1
102
RTVSPost2010Prop37
 90
       50
102
RTVSPost2010PropOp37
 70
     1
102
RTVSPost2010Prop38
140
0.0
102
RTVSPost2010PropOp38
 70
     1
102
RTVSPost2010Prop39
140
1.0
102
RTVSPost2010PropOp39
 70
     1
102
RTVSPost2010Prop40
 90
        0
102
RTVSPost2010PropOp40
 70
     1
102
RTVSPost2010Prop41ColorIndex
 90
       18
102
RTVSPost2010Prop41ColorRGB
 90
        0
102
RTVSPost2010PropOp41
 70
     1
102
RTVSPost2010Prop42
 90
       50
102
RTVSPost2010PropOp42
 70
     1
102
RTVSPost2010Prop43
 90
        3
102
RTVSPost2010PropOp43
 70
     1
102
RTVSPost2010Prop44ColorIndex
 90
        5
102
RTVSPost2010Prop44ColorRGB
 90
      255
102
RTVSPost2010PropOp44
 70
     1
102
RTVSPost2010Prop45
280
     0
102
RTVSPost2010PropOp45
 70
     1
102
RTVSPost2010Prop46
 90
       50
102
RTVSPost2010PropOp46
 70
     1
102
RTVSPost2010Prop47
 90
       50
102
RTVSPost2010PropOp47
 70
     1
102
RTVSPost2010Prop48
 90
       50
102
RTVSPost2010PropOp48
 70
     1
102
RTVSPost2010Prop49
280
     0
102
RTVSPost2010PropOp49
 70
     1
102
RTVSPost2010Prop50
 90
       50
102
RTVSPost2010PropOp50
 70
     1
102
RTVSPost2010Prop51ColorIndex
 90
      256
102
RTVSPost2010Prop51ColorRGB
 90
-16777216
102
RTVSPost2010PropOp51
 70
     0
102
RTVSPost2010Prop52
140
1.0
102
RTVSPost2010PropOp52
 70
     0
102
RTVSPost2010Prop53
 90
        2
102
RTVSPost2010PropOp53
 70
     1
102
RTVSPost2010Prop54
  1
strokes_ogs.tif
102
RTVSPost2010PropOp54
 70
     1
102
RTVSPost2010Prop55
280
     0
102
RTVSPost2010PropOp55
 70
     1
102
RTVSPost2010Prop56
140
1.0
102
RTVSPost2010PropOp56
 70
     1
102
RTVSPost2010Prop57
140
1.0
102
RTVSPost2010PropOp57
 70
     1
102
RTVSPropertyOp0
 70
     1
102
RTVSPropertyOp1
 70
     1
102
RTVSPropertyOp2
 70
     1
102
RTVSPropertyOp3
 70
     1
102
RTVSPropertyOp4
 70
     1
102
RTVSPropertyOp5
 70
     1
102
RTVSPropertyOp6
 70
     1
102
RTVSPropertyOp7
 70
     1
102
RTVSPropertyOp8
 70
     1
102
RTVSPropertyOp9
 70
     1
102
RTVSPropertyOp10
 70
     1
102
RTVSPropertyOp11
 70
     1
102
RTVSPropertyOp12
 70
     1
102
RTVSPropertyOp13
 70
     1
102
RTVSPropertyOp14
 70
     1
102
RTVSPropertyOp15
 70
     1
102
RTVSPropertyOp16
 70
     1
102
RTVSPropertyOp17
 70
     1
102
RTVSPropertyOp18
 70
     1
102
RTVSPropertyOp19
 70
     1
102
RTVSPropertyOp20
 70
     1
102
RTVSPropertyOp21
 70
     1
102
RTVSPropertyOp22
 70
     1
102
RTVSPropertyOp23
 70
     1
102
RTVSPropertyOp24
 70
     1
102
RTVSPropertyOp25
 70
     1
102
RTVSPropertyOp26
 70
     1
102
RTVSPropertyOp27
 70
     1
102
RTVSPropertyOp28
 70
     1
102
RTVSPropertyOp29
 70
     1
102
RTVSPropertyOp30
 70
     1
102
RTVSPropertyOp31
 70
     1
102
RTVSPropertyOp32
 70
     1
102
RTVSPropertyOp33
 70
     1
102
RTVSPropertyOp34
 70
     1
102
RTVSPropertyOp35
 70
     1
102
RTVSPropertyOp36
 70
     1
102
RTVSPropertyOp37
 70
     1
102
RTVSPropertyOp38
 70
     1
102
RTVSPropertyOp39
 70
     1
102
RTVSPropertyOp40
 70
     1
102
RTVSPropertyOp41
 70
     1
102
RTVSPropertyOp42
 70
     1
102
RTVSPropertyOp43
 70
     1
102
RTVSPropertyOp44
 70
     1
102
RTVSPropertyOp45
 70
     1
102
RTVSPropertyOp46
 70
     1
102
RTVSPropertyOp47
 70
     1
102
RTVSPropertyOp48
 70
     1
102
RTVSPropertyOp49
 70
     1
102
RTVSPropertyOp50
 70
     1
102
RTVSPropertyOp51
 70
     0
102
RTVSPropertyOp52
 70
     0
102
RTVSPropertyOp53
 70
     1
102
RTVSPropertyOp54
 70
     1
102
RTVSPropertyOp55
 70
     1
102
RTVSPropertyOp56
 70
     1
102
RTVSPropertyOp57
 70
     1
102
RTVSPropertyOp58
 70
     1
102
RTVSPropertyOp59
 70
     1
102
RTVSPropertyOp60
 70
     1
102
RTVSPropertyOp61
 70
     1
102
RTVSPropertyOp62
 70
     1
  0
XRECORD
  5
1F2B
102
{ACAD_REACTORS
330
1F2A
102
}
330
1F2A
100
AcDbXrecord
280
     1
102
RTVSPost2010Prop28
280
     0
102
RTVSPost2010PropOp28
 70
     1
102
RTVSPost2010Prop29
280
     1
102
RTVSPost2010PropOp29
 70
     1
102
RTVSPost2010Prop30
280
     1
102
RTVSPost2010PropOp30
 70
     1
102
RTVSPost2010Prop31
280
     0
102
RTVSPost2010PropOp31
 70
     1
102
RTVSPost2010Prop32
280
     0
102
RTVSPost2010PropOp32
 70
     1
102
RTVSPost2010Prop33
280
     0
102
RTVSPost2010PropOp33
 70
     1
102
RTVSPost2010Prop34
280
     0
102
RTVSPost2010PropOp34
 70
     1
102
RTVSPost2010Prop35
280
     0
102
RTVSPost2010PropOp35
 70
     1
102
RTVSPost2010Prop36
280
     0
102
RTVSPost2010PropOp36
 70
     1
102
RTVSPost2010Prop37
 90
       50
102
RTVSPost2010PropOp37
 70
     1
102
RTVSPost2010Prop38
140
0.0
102
RTVSPost2010PropOp38
 70
     1
102
RTVSPost2010Prop39
140
1.0
102
RTVSPost2010PropOp39
 70
     1
102
RTVSPost2010Prop40
 90
        0
102
RTVSPost2010PropOp40
 70
     1
102
RTVSPost2010Prop41ColorIndex
 90
       18
102
RTVSPost2010Prop41ColorRGB
 90
        0
102
RTVSPost2010PropOp41
 70
     1
102
RTVSPost2010Prop42
 90
       50
102
RTVSPost2010PropOp42
 70
     1
102
RTVSPost2010Prop43
 90
        3
102
RTVSPost2010PropOp43
 70
     1
102
RTVSPost2010Prop44ColorIndex
 90
        5
102
RTVSPost2010Prop44ColorRGB
 90
      255
102
RTVSPost2010PropOp44
 70
     1
102
RTVSPost2010Prop45
280
     0
102
RTVSPost2010PropOp45
 70
     1
102
RTVSPost2010Prop46
 90
       50
102
RTVSPost2010PropOp46
 70
     1
102
RTVSPost2010Prop47
 90
       50
102
RTVSPost2010PropOp47
 70
     1
102
RTVSPost2010Prop48
 90
       50
102
RTVSPost2010PropOp48
 70
     1
102
RTVSPost2010Prop49
280
     0
102
RTVSPost2010PropOp49
 70
     1
102
RTVSPost2010Prop50
 90
       50
102
RTVSPost2010PropOp50
 70
     1
102
RTVSPost2010Prop51ColorIndex
 90
      256
102
RTVSPost2010Prop51ColorRGB
 90
-16777216
102
RTVSPost2010PropOp51
 70
     0
102
RTVSPost2010Prop52
140
1.0
102
RTVSPost2010PropOp52
 70
     0
102
RTVSPost2010Prop53
 90
        2
102
RTVSPost2010PropOp53
 70
     1
102
RTVSPost2010Prop54
  1
strokes_ogs.tif
102
RTVSPost2010PropOp54
 70
     1
102
RTVSPost2010Prop55
280
     0
102
RTVSPost2010PropOp55
 70
     1
102
RTVSPost2010Prop56
140
1.0
102
RTVSPost2010PropOp56
 70
     1
102
RTVSPost2010Prop57
140
1.0
102
RTVSPost2010PropOp57
 70
     1
102
RTVSPropertyOp0
 70
     1
102
RTVSPropertyOp1
 70
     1
102
RTVSPropertyOp2
 70
     1
102
RTVSPropertyOp3
 70
     1
102
RTVSPropertyOp4
 70
     1
102
RTVSPropertyOp5
 70
     1
102
RTVSPropertyOp6
 70
     1
102
RTVSPropertyOp7
 70
     1
102
RTVSPropertyOp8
 70
     1
102
RTVSPropertyOp9
 70
     1
102
RTVSPropertyOp10
 70
     1
102
RTVSPropertyOp11
 70
     1
102
RTVSPropertyOp12
 70
     1
102
RTVSPropertyOp13
 70
     1
102
RTVSPropertyOp14
 70
     1
102
RTVSPropertyOp15
 70
     1
102
RTVSPropertyOp16
 70
     1
102
RTVSPropertyOp17
 70
     1
102
RTVSPropertyOp18
 70
     1
102
RTVSPropertyOp19
 70
     1
102
RTVSPropertyOp20
 70
     1
102
RTVSPropertyOp21
 70
     1
102
RTVSPropertyOp22
 70
     1
102
RTVSPropertyOp23
 70
     1
102
RTVSPropertyOp24
 70
     1
102
RTVSPropertyOp25
 70
     1
102
RTVSPropertyOp26
 70
     1
102
RTVSPropertyOp27
 70
     1
102
RTVSPropertyOp28
 70
     1
102
RTVSPropertyOp29
 70
     1
102
RTVSPropertyOp30
 70
     1
102
RTVSPropertyOp31
 70
     1
102
RTVSPropertyOp32
 70
     1
102
RTVSPropertyOp33
 70
     1
102
RTVSPropertyOp34
 70
     1
102
RTVSPropertyOp35
 70
     1
102
RTVSPropertyOp36
 70
     1
102
RTVSPropertyOp37
 70
     1
102
RTVSPropertyOp38
 70
     1
102
RTVSPropertyOp39
 70
     1
102
RTVSPropertyOp40
 70
     1
102
RTVSPropertyOp41
 70
     1
102
RTVSPropertyOp42
 70
     1
102
RTVSPropertyOp43
 70
     1
102
RTVSPropertyOp44
 70
     1
102
RTVSPropertyOp45
 70
     1
102
RTVSPropertyOp46
 70
     1
102
RTVSPropertyOp47
 70
     1
102
RTVSPropertyOp48
 70
     1
102
RTVSPropertyOp49
 70
     1
102
RTVSPropertyOp50
 70
     1
102
RTVSPropertyOp51
 70
     0
102
RTVSPropertyOp52
 70
     0
102
RTVSPropertyOp53
 70
     1
102
RTVSPropertyOp54
 70
     1
102
RTVSPropertyOp55
 70
     1
102
RTVSPropertyOp56
 70
     1
102
RTVSPropertyOp57
 70
     1
102
RTVSPropertyOp58
 70
     1
102
RTVSPropertyOp59
 70
     1
102
RTVSPropertyOp60
 70
     1
102
RTVSPropertyOp61
 70
     1
102
RTVSPropertyOp62
 70
     1
  0
XRECORD
  5
1F1D
102
{ACAD_REACTORS
330
1F1C
102
}
330
1F1C
100
AcDbXrecord
280
     1
102
RTVSPost2010Prop28
280
     0
102
RTVSPost2010PropOp28
 70
     1
102
RTVSPost2010Prop29
280
     1
102
RTVSPost2010PropOp29
 70
     1
102
RTVSPost2010Prop30
280
     1
102
RTVSPost2010PropOp30
 70
     1
102
RTVSPost2010Prop31
280
     0
102
RTVSPost2010PropOp31
 70
     1
102
RTVSPost2010Prop32
280
     0
102
RTVSPost2010PropOp32
 70
     1
102
RTVSPost2010Prop33
280
     0
102
RTVSPost2010PropOp33
 70
     1
102
RTVSPost2010Prop34
280
     0
102
RTVSPost2010PropOp34
 70
     1
102
RTVSPost2010Prop35
280
     0
102
RTVSPost2010PropOp35
 70
     1
102
RTVSPost2010Prop36
280
     0
102
RTVSPost2010PropOp36
 70
     1
102
RTVSPost2010Prop37
 90
       50
102
RTVSPost2010PropOp37
 70
     1
102
RTVSPost2010Prop38
140
0.0
102
RTVSPost2010PropOp38
 70
     1
102
RTVSPost2010Prop39
140
1.0
102
RTVSPost2010PropOp39
 70
     1
102
RTVSPost2010Prop40
 90
        0
102
RTVSPost2010PropOp40
 70
     1
102
RTVSPost2010Prop41ColorIndex
 90
       18
102
RTVSPost2010Prop41ColorRGB
 90
        0
102
RTVSPost2010PropOp41
 70
     1
102
RTVSPost2010Prop42
 90
       50
102
RTVSPost2010PropOp42
 70
     1
102
RTVSPost2010Prop43
 90
        3
102
RTVSPost2010PropOp43
 70
     1
102
RTVSPost2010Prop44ColorIndex
 90
        5
102
RTVSPost2010Prop44ColorRGB
 90
      255
102
RTVSPost2010PropOp44
 70
     1
102
RTVSPost2010Prop45
280
     0
102
RTVSPost2010PropOp45
 70
     1
102
RTVSPost2010Prop46
 90
       50
102
RTVSPost2010PropOp46
 70
     1
102
RTVSPost2010Prop47
 90
       50
102
RTVSPost2010PropOp47
 70
     1
102
RTVSPost2010Prop48
 90
       50
102
RTVSPost2010PropOp48
 70
     1
102
RTVSPost2010Prop49
280
     0
102
RTVSPost2010PropOp49
 70
     1
102
RTVSPost2010Prop50
 90
       50
102
RTVSPost2010PropOp50
 70
     1
102
RTVSPost2010Prop51ColorIndex
 90
      256
102
RTVSPost2010Prop51ColorRGB
 90
-16777216
102
RTVSPost2010PropOp51
 70
     0
102
RTVSPost2010Prop52
140
1.0
102
RTVSPost2010PropOp52
 70
     0
102
RTVSPost2010Prop53
 90
        2
102
RTVSPost2010PropOp53
 70
     1
102
RTVSPost2010Prop54
  1
strokes_ogs.tif
102
RTVSPost2010PropOp54
 70
     1
102
RTVSPost2010Prop55
280
     0
102
RTVSPost2010PropOp55
 70
     1
102
RTVSPost2010Prop56
140
1.0
102
RTVSPost2010PropOp56
 70
     1
102
RTVSPost2010Prop57
140
1.0
102
RTVSPost2010PropOp57
 70
     1
102
RTVSPropertyOp0
 70
     1
102
RTVSPropertyOp1
 70
     1
102
RTVSPropertyOp2
 70
     1
102
RTVSPropertyOp3
 70
     1
102
RTVSPropertyOp4
 70
     1
102
RTVSPropertyOp5
 70
     1
102
RTVSPropertyOp6
 70
     1
102
RTVSPropertyOp7
 70
     1
102
RTVSPropertyOp8
 70
     1
102
RTVSPropertyOp9
 70
     1
102
RTVSPropertyOp10
 70
     1
102
RTVSPropertyOp11
 70
     1
102
RTVSPropertyOp12
 70
     1
102
RTVSPropertyOp13
 70
     1
102
RTVSPropertyOp14
 70
     1
102
RTVSPropertyOp15
 70
     1
102
RTVSPropertyOp16
 70
     1
102
RTVSPropertyOp17
 70
     1
102
RTVSPropertyOp18
 70
     1
102
RTVSPropertyOp19
 70
     1
102
RTVSPropertyOp20
 70
     1
102
RTVSPropertyOp21
 70
     1
102
RTVSPropertyOp22
 70
     1
102
RTVSPropertyOp23
 70
     1
102
RTVSPropertyOp24
 70
     1
102
RTVSPropertyOp25
 70
     1
102
RTVSPropertyOp26
 70
     1
102
RTVSPropertyOp27
 70
     1
102
RTVSPropertyOp28
 70
     1
102
RTVSPropertyOp29
 70
     1
102
RTVSPropertyOp30
 70
     1
102
RTVSPropertyOp31
 70
     1
102
RTVSPropertyOp32
 70
     1
102
RTVSPropertyOp33
 70
     1
102
RTVSPropertyOp34
 70
     1
102
RTVSPropertyOp35
 70
     1
102
RTVSPropertyOp36
 70
     1
102
RTVSPropertyOp37
 70
     1
102
RTVSPropertyOp38
 70
     1
102
RTVSPropertyOp39
 70
     1
102
RTVSPropertyOp40
 70
     1
102
RTVSPropertyOp41
 70
     1
102
RTVSPropertyOp42
 70
     1
102
RTVSPropertyOp43
 70
     1
102
RTVSPropertyOp44
 70
     1
102
RTVSPropertyOp45
 70
     1
102
RTVSPropertyOp46
 70
     1
102
RTVSPropertyOp47
 70
     1
102
RTVSPropertyOp48
 70
     1
102
RTVSPropertyOp49
 70
     1
102
RTVSPropertyOp50
 70
     1
102
RTVSPropertyOp51
 70
     0
102
RTVSPropertyOp52
 70
     0
102
RTVSPropertyOp53
 70
     1
102
RTVSPropertyOp54
 70
     1
102
RTVSPropertyOp55
 70
     1
102
RTVSPropertyOp56
 70
     1
102
RTVSPropertyOp57
 70
     1
102
RTVSPropertyOp58
 70
     1
102
RTVSPropertyOp59
 70
     1
102
RTVSPropertyOp60
 70
     1
102
RTVSPropertyOp61
 70
     1
102
RTVSPropertyOp62
 70
     1
  0
XRECORD
  5
1F21
102
{ACAD_REACTORS
330
1F20
102
}
330
1F20
100
AcDbXrecord
280
     1
102
RTVSPost2010Prop28
280
     0
102
RTVSPost2010PropOp28
 70
     1
102
RTVSPost2010Prop29
280
     1
102
RTVSPost2010PropOp29
 70
     1
102
RTVSPost2010Prop30
280
     1
102
RTVSPost2010PropOp30
 70
     1
102
RTVSPost2010Prop31
280
     0
102
RTVSPost2010PropOp31
 70
     1
102
RTVSPost2010Prop32
280
     0
102
RTVSPost2010PropOp32
 70
     1
102
RTVSPost2010Prop33
280
     0
102
RTVSPost2010PropOp33
 70
     1
102
RTVSPost2010Prop34
280
     0
102
RTVSPost2010PropOp34
 70
     1
102
RTVSPost2010Prop35
280
     0
102
RTVSPost2010PropOp35
 70
     1
102
RTVSPost2010Prop36
280
     0
102
RTVSPost2010PropOp36
 70
     1
102
RTVSPost2010Prop37
 90
       50
102
RTVSPost2010PropOp37
 70
     1
102
RTVSPost2010Prop38
140
0.0
102
RTVSPost2010PropOp38
 70
     1
102
RTVSPost2010Prop39
140
1.0
102
RTVSPost2010PropOp39
 70
     1
102
RTVSPost2010Prop40
 90
        0
102
RTVSPost2010PropOp40
 70
     1
102
RTVSPost2010Prop41ColorIndex
 90
       18
102
RTVSPost2010Prop41ColorRGB
 90
        0
102
RTVSPost2010PropOp41
 70
     1
102
RTVSPost2010Prop42
 90
       50
102
RTVSPost2010PropOp42
 70
     1
102
RTVSPost2010Prop43
 90
        3
102
RTVSPost2010PropOp43
 70
     1
102
RTVSPost2010Prop44ColorIndex
 90
        5
102
RTVSPost2010Prop44ColorRGB
 90
      255
102
RTVSPost2010PropOp44
 70
     1
102
RTVSPost2010Prop45
280
     0
102
RTVSPost2010PropOp45
 70
     1
102
RTVSPost2010Prop46
 90
       50
102
RTVSPost2010PropOp46
 70
     1
102
RTVSPost2010Prop47
 90
       50
102
RTVSPost2010PropOp47
 70
     1
102
RTVSPost2010Prop48
 90
       50
102
RTVSPost2010PropOp48
 70
     1
102
RTVSPost2010Prop49
280
     0
102
RTVSPost2010PropOp49
 70
     1
102
RTVSPost2010Prop50
 90
       50
102
RTVSPost2010PropOp50
 70
     1
102
RTVSPost2010Prop51ColorIndex
 90
      256
102
RTVSPost2010Prop51ColorRGB
 90
-16777216
102
RTVSPost2010PropOp51
 70
     0
102
RTVSPost2010Prop52
140
1.0
102
RTVSPost2010PropOp52
 70
     0
102
RTVSPost2010Prop53
 90
        2
102
RTVSPost2010PropOp53
 70
     1
102
RTVSPost2010Prop54
  1
strokes_ogs.tif
102
RTVSPost2010PropOp54
 70
     1
102
RTVSPost2010Prop55
280
     0
102
RTVSPost2010PropOp55
 70
     1
102
RTVSPost2010Prop56
140
1.0
102
RTVSPost2010PropOp56
 70
     1
102
RTVSPost2010Prop57
140
1.0
102
RTVSPost2010PropOp57
 70
     1
102
RTVSPropertyOp0
 70
     1
102
RTVSPropertyOp1
 70
     1
102
RTVSPropertyOp2
 70
     1
102
RTVSPropertyOp3
 70
     1
102
RTVSPropertyOp4
 70
     1
102
RTVSPropertyOp5
 70
     1
102
RTVSPropertyOp6
 70
     1
102
RTVSPropertyOp7
 70
     1
102
RTVSPropertyOp8
 70
     1
102
RTVSPropertyOp9
 70
     1
102
RTVSPropertyOp10
 70
     1
102
RTVSPropertyOp11
 70
     1
102
RTVSPropertyOp12
 70
     1
102
RTVSPropertyOp13
 70
     1
102
RTVSPropertyOp14
 70
     1
102
RTVSPropertyOp15
 70
     1
102
RTVSPropertyOp16
 70
     1
102
RTVSPropertyOp17
 70
     1
102
RTVSPropertyOp18
 70
     1
102
RTVSPropertyOp19
 70
     1
102
RTVSPropertyOp20
 70
     1
102
RTVSPropertyOp21
 70
     1
102
RTVSPropertyOp22
 70
     1
102
RTVSPropertyOp23
 70
     1
102
RTVSPropertyOp24
 70
     1
102
RTVSPropertyOp25
 70
     1
102
RTVSPropertyOp26
 70
     1
102
RTVSPropertyOp27
 70
     1
102
RTVSPropertyOp28
 70
     1
102
RTVSPropertyOp29
 70
     1
102
RTVSPropertyOp30
 70
     1
102
RTVSPropertyOp31
 70
     1
102
RTVSPropertyOp32
 70
     1
102
RTVSPropertyOp33
 70
     1
102
RTVSPropertyOp34
 70
     1
102
RTVSPropertyOp35
 70
     1
102
RTVSPropertyOp36
 70
     1
102
RTVSPropertyOp37
 70
     1
102
RTVSPropertyOp38
 70
     1
102
RTVSPropertyOp39
 70
     1
102
RTVSPropertyOp40
 70
     1
102
RTVSPropertyOp41
 70
     1
102
RTVSPropertyOp42
 70
     1
102
RTVSPropertyOp43
 70
     1
102
RTVSPropertyOp44
 70
     1
102
RTVSPropertyOp45
 70
     1
102
RTVSPropertyOp46
 70
     1
102
RTVSPropertyOp47
 70
     1
102
RTVSPropertyOp48
 70
     1
102
RTVSPropertyOp49
 70
     1
102
RTVSPropertyOp50
 70
     1
102
RTVSPropertyOp51
 70
     0
102
RTVSPropertyOp52
 70
     0
102
RTVSPropertyOp53
 70
     1
102
RTVSPropertyOp54
 70
     1
102
RTVSPropertyOp55
 70
     1
102
RTVSPropertyOp56
 70
     1
102
RTVSPropertyOp57
 70
     1
102
RTVSPropertyOp58
 70
     1
102
RTVSPropertyOp59
 70
     1
102
RTVSPropertyOp60
 70
     1
102
RTVSPropertyOp61
 70
     1
102
RTVSPropertyOp62
 70
     1
  0
XRECORD
  5
1F3B
102
{ACAD_REACTORS
330
1F3A
102
}
330
1F3A
100
AcDbXrecord
280
     1
102
RTVSPost2010Prop28
280
     0
102
RTVSPost2010PropOp28
 70
     1
102
RTVSPost2010Prop29
280
     1
102
RTVSPost2010PropOp29
 70
     1
102
RTVSPost2010Prop30
280
     1
102
RTVSPost2010PropOp30
 70
     1
102
RTVSPost2010Prop31
280
     0
102
RTVSPost2010PropOp31
 70
     1
102
RTVSPost2010Prop32
280
     0
102
RTVSPost2010PropOp32
 70
     1
102
RTVSPost2010Prop33
280
     0
102
RTVSPost2010PropOp33
 70
     1
102
RTVSPost2010Prop34
280
     0
102
RTVSPost2010PropOp34
 70
     1
102
RTVSPost2010Prop35
280
     0
102
RTVSPost2010PropOp35
 70
     1
102
RTVSPost2010Prop36
280
     0
102
RTVSPost2010PropOp36
 70
     1
102
RTVSPost2010Prop37
 90
       50
102
RTVSPost2010PropOp37
 70
     0
102
RTVSPost2010Prop38
140
0.0
102
RTVSPost2010PropOp38
 70
     0
102
RTVSPost2010Prop39
140
1.0
102
RTVSPost2010PropOp39
 70
     0
102
RTVSPost2010Prop40
 90
        0
102
RTVSPost2010PropOp40
 70
     0
102
RTVSPost2010Prop41ColorIndex
 90
       18
102
RTVSPost2010Prop41ColorRGB
 90
        0
102
RTVSPost2010PropOp41
 70
     0
102
RTVSPost2010Prop42
 90
       50
102
RTVSPost2010PropOp42
 70
     0
102
RTVSPost2010Prop43
 90
        3
102
RTVSPost2010PropOp43
 70
     0
102
RTVSPost2010Prop44ColorIndex
 90
        5
102
RTVSPost2010Prop44ColorRGB
 90
      255
102
RTVSPost2010PropOp44
 70
     0
102
RTVSPost2010Prop45
280
     0
102
RTVSPost2010PropOp45
 70
     1
102
RTVSPost2010Prop46
 90
       50
102
RTVSPost2010PropOp46
 70
     0
102
RTVSPost2010Prop47
 90
       50
102
RTVSPost2010PropOp47
 70
     0
102
RTVSPost2010Prop48
 90
       50
102
RTVSPost2010PropOp48
 70
     0
102
RTVSPost2010Prop49
280
     0
102
RTVSPost2010PropOp49
 70
     1
102
RTVSPost2010Prop50
 90
       50
102
RTVSPost2010PropOp50
 70
     0
102
RTVSPost2010Prop51ColorIndex
 90
      256
102
RTVSPost2010Prop51ColorRGB
 90
-16777216
102
RTVSPost2010PropOp51
 70
     0
102
RTVSPost2010Prop52
140
1.0
102
RTVSPost2010PropOp52
 70
     0
102
RTVSPost2010Prop53
 90
        2
102
RTVSPost2010PropOp53
 70
     0
102
RTVSPost2010Prop54
  1
strokes_ogs.tif
102
RTVSPost2010PropOp54
 70
     0
102
RTVSPost2010Prop55
280
     0
102
RTVSPost2010PropOp55
 70
     1
102
RTVSPost2010Prop56
140
1.0
102
RTVSPost2010PropOp56
 70
     0
102
RTVSPost2010Prop57
140
1.0
102
RTVSPost2010PropOp57
 70
     0
102
RTVSPropertyOp0
 70
     0
102
RTVSPropertyOp1
 70
     0
102
RTVSPropertyOp2
 70
     0
102
RTVSPropertyOp3
 70
     0
102
RTVSPropertyOp4
 70
     0
102
RTVSPropertyOp5
 70
     0
102
RTVSPropertyOp6
 70
     0
102
RTVSPropertyOp7
 70
     0
102
RTVSPropertyOp8
 70
     0
102
RTVSPropertyOp9
 70
     0
102
RTVSPropertyOp10
 70
     0
102
RTVSPropertyOp11
 70
     0
102
RTVSPropertyOp12
 70
     0
102
RTVSPropertyOp13
 70
     0
102
RTVSPropertyOp14
 70
     2
102
RTVSPropertyOp15
 70
     0
102
RTVSPropertyOp16
 70
     0
102
RTVSPropertyOp17
 70
     0
102
RTVSPropertyOp18
 70
     0
102
RTVSPropertyOp19
 70
     0
102
RTVSPropertyOp20
 70
     0
102
RTVSPropertyOp21
 70
     0
102
RTVSPropertyOp22
 70
     0
102
RTVSPropertyOp23
 70
     0
102
RTVSPropertyOp24
 70
     0
102
RTVSPropertyOp25
 70
     0
102
RTVSPropertyOp26
 70
     0
102
RTVSPropertyOp27
 70
     0
102
RTVSPropertyOp28
 70
     1
102
RTVSPropertyOp29
 70
     1
102
RTVSPropertyOp30
 70
     1
102
RTVSPropertyOp31
 70
     1
102
RTVSPropertyOp32
 70
     1
102
RTVSPropertyOp33
 70
     1
102
RTVSPropertyOp34
 70
     1
102
RTVSPropertyOp35
 70
     1
102
RTVSPropertyOp36
 70
     1
102
RTVSPropertyOp37
 70
     0
102
RTVSPropertyOp38
 70
     0
102
RTVSPropertyOp39
 70
     0
102
RTVSPropertyOp40
 70
     0
102
RTVSPropertyOp41
 70
     0
102
RTVSPropertyOp42
 70
     0
102
RTVSPropertyOp43
 70
     0
102
RTVSPropertyOp44
 70
     0
102
RTVSPropertyOp45
 70
     1
102
RTVSPropertyOp46
 70
     0
102
RTVSPropertyOp47
 70
     0
102
RTVSPropertyOp48
 70
     0
102
RTVSPropertyOp49
 70
     1
102
RTVSPropertyOp50
 70
     0
102
RTVSPropertyOp51
 70
     0
102
RTVSPropertyOp52
 70
     0
102
RTVSPropertyOp53
 70
     0
102
RTVSPropertyOp54
 70
     0
102
RTVSPropertyOp55
 70
     1
102
RTVSPropertyOp56
 70
     0
102
RTVSPropertyOp57
 70
     0
102
RTVSPropertyOp58
 70
     0
102
RTVSPropertyOp59
 70
     0
102
RTVSPropertyOp60
 70
     0
102
RTVSPropertyOp61
 70
     0
102
RTVSPropertyOp62
 70
     0
  0
XRECORD
  5
1F29
102
{ACAD_REACTORS
330
1F28
102
}
330
1F28
100
AcDbXrecord
280
     1
102
RTVSPost2010Prop28
280
     0
102
RTVSPost2010PropOp28
 70
     1
102
RTVSPost2010Prop29
280
     1
102
RTVSPost2010PropOp29
 70
     1
102
RTVSPost2010Prop30
280
     1
102
RTVSPost2010PropOp30
 70
     1
102
RTVSPost2010Prop31
280
     0
102
RTVSPost2010PropOp31
 70
     1
102
RTVSPost2010Prop32
280
     0
102
RTVSPost2010PropOp32
 70
     1
102
RTVSPost2010Prop33
280
     0
102
RTVSPost2010PropOp33
 70
     1
102
RTVSPost2010Prop34
280
     0
102
RTVSPost2010PropOp34
 70
     1
102
RTVSPost2010Prop35
280
     0
102
RTVSPost2010PropOp35
 70
     1
102
RTVSPost2010Prop36
280
     0
102
RTVSPost2010PropOp36
 70
     1
102
RTVSPost2010Prop37
 90
       50
102
RTVSPost2010PropOp37
 70
     1
102
RTVSPost2010Prop38
140
0.0
102
RTVSPost2010PropOp38
 70
     1
102
RTVSPost2010Prop39
140
1.0
102
RTVSPost2010PropOp39
 70
     1
102
RTVSPost2010Prop40
 90
        0
102
RTVSPost2010PropOp40
 70
     1
102
RTVSPost2010Prop41ColorIndex
 90
       18
102
RTVSPost2010Prop41ColorRGB
 90
        0
102
RTVSPost2010PropOp41
 70
     1
102
RTVSPost2010Prop42
 90
       50
102
RTVSPost2010PropOp42
 70
     1
102
RTVSPost2010Prop43
 90
        3
102
RTVSPost2010PropOp43
 70
     1
102
RTVSPost2010Prop44ColorIndex
 90
        5
102
RTVSPost2010Prop44ColorRGB
 90
      255
102
RTVSPost2010PropOp44
 70
     1
102
RTVSPost2010Prop45
280
     0
102
RTVSPost2010PropOp45
 70
     1
102
RTVSPost2010Prop46
 90
       50
102
RTVSPost2010PropOp46
 70
     1
102
RTVSPost2010Prop47
 90
       50
102
RTVSPost2010PropOp47
 70
     1
102
RTVSPost2010Prop48
 90
       50
102
RTVSPost2010PropOp48
 70
     1
102
RTVSPost2010Prop49
280
     0
102
RTVSPost2010PropOp49
 70
     1
102
RTVSPost2010Prop50
 90
       50
102
RTVSPost2010PropOp50
 70
     1
102
RTVSPost2010Prop51ColorIndex
 90
      256
102
RTVSPost2010Prop51ColorRGB
 90
-16777216
102
RTVSPost2010PropOp51
 70
     0
102
RTVSPost2010Prop52
140
1.0
102
RTVSPost2010PropOp52
 70
     0
102
RTVSPost2010Prop53
 90
        2
102
RTVSPost2010PropOp53
 70
     1
102
RTVSPost2010Prop54
  1
strokes_ogs.tif
102
RTVSPost2010PropOp54
 70
     1
102
RTVSPost2010Prop55
280
     0
102
RTVSPost2010PropOp55
 70
     1
102
RTVSPost2010Prop56
140
1.0
102
RTVSPost2010PropOp56
 70
     1
102
RTVSPost2010Prop57
140
1.0
102
RTVSPost2010PropOp57
 70
     1
102
RTVSPropertyOp0
 70
     1
102
RTVSPropertyOp1
 70
     1
102
RTVSPropertyOp2
 70
     1
102
RTVSPropertyOp3
 70
     1
102
RTVSPropertyOp4
 70
     1
102
RTVSPropertyOp5
 70
     1
102
RTVSPropertyOp6
 70
     1
102
RTVSPropertyOp7
 70
     1
102
RTVSPropertyOp8
 70
     1
102
RTVSPropertyOp9
 70
     1
102
RTVSPropertyOp10
 70
     1
102
RTVSPropertyOp11
 70
     1
102
RTVSPropertyOp12
 70
     1
102
RTVSPropertyOp13
 70
     1
102
RTVSPropertyOp14
 70
     1
102
RTVSPropertyOp15
 70
     1
102
RTVSPropertyOp16
 70
     1
102
RTVSPropertyOp17
 70
     1
102
RTVSPropertyOp18
 70
     1
102
RTVSPropertyOp19
 70
     1
102
RTVSPropertyOp20
 70
     1
102
RTVSPropertyOp21
 70
     1
102
RTVSPropertyOp22
 70
     1
102
RTVSPropertyOp23
 70
     1
102
RTVSPropertyOp24
 70
     1
102
RTVSPropertyOp25
 70
     1
102
RTVSPropertyOp26
 70
     1
102
RTVSPropertyOp27
 70
     1
102
RTVSPropertyOp28
 70
     1
102
RTVSPropertyOp29
 70
     1
102
RTVSPropertyOp30
 70
     1
102
RTVSPropertyOp31
 70
     1
102
RTVSPropertyOp32
 70
     1
102
RTVSPropertyOp33
 70
     1
102
RTVSPropertyOp34
 70
     1
102
RTVSPropertyOp35
 70
     1
102
RTVSPropertyOp36
 70
     1
102
RTVSPropertyOp37
 70
     1
102
RTVSPropertyOp38
 70
     1
102
RTVSPropertyOp39
 70
     1
102
RTVSPropertyOp40
 70
     1
102
RTVSPropertyOp41
 70
     1
102
RTVSPropertyOp42
 70
     1
102
RTVSPropertyOp43
 70
     1
102
RTVSPropertyOp44
 70
     1
102
RTVSPropertyOp45
 70
     1
102
RTVSPropertyOp46
 70
     1
102
RTVSPropertyOp47
 70
     1
102
RTVSPropertyOp48
 70
     1
102
RTVSPropertyOp49
 70
     1
102
RTVSPropertyOp50
 70
     1
102
RTVSPropertyOp51
 70
     0
102
RTVSPropertyOp52
 70
     0
102
RTVSPropertyOp53
 70
     1
102
RTVSPropertyOp54
 70
     1
102
RTVSPropertyOp55
 70
     1
102
RTVSPropertyOp56
 70
     1
102
RTVSPropertyOp57
 70
     1
102
RTVSPropertyOp58
 70
     1
102
RTVSPropertyOp59
 70
     1
102
RTVSPropertyOp60
 70
     1
102
RTVSPropertyOp61
 70
     1
102
RTVSPropertyOp62
 70
     1
  0
XRECORD
  5
1F0D
102
{ACAD_REACTORS
330
1F0C
102
}
330
1F0C
100
AcDbXrecord
280
     1
102
RTVSPost2010Prop28
280
     0
102
RTVSPost2010PropOp28
 70
     1
102
RTVSPost2010Prop29
280
     1
102
RTVSPost2010PropOp29
 70
     1
102
RTVSPost2010Prop30
280
     1
102
RTVSPost2010PropOp30
 70
     1
102
RTVSPost2010Prop31
280
     0
102
RTVSPost2010PropOp31
 70
     1
102
RTVSPost2010Prop32
280
     0
102
RTVSPost2010PropOp32
 70
     1
102
RTVSPost2010Prop33
280
     0
102
RTVSPost2010PropOp33
 70
     1
102
RTVSPost2010Prop34
280
     0
102
RTVSPost2010PropOp34
 70
     1
102
RTVSPost2010Prop35
280
     0
102
RTVSPost2010PropOp35
 70
     1
102
RTVSPost2010Prop36
280
     0
102
RTVSPost2010PropOp36
 70
     1
102
RTVSPost2010Prop37
 90
       50
102
RTVSPost2010PropOp37
 70
     1
102
RTVSPost2010Prop38
140
0.0
102
RTVSPost2010PropOp38
 70
     1
102
RTVSPost2010Prop39
140
1.0
102
RTVSPost2010PropOp39
 70
     1
102
RTVSPost2010Prop40
 90
        0
102
RTVSPost2010PropOp40
 70
     1
102
RTVSPost2010Prop41ColorIndex
 90
       18
102
RTVSPost2010Prop41ColorRGB
 90
        0
102
RTVSPost2010PropOp41
 70
     1
102
RTVSPost2010Prop42
 90
       50
102
RTVSPost2010PropOp42
 70
     1
102
RTVSPost2010Prop43
 90
        3
102
RTVSPost2010PropOp43
 70
     1
102
RTVSPost2010Prop44ColorIndex
 90
        5
102
RTVSPost2010Prop44ColorRGB
 90
      255
102
RTVSPost2010PropOp44
 70
     1
102
RTVSPost2010Prop45
280
     0
102
RTVSPost2010PropOp45
 70
     1
102
RTVSPost2010Prop46
 90
       50
102
RTVSPost2010PropOp46
 70
     1
102
RTVSPost2010Prop47
 90
       50
102
RTVSPost2010PropOp47
 70
     1
102
RTVSPost2010Prop48
 90
       50
102
RTVSPost2010PropOp48
 70
     1
102
RTVSPost2010Prop49
280
     0
102
RTVSPost2010PropOp49
 70
     1
102
RTVSPost2010Prop50
 90
       50
102
RTVSPost2010PropOp50
 70
     1
102
RTVSPost2010Prop51ColorIndex
 90
      256
102
RTVSPost2010Prop51ColorRGB
 90
-16777216
102
RTVSPost2010PropOp51
 70
     0
102
RTVSPost2010Prop52
140
1.0
102
RTVSPost2010PropOp52
 70
     0
102
RTVSPost2010Prop53
 90
        2
102
RTVSPost2010PropOp53
 70
     1
102
RTVSPost2010Prop54
  1
strokes_ogs.tif
102
RTVSPost2010PropOp54
 70
     1
102
RTVSPost2010Prop55
280
     0
102
RTVSPost2010PropOp55
 70
     1
102
RTVSPost2010Prop56
140
1.0
102
RTVSPost2010PropOp56
 70
     1
102
RTVSPost2010Prop57
140
1.0
102
RTVSPost2010PropOp57
 70
     1
102
RTVSPropertyOp0
 70
     1
102
RTVSPropertyOp1
 70
     1
102
RTVSPropertyOp2
 70
     1
102
RTVSPropertyOp3
 70
     1
102
RTVSPropertyOp4
 70
     1
102
RTVSPropertyOp5
 70
     1
102
RTVSPropertyOp6
 70
     1
102
RTVSPropertyOp7
 70
     1
102
RTVSPropertyOp8
 70
     1
102
RTVSPropertyOp9
 70
     1
102
RTVSPropertyOp10
 70
     1
102
RTVSPropertyOp11
 70
     1
102
RTVSPropertyOp12
 70
     1
102
RTVSPropertyOp13
 70
     1
102
RTVSPropertyOp14
 70
     1
102
RTVSPropertyOp15
 70
     1
102
RTVSPropertyOp16
 70
     1
102
RTVSPropertyOp17
 70
     1
102
RTVSPropertyOp18
 70
     1
102
RTVSPropertyOp19
 70
     1
102
RTVSPropertyOp20
 70
     1
102
RTVSPropertyOp21
 70
     1
102
RTVSPropertyOp22
 70
     1
102
RTVSPropertyOp23
 70
     1
102
RTVSPropertyOp24
 70
     1
102
RTVSPropertyOp25
 70
     1
102
RTVSPropertyOp26
 70
     1
102
RTVSPropertyOp27
 70
     1
102
RTVSPropertyOp28
 70
     1
102
RTVSPropertyOp29
 70
     1
102
RTVSPropertyOp30
 70
     1
102
RTVSPropertyOp31
 70
     1
102
RTVSPropertyOp32
 70
     1
102
RTVSPropertyOp33
 70
     1
102
RTVSPropertyOp34
 70
     1
102
RTVSPropertyOp35
 70
     1
102
RTVSPropertyOp36
 70
     1
102
RTVSPropertyOp37
 70
     1
102
RTVSPropertyOp38
 70
     1
102
RTVSPropertyOp39
 70
     1
102
RTVSPropertyOp40
 70
     1
102
RTVSPropertyOp41
 70
     1
102
RTVSPropertyOp42
 70
     1
102
RTVSPropertyOp43
 70
     1
102
RTVSPropertyOp44
 70
     1
102
RTVSPropertyOp45
 70
     1
102
RTVSPropertyOp46
 70
     1
102
RTVSPropertyOp47
 70
     1
102
RTVSPropertyOp48
 70
     1
102
RTVSPropertyOp49
 70
     1
102
RTVSPropertyOp50
 70
     1
102
RTVSPropertyOp51
 70
     0
102
RTVSPropertyOp52
 70
     0
102
RTVSPropertyOp53
 70
     1
102
RTVSPropertyOp54
 70
     1
102
RTVSPropertyOp55
 70
     1
102
RTVSPropertyOp56
 70
     1
102
RTVSPropertyOp57
 70
     1
102
RTVSPropertyOp58
 70
     1
102
RTVSPropertyOp59
 70
     1
102
RTVSPropertyOp60
 70
     1
102
RTVSPropertyOp61
 70
     1
102
RTVSPropertyOp62
 70
     1
  0
XRECORD
  5
1F0F
102
{ACAD_REACTORS
330
1F0E
102
}
330
1F0E
100
AcDbXrecord
280
     1
102
RTVSPost2010Prop28
280
     0
102
RTVSPost2010PropOp28
 70
     1
102
RTVSPost2010Prop29
280
     1
102
RTVSPost2010PropOp29
 70
     1
102
RTVSPost2010Prop30
280
     1
102
RTVSPost2010PropOp30
 70
     1
102
RTVSPost2010Prop31
280
     0
102
RTVSPost2010PropOp31
 70
     1
102
RTVSPost2010Prop32
280
     0
102
RTVSPost2010PropOp32
 70
     1
102
RTVSPost2010Prop33
280
     0
102
RTVSPost2010PropOp33
 70
     1
102
RTVSPost2010Prop34
280
     0
102
RTVSPost2010PropOp34
 70
     1
102
RTVSPost2010Prop35
280
     0
102
RTVSPost2010PropOp35
 70
     1
102
RTVSPost2010Prop36
280
     0
102
RTVSPost2010PropOp36
 70
     1
102
RTVSPost2010Prop37
 90
       50
102
RTVSPost2010PropOp37
 70
     1
102
RTVSPost2010Prop38
140
0.0
102
RTVSPost2010PropOp38
 70
     1
102
RTVSPost2010Prop39
140
1.0
102
RTVSPost2010PropOp39
 70
     1
102
RTVSPost2010Prop40
 90
        0
102
RTVSPost2010PropOp40
 70
     1
102
RTVSPost2010Prop41ColorIndex
 90
       18
102
RTVSPost2010Prop41ColorRGB
 90
        0
102
RTVSPost2010PropOp41
 70
     1
102
RTVSPost2010Prop42
 90
       50
102
RTVSPost2010PropOp42
 70
     1
102
RTVSPost2010Prop43
 90
        3
102
RTVSPost2010PropOp43
 70
     1
102
RTVSPost2010Prop44ColorIndex
 90
        5
102
RTVSPost2010Prop44ColorRGB
 90
      255
102
RTVSPost2010PropOp44
 70
     1
102
RTVSPost2010Prop45
280
     0
102
RTVSPost2010PropOp45
 70
     1
102
RTVSPost2010Prop46
 90
       50
102
RTVSPost2010PropOp46
 70
     1
102
RTVSPost2010Prop47
 90
       50
102
RTVSPost2010PropOp47
 70
     1
102
RTVSPost2010Prop48
 90
       50
102
RTVSPost2010PropOp48
 70
     1
102
RTVSPost2010Prop49
280
     0
102
RTVSPost2010PropOp49
 70
     1
102
RTVSPost2010Prop50
 90
       50
102
RTVSPost2010PropOp50
 70
     1
102
RTVSPost2010Prop51ColorIndex
 90
      256
102
RTVSPost2010Prop51ColorRGB
 90
-16777216
102
RTVSPost2010PropOp51
 70
     0
102
RTVSPost2010Prop52
140
1.0
102
RTVSPost2010PropOp52
 70
     0
102
RTVSPost2010Prop53
 90
        2
102
RTVSPost2010PropOp53
 70
     1
102
RTVSPost2010Prop54
  1
strokes_ogs.tif
102
RTVSPost2010PropOp54
 70
     1
102
RTVSPost2010Prop55
280
     0
102
RTVSPost2010PropOp55
 70
     1
102
RTVSPost2010Prop56
140
1.0
102
RTVSPost2010PropOp56
 70
     1
102
RTVSPost2010Prop57
140
1.0
102
RTVSPost2010PropOp57
 70
     1
102
RTVSPropertyOp0
 70
     1
102
RTVSPropertyOp1
 70
     1
102
RTVSPropertyOp2
 70
     1
102
RTVSPropertyOp3
 70
     1
102
RTVSPropertyOp4
 70
     1
102
RTVSPropertyOp5
 70
     1
102
RTVSPropertyOp6
 70
     1
102
RTVSPropertyOp7
 70
     1
102
RTVSPropertyOp8
 70
     1
102
RTVSPropertyOp9
 70
     1
102
RTVSPropertyOp10
 70
     1
102
RTVSPropertyOp11
 70
     1
102
RTVSPropertyOp12
 70
     1
102
RTVSPropertyOp13
 70
     1
102
RTVSPropertyOp14
 70
     1
102
RTVSPropertyOp15
 70
     1
102
RTVSPropertyOp16
 70
     1
102
RTVSPropertyOp17
 70
     1
102
RTVSPropertyOp18
 70
     1
102
RTVSPropertyOp19
 70
     1
102
RTVSPropertyOp20
 70
     1
102
RTVSPropertyOp21
 70
     1
102
RTVSPropertyOp22
 70
     1
102
RTVSPropertyOp23
 70
     1
102
RTVSPropertyOp24
 70
     1
102
RTVSPropertyOp25
 70
     1
102
RTVSPropertyOp26
 70
     1
102
RTVSPropertyOp27
 70
     1
102
RTVSPropertyOp28
 70
     1
102
RTVSPropertyOp29
 70
     1
102
RTVSPropertyOp30
 70
     1
102
RTVSPropertyOp31
 70
     1
102
RTVSPropertyOp32
 70
     1
102
RTVSPropertyOp33
 70
     1
102
RTVSPropertyOp34
 70
     1
102
RTVSPropertyOp35
 70
     1
102
RTVSPropertyOp36
 70
     1
102
RTVSPropertyOp37
 70
     1
102
RTVSPropertyOp38
 70
     1
102
RTVSPropertyOp39
 70
     1
102
RTVSPropertyOp40
 70
     1
102
RTVSPropertyOp41
 70
     1
102
RTVSPropertyOp42
 70
     1
102
RTVSPropertyOp43
 70
     1
102
RTVSPropertyOp44
 70
     1
102
RTVSPropertyOp45
 70
     1
102
RTVSPropertyOp46
 70
     1
102
RTVSPropertyOp47
 70
     1
102
RTVSPropertyOp48
 70
     1
102
RTVSPropertyOp49
 70
     1
102
RTVSPropertyOp50
 70
     1
102
RTVSPropertyOp51
 70
     0
102
RTVSPropertyOp52
 70
     0
102
RTVSPropertyOp53
 70
     1
102
RTVSPropertyOp54
 70
     1
102
RTVSPropertyOp55
 70
     1
102
RTVSPropertyOp56
 70
     1
102
RTVSPropertyOp57
 70
     1
102
RTVSPropertyOp58
 70
     1
102
RTVSPropertyOp59
 70
     1
102
RTVSPropertyOp60
 70
     1
102
RTVSPropertyOp61
 70
     1
102
RTVSPropertyOp62
 70
     1
  0
XRECORD
  5
1F11
102
{ACAD_REACTORS
330
1F10
102
}
330
1F10
100
AcDbXrecord
280
     1
102
RTVSPost2010Prop28
280
     0
102
RTVSPost2010PropOp28
 70
     1
102
RTVSPost2010Prop29
280
     1
102
RTVSPost2010PropOp29
 70
     1
102
RTVSPost2010Prop30
280
     1
102
RTVSPost2010PropOp30
 70
     1
102
RTVSPost2010Prop31
280
     0
102
RTVSPost2010PropOp31
 70
     1
102
RTVSPost2010Prop32
280
     0
102
RTVSPost2010PropOp32
 70
     1
102
RTVSPost2010Prop33
280
     0
102
RTVSPost2010PropOp33
 70
     1
102
RTVSPost2010Prop34
280
     0
102
RTVSPost2010PropOp34
 70
     1
102
RTVSPost2010Prop35
280
     0
102
RTVSPost2010PropOp35
 70
     1
102
RTVSPost2010Prop36
280
     0
102
RTVSPost2010PropOp36
 70
     1
102
RTVSPost2010Prop37
 90
       50
102
RTVSPost2010PropOp37
 70
     1
102
RTVSPost2010Prop38
140
0.0
102
RTVSPost2010PropOp38
 70
     1
102
RTVSPost2010Prop39
140
1.0
102
RTVSPost2010PropOp39
 70
     1
102
RTVSPost2010Prop40
 90
        0
102
RTVSPost2010PropOp40
 70
     1
102
RTVSPost2010Prop41ColorIndex
 90
       18
102
RTVSPost2010Prop41ColorRGB
 90
        0
102
RTVSPost2010PropOp41
 70
     1
102
RTVSPost2010Prop42
 90
       50
102
RTVSPost2010PropOp42
 70
     1
102
RTVSPost2010Prop43
 90
        3
102
RTVSPost2010PropOp43
 70
     1
102
RTVSPost2010Prop44ColorIndex
 90
        5
102
RTVSPost2010Prop44ColorRGB
 90
      255
102
RTVSPost2010PropOp44
 70
     1
102
RTVSPost2010Prop45
280
     0
102
RTVSPost2010PropOp45
 70
     1
102
RTVSPost2010Prop46
 90
       50
102
RTVSPost2010PropOp46
 70
     1
102
RTVSPost2010Prop47
 90
       50
102
RTVSPost2010PropOp47
 70
     1
102
RTVSPost2010Prop48
 90
       50
102
RTVSPost2010PropOp48
 70
     1
102
RTVSPost2010Prop49
280
     0
102
RTVSPost2010PropOp49
 70
     1
102
RTVSPost2010Prop50
 90
       50
102
RTVSPost2010PropOp50
 70
     1
102
RTVSPost2010Prop51ColorIndex
 90
      256
102
RTVSPost2010Prop51ColorRGB
 90
-16777216
102
RTVSPost2010PropOp51
 70
     0
102
RTVSPost2010Prop52
140
1.0
102
RTVSPost2010PropOp52
 70
     0
102
RTVSPost2010Prop53
 90
        2
102
RTVSPost2010PropOp53
 70
     1
102
RTVSPost2010Prop54
  1
strokes_ogs.tif
102
RTVSPost2010PropOp54
 70
     1
102
RTVSPost2010Prop55
280
     0
102
RTVSPost2010PropOp55
 70
     1
102
RTVSPost2010Prop56
140
1.0
102
RTVSPost2010PropOp56
 70
     1
102
RTVSPost2010Prop57
140
1.0
102
RTVSPost2010PropOp57
 70
     1
102
RTVSPropertyOp0
 70
     1
102
RTVSPropertyOp1
 70
     1
102
RTVSPropertyOp2
 70
     1
102
RTVSPropertyOp3
 70
     1
102
RTVSPropertyOp4
 70
     1
102
RTVSPropertyOp5
 70
     1
102
RTVSPropertyOp6
 70
     1
102
RTVSPropertyOp7
 70
     1
102
RTVSPropertyOp8
 70
     1
102
RTVSPropertyOp9
 70
     1
102
RTVSPropertyOp10
 70
     1
102
RTVSPropertyOp11
 70
     1
102
RTVSPropertyOp12
 70
     1
102
RTVSPropertyOp13
 70
     1
102
RTVSPropertyOp14
 70
     1
102
RTVSPropertyOp15
 70
     1
102
RTVSPropertyOp16
 70
     1
102
RTVSPropertyOp17
 70
     1
102
RTVSPropertyOp18
 70
     1
102
RTVSPropertyOp19
 70
     1
102
RTVSPropertyOp20
 70
     1
102
RTVSPropertyOp21
 70
     1
102
RTVSPropertyOp22
 70
     1
102
RTVSPropertyOp23
 70
     1
102
RTVSPropertyOp24
 70
     1
102
RTVSPropertyOp25
 70
     1
102
RTVSPropertyOp26
 70
     1
102
RTVSPropertyOp27
 70
     1
102
RTVSPropertyOp28
 70
     1
102
RTVSPropertyOp29
 70
     1
102
RTVSPropertyOp30
 70
     1
102
RTVSPropertyOp31
 70
     1
102
RTVSPropertyOp32
 70
     1
102
RTVSPropertyOp33
 70
     1
102
RTVSPropertyOp34
 70
     1
102
RTVSPropertyOp35
 70
     1
102
RTVSPropertyOp36
 70
     1
102
RTVSPropertyOp37
 70
     1
102
RTVSPropertyOp38
 70
     1
102
RTVSPropertyOp39
 70
     1
102
RTVSPropertyOp40
 70
     1
102
RTVSPropertyOp41
 70
     1
102
RTVSPropertyOp42
 70
     1
102
RTVSPropertyOp43
 70
     1
102
RTVSPropertyOp44
 70
     1
102
RTVSPropertyOp45
 70
     1
102
RTVSPropertyOp46
 70
     1
102
RTVSPropertyOp47
 70
     1
102
RTVSPropertyOp48
 70
     1
102
RTVSPropertyOp49
 70
     1
102
RTVSPropertyOp50
 70
     1
102
RTVSPropertyOp51
 70
     0
102
RTVSPropertyOp52
 70
     0
102
RTVSPropertyOp53
 70
     1
102
RTVSPropertyOp54
 70
     1
102
RTVSPropertyOp55
 70
     1
102
RTVSPropertyOp56
 70
     1
102
RTVSPropertyOp57
 70
     1
102
RTVSPropertyOp58
 70
     1
102
RTVSPropertyOp59
 70
     1
102
RTVSPropertyOp60
 70
     1
102
RTVSPropertyOp61
 70
     1
102
RTVSPropertyOp62
 70
     1
  0
XRECORD
  5
1F13
102
{ACAD_REACTORS
330
1F12
102
}
330
1F12
100
AcDbXrecord
280
     1
102
RTVSPost2010Prop28
280
     0
102
RTVSPost2010PropOp28
 70
     1
102
RTVSPost2010Prop29
280
     1
102
RTVSPost2010PropOp29
 70
     1
102
RTVSPost2010Prop30
280
     1
102
RTVSPost2010PropOp30
 70
     1
102
RTVSPost2010Prop31
280
     0
102
RTVSPost2010PropOp31
 70
     1
102
RTVSPost2010Prop32
280
     0
102
RTVSPost2010PropOp32
 70
     1
102
RTVSPost2010Prop33
280
     0
102
RTVSPost2010PropOp33
 70
     1
102
RTVSPost2010Prop34
280
     0
102
RTVSPost2010PropOp34
 70
     1
102
RTVSPost2010Prop35
280
     0
102
RTVSPost2010PropOp35
 70
     1
102
RTVSPost2010Prop36
280
     0
102
RTVSPost2010PropOp36
 70
     1
102
RTVSPost2010Prop37
 90
       50
102
RTVSPost2010PropOp37
 70
     1
102
RTVSPost2010Prop38
140
0.0
102
RTVSPost2010PropOp38
 70
     1
102
RTVSPost2010Prop39
140
1.0
102
RTVSPost2010PropOp39
 70
     1
102
RTVSPost2010Prop40
 90
        0
102
RTVSPost2010PropOp40
 70
     1
102
RTVSPost2010Prop41ColorIndex
 90
       18
102
RTVSPost2010Prop41ColorRGB
 90
        0
102
RTVSPost2010PropOp41
 70
     1
102
RTVSPost2010Prop42
 90
       50
102
RTVSPost2010PropOp42
 70
     1
102
RTVSPost2010Prop43
 90
        3
102
RTVSPost2010PropOp43
 70
     1
102
RTVSPost2010Prop44ColorIndex
 90
        5
102
RTVSPost2010Prop44ColorRGB
 90
      255
102
RTVSPost2010PropOp44
 70
     1
102
RTVSPost2010Prop45
280
     0
102
RTVSPost2010PropOp45
 70
     1
102
RTVSPost2010Prop46
 90
       50
102
RTVSPost2010PropOp46
 70
     1
102
RTVSPost2010Prop47
 90
       50
102
RTVSPost2010PropOp47
 70
     1
102
RTVSPost2010Prop48
 90
       50
102
RTVSPost2010PropOp48
 70
     1
102
RTVSPost2010Prop49
280
     0
102
RTVSPost2010PropOp49
 70
     1
102
RTVSPost2010Prop50
 90
       50
102
RTVSPost2010PropOp50
 70
     1
102
RTVSPost2010Prop51ColorIndex
 90
      256
102
RTVSPost2010Prop51ColorRGB
 90
-16777216
102
RTVSPost2010PropOp51
 70
     0
102
RTVSPost2010Prop52
140
1.0
102
RTVSPost2010PropOp52
 70
     0
102
RTVSPost2010Prop53
 90
        2
102
RTVSPost2010PropOp53
 70
     1
102
RTVSPost2010Prop54
  1
strokes_ogs.tif
102
RTVSPost2010PropOp54
 70
     1
102
RTVSPost2010Prop55
280
     0
102
RTVSPost2010PropOp55
 70
     1
102
RTVSPost2010Prop56
140
1.0
102
RTVSPost2010PropOp56
 70
     1
102
RTVSPost2010Prop57
140
1.0
102
RTVSPost2010PropOp57
 70
     1
102
RTVSPropertyOp0
 70
     1
102
RTVSPropertyOp1
 70
     1
102
RTVSPropertyOp2
 70
     1
102
RTVSPropertyOp3
 70
     1
102
RTVSPropertyOp4
 70
     1
102
RTVSPropertyOp5
 70
     1
102
RTVSPropertyOp6
 70
     1
102
RTVSPropertyOp7
 70
     1
102
RTVSPropertyOp8
 70
     1
102
RTVSPropertyOp9
 70
     1
102
RTVSPropertyOp10
 70
     1
102
RTVSPropertyOp11
 70
     1
102
RTVSPropertyOp12
 70
     1
102
RTVSPropertyOp13
 70
     1
102
RTVSPropertyOp14
 70
     1
102
RTVSPropertyOp15
 70
     1
102
RTVSPropertyOp16
 70
     1
102
RTVSPropertyOp17
 70
     1
102
RTVSPropertyOp18
 70
     1
102
RTVSPropertyOp19
 70
     1
102
RTVSPropertyOp20
 70
     1
102
RTVSPropertyOp21
 70
     1
102
RTVSPropertyOp22
 70
     1
102
RTVSPropertyOp23
 70
     1
102
RTVSPropertyOp24
 70
     1
102
RTVSPropertyOp25
 70
     1
102
RTVSPropertyOp26
 70
     1
102
RTVSPropertyOp27
 70
     1
102
RTVSPropertyOp28
 70
     1
102
RTVSPropertyOp29
 70
     1
102
RTVSPropertyOp30
 70
     1
102
RTVSPropertyOp31
 70
     1
102
RTVSPropertyOp32
 70
     1
102
RTVSPropertyOp33
 70
     1
102
RTVSPropertyOp34
 70
     1
102
RTVSPropertyOp35
 70
     1
102
RTVSPropertyOp36
 70
     1
102
RTVSPropertyOp37
 70
     1
102
RTVSPropertyOp38
 70
     1
102
RTVSPropertyOp39
 70
     1
102
RTVSPropertyOp40
 70
     1
102
RTVSPropertyOp41
 70
     1
102
RTVSPropertyOp42
 70
     1
102
RTVSPropertyOp43
 70
     1
102
RTVSPropertyOp44
 70
     1
102
RTVSPropertyOp45
 70
     1
102
RTVSPropertyOp46
 70
     1
102
RTVSPropertyOp47
 70
     1
102
RTVSPropertyOp48
 70
     1
102
RTVSPropertyOp49
 70
     1
102
RTVSPropertyOp50
 70
     1
102
RTVSPropertyOp51
 70
     0
102
RTVSPropertyOp52
 70
     0
102
RTVSPropertyOp53
 70
     1
102
RTVSPropertyOp54
 70
     1
102
RTVSPropertyOp55
 70
     1
102
RTVSPropertyOp56
 70
     1
102
RTVSPropertyOp57
 70
     1
102
RTVSPropertyOp58
 70
     1
102
RTVSPropertyOp59
 70
     1
102
RTVSPropertyOp60
 70
     1
102
RTVSPropertyOp61
 70
     1
102
RTVSPropertyOp62
 70
     1
  0
XRECORD
  5
1F1B
102
{ACAD_REACTORS
330
1F1A
102
}
330
1F1A
100
AcDbXrecord
280
     1
102
RTVSPost2010Prop28
280
     0
102
RTVSPost2010PropOp28
 70
     1
102
RTVSPost2010Prop29
280
     1
102
RTVSPost2010PropOp29
 70
     1
102
RTVSPost2010Prop30
280
     1
102
RTVSPost2010PropOp30
 70
     1
102
RTVSPost2010Prop31
280
     0
102
RTVSPost2010PropOp31
 70
     1
102
RTVSPost2010Prop32
280
     0
102
RTVSPost2010PropOp32
 70
     1
102
RTVSPost2010Prop33
280
     0
102
RTVSPost2010PropOp33
 70
     1
102
RTVSPost2010Prop34
280
     0
102
RTVSPost2010PropOp34
 70
     1
102
RTVSPost2010Prop35
280
     0
102
RTVSPost2010PropOp35
 70
     1
102
RTVSPost2010Prop36
280
     0
102
RTVSPost2010PropOp36
 70
     1
102
RTVSPost2010Prop37
 90
       50
102
RTVSPost2010PropOp37
 70
     1
102
RTVSPost2010Prop38
140
0.0
102
RTVSPost2010PropOp38
 70
     1
102
RTVSPost2010Prop39
140
1.0
102
RTVSPost2010PropOp39
 70
     1
102
RTVSPost2010Prop40
 90
        0
102
RTVSPost2010PropOp40
 70
     1
102
RTVSPost2010Prop41ColorIndex
 90
       18
102
RTVSPost2010Prop41ColorRGB
 90
        0
102
RTVSPost2010PropOp41
 70
     1
102
RTVSPost2010Prop42
 90
       50
102
RTVSPost2010PropOp42
 70
     1
102
RTVSPost2010Prop43
 90
        3
102
RTVSPost2010PropOp43
 70
     1
102
RTVSPost2010Prop44ColorIndex
 90
        5
102
RTVSPost2010Prop44ColorRGB
 90
      255
102
RTVSPost2010PropOp44
 70
     1
102
RTVSPost2010Prop45
280
     0
102
RTVSPost2010PropOp45
 70
     1
102
RTVSPost2010Prop46
 90
       50
102
RTVSPost2010PropOp46
 70
     1
102
RTVSPost2010Prop47
 90
       50
102
RTVSPost2010PropOp47
 70
     1
102
RTVSPost2010Prop48
 90
       50
102
RTVSPost2010PropOp48
 70
     1
102
RTVSPost2010Prop49
280
     0
102
RTVSPost2010PropOp49
 70
     1
102
RTVSPost2010Prop50
 90
       50
102
RTVSPost2010PropOp50
 70
     1
102
RTVSPost2010Prop51ColorIndex
 90
      256
102
RTVSPost2010Prop51ColorRGB
 90
-16777216
102
RTVSPost2010PropOp51
 70
     0
102
RTVSPost2010Prop52
140
1.0
102
RTVSPost2010PropOp52
 70
     0
102
RTVSPost2010Prop53
 90
        2
102
RTVSPost2010PropOp53
 70
     1
102
RTVSPost2010Prop54
  1
strokes_ogs.tif
102
RTVSPost2010PropOp54
 70
     1
102
RTVSPost2010Prop55
280
     0
102
RTVSPost2010PropOp55
 70
     1
102
RTVSPost2010Prop56
140
1.0
102
RTVSPost2010PropOp56
 70
     1
102
RTVSPost2010Prop57
140
1.0
102
RTVSPost2010PropOp57
 70
     1
102
RTVSPropertyOp0
 70
     1
102
RTVSPropertyOp1
 70
     1
102
RTVSPropertyOp2
 70
     1
102
RTVSPropertyOp3
 70
     1
102
RTVSPropertyOp4
 70
     1
102
RTVSPropertyOp5
 70
     1
102
RTVSPropertyOp6
 70
     1
102
RTVSPropertyOp7
 70
     1
102
RTVSPropertyOp8
 70
     1
102
RTVSPropertyOp9
 70
     1
102
RTVSPropertyOp10
 70
     1
102
RTVSPropertyOp11
 70
     1
102
RTVSPropertyOp12
 70
     1
102
RTVSPropertyOp13
 70
     1
102
RTVSPropertyOp14
 70
     1
102
RTVSPropertyOp15
 70
     1
102
RTVSPropertyOp16
 70
     1
102
RTVSPropertyOp17
 70
     1
102
RTVSPropertyOp18
 70
     1
102
RTVSPropertyOp19
 70
     1
102
RTVSPropertyOp20
 70
     1
102
RTVSPropertyOp21
 70
     1
102
RTVSPropertyOp22
 70
     1
102
RTVSPropertyOp23
 70
     1
102
RTVSPropertyOp24
 70
     1
102
RTVSPropertyOp25
 70
     1
102
RTVSPropertyOp26
 70
     1
102
RTVSPropertyOp27
 70
     1
102
RTVSPropertyOp28
 70
     1
102
RTVSPropertyOp29
 70
     1
102
RTVSPropertyOp30
 70
     1
102
RTVSPropertyOp31
 70
     1
102
RTVSPropertyOp32
 70
     1
102
RTVSPropertyOp33
 70
     1
102
RTVSPropertyOp34
 70
     1
102
RTVSPropertyOp35
 70
     1
102
RTVSPropertyOp36
 70
     1
102
RTVSPropertyOp37
 70
     1
102
RTVSPropertyOp38
 70
     1
102
RTVSPropertyOp39
 70
     1
102
RTVSPropertyOp40
 70
     1
102
RTVSPropertyOp41
 70
     1
102
RTVSPropertyOp42
 70
     1
102
RTVSPropertyOp43
 70
     1
102
RTVSPropertyOp44
 70
     1
102
RTVSPropertyOp45
 70
     1
102
RTVSPropertyOp46
 70
     1
102
RTVSPropertyOp47
 70
     1
102
RTVSPropertyOp48
 70
     1
102
RTVSPropertyOp49
 70
     1
102
RTVSPropertyOp50
 70
     1
102
RTVSPropertyOp51
 70
     0
102
RTVSPropertyOp52
 70
     0
102
RTVSPropertyOp53
 70
     1
102
RTVSPropertyOp54
 70
     1
102
RTVSPropertyOp55
 70
     1
102
RTVSPropertyOp56
 70
     1
102
RTVSPropertyOp57
 70
     1
102
RTVSPropertyOp58
 70
     1
102
RTVSPropertyOp59
 70
     1
102
RTVSPropertyOp60
 70
     1
102
RTVSPropertyOp61
 70
     1
102
RTVSPropertyOp62
 70
     1
  0
XRECORD
  5
1F37
102
{ACAD_REACTORS
330
1F36
102
}
330
1F36
100
AcDbXrecord
280
     1
102
RTVSPost2010Prop28
280
     0
102
RTVSPost2010PropOp28
 70
     1
102
RTVSPost2010Prop29
280
     1
102
RTVSPost2010PropOp29
 70
     1
102
RTVSPost2010Prop30
280
     1
102
RTVSPost2010PropOp30
 70
     1
102
RTVSPost2010Prop31
280
     0
102
RTVSPost2010PropOp31
 70
     1
102
RTVSPost2010Prop32
280
     0
102
RTVSPost2010PropOp32
 70
     1
102
RTVSPost2010Prop33
280
     0
102
RTVSPost2010PropOp33
 70
     1
102
RTVSPost2010Prop34
280
     0
102
RTVSPost2010PropOp34
 70
     1
102
RTVSPost2010Prop35
280
     0
102
RTVSPost2010PropOp35
 70
     1
102
RTVSPost2010Prop36
280
     0
102
RTVSPost2010PropOp36
 70
     1
102
RTVSPost2010Prop37
 90
       50
102
RTVSPost2010PropOp37
 70
     0
102
RTVSPost2010Prop38
140
0.0
102
RTVSPost2010PropOp38
 70
     0
102
RTVSPost2010Prop39
140
1.0
102
RTVSPost2010PropOp39
 70
     0
102
RTVSPost2010Prop40
 90
        0
102
RTVSPost2010PropOp40
 70
     0
102
RTVSPost2010Prop41ColorIndex
 90
       18
102
RTVSPost2010Prop41ColorRGB
 90
        0
102
RTVSPost2010PropOp41
 70
     0
102
RTVSPost2010Prop42
 90
       50
102
RTVSPost2010PropOp42
 70
     0
102
RTVSPost2010Prop43
 90
        3
102
RTVSPost2010PropOp43
 70
     0
102
RTVSPost2010Prop44ColorIndex
 90
        5
102
RTVSPost2010Prop44ColorRGB
 90
      255
102
RTVSPost2010PropOp44
 70
     0
102
RTVSPost2010Prop45
280
     0
102
RTVSPost2010PropOp45
 70
     1
102
RTVSPost2010Prop46
 90
       50
102
RTVSPost2010PropOp46
 70
     0
102
RTVSPost2010Prop47
 90
       50
102
RTVSPost2010PropOp47
 70
     0
102
RTVSPost2010Prop48
 90
       50
102
RTVSPost2010PropOp48
 70
     0
102
RTVSPost2010Prop49
280
     0
102
RTVSPost2010PropOp49
 70
     1
102
RTVSPost2010Prop50
 90
       50
102
RTVSPost2010PropOp50
 70
     0
102
RTVSPost2010Prop51ColorIndex
 90
      256
102
RTVSPost2010Prop51ColorRGB
 90
-16777216
102
RTVSPost2010PropOp51
 70
     0
102
RTVSPost2010Prop52
140
1.0
102
RTVSPost2010PropOp52
 70
     0
102
RTVSPost2010Prop53
 90
        2
102
RTVSPost2010PropOp53
 70
     0
102
RTVSPost2010Prop54
  1
strokes_ogs.tif
102
RTVSPost2010PropOp54
 70
     0
102
RTVSPost2010Prop55
280
     0
102
RTVSPost2010PropOp55
 70
     1
102
RTVSPost2010Prop56
140
1.0
102
RTVSPost2010PropOp56
 70
     0
102
RTVSPost2010Prop57
140
1.0
102
RTVSPost2010PropOp57
 70
     0
102
RTVSPropertyOp0
 70
     0
102
RTVSPropertyOp1
 70
     0
102
RTVSPropertyOp2
 70
     0
102
RTVSPropertyOp3
 70
     0
102
RTVSPropertyOp4
 70
     0
102
RTVSPropertyOp5
 70
     0
102
RTVSPropertyOp6
 70
     0
102
RTVSPropertyOp7
 70
     0
102
RTVSPropertyOp8
 70
     0
102
RTVSPropertyOp9
 70
     0
102
RTVSPropertyOp10
 70
     0
102
RTVSPropertyOp11
 70
     0
102
RTVSPropertyOp12
 70
     0
102
RTVSPropertyOp13
 70
     0
102
RTVSPropertyOp14
 70
     2
102
RTVSPropertyOp15
 70
     0
102
RTVSPropertyOp16
 70
     0
102
RTVSPropertyOp17
 70
     0
102
RTVSPropertyOp18
 70
     0
102
RTVSPropertyOp19
 70
     0
102
RTVSPropertyOp20
 70
     0
102
RTVSPropertyOp21
 70
     0
102
RTVSPropertyOp22
 70
     0
102
RTVSPropertyOp23
 70
     0
102
RTVSPropertyOp24
 70
     0
102
RTVSPropertyOp25
 70
     0
102
RTVSPropertyOp26
 70
     0
102
RTVSPropertyOp27
 70
     0
102
RTVSPropertyOp28
 70
     1
102
RTVSPropertyOp29
 70
     1
102
RTVSPropertyOp30
 70
     1
102
RTVSPropertyOp31
 70
     1
102
RTVSPropertyOp32
 70
     1
102
RTVSPropertyOp33
 70
     1
102
RTVSPropertyOp34
 70
     1
102
RTVSPropertyOp35
 70
     1
102
RTVSPropertyOp36
 70
     1
102
RTVSPropertyOp37
 70
     0
102
RTVSPropertyOp38
 70
     0
102
RTVSPropertyOp39
 70
     0
102
RTVSPropertyOp40
 70
     0
102
RTVSPropertyOp41
 70
     0
102
RTVSPropertyOp42
 70
     0
102
RTVSPropertyOp43
 70
     0
102
RTVSPropertyOp44
 70
     0
102
RTVSPropertyOp45
 70
     1
102
RTVSPropertyOp46
 70
     0
102
RTVSPropertyOp47
 70
     0
102
RTVSPropertyOp48
 70
     0
102
RTVSPropertyOp49
 70
     1
102
RTVSPropertyOp50
 70
     0
102
RTVSPropertyOp51
 70
     0
102
RTVSPropertyOp52
 70
     0
102
RTVSPropertyOp53
 70
     0
102
RTVSPropertyOp54
 70
     0
102
RTVSPropertyOp55
 70
     1
102
RTVSPropertyOp56
 70
     0
102
RTVSPropertyOp57
 70
     0
102
RTVSPropertyOp58
 70
     0
102
RTVSPropertyOp59
 70
     0
102
RTVSPropertyOp60
 70
     0
102
RTVSPropertyOp61
 70
     0
102
RTVSPropertyOp62
 70
     0
  0
XRECORD
  5
1F27
102
{ACAD_REACTORS
330
1F26
102
}
330
1F26
100
AcDbXrecord
280
     1
102
RTVSPost2010Prop28
280
     0
102
RTVSPost2010PropOp28
 70
     1
102
RTVSPost2010Prop29
280
     1
102
RTVSPost2010PropOp29
 70
     1
102
RTVSPost2010Prop30
280
     1
102
RTVSPost2010PropOp30
 70
     1
102
RTVSPost2010Prop31
280
     0
102
RTVSPost2010PropOp31
 70
     1
102
RTVSPost2010Prop32
280
     0
102
RTVSPost2010PropOp32
 70
     1
102
RTVSPost2010Prop33
280
     0
102
RTVSPost2010PropOp33
 70
     1
102
RTVSPost2010Prop34
280
     0
102
RTVSPost2010PropOp34
 70
     1
102
RTVSPost2010Prop35
280
     0
102
RTVSPost2010PropOp35
 70
     1
102
RTVSPost2010Prop36
280
     0
102
RTVSPost2010PropOp36
 70
     1
102
RTVSPost2010Prop37
 90
       50
102
RTVSPost2010PropOp37
 70
     1
102
RTVSPost2010Prop38
140
0.0
102
RTVSPost2010PropOp38
 70
     1
102
RTVSPost2010Prop39
140
1.0
102
RTVSPost2010PropOp39
 70
     1
102
RTVSPost2010Prop40
 90
        0
102
RTVSPost2010PropOp40
 70
     1
102
RTVSPost2010Prop41ColorIndex
 90
       18
102
RTVSPost2010Prop41ColorRGB
 90
        0
102
RTVSPost2010PropOp41
 70
     1
102
RTVSPost2010Prop42
 90
       50
102
RTVSPost2010PropOp42
 70
     1
102
RTVSPost2010Prop43
 90
        3
102
RTVSPost2010PropOp43
 70
     1
102
RTVSPost2010Prop44ColorIndex
 90
        5
102
RTVSPost2010Prop44ColorRGB
 90
      255
102
RTVSPost2010PropOp44
 70
     1
102
RTVSPost2010Prop45
280
     0
102
RTVSPost2010PropOp45
 70
     1
102
RTVSPost2010Prop46
 90
       50
102
RTVSPost2010PropOp46
 70
     1
102
RTVSPost2010Prop47
 90
       50
102
RTVSPost2010PropOp47
 70
     1
102
RTVSPost2010Prop48
 90
       50
102
RTVSPost2010PropOp48
 70
     1
102
RTVSPost2010Prop49
280
     0
102
RTVSPost2010PropOp49
 70
     1
102
RTVSPost2010Prop50
 90
       50
102
RTVSPost2010PropOp50
 70
     1
102
RTVSPost2010Prop51ColorIndex
 90
      256
102
RTVSPost2010Prop51ColorRGB
 90
-16777216
102
RTVSPost2010PropOp51
 70
     0
102
RTVSPost2010Prop52
140
1.0
102
RTVSPost2010PropOp52
 70
     0
102
RTVSPost2010Prop53
 90
        2
102
RTVSPost2010PropOp53
 70
     1
102
RTVSPost2010Prop54
  1
strokes_ogs.tif
102
RTVSPost2010PropOp54
 70
     1
102
RTVSPost2010Prop55
280
     0
102
RTVSPost2010PropOp55
 70
     1
102
RTVSPost2010Prop56
140
1.0
102
RTVSPost2010PropOp56
 70
     1
102
RTVSPost2010Prop57
140
1.0
102
RTVSPost2010PropOp57
 70
     1
102
RTVSPropertyOp0
 70
     1
102
RTVSPropertyOp1
 70
     1
102
RTVSPropertyOp2
 70
     1
102
RTVSPropertyOp3
 70
     1
102
RTVSPropertyOp4
 70
     1
102
RTVSPropertyOp5
 70
     1
102
RTVSPropertyOp6
 70
     1
102
RTVSPropertyOp7
 70
     1
102
RTVSPropertyOp8
 70
     1
102
RTVSPropertyOp9
 70
     1
102
RTVSPropertyOp10
 70
     1
102
RTVSPropertyOp11
 70
     1
102
RTVSPropertyOp12
 70
     1
102
RTVSPropertyOp13
 70
     1
102
RTVSPropertyOp14
 70
     1
102
RTVSPropertyOp15
 70
     1
102
RTVSPropertyOp16
 70
     1
102
RTVSPropertyOp17
 70
     1
102
RTVSPropertyOp18
 70
     1
102
RTVSPropertyOp19
 70
     1
102
RTVSPropertyOp20
 70
     1
102
RTVSPropertyOp21
 70
     1
102
RTVSPropertyOp22
 70
     1
102
RTVSPropertyOp23
 70
     1
102
RTVSPropertyOp24
 70
     1
102
RTVSPropertyOp25
 70
     1
102
RTVSPropertyOp26
 70
     1
102
RTVSPropertyOp27
 70
     1
102
RTVSPropertyOp28
 70
     1
102
RTVSPropertyOp29
 70
     1
102
RTVSPropertyOp30
 70
     1
102
RTVSPropertyOp31
 70
     1
102
RTVSPropertyOp32
 70
     1
102
RTVSPropertyOp33
 70
     1
102
RTVSPropertyOp34
 70
     1
102
RTVSPropertyOp35
 70
     1
102
RTVSPropertyOp36
 70
     1
102
RTVSPropertyOp37
 70
     1
102
RTVSPropertyOp38
 70
     1
102
RTVSPropertyOp39
 70
     1
102
RTVSPropertyOp40
 70
     1
102
RTVSPropertyOp41
 70
     1
102
RTVSPropertyOp42
 70
     1
102
RTVSPropertyOp43
 70
     1
102
RTVSPropertyOp44
 70
     1
102
RTVSPropertyOp45
 70
     1
102
RTVSPropertyOp46
 70
     1
102
RTVSPropertyOp47
 70
     1
102
RTVSPropertyOp48
 70
     1
102
RTVSPropertyOp49
 70
     1
102
RTVSPropertyOp50
 70
     1
102
RTVSPropertyOp51
 70
     0
102
RTVSPropertyOp52
 70
     0
102
RTVSPropertyOp53
 70
     1
102
RTVSPropertyOp54
 70
     1
102
RTVSPropertyOp55
 70
     1
102
RTVSPropertyOp56
 70
     1
102
RTVSPropertyOp57
 70
     1
102
RTVSPropertyOp58
 70
     1
102
RTVSPropertyOp59
 70
     1
102
RTVSPropertyOp60
 70
     1
102
RTVSPropertyOp61
 70
     1
102
RTVSPropertyOp62
 70
     1
  0
XRECORD
  5
1F39
102
{ACAD_REACTORS
330
1F38
102
}
330
1F38
100
AcDbXrecord
280
     1
102
RTVSPost2010Prop28
280
     0
102
RTVSPost2010PropOp28
 70
     1
102
RTVSPost2010Prop29
280
     1
102
RTVSPost2010PropOp29
 70
     1
102
RTVSPost2010Prop30
280
     1
102
RTVSPost2010PropOp30
 70
     1
102
RTVSPost2010Prop31
280
     0
102
RTVSPost2010PropOp31
 70
     1
102
RTVSPost2010Prop32
280
     0
102
RTVSPost2010PropOp32
 70
     1
102
RTVSPost2010Prop33
280
     0
102
RTVSPost2010PropOp33
 70
     1
102
RTVSPost2010Prop34
280
     0
102
RTVSPost2010PropOp34
 70
     1
102
RTVSPost2010Prop35
280
     0
102
RTVSPost2010PropOp35
 70
     1
102
RTVSPost2010Prop36
280
     0
102
RTVSPost2010PropOp36
 70
     1
102
RTVSPost2010Prop37
 90
       50
102
RTVSPost2010PropOp37
 70
     0
102
RTVSPost2010Prop38
140
0.0
102
RTVSPost2010PropOp38
 70
     0
102
RTVSPost2010Prop39
140
1.0
102
RTVSPost2010PropOp39
 70
     0
102
RTVSPost2010Prop40
 90
        0
102
RTVSPost2010PropOp40
 70
     0
102
RTVSPost2010Prop41ColorIndex
 90
       18
102
RTVSPost2010Prop41ColorRGB
 90
        0
102
RTVSPost2010PropOp41
 70
     0
102
RTVSPost2010Prop42
 90
       50
102
RTVSPost2010PropOp42
 70
     0
102
RTVSPost2010Prop43
 90
        3
102
RTVSPost2010PropOp43
 70
     0
102
RTVSPost2010Prop44ColorIndex
 90
        5
102
RTVSPost2010Prop44ColorRGB
 90
      255
102
RTVSPost2010PropOp44
 70
     0
102
RTVSPost2010Prop45
280
     0
102
RTVSPost2010PropOp45
 70
     1
102
RTVSPost2010Prop46
 90
       50
102
RTVSPost2010PropOp46
 70
     0
102
RTVSPost2010Prop47
 90
       50
102
RTVSPost2010PropOp47
 70
     0
102
RTVSPost2010Prop48
 90
       50
102
RTVSPost2010PropOp48
 70
     0
102
RTVSPost2010Prop49
280
     0
102
RTVSPost2010PropOp49
 70
     1
102
RTVSPost2010Prop50
 90
       50
102
RTVSPost2010PropOp50
 70
     0
102
RTVSPost2010Prop51ColorIndex
 90
      256
102
RTVSPost2010Prop51ColorRGB
 90
-16777216
102
RTVSPost2010PropOp51
 70
     0
102
RTVSPost2010Prop52
140
1.0
102
RTVSPost2010PropOp52
 70
     0
102
RTVSPost2010Prop53
 90
        2
102
RTVSPost2010PropOp53
 70
     0
102
RTVSPost2010Prop54
  1
strokes_ogs.tif
102
RTVSPost2010PropOp54
 70
     0
102
RTVSPost2010Prop55
280
     0
102
RTVSPost2010PropOp55
 70
     1
102
RTVSPost2010Prop56
140
1.0
102
RTVSPost2010PropOp56
 70
     0
102
RTVSPost2010Prop57
140
1.0
102
RTVSPost2010PropOp57
 70
     0
102
RTVSPropertyOp0
 70
     0
102
RTVSPropertyOp1
 70
     0
102
RTVSPropertyOp2
 70
     0
102
RTVSPropertyOp3
 70
     0
102
RTVSPropertyOp4
 70
     0
102
RTVSPropertyOp5
 70
     0
102
RTVSPropertyOp6
 70
     0
102
RTVSPropertyOp7
 70
     0
102
RTVSPropertyOp8
 70
     0
102
RTVSPropertyOp9
 70
     0
102
RTVSPropertyOp10
 70
     0
102
RTVSPropertyOp11
 70
     0
102
RTVSPropertyOp12
 70
     0
102
RTVSPropertyOp13
 70
     0
102
RTVSPropertyOp14
 70
     2
102
RTVSPropertyOp15
 70
     0
102
RTVSPropertyOp16
 70
     0
102
RTVSPropertyOp17
 70
     0
102
RTVSPropertyOp18
 70
     0
102
RTVSPropertyOp19
 70
     0
102
RTVSPropertyOp20
 70
     0
102
RTVSPropertyOp21
 70
     0
102
RTVSPropertyOp22
 70
     0
102
RTVSPropertyOp23
 70
     0
102
RTVSPropertyOp24
 70
     0
102
RTVSPropertyOp25
 70
     0
102
RTVSPropertyOp26
 70
     0
102
RTVSPropertyOp27
 70
     0
102
RTVSPropertyOp28
 70
     1
102
RTVSPropertyOp29
 70
     1
102
RTVSPropertyOp30
 70
     1
102
RTVSPropertyOp31
 70
     1
102
RTVSPropertyOp32
 70
     1
102
RTVSPropertyOp33
 70
     1
102
RTVSPropertyOp34
 70
     1
102
RTVSPropertyOp35
 70
     1
102
RTVSPropertyOp36
 70
     1
102
RTVSPropertyOp37
 70
     0
102
RTVSPropertyOp38
 70
     0
102
RTVSPropertyOp39
 70
     0
102
RTVSPropertyOp40
 70
     0
102
RTVSPropertyOp41
 70
     0
102
RTVSPropertyOp42
 70
     0
102
RTVSPropertyOp43
 70
     0
102
RTVSPropertyOp44
 70
     0
102
RTVSPropertyOp45
 70
     1
102
RTVSPropertyOp46
 70
     0
102
RTVSPropertyOp47
 70
     0
102
RTVSPropertyOp48
 70
     0
102
RTVSPropertyOp49
 70
     1
102
RTVSPropertyOp50
 70
     0
102
RTVSPropertyOp51
 70
     0
102
RTVSPropertyOp52
 70
     0
102
RTVSPropertyOp53
 70
     0
102
RTVSPropertyOp54
 70
     0
102
RTVSPropertyOp55
 70
     1
102
RTVSPropertyOp56
 70
     0
102
RTVSPropertyOp57
 70
     0
102
RTVSPropertyOp58
 70
     0
102
RTVSPropertyOp59
 70
     0
102
RTVSPropertyOp60
 70
     0
102
RTVSPropertyOp61
 70
     0
102
RTVSPropertyOp62
 70
     0
  0
XRECORD
  5
1F1F
102
{ACAD_REACTORS
330
1F1E
102
}
330
1F1E
100
AcDbXrecord
280
     1
102
RTVSPost2010Prop28
280
     0
102
RTVSPost2010PropOp28
 70
     1
102
RTVSPost2010Prop29
280
     1
102
RTVSPost2010PropOp29
 70
     1
102
RTVSPost2010Prop30
280
     1
102
RTVSPost2010PropOp30
 70
     1
102
RTVSPost2010Prop31
280
     0
102
RTVSPost2010PropOp31
 70
     1
102
RTVSPost2010Prop32
280
     0
102
RTVSPost2010PropOp32
 70
     1
102
RTVSPost2010Prop33
280
     0
102
RTVSPost2010PropOp33
 70
     1
102
RTVSPost2010Prop34
280
     0
102
RTVSPost2010PropOp34
 70
     1
102
RTVSPost2010Prop35
280
     0
102
RTVSPost2010PropOp35
 70
     1
102
RTVSPost2010Prop36
280
     0
102
RTVSPost2010PropOp36
 70
     1
102
RTVSPost2010Prop37
 90
       50
102
RTVSPost2010PropOp37
 70
     1
102
RTVSPost2010Prop38
140
0.0
102
RTVSPost2010PropOp38
 70
     1
102
RTVSPost2010Prop39
140
1.0
102
RTVSPost2010PropOp39
 70
     1
102
RTVSPost2010Prop40
 90
        0
102
RTVSPost2010PropOp40
 70
     1
102
RTVSPost2010Prop41ColorIndex
 90
       18
102
RTVSPost2010Prop41ColorRGB
 90
        0
102
RTVSPost2010PropOp41
 70
     1
102
RTVSPost2010Prop42
 90
       50
102
RTVSPost2010PropOp42
 70
     1
102
RTVSPost2010Prop43
 90
        3
102
RTVSPost2010PropOp43
 70
     1
102
RTVSPost2010Prop44ColorIndex
 90
        5
102
RTVSPost2010Prop44ColorRGB
 90
      255
102
RTVSPost2010PropOp44
 70
     1
102
RTVSPost2010Prop45
280
     0
102
RTVSPost2010PropOp45
 70
     1
102
RTVSPost2010Prop46
 90
       50
102
RTVSPost2010PropOp46
 70
     1
102
RTVSPost2010Prop47
 90
       50
102
RTVSPost2010PropOp47
 70
     1
102
RTVSPost2010Prop48
 90
       50
102
RTVSPost2010PropOp48
 70
     1
102
RTVSPost2010Prop49
280
     0
102
RTVSPost2010PropOp49
 70
     1
102
RTVSPost2010Prop50
 90
       50
102
RTVSPost2010PropOp50
 70
     1
102
RTVSPost2010Prop51ColorIndex
 90
      256
102
RTVSPost2010Prop51ColorRGB
 90
-16777216
102
RTVSPost2010PropOp51
 70
     0
102
RTVSPost2010Prop52
140
1.0
102
RTVSPost2010PropOp52
 70
     0
102
RTVSPost2010Prop53
 90
        2
102
RTVSPost2010PropOp53
 70
     1
102
RTVSPost2010Prop54
  1
strokes_ogs.tif
102
RTVSPost2010PropOp54
 70
     1
102
RTVSPost2010Prop55
280
     0
102
RTVSPost2010PropOp55
 70
     1
102
RTVSPost2010Prop56
140
1.0
102
RTVSPost2010PropOp56
 70
     1
102
RTVSPost2010Prop57
140
1.0
102
RTVSPost2010PropOp57
 70
     1
102
RTVSPropertyOp0
 70
     1
102
RTVSPropertyOp1
 70
     1
102
RTVSPropertyOp2
 70
     1
102
RTVSPropertyOp3
 70
     1
102
RTVSPropertyOp4
 70
     1
102
RTVSPropertyOp5
 70
     1
102
RTVSPropertyOp6
 70
     1
102
RTVSPropertyOp7
 70
     1
102
RTVSPropertyOp8
 70
     1
102
RTVSPropertyOp9
 70
     1
102
RTVSPropertyOp10
 70
     1
102
RTVSPropertyOp11
 70
     1
102
RTVSPropertyOp12
 70
     1
102
RTVSPropertyOp13
 70
     1
102
RTVSPropertyOp14
 70
     1
102
RTVSPropertyOp15
 70
     1
102
RTVSPropertyOp16
 70
     1
102
RTVSPropertyOp17
 70
     1
102
RTVSPropertyOp18
 70
     1
102
RTVSPropertyOp19
 70
     1
102
RTVSPropertyOp20
 70
     1
102
RTVSPropertyOp21
 70
     1
102
RTVSPropertyOp22
 70
     1
102
RTVSPropertyOp23
 70
     1
102
RTVSPropertyOp24
 70
     1
102
RTVSPropertyOp25
 70
     1
102
RTVSPropertyOp26
 70
     1
102
RTVSPropertyOp27
 70
     1
102
RTVSPropertyOp28
 70
     1
102
RTVSPropertyOp29
 70
     1
102
RTVSPropertyOp30
 70
     1
102
RTVSPropertyOp31
 70
     1
102
RTVSPropertyOp32
 70
     1
102
RTVSPropertyOp33
 70
     1
102
RTVSPropertyOp34
 70
     1
102
RTVSPropertyOp35
 70
     1
102
RTVSPropertyOp36
 70
     1
102
RTVSPropertyOp37
 70
     1
102
RTVSPropertyOp38
 70
     1
102
RTVSPropertyOp39
 70
     1
102
RTVSPropertyOp40
 70
     1
102
RTVSPropertyOp41
 70
     1
102
RTVSPropertyOp42
 70
     1
102
RTVSPropertyOp43
 70
     1
102
RTVSPropertyOp44
 70
     1
102
RTVSPropertyOp45
 70
     1
102
RTVSPropertyOp46
 70
     1
102
RTVSPropertyOp47
 70
     1
102
RTVSPropertyOp48
 70
     1
102
RTVSPropertyOp49
 70
     1
102
RTVSPropertyOp50
 70
     1
102
RTVSPropertyOp51
 70
     0
102
RTVSPropertyOp52
 70
     0
102
RTVSPropertyOp53
 70
     1
102
RTVSPropertyOp54
 70
     1
102
RTVSPropertyOp55
 70
     1
102
RTVSPropertyOp56
 70
     1
102
RTVSPropertyOp57
 70
     1
102
RTVSPropertyOp58
 70
     1
102
RTVSPropertyOp59
 70
     1
102
RTVSPropertyOp60
 70
     1
102
RTVSPropertyOp61
 70
     1
102
RTVSPropertyOp62
 70
     1
  0
XRECORD
  5
1F35
102
{ACAD_REACTORS
330
1F34
102
}
330
1F34
100
AcDbXrecord
280
     1
102
RTVSPost2010Prop28
280
     0
102
RTVSPost2010PropOp28
 70
     1
102
RTVSPost2010Prop29
280
     1
102
RTVSPost2010PropOp29
 70
     1
102
RTVSPost2010Prop30
280
     1
102
RTVSPost2010PropOp30
 70
     1
102
RTVSPost2010Prop31
280
     0
102
RTVSPost2010PropOp31
 70
     1
102
RTVSPost2010Prop32
280
     0
102
RTVSPost2010PropOp32
 70
     1
102
RTVSPost2010Prop33
280
     0
102
RTVSPost2010PropOp33
 70
     1
102
RTVSPost2010Prop34
280
     0
102
RTVSPost2010PropOp34
 70
     1
102
RTVSPost2010Prop35
280
     0
102
RTVSPost2010PropOp35
 70
     1
102
RTVSPost2010Prop36
280
     0
102
RTVSPost2010PropOp36
 70
     1
102
RTVSPost2010Prop37
 90
       50
102
RTVSPost2010PropOp37
 70
     1
102
RTVSPost2010Prop38
140
0.0
102
RTVSPost2010PropOp38
 70
     1
102
RTVSPost2010Prop39
140
1.0
102
RTVSPost2010PropOp39
 70
     1
102
RTVSPost2010Prop40
 90
        0
102
RTVSPost2010PropOp40
 70
     1
102
RTVSPost2010Prop41ColorIndex
 90
       18
102
RTVSPost2010Prop41ColorRGB
 90
        0
102
RTVSPost2010PropOp41
 70
     1
102
RTVSPost2010Prop42
 90
       50
102
RTVSPost2010PropOp42
 70
     1
102
RTVSPost2010Prop43
 90
        3
102
RTVSPost2010PropOp43
 70
     1
102
RTVSPost2010Prop44ColorIndex
 90
        5
102
RTVSPost2010Prop44ColorRGB
 90
      255
102
RTVSPost2010PropOp44
 70
     1
102
RTVSPost2010Prop45
280
     0
102
RTVSPost2010PropOp45
 70
     1
102
RTVSPost2010Prop46
 90
       50
102
RTVSPost2010PropOp46
 70
     1
102
RTVSPost2010Prop47
 90
       50
102
RTVSPost2010PropOp47
 70
     1
102
RTVSPost2010Prop48
 90
       50
102
RTVSPost2010PropOp48
 70
     1
102
RTVSPost2010Prop49
280
     0
102
RTVSPost2010PropOp49
 70
     1
102
RTVSPost2010Prop50
 90
       50
102
RTVSPost2010PropOp50
 70
     1
102
RTVSPost2010Prop51ColorIndex
 90
      256
102
RTVSPost2010Prop51ColorRGB
 90
-16777216
102
RTVSPost2010PropOp51
 70
     0
102
RTVSPost2010Prop52
140
1.0
102
RTVSPost2010PropOp52
 70
     0
102
RTVSPost2010Prop53
 90
        2
102
RTVSPost2010PropOp53
 70
     1
102
RTVSPost2010Prop54
  1
strokes_ogs.tif
102
RTVSPost2010PropOp54
 70
     1
102
RTVSPost2010Prop55
280
     0
102
RTVSPost2010PropOp55
 70
     1
102
RTVSPost2010Prop56
140
1.0
102
RTVSPost2010PropOp56
 70
     1
102
RTVSPost2010Prop57
140
1.0
102
RTVSPost2010PropOp57
 70
     1
102
RTVSPropertyOp0
 70
     1
102
RTVSPropertyOp1
 70
     1
102
RTVSPropertyOp2
 70
     1
102
RTVSPropertyOp3
 70
     1
102
RTVSPropertyOp4
 70
     1
102
RTVSPropertyOp5
 70
     1
102
RTVSPropertyOp6
 70
     1
102
RTVSPropertyOp7
 70
     1
102
RTVSPropertyOp8
 70
     1
102
RTVSPropertyOp9
 70
     1
102
RTVSPropertyOp10
 70
     1
102
RTVSPropertyOp11
 70
     1
102
RTVSPropertyOp12
 70
     1
102
RTVSPropertyOp13
 70
     1
102
RTVSPropertyOp14
 70
     1
102
RTVSPropertyOp15
 70
     1
102
RTVSPropertyOp16
 70
     1
102
RTVSPropertyOp17
 70
     1
102
RTVSPropertyOp18
 70
     1
102
RTVSPropertyOp19
 70
     1
102
RTVSPropertyOp20
 70
     1
102
RTVSPropertyOp21
 70
     1
102
RTVSPropertyOp22
 70
     1
102
RTVSPropertyOp23
 70
     1
102
RTVSPropertyOp24
 70
     1
102
RTVSPropertyOp25
 70
     1
102
RTVSPropertyOp26
 70
     1
102
RTVSPropertyOp27
 70
     1
102
RTVSPropertyOp28
 70
     1
102
RTVSPropertyOp29
 70
     1
102
RTVSPropertyOp30
 70
     1
102
RTVSPropertyOp31
 70
     1
102
RTVSPropertyOp32
 70
     1
102
RTVSPropertyOp33
 70
     1
102
RTVSPropertyOp34
 70
     1
102
RTVSPropertyOp35
 70
     1
102
RTVSPropertyOp36
 70
     1
102
RTVSPropertyOp37
 70
     1
102
RTVSPropertyOp38
 70
     1
102
RTVSPropertyOp39
 70
     1
102
RTVSPropertyOp40
 70
     1
102
RTVSPropertyOp41
 70
     1
102
RTVSPropertyOp42
 70
     1
102
RTVSPropertyOp43
 70
     1
102
RTVSPropertyOp44
 70
     1
102
RTVSPropertyOp45
 70
     1
102
RTVSPropertyOp46
 70
     1
102
RTVSPropertyOp47
 70
     1
102
RTVSPropertyOp48
 70
     1
102
RTVSPropertyOp49
 70
     1
102
RTVSPropertyOp50
 70
     1
102
RTVSPropertyOp51
 70
     0
102
RTVSPropertyOp52
 70
     0
102
RTVSPropertyOp53
 70
     1
102
RTVSPropertyOp54
 70
     1
102
RTVSPropertyOp55
 70
     1
102
RTVSPropertyOp56
 70
     1
102
RTVSPropertyOp57
 70
     1
102
RTVSPropertyOp58
 70
     1
102
RTVSPropertyOp59
 70
     1
102
RTVSPropertyOp60
 70
     1
102
RTVSPropertyOp61
 70
     1
102
RTVSPropertyOp62
 70
     1
  0
XRECORD
  5
1F33
102
{ACAD_REACTORS
330
1F32
102
}
330
1F32
100
AcDbXrecord
280
     1
102
RTVSPost2010Prop28
280
     0
102
RTVSPost2010PropOp28
 70
     1
102
RTVSPost2010Prop29
280
     1
102
RTVSPost2010PropOp29
 70
     1
102
RTVSPost2010Prop30
280
     1
102
RTVSPost2010PropOp30
 70
     1
102
RTVSPost2010Prop31
280
     0
102
RTVSPost2010PropOp31
 70
     1
102
RTVSPost2010Prop32
280
     0
102
RTVSPost2010PropOp32
 70
     1
102
RTVSPost2010Prop33
280
     0
102
RTVSPost2010PropOp33
 70
     1
102
RTVSPost2010Prop34
280
     0
102
RTVSPost2010PropOp34
 70
     1
102
RTVSPost2010Prop35
280
     0
102
RTVSPost2010PropOp35
 70
     1
102
RTVSPost2010Prop36
280
     0
102
RTVSPost2010PropOp36
 70
     1
102
RTVSPost2010Prop37
 90
       50
102
RTVSPost2010PropOp37
 70
     1
102
RTVSPost2010Prop38
140
0.0
102
RTVSPost2010PropOp38
 70
     1
102
RTVSPost2010Prop39
140
1.0
102
RTVSPost2010PropOp39
 70
     1
102
RTVSPost2010Prop40
 90
        0
102
RTVSPost2010PropOp40
 70
     1
102
RTVSPost2010Prop41ColorIndex
 90
       18
102
RTVSPost2010Prop41ColorRGB
 90
        0
102
RTVSPost2010PropOp41
 70
     1
102
RTVSPost2010Prop42
 90
       50
102
RTVSPost2010PropOp42
 70
     1
102
RTVSPost2010Prop43
 90
        3
102
RTVSPost2010PropOp43
 70
     1
102
RTVSPost2010Prop44ColorIndex
 90
        5
102
RTVSPost2010Prop44ColorRGB
 90
      255
102
RTVSPost2010PropOp44
 70
     1
102
RTVSPost2010Prop45
280
     0
102
RTVSPost2010PropOp45
 70
     1
102
RTVSPost2010Prop46
 90
       50
102
RTVSPost2010PropOp46
 70
     1
102
RTVSPost2010Prop47
 90
       50
102
RTVSPost2010PropOp47
 70
     1
102
RTVSPost2010Prop48
 90
       50
102
RTVSPost2010PropOp48
 70
     1
102
RTVSPost2010Prop49
280
     0
102
RTVSPost2010PropOp49
 70
     1
102
RTVSPost2010Prop50
 90
       50
102
RTVSPost2010PropOp50
 70
     1
102
RTVSPost2010Prop51ColorIndex
 90
      256
102
RTVSPost2010Prop51ColorRGB
 90
-16777216
102
RTVSPost2010PropOp51
 70
     0
102
RTVSPost2010Prop52
140
1.0
102
RTVSPost2010PropOp52
 70
     0
102
RTVSPost2010Prop53
 90
        2
102
RTVSPost2010PropOp53
 70
     1
102
RTVSPost2010Prop54
  1
strokes_ogs.tif
102
RTVSPost2010PropOp54
 70
     1
102
RTVSPost2010Prop55
280
     0
102
RTVSPost2010PropOp55
 70
     1
102
RTVSPost2010Prop56
140
1.0
102
RTVSPost2010PropOp56
 70
     1
102
RTVSPost2010Prop57
140
1.0
102
RTVSPost2010PropOp57
 70
     1
102
RTVSPropertyOp0
 70
     1
102
RTVSPropertyOp1
 70
     1
102
RTVSPropertyOp2
 70
     1
102
RTVSPropertyOp3
 70
     1
102
RTVSPropertyOp4
 70
     1
102
RTVSPropertyOp5
 70
     1
102
RTVSPropertyOp6
 70
     1
102
RTVSPropertyOp7
 70
     1
102
RTVSPropertyOp8
 70
     1
102
RTVSPropertyOp9
 70
     1
102
RTVSPropertyOp10
 70
     1
102
RTVSPropertyOp11
 70
     1
102
RTVSPropertyOp12
 70
     1
102
RTVSPropertyOp13
 70
     1
102
RTVSPropertyOp14
 70
     1
102
RTVSPropertyOp15
 70
     1
102
RTVSPropertyOp16
 70
     1
102
RTVSPropertyOp17
 70
     1
102
RTVSPropertyOp18
 70
     1
102
RTVSPropertyOp19
 70
     1
102
RTVSPropertyOp20
 70
     1
102
RTVSPropertyOp21
 70
     1
102
RTVSPropertyOp22
 70
     1
102
RTVSPropertyOp23
 70
     1
102
RTVSPropertyOp24
 70
     1
102
RTVSPropertyOp25
 70
     1
102
RTVSPropertyOp26
 70
     1
102
RTVSPropertyOp27
 70
     1
102
RTVSPropertyOp28
 70
     1
102
RTVSPropertyOp29
 70
     1
102
RTVSPropertyOp30
 70
     1
102
RTVSPropertyOp31
 70
     1
102
RTVSPropertyOp32
 70
     1
102
RTVSPropertyOp33
 70
     1
102
RTVSPropertyOp34
 70
     1
102
RTVSPropertyOp35
 70
     1
102
RTVSPropertyOp36
 70
     1
102
RTVSPropertyOp37
 70
     1
102
RTVSPropertyOp38
 70
     1
102
RTVSPropertyOp39
 70
     1
102
RTVSPropertyOp40
 70
     1
102
RTVSPropertyOp41
 70
     1
102
RTVSPropertyOp42
 70
     1
102
RTVSPropertyOp43
 70
     1
102
RTVSPropertyOp44
 70
     1
102
RTVSPropertyOp45
 70
     1
102
RTVSPropertyOp46
 70
     1
102
RTVSPropertyOp47
 70
     1
102
RTVSPropertyOp48
 70
     1
102
RTVSPropertyOp49
 70
     1
102
RTVSPropertyOp50
 70
     1
102
RTVSPropertyOp51
 70
     0
102
RTVSPropertyOp52
 70
     0
102
RTVSPropertyOp53
 70
     1
102
RTVSPropertyOp54
 70
     1
102
RTVSPropertyOp55
 70
     1
102
RTVSPropertyOp56
 70
     1
102
RTVSPropertyOp57
 70
     1
102
RTVSPropertyOp58
 70
     1
102
RTVSPropertyOp59
 70
     1
102
RTVSPropertyOp60
 70
     1
102
RTVSPropertyOp61
 70
     1
102
RTVSPropertyOp62
 70
     1
  0
XRECORD
  5
1F2D
102
{ACAD_REACTORS
330
1F2C
102
}
330
1F2C
100
AcDbXrecord
280
     1
102
RTVSPost2010Prop28
280
     0
102
RTVSPost2010PropOp28
 70
     1
102
RTVSPost2010Prop29
280
     1
102
RTVSPost2010PropOp29
 70
     1
102
RTVSPost2010Prop30
280
     1
102
RTVSPost2010PropOp30
 70
     1
102
RTVSPost2010Prop31
280
     0
102
RTVSPost2010PropOp31
 70
     1
102
RTVSPost2010Prop32
280
     0
102
RTVSPost2010PropOp32
 70
     1
102
RTVSPost2010Prop33
280
     0
102
RTVSPost2010PropOp33
 70
     1
102
RTVSPost2010Prop34
280
     0
102
RTVSPost2010PropOp34
 70
     1
102
RTVSPost2010Prop35
280
     0
102
RTVSPost2010PropOp35
 70
     1
102
RTVSPost2010Prop36
280
     0
102
RTVSPost2010PropOp36
 70
     1
102
RTVSPost2010Prop37
 90
       50
102
RTVSPost2010PropOp37
 70
     1
102
RTVSPost2010Prop38
140
0.0
102
RTVSPost2010PropOp38
 70
     1
102
RTVSPost2010Prop39
140
1.0
102
RTVSPost2010PropOp39
 70
     1
102
RTVSPost2010Prop40
 90
        0
102
RTVSPost2010PropOp40
 70
     1
102
RTVSPost2010Prop41ColorIndex
 90
       18
102
RTVSPost2010Prop41ColorRGB
 90
        0
102
RTVSPost2010PropOp41
 70
     1
102
RTVSPost2010Prop42
 90
       50
102
RTVSPost2010PropOp42
 70
     1
102
RTVSPost2010Prop43
 90
        3
102
RTVSPost2010PropOp43
 70
     1
102
RTVSPost2010Prop44ColorIndex
 90
        5
102
RTVSPost2010Prop44ColorRGB
 90
      255
102
RTVSPost2010PropOp44
 70
     1
102
RTVSPost2010Prop45
280
     0
102
RTVSPost2010PropOp45
 70
     1
102
RTVSPost2010Prop46
 90
       50
102
RTVSPost2010PropOp46
 70
     1
102
RTVSPost2010Prop47
 90
       50
102
RTVSPost2010PropOp47
 70
     1
102
RTVSPost2010Prop48
 90
       50
102
RTVSPost2010PropOp48
 70
     1
102
RTVSPost2010Prop49
280
     0
102
RTVSPost2010PropOp49
 70
     1
102
RTVSPost2010Prop50
 90
       50
102
RTVSPost2010PropOp50
 70
     1
102
RTVSPost2010Prop51ColorIndex
 90
      256
102
RTVSPost2010Prop51ColorRGB
 90
-16777216
102
RTVSPost2010PropOp51
 70
     0
102
RTVSPost2010Prop52
140
1.0
102
RTVSPost2010PropOp52
 70
     0
102
RTVSPost2010Prop53
 90
        2
102
RTVSPost2010PropOp53
 70
     1
102
RTVSPost2010Prop54
  1
strokes_ogs.tif
102
RTVSPost2010PropOp54
 70
     1
102
RTVSPost2010Prop55
280
     0
102
RTVSPost2010PropOp55
 70
     1
102
RTVSPost2010Prop56
140
1.0
102
RTVSPost2010PropOp56
 70
     1
102
RTVSPost2010Prop57
140
1.0
102
RTVSPost2010PropOp57
 70
     1
102
RTVSPropertyOp0
 70
     1
102
RTVSPropertyOp1
 70
     1
102
RTVSPropertyOp2
 70
     1
102
RTVSPropertyOp3
 70
     1
102
RTVSPropertyOp4
 70
     1
102
RTVSPropertyOp5
 70
     1
102
RTVSPropertyOp6
 70
     1
102
RTVSPropertyOp7
 70
     1
102
RTVSPropertyOp8
 70
     1
102
RTVSPropertyOp9
 70
     1
102
RTVSPropertyOp10
 70
     1
102
RTVSPropertyOp11
 70
     1
102
RTVSPropertyOp12
 70
     1
102
RTVSPropertyOp13
 70
     1
102
RTVSPropertyOp14
 70
     1
102
RTVSPropertyOp15
 70
     1
102
RTVSPropertyOp16
 70
     1
102
RTVSPropertyOp17
 70
     1
102
RTVSPropertyOp18
 70
     1
102
RTVSPropertyOp19
 70
     1
102
RTVSPropertyOp20
 70
     1
102
RTVSPropertyOp21
 70
     1
102
RTVSPropertyOp22
 70
     1
102
RTVSPropertyOp23
 70
     1
102
RTVSPropertyOp24
 70
     1
102
RTVSPropertyOp25
 70
     1
102
RTVSPropertyOp26
 70
     1
102
RTVSPropertyOp27
 70
     1
102
RTVSPropertyOp28
 70
     1
102
RTVSPropertyOp29
 70
     1
102
RTVSPropertyOp30
 70
     1
102
RTVSPropertyOp31
 70
     1
102
RTVSPropertyOp32
 70
     1
102
RTVSPropertyOp33
 70
     1
102
RTVSPropertyOp34
 70
     1
102
RTVSPropertyOp35
 70
     1
102
RTVSPropertyOp36
 70
     1
102
RTVSPropertyOp37
 70
     1
102
RTVSPropertyOp38
 70
     1
102
RTVSPropertyOp39
 70
     1
102
RTVSPropertyOp40
 70
     1
102
RTVSPropertyOp41
 70
     1
102
RTVSPropertyOp42
 70
     1
102
RTVSPropertyOp43
 70
     1
102
RTVSPropertyOp44
 70
     1
102
RTVSPropertyOp45
 70
     1
102
RTVSPropertyOp46
 70
     1
102
RTVSPropertyOp47
 70
     1
102
RTVSPropertyOp48
 70
     1
102
RTVSPropertyOp49
 70
     1
102
RTVSPropertyOp50
 70
     1
102
RTVSPropertyOp51
 70
     0
102
RTVSPropertyOp52
 70
     0
102
RTVSPropertyOp53
 70
     1
102
RTVSPropertyOp54
 70
     1
102
RTVSPropertyOp55
 70
     1
102
RTVSPropertyOp56
 70
     1
102
RTVSPropertyOp57
 70
     1
102
RTVSPropertyOp58
 70
     1
102
RTVSPropertyOp59
 70
     1
102
RTVSPropertyOp60
 70
     1
102
RTVSPropertyOp61
 70
     1
102
RTVSPropertyOp62
 70
     1
  0
XRECORD
  5
1F2F
102
{ACAD_REACTORS
330
1F2E
102
}
330
1F2E
100
AcDbXrecord
280
     1
102
RTVSPost2010Prop28
280
     0
102
RTVSPost2010PropOp28
 70
     1
102
RTVSPost2010Prop29
280
     1
102
RTVSPost2010PropOp29
 70
     1
102
RTVSPost2010Prop30
280
     1
102
RTVSPost2010PropOp30
 70
     1
102
RTVSPost2010Prop31
280
     0
102
RTVSPost2010PropOp31
 70
     1
102
RTVSPost2010Prop32
280
     0
102
RTVSPost2010PropOp32
 70
     1
102
RTVSPost2010Prop33
280
     0
102
RTVSPost2010PropOp33
 70
     1
102
RTVSPost2010Prop34
280
     0
102
RTVSPost2010PropOp34
 70
     1
102
RTVSPost2010Prop35
280
     0
102
RTVSPost2010PropOp35
 70
     1
102
RTVSPost2010Prop36
280
     0
102
RTVSPost2010PropOp36
 70
     1
102
RTVSPost2010Prop37
 90
       50
102
RTVSPost2010PropOp37
 70
     1
102
RTVSPost2010Prop38
140
0.0
102
RTVSPost2010PropOp38
 70
     1
102
RTVSPost2010Prop39
140
1.0
102
RTVSPost2010PropOp39
 70
     1
102
RTVSPost2010Prop40
 90
        0
102
RTVSPost2010PropOp40
 70
     1
102
RTVSPost2010Prop41ColorIndex
 90
       18
102
RTVSPost2010Prop41ColorRGB
 90
        0
102
RTVSPost2010PropOp41
 70
     1
102
RTVSPost2010Prop42
 90
       50
102
RTVSPost2010PropOp42
 70
     1
102
RTVSPost2010Prop43
 90
        3
102
RTVSPost2010PropOp43
 70
     1
102
RTVSPost2010Prop44ColorIndex
 90
        5
102
RTVSPost2010Prop44ColorRGB
 90
      255
102
RTVSPost2010PropOp44
 70
     1
102
RTVSPost2010Prop45
280
     0
102
RTVSPost2010PropOp45
 70
     1
102
RTVSPost2010Prop46
 90
       50
102
RTVSPost2010PropOp46
 70
     1
102
RTVSPost2010Prop47
 90
       50
102
RTVSPost2010PropOp47
 70
     1
102
RTVSPost2010Prop48
 90
       50
102
RTVSPost2010PropOp48
 70
     1
102
RTVSPost2010Prop49
280
     0
102
RTVSPost2010PropOp49
 70
     1
102
RTVSPost2010Prop50
 90
       50
102
RTVSPost2010PropOp50
 70
     1
102
RTVSPost2010Prop51ColorIndex
 90
      256
102
RTVSPost2010Prop51ColorRGB
 90
-16777216
102
RTVSPost2010PropOp51
 70
     0
102
RTVSPost2010Prop52
140
1.0
102
RTVSPost2010PropOp52
 70
     0
102
RTVSPost2010Prop53
 90
        2
102
RTVSPost2010PropOp53
 70
     1
102
RTVSPost2010Prop54
  1
strokes_ogs.tif
102
RTVSPost2010PropOp54
 70
     1
102
RTVSPost2010Prop55
280
     0
102
RTVSPost2010PropOp55
 70
     1
102
RTVSPost2010Prop56
140
1.0
102
RTVSPost2010PropOp56
 70
     1
102
RTVSPost2010Prop57
140
1.0
102
RTVSPost2010PropOp57
 70
     1
102
RTVSPropertyOp0
 70
     1
102
RTVSPropertyOp1
 70
     1
102
RTVSPropertyOp2
 70
     1
102
RTVSPropertyOp3
 70
     1
102
RTVSPropertyOp4
 70
     1
102
RTVSPropertyOp5
 70
     1
102
RTVSPropertyOp6
 70
     1
102
RTVSPropertyOp7
 70
     1
102
RTVSPropertyOp8
 70
     1
102
RTVSPropertyOp9
 70
     1
102
RTVSPropertyOp10
 70
     1
102
RTVSPropertyOp11
 70
     1
102
RTVSPropertyOp12
 70
     1
102
RTVSPropertyOp13
 70
     1
102
RTVSPropertyOp14
 70
     1
102
RTVSPropertyOp15
 70
     1
102
RTVSPropertyOp16
 70
     1
102
RTVSPropertyOp17
 70
     1
102
RTVSPropertyOp18
 70
     1
102
RTVSPropertyOp19
 70
     1
102
RTVSPropertyOp20
 70
     1
102
RTVSPropertyOp21
 70
     1
102
RTVSPropertyOp22
 70
     1
102
RTVSPropertyOp23
 70
     1
102
RTVSPropertyOp24
 70
     1
102
RTVSPropertyOp25
 70
     1
102
RTVSPropertyOp26
 70
     1
102
RTVSPropertyOp27
 70
     1
102
RTVSPropertyOp28
 70
     1
102
RTVSPropertyOp29
 70
     1
102
RTVSPropertyOp30
 70
     1
102
RTVSPropertyOp31
 70
     1
102
RTVSPropertyOp32
 70
     1
102
RTVSPropertyOp33
 70
     1
102
RTVSPropertyOp34
 70
     1
102
RTVSPropertyOp35
 70
     1
102
RTVSPropertyOp36
 70
     1
102
RTVSPropertyOp37
 70
     1
102
RTVSPropertyOp38
 70
     1
102
RTVSPropertyOp39
 70
     1
102
RTVSPropertyOp40
 70
     1
102
RTVSPropertyOp41
 70
     1
102
RTVSPropertyOp42
 70
     1
102
RTVSPropertyOp43
 70
     1
102
RTVSPropertyOp44
 70
     1
102
RTVSPropertyOp45
 70
     1
102
RTVSPropertyOp46
 70
     1
102
RTVSPropertyOp47
 70
     1
102
RTVSPropertyOp48
 70
     1
102
RTVSPropertyOp49
 70
     1
102
RTVSPropertyOp50
 70
     1
102
RTVSPropertyOp51
 70
     0
102
RTVSPropertyOp52
 70
     0
102
RTVSPropertyOp53
 70
     1
102
RTVSPropertyOp54
 70
     1
102
RTVSPropertyOp55
 70
     1
102
RTVSPropertyOp56
 70
     1
102
RTVSPropertyOp57
 70
     1
102
RTVSPropertyOp58
 70
     1
102
RTVSPropertyOp59
 70
     1
102
RTVSPropertyOp60
 70
     1
102
RTVSPropertyOp61
 70
     1
102
RTVSPropertyOp62
 70
     1
  0
XRECORD
  5
1F25
102
{ACAD_REACTORS
330
1F24
102
}
330
1F24
100
AcDbXrecord
280
     1
102
RTVSPost2010Prop28
280
     0
102
RTVSPost2010PropOp28
 70
     1
102
RTVSPost2010Prop29
280
     1
102
RTVSPost2010PropOp29
 70
     1
102
RTVSPost2010Prop30
280
     1
102
RTVSPost2010PropOp30
 70
     1
102
RTVSPost2010Prop31
280
     0
102
RTVSPost2010PropOp31
 70
     1
102
RTVSPost2010Prop32
280
     0
102
RTVSPost2010PropOp32
 70
     1
102
RTVSPost2010Prop33
280
     0
102
RTVSPost2010PropOp33
 70
     1
102
RTVSPost2010Prop34
280
     0
102
RTVSPost2010PropOp34
 70
     1
102
RTVSPost2010Prop35
280
     0
102
RTVSPost2010PropOp35
 70
     1
102
RTVSPost2010Prop36
280
     0
102
RTVSPost2010PropOp36
 70
     1
102
RTVSPost2010Prop37
 90
       50
102
RTVSPost2010PropOp37
 70
     1
102
RTVSPost2010Prop38
140
0.0
102
RTVSPost2010PropOp38
 70
     1
102
RTVSPost2010Prop39
140
1.0
102
RTVSPost2010PropOp39
 70
     1
102
RTVSPost2010Prop40
 90
        0
102
RTVSPost2010PropOp40
 70
     1
102
RTVSPost2010Prop41ColorIndex
 90
       18
102
RTVSPost2010Prop41ColorRGB
 90
        0
102
RTVSPost2010PropOp41
 70
     1
102
RTVSPost2010Prop42
 90
       50
102
RTVSPost2010PropOp42
 70
     1
102
RTVSPost2010Prop43
 90
        3
102
RTVSPost2010PropOp43
 70
     1
102
RTVSPost2010Prop44ColorIndex
 90
        5
102
RTVSPost2010Prop44ColorRGB
 90
      255
102
RTVSPost2010PropOp44
 70
     1
102
RTVSPost2010Prop45
280
     0
102
RTVSPost2010PropOp45
 70
     1
102
RTVSPost2010Prop46
 90
       50
102
RTVSPost2010PropOp46
 70
     1
102
RTVSPost2010Prop47
 90
       50
102
RTVSPost2010PropOp47
 70
     1
102
RTVSPost2010Prop48
 90
       50
102
RTVSPost2010PropOp48
 70
     1
102
RTVSPost2010Prop49
280
     0
102
RTVSPost2010PropOp49
 70
     1
102
RTVSPost2010Prop50
 90
       50
102
RTVSPost2010PropOp50
 70
     1
102
RTVSPost2010Prop51ColorIndex
 90
      256
102
RTVSPost2010Prop51ColorRGB
 90
-16777216
102
RTVSPost2010PropOp51
 70
     0
102
RTVSPost2010Prop52
140
1.0
102
RTVSPost2010PropOp52
 70
     0
102
RTVSPost2010Prop53
 90
        2
102
RTVSPost2010PropOp53
 70
     1
102
RTVSPost2010Prop54
  1
strokes_ogs.tif
102
RTVSPost2010PropOp54
 70
     1
102
RTVSPost2010Prop55
280
     0
102
RTVSPost2010PropOp55
 70
     1
102
RTVSPost2010Prop56
140
1.0
102
RTVSPost2010PropOp56
 70
     1
102
RTVSPost2010Prop57
140
1.0
102
RTVSPost2010PropOp57
 70
     1
102
RTVSPropertyOp0
 70
     1
102
RTVSPropertyOp1
 70
     1
102
RTVSPropertyOp2
 70
     1
102
RTVSPropertyOp3
 70
     1
102
RTVSPropertyOp4
 70
     1
102
RTVSPropertyOp5
 70
     1
102
RTVSPropertyOp6
 70
     1
102
RTVSPropertyOp7
 70
     1
102
RTVSPropertyOp8
 70
     1
102
RTVSPropertyOp9
 70
     1
102
RTVSPropertyOp10
 70
     1
102
RTVSPropertyOp11
 70
     1
102
RTVSPropertyOp12
 70
     1
102
RTVSPropertyOp13
 70
     1
102
RTVSPropertyOp14
 70
     1
102
RTVSPropertyOp15
 70
     1
102
RTVSPropertyOp16
 70
     1
102
RTVSPropertyOp17
 70
     1
102
RTVSPropertyOp18
 70
     1
102
RTVSPropertyOp19
 70
     1
102
RTVSPropertyOp20
 70
     1
102
RTVSPropertyOp21
 70
     1
102
RTVSPropertyOp22
 70
     1
102
RTVSPropertyOp23
 70
     1
102
RTVSPropertyOp24
 70
     1
102
RTVSPropertyOp25
 70
     1
102
RTVSPropertyOp26
 70
     1
102
RTVSPropertyOp27
 70
     1
102
RTVSPropertyOp28
 70
     1
102
RTVSPropertyOp29
 70
     1
102
RTVSPropertyOp30
 70
     1
102
RTVSPropertyOp31
 70
     1
102
RTVSPropertyOp32
 70
     1
102
RTVSPropertyOp33
 70
     1
102
RTVSPropertyOp34
 70
     1
102
RTVSPropertyOp35
 70
     1
102
RTVSPropertyOp36
 70
     1
102
RTVSPropertyOp37
 70
     1
102
RTVSPropertyOp38
 70
     1
102
RTVSPropertyOp39
 70
     1
102
RTVSPropertyOp40
 70
     1
102
RTVSPropertyOp41
 70
     1
102
RTVSPropertyOp42
 70
     1
102
RTVSPropertyOp43
 70
     1
102
RTVSPropertyOp44
 70
     1
102
RTVSPropertyOp45
 70
     1
102
RTVSPropertyOp46
 70
     1
102
RTVSPropertyOp47
 70
     1
102
RTVSPropertyOp48
 70
     1
102
RTVSPropertyOp49
 70
     1
102
RTVSPropertyOp50
 70
     1
102
RTVSPropertyOp51
 70
     0
102
RTVSPropertyOp52
 70
     0
102
RTVSPropertyOp53
 70
     1
102
RTVSPropertyOp54
 70
     1
102
RTVSPropertyOp55
 70
     1
102
RTVSPropertyOp56
 70
     1
102
RTVSPropertyOp57
 70
     1
102
RTVSPropertyOp58
 70
     1
102
RTVSPropertyOp59
 70
     1
102
RTVSPropertyOp60
 70
     1
102
RTVSPropertyOp61
 70
     1
102
RTVSPropertyOp62
 70
     1
  0
XRECORD
  5
1F19
102
{ACAD_REACTORS
330
1F18
102
}
330
1F18
100
AcDbXrecord
280
     1
102
RTVSPost2010Prop28
280
     0
102
RTVSPost2010PropOp28
 70
     1
102
RTVSPost2010Prop29
280
     1
102
RTVSPost2010PropOp29
 70
     1
102
RTVSPost2010Prop30
280
     1
102
RTVSPost2010PropOp30
 70
     1
102
RTVSPost2010Prop31
280
     0
102
RTVSPost2010PropOp31
 70
     1
102
RTVSPost2010Prop32
280
     0
102
RTVSPost2010PropOp32
 70
     1
102
RTVSPost2010Prop33
280
     0
102
RTVSPost2010PropOp33
 70
     1
102
RTVSPost2010Prop34
280
     0
102
RTVSPost2010PropOp34
 70
     1
102
RTVSPost2010Prop35
280
     0
102
RTVSPost2010PropOp35
 70
     1
102
RTVSPost2010Prop36
280
     0
102
RTVSPost2010PropOp36
 70
     1
102
RTVSPost2010Prop37
 90
       50
102
RTVSPost2010PropOp37
 70
     1
102
RTVSPost2010Prop38
140
0.0
102
RTVSPost2010PropOp38
 70
     1
102
RTVSPost2010Prop39
140
1.0
102
RTVSPost2010PropOp39
 70
     1
102
RTVSPost2010Prop40
 90
        0
102
RTVSPost2010PropOp40
 70
     1
102
RTVSPost2010Prop41ColorIndex
 90
       18
102
RTVSPost2010Prop41ColorRGB
 90
        0
102
RTVSPost2010PropOp41
 70
     1
102
RTVSPost2010Prop42
 90
       50
102
RTVSPost2010PropOp42
 70
     1
102
RTVSPost2010Prop43
 90
        3
102
RTVSPost2010PropOp43
 70
     1
102
RTVSPost2010Prop44ColorIndex
 90
        5
102
RTVSPost2010Prop44ColorRGB
 90
      255
102
RTVSPost2010PropOp44
 70
     1
102
RTVSPost2010Prop45
280
     0
102
RTVSPost2010PropOp45
 70
     1
102
RTVSPost2010Prop46
 90
       50
102
RTVSPost2010PropOp46
 70
     1
102
RTVSPost2010Prop47
 90
       50
102
RTVSPost2010PropOp47
 70
     1
102
RTVSPost2010Prop48
 90
       50
102
RTVSPost2010PropOp48
 70
     1
102
RTVSPost2010Prop49
280
     0
102
RTVSPost2010PropOp49
 70
     1
102
RTVSPost2010Prop50
 90
       50
102
RTVSPost2010PropOp50
 70
     1
102
RTVSPost2010Prop51ColorIndex
 90
      256
102
RTVSPost2010Prop51ColorRGB
 90
-16777216
102
RTVSPost2010PropOp51
 70
     0
102
RTVSPost2010Prop52
140
1.0
102
RTVSPost2010PropOp52
 70
     0
102
RTVSPost2010Prop53
 90
        2
102
RTVSPost2010PropOp53
 70
     1
102
RTVSPost2010Prop54
  1
strokes_ogs.tif
102
RTVSPost2010PropOp54
 70
     1
102
RTVSPost2010Prop55
280
     0
102
RTVSPost2010PropOp55
 70
     1
102
RTVSPost2010Prop56
140
1.0
102
RTVSPost2010PropOp56
 70
     1
102
RTVSPost2010Prop57
140
1.0
102
RTVSPost2010PropOp57
 70
     1
102
RTVSPropertyOp0
 70
     1
102
RTVSPropertyOp1
 70
     1
102
RTVSPropertyOp2
 70
     1
102
RTVSPropertyOp3
 70
     1
102
RTVSPropertyOp4
 70
     1
102
RTVSPropertyOp5
 70
     1
102
RTVSPropertyOp6
 70
     1
102
RTVSPropertyOp7
 70
     1
102
RTVSPropertyOp8
 70
     1
102
RTVSPropertyOp9
 70
     1
102
RTVSPropertyOp10
 70
     1
102
RTVSPropertyOp11
 70
     1
102
RTVSPropertyOp12
 70
     1
102
RTVSPropertyOp13
 70
     1
102
RTVSPropertyOp14
 70
     1
102
RTVSPropertyOp15
 70
     1
102
RTVSPropertyOp16
 70
     1
102
RTVSPropertyOp17
 70
     1
102
RTVSPropertyOp18
 70
     1
102
RTVSPropertyOp19
 70
     1
102
RTVSPropertyOp20
 70
     1
102
RTVSPropertyOp21
 70
     1
102
RTVSPropertyOp22
 70
     1
102
RTVSPropertyOp23
 70
     1
102
RTVSPropertyOp24
 70
     1
102
RTVSPropertyOp25
 70
     1
102
RTVSPropertyOp26
 70
     1
102
RTVSPropertyOp27
 70
     1
102
RTVSPropertyOp28
 70
     1
102
RTVSPropertyOp29
 70
     1
102
RTVSPropertyOp30
 70
     1
102
RTVSPropertyOp31
 70
     1
102
RTVSPropertyOp32
 70
     1
102
RTVSPropertyOp33
 70
     1
102
RTVSPropertyOp34
 70
     1
102
RTVSPropertyOp35
 70
     1
102
RTVSPropertyOp36
 70
     1
102
RTVSPropertyOp37
 70
     1
102
RTVSPropertyOp38
 70
     1
102
RTVSPropertyOp39
 70
     1
102
RTVSPropertyOp40
 70
     1
102
RTVSPropertyOp41
 70
     1
102
RTVSPropertyOp42
 70
     1
102
RTVSPropertyOp43
 70
     1
102
RTVSPropertyOp44
 70
     1
102
RTVSPropertyOp45
 70
     1
102
RTVSPropertyOp46
 70
     1
102
RTVSPropertyOp47
 70
     1
102
RTVSPropertyOp48
 70
     1
102
RTVSPropertyOp49
 70
     1
102
RTVSPropertyOp50
 70
     1
102
RTVSPropertyOp51
 70
     0
102
RTVSPropertyOp52
 70
     0
102
RTVSPropertyOp53
 70
     1
102
RTVSPropertyOp54
 70
     1
102
RTVSPropertyOp55
 70
     1
102
RTVSPropertyOp56
 70
     1
102
RTVSPropertyOp57
 70
     1
102
RTVSPropertyOp58
 70
     1
102
RTVSPropertyOp59
 70
     1
102
RTVSPropertyOp60
 70
     1
102
RTVSPropertyOp61
 70
     1
102
RTVSPropertyOp62
 70
     1
  0
XRECORD
  5
1F31
102
{ACAD_REACTORS
330
1F30
102
}
330
1F30
100
AcDbXrecord
280
     1
102
RTVSPost2010Prop28
280
     0
102
RTVSPost2010PropOp28
 70
     1
102
RTVSPost2010Prop29
280
     1
102
RTVSPost2010PropOp29
 70
     1
102
RTVSPost2010Prop30
280
     1
102
RTVSPost2010PropOp30
 70
     1
102
RTVSPost2010Prop31
280
     0
102
RTVSPost2010PropOp31
 70
     1
102
RTVSPost2010Prop32
280
     0
102
RTVSPost2010PropOp32
 70
     1
102
RTVSPost2010Prop33
280
     0
102
RTVSPost2010PropOp33
 70
     1
102
RTVSPost2010Prop34
280
     0
102
RTVSPost2010PropOp34
 70
     1
102
RTVSPost2010Prop35
280
     0
102
RTVSPost2010PropOp35
 70
     1
102
RTVSPost2010Prop36
280
     0
102
RTVSPost2010PropOp36
 70
     1
102
RTVSPost2010Prop37
 90
       50
102
RTVSPost2010PropOp37
 70
     1
102
RTVSPost2010Prop38
140
0.0
102
RTVSPost2010PropOp38
 70
     1
102
RTVSPost2010Prop39
140
1.0
102
RTVSPost2010PropOp39
 70
     1
102
RTVSPost2010Prop40
 90
        0
102
RTVSPost2010PropOp40
 70
     1
102
RTVSPost2010Prop41ColorIndex
 90
       18
102
RTVSPost2010Prop41ColorRGB
 90
        0
102
RTVSPost2010PropOp41
 70
     1
102
RTVSPost2010Prop42
 90
       50
102
RTVSPost2010PropOp42
 70
     1
102
RTVSPost2010Prop43
 90
        3
102
RTVSPost2010PropOp43
 70
     1
102
RTVSPost2010Prop44ColorIndex
 90
        5
102
RTVSPost2010Prop44ColorRGB
 90
      255
102
RTVSPost2010PropOp44
 70
     1
102
RTVSPost2010Prop45
280
     0
102
RTVSPost2010PropOp45
 70
     1
102
RTVSPost2010Prop46
 90
       50
102
RTVSPost2010PropOp46
 70
     1
102
RTVSPost2010Prop47
 90
       50
102
RTVSPost2010PropOp47
 70
     1
102
RTVSPost2010Prop48
 90
       50
102
RTVSPost2010PropOp48
 70
     1
102
RTVSPost2010Prop49
280
     0
102
RTVSPost2010PropOp49
 70
     1
102
RTVSPost2010Prop50
 90
       50
102
RTVSPost2010PropOp50
 70
     1
102
RTVSPost2010Prop51ColorIndex
 90
      256
102
RTVSPost2010Prop51ColorRGB
 90
-16777216
102
RTVSPost2010PropOp51
 70
     0
102
RTVSPost2010Prop52
140
1.0
102
RTVSPost2010PropOp52
 70
     0
102
RTVSPost2010Prop53
 90
        2
102
RTVSPost2010PropOp53
 70
     1
102
RTVSPost2010Prop54
  1
strokes_ogs.tif
102
RTVSPost2010PropOp54
 70
     1
102
RTVSPost2010Prop55
280
     0
102
RTVSPost2010PropOp55
 70
     1
102
RTVSPost2010Prop56
140
1.0
102
RTVSPost2010PropOp56
 70
     1
102
RTVSPost2010Prop57
140
1.0
102
RTVSPost2010PropOp57
 70
     1
102
RTVSPropertyOp0
 70
     1
102
RTVSPropertyOp1
 70
     1
102
RTVSPropertyOp2
 70
     1
102
RTVSPropertyOp3
 70
     1
102
RTVSPropertyOp4
 70
     1
102
RTVSPropertyOp5
 70
     1
102
RTVSPropertyOp6
 70
     1
102
RTVSPropertyOp7
 70
     1
102
RTVSPropertyOp8
 70
     1
102
RTVSPropertyOp9
 70
     1
102
RTVSPropertyOp10
 70
     1
102
RTVSPropertyOp11
 70
     1
102
RTVSPropertyOp12
 70
     1
102
RTVSPropertyOp13
 70
     1
102
RTVSPropertyOp14
 70
     1
102
RTVSPropertyOp15
 70
     1
102
RTVSPropertyOp16
 70
     1
102
RTVSPropertyOp17
 70
     1
102
RTVSPropertyOp18
 70
     1
102
RTVSPropertyOp19
 70
     1
102
RTVSPropertyOp20
 70
     1
102
RTVSPropertyOp21
 70
     1
102
RTVSPropertyOp22
 70
     1
102
RTVSPropertyOp23
 70
     1
102
RTVSPropertyOp24
 70
     1
102
RTVSPropertyOp25
 70
     1
102
RTVSPropertyOp26
 70
     1
102
RTVSPropertyOp27
 70
     1
102
RTVSPropertyOp28
 70
     1
102
RTVSPropertyOp29
 70
     1
102
RTVSPropertyOp30
 70
     1
102
RTVSPropertyOp31
 70
     1
102
RTVSPropertyOp32
 70
     1
102
RTVSPropertyOp33
 70
     1
102
RTVSPropertyOp34
 70
     1
102
RTVSPropertyOp35
 70
     1
102
RTVSPropertyOp36
 70
     1
102
RTVSPropertyOp37
 70
     1
102
RTVSPropertyOp38
 70
     1
102
RTVSPropertyOp39
 70
     1
102
RTVSPropertyOp40
 70
     1
102
RTVSPropertyOp41
 70
     1
102
RTVSPropertyOp42
 70
     1
102
RTVSPropertyOp43
 70
     1
102
RTVSPropertyOp44
 70
     1
102
RTVSPropertyOp45
 70
     1
102
RTVSPropertyOp46
 70
     1
102
RTVSPropertyOp47
 70
     1
102
RTVSPropertyOp48
 70
     1
102
RTVSPropertyOp49
 70
     1
102
RTVSPropertyOp50
 70
     1
102
RTVSPropertyOp51
 70
     0
102
RTVSPropertyOp52
 70
     0
102
RTVSPropertyOp53
 70
     1
102
RTVSPropertyOp54
 70
     1
102
RTVSPropertyOp55
 70
     1
102
RTVSPropertyOp56
 70
     1
102
RTVSPropertyOp57
 70
     1
102
RTVSPropertyOp58
 70
     1
102
RTVSPropertyOp59
 70
     1
102
RTVSPropertyOp60
 70
     1
102
RTVSPropertyOp61
 70
     1
102
RTVSPropertyOp62
 70
     1
  0
ENDSEC
  0
EOF
