  0
SECTION
  2
HEADER
  9
$ACADVER
  1
AC1015
  9
$DWGCODEPAGE
  3
ANSI_932
  9
$LTSCALE
 40
20.0
  9
$FILLMODE
 70
     1
  9
$CLAYER
  8
0
  9
$PDMODE
 70
     0
  9
$SPLFRAME
 70
     0
  9
$SPLINETYPE
 70
     6
  9
$SPLINESEGS
 70
     8
  9
$DIMASZ
 40
2.000000
  9
$DIMEXE
 40
1.500000
  9
$DIMEXO
 40
0.800000
  9
$DIMTAD
 70
     1
  9
$DIMTIH
 70
     0
  9
$DIMTOH
 70
     0
  9
$DIMTVP
 40
0.500000
  9
$DIMTXT
 40
3.100000
  9
$EXTMIN
 10
0.000000
 20
0.000000
 30
0.000000
  9
$EXTMAX
 10
297.000000
 20
420.000000
 30
0.000000
  9
$MEASUREMENT
 70
  1
  9
$LIMMIN
 10
0.000000
 20
0.000000
  9
$LIMMAX
 10
297.000000
 20
420.000000
  9
$HANDSEED
  5
DA
  9
$LWDISPLAY
290
     0
  9
$DIMBLK
  1
_OPEN
  9
$DIMDEC
 70
     2
  9
$DIMADEC
 70
     2
  9
$DIMAUNIT
 70
     0
  9
$DIMZIN
 70
     8
  9
$DIMAZIN
 70
     2
  9
$DIMTOFL
 70
     1
  0
ENDSEC
  0
SECTION
  2
CLASSES
  0
ENDSEC
  0
SECTION
  2
TABLES
  0
TABLE
  2
VPORT
  5
AA
100
AcDbSymbolTable
 70
     1
  0
VPORT
  5
AB
100
AcDbSymbolTableRecord
100
AcDbViewportTableRecord
  2
*ACTIVE
 70
     0
 12
150.412023
 22
68.360824
 40
116.721648
 41
2.405929
  0
ENDTAB
  0
TABLE
  2
LTYPE
  5
AC
100
AcDbSymbolTable
 70
     2
  0
LTYPE
  5
AD
100
AcDbSymbolTableRecord
100
AcDbLinetypeTableRecord
  2
BYBLOCK
 70
     0
  3

 72
    65
 73
     0
 40
0.0
  0
LTYPE
  5
AE
100
AcDbSymbolTableRecord
100
AcDbLinetypeTableRecord
  2
BYLAYER
 70
     0
  3

 72
    65
 73
     0
 40
0.0
  0
LTYPE
  5
AF
100
AcDbSymbolTableRecord
100
AcDbLinetypeTableRecord
  2
CONTINUOUS
 70
     0
  3
Solid line (NEC CAE2D for Win R16.0 : 2021.03.11)
 72
    65
 73
     0
 40
0.0
  0
LTYPE
  5
B0
100
AcDbSymbolTableRecord
100
AcDbLinetypeTableRecord
  2
CENTER
 70
     0
  3
____ _ ____ _ ____ _ ____ _ ____ _ ____
 72
    65
 73
     4
 40
2.0
 49
1.25
 74
     0
 49
-0.25
 74
     0
 49
0.25
 74
     0
 49
-0.25
 74
     0
  0
ENDTAB
  0
TABLE
  2
LAYER
  5
B1
100
AcDbSymbolTable
 70
    10
  0
LAYER
  5
B2
100
AcDbSymbolTableRecord
100
AcDbLayerTableRecord
  2
0
 70
     0
 62
     7
  6
CONTINUOUS
370
    -3
390

  0
LAYER
  5
B3
100
AcDbSymbolTableRecord
100
AcDbLayerTableRecord
  2
DXF0
 70
     0
 62
     7
  6
CONTINUOUS
370
    -3
390

  0
LAYER
  5
B4
100
AcDbSymbolTableRecord
100
AcDbLayerTableRecord
  2
4
 70
     0
 62
     1
  6
CONTINUOUS
370
    -3
390

  0
LAYER
  5
B5
100
AcDbSymbolTableRecord
100
AcDbLayerTableRecord
  2
5
 70
     0
 62
     6
  6
CONTINUOUS
370
    -3
390

  0
LAYER
  5
B6
100
AcDbSymbolTableRecord
100
AcDbLayerTableRecord
  2
1
 70
     0
 62
     7
  6
CONTINUOUS
370
    -3
390

  0
LAYER
  5
B7
100
AcDbSymbolTableRecord
100
AcDbLayerTableRecord
  2
2
 70
     0
 62
     4
  6
CONTINUOUS
370
    -3
390

  0
LAYER
  5
B8
100
AcDbSymbolTableRecord
100
AcDbLayerTableRecord
  2
3
 70
     0
 62
     2
  6
CONTINUOUS
370
    -3
390

  0
LAYER
  5
B9
100
AcDbSymbolTableRecord
100
AcDbLayerTableRecord
  2
6
 70
     0
 62
     5
  6
CONTINUOUS
370
    -3
390

  0
LAYER
  5
BA
100
AcDbSymbolTableRecord
100
AcDbLayerTableRecord
  2
7
 70
     0
 62
     7
  6
CONTINUOUS
370
    -3
390

  0
LAYER
  5
BB
100
AcDbSymbolTableRecord
100
AcDbLayerTableRecord
  2
DXF1023
 70
     0
 62
    16
  6
CONTINUOUS
370
    -3
390

  0
ENDTAB
  0
TABLE
  2
STYLE
  5
BC
100
AcDbSymbolTable
 70
     4
  0
STYLE
  5
BD
100
AcDbSymbolTableRecord
100
AcDbTextStyleTableRecord
  2
STANDARD
 70
    64
 40
0.0
 41
1.0
 50
0.0
 71
     0
 42
3.000000000000000
  3
TXT
  4

  0
STYLE
  5
BE
100
AcDbSymbolTableRecord
100
AcDbTextStyleTableRecord
  2
ANKTATE
 70
    68
 40
0.0
 41
1.0
 50
0.0
 71
     0
 42
3.000000000000000
  3
TXT
  4

  0
STYLE
  5
BF
100
AcDbSymbolTableRecord
100
AcDbTextStyleTableRecord
  2
KNJYOKO
 70
    64
 40
0.0
 41
1.0
 50
0.0
 71
     0
 42
3.000000000000000
  3
TXT
  4
BIGFONT
  0
STYLE
  5
C0
100
AcDbSymbolTableRecord
100
AcDbTextStyleTableRecord
  2
KNJTATE
 70
    68
 40
0.0
 41
1.0
 50
0.0
 71
     0
 42
3.000000000000000
  3
TXT
  4
BIGFONT
  0
ENDTAB
  0
TABLE
  2
VIEW
  5
C1
100
AcDbSymbolTable
 70
     0
  0
ENDTAB
  0
TABLE
  2
UCS
  5
C2
100
AcDbSymbolTable
 70
     0
  0
ENDTAB
  0
TABLE
  2
APPID
  5
C3
100
AcDbSymbolTable
 70
     1
  0
APPID
  5
C4
100
AcDbSymbolTableRecord
100
AcDbRegAppTableRecord
  2
ACAD
 70
     0
  0
ENDTAB
  0
TABLE
  2
DIMSTYLE
  5
C5
100
AcDbSymbolTable
 70
     2
100
AcDbDimStyleTable
  0
DIMSTYLE
105
C6
100
AcDbSymbolTableRecord
100
AcDbDimStyleTableRecord
  2
STANDARD
 70
     0
 41
2.000000
 44
1.500000
 42
0.800000
145
0.661290
140
3.100000
144
1.000000
146
0.645161
340
BD
  0
DIMSTYLE
105
C7
100
AcDbSymbolTableRecord
100
AcDbDimStyleTableRecord
  2
DXF001
 70
     0
 41
2.000000
 44
1.500000
 42
0.800000
145
0.661290
140
3.100000
144
1.000000
146
0.645161
 77
     1
 73
     0
 74
     0
271
     2
179
     2
275
     0
 78
     8
 79
     2
172
     1
340
BD
  0
ENDTAB
  0
TABLE
  2
BLOCK_RECORD
  5
C8
100
AcDbSymbolTable
 70
    12
  0
BLOCK_RECORD
  5
C9
100
AcDbSymbolTableRecord
100
AcDbBlockTableRecord
  2
*MODEL_SPACE
  0
BLOCK_RECORD
  5
CA
100
AcDbSymbolTableRecord
100
AcDbBlockTableRecord
  2
*PAPER_SPACE
  0
BLOCK_RECORD
  5
CB
100
AcDbSymbolTableRecord
100
AcDbBlockTableRecord
  2
*PAPER_SPACE0
  0
BLOCK_RECORD
  5
1
100
AcDbSymbolTableRecord
100
AcDbBlockTableRecord
  2
_NONE
  0
BLOCK_RECORD
  5
4
100
AcDbSymbolTableRecord
100
AcDbBlockTableRecord
  2
_CLOSED
  0
BLOCK_RECORD
  5
B
100
AcDbSymbolTableRecord
100
AcDbBlockTableRecord
  2
_DOT
  0
BLOCK_RECORD
  5
13
100
AcDbSymbolTableRecord
100
AcDbBlockTableRecord
  2
_OPEN
  0
BLOCK_RECORD
  5
19
100
AcDbSymbolTableRecord
100
AcDbBlockTableRecord
  2
_ORIGIN
  0
BLOCK_RECORD
  5
1E
100
AcDbSymbolTableRecord
100
AcDbBlockTableRecord
  2
_OPEN30
  0
BLOCK_RECORD
  5
24
100
AcDbSymbolTableRecord
100
AcDbBlockTableRecord
  2
_BOXFILLED
  0
BLOCK_RECORD
  5
29
100
AcDbSymbolTableRecord
100
AcDbBlockTableRecord
  2
_BOXBLANK
  0
BLOCK_RECORD
  5
31
100
AcDbSymbolTableRecord
100
AcDbBlockTableRecord
  2
_OBLIQUE
  0
BLOCK_RECORD
  5
35
100
AcDbSymbolTableRecord
100
AcDbBlockTableRecord
  2
_OPEN90
  0
BLOCK_RECORD
  5
3B
100
AcDbSymbolTableRecord
100
AcDbBlockTableRecord
  2
_CLOSEDBLANK
  0
BLOCK_RECORD
  5
41
100
AcDbSymbolTableRecord
100
AcDbBlockTableRecord
  2
_DOTBLANK
  0
ENDTAB
  0
ENDSEC
  0
SECTION
  2
BLOCKS
  0
BLOCK
  5
CC
100
AcDbEntity
  8
0
100
AcDbBlockBegin
  2
*MODEL_SPACE
 70
     0
 10
0.0
 20
0.0
 30
0.0
  3
*MODEL_SPACE
  1

  0
ENDBLK
  5
CD
100
AcDbEntity
  8
0
100
AcDbBlockEnd
  0
BLOCK
  5
CE
100
AcDbEntity
  8
0
100
AcDbBlockBegin
  2
*PAPER_SPACE
 70
     0
 10
0.0
 20
0.0
 30
0.0
  3
*PAPER_SPACE
  1

  0
ENDBLK
  5
CF
100
AcDbEntity
  8
0
100
AcDbBlockEnd
  0
BLOCK
  5
D0
100
AcDbEntity
  8
0
100
AcDbBlockBegin
  2
*PAPER_SPACE0
 70
     0
 10
0.0
 20
0.0
 30
0.0
  3
*PAPER_SPACE0
  1

  0
ENDBLK
  5
D1
100
AcDbEntity
  8
0
100
AcDbBlockEnd
  0
BLOCK
  5
2
330
1
100
AcDbEntity
  8
0
100
AcDbBlockBegin
  2
_NONE
 70
     0
 10
0.0
 20
0.0
 30
0.0
  3
_NONE
  1

  0
ENDBLK
  5
3
330
1
100
AcDbEntity
  8
0
100
AcDbBlockEnd
  0
BLOCK
  5
5
330
4
100
AcDbEntity
  8
0
100
AcDbBlockBegin
  2
_CLOSED
 70
     0
 10
0.0
 20
0.0
 30
0.0
  3
_CLOSED
  1

  0
LINE
  5
6
330
4
100
AcDbEntity
  8
0
  6
BYBLOCK
 62
     0
370
    -2
100
AcDbLine
 10
-1.0
 20
0.166667
 30
0.0
 11
0.0
 21
0.0
 31
0.0
  0
LINE
  5
7
330
4
100
AcDbEntity
  8
0
  6
BYBLOCK
 62
     0
370
    -2
100
AcDbLine
 10
0.0
 20
0.0
 30
0.0
 11
-1.0
 21
-0.166667
 31
0.0
  0
LINE
  5
8
330
4
100
AcDbEntity
  8
0
  6
BYBLOCK
 62
     0
370
    -2
100
AcDbLine
 10
-1.0
 20
0.166667
 30
0.0
 11
-1.0
 21
-0.166667
 31
0.0
  0
LINE
  5
9
330
4
100
AcDbEntity
  8
0
  6
BYBLOCK
 62
     0
370
    -2
100
AcDbLine
 10
0.0
 20
0.0
 30
0.0
 11
-1.0
 21
0.0
 31
0.0
  0
ENDBLK
  5
A
330
4
100
AcDbEntity
  8
0
100
AcDbBlockEnd
  0
BLOCK
  5
C
330
B
100
AcDbEntity
  8
0
100
AcDbBlockBegin
  2
_DOT
 70
     0
 10
0.0
 20
0.0
 30
0.0
  3
_DOT
  1

  0
POLYLINE
  5
D
330
B
100
AcDbEntity
  8
0
  6
BYBLOCK
 62
     0
370
    -2
100
AcDb2dPolyline
 66
     1
 10
0.0
 20
0.0
 30
0.0
 70
     1
 40
0.5
 41
0.5
  0
VERTEX
  5
E
330
B
100
AcDbEntity
  8
0
  6
BYBLOCK
 62
     0
370
    -2
100
AcDbVertex
100
AcDb2dVertex
 10
-0.25
 20
0.0
 30
0.0
 42
1.0
  0
VERTEX
  5
F
330
B
100
AcDbEntity
  8
0
  6
BYBLOCK
 62
     0
370
    -2
100
AcDbVertex
100
AcDb2dVertex
 10
0.25
 20
0.0
 30
0.0
 42
1.0
  0
SEQEND
  5
10
330
B
100
AcDbEntity
  8
0
  6
BYBLOCK
 62
     0
370
    -2
  0
LINE
  5
11
330
B
100
AcDbEntity
  8
0
  6
BYBLOCK
 62
     0
370
    -2
100
AcDbLine
 10
-0.5
 20
0.0
 30
0.0
 11
-1.0
 21
0.0
 31
0.0
  0
ENDBLK
  5
12
330
B
100
AcDbEntity
  8
0
100
AcDbBlockEnd
  0
BLOCK
  5
14
330
13
100
AcDbEntity
  8
0
100
AcDbBlockBegin
  2
_OPEN
 70
     0
 10
0.0
 20
0.0
 30
0.0
  3
_OPEN
  1

  0
LINE
  5
15
330
13
100
AcDbEntity
  8
0
  6
BYBLOCK
 62
     0
370
    -2
100
AcDbLine
 10
-1.0
 20
0.166667
 30
0.0
 11
0.0
 21
0.0
 31
0.0
  0
LINE
  5
16
330
13
100
AcDbEntity
  8
0
  6
BYBLOCK
 62
     0
370
    -2
100
AcDbLine
 10
0.0
 20
0.0
 30
0.0
 11
-1.0
 21
-0.166667
 31
0.0
  0
LINE
  5
17
330
13
100
AcDbEntity
  8
0
  6
BYBLOCK
 62
     0
370
    -2
100
AcDbLine
 10
0.0
 20
0.0
 30
0.0
 11
-1.0
 21
0.0
 31
0.0
  0
ENDBLK
  5
18
330
13
100
AcDbEntity
  8
0
100
AcDbBlockEnd
  0
BLOCK
  5
1A
330
19
100
AcDbEntity
  8
0
100
AcDbBlockBegin
  2
_ORIGIN
 70
     0
 10
0.0
 20
0.0
 30
0.0
  3
_ORIGIN
  1

  0
CIRCLE
  5
1B
330
19
100
AcDbEntity
  8
0
  6
BYBLOCK
 62
     0
370
    -2
100
AcDbCircle
 10
0.0
 20
0.0
 30
0.0
 40
0.5
  0
LINE
  5
1C
330
19
100
AcDbEntity
  8
0
  6
BYBLOCK
 62
     0
370
    -2
100
AcDbLine
 10
0.0
 20
0.0
 30
0.0
 11
-1.0
 21
0.0
 31
0.0
  0
ENDBLK
  5
1D
330
19
100
AcDbEntity
  8
0
100
AcDbBlockEnd
  0
BLOCK
  5
1F
330
1E
100
AcDbEntity
  8
0
100
AcDbBlockBegin
  2
_OPEN30
 70
     0
 10
0.0
 20
0.0
 30
0.0
  3
_OPEN30
  1

  0
LINE
  5
20
330
1E
100
AcDbEntity
  8
0
  6
BYBLOCK
 62
     0
370
    -2
100
AcDbLine
 10
-1.0
 20
0.267949
 30
0.0
 11
0.0
 21
0.0
 31
0.0
  0
LINE
  5
21
330
1E
100
AcDbEntity
  8
0
  6
BYBLOCK
 62
     0
370
    -2
100
AcDbLine
 10
0.0
 20
0.0
 30
0.0
 11
-1.0
 21
-0.267949
 31
0.0
  0
LINE
  5
22
330
1E
100
AcDbEntity
  8
0
  6
BYBLOCK
 62
     0
370
    -2
100
AcDbLine
 10
0.0
 20
0.0
 30
0.0
 11
-1.0
 21
0.0
 31
0.0
  0
ENDBLK
  5
23
330
1E
100
AcDbEntity
  8
0
100
AcDbBlockEnd
  0
BLOCK
  5
25
330
24
100
AcDbEntity
  8
0
100
AcDbBlockBegin
  2
_BOXFILLED
 70
     0
 10
0.0
 20
0.0
 30
0.0
  3
_BOXFILLED
  1

  0
SOLID
  5
26
330
24
100
AcDbEntity
  8
0
  6
BYBLOCK
 62
     0
370
    -2
100
AcDbTrace
 10
-0.5
 20
0.5
 30
0.0
 11
0.5
 21
0.5
 31
0.0
 12
-0.5
 22
-0.5
 32
0.0
 13
0.5
 23
-0.5
 33
0.0
  0
LINE
  5
27
330
24
100
AcDbEntity
  8
0
  6
BYBLOCK
 62
     0
370
    -2
100
AcDbLine
 10
-0.5
 20
0.0
 30
0.0
 11
-1.0
 21
0.0
 31
0.0
  0
ENDBLK
  5
28
330
24
100
AcDbEntity
  8
0
100
AcDbBlockEnd
  0
BLOCK
  5
2A
330
29
100
AcDbEntity
  8
0
100
AcDbBlockBegin
  2
_BOXBLANK
 70
     0
 10
0.0
 20
0.0
 30
0.0
  3
_BOXBLANK
  1

  0
LINE
  5
2B
330
29
100
AcDbEntity
  8
0
  6
BYBLOCK
 62
     0
370
    -2
100
AcDbLine
 10
-0.5
 20
-0.5
 30
0.0
 11
0.5
 21
-0.5
 31
0.0
  0
LINE
  5
2C
330
29
100
AcDbEntity
  8
0
  6
BYBLOCK
 62
     0
370
    -2
100
AcDbLine
 10
0.5
 20
-0.5
 30
0.0
 11
0.5
 21
0.5
 31
0.0
  0
LINE
  5
2D
330
29
100
AcDbEntity
  8
0
  6
BYBLOCK
 62
     0
370
    -2
100
AcDbLine
 10
0.5
 20
0.5
 30
0.0
 11
-0.5
 21
0.5
 31
0.0
  0
LINE
  5
2E
330
29
100
AcDbEntity
  8
0
  6
BYBLOCK
 62
     0
370
    -2
100
AcDbLine
 10
-0.5
 20
0.5
 30
0.0
 11
-0.5
 21
-0.5
 31
0.0
  0
LINE
  5
2F
330
29
100
AcDbEntity
  8
0
  6
BYBLOCK
 62
     0
370
    -2
100
AcDbLine
 10
-0.5
 20
0.0
 30
0.0
 11
-1.0
 21
0.0
 31
0.0
  0
ENDBLK
  5
30
330
29
100
AcDbEntity
  8
0
100
AcDbBlockEnd
  0
BLOCK
  5
32
330
31
100
AcDbEntity
  8
0
100
AcDbBlockBegin
  2
_OBLIQUE
 70
     0
 10
0.0
 20
0.0
 30
0.0
  3
_OBLIQUE
  1

  0
LINE
  5
33
330
31
100
AcDbEntity
  8
0
  6
BYBLOCK
 62
     0
370
    -2
100
AcDbLine
 10
-0.5
 20
-0.5
 30
0.0
 11
0.5
 21
0.5
 31
0.0
  0
ENDBLK
  5
34
330
31
100
AcDbEntity
  8
0
100
AcDbBlockEnd
  0
BLOCK
  5
36
330
35
100
AcDbEntity
  8
0
100
AcDbBlockBegin
  2
_OPEN90
 70
     0
 10
0.0
 20
0.0
 30
0.0
  3
_OPEN90
  1

  0
LINE
  5
37
330
35
100
AcDbEntity
  8
0
  6
BYBLOCK
 62
     0
370
    -2
100
AcDbLine
 10
-0.5
 20
0.5
 30
0.0
 11
0.0
 21
0.0
 31
0.0
  0
LINE
  5
38
330
35
100
AcDbEntity
  8
0
  6
BYBLOCK
 62
     0
370
    -2
100
AcDbLine
 10
0.0
 20
0.0
 30
0.0
 11
-0.5
 21
-0.5
 31
0.0
  0
LINE
  5
39
330
35
100
AcDbEntity
  8
0
  6
BYBLOCK
 62
     0
370
    -2
100
AcDbLine
 10
0.0
 20
0.0
 30
0.0
 11
-1.0
 21
0.0
 31
0.0
  0
ENDBLK
  5
3A
330
35
100
AcDbEntity
  8
0
100
AcDbBlockEnd
  0
BLOCK
  5
3C
330
3B
100
AcDbEntity
  8
0
100
AcDbBlockBegin
  2
_CLOSEDBLANK
 70
     0
 10
0.0
 20
0.0
 30
0.0
  3
_CLOSEDBLANK
  1

  0
LINE
  5
3D
330
3B
100
AcDbEntity
  8
0
  6
BYBLOCK
 62
     0
370
    -2
100
AcDbLine
 10
-1.0
 20
0.1666666666666666
 30
0.0
 11
0.0
 21
0.0
 31
0.0
  0
LINE
  5
3E
330
3B
100
AcDbEntity
  8
0
  6
BYBLOCK
 62
     0
370
    -2
100
AcDbLine
 10
0.0
 20
0.0
 30
0.0
 11
-1.0
 21
-0.1666666666666666
 31
0.0
  0
LINE
  5
3F
330
3B
100
AcDbEntity
  8
0
  6
BYBLOCK
 62
     0
370
    -2
100
AcDbLine
 10
-1.0
 20
0.1666666666666666
 30
0.0
 11
-1.0
 21
-0.1666666666666666
 31
0.0
  0
ENDBLK
  5
40
330
3B
100
AcDbEntity
  8
0
100
AcDbBlockEnd
  0
BLOCK
  5
42
330
41
100
AcDbEntity
  8
0
100
AcDbBlockBegin
  2
_DOTBLANK
 70
     0
 10
0.0
 20
0.0
 30
0.0
  3
_DOTBLANK
  1

  0
CIRCLE
  5
43
330
41
100
AcDbEntity
  8
0
  6
BYBLOCK
 62
     0
370
    -2
100
AcDbCircle
 10
0.0
 20
0.0
 30
0.0
 40
0.5
  0
LINE
  5
44
330
41
100
AcDbEntity
  8
0
  6
BYBLOCK
 62
     0
370
    -2
100
AcDbLine
 10
-0.5
 20
0.0
 30
0.0
 11
-1.0
 21
0.0
 31
0.0
  0
ENDBLK
  5
45
330
41
100
AcDbEntity
  8
0
100
AcDbBlockEnd
  0
ENDSEC
  0
SECTION
  2
ENTITIES
  0
LINE
  5
46
100
AcDbEntity
  8
4
  6
CENTER
 62
1
100
AcDbLine
 10
84.82404787362474
 20
119.9038813436361
 30
0.000000000000000
 11
290.8240478736246
 21
119.9038813436361
 31
0.000000000000000
  0
LINE
  5
47
100
AcDbEntity
  8
1
  6
CONTINUOUS
 62
7
100
AcDbLine
 10
89.82404787362472
 20
101.6308915039962
 30
0.000000000000000
 11
285.8240478736247
 21
101.6308915039961
 31
0.000000000000000
  0
LINE
  5
48
100
AcDbEntity
  8
1
  6
CONTINUOUS
 62
7
100
AcDbLine
 10
89.82404787362472
 20
56.92915837345896
 30
0.000000000000000
 11
285.8240478736247
 21
56.92915837345896
 31
0.000000000000000
  0
LINE
  5
49
100
AcDbEntity
  8
1
  6
CONTINUOUS
 62
7
100
AcDbLine
 10
89.82404787362472
 20
65.32420653706870
 30
0.000000000000000
 11
285.8240478736247
 21
65.32420653706870
 31
0.000000000000000
  0
LINE
  5
4A
100
AcDbEntity
  8
4
  6
CENTER
 62
1
100
AcDbLine
 10
84.82404787362474
 20
61.12668245526386
 30
0.000000000000000
 11
290.8240478736246
 21
61.12668245526386
 31
0.000000000000000
  0
LINE
  5
4B
100
AcDbEntity
  8
1
  6
CONTINUOUS
 62
7
100
AcDbLine
 10
87.82404787362475
 20
54.79594371226715
 30
0.000000000000000
 11
287.8240478736245
 21
54.79594371226715
 31
0.000000000000000
  0
LINE
  5
4C
100
AcDbEntity
  8
1
  6
CONTINUOUS
 62
7
100
AcDbLine
 10
287.8240478736245
 20
67.42011509771145
 30
0.000000000000000
 11
87.82404787362475
 21
67.42011509771145
 31
0.000000000000000
  0
LINE
  5
4D
100
AcDbEntity
  8
1
  6
CONTINUOUS
 62
7
100
AcDbLine
 10
287.8240478736245
 20
67.42133056622401
 30
0.000000000000000
 11
87.82404787362474
 21
67.42093141214666
 31
0.000000000000000
  0
LINE
  5
4E
100
AcDbEntity
  8
1
  6
CONTINUOUS
 62
7
100
AcDbLine
 10
287.8240478736245
 20
69.15157681794457
 30
0.000000000000000
 11
87.82404787362475
 21
69.15157681794457
 31
0.000000000000000
  0
LINE
  5
4F
100
AcDbEntity
  8
1
  6
CONTINUOUS
 62
7
100
AcDbLine
 10
87.82404787362475
 20
53.10188491654457
 30
0.000000000000000
 11
287.8240478736245
 21
53.10188491654457
 31
0.000000000000000
  0
LINE
  5
50
100
AcDbEntity
  8
1
  6
CONTINUOUS
 62
7
100
AcDbLine
 10
87.82404787362475
 20
70.98396391427859
 30
0.000000000000000
 11
287.8240478736245
 21
70.98396391427856
 31
0.000000000000000
  0
LINE
  5
51
100
AcDbEntity
  8
1
  6
CONTINUOUS
 62
7
100
AcDbLine
 10
87.82404787362475
 20
52.98396391427857
 30
0.000000000000000
 11
287.8240478736245
 21
52.98396391427857
 31
0.000000000000000
  0
LINE
  5
52
100
AcDbEntity
  8
1
  6
CONTINUOUS
 62
7
100
AcDbLine
 10
87.82404787362475
 20
99.74823166703941
 30
0.000000000000000
 11
287.8240478736245
 21
99.74823166703941
 31
0.000000000000000
  0
LINE
  5
53
100
AcDbEntity
  8
1
  6
CONTINUOUS
 62
7
100
AcDbLine
 10
87.82404787362475
 20
99.20388134363625
 30
0.000000000000000
 11
287.8240478736245
 21
99.20388134363625
 31
0.000000000000000
  0
LINE
  5
54
100
AcDbEntity
  8
1
  6
CONTINUOUS
 62
7
100
AcDbLine
 10
287.8240478736245
 20
113.6038813436361
 30
0.000000000000000
 11
87.82404787362475
 21
113.6038813436361
 31
0.000000000000000
  0
LINE
  5
55
100
AcDbEntity
  8
1
  6
CONTINUOUS
 62
7
100
AcDbLine
 10
87.82404787362475
 20
126.2038813436361
 30
0.000000000000000
 11
287.8240478736245
 21
126.2038813436361
 31
0.000000000000000
  0
LINE
  5
56
100
AcDbEntity
  8
1
  6
CONTINUOUS
 62
7
100
AcDbLine
 10
287.8240478736245
 20
126.7216482966022
 30
0.000000000000000
 11
87.82404787362475
 21
126.7216482966022
 31
0.000000000000000
  0
LINE
  5
57
100
AcDbEntity
  8
1
  6
CONTINUOUS
 62
7
100
AcDbLine
 10
87.82404787362475
 20
99.20388134363625
 30
0.000000000000000
 11
87.82404787362475
 21
126.7216482966022
 31
0.000000000000000
  0
ARC
  5
58
100
AcDbEntity
  8
1
  6
CONTINUOUS
 62
7
100
AcDbCircle
 10
47.26892031215672
 20
61.12663404328309
 30
0.000000000000000
 40
8.024845950703998
100
AcDbArc
 50
217.3988350659419
 51
302.7061531379390
  0
LINE
  5
59
100
AcDbEntity
  8
1
  6
CONTINUOUS
 62
7
100
AcDbLine
 10
40.89376626285672
 20
57.70286107499280
 30
0.000000000000000
 11
46.99328295633661
 21
55.95385280778260
 31
0.000000000000000
  0
LINE
  5
5A
100
AcDbEntity
  8
4
  6
CENTER
 62
1
100
AcDbLine
 10
24.89376626285674
 20
61.12668245526386
 30
0.000000000000000
 11
58.09373708095415
 21
61.12668245526386
 31
0.000000000000000
  0
LINE
  5
5B
100
AcDbEntity
  8
1
  6
CONTINUOUS
 62
7
100
AcDbLine
 10
40.89376626285670
 20
63.80000074956435
 30
0.000000000000000
 11
46.99328295633671
 21
65.54900901677455
 31
0.000000000000000
  0
ARC
  5
5C
100
AcDbEntity
  8
1
  6
CONTINUOUS
 62
7
100
AcDbCircle
 10
47.26892031215672
 20
61.12673086724457
 30
0.000000000000000
 40
8.024845950703998
100
AcDbArc
 50
57.29384686206096
 51
142.6011649340580
  0
MTEXT
  5
5D
100
AcDbEntity
  8
7
  6
CONTINUOUS
 62
7
100
AcDbMText
 10
9.999998909210603
 20
18.00000038384836
 30
0.000000000000000
 40
3.000000000000000
 41
0.000000000000000
 44
0.6739999771118164
 71
     7
 72
     1
  1
{\H0.94x;{TYPE No.TEM-1011-45-FR01}}
 11
1.000000000000000
 21
0.000000000000000
 31
0.000000000000000
  7
STANDARD
  0
LINE
  5
5E
100
AcDbEntity
  8
4
  6
CENTER
 62
1
100
AcDbLine
 10
34.59376626285673
 20
50.06037762724599
 30
0.000000000000000
 11
34.59376626285673
 21
73.75173086724458
 31
0.000000000000000
  0
LINE
  5
5F
100
AcDbEntity
  8
1
  6
CONTINUOUS
 62
7
100
AcDbLine
 10
40.89376626285671
 20
56.00173086724457
 30
0.000000000000000
 11
40.89376626285671
 21
66.48396391427858
 31
0.000000000000000
  0
LINE
  5
60
100
AcDbEntity
  8
1
  6
CONTINUOUS
 62
7
100
AcDbLine
 10
38.39376626285673
 20
57.59756448717658
 30
0.000000000000000
 11
38.39376626285673
 21
56.00173086724457
 31
0.000000000000000
  0
LINE
  5
61
100
AcDbEntity
  8
1
  6
CONTINUOUS
 62
7
100
AcDbLine
 10
30.79376626285673
 20
56.00173086724458
 30
0.000000000000000
 11
32.63756941246267
 21
57.89571548561358
 31
0.000000000000000
  0
ARC
  5
62
100
AcDbEntity
  8
1
  6
CONTINUOUS
 62
7
100
AcDbCircle
 10
29.54376626285672
 20
54.75173086724457
 30
0.000000000000000
 40
1.767766952966000
100
AcDbArc
 50
135.0000000000002
 51
404.9999999999997
  0
LINE
  5
63
100
AcDbEntity
  8
1
  6
CONTINUOUS
 62
7
100
AcDbLine
 10
28.29376626285673
 20
66.48396391427858
 30
0.000000000000000
 11
28.29376626285672
 21
56.00173086724457
 31
0.000000000000000
  0
LINE
  5
64
100
AcDbEntity
  8
1
  6
CONTINUOUS
 62
7
100
AcDbLine
 10
28.29376626285672
 20
56.00173086724457
 30
0.000000000000000
 11
30.79376626285672
 21
56.00173086724457
 31
0.000000000000000
  0
ARC
  5
65
100
AcDbEntity
  8
1
  6
CONTINUOUS
 62
7
100
AcDbCircle
 10
39.64376626285673
 20
56.00173086724457
 30
0.000000000000000
 40
1.250000000000000
100
AcDbArc
 50
180.0000000000000
 51
360.0000000000000
  0
ARC
  5
66
100
AcDbEntity
  8
1
  6
CONTINUOUS
 62
7
100
AcDbCircle
 10
32.79376626285673
 20
66.25173086724458
 30
0.000000000000000
 40
2.000000000000000
100
AcDbArc
 50
90.00000000000000
 51
179.9999999999995
  0
ARC
  5
67
100
AcDbEntity
  8
1
  6
CONTINUOUS
 62
7
100
AcDbCircle
 10
32.47276626285670
 20
66.38673086724458
 30
0.000000000000000
 40
3.250000000000000
100
AcDbArc
 50
90.00000000000000
 51
180.0000000000000
  0
ARC
  5
68
100
AcDbEntity
  8
1
  6
CONTINUOUS
 62
7
100
AcDbCircle
 10
32.47276626285670
 20
66.38673086724458
 30
0.000000000000000
 40
2.750000000000000
100
AcDbArc
 50
90.00000000000000
 51
180.0000000000000
  0
ARC
  5
69
100
AcDbEntity
  8
1
  6
CONTINUOUS
 62
7
100
AcDbCircle
 10
32.79376626285673
 20
66.48396391427858
 30
0.000000000000000
 40
4.500000000000000
100
AcDbArc
 50
90.00000000000000
 51
180.0000000000000
  0
LINE
  5
6A
100
AcDbEntity
  8
1
  6
CONTINUOUS
 62
7
100
AcDbLine
 10
30.79376626285672
 20
62.02070610599557
 30
0.000000000000000
 11
32.63756941246267
 21
63.91469072436557
 31
0.000000000000000
  0
ARC
  5
6B
100
AcDbEntity
  8
1
  6
CONTINUOUS
 62
7
100
AcDbCircle
 10
32.33626626285663
 20
64.20801079193157
 30
0.000000000000000
 40
0.4205000000000000
100
AcDbArc
 50
315.7691751976031
 51
495.7691751975585
  0
ARC
  5
6C
100
AcDbEntity
  8
1
  6
CONTINUOUS
 62
7
100
AcDbCircle
 10
32.39476626285672
 20
61.04708251505758
 30
0.000000000000000
 40
0.3810000000000000
100
AcDbArc
 50
315.7691751975856
 51
495.7691751975585
  0
ARC
  5
6D
100
AcDbEntity
  8
1
  6
CONTINUOUS
 62
7
100
AcDbCircle
 10
32.38176626285670
 20
58.14474108399958
 30
0.000000000000000
 40
0.3570000000000000
100
AcDbArc
 50
315.7691751975290
 51
495.7691751975585
  0
LINE
  5
6E
100
AcDbEntity
  8
1
  6
CONTINUOUS
 62
7
100
AcDbLine
 10
30.79376626285671
 20
58.85631238517756
 30
0.000000000000000
 11
32.66776626285662
 21
60.78131569997353
 31
0.000000000000000
  0
LINE
  5
6F
100
AcDbEntity
  8
1
  6
CONTINUOUS
 62
7
100
AcDbLine
 10
32.03496311325070
 20
64.50133085949858
 30
0.000000000000000
 11
31.39455366443169
 21
63.84349184572958
 31
0.000000000000000
  0
LINE
  5
70
100
AcDbEntity
  8
1
  6
CONTINUOUS
 62
7
100
AcDbLine
 10
29.22276626285670
 20
56.88273086724454
 30
0.000000000000000
 11
29.22276626285670
 21
66.38673086724458
 31
0.000000000000000
  0
LINE
  5
71
100
AcDbEntity
  8
1
  6
CONTINUOUS
 62
7
100
AcDbLine
 10
29.72276626285670
 20
66.38673086724458
 30
0.000000000000000
 11
29.72276626285670
 21
56.88273086724454
 31
0.000000000000000
  0
LINE
  5
72
100
AcDbEntity
  8
1
  6
CONTINUOUS
 62
7
100
AcDbLine
 10
30.79376626285672
 20
64.08763458924557
 30
0.000000000000000
 11
30.79376626285672
 21
66.25173086724458
 31
0.000000000000000
  0
LINE
  5
73
100
AcDbEntity
  8
1
  6
CONTINUOUS
 62
7
100
AcDbLine
 10
29.72276626285670
 20
56.88273086724454
 30
0.000000000000000
 11
29.22276626285670
 21
56.88273086724454
 31
0.000000000000000
  0
LINE
  5
74
100
AcDbEntity
  8
1
  6
CONTINUOUS
 62
7
100
AcDbLine
 10
30.79376626285672
 20
57.88659373035756
 30
0.000000000000000
 11
30.79376626285672
 21
58.85631238517757
 31
0.000000000000000
  0
LINE
  5
75
100
AcDbEntity
  8
1
  6
CONTINUOUS
 62
7
100
AcDbLine
 10
32.12596311325071
 20
58.39376668238556
 30
0.000000000000000
 11
31.39455366443168
 21
57.64245098684155
 31
0.000000000000000
  0
ARC
  5
76
100
AcDbEntity
  8
1
  6
CONTINUOUS
 62
7
100
AcDbCircle
 10
31.14376626285663
 20
57.88659373035756
 30
0.000000000000000
 40
0.3500000000000000
100
AcDbArc
 50
180.0000000000000
 51
315.7691751975589
  0
ARC
  5
77
100
AcDbEntity
  8
1
  6
CONTINUOUS
 62
7
100
AcDbCircle
 10
31.14376626285663
 20
64.08763458924557
 30
0.000000000000000
 40
0.3500000000000000
100
AcDbArc
 50
180.0000000000000
 51
315.7691751975589
  0
ARC
  5
78
100
AcDbEntity
  8
1
  6
CONTINUOUS
 62
7
100
AcDbCircle
 10
31.14376626285663
 20
60.80998745117657
 30
0.000000000000000
 40
0.3500000000000000
100
AcDbArc
 50
180.0000000000000
 51
315.7691751975589
  0
LINE
  5
79
100
AcDbEntity
  8
1
  6
CONTINUOUS
 62
7
100
AcDbLine
 10
30.79376626285672
 20
60.80998745117657
 30
0.000000000000000
 11
30.79376626285672
 21
62.02070610599557
 31
0.000000000000000
  0
LINE
  5
7A
100
AcDbEntity
  8
1
  6
CONTINUOUS
 62
7
100
AcDbLine
 10
32.12176626285669
 20
61.31284933014155
 30
0.000000000000000
 11
31.39455366443167
 21
60.56584470766055
 31
0.000000000000000
  0
LINE
  5
7B
100
AcDbEntity
  8
1
  6
CONTINUOUS
 62
7
100
AcDbLine
 10
39.31276626285671
 20
56.12773086724456
 30
0.000000000000000
 11
39.31276626285671
 21
66.38673086724458
 31
0.000000000000000
  0
LINE
  5
7C
100
AcDbEntity
  8
1
  6
CONTINUOUS
 62
7
100
AcDbLine
 10
39.81276626285671
 20
66.38673086724458
 30
0.000000000000000
 11
39.81276626285671
 21
56.12773086724456
 31
0.000000000000000
  0
LINE
  5
7D
100
AcDbEntity
  8
1
  6
CONTINUOUS
 62
7
100
AcDbLine
 10
38.39376626285673
 20
66.25173086724458
 30
0.000000000000000
 11
38.39376626285673
 21
60.10168205910457
 31
0.000000000000000
  0
ARC
  5
7E
100
AcDbEntity
  8
1
  6
CONTINUOUS
 62
7
100
AcDbCircle
 10
38.39376626285673
 20
61.82273086724455
 30
0.000000000000000
 40
2.046999999999999
100
AcDbArc
 50
180.0000000000000
 51
260.1119896511002
  0
ARC
  5
7F
100
AcDbEntity
  8
1
  6
CONTINUOUS
 62
7
100
AcDbCircle
 10
38.89293117395970
 20
61.34326007609757
 30
0.000000000000000
 40
3.529999999999998
100
AcDbArc
 50
170.9762670953030
 51
257.9562078111296
  0
ARC
  5
80
100
AcDbEntity
  8
1
  6
CONTINUOUS
 62
7
100
AcDbCircle
 10
35.87376626285664
 20
61.82273086724455
 30
0.000000000000000
 40
0.4730000000000001
100
AcDbArc
 50
0.000000000000000
 51
170.9762670952996
  0
ARC
  5
81
100
AcDbEntity
  8
1
  6
CONTINUOUS
 62
7
100
AcDbCircle
 10
38.09376626285665
 20
60.10168205910457
 30
0.000000000000000
 40
0.3000000000000000
100
AcDbArc
 50
260.1119896511532
 51
360.0000000000000
  0
LINE
  5
82
100
AcDbEntity
  8
1
  6
CONTINUOUS
 62
7
100
AcDbLine
 10
39.81276626285671
 20
56.12773086724456
 30
0.000000000000000
 11
39.31276626285671
 21
56.12773086724456
 31
0.000000000000000
  0
ARC
  5
83
100
AcDbEntity
  8
1
  6
CONTINUOUS
 62
7
100
AcDbCircle
 10
38.09376626285665
 20
57.59756448717658
 30
0.000000000000000
 40
0.3000000000000000
100
AcDbArc
 50
0.000000000000000
 51
77.95620781112970
  0
ARC
  5
84
100
AcDbEntity
  8
1
  6
CONTINUOUS
 62
7
100
AcDbCircle
 10
36.56276626285671
 20
66.38673086724458
 30
0.000000000000000
 40
3.250000000000000
100
AcDbArc
 50
0.000000000000000
 51
90.00000000000000
  0
ARC
  5
85
100
AcDbEntity
  8
1
  6
CONTINUOUS
 62
7
100
AcDbCircle
 10
36.56276626285671
 20
66.38673086724458
 30
0.000000000000000
 40
2.750000000000000
100
AcDbArc
 50
0.000000000000000
 51
90.00000000000000
  0
ARC
  5
86
100
AcDbEntity
  8
1
  6
CONTINUOUS
 62
7
100
AcDbCircle
 10
36.39376626285673
 20
66.25173086724458
 30
0.000000000000000
 40
2.000000000000000
100
AcDbArc
 50
0.000000000000000
 51
90.00000000000000
  0
ARC
  5
87
100
AcDbEntity
  8
1
  6
CONTINUOUS
 62
7
100
AcDbCircle
 10
36.39376626285673
 20
66.48396391427858
 30
0.000000000000000
 40
4.500000000000000
100
AcDbArc
 50
0.000000000000000
 51
90.00000000000000
  0
LINE
  5
88
100
AcDbEntity
  8
1
  6
CONTINUOUS
 62
7
100
AcDbLine
 10
32.79376626285673
 20
68.25173086724458
 30
0.000000000000000
 11
36.39376626285673
 21
68.25173086724458
 31
0.000000000000000
  0
LINE
  5
89
100
AcDbEntity
  8
1
  6
CONTINUOUS
 62
7
100
AcDbLine
 10
36.56276626285671
 20
69.13673086724457
 30
0.000000000000000
 11
32.47276626285670
 21
69.13673086724457
 31
0.000000000000000
  0
LINE
  5
8A
100
AcDbEntity
  8
1
  6
CONTINUOUS
 62
7
100
AcDbLine
 10
32.47276626285670
 20
69.63673086724458
 30
0.000000000000000
 11
36.56276626285671
 21
69.63673086724458
 31
0.000000000000000
  0
LINE
  5
8B
100
AcDbEntity
  8
1
  6
CONTINUOUS
 62
7
100
AcDbLine
 10
36.39376626285673
 20
70.98396391427858
 30
0.000000000000000
 11
32.79376626285673
 21
70.98396391427858
 31
0.000000000000000
  0
LINE
  5
8C
100
AcDbEntity
  8
1
  6
CONTINUOUS
 62
7
100
AcDbLine
 10
54.32038399354673
 20
56.58204532358307
 30
0.000000000000000
 11
54.71833193268667
 21
55.50679459461308
 31
0.000000000000000
  0
LINE
  5
8D
100
AcDbEntity
  8
1
  6
CONTINUOUS
 62
7
100
AcDbLine
 10
47.54455766796666
 20
55.95385280778257
 30
0.000000000000000
 11
51.36940361867669
 21
57.05060973538156
 31
0.000000000000000
  0
ARC
  5
8E
100
AcDbEntity
  8
1
  6
CONTINUOUS
 62
7
100
AcDbCircle
 10
47.26896660552275
 20
56.91558634298687
 30
0.000000000000000
 40
1.000466324853102
100
AcDbArc
 50
254.0048997406487
 51
274.7880952537862
  0
ARC
  5
8F
100
AcDbEntity
  8
1
  6
CONTINUOUS
 62
7
100
AcDbCircle
 10
47.26981163684508
 20
56.91025638474826
 30
0.000000000000000
 40
0.9950845108078912
100
AcDbArc
 50
274.7652257275451
 51
286.0277692684170
  0
ARC
  5
90
100
AcDbEntity
  8
1
  6
CONTINUOUS
 62
7
100
AcDbCircle
 10
52.86675610249672
 20
54.04764549277309
 30
0.000000000000000
 40
1.000000000000000
100
AcDbArc
 50
80.30940279470117
 51
128.2989384613142
  0
ARC
  5
91
100
AcDbEntity
  8
1
  6
CONTINUOUS
 62
7
100
AcDbCircle
 10
47.26892031215672
 20
61.12663404328309
 30
0.000000000000000
 40
8.024845950703998
100
AcDbArc
 50
302.7061531379390
 51
308.3404045688858
  0
LINE
  5
92
100
AcDbEntity
  8
1
  6
CONTINUOUS
 62
7
100
AcDbLine
 10
54.16525213256665
 20
54.84038425953309
 30
0.000000000000000
 11
53.03508371626668
 21
55.03337659933308
 31
0.000000000000000
  0
LINE
  5
93
100
AcDbEntity
  8
1
  6
CONTINUOUS
 62
7
100
AcDbLine
 10
53.03508371627305
 20
55.03337659933463
 30
0.000000000000000
 11
54.16525213256971
 21
54.84038425953162
 31
0.000000000000000
  0
ARC
  5
94
100
AcDbEntity
  8
1
  6
CONTINUOUS
 62
7
100
AcDbCircle
 10
54.24941593945671
 20
55.33324981281310
 30
0.000000000000000
 40
0.5000000000000000
100
AcDbArc
 50
260.3094027941329
 51
380.3094027950031
  0
ARC
  5
95
100
AcDbEntity
  8
1
  6
CONTINUOUS
 62
7
100
AcDbCircle
 10
47.26767249337849
 20
61.12668245526386
 30
0.000000000000000
 40
8.026064587575702
100
AcDbArc
 50
332.2807520542652
 51
387.6207772598648
  0
ARC
  5
96
100
AcDbEntity
  8
1
  6
CONTINUOUS
 62
7
100
AcDbCircle
 10
51.09376626285673
 20
63.49099039323758
 30
0.000000000000000
 40
1.000000000000000
100
AcDbArc
 50
0.000000000000000
 51
73.99999999999852
  0
LINE
  5
97
100
AcDbEntity
  8
1
  6
CONTINUOUS
 62
7
100
AcDbLine
 10
52.09376626285672
 20
63.49099039323758
 30
0.000000000000000
 11
52.09376626285672
 21
58.01187143131958
 31
0.000000000000000
  0
ARC
  5
98
100
AcDbEntity
  8
1
  6
CONTINUOUS
 62
7
100
AcDbCircle
 10
51.09376626285662
 20
58.01187143131958
 30
0.000000000000000
 40
1.000000000000000
100
AcDbArc
 50
286.0000000000013
 51
360.0000000000000
  0
ARC
  5
99
100
AcDbEntity
  8
1
  6
CONTINUOUS
 62
7
100
AcDbCircle
 10
55.25721962117319
 20
56.92915837345896
 30
0.000000000000000
 40
0.9990175183093043
100
AcDbArc
 50
152.3064602007006
 51
188.3221648416810
  0
LINE
  5
9A
100
AcDbEntity
  8
1
  6
CONTINUOUS
 62
7
100
AcDbLine
 10
54.26872188629618
 20
56.78456158915188
 30
0.000000000000000
 11
54.32038399354672
 21
56.58204532358308
 31
0.000000000000000
  0
LINE
  5
9B
100
AcDbEntity
  8
1
  6
CONTINUOUS
 62
7
100
AcDbLine
 10
47.54455766796667
 20
65.54900901677455
 30
0.000000000000000
 11
51.36940361867670
 21
64.45225208917554
 31
0.000000000000000
  0
ARC
  5
9C
100
AcDbEntity
  8
1
  6
CONTINUOUS
 62
7
100
AcDbCircle
 10
47.26896660552275
 20
64.58727548157027
 30
0.000000000000000
 40
1.000466324853102
100
AcDbArc
 50
85.21190474621372
 51
105.9951002593511
  0
ARC
  5
9D
100
AcDbEntity
  8
1
  6
CONTINUOUS
 62
7
100
AcDbCircle
 10
47.26981163684520
 20
64.59260543980889
 30
0.000000000000000
 40
0.9950845108078912
100
AcDbArc
 50
73.97223073158297
 51
85.23477427245486
  0
ARC
  5
9E
100
AcDbEntity
  8
1
  6
CONTINUOUS
 62
7
100
AcDbCircle
 10
52.86675610249672
 20
68.20571941775458
 30
0.000000000000000
 40
1.000000000000000
100
AcDbArc
 50
231.7010615386805
 51
279.6905972052988
  0
ARC
  5
9F
100
AcDbEntity
  8
1
  6
CONTINUOUS
 62
7
100
AcDbCircle
 10
47.26892031215672
 20
61.12673086724457
 30
0.000000000000000
 40
8.024845950703998
100
AcDbArc
 50
51.65959543111414
 51
57.29384686206096
  0
ARC
  5
A0
100
AcDbEntity
  8
1
  6
CONTINUOUS
 62
7
100
AcDbCircle
 10
54.24941593945671
 20
66.92011509771457
 30
0.000000000000000
 40
0.5000000000000000
100
AcDbArc
 50
339.6905972049968
 51
459.6905972058670
  0
LINE
  5
A1
100
AcDbEntity
  8
1
  6
CONTINUOUS
 62
7
100
AcDbLine
 10
54.26872188629619
 20
65.46880332137576
 30
0.000000000000000
 11
54.32038399354674
 21
65.67131958694458
 31
0.000000000000000
  0
LINE
  5
A2
100
AcDbEntity
  8
1
  6
CONTINUOUS
 62
7
100
AcDbLine
 10
54.32038399354673
 20
65.67131958694456
 30
0.000000000000000
 11
54.71833193268667
 21
66.74657031591455
 31
0.000000000000000
  0
LINE
  5
A3
100
AcDbEntity
  8
1
  6
CONTINUOUS
 62
7
100
AcDbLine
 10
53.03508371627304
 20
67.21998831119302
 30
0.000000000000000
 11
54.16525213256972
 21
67.41298065099602
 31
0.000000000000000
  0
LINE
  5
A4
100
AcDbEntity
  8
1
  6
CONTINUOUS
 62
7
100
AcDbLine
 10
54.16525213256664
 20
67.41298065099454
 30
0.000000000000000
 11
53.03508371626668
 21
67.21998831119454
 31
0.000000000000000
  0
LINE
  5
A5
100
AcDbEntity
  8
1
  6
CONTINUOUS
 62
7
100
AcDbLine
 10
54.37905076515116
 20
64.84770541134684
 30
0.000000000000000
 11
54.37264371373792
 21
64.85992056340481
 31
0.000000000000000
  0
ARC
  5
A6
100
AcDbEntity
  8
1
  6
CONTINUOUS
 62
7
100
AcDbCircle
 10
55.25721962117319
 20
65.32420653706870
 30
0.000000000000000
 40
0.9990175183093043
100
AcDbArc
 50
171.6778351583189
 51
207.6935397992992
  0
LINE
  5
A7
100
AcDbEntity
  8
1
  6
CONTINUOUS
 62
7
100
AcDbLine
 10
87.82404787362475
 20
52.98396391427857
 30
0.000000000000000
 11
87.82404787362475
 21
70.98396391427859
 31
0.000000000000000
  0
LINE
  5
A8
100
AcDbEntity
  8
1
  6
CONTINUOUS
 62
7
100
AcDbLine
 10
287.8240478736245
 20
126.7216482966022
 30
0.000000000000000
 11
287.8240478736245
 21
99.20388134363625
 31
0.000000000000000
  0
LINE
  5
A9
100
AcDbEntity
  8
1
  6
CONTINUOUS
 62
7
100
AcDbLine
 10
287.8240478736245
 20
52.98396391427857
 30
0.000000000000000
 11
287.8240478736245
 21
70.98396391427856
 31
0.000000000000000
  0
ENDSEC
  0
SECTION
  2
OBJECTS
  0
DICTIONARY
  5
D2
100
AcDbDictionary
  3
ACAD_GROUP
350
D3
  3
ACAD_LAYOUT
350
D4
  3
ACAD_MLINESTYLE
350
D5
  0
DICTIONARY
  5
D3
102
{ACAD_REACTORS
330
D2
102
}
330
D2
100
AcDbDictionary
  0
DICTIONARY
  5
D4
102
{ACAD_REACTORS
330
D2
102
}
330
D2
100
AcDbDictionary
  3
Model
350
D6
  3
ﾚｲｱｳﾄ1
350
D7
  3
ﾚｲｱｳﾄ2
350
D8
  0
DICTIONARY
  5
D5
102
{ACAD_REACTORS
330
D2
102
}
330
D2
100
AcDbDictionary
  3
STANDARD
350
D9
  0
LAYOUT
  5
D6
102
{ACAD_REACTORS
330
D4
102
}
330
D4
100
AcDbPlotSettings
 70
11952
  4
A3
 44
297.000000
 45
420.000000
 73
  1
 72
  1
100
AcDbLayout
  1
Model
 71
0
330
C9
  0
LAYOUT
  5
D7
102
{ACAD_REACTORS
330
D4
102
}
330
D4
100
AcDbPlotSettings
100
AcDbLayout
  1
ﾚｲｱｳﾄ1
 71
1
330
CA
  0
LAYOUT
  5
D8
102
{ACAD_REACTORS
330
D4
102
}
330
D4
100
AcDbPlotSettings
100
AcDbLayout
  1
ﾚｲｱｳﾄ2
 71
2
330
CB
  0
MLINESTYLE
  5
D9
102
{ACAD_REACTORS
330
D5
102
}
330
D5
100
AcDbMlineStyle
  2
STANDARD
 70
     0
  3

 62
   256
 51
90.00
 52
90.00
 71
     2
 49
0.50
 62
   256
  6
BYLAYER
 49
-0.50
 62
   256
  6
BYLAYER
  0
ENDSEC
  0
EOF
