  0
SECTION
  2
HEADER
  9
$ACADVER
  1
AC1024
  9
$DWGCODEPAGE
  3
ANSI_932
  9
$LTSCALE
 40
20.0
  9
$FILLMODE
 70
     1
  9
$CLAYER
  8
0
  9
$PDMODE
 70
     0
  9
$SPLFRAME
 70
     0
  9
$SPLINETYPE
 70
     6
  9
$SPLINESEGS
 70
     8
  9
$DIMASZ
 40
2.000000
  9
$DIMEXE
 40
1.500000
  9
$DIMEXO
 40
0.800000
  9
$DIMTAD
 70
     1
  9
$DIMTIH
 70
     0
  9
$DIMTOH
 70
     0
  9
$DIMTVP
 40
0.500000
  9
$DIMTXT
 40
3.100000
  9
$EXTMIN
 10
0.000000
 20
0.000000
 30
0.000000
  9
$EXTMAX
 10
297.000000
 20
420.000000
 30
0.000000
  9
$MEASUREMENT
 70
  1
  9
$LIMMIN
 10
0.000000
 20
0.000000
  9
$LIMMAX
 10
297.000000
 20
420.000000
  9
$HANDSEED
  5
E6
  9
$LWDISPLAY
290
     0
  9
$DIMBLK
  1
_OPEN
  9
$DIMDEC
 70
     2
  9
$DIMADEC
 70
     2
  9
$DIMAUNIT
 70
     0
  9
$DIMZIN
 70
     8
  9
$DIMAZIN
 70
     2
  9
$DIMTOFL
 70
     1
  0
ENDSEC
  0
SECTION
  2
CLASSES
  0
ENDSEC
  0
SECTION
  2
TABLES
  0
TABLE
  2
VPORT
  5
B2
100
AcDbSymbolTable
 70
     1
  0
VPORT
  5
B3
100
AcDbSymbolTableRecord
100
AcDbViewportTableRecord
  2
*ACTIVE
 70
     0
 12
108.382524
 22
113.097745
 40
190.195489
 41
1.034541
  0
ENDTAB
  0
TABLE
  2
LTYPE
  5
B4
100
AcDbSymbolTable
 70
     2
  0
LTYPE
  5
B5
100
AcDbSymbolTableRecord
100
AcDbLinetypeTableRecord
  2
BYBLOCK
 70
     0
  3

 72
    65
 73
     0
 40
0.0
  0
LTYPE
  5
B6
100
AcDbSymbolTableRecord
100
AcDbLinetypeTableRecord
  2
BYLAYER
 70
     0
  3

 72
    65
 73
     0
 40
0.0
  0
LTYPE
  5
B7
100
AcDbSymbolTableRecord
100
AcDbLinetypeTableRecord
  2
CONTINUOUS
 70
     0
  3
Solid line (NEC CAE2D for Win R18.0 : 2024.05.30)
 72
    65
 73
     0
 40
0.0
  0
LTYPE
  5
B8
100
AcDbSymbolTableRecord
100
AcDbLinetypeTableRecord
  2
CENTER
 70
     0
  3
____ _ ____ _ ____ _ ____ _ ____ _ ____
 72
    65
 73
     4
 40
2.0
 49
1.25
 74
     0
 49
-0.25
 74
     0
 49
0.25
 74
     0
 49
-0.25
 74
     0
  0
ENDTAB
  0
TABLE
  2
LAYER
  5
B9
100
AcDbSymbolTable
 70
    14
  0
LAYER
  5
BA
100
AcDbSymbolTableRecord
100
AcDbLayerTableRecord
  2
0
 70
     0
 62
     7
  6
CONTINUOUS
370
    -3
390

  0
LAYER
  5
BB
100
AcDbSymbolTableRecord
100
AcDbLayerTableRecord
  2
A0
 70
     0
 62
     9
  6
CONTINUOUS
370
    -3
390

  0
LAYER
  5
BC
100
AcDbSymbolTableRecord
100
AcDbLayerTableRecord
  2
A2
 70
     0
 62
     9
  6
CONTINUOUS
370
    -3
390

  0
LAYER
  5
BD
100
AcDbSymbolTableRecord
100
AcDbLayerTableRecord
  2
A4
 70
     0
 62
     9
  6
CONTINUOUS
370
    -3
390

  0
LAYER
  5
BE
100
AcDbSymbolTableRecord
100
AcDbLayerTableRecord
  2
A5
 70
     0
 62
     8
  6
CONTINUOUS
370
    -3
390

  0
LAYER
  5
BF
100
AcDbSymbolTableRecord
100
AcDbLayerTableRecord
  2
A6
 70
     0
 62
    12
  6
CONTINUOUS
370
    -3
390

  0
LAYER
  5
C0
100
AcDbSymbolTableRecord
100
AcDbLayerTableRecord
  2
A8
 70
     0
 62
    10
  6
CONTINUOUS
370
    -3
390

  0
LAYER
  5
C1
100
AcDbSymbolTableRecord
100
AcDbLayerTableRecord
  2
A9
 70
     0
 62
     9
  6
CONTINUOUS
370
    -3
390

  0
LAYER
  5
C2
100
AcDbSymbolTableRecord
100
AcDbLayerTableRecord
  2
A10
 70
     0
 62
     6
  6
CONTINUOUS
370
    -3
390

  0
LAYER
  5
C3
100
AcDbSymbolTableRecord
100
AcDbLayerTableRecord
  2
A20
 70
     0
 62
     1
  6
CONTINUOUS
370
    -3
390

  0
LAYER
  5
C4
100
AcDbSymbolTableRecord
100
AcDbLayerTableRecord
  2
A30
 70
     0
 62
     1
  6
CONTINUOUS
370
    -3
390

  0
LAYER
  5
C5
100
AcDbSymbolTableRecord
100
AcDbLayerTableRecord
  2
A40
 70
     0
 62
     9
  6
CONTINUOUS
370
    -3
390

  0
LAYER
  5
C6
100
AcDbSymbolTableRecord
100
AcDbLayerTableRecord
  2
A50
 70
     0
 62
    12
  6
CONTINUOUS
370
    -3
390

  0
LAYER
  5
C7
100
AcDbSymbolTableRecord
100
AcDbLayerTableRecord
  2
A1023
 70
     0
 62
    16
  6
CONTINUOUS
370
    -3
390

  0
ENDTAB
  0
TABLE
  2
STYLE
  5
C8
100
AcDbSymbolTable
 70
     4
  0
STYLE
  5
C9
100
AcDbSymbolTableRecord
100
AcDbTextStyleTableRecord
  2
STANDARD
 70
    64
 40
0.0
 41
1.0
 50
0.0
 71
     0
 42
3.000000000000000
  3
TXT
  4

  0
STYLE
  5
CA
100
AcDbSymbolTableRecord
100
AcDbTextStyleTableRecord
  2
ANKTATE
 70
    68
 40
0.0
 41
1.0
 50
0.0
 71
     0
 42
3.000000000000000
  3
TXT
  4

  0
STYLE
  5
CB
100
AcDbSymbolTableRecord
100
AcDbTextStyleTableRecord
  2
KNJYOKO
 70
    64
 40
0.0
 41
1.0
 50
0.0
 71
     0
 42
3.000000000000000
  3
TXT
  4
BIGFONT
  0
STYLE
  5
CC
100
AcDbSymbolTableRecord
100
AcDbTextStyleTableRecord
  2
KNJTATE
 70
    68
 40
0.0
 41
1.0
 50
0.0
 71
     0
 42
3.000000000000000
  3
TXT
  4
BIGFONT
  0
ENDTAB
  0
TABLE
  2
VIEW
  5
CD
100
AcDbSymbolTable
 70
     0
  0
ENDTAB
  0
TABLE
  2
UCS
  5
CE
100
AcDbSymbolTable
 70
     0
  0
ENDTAB
  0
TABLE
  2
APPID
  5
CF
100
AcDbSymbolTable
 70
     1
  0
APPID
  5
D0
100
AcDbSymbolTableRecord
100
AcDbRegAppTableRecord
  2
ACAD
 70
     0
  0
ENDTAB
  0
TABLE
  2
DIMSTYLE
  5
D1
100
AcDbSymbolTable
 70
     2
100
AcDbDimStyleTable
  0
DIMSTYLE
105
D2
100
AcDbSymbolTableRecord
100
AcDbDimStyleTableRecord
  2
STANDARD
 70
     0
 41
2.000000
 44
1.500000
 42
0.800000
145
0.661290
140
3.100000
144
1.000000
146
0.645161
340
C9
  0
DIMSTYLE
105
D3
100
AcDbSymbolTableRecord
100
AcDbDimStyleTableRecord
  2
A001
 70
     0
 41
2.000000
 44
1.500000
 42
0.800000
145
0.661290
140
3.100000
144
1.000000
146
0.645161
 77
     1
 73
     0
 74
     0
271
     2
179
     2
275
     0
 78
     8
 79
     2
172
     1
340
C9
  0
ENDTAB
  0
TABLE
  2
BLOCK_RECORD
  5
D4
100
AcDbSymbolTable
 70
    12
  0
BLOCK_RECORD
  5
D5
100
AcDbSymbolTableRecord
100
AcDbBlockTableRecord
  2
*MODEL_SPACE
  0
BLOCK_RECORD
  5
D6
100
AcDbSymbolTableRecord
100
AcDbBlockTableRecord
  2
*PAPER_SPACE
  0
BLOCK_RECORD
  5
D7
100
AcDbSymbolTableRecord
100
AcDbBlockTableRecord
  2
*PAPER_SPACE0
  0
BLOCK_RECORD
  5
1
100
AcDbSymbolTableRecord
100
AcDbBlockTableRecord
  2
_NONE
  0
BLOCK_RECORD
  5
4
100
AcDbSymbolTableRecord
100
AcDbBlockTableRecord
  2
_CLOSED
  0
BLOCK_RECORD
  5
B
100
AcDbSymbolTableRecord
100
AcDbBlockTableRecord
  2
_DOT
  0
BLOCK_RECORD
  5
13
100
AcDbSymbolTableRecord
100
AcDbBlockTableRecord
  2
_OPEN
  0
BLOCK_RECORD
  5
19
100
AcDbSymbolTableRecord
100
AcDbBlockTableRecord
  2
_ORIGIN
  0
BLOCK_RECORD
  5
1E
100
AcDbSymbolTableRecord
100
AcDbBlockTableRecord
  2
_OPEN30
  0
BLOCK_RECORD
  5
24
100
AcDbSymbolTableRecord
100
AcDbBlockTableRecord
  2
_BOXFILLED
  0
BLOCK_RECORD
  5
29
100
AcDbSymbolTableRecord
100
AcDbBlockTableRecord
  2
_BOXBLANK
  0
BLOCK_RECORD
  5
31
100
AcDbSymbolTableRecord
100
AcDbBlockTableRecord
  2
_OBLIQUE
  0
BLOCK_RECORD
  5
35
100
AcDbSymbolTableRecord
100
AcDbBlockTableRecord
  2
_OPEN90
  0
BLOCK_RECORD
  5
3B
100
AcDbSymbolTableRecord
100
AcDbBlockTableRecord
  2
_CLOSEDBLANK
  0
BLOCK_RECORD
  5
41
100
AcDbSymbolTableRecord
100
AcDbBlockTableRecord
  2
_DOTBLANK
  0
ENDTAB
  0
ENDSEC
  0
SECTION
  2
BLOCKS
  0
BLOCK
  5
D8
100
AcDbEntity
  8
0
100
AcDbBlockBegin
  2
*MODEL_SPACE
 70
     0
 10
0.0
 20
0.0
 30
0.0
  3
*MODEL_SPACE
  1

  0
ENDBLK
  5
D9
100
AcDbEntity
  8
0
100
AcDbBlockEnd
  0
BLOCK
  5
DA
100
AcDbEntity
  8
0
100
AcDbBlockBegin
  2
*PAPER_SPACE
 70
     0
 10
0.0
 20
0.0
 30
0.0
  3
*PAPER_SPACE
  1

  0
ENDBLK
  5
DB
100
AcDbEntity
  8
0
100
AcDbBlockEnd
  0
BLOCK
  5
DC
100
AcDbEntity
  8
0
100
AcDbBlockBegin
  2
*PAPER_SPACE0
 70
     0
 10
0.0
 20
0.0
 30
0.0
  3
*PAPER_SPACE0
  1

  0
ENDBLK
  5
DD
100
AcDbEntity
  8
0
100
AcDbBlockEnd
  0
BLOCK
  5
2
330
1
100
AcDbEntity
  8
0
100
AcDbBlockBegin
  2
_NONE
 70
     0
 10
0.0
 20
0.0
 30
0.0
  3
_NONE
  1

  0
ENDBLK
  5
3
330
1
100
AcDbEntity
  8
0
100
AcDbBlockEnd
  0
BLOCK
  5
5
330
4
100
AcDbEntity
  8
0
100
AcDbBlockBegin
  2
_CLOSED
 70
     0
 10
0.0
 20
0.0
 30
0.0
  3
_CLOSED
  1

  0
LINE
  5
6
330
4
100
AcDbEntity
  8
0
  6
BYBLOCK
 62
     0
370
    -2
100
AcDbLine
 10
-1.0
 20
0.166667
 30
0.0
 11
0.0
 21
0.0
 31
0.0
  0
LINE
  5
7
330
4
100
AcDbEntity
  8
0
  6
BYBLOCK
 62
     0
370
    -2
100
AcDbLine
 10
0.0
 20
0.0
 30
0.0
 11
-1.0
 21
-0.166667
 31
0.0
  0
LINE
  5
8
330
4
100
AcDbEntity
  8
0
  6
BYBLOCK
 62
     0
370
    -2
100
AcDbLine
 10
-1.0
 20
0.166667
 30
0.0
 11
-1.0
 21
-0.166667
 31
0.0
  0
LINE
  5
9
330
4
100
AcDbEntity
  8
0
  6
BYBLOCK
 62
     0
370
    -2
100
AcDbLine
 10
0.0
 20
0.0
 30
0.0
 11
-1.0
 21
0.0
 31
0.0
  0
ENDBLK
  5
A
330
4
100
AcDbEntity
  8
0
100
AcDbBlockEnd
  0
BLOCK
  5
C
330
B
100
AcDbEntity
  8
0
100
AcDbBlockBegin
  2
_DOT
 70
     0
 10
0.0
 20
0.0
 30
0.0
  3
_DOT
  1

  0
POLYLINE
  5
D
330
B
100
AcDbEntity
  8
0
  6
BYBLOCK
 62
     0
370
    -2
100
AcDb2dPolyline
 66
     1
 10
0.0
 20
0.0
 30
0.0
 70
     1
 40
0.5
 41
0.5
  0
VERTEX
  5
E
330
B
100
AcDbEntity
  8
0
  6
BYBLOCK
 62
     0
370
    -2
100
AcDbVertex
100
AcDb2dVertex
 10
-0.25
 20
0.0
 30
0.0
 42
1.0
  0
VERTEX
  5
F
330
B
100
AcDbEntity
  8
0
  6
BYBLOCK
 62
     0
370
    -2
100
AcDbVertex
100
AcDb2dVertex
 10
0.25
 20
0.0
 30
0.0
 42
1.0
  0
SEQEND
  5
10
330
B
100
AcDbEntity
  8
0
  6
BYBLOCK
 62
     0
370
    -2
  0
LINE
  5
11
330
B
100
AcDbEntity
  8
0
  6
BYBLOCK
 62
     0
370
    -2
100
AcDbLine
 10
-0.5
 20
0.0
 30
0.0
 11
-1.0
 21
0.0
 31
0.0
  0
ENDBLK
  5
12
330
B
100
AcDbEntity
  8
0
100
AcDbBlockEnd
  0
BLOCK
  5
14
330
13
100
AcDbEntity
  8
0
100
AcDbBlockBegin
  2
_OPEN
 70
     0
 10
0.0
 20
0.0
 30
0.0
  3
_OPEN
  1

  0
LINE
  5
15
330
13
100
AcDbEntity
  8
0
  6
BYBLOCK
 62
     0
370
    -2
100
AcDbLine
 10
-1.0
 20
0.166667
 30
0.0
 11
0.0
 21
0.0
 31
0.0
  0
LINE
  5
16
330
13
100
AcDbEntity
  8
0
  6
BYBLOCK
 62
     0
370
    -2
100
AcDbLine
 10
0.0
 20
0.0
 30
0.0
 11
-1.0
 21
-0.166667
 31
0.0
  0
LINE
  5
17
330
13
100
AcDbEntity
  8
0
  6
BYBLOCK
 62
     0
370
    -2
100
AcDbLine
 10
0.0
 20
0.0
 30
0.0
 11
-1.0
 21
0.0
 31
0.0
  0
ENDBLK
  5
18
330
13
100
AcDbEntity
  8
0
100
AcDbBlockEnd
  0
BLOCK
  5
1A
330
19
100
AcDbEntity
  8
0
100
AcDbBlockBegin
  2
_ORIGIN
 70
     0
 10
0.0
 20
0.0
 30
0.0
  3
_ORIGIN
  1

  0
CIRCLE
  5
1B
330
19
100
AcDbEntity
  8
0
  6
BYBLOCK
 62
     0
370
    -2
100
AcDbCircle
 10
0.0
 20
0.0
 30
0.0
 40
0.5
  0
LINE
  5
1C
330
19
100
AcDbEntity
  8
0
  6
BYBLOCK
 62
     0
370
    -2
100
AcDbLine
 10
0.0
 20
0.0
 30
0.0
 11
-1.0
 21
0.0
 31
0.0
  0
ENDBLK
  5
1D
330
19
100
AcDbEntity
  8
0
100
AcDbBlockEnd
  0
BLOCK
  5
1F
330
1E
100
AcDbEntity
  8
0
100
AcDbBlockBegin
  2
_OPEN30
 70
     0
 10
0.0
 20
0.0
 30
0.0
  3
_OPEN30
  1

  0
LINE
  5
20
330
1E
100
AcDbEntity
  8
0
  6
BYBLOCK
 62
     0
370
    -2
100
AcDbLine
 10
-1.0
 20
0.267949
 30
0.0
 11
0.0
 21
0.0
 31
0.0
  0
LINE
  5
21
330
1E
100
AcDbEntity
  8
0
  6
BYBLOCK
 62
     0
370
    -2
100
AcDbLine
 10
0.0
 20
0.0
 30
0.0
 11
-1.0
 21
-0.267949
 31
0.0
  0
LINE
  5
22
330
1E
100
AcDbEntity
  8
0
  6
BYBLOCK
 62
     0
370
    -2
100
AcDbLine
 10
0.0
 20
0.0
 30
0.0
 11
-1.0
 21
0.0
 31
0.0
  0
ENDBLK
  5
23
330
1E
100
AcDbEntity
  8
0
100
AcDbBlockEnd
  0
BLOCK
  5
25
330
24
100
AcDbEntity
  8
0
100
AcDbBlockBegin
  2
_BOXFILLED
 70
     0
 10
0.0
 20
0.0
 30
0.0
  3
_BOXFILLED
  1

  0
SOLID
  5
26
330
24
100
AcDbEntity
  8
0
  6
BYBLOCK
 62
     0
370
    -2
100
AcDbTrace
 10
-0.5
 20
0.5
 30
0.0
 11
0.5
 21
0.5
 31
0.0
 12
-0.5
 22
-0.5
 32
0.0
 13
0.5
 23
-0.5
 33
0.0
  0
LINE
  5
27
330
24
100
AcDbEntity
  8
0
  6
BYBLOCK
 62
     0
370
    -2
100
AcDbLine
 10
-0.5
 20
0.0
 30
0.0
 11
-1.0
 21
0.0
 31
0.0
  0
ENDBLK
  5
28
330
24
100
AcDbEntity
  8
0
100
AcDbBlockEnd
  0
BLOCK
  5
2A
330
29
100
AcDbEntity
  8
0
100
AcDbBlockBegin
  2
_BOXBLANK
 70
     0
 10
0.0
 20
0.0
 30
0.0
  3
_BOXBLANK
  1

  0
LINE
  5
2B
330
29
100
AcDbEntity
  8
0
  6
BYBLOCK
 62
     0
370
    -2
100
AcDbLine
 10
-0.5
 20
-0.5
 30
0.0
 11
0.5
 21
-0.5
 31
0.0
  0
LINE
  5
2C
330
29
100
AcDbEntity
  8
0
  6
BYBLOCK
 62
     0
370
    -2
100
AcDbLine
 10
0.5
 20
-0.5
 30
0.0
 11
0.5
 21
0.5
 31
0.0
  0
LINE
  5
2D
330
29
100
AcDbEntity
  8
0
  6
BYBLOCK
 62
     0
370
    -2
100
AcDbLine
 10
0.5
 20
0.5
 30
0.0
 11
-0.5
 21
0.5
 31
0.0
  0
LINE
  5
2E
330
29
100
AcDbEntity
  8
0
  6
BYBLOCK
 62
     0
370
    -2
100
AcDbLine
 10
-0.5
 20
0.5
 30
0.0
 11
-0.5
 21
-0.5
 31
0.0
  0
LINE
  5
2F
330
29
100
AcDbEntity
  8
0
  6
BYBLOCK
 62
     0
370
    -2
100
AcDbLine
 10
-0.5
 20
0.0
 30
0.0
 11
-1.0
 21
0.0
 31
0.0
  0
ENDBLK
  5
30
330
29
100
AcDbEntity
  8
0
100
AcDbBlockEnd
  0
BLOCK
  5
32
330
31
100
AcDbEntity
  8
0
100
AcDbBlockBegin
  2
_OBLIQUE
 70
     0
 10
0.0
 20
0.0
 30
0.0
  3
_OBLIQUE
  1

  0
LINE
  5
33
330
31
100
AcDbEntity
  8
0
  6
BYBLOCK
 62
     0
370
    -2
100
AcDbLine
 10
-0.5
 20
-0.5
 30
0.0
 11
0.5
 21
0.5
 31
0.0
  0
ENDBLK
  5
34
330
31
100
AcDbEntity
  8
0
100
AcDbBlockEnd
  0
BLOCK
  5
36
330
35
100
AcDbEntity
  8
0
100
AcDbBlockBegin
  2
_OPEN90
 70
     0
 10
0.0
 20
0.0
 30
0.0
  3
_OPEN90
  1

  0
LINE
  5
37
330
35
100
AcDbEntity
  8
0
  6
BYBLOCK
 62
     0
370
    -2
100
AcDbLine
 10
-0.5
 20
0.5
 30
0.0
 11
0.0
 21
0.0
 31
0.0
  0
LINE
  5
38
330
35
100
AcDbEntity
  8
0
  6
BYBLOCK
 62
     0
370
    -2
100
AcDbLine
 10
0.0
 20
0.0
 30
0.0
 11
-0.5
 21
-0.5
 31
0.0
  0
LINE
  5
39
330
35
100
AcDbEntity
  8
0
  6
BYBLOCK
 62
     0
370
    -2
100
AcDbLine
 10
0.0
 20
0.0
 30
0.0
 11
-1.0
 21
0.0
 31
0.0
  0
ENDBLK
  5
3A
330
35
100
AcDbEntity
  8
0
100
AcDbBlockEnd
  0
BLOCK
  5
3C
330
3B
100
AcDbEntity
  8
0
100
AcDbBlockBegin
  2
_CLOSEDBLANK
 70
     0
 10
0.0
 20
0.0
 30
0.0
  3
_CLOSEDBLANK
  1

  0
LINE
  5
3D
330
3B
100
AcDbEntity
  8
0
  6
BYBLOCK
 62
     0
370
    -2
100
AcDbLine
 10
-1.0
 20
0.1666666666666666
 30
0.0
 11
0.0
 21
0.0
 31
0.0
  0
LINE
  5
3E
330
3B
100
AcDbEntity
  8
0
  6
BYBLOCK
 62
     0
370
    -2
100
AcDbLine
 10
0.0
 20
0.0
 30
0.0
 11
-1.0
 21
-0.1666666666666666
 31
0.0
  0
LINE
  5
3F
330
3B
100
AcDbEntity
  8
0
  6
BYBLOCK
 62
     0
370
    -2
100
AcDbLine
 10
-1.0
 20
0.1666666666666666
 30
0.0
 11
-1.0
 21
-0.1666666666666666
 31
0.0
  0
ENDBLK
  5
40
330
3B
100
AcDbEntity
  8
0
100
AcDbBlockEnd
  0
BLOCK
  5
42
330
41
100
AcDbEntity
  8
0
100
AcDbBlockBegin
  2
_DOTBLANK
 70
     0
 10
0.0
 20
0.0
 30
0.0
  3
_DOTBLANK
  1

  0
CIRCLE
  5
43
330
41
100
AcDbEntity
  8
0
  6
BYBLOCK
 62
     0
370
    -2
100
AcDbCircle
 10
0.0
 20
0.0
 30
0.0
 40
0.5
  0
LINE
  5
44
330
41
100
AcDbEntity
  8
0
  6
BYBLOCK
 62
     0
370
    -2
100
AcDbLine
 10
-0.5
 20
0.0
 30
0.0
 11
-1.0
 21
0.0
 31
0.0
  0
ENDBLK
  5
45
330
41
100
AcDbEntity
  8
0
100
AcDbBlockEnd
  0
ENDSEC
  0
SECTION
  2
ENTITIES
  0
MTEXT
  5
46
100
AcDbEntity
  8
A8
  6
CONTINUOUS
 62
3
100
AcDbMText
 10
9.999997526638502
 20
18.00000076076889
 30
0.000000000000000
 40
3.000000000000000
 41
0.000000000000000
 44
0.6739999771118164
 71
     7
 72
     1
  1
{\H0.94x;{TYPE No.THA-101S-2}}
 11
1.000000000000000
 21
0.000000000000000
 31
0.000000000000000
  7
STANDARD
  0
POINT
  5
47
100
AcDbEntity
  8
A0
  6
CONTINUOUS
 62
3
100
AcDbPoint
 10
9.999997526638502
 20
18.00000076076889
 30
0.000000000000000
  0
LINE
  5
48
100
AcDbEntity
  8
A4
  6
CONTINUOUS
 62
7
100
AcDbLine
 10
23.76475145817474
 20
111.6954901830625
 30
0.000000000000000
 11
41.76475145817474
 21
111.6954901830625
 31
0.000000000000000
  0
LINE
  5
49
100
AcDbEntity
  8
A4
  6
CONTINUOUS
 62
7
100
AcDbLine
 10
23.76475145817474
 20
204.1954901830624
 30
0.000000000000000
 11
23.76475145817474
 21
195.1954901830624
 31
0.000000000000000
  0
LINE
  5
4A
100
AcDbEntity
  8
A4
  6
CONTINUOUS
 62
7
100
AcDbLine
 10
145.7650514581746
 20
204.1954901830624
 30
0.000000000000000
 11
145.7650514581746
 21
195.1954901830624
 31
0.000000000000000
  0
LINE
  5
4B
100
AcDbEntity
  8
A4
  6
CONTINUOUS
 62
7
100
AcDbLine
 10
127.7650514581747
 20
111.6954901830625
 30
0.000000000000000
 11
145.7650514581746
 21
111.6954901830625
 31
0.000000000000000
  0
LINE
  5
4C
100
AcDbEntity
  8
A4
  6
CONTINUOUS
 62
7
100
AcDbLine
 10
25.26475145817474
 20
129.5774901830623
 30
0.000000000000000
 11
23.76475145817474
 21
111.6954901830625
 31
0.000000000000000
  0
LINE
  5
4D
100
AcDbEntity
  8
A4
  6
CONTINUOUS
 62
7
100
AcDbLine
 10
144.2650514581747
 20
129.5774901830623
 30
0.000000000000000
 11
145.7650514581747
 21
111.6954901830625
 31
0.000000000000000
  0
LINE
  5
4E
100
AcDbEntity
  8
A4
  6
CONTINUOUS
 62
7
100
AcDbLine
 10
124.7650514581747
 20
194.6954901830625
 30
0.000000000000000
 11
114.7650514581747
 21
194.4954901830625
 31
0.000000000000000
  0
LINE
  5
4F
100
AcDbEntity
  8
A4
  6
CONTINUOUS
 62
7
100
AcDbLine
 10
54.76475145817475
 20
194.4954901830625
 30
0.000000000000000
 11
44.76475145817475
 21
194.6954901830625
 31
0.000000000000000
  0
LINE
  5
50
100
AcDbEntity
  8
A2
  6
CENTER
 62
1
100
AcDbLine
 10
84.76475145817474
 20
142.6954901830625
 30
0.000000000000000
 11
84.76475145817474
 21
130.3130871830625
 31
0.000000000000000
  0
LINE
  5
51
100
AcDbEntity
  8
A2
  6
CENTER
 62
1
100
AcDbLine
 10
20.76475145817474
 20
199.6954901830624
 30
0.000000000000000
 11
148.7650514581746
 21
199.6954901830624
 31
0.000000000000000
  0
LINE
  5
52
100
AcDbEntity
  8
A4
  6
CONTINUOUS
 62
7
100
AcDbLine
 10
25.26475145817474
 20
203.6954901830624
 30
0.000000000000000
 11
25.26475145817474
 21
195.6954901830624
 31
0.000000000000000
  0
LINE
  5
53
100
AcDbEntity
  8
A4
  6
CONTINUOUS
 62
7
100
AcDbLine
 10
144.2650514581746
 20
203.6954901830624
 30
0.000000000000000
 11
144.2650514581746
 21
195.6954901830624
 31
0.000000000000000
  0
LINE
  5
54
100
AcDbEntity
  8
A4
  6
CONTINUOUS
 62
7
100
AcDbLine
 10
23.76475145817474
 20
59.19589018306252
 30
0.000000000000000
 11
23.76475145817474
 21
50.19589018306254
 31
0.000000000000000
  0
LINE
  5
55
100
AcDbEntity
  8
A4
  6
CONTINUOUS
 62
7
100
AcDbLine
 10
145.7650514581746
 20
59.19589018306252
 30
0.000000000000000
 11
145.7650514581746
 21
50.19589018306254
 31
0.000000000000000
  0
LINE
  5
56
100
AcDbEntity
  8
A2
  6
CENTER
 62
1
100
AcDbLine
 10
20.76475145817474
 20
54.69589018306253
 30
0.000000000000000
 11
148.7650514581746
 21
54.69589018306253
 31
0.000000000000000
  0
LINE
  5
57
100
AcDbEntity
  8
A2
  6
CENTER
 62
1
100
AcDbLine
 10
84.76475145817474
 20
63.19589018306254
 30
0.000000000000000
 11
84.76475145817474
 21
46.19589018306254
 31
0.000000000000000
  0
LINE
  5
58
100
AcDbEntity
  8
A2
  6
CENTER
 62
1
100
AcDbLine
 10
135.7650514581748
 20
60.69589018306254
 30
0.000000000000000
 11
135.7650514581748
 21
48.69589018306254
 31
0.000000000000000
  0
LINE
  5
59
100
AcDbEntity
  8
A2
  6
CENTER
 62
1
100
AcDbLine
 10
33.76475145817473
 20
60.69589018306254
 30
0.000000000000000
 11
33.76475145817473
 21
48.69589018306254
 31
0.000000000000000
  0
LINE
  5
5A
100
AcDbEntity
  8
A4
  6
CONTINUOUS
 62
7
100
AcDbLine
 10
23.76475145817474
 20
204.1954901830624
 30
0.000000000000000
 11
25.26475145817475
 21
203.6954901830624
 31
0.000000000000000
  0
LINE
  5
5B
100
AcDbEntity
  8
A4
  6
CONTINUOUS
 62
7
100
AcDbLine
 10
23.76475145817474
 20
195.1954901830624
 30
0.000000000000000
 11
25.26475145817476
 21
195.6954901830624
 31
0.000000000000000
  0
LINE
  5
5C
100
AcDbEntity
  8
A4
  6
CONTINUOUS
 62
7
100
AcDbLine
 10
145.7650514581746
 20
204.1954901830624
 30
0.000000000000000
 11
144.2650514581746
 21
203.6954901830625
 31
0.000000000000000
  0
LINE
  5
5D
100
AcDbEntity
  8
A4
  6
CONTINUOUS
 62
7
100
AcDbLine
 10
145.7650514581746
 20
195.1954901830624
 30
0.000000000000000
 11
144.2650514581746
 21
195.6954901830624
 31
0.000000000000000
  0
LINE
  5
5E
100
AcDbEntity
  8
A4
  6
CONTINUOUS
 62
7
100
AcDbLine
 10
195.7650514581746
 20
139.6954901830625
 30
0.000000000000000
 11
206.7650514581747
 21
139.6954901830625
 31
0.000000000000000
  0
LINE
  5
5F
100
AcDbEntity
  8
A4
  6
CONTINUOUS
 62
7
100
AcDbLine
 10
197.2650514581746
 20
129.5774901830624
 30
0.000000000000000
 11
205.2650514581746
 21
129.5774901830624
 31
0.000000000000000
  0
LINE
  5
60
100
AcDbEntity
  8
A4
  6
CONTINUOUS
 62
7
100
AcDbLine
 10
196.3250514581746
 20
111.6954901830625
 30
0.000000000000000
 11
206.2050514581746
 21
111.6954901830625
 31
0.000000000000000
  0
LINE
  5
61
100
AcDbEntity
  8
A2
  6
CENTER
 62
1
100
AcDbLine
 10
201.2650514581747
 20
142.6954901830625
 30
0.000000000000000
 11
201.2650514581747
 21
108.6954901830625
 31
0.000000000000000
  0
LINE
  5
62
100
AcDbEntity
  8
A4
  6
CONTINUOUS
 62
7
100
AcDbLine
 10
197.2650514581747
 20
129.5774901830623
 30
0.000000000000000
 11
196.7650514581747
 21
111.6954901830626
 31
0.000000000000000
  0
LINE
  5
63
100
AcDbEntity
  8
A4
  6
CONTINUOUS
 62
7
100
AcDbLine
 10
205.2650514581747
 20
129.5774901830624
 30
0.000000000000000
 11
205.7650514581748
 21
111.6954901830626
 31
0.000000000000000
  0
LINE
  5
64
100
AcDbEntity
  8
A4
  6
CONTINUOUS
 62
7
100
AcDbLine
 10
205.2650514581746
 20
129.5774901830624
 30
0.000000000000000
 11
206.7650514581747
 21
139.6954901830626
 31
0.000000000000000
  0
LINE
  5
65
100
AcDbEntity
  8
A4
  6
CONTINUOUS
 62
7
100
AcDbLine
 10
195.7650514581747
 20
139.6954901830626
 30
0.000000000000000
 11
197.2650514581747
 21
129.5774901830624
 31
0.000000000000000
  0
LINE
  5
66
100
AcDbEntity
  8
A4
  6
CONTINUOUS
 62
7
100
AcDbLine
 10
195.7650514581746
 20
139.6954901830626
 30
0.000000000000000
 11
196.3250514581746
 21
111.6954901830625
 31
0.000000000000000
  0
LINE
  5
67
100
AcDbEntity
  8
A4
  6
CONTINUOUS
 62
7
100
AcDbLine
 10
206.7650514581747
 20
139.6954901830626
 30
0.000000000000000
 11
206.2050514581746
 21
111.6954901830626
 31
0.000000000000000
  0
LINE
  5
68
100
AcDbEntity
  8
A4
  6
CONTINUOUS
 62
7
100
AcDbLine
 10
82.54265145817473
 20
51.93149018306252
 30
0.000000000000000
 11
82.54265145817473
 21
53.62949018306254
 31
0.000000000000000
  0
LINE
  5
69
100
AcDbEntity
  8
A4
  6
CONTINUOUS
 62
7
100
AcDbLine
 10
79.87575145817475
 20
53.05569018306252
 30
0.000000000000000
 11
79.87575145817475
 21
56.33429018306254
 31
0.000000000000000
  0
LINE
  5
6A
100
AcDbEntity
  8
A4
  6
CONTINUOUS
 62
7
100
AcDbLine
 10
80.76525145817473
 20
56.88819018306254
 30
0.000000000000000
 11
80.76525145817473
 21
52.50349018306254
 31
0.000000000000000
  0
LINE
  5
6B
100
AcDbEntity
  8
A4
  6
CONTINUOUS
 62
7
100
AcDbLine
 10
81.65305145817474
 20
57.00369018306252
 30
0.000000000000000
 11
81.65305145817474
 21
52.38629018306254
 31
0.000000000000000
  0
LINE
  5
6C
100
AcDbEntity
  8
A4
  6
CONTINUOUS
 62
7
100
AcDbLine
 10
78.98615145817473
 20
57.13359018306255
 30
0.000000000000000
 11
78.98615145817473
 21
53.30109018306254
 31
0.000000000000000
  0
LINE
  5
6D
100
AcDbEntity
  8
A4
  6
CONTINUOUS
 62
7
100
AcDbLine
 10
82.54265145817473
 20
55.76229018306254
 30
0.000000000000000
 11
82.54265145817473
 21
57.45839018306254
 31
0.000000000000000
  0
LINE
  5
6E
100
AcDbEntity
  8
A4
  6
CONTINUOUS
 62
7
100
AcDbLine
 10
86.98685145817475
 20
52.18599018306254
 30
0.000000000000000
 11
86.98685145817475
 21
54.69589018306253
 31
0.000000000000000
  0
LINE
  5
6F
100
AcDbEntity
  8
A4
  6
CONTINUOUS
 62
7
100
AcDbLine
 10
89.20815145817475
 20
54.69589018306253
 30
0.000000000000000
 11
89.20815145817475
 21
52.56309018306254
 31
0.000000000000000
  0
LINE
  5
70
100
AcDbEntity
  8
A4
  6
CONTINUOUS
 62
7
100
AcDbLine
 10
84.31995145817474
 20
54.69589018306253
 30
0.000000000000000
 11
83.43035145817475
 21
54.69589018306253
 31
0.000000000000000
  0
LINE
  5
71
100
AcDbEntity
  8
A4
  6
CONTINUOUS
 62
7
100
AcDbLine
 10
86.98685145817475
 20
54.69589018306253
 30
0.000000000000000
 11
86.54115145817475
 21
54.69589018306253
 31
0.000000000000000
  0
LINE
  5
72
100
AcDbEntity
  8
A4
  6
CONTINUOUS
 62
7
100
AcDbLine
 10
92.38745145817475
 20
54.69589018306253
 30
0.000000000000000
 11
90.55055145817475
 21
54.69589018306253
 31
0.000000000000000
  0
LINE
  5
73
100
AcDbEntity
  8
A4
  6
CONTINUOUS
 62
7
100
AcDbLine
 10
90.10485145817474
 20
53.03219018306253
 30
0.000000000000000
 11
91.10995145817473
 21
56.77819018306255
 31
0.000000000000000
  0
LINE
  5
74
100
AcDbEntity
  8
A4
  6
CONTINUOUS
 62
7
100
AcDbLine
 10
83.43035145817475
 20
57.72189018306254
 30
0.000000000000000
 11
83.43035145817475
 21
51.66809018306254
 31
0.000000000000000
  0
LINE
  5
75
100
AcDbEntity
  8
A4
  6
CONTINUOUS
 62
7
100
AcDbLine
 10
84.31995145817474
 20
57.79579018306254
 30
0.000000000000000
 11
84.31995145817474
 21
51.59409018306254
 31
0.000000000000000
  0
LINE
  5
76
100
AcDbEntity
  8
A4
  6
CONTINUOUS
 62
7
100
AcDbLine
 10
85.20955145817474
 20
57.79579018306254
 30
0.000000000000000
 11
85.20955145817474
 21
51.59409018306254
 31
0.000000000000000
  0
LINE
  5
77
100
AcDbEntity
  8
A4
  6
CONTINUOUS
 62
7
100
AcDbLine
 10
86.09725145817477
 20
57.62079018306254
 30
0.000000000000000
 11
86.09725145817477
 21
51.76919018306254
 31
0.000000000000000
  0
LINE
  5
78
100
AcDbEntity
  8
A4
  6
CONTINUOUS
 62
7
100
AcDbLine
 10
87.87465145817475
 20
57.61719018306253
 30
0.000000000000000
 11
87.87465145817475
 21
52.05239018306254
 31
0.000000000000000
  0
LINE
  5
79
100
AcDbEntity
  8
A4
  6
CONTINUOUS
 62
7
100
AcDbLine
 10
86.98685145817475
 20
55.76229018306254
 30
0.000000000000000
 11
86.98685145817475
 21
57.20399018306254
 31
0.000000000000000
  0
LINE
  5
7A
100
AcDbEntity
  8
A4
  6
CONTINUOUS
 62
7
100
AcDbLine
 10
88.76425145817475
 20
57.19859018306254
 30
0.000000000000000
 11
88.76425145817475
 21
55.13979018306254
 31
0.000000000000000
  0
LINE
  5
7B
100
AcDbEntity
  8
A4
  6
CONTINUOUS
 62
7
100
AcDbLine
 10
89.65195145817475
 20
55.13979018306254
 30
0.000000000000000
 11
89.65195145817475
 21
57.03799018306254
 31
0.000000000000000
  0
LINE
  5
7C
100
AcDbEntity
  8
A2
  6
CENTER
 62
1
100
AcDbLine
 10
33.76475145817473
 20
114.6954901830625
 30
0.000000000000000
 11
33.76475145817473
 21
108.6954901830625
 31
0.000000000000000
  0
LINE
  5
7D
100
AcDbEntity
  8
A2
  6
CENTER
 62
1
100
AcDbLine
 10
135.7650514581748
 20
114.6954901830625
 30
0.000000000000000
 11
135.7650514581748
 21
108.6954901830625
 31
0.000000000000000
  0
LINE
  5
7E
100
AcDbEntity
  8
A4
  6
CONTINUOUS
 62
7
100
AcDbLine
 10
127.7650514581747
 20
113.5844901830625
 30
0.000000000000000
 11
127.7650514581747
 21
111.6954901830625
 31
0.000000000000000
  0
LINE
  5
7F
100
AcDbEntity
  8
A4
  6
CONTINUOUS
 62
7
100
AcDbLine
 10
128.8150514581747
 20
113.5844901830625
 30
0.000000000000000
 11
128.8150514581747
 21
111.6954901830625
 31
0.000000000000000
  0
LINE
  5
80
100
AcDbEntity
  8
A4
  6
CONTINUOUS
 62
7
100
AcDbLine
 10
40.71475145817475
 20
113.5844901830625
 30
0.000000000000000
 11
40.71475145817475
 21
111.6954901830625
 31
0.000000000000000
  0
LINE
  5
81
100
AcDbEntity
  8
A4
  6
CONTINUOUS
 62
7
100
AcDbLine
 10
41.76475145817474
 20
113.5844901830625
 30
0.000000000000000
 11
41.76475145817474
 21
111.6954901830625
 31
0.000000000000000
  0
LINE
  5
82
100
AcDbEntity
  8
A2
  6
CENTER
 62
1
100
AcDbLine
 10
135.7650514581748
 20
208.1954901830624
 30
0.000000000000000
 11
135.7650514581748
 21
191.1954901830624
 31
0.000000000000000
  0
LINE
  5
83
100
AcDbEntity
  8
A2
  6
CENTER
 62
1
100
AcDbLine
 10
33.76475145817473
 20
208.1954901830624
 30
0.000000000000000
 11
33.76475145817473
 21
191.1954901830624
 31
0.000000000000000
  0
LINE
  5
84
100
AcDbEntity
  8
A2
  6
CENTER
 62
1
100
AcDbLine
 10
84.76475145817474
 20
208.1954901830624
 30
0.000000000000000
 11
84.76475145817474
 21
191.1954901830624
 31
0.000000000000000
  0
ARC
  5
85
100
AcDbEntity
  8
A4
  6
CONTINUOUS
 62
7
100
AcDbCircle
 10
84.76475145817474
 20
-40.30410981693746
 30
0.000000000000000
 40
180.0000000000000
100
AcDbArc
 50
70.69750000000002
 51
109.3029999999999
  0
ARC
  5
86
100
AcDbEntity
  8
A4
  6
CONTINUOUS
 62
7
100
AcDbCircle
 10
84.76475145817474
 20
14.69589018306254
 30
0.000000000000000
 40
120.0000000000000
100
AcDbArc
 50
75.81239999999998
 51
104.1879999999999
  0
ARC
  5
87
100
AcDbEntity
  8
A4
  6
CONTINUOUS
 62
7
100
AcDbCircle
 10
84.76475145817474
 20
14.69589018306254
 30
0.000000000000000
 40
121.0499999999999
100
AcDbArc
 50
75.75629999999998
 51
104.1879999999999
  0
CIRCLE
  5
88
100
AcDbEntity
  8
A5
  6
CONTINUOUS
 62
4
100
AcDbCircle
 10
33.76475145817473
 20
54.69589018306253
 30
0.000000000000000
 40
3.000000000000000
  0
CIRCLE
  5
89
100
AcDbEntity
  8
A4
  6
CONTINUOUS
 62
7
100
AcDbCircle
 10
135.7650514581748
 20
54.69589018306253
 30
0.000000000000000
 40
2.458499999999999
  0
CIRCLE
  5
8A
100
AcDbEntity
  8
A5
  6
CONTINUOUS
 62
4
100
AcDbCircle
 10
135.7650514581748
 20
54.69589018306253
 30
0.000000000000000
 40
3.000000000000000
  0
ARC
  5
8B
100
AcDbEntity
  8
A4
  6
CONTINUOUS
 62
7
100
AcDbCircle
 10
139.7650514581748
 20
54.69589018306253
 30
0.000000000000000
 40
12.00000000000000
100
AcDbArc
 50
155.8009999999999
 51
204.4230000000000
  0
CIRCLE
  5
8C
100
AcDbEntity
  8
A4
  6
CONTINUOUS
 62
7
100
AcDbCircle
 10
33.76475145817473
 20
54.69589018306253
 30
0.000000000000000
 40
2.458499999999999
  0
ARC
  5
8D
100
AcDbEntity
  8
A4
  6
CONTINUOUS
 62
7
100
AcDbCircle
 10
29.76475145817474
 20
54.69589018306253
 30
0.000000000000000
 40
12.00000000000000
100
AcDbArc
 50
335.8010000000000
 51
384.1990999999999
  0
ARC
  5
8E
100
AcDbEntity
  8
A4
  6
CONTINUOUS
 62
7
100
AcDbCircle
 10
84.76385145817474
 20
47.22929018306254
 30
0.000000000000000
 40
10.57680000000000
100
AcDbArc
 50
102.7290000000000
 51
103.2680000000000
  0
ARC
  5
8F
100
AcDbEntity
  8
A4
  6
CONTINUOUS
 62
7
100
AcDbCircle
 10
84.76385145817474
 20
47.22929018306254
 30
0.000000000000000
 40
10.57680000000000
100
AcDbArc
 50
103.2680000000000
 51
105.2580000000000
  0
ARC
  5
90
100
AcDbEntity
  8
A4
  6
CONTINUOUS
 62
7
100
AcDbCircle
 10
82.09875145817473
 20
57.00369018306252
 30
0.000000000000000
 40
0.4446040000000000
100
AcDbArc
 50
105.2580000000000
 51
180.0000000000000
  0
ARC
  5
91
100
AcDbEntity
  8
A4
  6
CONTINUOUS
 62
7
100
AcDbCircle
 10
82.09875145817473
 20
52.38629018306254
 30
0.000000000000000
 40
0.4446040000000000
100
AcDbArc
 50
180.0000000000000
 51
254.7419999999999
  0
ARC
  5
92
100
AcDbEntity
  8
A4
  6
CONTINUOUS
 62
7
100
AcDbCircle
 10
84.76385145817474
 20
62.16069018306254
 30
0.000000000000000
 40
10.57680000000000
100
AcDbArc
 50
254.7419999999999
 51
254.7940000000000
  0
ARC
  5
93
100
AcDbEntity
  8
A4
  6
CONTINUOUS
 62
7
100
AcDbCircle
 10
84.76385145817474
 20
62.16069018306254
 30
0.000000000000000
 40
10.57680000000000
100
AcDbArc
 50
254.7940000000000
 51
257.2709999999998
  0
ARC
  5
94
100
AcDbEntity
  8
A4
  6
CONTINUOUS
 62
7
100
AcDbCircle
 10
79.43185145817475
 20
54.69589018306253
 30
0.000000000000000
 40
2.290500000000000
100
AcDbArc
 50
125.5310000000000
 51
234.4619999999999
  0
ARC
  5
95
100
AcDbEntity
  8
A4
  6
CONTINUOUS
 62
7
100
AcDbCircle
 10
80.31955145817474
 20
53.05569018306252
 30
0.000000000000000
 40
0.4446040000000000
100
AcDbArc
 50
180.0000000000000
 51
243.9859999999999
  0
ARC
  5
96
100
AcDbEntity
  8
A4
  6
CONTINUOUS
 62
7
100
AcDbCircle
 10
80.67515145817475
 20
52.50349018306254
 30
0.000000000000000
 40
0.08895699999999999
100
AcDbArc
 50
247.0559999999999
 51
360.0000000000000
  0
ARC
  5
97
100
AcDbEntity
  8
A4
  6
CONTINUOUS
 62
7
100
AcDbCircle
 10
84.76385145817474
 20
62.16069018306254
 30
0.000000000000000
 40
10.57680000000000
100
AcDbArc
 50
243.9859999999999
 51
247.0559999999999
  0
ARC
  5
98
100
AcDbEntity
  8
A4
  6
CONTINUOUS
 62
7
100
AcDbCircle
 10
84.76385145817474
 20
62.16069018306254
 30
0.000000000000000
 40
10.57680000000000
100
AcDbArc
 50
243.9859999999999
 51
244.7720000000000
  0
ARC
  5
99
100
AcDbEntity
  8
A4
  6
CONTINUOUS
 62
7
100
AcDbCircle
 10
80.31955145817474
 20
56.33429018306254
 30
0.000000000000000
 40
0.4446040000000000
100
AcDbArc
 50
116.0139999999999
 51
180.0000000000000
  0
ARC
  5
9A
100
AcDbEntity
  8
A4
  6
CONTINUOUS
 62
7
100
AcDbCircle
 10
80.67515145817475
 20
56.88819018306254
 30
0.000000000000000
 40
0.08895699999999999
100
AcDbArc
 50
0.000000000000000
 51
112.9439999999999
  0
ARC
  5
9B
100
AcDbEntity
  8
A4
  6
CONTINUOUS
 62
7
100
AcDbCircle
 10
84.76385145817474
 20
47.22929018306254
 30
0.000000000000000
 40
10.57680000000000
100
AcDbArc
 50
112.9439999999999
 51
116.0139999999999
  0
ARC
  5
9C
100
AcDbEntity
  8
A4
  6
CONTINUOUS
 62
7
100
AcDbCircle
 10
86.54115145817475
 20
57.20399018306254
 30
0.000000000000000
 40
0.4446040000000000
100
AcDbArc
 50
0.000000000000000
 51
79.89600000000000
  0
ARC
  5
9D
100
AcDbEntity
  8
A4
  6
CONTINUOUS
 62
7
100
AcDbCircle
 10
84.76385145817474
 20
47.22929018306254
 30
0.000000000000000
 40
10.57680000000000
100
AcDbArc
 50
79.89600000000000
 51
82.20700000000001
  0
ARC
  5
9E
100
AcDbEntity
  8
A4
  6
CONTINUOUS
 62
7
100
AcDbCircle
 10
86.18575145817475
 20
57.62079018306254
 30
0.000000000000000
 40
0.08895699999999999
100
AcDbArc
 50
82.20700000000001
 51
180.0000000000000
  0
ARC
  5
9F
100
AcDbEntity
  8
A4
  6
CONTINUOUS
 62
7
100
AcDbCircle
 10
86.54115145817475
 20
52.18599018306254
 30
0.000000000000000
 40
0.4446040000000000
100
AcDbArc
 50
280.1040000000000
 51
360.0000000000000
  0
ARC
  5
A0
100
AcDbEntity
  8
A4
  6
CONTINUOUS
 62
7
100
AcDbCircle
 10
86.18575145817475
 20
51.76919018306254
 30
0.000000000000000
 40
0.08895699999999999
100
AcDbArc
 50
180.0000000000000
 51
277.7930000000001
  0
ARC
  5
A1
100
AcDbEntity
  8
A4
  6
CONTINUOUS
 62
7
100
AcDbCircle
 10
84.76385145817474
 20
62.16069018306254
 30
0.000000000000000
 40
10.57680000000000
100
AcDbArc
 50
277.7930000000001
 51
280.1040000000000
  0
ARC
  5
A2
100
AcDbEntity
  8
A4
  6
CONTINUOUS
 62
7
100
AcDbCircle
 10
89.20815145817475
 20
55.13979018306254
 30
0.000000000000000
 40
0.4446040000000000
100
AcDbArc
 50
180.0000000000000
 51
360.0000000000000
  0
ARC
  5
A3
100
AcDbEntity
  8
A4
  6
CONTINUOUS
 62
7
100
AcDbCircle
 10
90.09765145817477
 20
54.69589018306253
 30
0.000000000000000
 40
2.290690000000000
100
AcDbArc
 50
305.5470000000001
 51
414.4620000000000
  0
ARC
  5
A4
100
AcDbEntity
  8
A4
  6
CONTINUOUS
 62
7
100
AcDbCircle
 10
84.76385145817474
 20
62.16069018306254
 30
0.000000000000000
 40
11.46570000000000
100
AcDbArc
 50
234.4619999999999
 51
305.5379999999999
  0
ARC
  5
A5
100
AcDbEntity
  8
A4
  6
CONTINUOUS
 62
7
100
AcDbCircle
 10
82.45245145817475
 20
51.93149018306252
 30
0.000000000000000
 40
0.08895699999999999
100
AcDbArc
 50
257.2709999999998
 51
360.0000000000000
  0
ARC
  5
A6
100
AcDbEntity
  8
A4
  6
CONTINUOUS
 62
7
100
AcDbCircle
 10
82.45245145817475
 20
57.45839018306254
 30
0.000000000000000
 40
0.08895699999999999
100
AcDbArc
 50
0.000000000000000
 51
102.7290000000000
  0
ARC
  5
A7
100
AcDbEntity
  8
A4
  6
CONTINUOUS
 62
7
100
AcDbCircle
 10
84.76385145817474
 20
47.22929018306254
 30
0.000000000000000
 40
11.46570000000000
100
AcDbArc
 50
54.46200000000001
 51
125.5380000000000
  0
ARC
  5
A8
100
AcDbEntity
  8
A4
  6
CONTINUOUS
 62
7
100
AcDbCircle
 10
109.7647514581747
 20
113.5844901830625
 30
0.000000000000000
 40
18.00000000000000
100
AcDbArc
 50
0.000000000000000
 51
75.81239999999998
  0
ARC
  5
A9
100
AcDbEntity
  8
A4
  6
CONTINUOUS
 62
7
100
AcDbCircle
 10
109.7647514581747
 20
113.5844901830625
 30
0.000000000000000
 40
19.05000000000000
100
AcDbArc
 50
0.000000000000000
 51
75.81239999999998
  0
ARC
  5
AA
100
AcDbEntity
  8
A4
  6
CONTINUOUS
 62
7
100
AcDbCircle
 10
59.76475145817474
 20
113.5844901830625
 30
0.000000000000000
 40
18.00000000000000
100
AcDbArc
 50
104.1879999999999
 51
180.0000000000000
  0
ARC
  5
AB
100
AcDbEntity
  8
A4
  6
CONTINUOUS
 62
7
100
AcDbCircle
 10
59.76475145817474
 20
113.5844901830625
 30
0.000000000000000
 40
19.05000000000000
100
AcDbArc
 50
104.1879999999999
 51
180.0000000000000
  0
ARC
  5
AC
100
AcDbEntity
  8
A4
  6
CONTINUOUS
 62
7
100
AcDbCircle
 10
84.76475145817474
 20
-1655.805509816938
 30
0.000000000000000
 40
1861.000000000000
100
AcDbArc
 50
88.12160000000002
 51
91.87839999999997
  0
ARC
  5
AD
100
AcDbEntity
  8
A4
  6
CONTINUOUS
 62
7
100
AcDbCircle
 10
84.76475145817474
 20
-975.6375098169376
 30
0.000000000000000
 40
1180.830000000000
100
AcDbArc
 50
87.11170000000000
 51
92.88830000000000
  0
ARC
  5
AE
100
AcDbEntity
  8
A4
  6
CONTINUOUS
 62
7
100
AcDbCircle
 10
84.76475145817474
 20
1375.024490183061
 30
0.000000000000000
 40
1180.830000000000
100
AcDbArc
 50
267.1120000000000
 51
272.8879999999999
  0
ARC
  5
AF
100
AcDbEntity
  8
A4
  6
CONTINUOUS
 62
7
100
AcDbCircle
 10
84.76475145817474
 20
2055.194490183062
 30
0.000000000000000
 40
1861.000000000000
100
AcDbArc
 50
268.1220000000000
 51
271.8779999999999
  0
ARC
  5
B0
100
AcDbEntity
  8
A4
  6
CONTINUOUS
 62
7
100
AcDbCircle
 10
84.76475145817474
 20
-1800.805509816938
 30
0.000000000000000
 40
1861.000000000000
100
AcDbArc
 50
88.12160000000002
 51
91.87839999999997
  0
ARC
  5
B1
100
AcDbEntity
  8
A4
  6
CONTINUOUS
 62
7
100
AcDbCircle
 10
84.76475145817474
 20
1910.194490183062
 30
0.000000000000000
 40
1861.000000000000
100
AcDbArc
 50
268.1220000000000
 51
271.8779999999999
  0
ENDSEC
  0
SECTION
  2
OBJECTS
  0
DICTIONARY
  5
DE
100
AcDbDictionary
  3
ACAD_GROUP
350
DF
  3
ACAD_LAYOUT
350
E0
  3
ACAD_MLINESTYLE
350
E1
  0
DICTIONARY
  5
DF
102
{ACAD_REACTORS
330
DE
102
}
330
DE
100
AcDbDictionary
  0
DICTIONARY
  5
E0
102
{ACAD_REACTORS
330
DE
102
}
330
DE
100
AcDbDictionary
  3
Model
350
E2
  3
ﾚｲｱｳﾄ1
350
E3
  3
ﾚｲｱｳﾄ2
350
E4
  0
DICTIONARY
  5
E1
102
{ACAD_REACTORS
330
DE
102
}
330
DE
100
AcDbDictionary
  3
STANDARD
350
E5
  0
LAYOUT
  5
E2
102
{ACAD_REACTORS
330
E0
102
}
330
E0
100
AcDbPlotSettings
 70
11952
  4
A3
 44
297.000000
 45
420.000000
 73
  1
 72
  1
100
AcDbLayout
  1
Model
 71
0
330
D5
  0
LAYOUT
  5
E3
102
{ACAD_REACTORS
330
E0
102
}
330
E0
100
AcDbPlotSettings
100
AcDbLayout
  1
ﾚｲｱｳﾄ1
 71
1
330
D6
  0
LAYOUT
  5
E4
102
{ACAD_REACTORS
330
E0
102
}
330
E0
100
AcDbPlotSettings
100
AcDbLayout
  1
ﾚｲｱｳﾄ2
 71
2
330
D7
  0
MLINESTYLE
  5
E5
102
{ACAD_REACTORS
330
E1
102
}
330
E1
100
AcDbMlineStyle
  2
STANDARD
 70
     0
  3

 62
   256
 51
90.00
 52
90.00
 71
     2
 49
0.50
 62
   256
  6
BYLAYER
 49
-0.50
 62
   256
  6
BYLAYER
  0
ENDSEC
  0
EOF
