  0
SECTION
  2
HEADER
  9
$ACADVER
  1
AC1024
  9
$DWGCODEPAGE
  3
ANSI_932
  9
$LTSCALE
 40
20.0
  9
$FILLMODE
 70
     1
  9
$CLAYER
  8
0
  9
$PDMODE
 70
     0
  9
$SPLFRAME
 70
     0
  9
$SPLINETYPE
 70
     6
  9
$SPLINESEGS
 70
     8
  9
$DIMASZ
 40
2.000000
  9
$DIMEXE
 40
1.500000
  9
$DIMEXO
 40
0.800000
  9
$DIMTAD
 70
     1
  9
$DIMTIH
 70
     0
  9
$DIMTOH
 70
     0
  9
$DIMTVP
 40
0.500000
  9
$DIMTXT
 40
3.100000
  9
$EXTMIN
 10
0.000000
 20
0.000000
 30
0.000000
  9
$EXTMAX
 10
297.000000
 20
420.000000
 30
0.000000
  9
$MEASUREMENT
 70
  1
  9
$LIMMIN
 10
0.000000
 20
0.000000
  9
$LIMMAX
 10
297.000000
 20
420.000000
  9
$HANDSEED
  5
107
  9
$LWDISPLAY
290
     0
  9
$DIMBLK
  1
_OPEN
  9
$DIMDEC
 70
     2
  9
$DIMADEC
 70
     2
  9
$DIMAUNIT
 70
     0
  9
$DIMZIN
 70
     8
  9
$DIMAZIN
 70
     2
  9
$DIMTOFL
 70
     1
  0
ENDSEC
  0
SECTION
  2
CLASSES
  0
ENDSEC
  0
SECTION
  2
TABLES
  0
TABLE
  2
VPORT
  5
D3
100
AcDbSymbolTable
 70
     1
  0
VPORT
  5
D4
100
AcDbSymbolTableRecord
100
AcDbViewportTableRecord
  2
*ACTIVE
 70
     0
 12
94.180578
 22
107.958552
 40
179.917103
 41
0.935771
  0
ENDTAB
  0
TABLE
  2
LTYPE
  5
D5
100
AcDbSymbolTable
 70
     2
  0
LTYPE
  5
D6
100
AcDbSymbolTableRecord
100
AcDbLinetypeTableRecord
  2
BYBLOCK
 70
     0
  3

 72
    65
 73
     0
 40
0.0
  0
LTYPE
  5
D7
100
AcDbSymbolTableRecord
100
AcDbLinetypeTableRecord
  2
BYLAYER
 70
     0
  3

 72
    65
 73
     0
 40
0.0
  0
LTYPE
  5
D8
100
AcDbSymbolTableRecord
100
AcDbLinetypeTableRecord
  2
CONTINUOUS
 70
     0
  3
Solid line (NEC CAE2D for Win R18.0 : 2024.07.18)
 72
    65
 73
     0
 40
0.0
  0
LTYPE
  5
D9
100
AcDbSymbolTableRecord
100
AcDbLinetypeTableRecord
  2
CENTER
 70
     0
  3
____ _ ____ _ ____ _ ____ _ ____ _ ____
 72
    65
 73
     4
 40
2.0
 49
1.25
 74
     0
 49
-0.25
 74
     0
 49
0.25
 74
     0
 49
-0.25
 74
     0
  0
ENDTAB
  0
TABLE
  2
LAYER
  5
DA
100
AcDbSymbolTable
 70
    14
  0
LAYER
  5
DB
100
AcDbSymbolTableRecord
100
AcDbLayerTableRecord
  2
0
 70
     0
 62
     7
  6
CONTINUOUS
370
    -3
390

  0
LAYER
  5
DC
100
AcDbSymbolTableRecord
100
AcDbLayerTableRecord
  2
A0
 70
     0
 62
     9
  6
CONTINUOUS
370
    -3
390

  0
LAYER
  5
DD
100
AcDbSymbolTableRecord
100
AcDbLayerTableRecord
  2
A2
 70
     0
 62
     9
  6
CONTINUOUS
370
    -3
390

  0
LAYER
  5
DE
100
AcDbSymbolTableRecord
100
AcDbLayerTableRecord
  2
A4
 70
     0
 62
     9
  6
CONTINUOUS
370
    -3
390

  0
LAYER
  5
DF
100
AcDbSymbolTableRecord
100
AcDbLayerTableRecord
  2
A5
 70
     0
 62
     8
  6
CONTINUOUS
370
    -3
390

  0
LAYER
  5
E0
100
AcDbSymbolTableRecord
100
AcDbLayerTableRecord
  2
A6
 70
     0
 62
    12
  6
CONTINUOUS
370
    -3
390

  0
LAYER
  5
E1
100
AcDbSymbolTableRecord
100
AcDbLayerTableRecord
  2
A8
 70
     0
 62
    10
  6
CONTINUOUS
370
    -3
390

  0
LAYER
  5
E2
100
AcDbSymbolTableRecord
100
AcDbLayerTableRecord
  2
A9
 70
     0
 62
     9
  6
CONTINUOUS
370
    -3
390

  0
LAYER
  5
E3
100
AcDbSymbolTableRecord
100
AcDbLayerTableRecord
  2
A10
 70
     0
 62
     6
  6
CONTINUOUS
370
    -3
390

  0
LAYER
  5
E4
100
AcDbSymbolTableRecord
100
AcDbLayerTableRecord
  2
A20
 70
     0
 62
     1
  6
CONTINUOUS
370
    -3
390

  0
LAYER
  5
E5
100
AcDbSymbolTableRecord
100
AcDbLayerTableRecord
  2
A30
 70
     0
 62
     1
  6
CONTINUOUS
370
    -3
390

  0
LAYER
  5
E6
100
AcDbSymbolTableRecord
100
AcDbLayerTableRecord
  2
A40
 70
     0
 62
     9
  6
CONTINUOUS
370
    -3
390

  0
LAYER
  5
E7
100
AcDbSymbolTableRecord
100
AcDbLayerTableRecord
  2
A50
 70
     0
 62
    12
  6
CONTINUOUS
370
    -3
390

  0
LAYER
  5
E8
100
AcDbSymbolTableRecord
100
AcDbLayerTableRecord
  2
A1023
 70
     0
 62
    16
  6
CONTINUOUS
370
    -3
390

  0
ENDTAB
  0
TABLE
  2
STYLE
  5
E9
100
AcDbSymbolTable
 70
     4
  0
STYLE
  5
EA
100
AcDbSymbolTableRecord
100
AcDbTextStyleTableRecord
  2
STANDARD
 70
    64
 40
0.0
 41
1.0
 50
0.0
 71
     0
 42
3.000000000000000
  3
TXT
  4

  0
STYLE
  5
EB
100
AcDbSymbolTableRecord
100
AcDbTextStyleTableRecord
  2
ANKTATE
 70
    68
 40
0.0
 41
1.0
 50
0.0
 71
     0
 42
3.000000000000000
  3
TXT
  4

  0
STYLE
  5
EC
100
AcDbSymbolTableRecord
100
AcDbTextStyleTableRecord
  2
KNJYOKO
 70
    64
 40
0.0
 41
1.0
 50
0.0
 71
     0
 42
3.000000000000000
  3
TXT
  4
BIGFONT
  0
STYLE
  5
ED
100
AcDbSymbolTableRecord
100
AcDbTextStyleTableRecord
  2
KNJTATE
 70
    68
 40
0.0
 41
1.0
 50
0.0
 71
     0
 42
3.000000000000000
  3
TXT
  4
BIGFONT
  0
ENDTAB
  0
TABLE
  2
VIEW
  5
EE
100
AcDbSymbolTable
 70
     0
  0
ENDTAB
  0
TABLE
  2
UCS
  5
EF
100
AcDbSymbolTable
 70
     0
  0
ENDTAB
  0
TABLE
  2
APPID
  5
F0
100
AcDbSymbolTable
 70
     1
  0
APPID
  5
F1
100
AcDbSymbolTableRecord
100
AcDbRegAppTableRecord
  2
ACAD
 70
     0
  0
ENDTAB
  0
TABLE
  2
DIMSTYLE
  5
F2
100
AcDbSymbolTable
 70
     2
100
AcDbDimStyleTable
  0
DIMSTYLE
105
F3
100
AcDbSymbolTableRecord
100
AcDbDimStyleTableRecord
  2
STANDARD
 70
     0
 41
2.000000
 44
1.500000
 42
0.800000
145
0.661290
140
3.100000
144
1.000000
146
0.645161
340
EA
  0
DIMSTYLE
105
F4
100
AcDbSymbolTableRecord
100
AcDbDimStyleTableRecord
  2
A001
 70
     0
 41
2.000000
 44
1.500000
 42
0.800000
145
0.661290
140
3.100000
144
1.000000
146
0.645161
 77
     1
 73
     0
 74
     0
271
     2
179
     2
275
     0
 78
     8
 79
     2
172
     1
340
EA
  0
ENDTAB
  0
TABLE
  2
BLOCK_RECORD
  5
F5
100
AcDbSymbolTable
 70
    12
  0
BLOCK_RECORD
  5
F6
100
AcDbSymbolTableRecord
100
AcDbBlockTableRecord
  2
*MODEL_SPACE
  0
BLOCK_RECORD
  5
F7
100
AcDbSymbolTableRecord
100
AcDbBlockTableRecord
  2
*PAPER_SPACE
  0
BLOCK_RECORD
  5
F8
100
AcDbSymbolTableRecord
100
AcDbBlockTableRecord
  2
*PAPER_SPACE0
  0
BLOCK_RECORD
  5
1
100
AcDbSymbolTableRecord
100
AcDbBlockTableRecord
  2
_NONE
  0
BLOCK_RECORD
  5
4
100
AcDbSymbolTableRecord
100
AcDbBlockTableRecord
  2
_CLOSED
  0
BLOCK_RECORD
  5
B
100
AcDbSymbolTableRecord
100
AcDbBlockTableRecord
  2
_DOT
  0
BLOCK_RECORD
  5
13
100
AcDbSymbolTableRecord
100
AcDbBlockTableRecord
  2
_OPEN
  0
BLOCK_RECORD
  5
19
100
AcDbSymbolTableRecord
100
AcDbBlockTableRecord
  2
_ORIGIN
  0
BLOCK_RECORD
  5
1E
100
AcDbSymbolTableRecord
100
AcDbBlockTableRecord
  2
_OPEN30
  0
BLOCK_RECORD
  5
24
100
AcDbSymbolTableRecord
100
AcDbBlockTableRecord
  2
_BOXFILLED
  0
BLOCK_RECORD
  5
29
100
AcDbSymbolTableRecord
100
AcDbBlockTableRecord
  2
_BOXBLANK
  0
BLOCK_RECORD
  5
31
100
AcDbSymbolTableRecord
100
AcDbBlockTableRecord
  2
_OBLIQUE
  0
BLOCK_RECORD
  5
35
100
AcDbSymbolTableRecord
100
AcDbBlockTableRecord
  2
_OPEN90
  0
BLOCK_RECORD
  5
3B
100
AcDbSymbolTableRecord
100
AcDbBlockTableRecord
  2
_CLOSEDBLANK
  0
BLOCK_RECORD
  5
41
100
AcDbSymbolTableRecord
100
AcDbBlockTableRecord
  2
_DOTBLANK
  0
ENDTAB
  0
ENDSEC
  0
SECTION
  2
BLOCKS
  0
BLOCK
  5
F9
100
AcDbEntity
  8
0
100
AcDbBlockBegin
  2
*MODEL_SPACE
 70
     0
 10
0.0
 20
0.0
 30
0.0
  3
*MODEL_SPACE
  1

  0
ENDBLK
  5
FA
100
AcDbEntity
  8
0
100
AcDbBlockEnd
  0
BLOCK
  5
FB
100
AcDbEntity
  8
0
100
AcDbBlockBegin
  2
*PAPER_SPACE
 70
     0
 10
0.0
 20
0.0
 30
0.0
  3
*PAPER_SPACE
  1

  0
ENDBLK
  5
FC
100
AcDbEntity
  8
0
100
AcDbBlockEnd
  0
BLOCK
  5
FD
100
AcDbEntity
  8
0
100
AcDbBlockBegin
  2
*PAPER_SPACE0
 70
     0
 10
0.0
 20
0.0
 30
0.0
  3
*PAPER_SPACE0
  1

  0
ENDBLK
  5
FE
100
AcDbEntity
  8
0
100
AcDbBlockEnd
  0
BLOCK
  5
2
330
1
100
AcDbEntity
  8
0
100
AcDbBlockBegin
  2
_NONE
 70
     0
 10
0.0
 20
0.0
 30
0.0
  3
_NONE
  1

  0
ENDBLK
  5
3
330
1
100
AcDbEntity
  8
0
100
AcDbBlockEnd
  0
BLOCK
  5
5
330
4
100
AcDbEntity
  8
0
100
AcDbBlockBegin
  2
_CLOSED
 70
     0
 10
0.0
 20
0.0
 30
0.0
  3
_CLOSED
  1

  0
LINE
  5
6
330
4
100
AcDbEntity
  8
0
  6
BYBLOCK
 62
     0
370
    -2
100
AcDbLine
 10
-1.0
 20
0.166667
 30
0.0
 11
0.0
 21
0.0
 31
0.0
  0
LINE
  5
7
330
4
100
AcDbEntity
  8
0
  6
BYBLOCK
 62
     0
370
    -2
100
AcDbLine
 10
0.0
 20
0.0
 30
0.0
 11
-1.0
 21
-0.166667
 31
0.0
  0
LINE
  5
8
330
4
100
AcDbEntity
  8
0
  6
BYBLOCK
 62
     0
370
    -2
100
AcDbLine
 10
-1.0
 20
0.166667
 30
0.0
 11
-1.0
 21
-0.166667
 31
0.0
  0
LINE
  5
9
330
4
100
AcDbEntity
  8
0
  6
BYBLOCK
 62
     0
370
    -2
100
AcDbLine
 10
0.0
 20
0.0
 30
0.0
 11
-1.0
 21
0.0
 31
0.0
  0
ENDBLK
  5
A
330
4
100
AcDbEntity
  8
0
100
AcDbBlockEnd
  0
BLOCK
  5
C
330
B
100
AcDbEntity
  8
0
100
AcDbBlockBegin
  2
_DOT
 70
     0
 10
0.0
 20
0.0
 30
0.0
  3
_DOT
  1

  0
POLYLINE
  5
D
330
B
100
AcDbEntity
  8
0
  6
BYBLOCK
 62
     0
370
    -2
100
AcDb2dPolyline
 66
     1
 10
0.0
 20
0.0
 30
0.0
 70
     1
 40
0.5
 41
0.5
  0
VERTEX
  5
E
330
B
100
AcDbEntity
  8
0
  6
BYBLOCK
 62
     0
370
    -2
100
AcDbVertex
100
AcDb2dVertex
 10
-0.25
 20
0.0
 30
0.0
 42
1.0
  0
VERTEX
  5
F
330
B
100
AcDbEntity
  8
0
  6
BYBLOCK
 62
     0
370
    -2
100
AcDbVertex
100
AcDb2dVertex
 10
0.25
 20
0.0
 30
0.0
 42
1.0
  0
SEQEND
  5
10
330
B
100
AcDbEntity
  8
0
  6
BYBLOCK
 62
     0
370
    -2
  0
LINE
  5
11
330
B
100
AcDbEntity
  8
0
  6
BYBLOCK
 62
     0
370
    -2
100
AcDbLine
 10
-0.5
 20
0.0
 30
0.0
 11
-1.0
 21
0.0
 31
0.0
  0
ENDBLK
  5
12
330
B
100
AcDbEntity
  8
0
100
AcDbBlockEnd
  0
BLOCK
  5
14
330
13
100
AcDbEntity
  8
0
100
AcDbBlockBegin
  2
_OPEN
 70
     0
 10
0.0
 20
0.0
 30
0.0
  3
_OPEN
  1

  0
LINE
  5
15
330
13
100
AcDbEntity
  8
0
  6
BYBLOCK
 62
     0
370
    -2
100
AcDbLine
 10
-1.0
 20
0.166667
 30
0.0
 11
0.0
 21
0.0
 31
0.0
  0
LINE
  5
16
330
13
100
AcDbEntity
  8
0
  6
BYBLOCK
 62
     0
370
    -2
100
AcDbLine
 10
0.0
 20
0.0
 30
0.0
 11
-1.0
 21
-0.166667
 31
0.0
  0
LINE
  5
17
330
13
100
AcDbEntity
  8
0
  6
BYBLOCK
 62
     0
370
    -2
100
AcDbLine
 10
0.0
 20
0.0
 30
0.0
 11
-1.0
 21
0.0
 31
0.0
  0
ENDBLK
  5
18
330
13
100
AcDbEntity
  8
0
100
AcDbBlockEnd
  0
BLOCK
  5
1A
330
19
100
AcDbEntity
  8
0
100
AcDbBlockBegin
  2
_ORIGIN
 70
     0
 10
0.0
 20
0.0
 30
0.0
  3
_ORIGIN
  1

  0
CIRCLE
  5
1B
330
19
100
AcDbEntity
  8
0
  6
BYBLOCK
 62
     0
370
    -2
100
AcDbCircle
 10
0.0
 20
0.0
 30
0.0
 40
0.5
  0
LINE
  5
1C
330
19
100
AcDbEntity
  8
0
  6
BYBLOCK
 62
     0
370
    -2
100
AcDbLine
 10
0.0
 20
0.0
 30
0.0
 11
-1.0
 21
0.0
 31
0.0
  0
ENDBLK
  5
1D
330
19
100
AcDbEntity
  8
0
100
AcDbBlockEnd
  0
BLOCK
  5
1F
330
1E
100
AcDbEntity
  8
0
100
AcDbBlockBegin
  2
_OPEN30
 70
     0
 10
0.0
 20
0.0
 30
0.0
  3
_OPEN30
  1

  0
LINE
  5
20
330
1E
100
AcDbEntity
  8
0
  6
BYBLOCK
 62
     0
370
    -2
100
AcDbLine
 10
-1.0
 20
0.267949
 30
0.0
 11
0.0
 21
0.0
 31
0.0
  0
LINE
  5
21
330
1E
100
AcDbEntity
  8
0
  6
BYBLOCK
 62
     0
370
    -2
100
AcDbLine
 10
0.0
 20
0.0
 30
0.0
 11
-1.0
 21
-0.267949
 31
0.0
  0
LINE
  5
22
330
1E
100
AcDbEntity
  8
0
  6
BYBLOCK
 62
     0
370
    -2
100
AcDbLine
 10
0.0
 20
0.0
 30
0.0
 11
-1.0
 21
0.0
 31
0.0
  0
ENDBLK
  5
23
330
1E
100
AcDbEntity
  8
0
100
AcDbBlockEnd
  0
BLOCK
  5
25
330
24
100
AcDbEntity
  8
0
100
AcDbBlockBegin
  2
_BOXFILLED
 70
     0
 10
0.0
 20
0.0
 30
0.0
  3
_BOXFILLED
  1

  0
SOLID
  5
26
330
24
100
AcDbEntity
  8
0
  6
BYBLOCK
 62
     0
370
    -2
100
AcDbTrace
 10
-0.5
 20
0.5
 30
0.0
 11
0.5
 21
0.5
 31
0.0
 12
-0.5
 22
-0.5
 32
0.0
 13
0.5
 23
-0.5
 33
0.0
  0
LINE
  5
27
330
24
100
AcDbEntity
  8
0
  6
BYBLOCK
 62
     0
370
    -2
100
AcDbLine
 10
-0.5
 20
0.0
 30
0.0
 11
-1.0
 21
0.0
 31
0.0
  0
ENDBLK
  5
28
330
24
100
AcDbEntity
  8
0
100
AcDbBlockEnd
  0
BLOCK
  5
2A
330
29
100
AcDbEntity
  8
0
100
AcDbBlockBegin
  2
_BOXBLANK
 70
     0
 10
0.0
 20
0.0
 30
0.0
  3
_BOXBLANK
  1

  0
LINE
  5
2B
330
29
100
AcDbEntity
  8
0
  6
BYBLOCK
 62
     0
370
    -2
100
AcDbLine
 10
-0.5
 20
-0.5
 30
0.0
 11
0.5
 21
-0.5
 31
0.0
  0
LINE
  5
2C
330
29
100
AcDbEntity
  8
0
  6
BYBLOCK
 62
     0
370
    -2
100
AcDbLine
 10
0.5
 20
-0.5
 30
0.0
 11
0.5
 21
0.5
 31
0.0
  0
LINE
  5
2D
330
29
100
AcDbEntity
  8
0
  6
BYBLOCK
 62
     0
370
    -2
100
AcDbLine
 10
0.5
 20
0.5
 30
0.0
 11
-0.5
 21
0.5
 31
0.0
  0
LINE
  5
2E
330
29
100
AcDbEntity
  8
0
  6
BYBLOCK
 62
     0
370
    -2
100
AcDbLine
 10
-0.5
 20
0.5
 30
0.0
 11
-0.5
 21
-0.5
 31
0.0
  0
LINE
  5
2F
330
29
100
AcDbEntity
  8
0
  6
BYBLOCK
 62
     0
370
    -2
100
AcDbLine
 10
-0.5
 20
0.0
 30
0.0
 11
-1.0
 21
0.0
 31
0.0
  0
ENDBLK
  5
30
330
29
100
AcDbEntity
  8
0
100
AcDbBlockEnd
  0
BLOCK
  5
32
330
31
100
AcDbEntity
  8
0
100
AcDbBlockBegin
  2
_OBLIQUE
 70
     0
 10
0.0
 20
0.0
 30
0.0
  3
_OBLIQUE
  1

  0
LINE
  5
33
330
31
100
AcDbEntity
  8
0
  6
BYBLOCK
 62
     0
370
    -2
100
AcDbLine
 10
-0.5
 20
-0.5
 30
0.0
 11
0.5
 21
0.5
 31
0.0
  0
ENDBLK
  5
34
330
31
100
AcDbEntity
  8
0
100
AcDbBlockEnd
  0
BLOCK
  5
36
330
35
100
AcDbEntity
  8
0
100
AcDbBlockBegin
  2
_OPEN90
 70
     0
 10
0.0
 20
0.0
 30
0.0
  3
_OPEN90
  1

  0
LINE
  5
37
330
35
100
AcDbEntity
  8
0
  6
BYBLOCK
 62
     0
370
    -2
100
AcDbLine
 10
-0.5
 20
0.5
 30
0.0
 11
0.0
 21
0.0
 31
0.0
  0
LINE
  5
38
330
35
100
AcDbEntity
  8
0
  6
BYBLOCK
 62
     0
370
    -2
100
AcDbLine
 10
0.0
 20
0.0
 30
0.0
 11
-0.5
 21
-0.5
 31
0.0
  0
LINE
  5
39
330
35
100
AcDbEntity
  8
0
  6
BYBLOCK
 62
     0
370
    -2
100
AcDbLine
 10
0.0
 20
0.0
 30
0.0
 11
-1.0
 21
0.0
 31
0.0
  0
ENDBLK
  5
3A
330
35
100
AcDbEntity
  8
0
100
AcDbBlockEnd
  0
BLOCK
  5
3C
330
3B
100
AcDbEntity
  8
0
100
AcDbBlockBegin
  2
_CLOSEDBLANK
 70
     0
 10
0.0
 20
0.0
 30
0.0
  3
_CLOSEDBLANK
  1

  0
LINE
  5
3D
330
3B
100
AcDbEntity
  8
0
  6
BYBLOCK
 62
     0
370
    -2
100
AcDbLine
 10
-1.0
 20
0.1666666666666666
 30
0.0
 11
0.0
 21
0.0
 31
0.0
  0
LINE
  5
3E
330
3B
100
AcDbEntity
  8
0
  6
BYBLOCK
 62
     0
370
    -2
100
AcDbLine
 10
0.0
 20
0.0
 30
0.0
 11
-1.0
 21
-0.1666666666666666
 31
0.0
  0
LINE
  5
3F
330
3B
100
AcDbEntity
  8
0
  6
BYBLOCK
 62
     0
370
    -2
100
AcDbLine
 10
-1.0
 20
0.1666666666666666
 30
0.0
 11
-1.0
 21
-0.1666666666666666
 31
0.0
  0
ENDBLK
  5
40
330
3B
100
AcDbEntity
  8
0
100
AcDbBlockEnd
  0
BLOCK
  5
42
330
41
100
AcDbEntity
  8
0
100
AcDbBlockBegin
  2
_DOTBLANK
 70
     0
 10
0.0
 20
0.0
 30
0.0
  3
_DOTBLANK
  1

  0
CIRCLE
  5
43
330
41
100
AcDbEntity
  8
0
  6
BYBLOCK
 62
     0
370
    -2
100
AcDbCircle
 10
0.0
 20
0.0
 30
0.0
 40
0.5
  0
LINE
  5
44
330
41
100
AcDbEntity
  8
0
  6
BYBLOCK
 62
     0
370
    -2
100
AcDbLine
 10
-0.5
 20
0.0
 30
0.0
 11
-1.0
 21
0.0
 31
0.0
  0
ENDBLK
  5
45
330
41
100
AcDbEntity
  8
0
100
AcDbBlockEnd
  0
ENDSEC
  0
SECTION
  2
ENTITIES
  0
MTEXT
  5
46
100
AcDbEntity
  8
A8
  6
CONTINUOUS
 62
3
100
AcDbMText
 10
9.999997526638502
 20
18.00000076076889
 30
0.000000000000000
 40
3.000000000000000
 41
0.000000000000000
 44
0.6739999771118164
 71
     7
 72
     1
  1
{\H0.94x;{TYPE No.THA-157S-1}}
 11
1.000000000000000
 21
0.000000000000000
 31
0.000000000000000
  7
STANDARD
  0
POINT
  5
47
100
AcDbEntity
  8
A0
  6
CONTINUOUS
 62
3
100
AcDbPoint
 10
9.999997526638502
 20
18.00000076076889
 30
0.000000000000000
  0
POINT
  5
48
100
AcDbEntity
  8
A10
  6
CONTINUOUS
 62
3
100
AcDbPoint
 10
50.00000000000000
 20
50.00000000000000
 30
0.000000000000000
  0
LINE
  5
49
100
AcDbEntity
  8
A4
  6
CONTINUOUS
 62
7
100
AcDbLine
 10
167.8611579806100
 20
154.4721035698215
 30
0.000000000000000
 11
174.8611579806100
 21
154.4721035698215
 31
0.000000000000000
  0
LINE
  5
4A
100
AcDbEntity
  8
A2
  6
CENTER
 62
1
100
AcDbLine
 10
67.09815798060995
 20
159.4721035698216
 30
0.000000000000000
 11
67.09815798060995
 21
141.4721035698216
 31
0.000000000000000
  0
LINE
  5
4B
100
AcDbEntity
  8
A4
  6
CONTINUOUS
 62
7
100
AcDbLine
 10
18.59815798060994
 20
142.4721035698216
 30
0.000000000000000
 11
18.59815798060994
 21
114.4721035698215
 31
0.000000000000000
  0
LINE
  5
4C
100
AcDbEntity
  8
A4
  6
CONTINUOUS
 62
7
100
AcDbLine
 10
175.3611579806100
 20
153.9721035698216
 30
0.000000000000000
 11
175.3611579806100
 21
114.4721035698215
 31
0.000000000000000
  0
LINE
  5
4D
100
AcDbEntity
  8
A4
  6
CONTINUOUS
 62
7
100
AcDbLine
 10
26.59815798060994
 20
142.4721035698216
 30
0.000000000000000
 11
26.59815798060994
 21
114.4721035698215
 31
0.000000000000000
  0
LINE
  5
4E
100
AcDbEntity
  8
A4
  6
CONTINUOUS
 62
7
100
AcDbLine
 10
167.3611579806100
 20
153.9721035698216
 30
0.000000000000000
 11
167.3611579806100
 21
114.4721035698215
 31
0.000000000000000
  0
LINE
  5
4F
100
AcDbEntity
  8
A2
  6
CENTER
 62
1
100
AcDbLine
 10
22.59815798060994
 20
64.46400356982163
 30
0.000000000000000
 11
22.59815798060994
 21
44.36720356982163
 31
0.000000000000000
  0
LINE
  5
50
100
AcDbEntity
  8
A2
  6
CENTER
 62
1
100
AcDbLine
 10
111.5981579806099
 20
64.46400356982163
 30
0.000000000000000
 11
111.5981579806099
 21
44.63700356982164
 31
0.000000000000000
  0
LINE
  5
51
100
AcDbEntity
  8
A2
  6
CENTER
 62
1
100
AcDbLine
 10
67.09815798060995
 20
61.90130356982164
 30
0.000000000000000
 11
67.09815798060995
 21
46.92990356982163
 31
0.000000000000000
  0
LINE
  5
52
100
AcDbEntity
  8
A2
  6
CENTER
 62
1
100
AcDbLine
 10
11.45764798060995
 20
54.47210356982163
 30
0.000000000000000
 11
121.7871579806099
 21
54.47210356982163
 31
0.000000000000000
  0
LINE
  5
53
100
AcDbEntity
  8
A4
  6
CONTINUOUS
 62
7
100
AcDbLine
 10
20.14115798060995
 20
99.47210356982164
 30
0.000000000000000
 11
25.05515798060995
 21
99.47210356982164
 31
0.000000000000000
  0
LINE
  5
54
100
AcDbEntity
  8
A4
  6
CONTINUOUS
 62
7
100
AcDbLine
 10
19.59815798060993
 20
112.4721035698215
 30
0.000000000000000
 11
19.59815798060993
 21
100.4721035698216
 31
0.000000000000000
  0
LINE
  5
55
100
AcDbEntity
  8
A4
  6
CONTINUOUS
 62
7
100
AcDbLine
 10
25.59815798060994
 20
112.4721035698215
 30
0.000000000000000
 11
25.59815798060994
 21
100.4721035698216
 31
0.000000000000000
  0
LINE
  5
56
100
AcDbEntity
  8
A5
  6
CONTINUOUS
 62
4
100
AcDbLine
 10
20.14115798060995
 20
112.4721035698215
 30
0.000000000000000
 11
20.14115798060995
 21
99.47210356982164
 31
0.000000000000000
  0
LINE
  5
57
100
AcDbEntity
  8
A5
  6
CONTINUOUS
 62
4
100
AcDbLine
 10
25.05515798060995
 20
112.4721035698215
 30
0.000000000000000
 11
25.05515798060995
 21
99.47210356982164
 31
0.000000000000000
  0
LINE
  5
58
100
AcDbEntity
  8
A4
  6
CONTINUOUS
 62
7
100
AcDbLine
 10
19.59815798060993
 20
100.4721035698216
 30
0.000000000000000
 11
25.59815798060994
 21
100.4721035698216
 31
0.000000000000000
  0
LINE
  5
59
100
AcDbEntity
  8
A4
  6
CONTINUOUS
 62
7
100
AcDbLine
 10
19.59815798060994
 20
100.4721035698216
 30
0.000000000000000
 11
20.14115798060996
 21
99.47210356982164
 31
0.000000000000000
  0
LINE
  5
5A
100
AcDbEntity
  8
A4
  6
CONTINUOUS
 62
7
100
AcDbLine
 10
25.59815798060994
 20
100.4721035698216
 30
0.000000000000000
 11
25.05515798060995
 21
99.47210356982164
 31
0.000000000000000
  0
LINE
  5
5B
100
AcDbEntity
  8
A4
  6
CONTINUOUS
 62
7
100
AcDbLine
 10
15.59815798060995
 20
113.4721035698215
 30
0.000000000000000
 11
15.59815798060995
 21
112.4721035698215
 31
0.000000000000000
  0
LINE
  5
5C
100
AcDbEntity
  8
A4
  6
CONTINUOUS
 62
7
100
AcDbLine
 10
29.59815798060995
 20
113.4721035698215
 30
0.000000000000000
 11
29.59815798060995
 21
112.4721035698215
 31
0.000000000000000
  0
LINE
  5
5D
100
AcDbEntity
  8
A4
  6
CONTINUOUS
 62
7
100
AcDbLine
 10
15.59815798060995
 20
112.4721035698215
 30
0.000000000000000
 11
29.59815798060995
 21
112.4721035698215
 31
0.000000000000000
  0
LINE
  5
5E
100
AcDbEntity
  8
A4
  6
CONTINUOUS
 62
7
100
AcDbLine
 10
16.59815798060993
 20
114.4721035698215
 30
0.000000000000000
 11
28.59815798060994
 21
114.4721035698215
 31
0.000000000000000
  0
LINE
  5
5F
100
AcDbEntity
  8
A4
  6
CONTINUOUS
 62
7
100
AcDbLine
 10
16.59815798060994
 20
114.4721035698215
 30
0.000000000000000
 11
15.59815798060997
 21
113.4721035698215
 31
0.000000000000000
  0
LINE
  5
60
100
AcDbEntity
  8
A4
  6
CONTINUOUS
 62
7
100
AcDbLine
 10
28.59815798060993
 20
114.4721035698215
 30
0.000000000000000
 11
29.59815798060994
 21
113.4721035698215
 31
0.000000000000000
  0
LINE
  5
61
100
AcDbEntity
  8
A4
  6
CONTINUOUS
 62
7
100
AcDbLine
 10
15.59815798060995
 20
113.4721035698215
 30
0.000000000000000
 11
29.59815798060995
 21
113.4721035698215
 31
0.000000000000000
  0
LINE
  5
62
100
AcDbEntity
  8
A2
  6
CENTER
 62
1
100
AcDbLine
 10
22.59815798060994
 20
116.4721035698215
 30
0.000000000000000
 11
22.59815798060994
 21
96.09921656982164
 31
0.000000000000000
  0
LINE
  5
63
100
AcDbEntity
  8
A4
  6
CONTINUOUS
 62
7
100
AcDbLine
 10
164.3611579806100
 20
113.4721035698215
 30
0.000000000000000
 11
178.3611579806100
 21
113.4721035698215
 31
0.000000000000000
  0
LINE
  5
64
100
AcDbEntity
  8
A2
  6
CENTER
 62
1
100
AcDbLine
 10
171.3611579806100
 20
159.4721035698216
 30
0.000000000000000
 11
171.3611579806100
 21
96.09921656982164
 31
0.000000000000000
  0
LINE
  5
65
100
AcDbEntity
  8
A4
  6
CONTINUOUS
 62
7
100
AcDbLine
 10
168.9041579806099
 20
99.47210356982164
 30
0.000000000000000
 11
173.8181579806100
 21
99.47210356982164
 31
0.000000000000000
  0
LINE
  5
66
100
AcDbEntity
  8
A4
  6
CONTINUOUS
 62
7
100
AcDbLine
 10
168.3611579806100
 20
112.4721035698215
 30
0.000000000000000
 11
168.3611579806100
 21
100.4721035698216
 31
0.000000000000000
  0
LINE
  5
67
100
AcDbEntity
  8
A4
  6
CONTINUOUS
 62
7
100
AcDbLine
 10
174.3611579806100
 20
112.4721035698215
 30
0.000000000000000
 11
174.3611579806100
 21
100.4721035698216
 31
0.000000000000000
  0
LINE
  5
68
100
AcDbEntity
  8
A5
  6
CONTINUOUS
 62
4
100
AcDbLine
 10
168.9041579806099
 20
112.4721035698215
 30
0.000000000000000
 11
168.9041579806099
 21
99.47210356982164
 31
0.000000000000000
  0
LINE
  5
69
100
AcDbEntity
  8
A5
  6
CONTINUOUS
 62
4
100
AcDbLine
 10
173.8181579806100
 20
112.4721035698215
 30
0.000000000000000
 11
173.8181579806100
 21
99.47210356982164
 31
0.000000000000000
  0
LINE
  5
6A
100
AcDbEntity
  8
A4
  6
CONTINUOUS
 62
7
100
AcDbLine
 10
168.3611579806100
 20
100.4721035698216
 30
0.000000000000000
 11
174.3611579806100
 21
100.4721035698216
 31
0.000000000000000
  0
LINE
  5
6B
100
AcDbEntity
  8
A4
  6
CONTINUOUS
 62
7
100
AcDbLine
 10
168.3611579806100
 20
100.4721035698216
 30
0.000000000000000
 11
168.9041579806099
 21
99.47210356982164
 31
0.000000000000000
  0
LINE
  5
6C
100
AcDbEntity
  8
A4
  6
CONTINUOUS
 62
7
100
AcDbLine
 10
174.3611579806099
 20
100.4721035698216
 30
0.000000000000000
 11
173.8181579806099
 21
99.47210356982161
 31
0.000000000000000
  0
LINE
  5
6D
100
AcDbEntity
  8
A4
  6
CONTINUOUS
 62
7
100
AcDbLine
 10
164.3611579806100
 20
113.4721035698215
 30
0.000000000000000
 11
164.3611579806100
 21
112.4721035698215
 31
0.000000000000000
  0
LINE
  5
6E
100
AcDbEntity
  8
A4
  6
CONTINUOUS
 62
7
100
AcDbLine
 10
178.3611579806100
 20
113.4721035698215
 30
0.000000000000000
 11
178.3611579806100
 21
112.4721035698215
 31
0.000000000000000
  0
LINE
  5
6F
100
AcDbEntity
  8
A4
  6
CONTINUOUS
 62
7
100
AcDbLine
 10
164.3611579806100
 20
112.4721035698215
 30
0.000000000000000
 11
178.3611579806100
 21
112.4721035698215
 31
0.000000000000000
  0
LINE
  5
70
100
AcDbEntity
  8
A4
  6
CONTINUOUS
 62
7
100
AcDbLine
 10
165.3611579806100
 20
114.4721035698215
 30
0.000000000000000
 11
177.3611579806100
 21
114.4721035698215
 31
0.000000000000000
  0
LINE
  5
71
100
AcDbEntity
  8
A4
  6
CONTINUOUS
 62
7
100
AcDbLine
 10
165.3611579806099
 20
114.4721035698215
 30
0.000000000000000
 11
164.3611579806099
 21
113.4721035698215
 31
0.000000000000000
  0
LINE
  5
72
100
AcDbEntity
  8
A4
  6
CONTINUOUS
 62
7
100
AcDbLine
 10
177.3611579806099
 20
114.4721035698215
 30
0.000000000000000
 11
178.3611579806099
 21
113.4721035698215
 31
0.000000000000000
  0
LINE
  5
73
100
AcDbEntity
  8
A4
  6
CONTINUOUS
 62
7
100
AcDbLine
 10
28.34275798060995
 20
58.47210356982163
 30
0.000000000000000
 11
105.8535579806099
 21
58.47210356982163
 31
0.000000000000000
  0
LINE
  5
74
100
AcDbEntity
  8
A4
  6
CONTINUOUS
 62
7
100
AcDbLine
 10
28.34275798060995
 20
50.47210356982163
 30
0.000000000000000
 11
105.8535579806099
 21
50.47210356982163
 31
0.000000000000000
  0
LINE
  5
75
100
AcDbEntity
  8
A2
  6
CENTER
 62
1
100
AcDbLine
 10
22.59815798060994
 20
179.4651035698215
 30
0.000000000000000
 11
22.59815798060994
 21
197.9171035698216
 31
0.000000000000000
  0
LINE
  5
76
100
AcDbEntity
  8
A2
  6
CENTER
 62
1
100
AcDbLine
 10
111.5981579806099
 20
178.2051035698215
 30
0.000000000000000
 11
111.5981579806099
 21
197.8551035698216
 31
0.000000000000000
  0
LINE
  5
77
100
AcDbEntity
  8
A2
  6
CENTER
 62
1
100
AcDbLine
 10
67.09815798060995
 20
180.8911035698216
 30
0.000000000000000
 11
67.09815798060995
 21
196.3001035698217
 31
0.000000000000000
  0
LINE
  5
78
100
AcDbEntity
  8
A2
  6
CENTER
 62
1
100
AcDbLine
 10
13.59815798060993
 20
188.4721035698215
 30
0.000000000000000
 11
120.5981579806100
 21
188.4721035698215
 31
0.000000000000000
  0
LINE
  5
79
100
AcDbEntity
  8
A4
  6
CONTINUOUS
 62
7
100
AcDbLine
 10
19.09815798060994
 20
184.4721035698216
 30
0.000000000000000
 11
115.0981579806100
 21
184.4721035698216
 31
0.000000000000000
  0
LINE
  5
7A
100
AcDbEntity
  8
A4
  6
CONTINUOUS
 62
7
100
AcDbLine
 10
19.09815798060994
 20
192.4721035698216
 30
0.000000000000000
 11
115.0981579806100
 21
192.4721035698216
 31
0.000000000000000
  0
LINE
  5
7B
100
AcDbEntity
  8
A4
  6
CONTINUOUS
 62
7
100
AcDbLine
 10
30.59815798060995
 20
154.4721035698215
 30
0.000000000000000
 11
103.5981579806100
 21
154.4721035698215
 31
0.000000000000000
  0
LINE
  5
7C
100
AcDbEntity
  8
A4
  6
CONTINUOUS
 62
7
100
AcDbLine
 10
30.59815798060995
 20
146.4721035698216
 30
0.000000000000000
 11
103.5981579806100
 21
146.4721035698216
 31
0.000000000000000
  0
LINE
  5
7D
100
AcDbEntity
  8
A4
  6
CONTINUOUS
 62
7
100
AcDbLine
 10
115.5981579806100
 20
142.4721035698216
 30
0.000000000000000
 11
115.5981579806100
 21
114.4721035698215
 31
0.000000000000000
  0
LINE
  5
7E
100
AcDbEntity
  8
A4
  6
CONTINUOUS
 62
7
100
AcDbLine
 10
107.5981579806100
 20
142.4721035698216
 30
0.000000000000000
 11
107.5981579806100
 21
114.4721035698215
 31
0.000000000000000
  0
LINE
  5
7F
100
AcDbEntity
  8
A4
  6
CONTINUOUS
 62
7
100
AcDbLine
 10
104.5981579806100
 20
113.4721035698215
 30
0.000000000000000
 11
118.5981579806100
 21
113.4721035698215
 31
0.000000000000000
  0
LINE
  5
80
100
AcDbEntity
  8
A2
  6
CENTER
 62
1
100
AcDbLine
 10
111.5981579806099
 20
116.4721035698215
 30
0.000000000000000
 11
111.5981579806099
 21
96.09921656982164
 31
0.000000000000000
  0
LINE
  5
81
100
AcDbEntity
  8
A4
  6
CONTINUOUS
 62
7
100
AcDbLine
 10
109.1411579806099
 20
99.47210356982164
 30
0.000000000000000
 11
114.0551579806098
 21
99.47210356982164
 31
0.000000000000000
  0
LINE
  5
82
100
AcDbEntity
  8
A4
  6
CONTINUOUS
 62
7
100
AcDbLine
 10
108.5981579806100
 20
112.4721035698215
 30
0.000000000000000
 11
108.5981579806100
 21
100.4721035698216
 31
0.000000000000000
  0
LINE
  5
83
100
AcDbEntity
  8
A4
  6
CONTINUOUS
 62
7
100
AcDbLine
 10
114.5981579806100
 20
112.4721035698215
 30
0.000000000000000
 11
114.5981579806100
 21
100.4721035698216
 31
0.000000000000000
  0
LINE
  5
84
100
AcDbEntity
  8
A5
  6
CONTINUOUS
 62
4
100
AcDbLine
 10
109.1411579806099
 20
112.4721035698215
 30
0.000000000000000
 11
109.1411579806099
 21
99.47210356982164
 31
0.000000000000000
  0
LINE
  5
85
100
AcDbEntity
  8
A5
  6
CONTINUOUS
 62
4
100
AcDbLine
 10
114.0551579806098
 20
112.4721035698215
 30
0.000000000000000
 11
114.0551579806098
 21
99.47210356982164
 31
0.000000000000000
  0
LINE
  5
86
100
AcDbEntity
  8
A4
  6
CONTINUOUS
 62
7
100
AcDbLine
 10
108.5981579806100
 20
100.4721035698216
 30
0.000000000000000
 11
114.5981579806100
 21
100.4721035698216
 31
0.000000000000000
  0
LINE
  5
87
100
AcDbEntity
  8
A4
  6
CONTINUOUS
 62
7
100
AcDbLine
 10
108.5981579806100
 20
100.4721035698216
 30
0.000000000000000
 11
109.1411579806100
 21
99.47210356982166
 31
0.000000000000000
  0
LINE
  5
88
100
AcDbEntity
  8
A4
  6
CONTINUOUS
 62
7
100
AcDbLine
 10
114.5981579806099
 20
100.4721035698216
 30
0.000000000000000
 11
114.0551579806098
 21
99.47210356982163
 31
0.000000000000000
  0
LINE
  5
89
100
AcDbEntity
  8
A4
  6
CONTINUOUS
 62
7
100
AcDbLine
 10
104.5981579806100
 20
113.4721035698215
 30
0.000000000000000
 11
104.5981579806100
 21
112.4721035698215
 31
0.000000000000000
  0
LINE
  5
8A
100
AcDbEntity
  8
A4
  6
CONTINUOUS
 62
7
100
AcDbLine
 10
118.5981579806100
 20
113.4721035698215
 30
0.000000000000000
 11
118.5981579806100
 21
112.4721035698215
 31
0.000000000000000
  0
LINE
  5
8B
100
AcDbEntity
  8
A4
  6
CONTINUOUS
 62
7
100
AcDbLine
 10
104.5981579806100
 20
112.4721035698215
 30
0.000000000000000
 11
118.5981579806100
 21
112.4721035698215
 31
0.000000000000000
  0
LINE
  5
8C
100
AcDbEntity
  8
A4
  6
CONTINUOUS
 62
7
100
AcDbLine
 10
105.5981579806100
 20
114.4721035698215
 30
0.000000000000000
 11
117.5981579806100
 21
114.4721035698215
 31
0.000000000000000
  0
LINE
  5
8D
100
AcDbEntity
  8
A4
  6
CONTINUOUS
 62
7
100
AcDbLine
 10
105.5981579806099
 20
114.4721035698215
 30
0.000000000000000
 11
104.5981579806099
 21
113.4721035698215
 31
0.000000000000000
  0
LINE
  5
8E
100
AcDbEntity
  8
A4
  6
CONTINUOUS
 62
7
100
AcDbLine
 10
117.5981579806099
 20
114.4721035698215
 30
0.000000000000000
 11
118.5981579806099
 21
113.4721035698215
 31
0.000000000000000
  0
LINE
  5
8F
100
AcDbEntity
  8
A4
  6
CONTINUOUS
 62
7
100
AcDbLine
 10
18.59815798060994
 20
184.9721035698216
 30
0.000000000000000
 11
18.59815798060994
 21
191.9721035698215
 31
0.000000000000000
  0
LINE
  5
90
100
AcDbEntity
  8
A4
  6
CONTINUOUS
 62
7
100
AcDbLine
 10
115.5981579806100
 20
184.9721035698216
 30
0.000000000000000
 11
115.5981579806100
 21
191.9721035698215
 31
0.000000000000000
  0
LINE
  5
91
100
AcDbEntity
  8
A4
  6
CONTINUOUS
 62
7
100
AcDbLine
 10
65.70935798060997
 20
52.74440356982164
 30
0.000000000000000
 11
65.70935798060997
 21
53.80560356982165
 31
0.000000000000000
  0
LINE
  5
92
100
AcDbEntity
  8
A4
  6
CONTINUOUS
 62
7
100
AcDbLine
 10
64.04255798060996
 20
53.44700356982164
 30
0.000000000000000
 11
64.04255798060996
 21
55.49610356982163
 31
0.000000000000000
  0
LINE
  5
93
100
AcDbEntity
  8
A4
  6
CONTINUOUS
 62
7
100
AcDbLine
 10
64.59845798060996
 20
55.84230356982162
 30
0.000000000000000
 11
64.59845798060996
 21
53.10190356982164
 31
0.000000000000000
  0
LINE
  5
94
100
AcDbEntity
  8
A4
  6
CONTINUOUS
 62
7
100
AcDbLine
 10
65.15335798060995
 20
55.91450356982163
 30
0.000000000000000
 11
65.15335798060995
 21
53.02860356982163
 31
0.000000000000000
  0
LINE
  5
95
100
AcDbEntity
  8
A4
  6
CONTINUOUS
 62
7
100
AcDbLine
 10
63.48655798060996
 20
55.99570356982164
 30
0.000000000000000
 11
63.48655798060996
 21
53.60030356982165
 31
0.000000000000000
  0
LINE
  5
96
100
AcDbEntity
  8
A4
  6
CONTINUOUS
 62
7
100
AcDbLine
 10
65.70935798060997
 20
55.13860356982163
 30
0.000000000000000
 11
65.70935798060997
 21
56.19870356982162
 31
0.000000000000000
  0
LINE
  5
97
100
AcDbEntity
  8
A4
  6
CONTINUOUS
 62
7
100
AcDbLine
 10
68.48695798060994
 20
52.90340356982163
 30
0.000000000000000
 11
68.48695798060994
 21
54.47210356982163
 31
0.000000000000000
  0
LINE
  5
98
100
AcDbEntity
  8
A4
  6
CONTINUOUS
 62
7
100
AcDbLine
 10
69.87525798060996
 20
54.47210356982163
 30
0.000000000000000
 11
69.87525798060996
 21
53.13910356982164
 31
0.000000000000000
  0
LINE
  5
99
100
AcDbEntity
  8
A4
  6
CONTINUOUS
 62
7
100
AcDbLine
 10
66.82015798060995
 20
54.47210356982163
 30
0.000000000000000
 11
66.26415798060995
 21
54.47210356982163
 31
0.000000000000000
  0
LINE
  5
9A
100
AcDbEntity
  8
A4
  6
CONTINUOUS
 62
7
100
AcDbLine
 10
68.48695798060994
 20
54.47210356982163
 30
0.000000000000000
 11
68.20845798060995
 21
54.47210356982163
 31
0.000000000000000
  0
LINE
  5
9B
100
AcDbEntity
  8
A4
  6
CONTINUOUS
 62
7
100
AcDbLine
 10
71.86235798060996
 20
54.47210356982163
 30
0.000000000000000
 11
70.71425798060996
 21
54.47210356982163
 31
0.000000000000000
  0
LINE
  5
9C
100
AcDbEntity
  8
A4
  6
CONTINUOUS
 62
7
100
AcDbLine
 10
70.43575798060994
 20
53.43230356982163
 30
0.000000000000000
 11
71.06385798060994
 21
55.77350356982162
 31
0.000000000000000
  0
LINE
  5
9D
100
AcDbEntity
  8
A4
  6
CONTINUOUS
 62
7
100
AcDbLine
 10
66.26415798060995
 20
56.36330356982164
 30
0.000000000000000
 11
66.26415798060995
 21
52.57970356982164
 31
0.000000000000000
  0
LINE
  5
9E
100
AcDbEntity
  8
A4
  6
CONTINUOUS
 62
7
100
AcDbLine
 10
66.82015798060995
 20
56.40960356982163
 30
0.000000000000000
 11
66.82015798060995
 21
52.53350356982163
 31
0.000000000000000
  0
LINE
  5
9F
100
AcDbEntity
  8
A4
  6
CONTINUOUS
 62
7
100
AcDbLine
 10
67.37615798060996
 20
56.40960356982163
 30
0.000000000000000
 11
67.37615798060996
 21
52.53350356982163
 31
0.000000000000000
  0
LINE
  5
A0
100
AcDbEntity
  8
A4
  6
CONTINUOUS
 62
7
100
AcDbLine
 10
67.93095798060996
 20
56.30020356982163
 30
0.000000000000000
 11
67.93095798060996
 21
52.64290356982163
 31
0.000000000000000
  0
LINE
  5
A1
100
AcDbEntity
  8
A4
  6
CONTINUOUS
 62
7
100
AcDbLine
 10
69.04185798060996
 20
56.29790356982164
 30
0.000000000000000
 11
69.04185798060996
 21
52.81990356982163
 31
0.000000000000000
  0
LINE
  5
A2
100
AcDbEntity
  8
A4
  6
CONTINUOUS
 62
7
100
AcDbLine
 10
68.48695798060994
 20
55.13860356982163
 30
0.000000000000000
 11
68.48695798060994
 21
56.03970356982163
 31
0.000000000000000
  0
LINE
  5
A3
100
AcDbEntity
  8
A4
  6
CONTINUOUS
 62
7
100
AcDbLine
 10
69.59785798060996
 20
56.03630356982163
 30
0.000000000000000
 11
69.59785798060996
 21
54.74950356982163
 31
0.000000000000000
  0
LINE
  5
A4
100
AcDbEntity
  8
A4
  6
CONTINUOUS
 62
7
100
AcDbLine
 10
70.15265798060994
 20
54.74950356982163
 30
0.000000000000000
 11
70.15265798060994
 21
55.93590356982163
 31
0.000000000000000
  0
ARC
  5
A5
100
AcDbEntity
  8
A4
  6
CONTINUOUS
 62
7
100
AcDbCircle
 10
30.59815798060995
 20
142.4721035698216
 30
0.000000000000000
 40
4.000000000000000
100
AcDbArc
 50
90.00000000000000
 51
180.0000000000000
  0
ARC
  5
A6
100
AcDbEntity
  8
A4
  6
CONTINUOUS
 62
7
100
AcDbCircle
 10
30.59815798060995
 20
142.4721035698216
 30
0.000000000000000
 40
12.00000000000000
100
AcDbArc
 50
90.00000000000000
 51
180.0000000000000
  0
CIRCLE
  5
A7
100
AcDbEntity
  8
A4
  6
CONTINUOUS
 62
7
100
AcDbCircle
 10
22.59815798060994
 20
54.47210356982163
 30
0.000000000000000
 40
3.000000000000000
  0
CIRCLE
  5
A8
100
AcDbEntity
  8
A5
  6
CONTINUOUS
 62
4
100
AcDbCircle
 10
22.59815798060994
 20
54.47210356982163
 30
0.000000000000000
 40
2.458499999999999
  0
CIRCLE
  5
A9
100
AcDbEntity
  8
A4
  6
CONTINUOUS
 62
7
100
AcDbCircle
 10
111.5981579806099
 20
54.47210356982163
 30
0.000000000000000
 40
3.000000000000000
  0
CIRCLE
  5
AA
100
AcDbEntity
  8
A5
  6
CONTINUOUS
 62
4
100
AcDbCircle
 10
111.5981579806099
 20
54.47210356982163
 30
0.000000000000000
 40
2.458499999999999
  0
CIRCLE
  5
AB
100
AcDbEntity
  8
A4
  6
CONTINUOUS
 62
7
100
AcDbCircle
 10
111.5981579806099
 20
54.47210356982163
 30
0.000000000000000
 40
7.000000000000000
  0
CIRCLE
  5
AC
100
AcDbEntity
  8
A4
  6
CONTINUOUS
 62
7
100
AcDbCircle
 10
22.59815798060994
 20
54.47210356982163
 30
0.000000000000000
 40
7.000000000000000
  0
ARC
  5
AD
100
AcDbEntity
  8
A4
  6
CONTINUOUS
 62
7
100
AcDbCircle
 10
103.5981579806100
 20
142.4721035698216
 30
0.000000000000000
 40
4.000000000000000
100
AcDbArc
 50
0.000000000000000
 51
90.00000000000000
  0
ARC
  5
AE
100
AcDbEntity
  8
A4
  6
CONTINUOUS
 62
7
100
AcDbCircle
 10
103.5981579806100
 20
142.4721035698216
 30
0.000000000000000
 40
12.00000000000000
100
AcDbArc
 50
0.000000000000000
 51
90.00000000000000
  0
ARC
  5
AF
100
AcDbEntity
  8
A4
  6
CONTINUOUS
 62
7
100
AcDbCircle
 10
22.59815798060994
 20
188.4721035698215
 30
0.000000000000000
 40
6.000000000000000
100
AcDbArc
 50
41.81029999999998
 51
318.1900000000000
  0
ARC
  5
B0
100
AcDbEntity
  8
A4
  6
CONTINUOUS
 62
7
100
AcDbCircle
 10
22.59815798060994
 20
188.4721035698215
 30
0.000000000000000
 40
7.000000000000000
100
AcDbArc
 50
34.84990000000000
 51
325.1500000000000
  0
ARC
  5
B1
100
AcDbEntity
  8
A4
  6
CONTINUOUS
 62
7
100
AcDbCircle
 10
111.5981579806099
 20
188.4721035698215
 30
0.000000000000000
 40
6.000000000000000
100
AcDbArc
 50
221.8100000000000
 51
498.1899999999999
  0
ARC
  5
B2
100
AcDbEntity
  8
A4
  6
CONTINUOUS
 62
7
100
AcDbCircle
 10
111.5981579806099
 20
188.4721035698215
 30
0.000000000000000
 40
7.000000000000000
100
AcDbArc
 50
214.8500000000000
 51
505.1499999999999
  0
ARC
  5
B3
100
AcDbEntity
  8
A4
  6
CONTINUOUS
 62
7
100
AcDbCircle
 10
19.09815798060994
 20
191.9721035698215
 30
0.000000000000000
 40
0.5000000000000000
100
AcDbArc
 50
90.00000000000000
 51
180.0000000000000
  0
ARC
  5
B4
100
AcDbEntity
  8
A4
  6
CONTINUOUS
 62
7
100
AcDbCircle
 10
19.09815798060994
 20
184.9721035698216
 30
0.000000000000000
 40
0.5000000000000000
100
AcDbArc
 50
180.0000000000000
 51
270.0000000000000
  0
ARC
  5
B5
100
AcDbEntity
  8
A4
  6
CONTINUOUS
 62
7
100
AcDbCircle
 10
115.0981579806100
 20
191.9721035698215
 30
0.000000000000000
 40
0.5000000000000000
100
AcDbArc
 50
0.000000000000000
 51
90.00000000000000
  0
ARC
  5
B6
100
AcDbEntity
  8
A4
  6
CONTINUOUS
 62
7
100
AcDbCircle
 10
115.0981579806100
 20
184.9721035698216
 30
0.000000000000000
 40
0.5000000000000000
100
AcDbArc
 50
270.0000000000000
 51
360.0000000000000
  0
ARC
  5
B7
100
AcDbEntity
  8
A4
  6
CONTINUOUS
 62
7
100
AcDbCircle
 10
174.8611579806100
 20
153.9721035698216
 30
0.000000000000000
 40
0.5000000000000000
100
AcDbArc
 50
0.000000000000000
 51
90.00000000000000
  0
ARC
  5
B8
100
AcDbEntity
  8
A4
  6
CONTINUOUS
 62
7
100
AcDbCircle
 10
167.8611579806100
 20
153.9721035698216
 30
0.000000000000000
 40
0.5000000000000000
100
AcDbArc
 50
90.00000000000000
 51
180.0000000000000
  0
ARC
  5
B9
100
AcDbEntity
  8
A4
  6
CONTINUOUS
 62
7
100
AcDbCircle
 10
67.09755798060995
 20
49.80550356982164
 30
0.000000000000000
 40
6.610529999999998
100
AcDbArc
 50
102.7290000000000
 51
103.2680000000000
  0
ARC
  5
BA
100
AcDbEntity
  8
A4
  6
CONTINUOUS
 62
7
100
AcDbCircle
 10
67.09755798060995
 20
49.80550356982164
 30
0.000000000000000
 40
6.610529999999998
100
AcDbArc
 50
103.2680000000000
 51
105.2580000000000
  0
ARC
  5
BB
100
AcDbEntity
  8
A4
  6
CONTINUOUS
 62
7
100
AcDbCircle
 10
65.43195798060997
 20
55.91450356982163
 30
0.000000000000000
 40
0.2778780000000000
100
AcDbArc
 50
105.2580000000000
 51
180.0000000000000
  0
ARC
  5
BC
100
AcDbEntity
  8
A4
  6
CONTINUOUS
 62
7
100
AcDbCircle
 10
65.43195798060997
 20
53.02860356982163
 30
0.000000000000000
 40
0.2778780000000000
100
AcDbArc
 50
180.0000000000000
 51
254.7419999999999
  0
ARC
  5
BD
100
AcDbEntity
  8
A4
  6
CONTINUOUS
 62
7
100
AcDbCircle
 10
67.09755798060995
 20
59.13760356982164
 30
0.000000000000000
 40
6.610529999999998
100
AcDbArc
 50
254.7419999999999
 51
254.7940000000000
  0
ARC
  5
BE
100
AcDbEntity
  8
A4
  6
CONTINUOUS
 62
7
100
AcDbCircle
 10
67.09755798060995
 20
59.13760356982164
 30
0.000000000000000
 40
6.610529999999998
100
AcDbArc
 50
254.7940000000000
 51
257.2709999999998
  0
ARC
  5
BF
100
AcDbEntity
  8
A4
  6
CONTINUOUS
 62
7
100
AcDbCircle
 10
63.76505798060995
 20
54.47210356982163
 30
0.000000000000000
 40
1.431569999999998
100
AcDbArc
 50
125.5310000000000
 51
234.4619999999999
  0
ARC
  5
C0
100
AcDbEntity
  8
A4
  6
CONTINUOUS
 62
7
100
AcDbCircle
 10
64.31995798060996
 20
53.44700356982164
 30
0.000000000000000
 40
0.2778780000000000
100
AcDbArc
 50
180.0000000000000
 51
243.9859999999999
  0
ARC
  5
C1
100
AcDbEntity
  8
A4
  6
CONTINUOUS
 62
7
100
AcDbCircle
 10
64.54215798060996
 20
53.10190356982164
 30
0.000000000000000
 40
0.05559800000000000
100
AcDbArc
 50
247.0559999999999
 51
360.0000000000000
  0
ARC
  5
C2
100
AcDbEntity
  8
A4
  6
CONTINUOUS
 62
7
100
AcDbCircle
 10
67.09755798060995
 20
59.13760356982164
 30
0.000000000000000
 40
6.610529999999998
100
AcDbArc
 50
243.9859999999999
 51
247.0559999999999
  0
ARC
  5
C3
100
AcDbEntity
  8
A4
  6
CONTINUOUS
 62
7
100
AcDbCircle
 10
67.09755798060995
 20
59.13760356982164
 30
0.000000000000000
 40
6.610529999999998
100
AcDbArc
 50
243.9859999999999
 51
244.7720000000000
  0
ARC
  5
C4
100
AcDbEntity
  8
A4
  6
CONTINUOUS
 62
7
100
AcDbCircle
 10
64.31995798060996
 20
55.49610356982163
 30
0.000000000000000
 40
0.2778780000000000
100
AcDbArc
 50
116.0139999999999
 51
180.0000000000000
  0
ARC
  5
C5
100
AcDbEntity
  8
A4
  6
CONTINUOUS
 62
7
100
AcDbCircle
 10
64.54215798060996
 20
55.84230356982162
 30
0.000000000000000
 40
0.05559800000000000
100
AcDbArc
 50
0.000000000000000
 51
112.9439999999999
  0
ARC
  5
C6
100
AcDbEntity
  8
A4
  6
CONTINUOUS
 62
7
100
AcDbCircle
 10
67.09755798060995
 20
49.80550356982164
 30
0.000000000000000
 40
6.610529999999998
100
AcDbArc
 50
112.9439999999999
 51
116.0139999999999
  0
ARC
  5
C7
100
AcDbEntity
  8
A4
  6
CONTINUOUS
 62
7
100
AcDbCircle
 10
68.20845798060995
 20
56.03970356982163
 30
0.000000000000000
 40
0.2778780000000000
100
AcDbArc
 50
0.000000000000000
 51
79.89600000000000
  0
ARC
  5
C8
100
AcDbEntity
  8
A4
  6
CONTINUOUS
 62
7
100
AcDbCircle
 10
67.09755798060995
 20
49.80550356982164
 30
0.000000000000000
 40
6.610529999999998
100
AcDbArc
 50
79.89600000000000
 51
82.20700000000001
  0
ARC
  5
C9
100
AcDbEntity
  8
A4
  6
CONTINUOUS
 62
7
100
AcDbCircle
 10
67.98625798060995
 20
56.30020356982163
 30
0.000000000000000
 40
0.05559800000000000
100
AcDbArc
 50
82.20700000000001
 51
180.0000000000000
  0
ARC
  5
CA
100
AcDbEntity
  8
A4
  6
CONTINUOUS
 62
7
100
AcDbCircle
 10
68.20845798060995
 20
52.90340356982163
 30
0.000000000000000
 40
0.2778780000000000
100
AcDbArc
 50
280.1040000000000
 51
360.0000000000000
  0
ARC
  5
CB
100
AcDbEntity
  8
A4
  6
CONTINUOUS
 62
7
100
AcDbCircle
 10
67.98625798060995
 20
52.64290356982163
 30
0.000000000000000
 40
0.05559800000000000
100
AcDbArc
 50
180.0000000000000
 51
277.7930000000001
  0
ARC
  5
CC
100
AcDbEntity
  8
A4
  6
CONTINUOUS
 62
7
100
AcDbCircle
 10
67.09755798060995
 20
59.13760356982164
 30
0.000000000000000
 40
6.610529999999998
100
AcDbArc
 50
277.7930000000001
 51
280.1040000000000
  0
ARC
  5
CD
100
AcDbEntity
  8
A4
  6
CONTINUOUS
 62
7
100
AcDbCircle
 10
69.87525798060996
 20
54.74950356982163
 30
0.000000000000000
 40
0.2778780000000000
100
AcDbArc
 50
180.0000000000000
 51
360.0000000000000
  0
ARC
  5
CE
100
AcDbEntity
  8
A4
  6
CONTINUOUS
 62
7
100
AcDbCircle
 10
70.43125798060996
 20
54.47210356982163
 30
0.000000000000000
 40
1.431679999999999
100
AcDbArc
 50
305.5470000000001
 51
414.4620000000000
  0
ARC
  5
CF
100
AcDbEntity
  8
A4
  6
CONTINUOUS
 62
7
100
AcDbCircle
 10
67.09755798060995
 20
59.13760356982164
 30
0.000000000000000
 40
7.166059999999998
100
AcDbArc
 50
234.4619999999999
 51
305.5379999999999
  0
ARC
  5
D0
100
AcDbEntity
  8
A4
  6
CONTINUOUS
 62
7
100
AcDbCircle
 10
65.65295798060995
 20
52.74440356982164
 30
0.000000000000000
 40
0.05559800000000000
100
AcDbArc
 50
257.2709999999998
 51
360.0000000000000
  0
ARC
  5
D1
100
AcDbEntity
  8
A4
  6
CONTINUOUS
 62
7
100
AcDbCircle
 10
65.65295798060995
 20
56.19870356982162
 30
0.000000000000000
 40
0.05559800000000000
100
AcDbArc
 50
0.000000000000000
 51
102.7290000000000
  0
ARC
  5
D2
100
AcDbEntity
  8
A4
  6
CONTINUOUS
 62
7
100
AcDbCircle
 10
67.09755798060995
 20
49.80550356982164
 30
0.000000000000000
 40
7.166059999999998
100
AcDbArc
 50
54.46200000000001
 51
125.5380000000000
  0
ENDSEC
  0
SECTION
  2
OBJECTS
  0
DICTIONARY
  5
FF
100
AcDbDictionary
  3
ACAD_GROUP
350
100
  3
ACAD_LAYOUT
350
101
  3
ACAD_MLINESTYLE
350
102
  0
DICTIONARY
  5
100
102
{ACAD_REACTORS
330
FF
102
}
330
FF
100
AcDbDictionary
  0
DICTIONARY
  5
101
102
{ACAD_REACTORS
330
FF
102
}
330
FF
100
AcDbDictionary
  3
Model
350
103
  3
ﾚｲｱｳﾄ1
350
104
  3
ﾚｲｱｳﾄ2
350
105
  0
DICTIONARY
  5
102
102
{ACAD_REACTORS
330
FF
102
}
330
FF
100
AcDbDictionary
  3
STANDARD
350
106
  0
LAYOUT
  5
103
102
{ACAD_REACTORS
330
101
102
}
330
101
100
AcDbPlotSettings
 70
11952
  4
A3
 44
297.000000
 45
420.000000
 73
  1
 72
  1
100
AcDbLayout
  1
Model
 71
0
330
F6
  0
LAYOUT
  5
104
102
{ACAD_REACTORS
330
101
102
}
330
101
100
AcDbPlotSettings
100
AcDbLayout
  1
ﾚｲｱｳﾄ1
 71
1
330
F7
  0
LAYOUT
  5
105
102
{ACAD_REACTORS
330
101
102
}
330
101
100
AcDbPlotSettings
100
AcDbLayout
  1
ﾚｲｱｳﾄ2
 71
2
330
F8
  0
MLINESTYLE
  5
106
102
{ACAD_REACTORS
330
102
102
}
330
102
100
AcDbMlineStyle
  2
STANDARD
 70
     0
  3

 62
   256
 51
90.00
 52
90.00
 71
     2
 49
0.50
 62
   256
  6
BYLAYER
 49
-0.50
 62
   256
  6
BYLAYER
  0
ENDSEC
  0
EOF
