  0
SECTION
  2
HEADER
  9
$ACADVER
  1
AC1024
  9
$DWGCODEPAGE
  3
ANSI_932
  9
$LTSCALE
 40
20.0
  9
$FILLMODE
 70
     1
  9
$CLAYER
  8
0
  9
$PDMODE
 70
     0
  9
$SPLFRAME
 70
     0
  9
$SPLINETYPE
 70
     6
  9
$SPLINESEGS
 70
     8
  9
$DIMASZ
 40
2.000000
  9
$DIMEXE
 40
1.500000
  9
$DIMEXO
 40
0.800000
  9
$DIMTAD
 70
     1
  9
$DIMTIH
 70
     0
  9
$DIMTOH
 70
     0
  9
$DIMTVP
 40
0.500000
  9
$DIMTXT
 40
3.100000
  9
$EXTMIN
 10
0.000000
 20
0.000000
 30
0.000000
  9
$EXTMAX
 10
297.000000
 20
420.000000
 30
0.000000
  9
$MEASUREMENT
 70
  1
  9
$LIMMIN
 10
0.000000
 20
0.000000
  9
$LIMMAX
 10
297.000000
 20
420.000000
  9
$HANDSEED
  5
101
  9
$LWDISPLAY
290
     0
  9
$DIMBLK
  1
_OPEN
  9
$DIMDEC
 70
     2
  9
$DIMADEC
 70
     2
  9
$DIMAUNIT
 70
     0
  9
$DIMZIN
 70
     8
  9
$DIMAZIN
 70
     2
  9
$DIMTOFL
 70
     1
  0
ENDSEC
  0
SECTION
  2
CLASSES
  0
ENDSEC
  0
SECTION
  2
TABLES
  0
TABLE
  2
VPORT
  5
CD
100
AcDbSymbolTable
 70
     1
  0
VPORT
  5
CE
100
AcDbSymbolTableRecord
100
AcDbViewportTableRecord
  2
*ACTIVE
 70
     0
 12
82.320871
 22
85.688241
 40
135.376480
 41
1.068441
  0
ENDTAB
  0
TABLE
  2
LTYPE
  5
CF
100
AcDbSymbolTable
 70
     2
  0
LTYPE
  5
D0
100
AcDbSymbolTableRecord
100
AcDbLinetypeTableRecord
  2
BYBLOCK
 70
     0
  3

 72
    65
 73
     0
 40
0.0
  0
LTYPE
  5
D1
100
AcDbSymbolTableRecord
100
AcDbLinetypeTableRecord
  2
BYLAYER
 70
     0
  3

 72
    65
 73
     0
 40
0.0
  0
LTYPE
  5
D2
100
AcDbSymbolTableRecord
100
AcDbLinetypeTableRecord
  2
CONTINUOUS
 70
     0
  3
Solid line (NEC CAE2D for Win R18.0 : 2024.05.30)
 72
    65
 73
     0
 40
0.0
  0
LTYPE
  5
D3
100
AcDbSymbolTableRecord
100
AcDbLinetypeTableRecord
  2
CENTER
 70
     0
  3
____ _ ____ _ ____ _ ____ _ ____ _ ____
 72
    65
 73
     4
 40
2.0
 49
1.25
 74
     0
 49
-0.25
 74
     0
 49
0.25
 74
     0
 49
-0.25
 74
     0
  0
ENDTAB
  0
TABLE
  2
LAYER
  5
D4
100
AcDbSymbolTable
 70
    14
  0
LAYER
  5
D5
100
AcDbSymbolTableRecord
100
AcDbLayerTableRecord
  2
0
 70
     0
 62
     7
  6
CONTINUOUS
370
    -3
390

  0
LAYER
  5
D6
100
AcDbSymbolTableRecord
100
AcDbLayerTableRecord
  2
A0
 70
     0
 62
     9
  6
CONTINUOUS
370
    -3
390

  0
LAYER
  5
D7
100
AcDbSymbolTableRecord
100
AcDbLayerTableRecord
  2
A2
 70
     0
 62
     9
  6
CONTINUOUS
370
    -3
390

  0
LAYER
  5
D8
100
AcDbSymbolTableRecord
100
AcDbLayerTableRecord
  2
A4
 70
     0
 62
     9
  6
CONTINUOUS
370
    -3
390

  0
LAYER
  5
D9
100
AcDbSymbolTableRecord
100
AcDbLayerTableRecord
  2
A5
 70
     0
 62
     8
  6
CONTINUOUS
370
    -3
390

  0
LAYER
  5
DA
100
AcDbSymbolTableRecord
100
AcDbLayerTableRecord
  2
A6
 70
     0
 62
    12
  6
CONTINUOUS
370
    -3
390

  0
LAYER
  5
DB
100
AcDbSymbolTableRecord
100
AcDbLayerTableRecord
  2
A8
 70
     0
 62
    10
  6
CONTINUOUS
370
    -3
390

  0
LAYER
  5
DC
100
AcDbSymbolTableRecord
100
AcDbLayerTableRecord
  2
A9
 70
     0
 62
     9
  6
CONTINUOUS
370
    -3
390

  0
LAYER
  5
DD
100
AcDbSymbolTableRecord
100
AcDbLayerTableRecord
  2
A10
 70
     0
 62
     6
  6
CONTINUOUS
370
    -3
390

  0
LAYER
  5
DE
100
AcDbSymbolTableRecord
100
AcDbLayerTableRecord
  2
A20
 70
     0
 62
     1
  6
CONTINUOUS
370
    -3
390

  0
LAYER
  5
DF
100
AcDbSymbolTableRecord
100
AcDbLayerTableRecord
  2
A30
 70
     0
 62
     1
  6
CONTINUOUS
370
    -3
390

  0
LAYER
  5
E0
100
AcDbSymbolTableRecord
100
AcDbLayerTableRecord
  2
A40
 70
     0
 62
     9
  6
CONTINUOUS
370
    -3
390

  0
LAYER
  5
E1
100
AcDbSymbolTableRecord
100
AcDbLayerTableRecord
  2
A50
 70
     0
 62
    12
  6
CONTINUOUS
370
    -3
390

  0
LAYER
  5
E2
100
AcDbSymbolTableRecord
100
AcDbLayerTableRecord
  2
A1023
 70
     0
 62
    16
  6
CONTINUOUS
370
    -3
390

  0
ENDTAB
  0
TABLE
  2
STYLE
  5
E3
100
AcDbSymbolTable
 70
     4
  0
STYLE
  5
E4
100
AcDbSymbolTableRecord
100
AcDbTextStyleTableRecord
  2
STANDARD
 70
    64
 40
0.0
 41
1.0
 50
0.0
 71
     0
 42
3.000000000000000
  3
TXT
  4

  0
STYLE
  5
E5
100
AcDbSymbolTableRecord
100
AcDbTextStyleTableRecord
  2
ANKTATE
 70
    68
 40
0.0
 41
1.0
 50
0.0
 71
     0
 42
3.000000000000000
  3
TXT
  4

  0
STYLE
  5
E6
100
AcDbSymbolTableRecord
100
AcDbTextStyleTableRecord
  2
KNJYOKO
 70
    64
 40
0.0
 41
1.0
 50
0.0
 71
     0
 42
3.000000000000000
  3
TXT
  4
BIGFONT
  0
STYLE
  5
E7
100
AcDbSymbolTableRecord
100
AcDbTextStyleTableRecord
  2
KNJTATE
 70
    68
 40
0.0
 41
1.0
 50
0.0
 71
     0
 42
3.000000000000000
  3
TXT
  4
BIGFONT
  0
ENDTAB
  0
TABLE
  2
VIEW
  5
E8
100
AcDbSymbolTable
 70
     0
  0
ENDTAB
  0
TABLE
  2
UCS
  5
E9
100
AcDbSymbolTable
 70
     0
  0
ENDTAB
  0
TABLE
  2
APPID
  5
EA
100
AcDbSymbolTable
 70
     1
  0
APPID
  5
EB
100
AcDbSymbolTableRecord
100
AcDbRegAppTableRecord
  2
ACAD
 70
     0
  0
ENDTAB
  0
TABLE
  2
DIMSTYLE
  5
EC
100
AcDbSymbolTable
 70
     2
100
AcDbDimStyleTable
  0
DIMSTYLE
105
ED
100
AcDbSymbolTableRecord
100
AcDbDimStyleTableRecord
  2
STANDARD
 70
     0
 41
2.000000
 44
1.500000
 42
0.800000
145
0.661290
140
3.100000
144
1.000000
146
0.645161
340
E4
  0
DIMSTYLE
105
EE
100
AcDbSymbolTableRecord
100
AcDbDimStyleTableRecord
  2
A001
 70
     0
 41
2.000000
 44
1.500000
 42
0.800000
145
0.661290
140
3.100000
144
1.000000
146
0.645161
 77
     1
 73
     0
 74
     0
271
     2
179
     2
275
     0
 78
     8
 79
     2
172
     1
340
E4
  0
ENDTAB
  0
TABLE
  2
BLOCK_RECORD
  5
EF
100
AcDbSymbolTable
 70
    12
  0
BLOCK_RECORD
  5
F0
100
AcDbSymbolTableRecord
100
AcDbBlockTableRecord
  2
*MODEL_SPACE
  0
BLOCK_RECORD
  5
F1
100
AcDbSymbolTableRecord
100
AcDbBlockTableRecord
  2
*PAPER_SPACE
  0
BLOCK_RECORD
  5
F2
100
AcDbSymbolTableRecord
100
AcDbBlockTableRecord
  2
*PAPER_SPACE0
  0
BLOCK_RECORD
  5
1
100
AcDbSymbolTableRecord
100
AcDbBlockTableRecord
  2
_NONE
  0
BLOCK_RECORD
  5
4
100
AcDbSymbolTableRecord
100
AcDbBlockTableRecord
  2
_CLOSED
  0
BLOCK_RECORD
  5
B
100
AcDbSymbolTableRecord
100
AcDbBlockTableRecord
  2
_DOT
  0
BLOCK_RECORD
  5
13
100
AcDbSymbolTableRecord
100
AcDbBlockTableRecord
  2
_OPEN
  0
BLOCK_RECORD
  5
19
100
AcDbSymbolTableRecord
100
AcDbBlockTableRecord
  2
_ORIGIN
  0
BLOCK_RECORD
  5
1E
100
AcDbSymbolTableRecord
100
AcDbBlockTableRecord
  2
_OPEN30
  0
BLOCK_RECORD
  5
24
100
AcDbSymbolTableRecord
100
AcDbBlockTableRecord
  2
_BOXFILLED
  0
BLOCK_RECORD
  5
29
100
AcDbSymbolTableRecord
100
AcDbBlockTableRecord
  2
_BOXBLANK
  0
BLOCK_RECORD
  5
31
100
AcDbSymbolTableRecord
100
AcDbBlockTableRecord
  2
_OBLIQUE
  0
BLOCK_RECORD
  5
35
100
AcDbSymbolTableRecord
100
AcDbBlockTableRecord
  2
_OPEN90
  0
BLOCK_RECORD
  5
3B
100
AcDbSymbolTableRecord
100
AcDbBlockTableRecord
  2
_CLOSEDBLANK
  0
BLOCK_RECORD
  5
41
100
AcDbSymbolTableRecord
100
AcDbBlockTableRecord
  2
_DOTBLANK
  0
ENDTAB
  0
ENDSEC
  0
SECTION
  2
BLOCKS
  0
BLOCK
  5
F3
100
AcDbEntity
  8
0
100
AcDbBlockBegin
  2
*MODEL_SPACE
 70
     0
 10
0.0
 20
0.0
 30
0.0
  3
*MODEL_SPACE
  1

  0
ENDBLK
  5
F4
100
AcDbEntity
  8
0
100
AcDbBlockEnd
  0
BLOCK
  5
F5
100
AcDbEntity
  8
0
100
AcDbBlockBegin
  2
*PAPER_SPACE
 70
     0
 10
0.0
 20
0.0
 30
0.0
  3
*PAPER_SPACE
  1

  0
ENDBLK
  5
F6
100
AcDbEntity
  8
0
100
AcDbBlockEnd
  0
BLOCK
  5
F7
100
AcDbEntity
  8
0
100
AcDbBlockBegin
  2
*PAPER_SPACE0
 70
     0
 10
0.0
 20
0.0
 30
0.0
  3
*PAPER_SPACE0
  1

  0
ENDBLK
  5
F8
100
AcDbEntity
  8
0
100
AcDbBlockEnd
  0
BLOCK
  5
2
330
1
100
AcDbEntity
  8
0
100
AcDbBlockBegin
  2
_NONE
 70
     0
 10
0.0
 20
0.0
 30
0.0
  3
_NONE
  1

  0
ENDBLK
  5
3
330
1
100
AcDbEntity
  8
0
100
AcDbBlockEnd
  0
BLOCK
  5
5
330
4
100
AcDbEntity
  8
0
100
AcDbBlockBegin
  2
_CLOSED
 70
     0
 10
0.0
 20
0.0
 30
0.0
  3
_CLOSED
  1

  0
LINE
  5
6
330
4
100
AcDbEntity
  8
0
  6
BYBLOCK
 62
     0
370
    -2
100
AcDbLine
 10
-1.0
 20
0.166667
 30
0.0
 11
0.0
 21
0.0
 31
0.0
  0
LINE
  5
7
330
4
100
AcDbEntity
  8
0
  6
BYBLOCK
 62
     0
370
    -2
100
AcDbLine
 10
0.0
 20
0.0
 30
0.0
 11
-1.0
 21
-0.166667
 31
0.0
  0
LINE
  5
8
330
4
100
AcDbEntity
  8
0
  6
BYBLOCK
 62
     0
370
    -2
100
AcDbLine
 10
-1.0
 20
0.166667
 30
0.0
 11
-1.0
 21
-0.166667
 31
0.0
  0
LINE
  5
9
330
4
100
AcDbEntity
  8
0
  6
BYBLOCK
 62
     0
370
    -2
100
AcDbLine
 10
0.0
 20
0.0
 30
0.0
 11
-1.0
 21
0.0
 31
0.0
  0
ENDBLK
  5
A
330
4
100
AcDbEntity
  8
0
100
AcDbBlockEnd
  0
BLOCK
  5
C
330
B
100
AcDbEntity
  8
0
100
AcDbBlockBegin
  2
_DOT
 70
     0
 10
0.0
 20
0.0
 30
0.0
  3
_DOT
  1

  0
POLYLINE
  5
D
330
B
100
AcDbEntity
  8
0
  6
BYBLOCK
 62
     0
370
    -2
100
AcDb2dPolyline
 66
     1
 10
0.0
 20
0.0
 30
0.0
 70
     1
 40
0.5
 41
0.5
  0
VERTEX
  5
E
330
B
100
AcDbEntity
  8
0
  6
BYBLOCK
 62
     0
370
    -2
100
AcDbVertex
100
AcDb2dVertex
 10
-0.25
 20
0.0
 30
0.0
 42
1.0
  0
VERTEX
  5
F
330
B
100
AcDbEntity
  8
0
  6
BYBLOCK
 62
     0
370
    -2
100
AcDbVertex
100
AcDb2dVertex
 10
0.25
 20
0.0
 30
0.0
 42
1.0
  0
SEQEND
  5
10
330
B
100
AcDbEntity
  8
0
  6
BYBLOCK
 62
     0
370
    -2
  0
LINE
  5
11
330
B
100
AcDbEntity
  8
0
  6
BYBLOCK
 62
     0
370
    -2
100
AcDbLine
 10
-0.5
 20
0.0
 30
0.0
 11
-1.0
 21
0.0
 31
0.0
  0
ENDBLK
  5
12
330
B
100
AcDbEntity
  8
0
100
AcDbBlockEnd
  0
BLOCK
  5
14
330
13
100
AcDbEntity
  8
0
100
AcDbBlockBegin
  2
_OPEN
 70
     0
 10
0.0
 20
0.0
 30
0.0
  3
_OPEN
  1

  0
LINE
  5
15
330
13
100
AcDbEntity
  8
0
  6
BYBLOCK
 62
     0
370
    -2
100
AcDbLine
 10
-1.0
 20
0.166667
 30
0.0
 11
0.0
 21
0.0
 31
0.0
  0
LINE
  5
16
330
13
100
AcDbEntity
  8
0
  6
BYBLOCK
 62
     0
370
    -2
100
AcDbLine
 10
0.0
 20
0.0
 30
0.0
 11
-1.0
 21
-0.166667
 31
0.0
  0
LINE
  5
17
330
13
100
AcDbEntity
  8
0
  6
BYBLOCK
 62
     0
370
    -2
100
AcDbLine
 10
0.0
 20
0.0
 30
0.0
 11
-1.0
 21
0.0
 31
0.0
  0
ENDBLK
  5
18
330
13
100
AcDbEntity
  8
0
100
AcDbBlockEnd
  0
BLOCK
  5
1A
330
19
100
AcDbEntity
  8
0
100
AcDbBlockBegin
  2
_ORIGIN
 70
     0
 10
0.0
 20
0.0
 30
0.0
  3
_ORIGIN
  1

  0
CIRCLE
  5
1B
330
19
100
AcDbEntity
  8
0
  6
BYBLOCK
 62
     0
370
    -2
100
AcDbCircle
 10
0.0
 20
0.0
 30
0.0
 40
0.5
  0
LINE
  5
1C
330
19
100
AcDbEntity
  8
0
  6
BYBLOCK
 62
     0
370
    -2
100
AcDbLine
 10
0.0
 20
0.0
 30
0.0
 11
-1.0
 21
0.0
 31
0.0
  0
ENDBLK
  5
1D
330
19
100
AcDbEntity
  8
0
100
AcDbBlockEnd
  0
BLOCK
  5
1F
330
1E
100
AcDbEntity
  8
0
100
AcDbBlockBegin
  2
_OPEN30
 70
     0
 10
0.0
 20
0.0
 30
0.0
  3
_OPEN30
  1

  0
LINE
  5
20
330
1E
100
AcDbEntity
  8
0
  6
BYBLOCK
 62
     0
370
    -2
100
AcDbLine
 10
-1.0
 20
0.267949
 30
0.0
 11
0.0
 21
0.0
 31
0.0
  0
LINE
  5
21
330
1E
100
AcDbEntity
  8
0
  6
BYBLOCK
 62
     0
370
    -2
100
AcDbLine
 10
0.0
 20
0.0
 30
0.0
 11
-1.0
 21
-0.267949
 31
0.0
  0
LINE
  5
22
330
1E
100
AcDbEntity
  8
0
  6
BYBLOCK
 62
     0
370
    -2
100
AcDbLine
 10
0.0
 20
0.0
 30
0.0
 11
-1.0
 21
0.0
 31
0.0
  0
ENDBLK
  5
23
330
1E
100
AcDbEntity
  8
0
100
AcDbBlockEnd
  0
BLOCK
  5
25
330
24
100
AcDbEntity
  8
0
100
AcDbBlockBegin
  2
_BOXFILLED
 70
     0
 10
0.0
 20
0.0
 30
0.0
  3
_BOXFILLED
  1

  0
SOLID
  5
26
330
24
100
AcDbEntity
  8
0
  6
BYBLOCK
 62
     0
370
    -2
100
AcDbTrace
 10
-0.5
 20
0.5
 30
0.0
 11
0.5
 21
0.5
 31
0.0
 12
-0.5
 22
-0.5
 32
0.0
 13
0.5
 23
-0.5
 33
0.0
  0
LINE
  5
27
330
24
100
AcDbEntity
  8
0
  6
BYBLOCK
 62
     0
370
    -2
100
AcDbLine
 10
-0.5
 20
0.0
 30
0.0
 11
-1.0
 21
0.0
 31
0.0
  0
ENDBLK
  5
28
330
24
100
AcDbEntity
  8
0
100
AcDbBlockEnd
  0
BLOCK
  5
2A
330
29
100
AcDbEntity
  8
0
100
AcDbBlockBegin
  2
_BOXBLANK
 70
     0
 10
0.0
 20
0.0
 30
0.0
  3
_BOXBLANK
  1

  0
LINE
  5
2B
330
29
100
AcDbEntity
  8
0
  6
BYBLOCK
 62
     0
370
    -2
100
AcDbLine
 10
-0.5
 20
-0.5
 30
0.0
 11
0.5
 21
-0.5
 31
0.0
  0
LINE
  5
2C
330
29
100
AcDbEntity
  8
0
  6
BYBLOCK
 62
     0
370
    -2
100
AcDbLine
 10
0.5
 20
-0.5
 30
0.0
 11
0.5
 21
0.5
 31
0.0
  0
LINE
  5
2D
330
29
100
AcDbEntity
  8
0
  6
BYBLOCK
 62
     0
370
    -2
100
AcDbLine
 10
0.5
 20
0.5
 30
0.0
 11
-0.5
 21
0.5
 31
0.0
  0
LINE
  5
2E
330
29
100
AcDbEntity
  8
0
  6
BYBLOCK
 62
     0
370
    -2
100
AcDbLine
 10
-0.5
 20
0.5
 30
0.0
 11
-0.5
 21
-0.5
 31
0.0
  0
LINE
  5
2F
330
29
100
AcDbEntity
  8
0
  6
BYBLOCK
 62
     0
370
    -2
100
AcDbLine
 10
-0.5
 20
0.0
 30
0.0
 11
-1.0
 21
0.0
 31
0.0
  0
ENDBLK
  5
30
330
29
100
AcDbEntity
  8
0
100
AcDbBlockEnd
  0
BLOCK
  5
32
330
31
100
AcDbEntity
  8
0
100
AcDbBlockBegin
  2
_OBLIQUE
 70
     0
 10
0.0
 20
0.0
 30
0.0
  3
_OBLIQUE
  1

  0
LINE
  5
33
330
31
100
AcDbEntity
  8
0
  6
BYBLOCK
 62
     0
370
    -2
100
AcDbLine
 10
-0.5
 20
-0.5
 30
0.0
 11
0.5
 21
0.5
 31
0.0
  0
ENDBLK
  5
34
330
31
100
AcDbEntity
  8
0
100
AcDbBlockEnd
  0
BLOCK
  5
36
330
35
100
AcDbEntity
  8
0
100
AcDbBlockBegin
  2
_OPEN90
 70
     0
 10
0.0
 20
0.0
 30
0.0
  3
_OPEN90
  1

  0
LINE
  5
37
330
35
100
AcDbEntity
  8
0
  6
BYBLOCK
 62
     0
370
    -2
100
AcDbLine
 10
-0.5
 20
0.5
 30
0.0
 11
0.0
 21
0.0
 31
0.0
  0
LINE
  5
38
330
35
100
AcDbEntity
  8
0
  6
BYBLOCK
 62
     0
370
    -2
100
AcDbLine
 10
0.0
 20
0.0
 30
0.0
 11
-0.5
 21
-0.5
 31
0.0
  0
LINE
  5
39
330
35
100
AcDbEntity
  8
0
  6
BYBLOCK
 62
     0
370
    -2
100
AcDbLine
 10
0.0
 20
0.0
 30
0.0
 11
-1.0
 21
0.0
 31
0.0
  0
ENDBLK
  5
3A
330
35
100
AcDbEntity
  8
0
100
AcDbBlockEnd
  0
BLOCK
  5
3C
330
3B
100
AcDbEntity
  8
0
100
AcDbBlockBegin
  2
_CLOSEDBLANK
 70
     0
 10
0.0
 20
0.0
 30
0.0
  3
_CLOSEDBLANK
  1

  0
LINE
  5
3D
330
3B
100
AcDbEntity
  8
0
  6
BYBLOCK
 62
     0
370
    -2
100
AcDbLine
 10
-1.0
 20
0.1666666666666666
 30
0.0
 11
0.0
 21
0.0
 31
0.0
  0
LINE
  5
3E
330
3B
100
AcDbEntity
  8
0
  6
BYBLOCK
 62
     0
370
    -2
100
AcDbLine
 10
0.0
 20
0.0
 30
0.0
 11
-1.0
 21
-0.1666666666666666
 31
0.0
  0
LINE
  5
3F
330
3B
100
AcDbEntity
  8
0
  6
BYBLOCK
 62
     0
370
    -2
100
AcDbLine
 10
-1.0
 20
0.1666666666666666
 30
0.0
 11
-1.0
 21
-0.1666666666666666
 31
0.0
  0
ENDBLK
  5
40
330
3B
100
AcDbEntity
  8
0
100
AcDbBlockEnd
  0
BLOCK
  5
42
330
41
100
AcDbEntity
  8
0
100
AcDbBlockBegin
  2
_DOTBLANK
 70
     0
 10
0.0
 20
0.0
 30
0.0
  3
_DOTBLANK
  1

  0
CIRCLE
  5
43
330
41
100
AcDbEntity
  8
0
  6
BYBLOCK
 62
     0
370
    -2
100
AcDbCircle
 10
0.0
 20
0.0
 30
0.0
 40
0.5
  0
LINE
  5
44
330
41
100
AcDbEntity
  8
0
  6
BYBLOCK
 62
     0
370
    -2
100
AcDbLine
 10
-0.5
 20
0.0
 30
0.0
 11
-1.0
 21
0.0
 31
0.0
  0
ENDBLK
  5
45
330
41
100
AcDbEntity
  8
0
100
AcDbBlockEnd
  0
ENDSEC
  0
SECTION
  2
ENTITIES
  0
MTEXT
  5
46
100
AcDbEntity
  8
A8
  6
CONTINUOUS
 62
3
100
AcDbMText
 10
9.999997526638502
 20
18.00000076076889
 30
0.000000000000000
 40
3.000000000000000
 41
0.000000000000000
 44
0.6739999771118164
 71
     7
 72
     1
  1
{\H0.94x;{TYPE No.THA-176S-2}}
 11
1.000000000000000
 21
0.000000000000000
 31
0.000000000000000
  7
STANDARD
  0
POINT
  5
47
100
AcDbEntity
  8
A0
  6
CONTINUOUS
 62
3
100
AcDbPoint
 10
9.999997526638502
 20
18.00000076076889
 30
0.000000000000000
  0
LINE
  5
48
100
AcDbEntity
  8
A4
  6
CONTINUOUS
 62
7
100
AcDbLine
 10
37.11854364721230
 20
55.37648094503849
 30
0.000000000000000
 11
45.11854364721231
 21
55.37648094503849
 31
0.000000000000000
  0
LINE
  5
49
100
AcDbEntity
  8
A4
  6
CONTINUOUS
 62
7
100
AcDbLine
 10
36.11854364721231
 20
54.37648094503849
 30
0.000000000000000
 11
36.11854364721231
 21
47.37648094503849
 31
0.000000000000000
  0
LINE
  5
4A
100
AcDbEntity
  8
A4
  6
CONTINUOUS
 62
7
100
AcDbLine
 10
110.1185436472123
 20
54.37648094503849
 30
0.000000000000000
 11
110.1185436472123
 21
47.37648094503849
 31
0.000000000000000
  0
LINE
  5
4B
100
AcDbEntity
  8
A4
  6
CONTINUOUS
 62
7
100
AcDbLine
 10
101.1185436472123
 20
55.37648094503849
 30
0.000000000000000
 11
109.1185436472123
 21
55.37648094503849
 31
0.000000000000000
  0
LINE
  5
4C
100
AcDbEntity
  8
A4
  6
CONTINUOUS
 62
7
100
AcDbLine
 10
36.11854364721231
 20
85.37648094503849
 30
0.000000000000000
 11
46.11854364721229
 21
85.37648094503849
 31
0.000000000000000
  0
LINE
  5
4D
100
AcDbEntity
  8
A4
  6
CONTINUOUS
 62
7
100
AcDbLine
 10
40.87704364721230
 20
100.3764809450385
 30
0.000000000000000
 11
105.3601436472123
 21
100.3764809450385
 31
0.000000000000000
  0
LINE
  5
4E
100
AcDbEntity
  8
A2
  6
CENTER
 62
1
100
AcDbLine
 10
73.11854364721231
 20
102.3764809450384
 30
0.000000000000000
 11
73.11854364721231
 21
91.37648094503849
 31
0.000000000000000
  0
LINE
  5
4F
100
AcDbEntity
  8
A4
  6
CONTINUOUS
 62
7
100
AcDbLine
 10
36.11854364721231
 20
85.37648094503849
 30
0.000000000000000
 11
39.91404364721231
 21
99.64648094503849
 31
0.000000000000000
  0
LINE
  5
50
100
AcDbEntity
  8
A4
  6
CONTINUOUS
 62
7
100
AcDbLine
 10
106.3230436472123
 20
99.64648094503849
 30
0.000000000000000
 11
110.1185436472123
 21
85.37648094503851
 31
0.000000000000000
  0
LINE
  5
51
100
AcDbEntity
  8
A4
  6
CONTINUOUS
 62
7
100
AcDbLine
 10
100.1185436472123
 20
85.37648094503849
 30
0.000000000000000
 11
110.1185436472123
 21
85.37648094503849
 31
0.000000000000000
  0
LINE
  5
52
100
AcDbEntity
  8
A2
  6
CENTER
 62
1
100
AcDbLine
 10
43.11854364721229
 20
87.37648094503849
 30
0.000000000000000
 11
43.11854364721229
 21
83.37648094503840
 31
0.000000000000000
  0
LINE
  5
53
100
AcDbEntity
  8
A2
  6
CENTER
 62
1
100
AcDbLine
 10
103.1185436472123
 20
87.37648094503849
 30
0.000000000000000
 11
103.1185436472123
 21
83.37648094503840
 31
0.000000000000000
  0
LINE
  5
54
100
AcDbEntity
  8
A4
  6
CONTINUOUS
 62
7
100
AcDbLine
 10
110.1185436472123
 20
136.3764809450385
 30
0.000000000000000
 11
110.1185436472123
 21
145.3764809450384
 31
0.000000000000000
  0
LINE
  5
55
100
AcDbEntity
  8
A4
  6
CONTINUOUS
 62
7
100
AcDbLine
 10
106.1185436472123
 20
151.3764809450384
 30
0.000000000000000
 11
106.1185436472123
 21
142.6794809450385
 31
0.000000000000000
  0
LINE
  5
56
100
AcDbEntity
  8
A4
  6
CONTINUOUS
 62
7
100
AcDbLine
 10
40.65374364721230
 20
142.3764809450383
 30
0.000000000000000
 11
105.5833436472123
 21
142.3764809450383
 31
0.000000000000000
  0
LINE
  5
57
100
AcDbEntity
  8
A2
  6
CENTER
 62
1
100
AcDbLine
 10
73.11854364721231
 20
153.3764809450384
 30
0.000000000000000
 11
73.11854364721231
 21
138.4164809450383
 31
0.000000000000000
  0
LINE
  5
58
100
AcDbEntity
  8
A2
  6
CENTER
 62
1
100
AcDbLine
 10
73.11854364721231
 20
51.87588094503847
 30
0.000000000000000
 11
73.11854364721231
 21
41.87588094503849
 31
0.000000000000000
  0
LINE
  5
59
100
AcDbEntity
  8
A4
  6
CONTINUOUS
 62
7
100
AcDbLine
 10
46.11854364721229
 20
93.37648094503849
 30
0.000000000000000
 11
46.11854364721229
 21
85.37648094503849
 31
0.000000000000000
  0
LINE
  5
5A
100
AcDbEntity
  8
A4
  6
CONTINUOUS
 62
7
100
AcDbLine
 10
48.11854364721231
 20
95.37648094503849
 30
0.000000000000000
 11
98.11854364721229
 21
95.37648094503849
 31
0.000000000000000
  0
LINE
  5
5B
100
AcDbEntity
  8
A4
  6
CONTINUOUS
 62
7
100
AcDbLine
 10
100.1185436472123
 20
93.37648094503849
 30
0.000000000000000
 11
100.1185436472123
 21
85.37648094503849
 31
0.000000000000000
  0
LINE
  5
5C
100
AcDbEntity
  8
A4
  6
CONTINUOUS
 62
7
100
AcDbLine
 10
46.11854364721229
 20
138.3764809450384
 30
0.000000000000000
 11
46.11854364721229
 21
136.3764809450385
 31
0.000000000000000
  0
LINE
  5
5D
100
AcDbEntity
  8
A4
  6
CONTINUOUS
 62
7
100
AcDbLine
 10
100.1185436472123
 20
138.3764809450384
 30
0.000000000000000
 11
100.1185436472123
 21
136.3764809450385
 31
0.000000000000000
  0
LINE
  5
5E
100
AcDbEntity
  8
A4
  6
CONTINUOUS
 62
7
100
AcDbLine
 10
40.11854364721230
 20
151.3764809450384
 30
0.000000000000000
 11
106.1185436472123
 21
151.3764809450384
 31
0.000000000000000
  0
LINE
  5
5F
100
AcDbEntity
  8
A4
  6
CONTINUOUS
 62
7
100
AcDbLine
 10
40.11854364721230
 20
151.3764809450384
 30
0.000000000000000
 11
40.11854364721230
 21
142.6794809450385
 31
0.000000000000000
  0
LINE
  5
60
100
AcDbEntity
  8
A4
  6
CONTINUOUS
 62
7
100
AcDbLine
 10
36.11854364721231
 20
136.3764809450385
 30
0.000000000000000
 11
46.11854364721229
 21
136.3764809450385
 31
0.000000000000000
  0
LINE
  5
61
100
AcDbEntity
  8
A4
  6
CONTINUOUS
 62
7
100
AcDbLine
 10
100.1185436472123
 20
136.3764809450385
 30
0.000000000000000
 11
110.1185436472123
 21
136.3764809450385
 31
0.000000000000000
  0
LINE
  5
62
100
AcDbEntity
  8
A4
  6
CONTINUOUS
 62
7
100
AcDbLine
 10
36.11854364721231
 20
136.3764809450385
 30
0.000000000000000
 11
39.95064364721231
 21
142.1244809450383
 31
0.000000000000000
  0
LINE
  5
63
100
AcDbEntity
  8
A4
  6
CONTINUOUS
 62
7
100
AcDbLine
 10
36.11854364721231
 20
145.3764809450384
 30
0.000000000000000
 11
40.11854364721231
 21
151.3764809450384
 31
0.000000000000000
  0
LINE
  5
64
100
AcDbEntity
  8
A4
  6
CONTINUOUS
 62
7
100
AcDbLine
 10
36.11854364721231
 20
145.3764809450384
 30
0.000000000000000
 11
36.11854364721231
 21
136.3764809450385
 31
0.000000000000000
  0
LINE
  5
65
100
AcDbEntity
  8
A4
  6
CONTINUOUS
 62
7
100
AcDbLine
 10
106.4154436472123
 20
141.9314809450385
 30
0.000000000000000
 11
110.1185436472123
 21
136.3764809450385
 31
0.000000000000000
  0
LINE
  5
66
100
AcDbEntity
  8
A4
  6
CONTINUOUS
 62
7
100
AcDbLine
 10
110.1185436472123
 20
145.3764809450384
 30
0.000000000000000
 11
106.1185436472123
 21
151.3764809450384
 31
0.000000000000000
  0
LINE
  5
67
100
AcDbEntity
  8
A4
  6
CONTINUOUS
 62
7
100
AcDbLine
 10
140.1187436472122
 20
85.37648094503849
 30
0.000000000000000
 11
149.1187436472123
 21
85.37648094503849
 31
0.000000000000000
  0
LINE
  5
68
100
AcDbEntity
  8
A4
  6
CONTINUOUS
 62
7
100
AcDbLine
 10
149.1187436472123
 20
85.37648094503848
 30
0.000000000000000
 11
154.5697436472122
 21
99.00548094503847
 31
0.000000000000000
  0
LINE
  5
69
100
AcDbEntity
  8
A4
  6
CONTINUOUS
 62
7
100
AcDbLine
 10
140.1187436472122
 20
85.37648094503848
 30
0.000000000000000
 11
145.8667436472121
 21
99.74748094503849
 31
0.000000000000000
  0
LINE
  5
6A
100
AcDbEntity
  8
A4
  6
CONTINUOUS
 62
7
100
AcDbLine
 10
146.7957436472122
 20
100.3764809450385
 30
0.000000000000000
 11
153.6417436472122
 21
100.3764809450385
 31
0.000000000000000
  0
LINE
  5
6B
100
AcDbEntity
  8
A4
  6
CONTINUOUS
 62
7
100
AcDbLine
 10
48.11854364721231
 20
140.3764809450384
 30
0.000000000000000
 11
98.11854364721229
 21
140.3764809450384
 31
0.000000000000000
  0
LINE
  5
6C
100
AcDbEntity
  8
A4
  6
CONTINUOUS
 62
7
100
AcDbLine
 10
46.11854364721229
 20
54.37648094503849
 30
0.000000000000000
 11
46.11854364721229
 21
44.37648094503849
 31
0.000000000000000
  0
LINE
  5
6D
100
AcDbEntity
  8
A4
  6
CONTINUOUS
 62
7
100
AcDbLine
 10
100.1185436472123
 20
54.37648094503849
 30
0.000000000000000
 11
100.1185436472123
 21
44.37648094503849
 31
0.000000000000000
  0
LINE
  5
6E
100
AcDbEntity
  8
A4
  6
CONTINUOUS
 62
7
100
AcDbLine
 10
37.11854364721230
 20
46.37648094503849
 30
0.000000000000000
 11
45.11854364721231
 21
46.37648094503849
 31
0.000000000000000
  0
LINE
  5
6F
100
AcDbEntity
  8
A4
  6
CONTINUOUS
 62
7
100
AcDbLine
 10
101.1185436472123
 20
46.37648094503849
 30
0.000000000000000
 11
109.1185436472123
 21
46.37648094503849
 31
0.000000000000000
  0
LINE
  5
70
100
AcDbEntity
  8
A4
  6
CONTINUOUS
 62
7
100
AcDbLine
 10
48.11854364721231
 20
51.37648094503849
 30
0.000000000000000
 11
98.11854364721229
 21
51.37648094503849
 31
0.000000000000000
  0
LINE
  5
71
100
AcDbEntity
  8
A4
  6
CONTINUOUS
 62
7
100
AcDbLine
 10
48.11854364721231
 20
42.37648094503849
 30
0.000000000000000
 11
98.11854364721229
 21
42.37648094503849
 31
0.000000000000000
  0
LINE
  5
72
100
AcDbEntity
  8
A4
  6
CONTINUOUS
 62
7
100
AcDbLine
 10
40.67784364721230
 20
40.37648094503849
 30
0.000000000000000
 11
105.5593436472123
 21
40.37648094503849
 31
0.000000000000000
  0
LINE
  5
73
100
AcDbEntity
  8
A4
  6
CONTINUOUS
 62
7
100
AcDbLine
 10
39.81774364721231
 20
40.86628094503850
 30
0.000000000000000
 11
36.25854364721231
 21
46.86628094503849
 31
0.000000000000000
  0
LINE
  5
74
100
AcDbEntity
  8
A4
  6
CONTINUOUS
 62
7
100
AcDbLine
 10
106.4193436472123
 20
40.86628094503848
 30
0.000000000000000
 11
109.9786436472123
 21
46.86628094503850
 31
0.000000000000000
  0
LINE
  5
75
100
AcDbEntity
  8
A2
  6
CENTER
 62
1
100
AcDbLine
 10
105.6185436472123
 20
54.87648094503848
 30
0.000000000000000
 11
105.6185436472123
 21
45.87648094503849
 31
0.000000000000000
  0
LINE
  5
76
100
AcDbEntity
  8
A2
  6
CENTER
 62
1
100
AcDbLine
 10
101.1185436472123
 20
50.37648094503849
 30
0.000000000000000
 11
110.1185436472123
 21
50.37648094503849
 31
0.000000000000000
  0
LINE
  5
77
100
AcDbEntity
  8
A2
  6
CENTER
 62
1
100
AcDbLine
 10
40.61854364721231
 20
54.87648094503848
 30
0.000000000000000
 11
40.61854364721231
 21
45.87648094503849
 31
0.000000000000000
  0
LINE
  5
78
100
AcDbEntity
  8
A2
  6
CENTER
 62
1
100
AcDbLine
 10
36.11854364721231
 20
50.37648094503849
 30
0.000000000000000
 11
45.11854364721231
 21
50.37648094503849
 31
0.000000000000000
  0
LINE
  5
79
100
AcDbEntity
  8
A4
  6
CONTINUOUS
 62
7
100
AcDbLine
 10
71.45204364721229
 20
44.80328094503849
 30
0.000000000000000
 11
71.45204364721229
 21
46.07668094503848
 31
0.000000000000000
  0
LINE
  5
7A
100
AcDbEntity
  8
A4
  6
CONTINUOUS
 62
7
100
AcDbLine
 10
69.45184364721230
 20
45.64638094503847
 30
0.000000000000000
 11
69.45184364721230
 21
48.10528094503847
 31
0.000000000000000
  0
LINE
  5
7B
100
AcDbEntity
  8
A4
  6
CONTINUOUS
 62
7
100
AcDbLine
 10
70.11894364721232
 20
48.52078094503850
 30
0.000000000000000
 11
70.11894364721232
 21
45.23228094503851
 31
0.000000000000000
  0
LINE
  5
7C
100
AcDbEntity
  8
A4
  6
CONTINUOUS
 62
7
100
AcDbLine
 10
70.78484364721231
 20
48.60738094503847
 30
0.000000000000000
 11
70.78484364721231
 21
45.14428094503847
 31
0.000000000000000
  0
LINE
  5
7D
100
AcDbEntity
  8
A4
  6
CONTINUOUS
 62
7
100
AcDbLine
 10
68.78464364721231
 20
48.70478094503849
 30
0.000000000000000
 11
68.78464364721231
 21
45.83038094503850
 31
0.000000000000000
  0
LINE
  5
7E
100
AcDbEntity
  8
A4
  6
CONTINUOUS
 62
7
100
AcDbLine
 10
71.45204364721229
 20
47.67628094503850
 30
0.000000000000000
 11
71.45204364721229
 21
48.94838094503849
 31
0.000000000000000
  0
LINE
  5
7F
100
AcDbEntity
  8
A4
  6
CONTINUOUS
 62
7
100
AcDbLine
 10
74.78514364721229
 20
44.99408094503849
 30
0.000000000000000
 11
74.78514364721229
 21
46.87648094503849
 31
0.000000000000000
  0
LINE
  5
80
100
AcDbEntity
  8
A4
  6
CONTINUOUS
 62
7
100
AcDbLine
 10
76.45114364721232
 20
46.87648094503849
 30
0.000000000000000
 11
76.45114364721232
 21
45.27688094503851
 31
0.000000000000000
  0
LINE
  5
81
100
AcDbEntity
  8
A4
  6
CONTINUOUS
 62
7
100
AcDbLine
 10
72.78494364721232
 20
46.87648094503849
 30
0.000000000000000
 11
72.11784364721230
 21
46.87648094503849
 31
0.000000000000000
  0
LINE
  5
82
100
AcDbEntity
  8
A4
  6
CONTINUOUS
 62
7
100
AcDbLine
 10
74.78514364721229
 20
46.87648094503849
 30
0.000000000000000
 11
74.45084364721231
 21
46.87648094503849
 31
0.000000000000000
  0
LINE
  5
83
100
AcDbEntity
  8
A4
  6
CONTINUOUS
 62
7
100
AcDbLine
 10
78.83564364721229
 20
46.87648094503849
 30
0.000000000000000
 11
77.45794364721232
 21
46.87648094503849
 31
0.000000000000000
  0
LINE
  5
84
100
AcDbEntity
  8
A4
  6
CONTINUOUS
 62
7
100
AcDbLine
 10
77.12364364721230
 20
45.62878094503846
 30
0.000000000000000
 11
77.87744364721230
 21
48.43818094503849
 31
0.000000000000000
  0
LINE
  5
85
100
AcDbEntity
  8
A4
  6
CONTINUOUS
 62
7
100
AcDbLine
 10
72.11784364721230
 20
49.14598094503847
 30
0.000000000000000
 11
72.11784364721230
 21
44.60568094503849
 31
0.000000000000000
  0
LINE
  5
86
100
AcDbEntity
  8
A4
  6
CONTINUOUS
 62
7
100
AcDbLine
 10
72.78494364721232
 20
49.20148094503850
 30
0.000000000000000
 11
72.78494364721232
 21
44.55018094503849
 31
0.000000000000000
  0
LINE
  5
87
100
AcDbEntity
  8
A4
  6
CONTINUOUS
 62
7
100
AcDbLine
 10
73.45214364721231
 20
49.20148094503850
 30
0.000000000000000
 11
73.45214364721231
 21
44.55018094503849
 31
0.000000000000000
  0
LINE
  5
88
100
AcDbEntity
  8
A4
  6
CONTINUOUS
 62
7
100
AcDbLine
 10
74.11794364721230
 20
49.07018094503847
 30
0.000000000000000
 11
74.11794364721230
 21
44.68148094503847
 31
0.000000000000000
  0
LINE
  5
89
100
AcDbEntity
  8
A4
  6
CONTINUOUS
 62
7
100
AcDbLine
 10
75.45104364721232
 20
49.06748094503850
 30
0.000000000000000
 11
75.45104364721232
 21
44.89398094503849
 31
0.000000000000000
  0
LINE
  5
8A
100
AcDbEntity
  8
A4
  6
CONTINUOUS
 62
7
100
AcDbLine
 10
74.78514364721229
 20
47.67628094503850
 30
0.000000000000000
 11
74.78514364721229
 21
48.75758094503850
 31
0.000000000000000
  0
LINE
  5
8B
100
AcDbEntity
  8
A4
  6
CONTINUOUS
 62
7
100
AcDbLine
 10
76.11814364721231
 20
48.75358094503849
 30
0.000000000000000
 11
76.11814364721231
 21
47.20938094503848
 31
0.000000000000000
  0
LINE
  5
8C
100
AcDbEntity
  8
A4
  6
CONTINUOUS
 62
7
100
AcDbLine
 10
76.78394364721231
 20
47.20938094503848
 30
0.000000000000000
 11
76.78394364721231
 21
48.63308094503846
 31
0.000000000000000
  0
LINE
  5
8D
100
AcDbEntity
  8
A2
  6
CENTER
 62
1
100
AcDbLine
 10
65.40104364721230
 20
46.87648094503849
 30
0.000000000000000
 11
80.83624364721230
 21
46.87648094503849
 31
0.000000000000000
  0
ARC
  5
8E
100
AcDbEntity
  8
A4
  6
CONTINUOUS
 62
7
100
AcDbCircle
 10
37.11854364721230
 20
54.37648094503849
 30
0.000000000000000
 40
1.000000000000000
100
AcDbArc
 50
90.00000000000000
 51
180.0000000000000
  0
ARC
  5
8F
100
AcDbEntity
  8
A4
  6
CONTINUOUS
 62
7
100
AcDbCircle
 10
109.1185436472123
 20
54.37648094503849
 30
0.000000000000000
 40
1.000000000000000
100
AcDbArc
 50
0.000000000000000
 51
90.00000000000000
  0
ARC
  5
90
100
AcDbEntity
  8
A4
  6
CONTINUOUS
 62
7
100
AcDbCircle
 10
40.87704364721230
 20
99.37648094503849
 30
0.000000000000000
 40
1.000000000000000
100
AcDbArc
 50
90.00000000000000
 51
164.3580000000000
  0
ARC
  5
91
100
AcDbEntity
  8
A4
  6
CONTINUOUS
 62
7
100
AcDbCircle
 10
105.3601436472123
 20
99.37648094503849
 30
0.000000000000000
 40
1.000000000000000
100
AcDbArc
 50
15.64220000000000
 51
90.00000000000000
  0
ARC
  5
92
100
AcDbEntity
  8
A4
  6
CONTINUOUS
 62
7
100
AcDbCircle
 10
48.11854364721231
 20
93.37648094503849
 30
0.000000000000000
 40
2.000000000000000
100
AcDbArc
 50
90.00000000000000
 51
180.0000000000000
  0
ARC
  5
93
100
AcDbEntity
  8
A4
  6
CONTINUOUS
 62
7
100
AcDbCircle
 10
98.11854364721229
 20
93.37648094503849
 30
0.000000000000000
 40
2.000000000000000
100
AcDbArc
 50
0.000000000000000
 51
90.00000000000000
  0
ARC
  5
94
100
AcDbEntity
  8
A4
  6
CONTINUOUS
 62
7
100
AcDbCircle
 10
146.7957436472122
 20
99.37648094503849
 30
0.000000000000000
 40
1.000000000000000
100
AcDbArc
 50
90.00000000000000
 51
158.1989999999999
  0
ARC
  5
95
100
AcDbEntity
  8
A4
  6
CONTINUOUS
 62
7
100
AcDbCircle
 10
153.6417436472122
 20
99.37648094503849
 30
0.000000000000000
 40
1.000000000000000
100
AcDbArc
 50
338.1990000000000
 51
450.0000000000000
  0
ARC
  5
96
100
AcDbEntity
  8
A4
  6
CONTINUOUS
 62
7
100
AcDbCircle
 10
48.11854364721231
 20
138.3764809450384
 30
0.000000000000000
 40
2.000000000000000
100
AcDbArc
 50
90.00000000000000
 51
180.0000000000000
  0
ARC
  5
97
100
AcDbEntity
  8
A4
  6
CONTINUOUS
 62
7
100
AcDbCircle
 10
98.11854364721229
 20
138.3764809450384
 30
0.000000000000000
 40
2.000000000000000
100
AcDbArc
 50
0.000000000000000
 51
90.00000000000000
  0
ARC
  5
98
100
AcDbEntity
  8
A4
  6
CONTINUOUS
 62
7
100
AcDbCircle
 10
107.1185436472123
 20
142.6794809450385
 30
0.000000000000000
 40
1.000000000000000
100
AcDbArc
 50
180.0000000000000
 51
213.6900000000000
  0
ARC
  5
99
100
AcDbEntity
  8
A4
  6
CONTINUOUS
 62
7
100
AcDbCircle
 10
105.5833436472123
 20
141.3764809450383
 30
0.000000000000000
 40
1.000000000000000
100
AcDbArc
 50
33.69010000000002
 51
90.00000000000000
  0
ARC
  5
9A
100
AcDbEntity
  8
A4
  6
CONTINUOUS
 62
7
100
AcDbCircle
 10
40.65374364721230
 20
141.3764809450383
 30
0.000000000000000
 40
1.000000000000000
100
AcDbArc
 50
90.00000000000000
 51
146.3100000000000
  0
ARC
  5
9B
100
AcDbEntity
  8
A4
  6
CONTINUOUS
 62
7
100
AcDbCircle
 10
39.11854364721231
 20
142.6794809450385
 30
0.000000000000000
 40
1.000000000000000
100
AcDbArc
 50
326.3100000000000
 51
360.0000000000000
  0
ARC
  5
9C
100
AcDbEntity
  8
A4
  6
CONTINUOUS
 62
7
100
AcDbCircle
 10
45.11854364721231
 20
47.37648094503849
 30
0.000000000000000
 40
1.000000000000000
100
AcDbArc
 50
270.0000000000000
 51
360.0000000000000
  0
ARC
  5
9D
100
AcDbEntity
  8
A4
  6
CONTINUOUS
 62
7
100
AcDbCircle
 10
101.1185436472123
 20
47.37648094503849
 30
0.000000000000000
 40
1.000000000000000
100
AcDbArc
 50
180.0000000000000
 51
270.0000000000000
  0
ARC
  5
9E
100
AcDbEntity
  8
A4
  6
CONTINUOUS
 62
7
100
AcDbCircle
 10
109.1185436472123
 20
47.37648094503849
 30
0.000000000000000
 40
1.000000000000000
100
AcDbArc
 50
270.0000000000000
 51
360.0000000000000
  0
ARC
  5
9F
100
AcDbEntity
  8
A4
  6
CONTINUOUS
 62
7
100
AcDbCircle
 10
101.1185436472123
 20
54.37648094503849
 30
0.000000000000000
 40
1.000000000000000
100
AcDbArc
 50
90.00000000000000
 51
180.0000000000000
  0
ARC
  5
A0
100
AcDbEntity
  8
A4
  6
CONTINUOUS
 62
7
100
AcDbCircle
 10
45.11854364721231
 20
54.37648094503849
 30
0.000000000000000
 40
1.000000000000000
100
AcDbArc
 50
0.000000000000000
 51
90.00000000000000
  0
ARC
  5
A1
100
AcDbEntity
  8
A4
  6
CONTINUOUS
 62
7
100
AcDbCircle
 10
37.11854364721230
 20
47.37648094503849
 30
0.000000000000000
 40
1.000000000000000
100
AcDbArc
 50
180.0000000000000
 51
270.0000000000000
  0
ARC
  5
A2
100
AcDbEntity
  8
A4
  6
CONTINUOUS
 62
7
100
AcDbCircle
 10
48.11854364721231
 20
44.37648094503849
 30
0.000000000000000
 40
2.000000000000000
100
AcDbArc
 50
180.0000000000000
 51
270.0000000000000
  0
ARC
  5
A3
100
AcDbEntity
  8
A4
  6
CONTINUOUS
 62
7
100
AcDbCircle
 10
98.11854364721229
 20
44.37648094503849
 30
0.000000000000000
 40
2.000000000000000
100
AcDbArc
 50
270.0000000000000
 51
360.0000000000000
  0
ARC
  5
A4
100
AcDbEntity
  8
A4
  6
CONTINUOUS
 62
7
100
AcDbCircle
 10
48.11854364721231
 20
53.37648094503851
 30
0.000000000000000
 40
2.000000000000000
100
AcDbArc
 50
180.0000000000000
 51
270.0000000000000
  0
ARC
  5
A5
100
AcDbEntity
  8
A4
  6
CONTINUOUS
 62
7
100
AcDbCircle
 10
98.11854364721229
 20
53.37648094503851
 30
0.000000000000000
 40
2.000000000000000
100
AcDbArc
 50
270.0000000000000
 51
360.0000000000000
  0
ARC
  5
A6
100
AcDbEntity
  8
A4
  6
CONTINUOUS
 62
7
100
AcDbCircle
 10
40.67784364721230
 20
41.37648094503849
 30
0.000000000000000
 40
1.000000000000000
100
AcDbArc
 50
210.6770000000000
 51
270.0000000000000
  0
ARC
  5
A7
100
AcDbEntity
  8
A4
  6
CONTINUOUS
 62
7
100
AcDbCircle
 10
105.5593436472123
 20
41.37648094503849
 30
0.000000000000000
 40
1.000000000000000
100
AcDbArc
 50
270.0000000000000
 51
329.3229999999998
  0
CIRCLE
  5
A8
100
AcDbEntity
  8
A4
  6
CONTINUOUS
 62
7
100
AcDbCircle
 10
40.61854364721231
 20
50.37648094503849
 30
0.000000000000000
 40
2.500000000000000
  0
CIRCLE
  5
A9
100
AcDbEntity
  8
A5
  6
CONTINUOUS
 62
4
100
AcDbCircle
 10
40.61854364721231
 20
50.37648094503849
 30
0.000000000000000
 40
2.000000000000000
  0
CIRCLE
  5
AA
100
AcDbEntity
  8
A4
  6
CONTINUOUS
 62
7
100
AcDbCircle
 10
40.61854364721231
 20
50.37648094503849
 30
0.000000000000000
 40
1.620999999999999
  0
CIRCLE
  5
AB
100
AcDbEntity
  8
A4
  6
CONTINUOUS
 62
7
100
AcDbCircle
 10
105.6185436472123
 20
50.37648094503849
 30
0.000000000000000
 40
2.500000000000000
  0
CIRCLE
  5
AC
100
AcDbEntity
  8
A5
  6
CONTINUOUS
 62
4
100
AcDbCircle
 10
105.6185436472123
 20
50.37648094503849
 30
0.000000000000000
 40
2.000000000000000
  0
CIRCLE
  5
AD
100
AcDbEntity
  8
A4
  6
CONTINUOUS
 62
7
100
AcDbCircle
 10
105.6185436472123
 20
50.37648094503849
 30
0.000000000000000
 40
1.620999999999999
  0
ARC
  5
AE
100
AcDbEntity
  8
A4
  6
CONTINUOUS
 62
7
100
AcDbCircle
 10
73.11794364721231
 20
41.27658094503849
 30
0.000000000000000
 40
7.932639999999997
100
AcDbArc
 50
102.7290000000000
 51
103.2680000000000
  0
ARC
  5
AF
100
AcDbEntity
  8
A4
  6
CONTINUOUS
 62
7
100
AcDbCircle
 10
73.11794364721231
 20
41.27658094503849
 30
0.000000000000000
 40
7.932639999999997
100
AcDbArc
 50
103.2680000000000
 51
105.2580000000000
  0
ARC
  5
B0
100
AcDbEntity
  8
A4
  6
CONTINUOUS
 62
7
100
AcDbCircle
 10
71.11914364721231
 20
48.60738094503847
 30
0.000000000000000
 40
0.3334530000000000
100
AcDbArc
 50
105.2580000000000
 51
180.0000000000000
  0
ARC
  5
B1
100
AcDbEntity
  8
A4
  6
CONTINUOUS
 62
7
100
AcDbCircle
 10
71.11914364721231
 20
45.14428094503847
 30
0.000000000000000
 40
0.3334530000000000
100
AcDbArc
 50
180.0000000000000
 51
254.7419999999999
  0
ARC
  5
B2
100
AcDbEntity
  8
A4
  6
CONTINUOUS
 62
7
100
AcDbCircle
 10
73.11794364721231
 20
52.47508094503851
 30
0.000000000000000
 40
7.932639999999997
100
AcDbArc
 50
254.7419999999999
 51
254.7940000000000
  0
ARC
  5
B3
100
AcDbEntity
  8
A4
  6
CONTINUOUS
 62
7
100
AcDbCircle
 10
73.11794364721231
 20
52.47508094503851
 30
0.000000000000000
 40
7.932639999999997
100
AcDbArc
 50
254.7940000000000
 51
257.2709999999998
  0
ARC
  5
B4
100
AcDbEntity
  8
A4
  6
CONTINUOUS
 62
7
100
AcDbCircle
 10
69.11894364721232
 20
46.87648094503849
 30
0.000000000000000
 40
1.717879999999999
100
AcDbArc
 50
125.5310000000000
 51
234.4619999999999
  0
ARC
  5
B5
100
AcDbEntity
  8
A4
  6
CONTINUOUS
 62
7
100
AcDbCircle
 10
69.78474364721231
 20
45.64638094503847
 30
0.000000000000000
 40
0.3334530000000000
100
AcDbArc
 50
180.0000000000000
 51
243.9859999999999
  0
ARC
  5
B6
100
AcDbEntity
  8
A4
  6
CONTINUOUS
 62
7
100
AcDbCircle
 10
70.05134364721232
 20
45.23228094503851
 30
0.000000000000000
 40
0.06671800000000000
100
AcDbArc
 50
247.0559999999999
 51
360.0000000000000
  0
ARC
  5
B7
100
AcDbEntity
  8
A4
  6
CONTINUOUS
 62
7
100
AcDbCircle
 10
73.11794364721231
 20
52.47508094503851
 30
0.000000000000000
 40
7.932639999999997
100
AcDbArc
 50
243.9859999999999
 51
247.0559999999999
  0
ARC
  5
B8
100
AcDbEntity
  8
A4
  6
CONTINUOUS
 62
7
100
AcDbCircle
 10
73.11794364721231
 20
52.47508094503851
 30
0.000000000000000
 40
7.932639999999997
100
AcDbArc
 50
243.9859999999999
 51
244.7720000000000
  0
ARC
  5
B9
100
AcDbEntity
  8
A4
  6
CONTINUOUS
 62
7
100
AcDbCircle
 10
69.78474364721231
 20
48.10528094503847
 30
0.000000000000000
 40
0.3334530000000000
100
AcDbArc
 50
116.0139999999999
 51
180.0000000000000
  0
ARC
  5
BA
100
AcDbEntity
  8
A4
  6
CONTINUOUS
 62
7
100
AcDbCircle
 10
70.05134364721232
 20
48.52078094503850
 30
0.000000000000000
 40
0.06671800000000000
100
AcDbArc
 50
0.000000000000000
 51
112.9439999999999
  0
ARC
  5
BB
100
AcDbEntity
  8
A4
  6
CONTINUOUS
 62
7
100
AcDbCircle
 10
73.11794364721231
 20
41.27658094503849
 30
0.000000000000000
 40
7.932639999999997
100
AcDbArc
 50
112.9439999999999
 51
116.0139999999999
  0
ARC
  5
BC
100
AcDbEntity
  8
A4
  6
CONTINUOUS
 62
7
100
AcDbCircle
 10
74.45084364721231
 20
48.75758094503850
 30
0.000000000000000
 40
0.3334530000000000
100
AcDbArc
 50
0.000000000000000
 51
79.89600000000000
  0
ARC
  5
BD
100
AcDbEntity
  8
A4
  6
CONTINUOUS
 62
7
100
AcDbCircle
 10
73.11794364721231
 20
41.27658094503849
 30
0.000000000000000
 40
7.932639999999997
100
AcDbArc
 50
79.89600000000000
 51
82.20700000000001
  0
ARC
  5
BE
100
AcDbEntity
  8
A4
  6
CONTINUOUS
 62
7
100
AcDbCircle
 10
74.18434364721230
 20
49.07018094503847
 30
0.000000000000000
 40
0.06671800000000000
100
AcDbArc
 50
82.20700000000001
 51
180.0000000000000
  0
ARC
  5
BF
100
AcDbEntity
  8
A4
  6
CONTINUOUS
 62
7
100
AcDbCircle
 10
74.45084364721231
 20
44.99408094503849
 30
0.000000000000000
 40
0.3334530000000000
100
AcDbArc
 50
280.1040000000000
 51
360.0000000000000
  0
ARC
  5
C0
100
AcDbEntity
  8
A4
  6
CONTINUOUS
 62
7
100
AcDbCircle
 10
74.18434364721230
 20
44.68148094503847
 30
0.000000000000000
 40
0.06671800000000000
100
AcDbArc
 50
180.0000000000000
 51
277.7930000000001
  0
ARC
  5
C1
100
AcDbEntity
  8
A4
  6
CONTINUOUS
 62
7
100
AcDbCircle
 10
73.11794364721231
 20
52.47508094503851
 30
0.000000000000000
 40
7.932639999999997
100
AcDbArc
 50
277.7930000000001
 51
280.1040000000000
  0
ARC
  5
C2
100
AcDbEntity
  8
A4
  6
CONTINUOUS
 62
7
100
AcDbCircle
 10
76.45114364721232
 20
47.20938094503848
 30
0.000000000000000
 40
0.3334530000000000
100
AcDbArc
 50
180.0000000000000
 51
360.0000000000000
  0
ARC
  5
C3
100
AcDbEntity
  8
A4
  6
CONTINUOUS
 62
7
100
AcDbCircle
 10
77.11824364721231
 20
46.87648094503849
 30
0.000000000000000
 40
1.718009999999997
100
AcDbArc
 50
305.5470000000001
 51
414.4620000000000
  0
ARC
  5
C4
100
AcDbEntity
  8
A4
  6
CONTINUOUS
 62
7
100
AcDbCircle
 10
73.11794364721231
 20
52.47508094503851
 30
0.000000000000000
 40
8.599269999999999
100
AcDbArc
 50
234.4619999999999
 51
305.5379999999999
  0
ARC
  5
C5
100
AcDbEntity
  8
A4
  6
CONTINUOUS
 62
7
100
AcDbCircle
 10
71.38434364721232
 20
44.80328094503849
 30
0.000000000000000
 40
0.06671800000000000
100
AcDbArc
 50
257.2709999999998
 51
360.0000000000000
  0
ARC
  5
C6
100
AcDbEntity
  8
A4
  6
CONTINUOUS
 62
7
100
AcDbCircle
 10
71.38434364721232
 20
48.94838094503849
 30
0.000000000000000
 40
0.06671800000000000
100
AcDbArc
 50
0.000000000000000
 51
102.7290000000000
  0
ARC
  5
C7
100
AcDbEntity
  8
A4
  6
CONTINUOUS
 62
7
100
AcDbCircle
 10
73.11794364721231
 20
41.27658094503849
 30
0.000000000000000
 40
8.599269999999999
100
AcDbArc
 50
54.46200000000001
 51
125.5380000000000
  0
LINE
  5
C8
100
AcDbEntity
  8
A2
  6
CENTER
 62
1
100
AcDbLine
 10
144.6187436472123
 20
87.37648094503849
 30
0.000000000000000
 11
144.6187436472123
 21
83.37648094503840
 31
0.000000000000000
  0
LINE
  5
C9
100
AcDbEntity
  8
A2
  6
CENTER
 62
1
100
AcDbLine
 10
101.1185436472123
 20
141.3764809450383
 30
0.000000000000000
 11
110.1185436472123
 21
141.3764809450383
 31
0.000000000000000
  0
LINE
  5
CA
100
AcDbEntity
  8
A2
  6
CENTER
 62
1
100
AcDbLine
 10
105.6185436472123
 20
145.8764809450384
 30
0.000000000000000
 11
105.6185436472123
 21
136.8764809450384
 31
0.000000000000000
  0
LINE
  5
CB
100
AcDbEntity
  8
A2
  6
CENTER
 62
1
100
AcDbLine
 10
38.61854364721231
 20
141.3764809450383
 30
0.000000000000000
 11
47.61854364721231
 21
141.3764809450383
 31
0.000000000000000
  0
LINE
  5
CC
100
AcDbEntity
  8
A2
  6
CENTER
 62
1
100
AcDbLine
 10
43.11854364721229
 20
145.8764809450384
 30
0.000000000000000
 11
43.11854364721229
 21
136.8764809450384
 31
0.000000000000000
  0
ENDSEC
  0
SECTION
  2
OBJECTS
  0
DICTIONARY
  5
F9
100
AcDbDictionary
  3
ACAD_GROUP
350
FA
  3
ACAD_LAYOUT
350
FB
  3
ACAD_MLINESTYLE
350
FC
  0
DICTIONARY
  5
FA
102
{ACAD_REACTORS
330
F9
102
}
330
F9
100
AcDbDictionary
  0
DICTIONARY
  5
FB
102
{ACAD_REACTORS
330
F9
102
}
330
F9
100
AcDbDictionary
  3
Model
350
FD
  3
ﾚｲｱｳﾄ1
350
FE
  3
ﾚｲｱｳﾄ2
350
FF
  0
DICTIONARY
  5
FC
102
{ACAD_REACTORS
330
F9
102
}
330
F9
100
AcDbDictionary
  3
STANDARD
350
100
  0
LAYOUT
  5
FD
102
{ACAD_REACTORS
330
FB
102
}
330
FB
100
AcDbPlotSettings
 70
11952
  4
A3
 44
297.000000
 45
420.000000
 73
  1
 72
  1
100
AcDbLayout
  1
Model
 71
0
330
F0
  0
LAYOUT
  5
FE
102
{ACAD_REACTORS
330
FB
102
}
330
FB
100
AcDbPlotSettings
100
AcDbLayout
  1
ﾚｲｱｳﾄ1
 71
1
330
F1
  0
LAYOUT
  5
FF
102
{ACAD_REACTORS
330
FB
102
}
330
FB
100
AcDbPlotSettings
100
AcDbLayout
  1
ﾚｲｱｳﾄ2
 71
2
330
F2
  0
MLINESTYLE
  5
100
102
{ACAD_REACTORS
330
FC
102
}
330
FC
100
AcDbMlineStyle
  2
STANDARD
 70
     0
  3

 62
   256
 51
90.00
 52
90.00
 71
     2
 49
0.50
 62
   256
  6
BYLAYER
 49
-0.50
 62
   256
  6
BYLAYER
  0
ENDSEC
  0
EOF
