  0
SECTION
  2
HEADER
  9
$ACADVER
  1
AC1015
  9
$ACADMAINTVER
 70
    20
  9
$DWGCODEPAGE
  3
ANSI_932
  9
$INSBASE
 10
0.0
 20
0.0
 30
0.0
  9
$EXTMIN
 10
10.000001537608
 20
9.999999806846743
 30
0.0
  9
$EXTMAX
 10
317.004328986455
 20
248.025716570368
 30
0.0
  9
$LIMMIN
 10
0.0000015376081137
 20
-0.0000001931532552
  9
$LIMMAX
 10
396.0000015376081
 20
272.9999998068465
  9
$ORTHOMODE
 70
     1
  9
$REGENMODE
 70
     1
  9
$FILLMODE
 70
     1
  9
$QTEXTMODE
 70
     0
  9
$MIRRTEXT
 70
     1
  9
$LTSCALE
 40
1.0
  9
$ATTMODE
 70
     1
  9
$TEXTSIZE
 40
2.5
  9
$TRACEWID
 40
1.0
  9
$TEXTSTYLE
  7
STANDARD
  9
$CLAYER
  8
0
  9
$CELTYPE
  6
BYLAYER
  9
$CECOLOR
 62
   256
  9
$CELTSCALE
 40
1.0
  9
$DISPSILH
 70
     0
  9
$DIMSCALE
 40
1.0
  9
$DIMASZ
 40
3.0
  9
$DIMEXO
 40
1.0
  9
$DIMDLI
 40
10.0
  9
$DIMRND
 40
0.0
  9
$DIMDLE
 40
0.0
  9
$DIMEXE
 40
1.0
  9
$DIMTP
 40
0.0
  9
$DIMTM
 40
0.0
  9
$DIMTXT
 40
3.2
  9
$DIMCEN
 40
0.0
  9
$DIMTSZ
 40
0.0
  9
$DIMTOL
 70
     0
  9
$DIMLIM
 70
     0
  9
$DIMTIH
 70
     0
  9
$DIMTOH
 70
     0
  9
$DIMSE1
 70
     0
  9
$DIMSE2
 70
     0
  9
$DIMTAD
 70
     3
  9
$DIMZIN
 70
     8
  9
$DIMBLK
  1

  9
$DIMASO
 70
     1
  9
$DIMSHO
 70
     1
  9
$DIMPOST
  1

  9
$DIMAPOST
  1

  9
$DIMALT
 70
     0
  9
$DIMALTD
 70
     2
  9
$DIMALTF
 40
25.4
  9
$DIMLFAC
 40
1.0
  9
$DIMTOFL
 70
     1
  9
$DIMTVP
 40
0.0
  9
$DIMTIX
 70
     0
  9
$DIMSOXD
 70
     0
  9
$DIMSAH
 70
     1
  9
$DIMBLK1
  1
OPEN
  9
$DIMBLK2
  1
OPEN
  9
$DIMSTYLE
  2
STANDARD
  9
$DIMCLRD
 70
     0
  9
$DIMCLRE
 70
     0
  9
$DIMCLRT
 70
     0
  9
$DIMTFAC
 40
1.0
  9
$DIMGAP
 40
1.0
  9
$DIMJUST
 70
     0
  9
$DIMSD1
 70
     0
  9
$DIMSD2
 70
     0
  9
$DIMTOLJ
 70
     1
  9
$DIMTZIN
 70
     0
  9
$DIMALTZ
 70
     0
  9
$DIMALTTZ
 70
     0
  9
$DIMUPT
 70
     0
  9
$DIMDEC
 70
     4
  9
$DIMTDEC
 70
     4
  9
$DIMALTU
 70
     2
  9
$DIMALTTD
 70
     2
  9
$DIMTXSTY
  7
STANDARD
  9
$DIMAUNIT
 70
     0
  9
$DIMADEC
 70
     0
  9
$DIMALTRND
 40
0.0
  9
$DIMAZIN
 70
     0
  9
$DIMDSEP
 70
    46
  9
$DIMATFIT
 70
     3
  9
$DIMFRAC
 70
     0
  9
$DIMLDRBLK
  1
OPEN
  9
$DIMLUNIT
 70
     2
  9
$DIMLWD
 70
    -2
  9
$DIMLWE
 70
    -2
  9
$DIMTMOVE
 70
     0
  9
$LUNITS
 70
     2
  9
$LUPREC
 70
     4
  9
$SKETCHINC
 40
1.0
  9
$FILLETRAD
 40
10.0
  9
$AUNITS
 70
     0
  9
$AUPREC
 70
     0
  9
$MENU
  1
.
  9
$ELEVATION
 40
0.0
  9
$PELEVATION
 40
0.0
  9
$THICKNESS
 40
0.0
  9
$LIMCHECK
 70
     0
  9
$CHAMFERA
 40
10.0
  9
$CHAMFERB
 40
10.0
  9
$CHAMFERC
 40
20.0
  9
$CHAMFERD
 40
0.0
  9
$SKPOLY
 70
     0
  9
$TDCREATE
 40
2455569.400408252
  9
$TDUCREATE
 40
2455569.025408252
  9
$TDUPDATE
 40
2457192.638409329
  9
$TDUUPDATE
 40
2457192.263409329
  9
$TDINDWG
 40
0.0881943634
  9
$TDUSRTIMER
 40
0.0881943519
  9
$USRTIMER
 70
     1
  9
$ANGBASE
 50
0.0
  9
$ANGDIR
 70
     0
  9
$PDMODE
 70
     0
  9
$PDSIZE
 40
0.0
  9
$PLINEWID
 40
0.0
  9
$SPLFRAME
 70
     0
  9
$SPLINETYPE
 70
     6
  9
$SPLINESEGS
 70
     8
  9
$HANDSEED
  5
1850
  9
$SURFTAB1
 70
     6
  9
$SURFTAB2
 70
     6
  9
$SURFTYPE
 70
     6
  9
$SURFU
 70
     6
  9
$SURFV
 70
     6
  9
$UCSBASE
  2

  9
$UCSNAME
  2

  9
$UCSORG
 10
0.0
 20
0.0
 30
0.0
  9
$UCSXDIR
 10
1.0
 20
0.0
 30
0.0
  9
$UCSYDIR
 10
0.0
 20
1.0
 30
0.0
  9
$UCSORTHOREF
  2

  9
$UCSORTHOVIEW
 70
     0
  9
$UCSORGTOP
 10
0.0
 20
0.0
 30
0.0
  9
$UCSORGBOTTOM
 10
0.0
 20
0.0
 30
0.0
  9
$UCSORGLEFT
 10
0.0
 20
0.0
 30
0.0
  9
$UCSORGRIGHT
 10
0.0
 20
0.0
 30
0.0
  9
$UCSORGFRONT
 10
0.0
 20
0.0
 30
0.0
  9
$UCSORGBACK
 10
0.0
 20
0.0
 30
0.0
  9
$PUCSBASE
  2

  9
$PUCSNAME
  2

  9
$PUCSORG
 10
0.0
 20
0.0
 30
0.0
  9
$PUCSXDIR
 10
1.0
 20
0.0
 30
0.0
  9
$PUCSYDIR
 10
0.0
 20
1.0
 30
0.0
  9
$PUCSORTHOREF
  2

  9
$PUCSORTHOVIEW
 70
     0
  9
$PUCSORGTOP
 10
0.0
 20
0.0
 30
0.0
  9
$PUCSORGBOTTOM
 10
0.0
 20
0.0
 30
0.0
  9
$PUCSORGLEFT
 10
0.0
 20
0.0
 30
0.0
  9
$PUCSORGRIGHT
 10
0.0
 20
0.0
 30
0.0
  9
$PUCSORGFRONT
 10
0.0
 20
0.0
 30
0.0
  9
$PUCSORGBACK
 10
0.0
 20
0.0
 30
0.0
  9
$USERI1
 70
     0
  9
$USERI2
 70
     0
  9
$USERI3
 70
     0
  9
$USERI4
 70
     0
  9
$USERI5
 70
     0
  9
$USERR1
 40
0.0
  9
$USERR2
 40
0.0
  9
$USERR3
 40
0.0
  9
$USERR4
 40
0.0
  9
$USERR5
 40
0.0
  9
$WORLDVIEW
 70
     1
  9
$SHADEDGE
 70
     3
  9
$SHADEDIF
 70
    70
  9
$TILEMODE
 70
     1
  9
$MAXACTVP
 70
    48
  9
$PINSBASE
 10
0.0
 20
0.0
 30
0.0
  9
$PLIMCHECK
 70
     0
  9
$PEXTMIN
 10
1.000000000000000E+20
 20
1.000000000000000E+20
 30
1.000000000000000E+20
  9
$PEXTMAX
 10
-1.000000000000000E+20
 20
-1.000000000000000E+20
 30
-1.000000000000000E+20
  9
$PLIMMIN
 10
0.0
 20
0.0
  9
$PLIMMAX
 10
420.0
 20
297.0
  9
$UNITMODE
 70
     0
  9
$VISRETAIN
 70
     1
  9
$PLINEGEN
 70
     0
  9
$PSLTSCALE
 70
     1
  9
$TREEDEPTH
 70
  3020
  9
$CMLSTYLE
  2
STANDARD
  9
$CMLJUST
 70
     0
  9
$CMLSCALE
 40
20.0
  9
$PROXYGRAPHICS
 70
     1
  9
$MEASUREMENT
 70
     0
  9
$CELWEIGHT
370
    -1
  9
$ENDCAPS
280
     0
  9
$JOINSTYLE
280
     0
  9
$LWDISPLAY
290
     0
  9
$INSUNITS
 70
     0
  9
$HYPERLINKBASE
  1

  9
$STYLESHEET
  1

  9
$XEDIT
290
     1
  9
$CEPSNTYPE
380
     0
  9
$PSTYLEMODE
290
     1
  9
$FINGERPRINTGUID
  2
{2DDE8FF5-B54C-4AAD-BD81-5654956B31BE}
  9
$VERSIONGUID
  2
{367B4361-19B3-45F8-A2A4-8A338A235638}
  9
$EXTNAMES
290
     1
  9
$PSVPSCALE
 40
0.0
  9
$OLESTARTUP
290
     0
  0
ENDSEC
  0
SECTION
  2
CLASSES
  0
CLASS
  1
ACDBDICTIONARYWDFLT
  2
AcDbDictionaryWithDefault
  3
ObjectDBX Classes
 90
        0
280
     0
281
     0
  0
CLASS
  1
ACDBPLACEHOLDER
  2
AcDbPlaceHolder
  3
ObjectDBX Classes
 90
        0
280
     0
281
     0
  0
CLASS
  1
LAYOUT
  2
AcDbLayout
  3
ObjectDBX Classes
 90
        0
280
     0
281
     0
  0
CLASS
  1
MATERIAL
  2
AcDbMaterial
  3
ObjectDBX Classes
 90
     1153
280
     0
281
     0
  0
CLASS
  1
VISUALSTYLE
  2
AcDbVisualStyle
  3
ObjectDBX Classes
 90
     4095
280
     0
281
     0
  0
CLASS
  1
TABLESTYLE
  2
AcDbTableStyle
  3
ObjectDBX Classes
 90
     4095
280
     0
281
     0
  0
CLASS
  1
SCALE
  2
AcDbScale
  3
ObjectDBX Classes
 90
     1153
280
     0
281
     0
  0
CLASS
  1
MLEADERSTYLE
  2
AcDbMLeaderStyle
  3
ACDB_MLEADERSTYLE_CLASS
 90
     4095
280
     0
281
     0
  0
CLASS
  1
ACDBSECTIONVIEWSTYLE
  2
AcDbSectionViewStyle
  3
ObjectDBX Classes
 90
     1025
280
     0
281
     0
  0
CLASS
  1
ACDBDETAILVIEWSTYLE
  2
AcDbDetailViewStyle
  3
ObjectDBX Classes
 90
     1025
280
     0
281
     0
  0
CLASS
  1
DICTIONARYVAR
  2
AcDbDictionaryVar
  3
ObjectDBX Classes
 90
        0
280
     0
281
     0
  0
CLASS
  1
CELLSTYLEMAP
  2
AcDbCellStyleMap
  3
ObjectDBX Classes
 90
     1152
280
     0
281
     0
  0
ENDSEC
  0
SECTION
  2
TABLES
  0
TABLE
  2
VPORT
  5
8
330
0
100
AcDbSymbolTable
 70
     1
  0
VPORT
  5
179A
330
8
100
AcDbSymbolTableRecord
100
AcDbViewportTableRecord
  2
*ACTIVE
 70
     0
 10
0.0
 20
0.0
 11
1.0
 21
1.0
 12
259.0343951104103
 22
129.01224561198
 13
0.0
 23
0.0
 14
10.0
 24
10.0
 15
10.0
 25
10.0
 16
0.0
 26
0.0
 36
1.0
 17
0.0
 27
0.0
 37
0.0
 40
239.9185559964045
 41
1.899603698811096
 42
50.0
 43
0.0
 44
0.0
 50
0.0
 51
0.0
 71
     0
 72
   100
 73
     1
 74
     0
 75
     0
 76
     0
 77
     0
 78
     0
281
     0
 65
     1
110
0.0
120
0.0
130
0.0
111
1.0
121
0.0
131
0.0
112
0.0
122
1.0
132
0.0
 79
     0
146
0.0
1001
ACAD_NAV_VCDISPLAY
1070
     3
  0
ENDTAB
  0
TABLE
  2
LTYPE
  5
5
330
0
100
AcDbSymbolTable
 70
     4
  0
LTYPE
  5
12
330
5
100
AcDbSymbolTableRecord
100
AcDbLinetypeTableRecord
  2
BYBLOCK
 70
     0
  3

 72
    65
 73
     0
 40
0.0
  0
LTYPE
  5
13
330
5
100
AcDbSymbolTableRecord
100
AcDbLinetypeTableRecord
  2
BYLAYER
 70
     0
  3

 72
    65
 73
     0
 40
0.0
  0
LTYPE
  5
14
330
5
100
AcDbSymbolTableRecord
100
AcDbLinetypeTableRecord
  2
CONTINUOUS
 70
     0
  3
Solid line
 72
    65
 73
     0
 40
0.0
  0
LTYPE
  5
4B
330
5
100
AcDbSymbolTableRecord
100
AcDbLinetypeTableRecord
  2
DASHED
 70
     0
  3
Dashed __ __ __ __ __ __ __ __ __ __ __ __ __ _
 72
    65
 73
     2
 40
19.04999999999999
 49
12.7
 74
     0
 49
-6.349999999999998
 74
     0
  0
LTYPE
  5
4C
330
5
100
AcDbSymbolTableRecord
100
AcDbLinetypeTableRecord
  2
CENTER
 70
     0
  3
Center ____ _ ____ _ ____ _ ____ _ ____ _ ____
 72
    65
 73
     4
 40
50.8
 49
31.75
 74
     0
 49
-6.349999999999998
 74
     0
 49
6.349999999999998
 74
     0
 49
-6.349999999999998
 74
     0
  0
LTYPE
  5
4D
330
5
100
AcDbSymbolTableRecord
100
AcDbLinetypeTableRecord
  2
PHANTOM
 70
     0
  3
Phantom ______  __  __  ______  __  __  ______
 72
    65
 73
     6
 40
63.5
 49
31.75
 74
     0
 49
-6.349999999999998
 74
     0
 49
6.349999999999998
 74
     0
 49
-6.349999999999998
 74
     0
 49
6.349999999999998
 74
     0
 49
-6.349999999999998
 74
     0
  0
ENDTAB
  0
TABLE
  2
LAYER
  5
2
330
0
100
AcDbSymbolTable
 70
     8
  0
LAYER
  5
E
102
{ACAD_XDICTIONARY
360
17F4
102
}
330
2
100
AcDbSymbolTableRecord
100
AcDbLayerTableRecord
  2
0
 70
     0
 62
     7
  6
CONTINUOUS
370
    -3
390
17A3
  0
LAYER
  5
4E
102
{ACAD_XDICTIONARY
360
17F6
102
}
330
2
100
AcDbSymbolTableRecord
100
AcDbLayerTableRecord
  2
4
 70
     0
 62
     1
  6
CENTER
370
    -3
390
17A3
  0
LAYER
  5
4F
102
{ACAD_XDICTIONARY
360
17F8
102
}
330
2
100
AcDbSymbolTableRecord
100
AcDbLayerTableRecord
  2
5
 70
     0
 62
     6
  6
PHANTOM
370
    -3
390
17A3
  0
LAYER
  5
50
102
{ACAD_XDICTIONARY
360
17FA
102
}
330
2
100
AcDbSymbolTableRecord
100
AcDbLayerTableRecord
  2
1
 70
     0
 62
     7
  6
CONTINUOUS
370
    -3
390
17A3
  0
LAYER
  5
51
102
{ACAD_XDICTIONARY
360
17FC
102
}
330
2
100
AcDbSymbolTableRecord
100
AcDbLayerTableRecord
  2
2
 70
     0
 62
     4
  6
CONTINUOUS
370
    -3
390
17A3
  0
LAYER
  5
52
102
{ACAD_XDICTIONARY
360
17FE
102
}
330
2
100
AcDbSymbolTableRecord
100
AcDbLayerTableRecord
  2
3
 70
     0
 62
     2
  6
DASHED
370
    -3
390
17A3
  0
LAYER
  5
53
102
{ACAD_XDICTIONARY
360
1800
102
}
330
2
100
AcDbSymbolTableRecord
100
AcDbLayerTableRecord
  2
6
 70
     0
 62
     5
  6
CONTINUOUS
370
    -3
390
17A3
  0
LAYER
  5
54
102
{ACAD_XDICTIONARY
360
1802
102
}
330
2
100
AcDbSymbolTableRecord
100
AcDbLayerTableRecord
  2
7
 70
     0
 62
     3
  6
CONTINUOUS
370
    -3
390
17A3
  0
ENDTAB
  0
TABLE
  2
STYLE
  5
3
330
0
100
AcDbSymbolTable
 70
     1
  0
STYLE
  5
F
330
3
100
AcDbSymbolTableRecord
100
AcDbTextStyleTableRecord
  2
STANDARD
 70
     0
 40
0.0
 41
1.0
 50
0.0
 71
     0
 42
2.5
  3
simplex.shx
  4

  0
ENDTAB
  0
TABLE
  2
VIEW
  5
6
330
0
100
AcDbSymbolTable
 70
     0
  0
ENDTAB
  0
TABLE
  2
UCS
  5
7
330
0
100
AcDbSymbolTable
 70
     0
  0
ENDTAB
  0
TABLE
  2
APPID
  5
9
330
0
100
AcDbSymbolTable
 70
     5
  0
APPID
  5
10
330
9
100
AcDbSymbolTableRecord
100
AcDbRegAppTableRecord
  2
ACAD
 70
     0
  0
APPID
  5
3E
330
9
100
AcDbSymbolTableRecord
100
AcDbRegAppTableRecord
  2
CONTENTTABDATA
 70
     0
  0
APPID
  5
3F
330
9
100
AcDbSymbolTableRecord
100
AcDbRegAppTableRecord
  2
CONTENTCURRENTTAB
 70
     0
  0
APPID
  5
180E
330
9
100
AcDbSymbolTableRecord
100
AcDbRegAppTableRecord
  2
ACAD_NAV_VCDISPLAY
 70
     0
  0
APPID
  5
1847
330
9
100
AcDbSymbolTableRecord
100
AcDbRegAppTableRecord
  2
ACAD_MLEADERVER
 70
     0
  0
ENDTAB
  0
TABLE
  2
DIMSTYLE
  5
A
330
0
100
AcDbSymbolTable
 70
     1
100
AcDbDimStyleTable
 71
     0
  0
DIMSTYLE
105
1D
330
A
100
AcDbSymbolTableRecord
100
AcDbDimStyleTableRecord
  2
STANDARD
 70
     0
 41
3.0
 42
1.0
 43
10.0
 44
1.0
 73
     0
 74
     0
 77
     3
 78
     8
140
3.2
141
0.0
147
1.0
172
     1
173
     1
340
F
341
2E
343
2E
344
2E
  0
ENDTAB
  0
TABLE
  2
BLOCK_RECORD
  5
1
330
0
100
AcDbSymbolTable
 70
     1
  0
BLOCK_RECORD
  5
18
102
{ACAD_XDICTIONARY
360
179D
102
}
330
1
100
AcDbSymbolTableRecord
100
AcDbBlockTableRecord
  2
*MODEL_SPACE
340
17F1
  0
BLOCK_RECORD
  5
15
102
{ACAD_XDICTIONARY
360
179B
102
}
330
1
100
AcDbSymbolTableRecord
100
AcDbBlockTableRecord
  2
*PAPER_SPACE
340
17F2
  0
BLOCK_RECORD
  5
2E
330
1
100
AcDbSymbolTableRecord
100
AcDbBlockTableRecord
  2
_OPEN
340
0
  0
ENDTAB
  0
ENDSEC
  0
SECTION
  2
BLOCKS
  0
BLOCK
  5
19
330
18
100
AcDbEntity
  8
0
100
AcDbBlockBegin
  2
*MODEL_SPACE
 70
     0
 10
0.0
 20
0.0
 30
0.0
  3
*MODEL_SPACE
  1

  0
ENDBLK
  5
1A
330
18
100
AcDbEntity
  8
0
100
AcDbBlockEnd
  0
BLOCK
  5
16
330
15
100
AcDbEntity
 67
     1
  8
0
100
AcDbBlockBegin
  2
*PAPER_SPACE
 70
     0
 10
0.0
 20
0.0
 30
0.0
  3
*PAPER_SPACE
  1

  0
ENDBLK
  5
17
330
15
100
AcDbEntity
 67
     1
  8
0
100
AcDbBlockEnd
  0
BLOCK
  5
2F
330
2E
100
AcDbEntity
  8
0
100
AcDbBlockBegin
  2
_OPEN
 70
     0
 10
0.0
 20
0.0
 30
0.0
  3
_OPEN
  1

  0
LINE
  5
30
330
2E
100
AcDbEntity
  8
0
  6
ByBlock
 62
     0
100
AcDbLine
 10
-1.0
 20
0.1666666666666666
 30
0.0
 11
0.0
 21
0.0
 31
0.0
  0
LINE
  5
31
330
2E
100
AcDbEntity
  8
0
  6
ByBlock
 62
     0
100
AcDbLine
 10
0.0
 20
0.0
 30
0.0
 11
-1.0
 21
-0.1666666666666666
 31
0.0
  0
LINE
  5
32
330
2E
100
AcDbEntity
  8
0
  6
ByBlock
 62
     0
100
AcDbLine
 10
0.0
 20
0.0
 30
0.0
 11
-1.0
 21
0.0
 31
0.0
  0
ENDBLK
  5
33
330
2E
100
AcDbEntity
  8
0
100
AcDbBlockEnd
  0
ENDSEC
  0
SECTION
  2
ENTITIES
  0
LINE
  5
353
330
18
100
AcDbEntity
  8
4
  6
CENTER
100
AcDbLine
 10
64.91938298645514
 20
114.8847737712173
 30
0.0
 11
64.91938298645514
 21
182.8847737712172
 31
0.0
  0
LINE
  5
354
330
18
100
AcDbEntity
  8
1
  6
Continuous
100
AcDbLine
 10
22.86938298645527
 20
119.8847737712173
 30
0.0
 11
22.86938298645527
 21
177.8847737712172
 31
0.0
  0
LINE
  5
355
330
18
100
AcDbEntity
  8
1
  6
Continuous
100
AcDbLine
 10
106.9693829864551
 20
119.8847737712173
 30
0.0
 11
106.9693829864551
 21
177.8847737712172
 31
0.0
  0
LINE
  5
356
330
18
100
AcDbEntity
  8
1
  6
Continuous
100
AcDbLine
 10
24.46938298645517
 20
119.8847737712173
 30
0.0
 11
24.46938298645517
 21
177.8847737712172
 31
0.0
  0
LINE
  5
357
330
18
100
AcDbEntity
  8
1
  6
Continuous
100
AcDbLine
 10
105.3693829864551
 20
119.8847737712173
 30
0.0
 11
105.3693829864551
 21
177.8847737712172
 31
0.0
  0
LINE
  5
358
330
18
100
AcDbEntity
  8
3
  6
DASHED
100
AcDbLine
 10
175.2232209864551
 20
177.8847737712172
 30
0.0
 11
175.2232209864551
 21
119.8847737712173
 31
0.0
  0
LINE
  5
359
330
18
100
AcDbEntity
  8
1
  6
Continuous
100
AcDbLine
 10
155.1232209864551
 20
177.8847737712172
 30
0.0
 11
155.1232209864551
 21
119.8847737712173
 31
0.0
  0
LINE
  5
35A
330
18
100
AcDbEntity
  8
1
  6
Continuous
100
AcDbLine
 10
176.8232209864552
 20
177.8847737712172
 30
0.0
 11
176.8232209864552
 21
119.8847737712173
 31
0.0
  0
LINE
  5
35B
330
18
100
AcDbEntity
  8
4
  6
CENTER
100
AcDbLine
 10
17.86938298645526
 20
148.8847737712172
 30
0.0
 11
111.969382986455
 21
148.8847737712172
 31
0.0
  0
LINE
  5
35C
330
18
100
AcDbEntity
  8
1
  6
Continuous
100
AcDbLine
 10
22.86938298645527
 20
119.8847737712173
 30
0.0
 11
106.9693829864551
 21
119.8847737712173
 31
0.0
  0
TEXT
  5
363
330
18
100
AcDbEntity
  8
1
  6
Continuous
100
AcDbText
 10
10.000001537608
 20
9.999999806846743
 30
0.0
 40
1.399999999999999
  1
LAYER
100
AcDbText
  0
TEXT
  5
364
330
18
100
AcDbEntity
  8
7
  6
Continuous
100
AcDbText
 10
10.000001537608
 20
25.99999980684674
 30
0.0
 40
3.0
  1
CODE No.3998
100
AcDbText
  0
TEXT
  5
365
330
18
100
AcDbEntity
  8
7
  6
Continuous
100
AcDbText
 10
10.000001537608
 20
17.99999980684674
 30
0.0
 40
3.0
  1
TYPE No.THA-195C-1
100
AcDbText
  0
TEXT
  5
367
330
18
100
AcDbEntity
  8
2
  6
Continuous
100
AcDbText
 10
19.979512537608
 20
10.04873680684672
 30
0.0
 40
1.399999999999999
  1
2
100
AcDbText
  0
TEXT
  5
368
330
18
100
AcDbEntity
  8
1
  6
Continuous
100
AcDbText
 10
17.979512537608
 20
10.04873680684672
 30
0.0
 40
1.399999999999999
  1
1
100
AcDbText
  0
TEXT
  5
369
330
18
100
AcDbEntity
  8
3
  6
DASHED
100
AcDbText
 10
21.979512537608
 20
10.04873680684672
 30
0.0
 40
1.399999999999999
  1
3
100
AcDbText
  0
TEXT
  5
36A
330
18
100
AcDbEntity
  8
5
  6
PHANTOM
100
AcDbText
 10
25.979512537608
 20
10.04873680684672
 30
0.0
 40
1.399999999999999
  1
5
100
AcDbText
  0
TEXT
  5
36B
330
18
100
AcDbEntity
  8
4
  6
CENTER
100
AcDbText
 10
23.979512537608
 20
10.04873680684672
 30
0.0
 40
1.399999999999999
  1
4
100
AcDbText
  0
TEXT
  5
36C
330
18
100
AcDbEntity
  8
7
  6
Continuous
100
AcDbText
 10
29.979512537608
 20
10.04873680684672
 30
0.0
 40
1.399999999999999
  1
7
100
AcDbText
  0
TEXT
  5
36D
330
18
100
AcDbEntity
  8
6
  6
Continuous
100
AcDbText
 10
27.979512537608
 20
10.04873680684672
 30
0.0
 40
1.399999999999999
  1
6
100
AcDbText
  0
LINE
  5
373
330
18
100
AcDbEntity
  8
4
  6
CENTER
100
AcDbLine
 10
29.91938298645516
 20
122.1347737712173
 30
0.0
 11
29.91938298645516
 21
129.6347737712173
 31
0.0
  0
LINE
  5
374
330
18
100
AcDbEntity
  8
4
  6
CENTER
100
AcDbLine
 10
26.16938298645516
 20
125.8847737712172
 30
0.0
 11
33.66938298645516
 21
125.8847737712172
 31
0.0
  0
CIRCLE
  5
375
330
18
100
AcDbEntity
  8
1
  6
Continuous
100
AcDbCircle
 10
29.91938298645516
 20
125.8847737712172
 30
0.0
 40
1.75
  0
LINE
  5
37D
330
18
100
AcDbEntity
  8
4
  6
CENTER
100
AcDbLine
 10
96.16938298645514
 20
125.8847737712172
 30
0.0
 11
103.6693829864551
 21
125.8847737712172
 31
0.0
  0
CIRCLE
  5
37E
330
18
100
AcDbEntity
  8
1
  6
Continuous
100
AcDbCircle
 10
99.91938298645514
 20
125.8847737712172
 30
0.0
 40
1.75
  0
LINE
  5
37F
330
18
100
AcDbEntity
  8
4
  6
CENTER
100
AcDbLine
 10
99.91938298645514
 20
122.1347737712173
 30
0.0
 11
99.91938298645514
 21
129.6347737712173
 31
0.0
  0
LINE
  5
380
330
18
100
AcDbEntity
  8
4
  6
CENTER
100
AcDbLine
 10
150.1232209864552
 20
148.8847737712172
 30
0.0
 11
181.8232209864551
 21
148.8847737712172
 31
0.0
  0
LINE
  5
381
330
18
100
AcDbEntity
  8
4
  6
CENTER
100
AcDbLine
 10
179.8232209864551
 20
125.8847737712172
 30
0.0
 11
172.2232209864552
 21
125.8847737712172
 31
0.0
  0
LINE
  5
383
330
18
100
AcDbEntity
  8
1
  6
Continuous
100
AcDbLine
 10
176.8232209864552
 20
119.8847737712173
 30
0.0
 11
155.1232209864551
 21
119.8847737712173
 31
0.0
  0
LINE
  5
384
330
18
100
AcDbEntity
  8
1
  6
Continuous
100
AcDbLine
 10
22.86938298645527
 20
177.8847737712172
 30
0.0
 11
106.9693829864551
 21
177.8847737712172
 31
0.0
  0
LINE
  5
385
330
18
100
AcDbEntity
  8
1
  6
Continuous
100
AcDbLine
 10
104.5693829864551
 20
239.8257165703681
 30
0.0
 11
25.26938298645524
 21
239.8257165703681
 31
0.0
  0
LINE
  5
386
330
18
100
AcDbEntity
  8
1
  6
Continuous
100
AcDbLine
 10
101.1693829864552
 20
243.025716570368
 30
0.0
 11
28.66938298645516
 21
243.025716570368
 31
0.0
  0
LINE
  5
387
330
18
100
AcDbEntity
  8
1
  6
Continuous
100
AcDbLine
 10
104.5693829864551
 20
241.425716570368
 30
0.0
 11
25.26938298645524
 21
241.425716570368
 31
0.0
  0
LINE
  5
388
330
18
100
AcDbEntity
  8
4
  6
CENTER
100
AcDbLine
 10
29.91938298645516
 20
246.025716570368
 30
0.0
 11
29.91938298645516
 21
236.8257165703681
 31
0.0
  0
LINE
  5
389
330
18
100
AcDbEntity
  8
4
  6
CENTER
100
AcDbLine
 10
64.91938298645514
 20
234.8257165703681
 30
0.0
 11
64.91938298645514
 21
248.025716570368
 31
0.0
  0
ARC
  5
38A
330
18
100
AcDbEntity
  8
1
  6
Continuous
100
AcDbCircle
 10
25.26938298645524
 20
239.025716570368
 30
0.0
 40
2.399999999999999
100
AcDbArc
 50
90.0
 51
180.0
  0
LINE
  5
38B
330
18
100
AcDbEntity
  8
4
  6
CENTER
100
AcDbLine
 10
26.16938298645516
 20
171.8847737712172
 30
0.0
 11
33.66938298645516
 21
171.8847737712172
 31
0.0
  0
CIRCLE
  5
38C
330
18
100
AcDbEntity
  8
1
  6
Continuous
100
AcDbCircle
 10
29.91938298645516
 20
171.8847737712172
 30
0.0
 40
1.75
  0
LINE
  5
38D
330
18
100
AcDbEntity
  8
4
  6
CENTER
100
AcDbLine
 10
29.91938298645516
 20
168.1347737712173
 30
0.0
 11
29.91938298645516
 21
175.6347737712172
 31
0.0
  0
LINE
  5
38E
330
18
100
AcDbEntity
  8
1
  6
Continuous
100
AcDbLine
 10
24.46938298645517
 20
239.025716570368
 30
0.0
 11
24.46938298645517
 21
219.7257165703681
 31
0.0
  0
LINE
  5
38F
330
18
100
AcDbEntity
  8
1
  6
Continuous
100
AcDbLine
 10
22.86938298645527
 20
239.025716570368
 30
0.0
 11
22.86938298645527
 21
219.7257165703681
 31
0.0
  0
LINE
  5
390
330
18
100
AcDbEntity
  8
1
  6
Continuous
100
AcDbLine
 10
22.86938298645527
 20
219.7257165703681
 30
0.0
 11
24.46938298645517
 21
219.7257165703681
 31
0.0
  0
LINE
  5
391
330
18
100
AcDbEntity
  8
1
  6
Continuous
100
AcDbLine
 10
24.46938298645517
 20
219.7257165703681
 30
0.0
 11
22.86938298645527
 21
219.7257165703681
 31
0.0
  0
ARC
  5
392
330
18
100
AcDbEntity
  8
1
  6
Continuous
100
AcDbCircle
 10
25.26938298645524
 20
239.025716570368
 30
0.0
 40
0.8
100
AcDbArc
 50
90.0
 51
180.0
  0
ARC
  5
393
330
18
100
AcDbEntity
  8
1
  6
Continuous
100
AcDbCircle
 10
28.66938298645516
 20
241.425716570368
 30
0.0
 40
1.6
100
AcDbArc
 50
90.0
 51
180.0
  0
LINE
  5
394
330
18
100
AcDbEntity
  8
4
  6
CENTER
100
AcDbLine
 10
99.91938298645514
 20
246.025716570368
 30
0.0
 11
99.91938298645514
 21
236.8257165703681
 31
0.0
  0
CIRCLE
  5
395
330
18
100
AcDbEntity
  8
1
  6
Continuous
100
AcDbCircle
 10
99.91938298645514
 20
171.8847737712172
 30
0.0
 40
1.75
  0
LINE
  5
396
330
18
100
AcDbEntity
  8
4
  6
CENTER
100
AcDbLine
 10
96.16938298645514
 20
171.8847737712172
 30
0.0
 11
103.6693829864551
 21
171.8847737712172
 31
0.0
  0
LINE
  5
397
330
18
100
AcDbEntity
  8
4
  6
CENTER
100
AcDbLine
 10
99.91938298645514
 20
168.1347737712173
 30
0.0
 11
99.91938298645514
 21
175.6347737712172
 31
0.0
  0
LINE
  5
398
330
18
100
AcDbEntity
  8
1
  6
Continuous
100
AcDbLine
 10
105.3693829864551
 20
239.025716570368
 30
0.0
 11
105.3693829864551
 21
219.7257165703681
 31
0.0
  0
LINE
  5
399
330
18
100
AcDbEntity
  8
1
  6
Continuous
100
AcDbLine
 10
106.9693829864551
 20
239.025716570368
 30
0.0
 11
106.9693829864551
 21
219.7257165703681
 31
0.0
  0
LINE
  5
39A
330
18
100
AcDbEntity
  8
1
  6
Continuous
100
AcDbLine
 10
106.9693829864551
 20
219.7257165703681
 30
0.0
 11
105.3693829864551
 21
219.7257165703681
 31
0.0
  0
ARC
  5
39B
330
18
100
AcDbEntity
  8
1
  6
Continuous
100
AcDbCircle
 10
104.5693829864551
 20
239.025716570368
 30
0.0
 40
2.399999999999999
100
AcDbArc
 50
0.0
 51
90.0
  0
ARC
  5
39C
330
18
100
AcDbEntity
  8
1
  6
Continuous
100
AcDbCircle
 10
104.5693829864551
 20
239.025716570368
 30
0.0
 40
0.8
100
AcDbArc
 50
0.0
 51
90.0
  0
ARC
  5
39D
330
18
100
AcDbEntity
  8
1
  6
Continuous
100
AcDbCircle
 10
101.1693829864552
 20
241.425716570368
 30
0.0
 40
1.6
100
AcDbArc
 50
0.0
 51
90.0
  0
LINE
  5
39E
330
18
100
AcDbEntity
  8
4
  6
CENTER
100
AcDbLine
 10
179.8232209864551
 20
171.8847737712172
 30
0.0
 11
172.2232209864552
 21
171.8847737712172
 31
0.0
  0
LINE
  5
3A0
330
18
100
AcDbEntity
  8
1
  6
Continuous
100
AcDbLine
 10
176.8232209864552
 20
177.8847737712172
 30
0.0
 11
155.1232209864551
 21
177.8847737712172
 31
0.0
  0
LINE
  5
3A1
330
18
100
AcDbEntity
  8
3
  6
DASHED
100
AcDbLine
 10
229.5043289864551
 20
119.8847737712173
 30
0.0
 11
229.5043289864551
 21
177.8847737712172
 31
0.0
  0
LINE
  5
3A2
330
18
100
AcDbEntity
  8
3
  6
DASHED
100
AcDbLine
 10
310.4043289864551
 20
119.8847737712173
 30
0.0
 11
310.4043289864551
 21
177.8847737712172
 31
0.0
  0
LINE
  5
3A3
330
18
100
AcDbEntity
  8
1
  6
Continuous
100
AcDbLine
 10
227.9043289864551
 20
119.8847737712173
 30
0.0
 11
227.9043289864551
 21
177.8847737712172
 31
0.0
  0
LINE
  5
3A4
330
18
100
AcDbEntity
  8
1
  6
Continuous
100
AcDbLine
 10
312.004328986455
 20
119.8847737712173
 30
0.0
 11
312.004328986455
 21
177.8847737712172
 31
0.0
  0
LINE
  5
3A5
330
18
100
AcDbEntity
  8
4
  6
CENTER
100
AcDbLine
 10
269.9543289864551
 20
114.8847737712173
 30
0.0
 11
269.9543289864551
 21
182.8847737712172
 31
0.0
  0
LINE
  5
3A6
330
18
100
AcDbEntity
  8
1
  6
Continuous
100
AcDbLine
 10
270.4508599864551
 20
147.8906167712172
 30
0.0
 11
270.288903986455
 21
147.8053357712173
 31
0.0
  0
LINE
  5
3A7
330
18
100
AcDbEntity
  8
1
  6
Continuous
100
AcDbLine
 10
270.3644929864552
 20
150.0469117712172
 30
0.0
 11
270.5201989864552
 21
149.9474547712172
 31
0.0
  0
LINE
  5
3A8
330
18
100
AcDbEntity
  8
1
  6
Continuous
100
AcDbLine
 10
269.4212039864552
 20
144.8847737712172
 30
0.0
 11
270.987453986455
 21
144.8847737712172
 31
0.0
  0
LINE
  5
3AB
330
18
100
AcDbEntity
  8
1
  6
Continuous
100
AcDbLine
 10
312.004328986455
 20
119.8847737712173
 30
0.0
 11
227.9043289864551
 21
119.8847737712173
 31
0.0
  0
LINE
  5
3AC
330
18
100
AcDbEntity
  8
4
  6
CENTER
100
AcDbLine
 10
317.004328986455
 20
148.8847737712172
 30
0.0
 11
222.9043289864551
 21
148.8847737712172
 31
0.0
  0
LINE
  5
3AE
330
18
100
AcDbEntity
  8
4
  6
CENTER
100
AcDbLine
 10
234.9543289864551
 20
122.1347737712173
 30
0.0
 11
234.9543289864551
 21
129.6347737712173
 31
0.0
  0
LINE
  5
3AF
330
18
100
AcDbEntity
  8
4
  6
CENTER
100
AcDbLine
 10
238.7043289864551
 20
125.8847737712172
 30
0.0
 11
231.2043289864551
 21
125.8847737712172
 31
0.0
  0
CIRCLE
  5
3B0
330
18
100
AcDbEntity
  8
1
  6
Continuous
100
AcDbCircle
 10
234.9543289864551
 20
125.8847737712172
 30
0.0
 40
1.75
  0
ARC
  5
3B1
330
18
100
AcDbEntity
  8
1
  6
Continuous
100
AcDbCircle
 10
256.2215189864551
 20
148.8833297712172
 30
0.0
 40
1.269449999999997
100
AcDbArc
 50
125.5377000000022
 51
166.5374000000006
  0
ARC
  5
3B2
330
18
100
AcDbEntity
  8
1
  6
Continuous
100
AcDbCircle
 10
256.2215189864551
 20
148.8833297712172
 30
0.0
 40
1.269449999999997
100
AcDbArc
 50
180.0
 51
234.4620000000019
  0
LINE
  5
3B3
330
18
100
AcDbEntity
  8
1
  6
Continuous
100
AcDbLine
 10
269.4212039864552
 20
146.1535237712171
 30
0.0
 11
269.4212039864552
 21
143.6535237712172
 31
0.0
  0
LINE
  5
3B4
330
18
100
AcDbEntity
  8
1
  6
Continuous
100
AcDbLine
 10
267.7043289864551
 20
146.1347737712172
 30
0.0
 11
267.7043289864551
 21
143.6347737712172
 31
0.0
  0
ARC
  5
3B5
330
18
100
AcDbEntity
  8
1
  6
Continuous
100
AcDbCircle
 10
259.176518986455
 20
144.745329771217
 30
0.0
 40
6.354269999999997
100
AcDbArc
 50
54.46200000000199
 51
125.5377000000022
  0
ARC
  5
3B6
330
18
100
AcDbEntity
  8
1
  6
Continuous
100
AcDbCircle
 10
259.176518986455
 20
153.0203297712173
 30
0.0
 40
6.354269999999997
100
AcDbArc
 50
234.4620000000019
 51
305.5379999999979
  0
LINE
  5
3B7
330
18
100
AcDbEntity
  8
1
  6
Continuous
100
AcDbLine
 10
263.401518986455
 20
148.8833297712172
 30
0.0
 11
262.3835189864552
 21
148.8833297712172
 31
0.0
  0
LINE
  5
3B8
330
18
100
AcDbEntity
  8
1
  6
Continuous
100
AcDbLine
 10
261.8855189864551
 20
149.1293297712173
 30
0.0
 11
261.8855189864551
 21
150.1813297712171
 31
0.0
  0
LINE
  5
3B9
330
18
100
AcDbEntity
  8
1
  6
Continuous
100
AcDbLine
 10
261.3935189864549
 20
150.2703297712173
 30
0.0
 11
261.3935189864549
 21
149.1293297712173
 31
0.0
  0
LINE
  5
3BA
330
18
100
AcDbEntity
  8
1
  6
Continuous
100
AcDbLine
 10
260.900518986455
 20
150.5023297712173
 30
0.0
 11
260.900518986455
 21
147.4183297712172
 31
0.0
  0
LINE
  5
3BB
330
18
100
AcDbEntity
  8
1
  6
Continuous
100
AcDbLine
 10
259.9155189864551
 20
150.5043297712173
 30
0.0
 11
259.9155189864551
 21
147.2613297712173
 31
0.0
  0
LINE
  5
3BC
330
18
100
AcDbEntity
  8
1
  6
Continuous
100
AcDbLine
 10
259.4235189864549
 20
150.6013297712172
 30
0.0
 11
259.4235189864549
 21
147.1643297712173
 31
0.0
  0
LINE
  5
3BD
330
18
100
AcDbEntity
  8
1
  6
Continuous
100
AcDbLine
 10
258.930518986455
 20
150.6013297712172
 30
0.0
 11
258.930518986455
 21
147.1643297712173
 31
0.0
  0
LINE
  5
3BE
330
18
100
AcDbEntity
  8
1
  6
Continuous
100
AcDbLine
 10
258.437518986455
 20
150.5603297712172
 30
0.0
 11
258.437518986455
 21
147.2053297712171
 31
0.0
  0
LINE
  5
3BF
330
18
100
AcDbEntity
  8
1
  6
Continuous
100
AcDbLine
 10
262.1365189864551
 20
147.9613297712171
 30
0.0
 11
262.6935189864551
 21
150.0373297712173
 31
0.0
  0
LINE
  5
3C0
330
18
100
AcDbEntity
  8
1
  6
Continuous
100
AcDbLine
 10
255.9745189864551
 20
150.2343297712173
 30
0.0
 11
255.9745189864551
 21
148.1103297712171
 31
0.0
  0
LINE
  5
3C1
330
18
100
AcDbEntity
  8
1
  6
Continuous
100
AcDbLine
 10
257.4525189864551
 20
150.1623297712173
 30
0.0
 11
257.4525189864551
 21
147.6033297712173
 31
0.0
  0
LINE
  5
3C2
330
18
100
AcDbEntity
  8
1
  6
Continuous
100
AcDbLine
 10
256.9605189864552
 20
150.0983297712173
 30
0.0
 11
256.9605189864552
 21
147.6683297712173
 31
0.0
  0
LINE
  5
3C3
330
18
100
AcDbEntity
  8
1
  6
Continuous
100
AcDbLine
 10
256.467518986455
 20
147.9743297712173
 30
0.0
 11
256.467518986455
 21
149.7913297712172
 31
0.0
  0
LINE
  5
3C4
330
18
100
AcDbEntity
  8
1
  6
Continuous
100
AcDbLine
 10
258.930518986455
 20
148.8833297712172
 30
0.0
 11
258.437518986455
 21
148.8833297712172
 31
0.0
  0
ARC
  5
3C5
330
18
100
AcDbEntity
  8
1
  6
Continuous
100
AcDbCircle
 10
257.8955189864551
 20
147.3513297712172
 30
0.0
 40
0.04927
100
AcDbArc
 50
257.271000000001
 51
0.0
  0
ARC
  5
3C6
330
18
100
AcDbEntity
  8
1
  6
Continuous
100
AcDbCircle
 10
259.176518986455
 20
153.0203297712173
 30
0.0
 40
5.861699999999999
100
AcDbArc
 50
243.9859999999972
 51
244.7719999999998
  0
ARC
  5
3C7
330
18
100
AcDbEntity
  8
1
  6
Continuous
100
AcDbCircle
 10
259.176518986455
 20
153.0203297712173
 30
0.0
 40
5.861699999999999
100
AcDbArc
 50
243.9859999999972
 51
247.0560000000022
  0
ARC
  5
3C8
330
18
100
AcDbEntity
  8
1
  6
Continuous
100
AcDbCircle
 10
256.910518986455
 20
147.6683297712173
 30
0.0
 40
0.04927
100
AcDbArc
 50
247.0560000000022
 51
0.0
  0
ARC
  5
3C9
330
18
100
AcDbEntity
  8
1
  6
Continuous
100
AcDbCircle
 10
256.7135189864551
 20
147.9743297712173
 30
0.0
 40
0.24635
100
AcDbArc
 50
180.0
 51
243.9859999999972
  0
ARC
  5
3CA
330
18
100
AcDbEntity
  8
1
  6
Continuous
100
AcDbCircle
 10
259.176518986455
 20
153.0203297712173
 30
0.0
 40
5.861699999999999
100
AcDbArc
 50
254.7940000000021
 51
257.271000000001
  0
ARC
  5
3CB
330
18
100
AcDbEntity
  8
1
  6
Continuous
100
AcDbCircle
 10
259.176518986455
 20
153.0203297712173
 30
0.0
 40
5.861699999999999
100
AcDbArc
 50
254.7419999999998
 51
254.7940000000021
  0
ARC
  5
3CC
330
18
100
AcDbEntity
  8
1
  6
Continuous
100
AcDbCircle
 10
257.6995189864552
 20
147.6033297712173
 30
0.0
 40
0.24635
100
AcDbArc
 50
180.0
 51
254.7419999999998
  0
LINE
  5
3CD
330
18
100
AcDbEntity
  8
1
  6
Continuous
100
AcDbLine
 10
257.9455189864551
 20
147.3513297712172
 30
0.0
 11
257.9455189864551
 21
148.2923297712171
 31
0.0
  0
ARC
  5
3CE
330
18
100
AcDbEntity
  8
1
  6
Continuous
100
AcDbCircle
 10
261.639518986455
 20
149.1293297712173
 30
0.0
 40
0.24635
100
AcDbArc
 50
180.0
 51
0.0
  0
LINE
  5
3CF
330
18
100
AcDbEntity
  8
1
  6
Continuous
100
AcDbLine
 10
260.408518986455
 20
148.8833297712172
 30
0.0
 11
260.161518986455
 21
148.8833297712172
 31
0.0
  0
LINE
  5
3D0
330
18
100
AcDbEntity
  8
1
  6
Continuous
100
AcDbLine
 10
261.639518986455
 20
148.8833297712172
 30
0.0
 11
261.639518986455
 21
147.7013297712173
 31
0.0
  0
ARC
  5
3D1
330
18
100
AcDbEntity
  8
1
  6
Continuous
100
AcDbCircle
 10
259.176518986455
 20
153.0203297712173
 30
0.0
 40
5.861699999999999
100
AcDbArc
 50
277.792999999997
 51
280.1040000000003
  0
ARC
  5
3D2
330
18
100
AcDbEntity
  8
1
  6
Continuous
100
AcDbCircle
 10
259.964518986455
 20
147.2613297712173
 30
0.0
 40
0.04927
100
AcDbArc
 50
180.0
 51
277.792999999997
  0
ARC
  5
3D3
330
18
100
AcDbEntity
  8
1
  6
Continuous
100
AcDbCircle
 10
260.161518986455
 20
147.4923297712173
 30
0.0
 40
0.24635
100
AcDbArc
 50
280.1040000000003
 51
0.0
  0
LINE
  5
3D4
330
18
100
AcDbEntity
  8
1
  6
Continuous
100
AcDbLine
 10
260.408518986455
 20
147.4923297712173
 30
0.0
 11
260.408518986455
 21
148.8833297712172
 31
0.0
  0
ARC
  5
3D5
330
18
100
AcDbEntity
  8
1
  6
Continuous
100
AcDbCircle
 10
257.8955189864551
 20
150.4143297712173
 30
0.0
 40
0.04927
100
AcDbArc
 50
0.0
 51
102.7289000000027
  0
LINE
  5
3D6
330
18
100
AcDbEntity
  8
1
  6
Continuous
100
AcDbLine
 10
257.9455189864551
 20
149.4743297712173
 30
0.0
 11
257.9455189864551
 21
150.4143297712173
 31
0.0
  0
ARC
  5
3D7
330
18
100
AcDbEntity
  8
1
  6
Continuous
100
AcDbCircle
 10
259.176518986455
 20
144.745329771217
 30
0.0
 40
5.861699999999999
100
AcDbArc
 50
112.9439999999977
 51
116.0143999999999
  0
ARC
  5
3D8
330
18
100
AcDbEntity
  8
1
  6
Continuous
100
AcDbCircle
 10
256.910518986455
 20
150.0983297712173
 30
0.0
 40
0.04927
100
AcDbArc
 50
0.0
 51
112.9439999999977
  0
ARC
  5
3D9
330
18
100
AcDbEntity
  8
1
  6
Continuous
100
AcDbCircle
 10
256.7135189864551
 20
149.7913297712172
 30
0.0
 40
0.24635
100
AcDbArc
 50
116.0143999999999
 51
180.0
  0
ARC
  5
3DA
330
18
100
AcDbEntity
  8
1
  6
Continuous
100
AcDbCircle
 10
257.6995189864552
 20
150.1623297712173
 30
0.0
 40
0.24635
100
AcDbArc
 50
105.2574999999984
 51
180.0
  0
ARC
  5
3DB
330
18
100
AcDbEntity
  8
1
  6
Continuous
100
AcDbCircle
 10
259.176518986455
 20
144.745329771217
 30
0.0
 40
5.861699999999999
100
AcDbArc
 50
103.2681000000007
 51
105.2574999999984
  0
ARC
  5
3DC
330
18
100
AcDbEntity
  8
1
  6
Continuous
100
AcDbCircle
 10
259.176518986455
 20
144.745329771217
 30
0.0
 40
5.861699999999999
100
AcDbArc
 50
102.7289000000027
 51
103.2681000000007
  0
LINE
  5
3DD
330
18
100
AcDbEntity
  8
1
  6
Continuous
100
AcDbLine
 10
260.408518986455
 20
149.4743297712173
 30
0.0
 11
260.408518986455
 21
150.2733297712173
 31
0.0
  0
ARC
  5
3DE
330
18
100
AcDbEntity
  8
1
  6
Continuous
100
AcDbCircle
 10
259.964518986455
 20
150.5043297712173
 30
0.0
 40
0.04927
100
AcDbArc
 50
82.20700000000286
 51
180.0
  0
ARC
  5
3DF
330
18
100
AcDbEntity
  8
1
  6
Continuous
100
AcDbCircle
 10
259.176518986455
 20
144.745329771217
 30
0.0
 40
5.861699999999999
100
AcDbArc
 50
79.89599999999963
 51
82.20700000000286
  0
ARC
  5
3E0
330
18
100
AcDbEntity
  8
1
  6
Continuous
100
AcDbCircle
 10
260.161518986455
 20
150.2733297712173
 30
0.0
 40
0.24635
100
AcDbArc
 50
0.0
 51
79.89599999999963
  0
LINE
  5
3E1
330
18
100
AcDbEntity
  8
1
  6
Continuous
100
AcDbLine
 10
268.929211986455
 20
149.2960967712173
 30
0.0
 11
268.995379986455
 21
149.4863587712172
 31
0.0
  0
LINE
  5
3E2
330
18
100
AcDbEntity
  8
1
  6
Continuous
100
AcDbLine
 10
267.434328986455
 20
150.1347737712172
 30
0.0
 11
267.434328986455
 21
147.6347737712172
 31
0.0
  0
ARC
  5
3E3
330
18
100
AcDbEntity
  8
1
  6
Continuous
100
AcDbCircle
 10
262.1325189864552
 20
148.8833297712172
 30
0.0
 40
1.269449999999997
100
AcDbArc
 50
332.2499999999999
 51
54.46200000000199
  0
ARC
  5
3E4
330
18
100
AcDbEntity
  8
1
  6
Continuous
100
AcDbCircle
 10
262.1325189864552
 20
148.8833297712172
 30
0.0
 40
1.269449999999997
100
AcDbArc
 50
305.5379999999979
 51
315.6989999999999
  0
LINE
  5
3E5
330
18
100
AcDbEntity
  8
1
  6
Continuous
100
AcDbLine
 10
270.1168019864552
 20
147.7527997712173
 30
0.0
 11
269.934328986455
 21
147.7344117712172
 31
0.0
  0
LINE
  5
3E6
330
18
100
AcDbEntity
  8
1
  6
Continuous
100
AcDbLine
 10
270.288903986455
 20
147.8053357712173
 30
0.0
 11
270.1168019864552
 21
147.7527997712173
 31
0.0
  0
LINE
  5
3E7
330
18
100
AcDbEntity
  8
1
  6
Continuous
100
AcDbLine
 10
268.8919379864552
 20
149.0956887712173
 30
0.0
 11
268.929211986455
 21
149.2960967712173
 31
0.0
  0
LINE
  5
3E8
330
18
100
AcDbEntity
  8
1
  6
Continuous
100
AcDbLine
 10
268.8846009864552
 20
148.8909337712173
 30
0.0
 11
268.8919379864552
 21
149.0956887712173
 31
0.0
  0
LINE
  5
3E9
330
18
100
AcDbEntity
  8
1
  6
Continuous
100
AcDbLine
 10
268.907426986455
 20
148.6876727712172
 30
0.0
 11
268.8846009864552
 21
148.8909337712173
 31
0.0
  0
LINE
  5
3EA
330
18
100
AcDbEntity
  8
1
  6
Continuous
100
AcDbLine
 10
268.9597369864551
 20
148.4917487712172
 30
0.0
 11
268.907426986455
 21
148.6876727712172
 31
0.0
  0
LINE
  5
3EB
330
18
100
AcDbEntity
  8
1
  6
Continuous
100
AcDbLine
 10
269.040035986455
 20
148.3088227712171
 30
0.0
 11
268.9597369864551
 21
148.4917487712172
 31
0.0
  0
LINE
  5
3EC
330
18
100
AcDbEntity
  8
1
  6
Continuous
100
AcDbLine
 10
269.1460139864551
 20
148.1441487712173
 30
0.0
 11
269.040035986455
 21
148.3088227712171
 31
0.0
  0
LINE
  5
3ED
330
18
100
AcDbEntity
  8
1
  6
Continuous
100
AcDbLine
 10
269.274682986455
 20
148.0024367712173
 30
0.0
 11
269.1460139864551
 21
148.1441487712173
 31
0.0
  0
LINE
  5
3EE
330
18
100
AcDbEntity
  8
1
  6
Continuous
100
AcDbLine
 10
269.4222369864552
 20
147.8877627712173
 30
0.0
 11
269.274682986455
 21
148.0024367712173
 31
0.0
  0
LINE
  5
3EF
330
18
100
AcDbEntity
  8
1
  6
Continuous
100
AcDbLine
 10
269.5845559864552
 20
147.8033877712173
 30
0.0
 11
269.4222369864552
 21
147.8877627712173
 31
0.0
  0
LINE
  5
3F0
330
18
100
AcDbEntity
  8
1
  6
Continuous
100
AcDbLine
 10
269.7568839864551
 20
147.7518027712172
 30
0.0
 11
269.5845559864552
 21
147.8033877712173
 31
0.0
  0
LINE
  5
3F1
330
18
100
AcDbEntity
  8
1
  6
Continuous
100
AcDbLine
 10
269.934328986455
 20
147.7344117712172
 30
0.0
 11
269.7568839864551
 21
147.7518027712172
 31
0.0
  0
LINE
  5
3F2
330
18
100
AcDbEntity
  8
1
  6
Continuous
100
AcDbLine
 10
266.7243289864551
 20
146.1347737712172
 30
0.0
 11
268.6930789864551
 21
146.1347737712172
 31
0.0
  0
LINE
  5
3F3
330
18
100
AcDbEntity
  8
1
  6
Continuous
100
AcDbLine
 10
266.4198369864551
 20
150.1347737712172
 30
0.0
 11
268.4578799864551
 21
150.1347737712172
 31
0.0
  0
LINE
  5
3F4
330
18
100
AcDbEntity
  8
1
  6
Continuous
100
AcDbLine
 10
270.1964219864552
 20
150.1146657712173
 30
0.0
 11
270.3644929864552
 21
150.0469117712172
 31
0.0
  0
LINE
  5
3F5
330
18
100
AcDbEntity
  8
1
  6
Continuous
100
AcDbLine
 10
270.0208329864552
 20
150.1487687712172
 30
0.0
 11
270.1964219864552
 21
150.1146657712173
 31
0.0
  0
LINE
  5
3F6
330
18
100
AcDbEntity
  8
1
  6
Continuous
100
AcDbLine
 10
269.8427529864549
 20
150.1482707712173
 30
0.0
 11
270.0208329864552
 21
150.1487687712172
 31
0.0
  0
LINE
  5
3F7
330
18
100
AcDbEntity
  8
1
  6
Continuous
100
AcDbLine
 10
269.667299986455
 20
150.1131707712172
 30
0.0
 11
269.8427529864549
 21
150.1482707712173
 31
0.0
  0
LINE
  5
3F8
330
18
100
AcDbEntity
  8
1
  6
Continuous
100
AcDbLine
 10
269.4995469864551
 20
150.0445117712172
 30
0.0
 11
269.667299986455
 21
150.1131707712172
 31
0.0
  0
LINE
  5
3F9
330
18
100
AcDbEntity
  8
1
  6
Continuous
100
AcDbLine
 10
269.344247986455
 20
149.9441937712171
 30
0.0
 11
269.4995469864551
 21
150.0445117712172
 31
0.0
  0
LINE
  5
3FA
330
18
100
AcDbEntity
  8
1
  6
Continuous
100
AcDbLine
 10
269.205886986455
 20
149.8151177712173
 30
0.0
 11
269.344247986455
 21
149.9441937712171
 31
0.0
  0
LINE
  5
3FB
330
18
100
AcDbEntity
  8
1
  6
Continuous
100
AcDbLine
 10
269.0884959864553
 20
149.6610417712173
 30
0.0
 11
269.205886986455
 21
149.8151177712173
 31
0.0
  0
LINE
  5
3FC
330
18
100
AcDbEntity
  8
1
  6
Continuous
100
AcDbLine
 10
268.995379986455
 20
149.4863587712172
 30
0.0
 11
269.0884959864553
 21
149.6610417712173
 31
0.0
  0
LINE
  5
3FD
330
18
100
AcDbEntity
  8
4
  6
CENTER
100
AcDbLine
 10
308.7043289864551
 20
125.8847737712172
 30
0.0
 11
301.2043289864551
 21
125.8847737712172
 31
0.0
  0
LINE
  5
3FE
330
18
100
AcDbEntity
  8
1
  6
Continuous
100
AcDbLine
 10
285.9169649864551
 20
145.7912047712172
 30
0.0
 11
285.8336319864553
 21
145.8765767712173
 31
0.0
  0
LINE
  5
3FF
330
18
100
AcDbEntity
  8
1
  6
Continuous
100
AcDbLine
 10
285.9260229864549
 20
143.9783427712173
 30
0.0
 11
285.8426899864551
 21
143.8929717712172
 31
0.0
  0
LINE
  5
400
330
18
100
AcDbEntity
  8
1
  6
Continuous
100
AcDbLine
 10
282.1452219864551
 20
144.0484357712173
 30
0.0
 11
282.115672986455
 21
144.1554777712173
 31
0.0
  0
LINE
  5
401
330
18
100
AcDbEntity
  8
1
  6
Continuous
100
AcDbLine
 10
283.3864769864552
 20
144.1450087712172
 30
0.0
 11
283.3374569864551
 21
144.0213327712172
 31
0.0
  0
LINE
  5
402
330
18
100
AcDbEntity
  8
1
  6
Continuous
100
AcDbLine
 10
280.8104069864551
 20
144.1323177712173
 30
0.0
 11
280.7799859864552
 21
144.0300637712172
 31
0.0
  0
LINE
  5
403
330
18
100
AcDbEntity
  8
1
  6
Continuous
100
AcDbLine
 10
284.5871649864551
 20
143.9612687712171
 30
0.0
 11
284.4688219864552
 21
144.1097287712173
 31
0.0
  0
ARC
  5
404
330
18
100
AcDbEntity
  8
1
  6
Continuous
100
AcDbCircle
 10
280.1457299864549
 20
144.2570867712173
 30
0.0
 40
0.6363770000000001
100
AcDbArc
 50
180.0
 51
270.0
  0
LINE
  5
405
330
18
100
AcDbEntity
  8
1
  6
Continuous
100
AcDbLine
 10
277.7043289864551
 20
146.1347737712172
 30
0.0
 11
277.7043289864551
 21
143.6347737712172
 31
0.0
  0
LINE
  5
406
330
18
100
AcDbEntity
  8
1
  6
Continuous
100
AcDbLine
 10
272.7043289864551
 20
146.1325867712173
 30
0.0
 11
271.7352839864551
 21
143.6369617712172
 31
0.0
  0
LINE
  5
407
330
18
100
AcDbEntity
  8
1
  6
Continuous
100
AcDbLine
 10
270.987453986455
 20
146.1535237712171
 30
0.0
 11
270.987453986455
 21
143.6535237712172
 31
0.0
  0
LINE
  5
408
330
18
100
AcDbEntity
  8
1
  6
Continuous
100
AcDbLine
 10
272.7043289864551
 20
146.1369617712172
 30
0.0
 11
273.6291079864551
 21
143.6369617712172
 31
0.0
  0
LINE
  5
409
330
18
100
AcDbEntity
  8
1
  6
Continuous
100
AcDbLine
 10
280.2629289864551
 20
143.6395587712172
 30
0.0
 11
280.1457299864549
 21
143.6303507712173
 31
0.0
  0
LINE
  5
40A
330
18
100
AcDbEntity
  8
1
  6
Continuous
100
AcDbLine
 10
280.376560986455
 20
143.6669907712172
 30
0.0
 11
280.2629289864551
 21
143.6395587712172
 31
0.0
  0
LINE
  5
40B
330
18
100
AcDbEntity
  8
1
  6
Continuous
100
AcDbLine
 10
280.4832029864552
 20
143.7117297712173
 30
0.0
 11
280.376560986455
 21
143.6669907712172
 31
0.0
  0
LINE
  5
40C
330
18
100
AcDbEntity
  8
1
  6
Continuous
100
AcDbLine
 10
280.5795749864552
 20
143.7724757712172
 30
0.0
 11
280.4832029864552
 21
143.7117297712173
 31
0.0
  0
LINE
  5
40D
330
18
100
AcDbEntity
  8
1
  6
Continuous
100
AcDbLine
 10
280.6627859864551
 20
143.8473457712172
 30
0.0
 11
280.5795749864552
 21
143.7724757712172
 31
0.0
  0
LINE
  5
40E
330
18
100
AcDbEntity
  8
1
  6
Continuous
100
AcDbLine
 10
280.7302329864551
 20
143.9340767712172
 30
0.0
 11
280.6627859864551
 21
143.8473457712172
 31
0.0
  0
LINE
  5
40F
330
18
100
AcDbEntity
  8
1
  6
Continuous
100
AcDbLine
 10
280.7799859864552
 20
144.0300637712172
 30
0.0
 11
280.7302329864551
 21
143.9340767712172
 31
0.0
  0
LINE
  5
410
330
18
100
AcDbEntity
  8
1
  6
Continuous
100
AcDbLine
 10
282.1935079864553
 20
143.9479497712172
 30
0.0
 11
282.1452219864551
 21
144.0484357712173
 31
0.0
  0
LINE
  5
411
330
18
100
AcDbEntity
  8
1
  6
Continuous
100
AcDbLine
 10
282.2590639864553
 20
143.8571497712171
 30
0.0
 11
282.1935079864553
 21
143.9479497712172
 31
0.0
  0
LINE
  5
412
330
18
100
AcDbEntity
  8
1
  6
Continuous
100
AcDbLine
 10
282.3398829864551
 20
143.7787277712172
 30
0.0
 11
282.2590639864553
 21
143.8571497712171
 31
0.0
  0
LINE
  5
413
330
18
100
AcDbEntity
  8
1
  6
Continuous
100
AcDbLine
 10
282.433470986455
 20
143.7151777712172
 30
0.0
 11
282.3398829864551
 21
143.7787277712172
 31
0.0
  0
LINE
  5
414
330
18
100
AcDbEntity
  8
1
  6
Continuous
100
AcDbLine
 10
282.5370399864551
 20
143.6683097712173
 30
0.0
 11
282.433470986455
 21
143.7151777712172
 31
0.0
  0
LINE
  5
415
330
18
100
AcDbEntity
  8
1
  6
Continuous
100
AcDbLine
 10
282.6474079864552
 20
143.6395927712173
 30
0.0
 11
282.5370399864551
 21
143.6683097712173
 31
0.0
  0
LINE
  5
416
330
18
100
AcDbEntity
  8
1
  6
Continuous
100
AcDbLine
 10
282.7612499864552
 20
143.6299547712171
 30
0.0
 11
282.6474079864552
 21
143.6395927712173
 31
0.0
  0
LINE
  5
417
330
18
100
AcDbEntity
  8
1
  6
Continuous
100
AcDbLine
 10
282.8768049864553
 20
143.6418427712173
 30
0.0
 11
282.7612499864552
 21
143.6299547712171
 31
0.0
  0
LINE
  5
418
330
18
100
AcDbEntity
  8
1
  6
Continuous
100
AcDbLine
 10
282.9888369864553
 20
143.6771647712173
 30
0.0
 11
282.8768049864553
 21
143.6418427712173
 31
0.0
  0
LINE
  5
419
330
18
100
AcDbEntity
  8
1
  6
Continuous
100
AcDbLine
 10
283.0939219864552
 20
143.7348447712172
 30
0.0
 11
282.9888369864553
 21
143.6771647712173
 31
0.0
  0
LINE
  5
41A
330
18
100
AcDbEntity
  8
1
  6
Continuous
100
AcDbLine
 10
283.1889289864551
 20
143.8130707712172
 30
0.0
 11
283.0939219864552
 21
143.7348447712172
 31
0.0
  0
LINE
  5
41B
330
18
100
AcDbEntity
  8
1
  6
Continuous
100
AcDbLine
 10
283.2709219864551
 20
143.9095947712171
 30
0.0
 11
283.1889289864551
 21
143.8130707712172
 31
0.0
  0
LINE
  5
41C
330
18
100
AcDbEntity
  8
1
  6
Continuous
100
AcDbLine
 10
283.3374569864551
 20
144.0213327712172
 30
0.0
 11
283.2709219864551
 21
143.9095947712171
 31
0.0
  0
LINE
  5
41D
330
18
100
AcDbEntity
  8
1
  6
Continuous
100
AcDbLine
 10
284.7242569864551
 20
143.8408427712173
 30
0.0
 11
284.5871649864551
 21
143.9612687712171
 31
0.0
  0
LINE
  5
41E
330
18
100
AcDbEntity
  8
1
  6
Continuous
100
AcDbLine
 10
284.8759329864552
 20
143.7520747712172
 30
0.0
 11
284.7242569864551
 21
143.8408427712173
 31
0.0
  0
LINE
  5
41F
330
18
100
AcDbEntity
  8
1
  6
Continuous
100
AcDbLine
 10
285.037617986455
 20
143.6977267712173
 30
0.0
 11
284.8759329864552
 21
143.7520747712172
 31
0.0
  0
LINE
  5
420
330
18
100
AcDbEntity
  8
1
  6
Continuous
100
AcDbLine
 10
285.2043289864551
 20
143.6794297712173
 30
0.0
 11
285.037617986455
 21
143.6977267712173
 31
0.0
  0
LINE
  5
421
330
18
100
AcDbEntity
  8
1
  6
Continuous
100
AcDbLine
 10
285.3490309864552
 20
143.6885327712173
 30
0.0
 11
285.2043289864551
 21
143.6794297712173
 31
0.0
  0
LINE
  5
422
330
18
100
AcDbEntity
  8
1
  6
Continuous
100
AcDbLine
 10
285.4893389864552
 20
143.7154807712171
 30
0.0
 11
285.3490309864552
 21
143.6885327712173
 31
0.0
  0
LINE
  5
423
330
18
100
AcDbEntity
  8
1
  6
Continuous
100
AcDbLine
 10
285.6209959864551
 20
143.7595477712171
 30
0.0
 11
285.4893389864552
 21
143.7154807712171
 31
0.0
  0
LINE
  5
424
330
18
100
AcDbEntity
  8
1
  6
Continuous
100
AcDbLine
 10
285.7399729864551
 20
143.8192847712173
 30
0.0
 11
285.6209959864551
 21
143.7595477712171
 31
0.0
  0
LINE
  5
425
330
18
100
AcDbEntity
  8
1
  6
Continuous
100
AcDbLine
 10
285.8426899864551
 20
143.8929717712172
 30
0.0
 11
285.7399729864551
 21
143.8192847712173
 31
0.0
  0
LINE
  5
426
330
18
100
AcDbEntity
  8
1
  6
Continuous
100
AcDbLine
 10
278.300270986455
 20
147.8925637712172
 30
0.0
 11
278.1631789864551
 21
148.0129897712173
 31
0.0
  0
LINE
  5
427
330
18
100
AcDbEntity
  8
1
  6
Continuous
100
AcDbLine
 10
278.300270986455
 20
149.9804257712173
 30
0.0
 11
278.1631789864551
 21
149.8600007712173
 31
0.0
  0
LINE
  5
428
330
18
100
AcDbEntity
  8
1
  6
Continuous
100
AcDbLine
 10
277.948821986455
 20
149.5394837712173
 30
0.0
 11
277.8781249864549
 21
149.3491757712173
 31
0.0
  0
LINE
  5
429
330
18
100
AcDbEntity
  8
1
  6
Continuous
100
AcDbLine
 10
271.6417569864553
 20
149.5699187712173
 30
0.0
 11
271.5710599864552
 21
149.3796107712173
 31
0.0
  0
LINE
  5
42A
330
18
100
AcDbEntity
  8
1
  6
Continuous
100
AcDbLine
 10
270.870968986455
 20
149.4916127712172
 30
0.0
 11
270.9379529864551
 21
149.301666771217
 31
0.0
  0
LINE
  5
42B
330
18
100
AcDbEntity
  8
1
  6
Continuous
100
AcDbLine
 10
276.8183869864552
 20
150.2434697712172
 30
0.0
 11
276.8183869864552
 21
147.6166577712173
 31
0.0
  0
LINE
  5
42C
330
18
100
AcDbEntity
  8
1
  6
Continuous
100
AcDbLine
 10
275.9397639864551
 20
150.2434697712172
 30
0.0
 11
275.9397639864551
 21
147.6166577712173
 31
0.0
  0
LINE
  5
42D
330
18
100
AcDbEntity
  8
1
  6
Continuous
100
AcDbLine
 10
274.3183869864552
 20
150.2434697712172
 30
0.0
 11
274.3183869864552
 21
147.6166577712173
 31
0.0
  0
LINE
  5
42E
330
18
100
AcDbEntity
  8
1
  6
Continuous
100
AcDbLine
 10
272.6179799864552
 20
147.7706887712173
 30
0.0
 11
272.473278986455
 21
147.7615857712172
 31
0.0
  0
LINE
  5
42F
330
18
100
AcDbEntity
  8
1
  6
Continuous
100
AcDbLine
 10
272.758287986455
 20
147.7976367712173
 30
0.0
 11
272.6179799864552
 21
147.7706887712173
 31
0.0
  0
LINE
  5
430
330
18
100
AcDbEntity
  8
1
  6
Continuous
100
AcDbLine
 10
272.8899449864548
 20
147.8417037712173
 30
0.0
 11
272.758287986455
 21
147.7976367712173
 31
0.0
  0
LINE
  5
431
330
18
100
AcDbEntity
  8
1
  6
Continuous
100
AcDbLine
 10
273.0089219864552
 20
147.9014407712173
 30
0.0
 11
272.8899449864548
 21
147.8417037712173
 31
0.0
  0
LINE
  5
432
330
18
100
AcDbEntity
  8
1
  6
Continuous
100
AcDbLine
 10
273.1116389864552
 20
147.9751267712172
 30
0.0
 11
273.0089219864552
 21
147.9014407712173
 31
0.0
  0
LINE
  5
433
330
18
100
AcDbEntity
  8
1
  6
Continuous
100
AcDbLine
 10
273.1949729864551
 20
148.0604987712172
 30
0.0
 11
273.1116389864552
 21
147.9751267712172
 31
0.0
  0
LINE
  5
434
330
18
100
AcDbEntity
  8
1
  6
Continuous
100
AcDbLine
 10
273.2563399864549
 20
148.1549277712173
 30
0.0
 11
273.1949729864551
 21
148.0604987712172
 31
0.0
  0
LINE
  5
435
330
18
100
AcDbEntity
  8
1
  6
Continuous
100
AcDbLine
 10
273.293930986455
 20
148.2556077712172
 30
0.0
 11
273.2563399864549
 21
148.1549277712173
 31
0.0
  0
LINE
  5
436
330
18
100
AcDbEntity
  8
1
  6
Continuous
100
AcDbLine
 10
273.3066119864551
 20
148.3594117712172
 30
0.0
 11
273.293930986455
 21
148.2556077712172
 31
0.0
  0
LINE
  5
437
330
18
100
AcDbEntity
  8
1
  6
Continuous
100
AcDbLine
 10
271.5277169864551
 20
148.7571017712173
 30
0.0
 11
271.5131339864552
 21
148.9662957712172
 31
0.0
  0
LINE
  5
438
330
18
100
AcDbEntity
  8
1
  6
Continuous
100
AcDbLine
 10
271.5710599864552
 20
148.5542487712172
 30
0.0
 11
271.5277169864551
 21
148.7571017712173
 31
0.0
  0
LINE
  5
439
330
18
100
AcDbEntity
  8
1
  6
Continuous
100
AcDbLine
 10
271.6417569864553
 20
148.3639407712173
 30
0.0
 11
271.5710599864552
 21
148.5542487712172
 31
0.0
  0
LINE
  5
43A
330
18
100
AcDbEntity
  8
1
  6
Continuous
100
AcDbLine
 10
271.737770986455
 20
148.1918847712173
 30
0.0
 11
271.6417569864553
 21
148.3639407712173
 31
0.0
  0
LINE
  5
43B
330
18
100
AcDbEntity
  8
1
  6
Continuous
100
AcDbLine
 10
271.8561139864551
 20
148.0434247712171
 30
0.0
 11
271.737770986455
 21
148.1918847712173
 31
0.0
  0
LINE
  5
43C
330
18
100
AcDbEntity
  8
1
  6
Continuous
100
AcDbLine
 10
271.9932059864551
 20
147.9229987712173
 30
0.0
 11
271.8561139864551
 21
148.0434247712171
 31
0.0
  0
LINE
  5
43D
330
18
100
AcDbEntity
  8
1
  6
Continuous
100
AcDbLine
 10
272.144881986455
 20
147.8342307712173
 30
0.0
 11
271.9932059864551
 21
147.9229987712173
 31
0.0
  0
LINE
  5
43E
330
18
100
AcDbEntity
  8
1
  6
Continuous
100
AcDbLine
 10
272.3065669864551
 20
147.7798827712173
 30
0.0
 11
272.144881986455
 21
147.8342307712173
 31
0.0
  0
LINE
  5
43F
330
18
100
AcDbEntity
  8
1
  6
Continuous
100
AcDbLine
 10
272.473278986455
 20
147.7615857712172
 30
0.0
 11
272.3065669864551
 21
147.7798827712173
 31
0.0
  0
LINE
  5
440
330
18
100
AcDbEntity
  8
1
  6
Continuous
100
AcDbLine
 10
271.5277169864551
 20
149.1767577712173
 30
0.0
 11
271.5131339864552
 21
148.9675637712173
 31
0.0
  0
LINE
  5
441
330
18
100
AcDbEntity
  8
1
  6
Continuous
100
AcDbLine
 10
271.5710599864552
 20
149.3796107712173
 30
0.0
 11
271.5277169864551
 21
149.1767577712173
 31
0.0
  0
LINE
  5
442
330
18
100
AcDbEntity
  8
1
  6
Continuous
100
AcDbLine
 10
270.597961986455
 20
148.0061057712173
 30
0.0
 11
270.4508599864551
 21
147.8906167712172
 31
0.0
  0
LINE
  5
443
330
18
100
AcDbEntity
  8
1
  6
Continuous
100
AcDbLine
 10
270.7259959864551
 20
148.1485417712172
 30
0.0
 11
270.597961986455
 21
148.0061057712173
 31
0.0
  0
LINE
  5
444
330
18
100
AcDbEntity
  8
1
  6
Continuous
100
AcDbLine
 10
270.8312949864552
 20
148.3138497712173
 30
0.0
 11
270.7259959864551
 21
148.1485417712172
 31
0.0
  0
LINE
  5
445
330
18
100
AcDbEntity
  8
1
  6
Continuous
100
AcDbLine
 10
270.9108239864552
 20
148.4971837712171
 30
0.0
 11
270.8312949864552
 21
148.3138497712173
 31
0.0
  0
LINE
  5
446
330
18
100
AcDbEntity
  8
1
  6
Continuous
100
AcDbLine
 10
270.9623189864552
 20
148.6933787712172
 30
0.0
 11
270.9108239864552
 21
148.4971837712171
 31
0.0
  0
LINE
  5
447
330
18
100
AcDbEntity
  8
1
  6
Continuous
100
AcDbLine
 10
270.9842839864551
 20
148.8967757712172
 30
0.0
 11
270.9623189864552
 21
148.6933787712172
 31
0.0
  0
LINE
  5
448
330
18
100
AcDbEntity
  8
1
  6
Continuous
100
AcDbLine
 10
270.976086986455
 20
149.1014857712172
 30
0.0
 11
270.9842839864551
 21
148.8967757712172
 31
0.0
  0
LINE
  5
449
330
18
100
AcDbEntity
  8
1
  6
Continuous
100
AcDbLine
 10
270.9379529864551
 20
149.301666771217
 30
0.0
 11
270.976086986455
 21
149.1014857712172
 31
0.0
  0
LINE
  5
44A
330
18
100
AcDbEntity
  8
1
  6
Continuous
100
AcDbLine
 10
272.0349539864552
 20
144.3913367712173
 30
0.0
 11
273.3518289864549
 21
144.3913367712173
 31
0.0
  0
LINE
  5
44B
330
18
100
AcDbEntity
  8
1
  6
Continuous
100
AcDbLine
 10
277.8347819864549
 20
148.7266667712172
 30
0.0
 11
277.8201989864552
 21
148.9358607712172
 31
0.0
  0
LINE
  5
44C
330
18
100
AcDbEntity
  8
1
  6
Continuous
100
AcDbLine
 10
277.8781249864549
 20
148.5238137712173
 30
0.0
 11
277.8347819864549
 21
148.7266667712172
 31
0.0
  0
LINE
  5
44D
330
18
100
AcDbEntity
  8
1
  6
Continuous
100
AcDbLine
 10
277.948821986455
 20
148.3335057712173
 30
0.0
 11
277.8781249864549
 21
148.5238137712173
 31
0.0
  0
LINE
  5
44E
330
18
100
AcDbEntity
  8
1
  6
Continuous
100
AcDbLine
 10
278.0448369864551
 20
148.1614497712172
 30
0.0
 11
277.948821986455
 21
148.3335057712173
 31
0.0
  0
LINE
  5
44F
330
18
100
AcDbEntity
  8
1
  6
Continuous
100
AcDbLine
 10
278.1631789864551
 20
148.0129897712173
 30
0.0
 11
278.0448369864551
 21
148.1614497712172
 31
0.0
  0
LINE
  5
450
330
18
100
AcDbEntity
  8
1
  6
Continuous
100
AcDbLine
 10
277.8347819864549
 20
149.1463227712172
 30
0.0
 11
277.8201989864552
 21
148.9371287712172
 31
0.0
  0
LINE
  5
451
330
18
100
AcDbEntity
  8
1
  6
Continuous
100
AcDbLine
 10
277.8781249864549
 20
149.3491757712173
 30
0.0
 11
277.8347819864549
 21
149.1463227712172
 31
0.0
  0
LINE
  5
452
330
18
100
AcDbEntity
  8
1
  6
Continuous
100
AcDbLine
 10
277.7043289864551
 20
146.1347737712172
 30
0.0
 11
277.4284669864549
 21
145.8675327712173
 31
0.0
  0
LINE
  5
453
330
18
100
AcDbEntity
  8
1
  6
Continuous
100
AcDbLine
 10
274.3183869864552
 20
148.9300637712173
 30
0.0
 11
275.9397639864551
 21
148.9300637712173
 31
0.0
  0
LINE
  5
454
330
18
100
AcDbEntity
  8
1
  6
Continuous
100
AcDbLine
 10
274.8127669864551
 20
144.8847737712172
 30
0.0
 11
275.595891986455
 21
144.8847737712172
 31
0.0
  0
LINE
  5
455
330
18
100
AcDbEntity
  8
1
  6
Continuous
100
AcDbLine
 10
272.6089219864551
 20
150.1631707712173
 30
0.0
 11
272.4642209864551
 21
150.1722737712171
 31
0.0
  0
LINE
  5
456
330
18
100
AcDbEntity
  8
1
  6
Continuous
100
AcDbLine
 10
272.7492299864551
 20
150.1362227712172
 30
0.0
 11
272.6089219864551
 21
150.1631707712173
 31
0.0
  0
LINE
  5
457
330
18
100
AcDbEntity
  8
1
  6
Continuous
100
AcDbLine
 10
272.8808869864552
 20
150.0921557712171
 30
0.0
 11
272.7492299864551
 21
150.1362227712172
 31
0.0
  0
LINE
  5
458
330
18
100
AcDbEntity
  8
1
  6
Continuous
100
AcDbLine
 10
272.9998639864551
 20
150.0324187712173
 30
0.0
 11
272.8808869864552
 21
150.0921557712171
 31
0.0
  0
LINE
  5
459
330
18
100
AcDbEntity
  8
1
  6
Continuous
100
AcDbLine
 10
273.1025809864551
 20
149.9587327712172
 30
0.0
 11
272.9998639864551
 21
150.0324187712173
 31
0.0
  0
LINE
  5
45A
330
18
100
AcDbEntity
  8
1
  6
Continuous
100
AcDbLine
 10
273.1859149864552
 20
149.8733607712172
 30
0.0
 11
273.1025809864551
 21
149.9587327712172
 31
0.0
  0
LINE
  5
45B
330
18
100
AcDbEntity
  8
1
  6
Continuous
100
AcDbLine
 10
273.2472819864552
 20
149.7789317712173
 30
0.0
 11
273.1859149864552
 21
149.8733607712172
 31
0.0
  0
LINE
  5
45C
330
18
100
AcDbEntity
  8
1
  6
Continuous
100
AcDbLine
 10
273.284872986455
 20
149.6782517712172
 30
0.0
 11
273.2472819864552
 21
149.7789317712173
 31
0.0
  0
LINE
  5
45D
330
18
100
AcDbEntity
  8
1
  6
Continuous
100
AcDbLine
 10
273.2975539864552
 20
149.5744477712171
 30
0.0
 11
273.284872986455
 21
149.6782517712172
 31
0.0
  0
LINE
  5
45E
330
18
100
AcDbEntity
  8
1
  6
Continuous
100
AcDbLine
 10
271.737770986455
 20
149.7419747712172
 30
0.0
 11
271.6417569864553
 21
149.5699187712173
 31
0.0
  0
LINE
  5
45F
330
18
100
AcDbEntity
  8
1
  6
Continuous
100
AcDbLine
 10
271.8561139864551
 20
149.8904347712173
 30
0.0
 11
271.737770986455
 21
149.7419747712172
 31
0.0
  0
LINE
  5
460
330
18
100
AcDbEntity
  8
1
  6
Continuous
100
AcDbLine
 10
271.9932059864551
 20
150.0108607712173
 30
0.0
 11
271.8561139864551
 21
149.8904347712173
 31
0.0
  0
LINE
  5
461
330
18
100
AcDbEntity
  8
1
  6
Continuous
100
AcDbLine
 10
272.144881986455
 20
150.0996287712172
 30
0.0
 11
271.9932059864551
 21
150.0108607712173
 31
0.0
  0
LINE
  5
462
330
18
100
AcDbEntity
  8
1
  6
Continuous
100
AcDbLine
 10
272.3065669864551
 20
150.1539767712172
 30
0.0
 11
272.144881986455
 21
150.0996287712172
 31
0.0
  0
LINE
  5
463
330
18
100
AcDbEntity
  8
1
  6
Continuous
100
AcDbLine
 10
272.473278986455
 20
150.1722737712171
 30
0.0
 11
272.3065669864551
 21
150.1539767712172
 31
0.0
  0
LINE
  5
464
330
18
100
AcDbEntity
  8
1
  6
Continuous
100
AcDbLine
 10
270.7771279864551
 20
149.6657517712173
 30
0.0
 11
270.870968986455
 21
149.4916127712172
 31
0.0
  0
LINE
  5
465
330
18
100
AcDbEntity
  8
1
  6
Continuous
100
AcDbLine
 10
270.6590579864552
 20
149.8191937712171
 30
0.0
 11
270.7771279864551
 21
149.6657517712173
 31
0.0
  0
LINE
  5
466
330
18
100
AcDbEntity
  8
1
  6
Continuous
100
AcDbLine
 10
270.5201989864552
 20
149.9474547712172
 30
0.0
 11
270.6590579864552
 21
149.8191937712171
 31
0.0
  0
LINE
  5
467
330
18
100
AcDbEntity
  8
1
  6
Continuous
100
AcDbLine
 10
278.0448369864551
 20
149.7115407712173
 30
0.0
 11
277.948821986455
 21
149.5394837712173
 31
0.0
  0
LINE
  5
468
330
18
100
AcDbEntity
  8
1
  6
Continuous
100
AcDbLine
 10
278.1631789864551
 20
149.8600007712173
 30
0.0
 11
278.0448369864551
 21
149.7115407712173
 31
0.0
  0
LINE
  5
469
330
18
100
AcDbEntity
  8
1
  6
Continuous
100
AcDbLine
 10
282.2169379864552
 20
148.7987227712173
 30
0.0
 11
281.3748639864551
 21
150.2617667712172
 31
0.0
  0
LINE
  5
46A
330
18
100
AcDbEntity
  8
1
  6
Continuous
100
AcDbLine
 10
282.2169379864552
 20
148.7941937712171
 30
0.0
 11
283.0652169864551
 21
150.2634427712173
 31
0.0
  0
LINE
  5
46B
330
18
100
AcDbEntity
  8
1
  6
Continuous
100
AcDbLine
 10
280.468749986455
 20
150.2434697712172
 30
0.0
 11
280.468749986455
 21
147.6166577712173
 31
0.0
  0
LINE
  5
46C
330
18
100
AcDbEntity
  8
1
  6
Continuous
100
AcDbLine
 10
284.5493659864552
 20
150.1800637712173
 30
0.0
 11
283.557517986455
 21
147.6257157712173
 31
0.0
  0
LINE
  5
46D
330
18
100
AcDbEntity
  8
1
  6
Continuous
100
AcDbLine
 10
284.5493659864552
 20
150.1845927712173
 30
0.0
 11
285.495923986455
 21
147.6257157712173
 31
0.0
  0
LINE
  5
46E
330
18
100
AcDbEntity
  8
1
  6
Continuous
100
AcDbLine
 10
280.8206749864551
 20
144.2378017712172
 30
0.0
 11
280.8104069864551
 21
144.1323177712173
 31
0.0
  0
LINE
  5
46F
330
18
100
AcDbEntity
  8
1
  6
Continuous
100
AcDbLine
 10
280.2828399864551
 20
144.7306577712172
 30
0.0
 11
280.1698349864551
 21
144.7199067712173
 31
0.0
  0
LINE
  5
470
330
18
100
AcDbEntity
  8
1
  6
Continuous
100
AcDbLine
 10
280.3894819864552
 20
144.7614637712173
 30
0.0
 11
280.2828399864551
 21
144.7306577712172
 31
0.0
  0
LINE
  5
471
330
18
100
AcDbEntity
  8
1
  6
Continuous
100
AcDbLine
 10
280.4897589864552
 20
144.8114577712173
 30
0.0
 11
280.3894819864552
 21
144.7614637712173
 31
0.0
  0
LINE
  5
472
330
18
100
AcDbEntity
  8
1
  6
Continuous
100
AcDbLine
 10
280.5808769864553
 20
144.8791457712172
 30
0.0
 11
280.4897589864552
 21
144.8114577712173
 31
0.0
  0
LINE
  5
473
330
18
100
AcDbEntity
  8
1
  6
Continuous
100
AcDbLine
 10
280.6601829864551
 20
144.9625977712172
 30
0.0
 11
280.5808769864553
 21
144.8791457712172
 31
0.0
  0
LINE
  5
474
330
18
100
AcDbEntity
  8
1
  6
Continuous
100
AcDbLine
 10
280.7254119864552
 20
145.0595007712172
 30
0.0
 11
280.6601829864551
 21
144.9625977712172
 31
0.0
  0
LINE
  5
475
330
18
100
AcDbEntity
  8
1
  6
Continuous
100
AcDbLine
 10
280.7746829864551
 20
145.1669617712173
 30
0.0
 11
280.7254119864552
 21
145.0595007712172
 31
0.0
  0
LINE
  5
476
330
18
100
AcDbEntity
  8
1
  6
Continuous
100
AcDbLine
 10
280.8065979864551
 20
145.2819437712173
 30
0.0
 11
280.7746829864551
 21
145.1669617712173
 31
0.0
  0
LINE
  5
477
330
18
100
AcDbEntity
  8
1
  6
Continuous
100
AcDbLine
 10
280.820192986455
 20
145.4011197712172
 30
0.0
 11
280.8065979864551
 21
145.2819437712173
 31
0.0
  0
LINE
  5
478
330
18
100
AcDbEntity
  8
1
  6
Continuous
100
AcDbLine
 10
280.8150829864549
 20
145.5211157712173
 30
0.0
 11
280.820192986455
 21
145.4011197712172
 31
0.0
  0
LINE
  5
479
330
18
100
AcDbEntity
  8
1
  6
Continuous
100
AcDbLine
 10
280.7915079864552
 20
145.6384107712173
 30
0.0
 11
280.8150829864549
 21
145.5211157712173
 31
0.0
  0
LINE
  5
47A
330
18
100
AcDbEntity
  8
1
  6
Continuous
100
AcDbLine
 10
280.7499989864551
 20
145.7497287712172
 30
0.0
 11
280.7915079864552
 21
145.6384107712173
 31
0.0
  0
LINE
  5
47B
330
18
100
AcDbEntity
  8
1
  6
Continuous
100
AcDbLine
 10
280.6919049864551
 20
145.8517907712173
 30
0.0
 11
280.7499989864551
 21
145.7497287712172
 31
0.0
  0
LINE
  5
47C
330
18
100
AcDbEntity
  8
1
  6
Continuous
100
AcDbLine
 10
280.6187699864553
 20
145.9417027712172
 30
0.0
 11
280.6919049864551
 21
145.8517907712173
 31
0.0
  0
LINE
  5
47D
330
18
100
AcDbEntity
  8
1
  6
Continuous
100
AcDbLine
 10
280.532714986455
 20
146.0169107712172
 30
0.0
 11
280.6187699864553
 21
145.9417027712172
 31
0.0
  0
LINE
  5
47E
330
18
100
AcDbEntity
  8
1
  6
Continuous
100
AcDbLine
 10
280.436293986455
 20
146.0751977712173
 30
0.0
 11
280.532714986455
 21
146.0169107712172
 31
0.0
  0
LINE
  5
47F
330
18
100
AcDbEntity
  8
1
  6
Continuous
100
AcDbLine
 10
280.3321589864552
 20
146.1148747712172
 30
0.0
 11
280.436293986455
 21
146.0751977712173
 31
0.0
  0
LINE
  5
480
330
18
100
AcDbEntity
  8
1
  6
Continuous
100
AcDbLine
 10
280.223444986455
 20
146.1348817712173
 30
0.0
 11
280.3321589864552
 21
146.1148747712172
 31
0.0
  0
LINE
  5
481
330
18
100
AcDbEntity
  8
1
  6
Continuous
100
AcDbLine
 10
280.113090986455
 20
146.1345927712173
 30
0.0
 11
280.223444986455
 21
146.1348817712173
 31
0.0
  0
LINE
  5
482
330
18
100
AcDbEntity
  8
1
  6
Continuous
100
AcDbLine
 10
280.0044249864551
 20
146.1140067712173
 30
0.0
 11
280.113090986455
 21
146.1345927712173
 31
0.0
  0
LINE
  5
483
330
18
100
AcDbEntity
  8
1
  6
Continuous
100
AcDbLine
 10
279.9005319864551
 20
146.0737507712173
 30
0.0
 11
280.0044249864551
 21
146.1140067712173
 31
0.0
  0
LINE
  5
484
330
18
100
AcDbEntity
  8
1
  6
Continuous
100
AcDbLine
 10
279.8043039864552
 20
146.0149827712172
 30
0.0
 11
279.9005319864551
 21
146.0737507712173
 31
0.0
  0
LINE
  5
485
330
18
100
AcDbEntity
  8
1
  6
Continuous
100
AcDbLine
 10
279.718633986455
 20
145.9393407712173
 30
0.0
 11
279.8043039864552
 21
146.0149827712172
 31
0.0
  0
LINE
  5
486
330
18
100
AcDbEntity
  8
1
  6
Continuous
100
AcDbLine
 10
279.645883986455
 20
145.8490427712173
 30
0.0
 11
279.718633986455
 21
145.9393407712173
 31
0.0
  0
LINE
  5
487
330
18
100
AcDbEntity
  8
1
  6
Continuous
100
AcDbLine
 10
279.5882239864551
 20
145.7466437712171
 30
0.0
 11
279.645883986455
 21
145.8490427712173
 31
0.0
  0
LINE
  5
488
330
18
100
AcDbEntity
  8
1
  6
Continuous
100
AcDbLine
 10
279.5472459864551
 20
145.6351327712172
 30
0.0
 11
279.5882239864551
 21
145.7466437712171
 31
0.0
  0
LINE
  5
489
330
18
100
AcDbEntity
  8
1
  6
Continuous
100
AcDbLine
 10
279.524152986455
 20
145.5176927712173
 30
0.0
 11
279.5472459864551
 21
145.6351327712172
 31
0.0
  0
LINE
  5
48A
330
18
100
AcDbEntity
  8
1
  6
Continuous
100
AcDbLine
 10
279.5196209864551
 20
145.3976967712172
 30
0.0
 11
279.524152986455
 21
145.5176927712173
 31
0.0
  0
LINE
  5
48B
330
18
100
AcDbEntity
  8
1
  6
Continuous
100
AcDbLine
 10
279.5337469864552
 20
145.2785687712172
 30
0.0
 11
279.5196209864551
 21
145.3976967712172
 31
0.0
  0
LINE
  5
48C
330
18
100
AcDbEntity
  8
1
  6
Continuous
100
AcDbLine
 10
279.5661439864551
 20
145.1637797712173
 30
0.0
 11
279.5337469864552
 21
145.2785687712172
 31
0.0
  0
LINE
  5
48D
330
18
100
AcDbEntity
  8
1
  6
Continuous
100
AcDbLine
 10
279.6158969864551
 20
145.0565597712172
 30
0.0
 11
279.5661439864551
 21
145.1637797712173
 31
0.0
  0
LINE
  5
48E
330
18
100
AcDbEntity
  8
1
  6
Continuous
100
AcDbLine
 10
279.6815599864552
 20
144.9600427712173
 30
0.0
 11
279.6158969864551
 21
145.0565597712172
 31
0.0
  0
LINE
  5
48F
330
18
100
AcDbEntity
  8
1
  6
Continuous
100
AcDbLine
 10
279.7612519864552
 20
144.8769757712172
 30
0.0
 11
279.6815599864552
 21
144.9600427712173
 31
0.0
  0
LINE
  5
490
330
18
100
AcDbEntity
  8
1
  6
Continuous
100
AcDbLine
 10
279.8526589864551
 20
144.8097707712173
 30
0.0
 11
279.7612519864552
 21
144.8769757712172
 31
0.0
  0
LINE
  5
491
330
18
100
AcDbEntity
  8
1
  6
Continuous
100
AcDbLine
 10
279.9531769864553
 20
144.7603067712172
 30
0.0
 11
279.8526589864551
 21
144.8097707712173
 31
0.0
  0
LINE
  5
492
330
18
100
AcDbEntity
  8
1
  6
Continuous
100
AcDbLine
 10
280.059914986455
 20
144.7300787712173
 30
0.0
 11
279.9531769864553
 21
144.7603067712172
 31
0.0
  0
LINE
  5
493
330
18
100
AcDbEntity
  8
1
  6
Continuous
100
AcDbLine
 10
280.1698349864551
 20
144.7199067712173
 30
0.0
 11
280.059914986455
 21
144.7300787712173
 31
0.0
  0
LINE
  5
494
330
18
100
AcDbEntity
  8
1
  6
Continuous
100
AcDbLine
 10
278.451946986455
 20
147.8037957712173
 30
0.0
 11
278.300270986455
 21
147.8925637712172
 31
0.0
  0
LINE
  5
495
330
18
100
AcDbEntity
  8
1
  6
Continuous
100
AcDbLine
 10
278.613631986455
 20
147.7494477712172
 30
0.0
 11
278.451946986455
 21
147.8037957712173
 31
0.0
  0
LINE
  5
496
330
18
100
AcDbEntity
  8
1
  6
Continuous
100
AcDbLine
 10
278.7803439864552
 20
147.7311507712173
 30
0.0
 11
278.613631986455
 21
147.7494477712172
 31
0.0
  0
LINE
  5
497
330
18
100
AcDbEntity
  8
1
  6
Continuous
100
AcDbLine
 10
278.9461499864552
 20
147.7445567712173
 30
0.0
 11
278.7803439864552
 21
147.7311507712173
 31
0.0
  0
LINE
  5
498
330
18
100
AcDbEntity
  8
1
  6
Continuous
100
AcDbLine
 10
279.1068839864552
 20
147.7843207712173
 30
0.0
 11
278.9461499864552
 21
147.7445567712173
 31
0.0
  0
LINE
  5
499
330
18
100
AcDbEntity
  8
1
  6
Continuous
100
AcDbLine
 10
279.2576989864552
 20
147.8493117712172
 30
0.0
 11
279.1068839864552
 21
147.7843207712173
 31
0.0
  0
LINE
  5
49A
330
18
100
AcDbEntity
  8
1
  6
Continuous
100
AcDbLine
 10
279.394020986455
 20
147.9374917712172
 30
0.0
 11
279.2576989864552
 21
147.8493117712172
 31
0.0
  0
LINE
  5
49B
330
18
100
AcDbEntity
  8
1
  6
Continuous
100
AcDbLine
 10
279.5116849864551
 20
148.0461867712173
 30
0.0
 11
279.394020986455
 21
147.9374917712172
 31
0.0
  0
LINE
  5
49C
330
18
100
AcDbEntity
  8
1
  6
Continuous
100
AcDbLine
 10
279.6071559864552
 20
148.1720927712172
 30
0.0
 11
279.5116849864551
 21
148.0461867712173
 31
0.0
  0
LINE
  5
49D
330
18
100
AcDbEntity
  8
1
  6
Continuous
100
AcDbLine
 10
279.6774909864551
 20
148.3114047712173
 30
0.0
 11
279.6071559864552
 21
148.1720927712172
 31
0.0
  0
LINE
  5
49E
330
18
100
AcDbEntity
  8
1
  6
Continuous
100
AcDbLine
 10
279.7205609864551
 20
148.4599097712171
 30
0.0
 11
279.6774909864551
 21
148.3114047712173
 31
0.0
  0
LINE
  5
49F
330
18
100
AcDbEntity
  8
1
  6
Continuous
100
AcDbLine
 10
279.7350539864552
 20
148.6130347712172
 30
0.0
 11
279.7205609864551
 21
148.4599097712171
 31
0.0
  0
LINE
  5
4A0
330
18
100
AcDbEntity
  8
1
  6
Continuous
100
AcDbLine
 10
280.8206749864551
 20
145.4430627712171
 30
0.0
 11
280.8206749864551
 21
144.2378017712172
 31
0.0
  0
LINE
  5
4A1
330
18
100
AcDbEntity
  8
1
  6
Continuous
100
AcDbLine
 10
279.744111986455
 20
148.8032517712172
 30
0.0
 11
279.744111986455
 21
147.6347737712172
 31
0.0
  0
LINE
  5
4A2
330
18
100
AcDbEntity
  8
1
  6
Continuous
100
AcDbLine
 10
278.865488986455
 20
148.8032517712172
 30
0.0
 11
279.744111986455
 21
148.8032517712172
 31
0.0
  0
LINE
  5
4A3
330
18
100
AcDbEntity
  8
1
  6
Continuous
100
AcDbLine
 10
282.6312149864551
 20
145.1989897712172
 30
0.0
 11
282.7416819864552
 21
145.2052517712173
 31
0.0
  0
LINE
  5
4A4
330
18
100
AcDbEntity
  8
1
  6
Continuous
100
AcDbLine
 10
282.5241239864552
 20
145.1804477712173
 30
0.0
 11
282.6312149864551
 21
145.1989897712172
 31
0.0
  0
LINE
  5
4A5
330
18
100
AcDbEntity
  8
1
  6
Continuous
100
AcDbLine
 10
282.4236869864552
 20
145.1502137712173
 30
0.0
 11
282.5241239864552
 21
145.1804477712173
 31
0.0
  0
LINE
  5
4A6
330
18
100
AcDbEntity
  8
1
  6
Continuous
100
AcDbLine
 10
282.3328869864552
 20
145.1091187712173
 30
0.0
 11
282.4236869864552
 21
145.1502137712173
 31
0.0
  0
LINE
  5
4A7
330
18
100
AcDbEntity
  8
1
  6
Continuous
100
AcDbLine
 10
282.2544649864549
 20
145.0584357712173
 30
0.0
 11
282.3328869864552
 21
145.1091187712173
 31
0.0
  0
LINE
  5
4A8
330
18
100
AcDbEntity
  8
1
  6
Continuous
100
AcDbLine
 10
282.1909149864552
 20
144.9997777712173
 30
0.0
 11
282.2544649864549
 21
145.0584357712173
 31
0.0
  0
LINE
  5
4A9
330
18
100
AcDbEntity
  8
1
  6
Continuous
100
AcDbLine
 10
282.1440469864552
 20
144.9348577712173
 30
0.0
 11
282.1909149864552
 21
144.9997777712173
 31
0.0
  0
LINE
  5
4AA
330
18
100
AcDbEntity
  8
1
  6
Continuous
100
AcDbLine
 10
282.1153299864551
 20
144.8656327712173
 30
0.0
 11
282.1440469864552
 21
144.9348577712173
 31
0.0
  0
LINE
  5
4AB
330
18
100
AcDbEntity
  8
1
  6
Continuous
100
AcDbLine
 10
282.1056919864551
 20
144.7943047712173
 30
0.0
 11
282.1153299864551
 21
144.8656327712173
 31
0.0
  0
LINE
  5
4AC
330
18
100
AcDbEntity
  8
1
  6
Continuous
100
AcDbLine
 10
282.115672986455
 20
144.1554777712173
 30
0.0
 11
282.1056919864551
 21
144.2659447712172
 31
0.0
  0
LINE
  5
4AD
330
18
100
AcDbEntity
  8
1
  6
Continuous
100
AcDbLine
 10
283.416172986455
 20
144.5503297712173
 30
0.0
 11
283.4265929864551
 21
144.4127107712173
 31
0.0
  0
LINE
  5
4AE
330
18
100
AcDbEntity
  8
1
  6
Continuous
100
AcDbLine
 10
283.3852539864552
 20
144.6837887712173
 30
0.0
 11
283.416172986455
 21
144.5503297712173
 31
0.0
  0
LINE
  5
4AF
330
18
100
AcDbEntity
  8
1
  6
Continuous
100
AcDbLine
 10
283.3347169864552
 20
144.8089807712173
 30
0.0
 11
283.3852539864552
 21
144.6837887712173
 31
0.0
  0
LINE
  5
4B0
330
18
100
AcDbEntity
  8
1
  6
Continuous
100
AcDbLine
 10
283.2661279864552
 20
144.9221387712173
 30
0.0
 11
283.3347169864552
 21
144.8089807712173
 31
0.0
  0
LINE
  5
4B1
330
18
100
AcDbEntity
  8
1
  6
Continuous
100
AcDbLine
 10
283.1816389864552
 20
145.0198357712173
 30
0.0
 11
283.2661279864552
 21
144.9221387712173
 31
0.0
  0
LINE
  5
4B2
330
18
100
AcDbEntity
  8
1
  6
Continuous
100
AcDbLine
 10
283.0836969864552
 20
145.0990897712173
 30
0.0
 11
283.1816389864552
 21
145.0198357712173
 31
0.0
  0
LINE
  5
4B3
330
18
100
AcDbEntity
  8
1
  6
Continuous
100
AcDbLine
 10
282.9753339864552
 20
145.1574547712173
 30
0.0
 11
283.0836969864552
 21
145.0990897712173
 31
0.0
  0
LINE
  5
4B4
330
18
100
AcDbEntity
  8
1
  6
Continuous
100
AcDbLine
 10
282.8598779864552
 20
145.1932167712173
 30
0.0
 11
282.9753339864552
 21
145.1574547712173
 31
0.0
  0
LINE
  5
4B5
330
18
100
AcDbEntity
  8
1
  6
Continuous
100
AcDbLine
 10
282.7408009864551
 20
145.2052517712173
 30
0.0
 11
282.8598779864552
 21
145.1932167712173
 31
0.0
  0
LINE
  5
4B6
330
18
100
AcDbEntity
  8
1
  6
Continuous
100
AcDbLine
 10
283.4164659864551
 20
144.2768047712171
 30
0.0
 11
283.3864769864552
 21
144.1450087712172
 31
0.0
  0
LINE
  5
4B7
330
18
100
AcDbEntity
  8
1
  6
Continuous
100
AcDbLine
 10
283.4265929864551
 20
144.4127107712173
 30
0.0
 11
283.4164659864551
 21
144.2768047712171
 31
0.0
  0
LINE
  5
4B8
330
18
100
AcDbEntity
  8
1
  6
Continuous
100
AcDbLine
 10
284.2587679864551
 20
145.0946017712172
 30
0.0
 11
284.244184986455
 21
144.8854077712172
 31
0.0
  0
LINE
  5
4B9
330
18
100
AcDbEntity
  8
1
  6
Continuous
100
AcDbLine
 10
284.3021099864551
 20
145.2974547712172
 30
0.0
 11
284.2587679864551
 21
145.0946017712172
 31
0.0
  0
LINE
  5
4BA
330
18
100
AcDbEntity
  8
1
  6
Continuous
100
AcDbLine
 10
284.3728079864551
 20
145.4877627712173
 30
0.0
 11
284.3021099864551
 21
145.2974547712172
 31
0.0
  0
LINE
  5
4BB
330
18
100
AcDbEntity
  8
1
  6
Continuous
100
AcDbLine
 10
284.4688219864552
 20
145.6598187712172
 30
0.0
 11
284.3728079864551
 21
145.4877627712173
 31
0.0
  0
LINE
  5
4BC
330
18
100
AcDbEntity
  8
1
  6
Continuous
100
AcDbLine
 10
284.5871649864551
 20
145.8082797712173
 30
0.0
 11
284.4688219864552
 21
145.6598187712172
 31
0.0
  0
LINE
  5
4BD
330
18
100
AcDbEntity
  8
1
  6
Continuous
100
AcDbLine
 10
284.7242569864551
 20
145.9287047712173
 30
0.0
 11
284.5871649864551
 21
145.8082797712173
 31
0.0
  0
LINE
  5
4BE
330
18
100
AcDbEntity
  8
1
  6
Continuous
100
AcDbLine
 10
284.8759329864552
 20
146.0174727712173
 30
0.0
 11
284.7242569864551
 21
145.9287047712173
 31
0.0
  0
LINE
  5
4BF
330
18
100
AcDbEntity
  8
1
  6
Continuous
100
AcDbLine
 10
285.037617986455
 20
146.0718207712172
 30
0.0
 11
284.8759329864552
 21
146.0174727712173
 31
0.0
  0
LINE
  5
4C0
330
18
100
AcDbEntity
  8
1
  6
Continuous
100
AcDbLine
 10
285.2043289864551
 20
146.0901177712173
 30
0.0
 11
285.037617986455
 21
146.0718207712172
 31
0.0
  0
LINE
  5
4C1
330
18
100
AcDbEntity
  8
1
  6
Continuous
100
AcDbLine
 10
284.2587679864551
 20
144.674945771217
 30
0.0
 11
284.244184986455
 21
144.8841397712173
 31
0.0
  0
LINE
  5
4C2
330
18
100
AcDbEntity
  8
1
  6
Continuous
100
AcDbLine
 10
284.3021099864551
 20
144.4720927712173
 30
0.0
 11
284.2587679864551
 21
144.674945771217
 31
0.0
  0
LINE
  5
4C3
330
18
100
AcDbEntity
  8
1
  6
Continuous
100
AcDbLine
 10
284.3728079864551
 20
144.2817847712172
 30
0.0
 11
284.3021099864551
 21
144.4720927712173
 31
0.0
  0
LINE
  5
4C4
330
18
100
AcDbEntity
  8
1
  6
Continuous
100
AcDbLine
 10
284.4688219864552
 20
144.1097287712173
 30
0.0
 11
284.3728079864551
 21
144.2817847712172
 31
0.0
  0
LINE
  5
4C5
330
18
100
AcDbEntity
  8
1
  6
Continuous
100
AcDbLine
 10
282.0861239864551
 20
146.1347737712172
 30
0.0
 11
283.3874549864552
 21
146.1347737712172
 31
0.0
  0
LINE
  5
4C6
330
18
100
AcDbEntity
  8
1
  6
Continuous
100
AcDbLine
 10
282.095907986455
 20
146.1347737712172
 30
0.0
 11
282.095907986455
 21
144.7943047712173
 31
0.0
  0
LINE
  5
4C7
330
18
100
AcDbEntity
  8
1
  6
Continuous
100
AcDbLine
 10
285.339972986455
 20
146.0810147712173
 30
0.0
 11
285.195270986455
 21
146.0901177712173
 31
0.0
  0
LINE
  5
4C8
330
18
100
AcDbEntity
  8
1
  6
Continuous
100
AcDbLine
 10
285.4802809864551
 20
146.0540677712173
 30
0.0
 11
285.339972986455
 21
146.0810147712173
 31
0.0
  0
LINE
  5
4C9
330
18
100
AcDbEntity
  8
1
  6
Continuous
100
AcDbLine
 10
285.611937986455
 20
146.0100007712173
 30
0.0
 11
285.4802809864551
 21
146.0540677712173
 31
0.0
  0
LINE
  5
4CA
330
18
100
AcDbEntity
  8
1
  6
Continuous
100
AcDbLine
 10
285.7309149864551
 20
145.9502627712172
 30
0.0
 11
285.611937986455
 21
146.0100007712173
 31
0.0
  0
LINE
  5
4CB
330
18
100
AcDbEntity
  8
1
  6
Continuous
100
AcDbLine
 10
285.8336319864553
 20
145.8765767712173
 30
0.0
 11
285.7309149864551
 21
145.9502627712172
 31
0.0
  0
LINE
  5
4CC
330
18
100
AcDbEntity
  8
1
  6
Continuous
100
AcDbLine
 10
282.2169379864552
 20
148.7941937712171
 30
0.0
 11
282.2169379864552
 21
147.6166577712173
 31
0.0
  0
LINE
  5
4CD
330
18
100
AcDbEntity
  8
1
  6
Continuous
100
AcDbLine
 10
283.8564309864551
 20
148.3775277712173
 30
0.0
 11
285.2196559864552
 21
148.3775277712173
 31
0.0
  0
LINE
  5
4CE
330
18
100
AcDbEntity
  8
1
  6
Continuous
100
AcDbLine
 10
278.9159869864551
 20
150.1327357712173
 30
0.0
 11
278.7712859864549
 21
150.1418387712173
 31
0.0
  0
LINE
  5
4CF
330
18
100
AcDbEntity
  8
1
  6
Continuous
100
AcDbLine
 10
279.0562949864553
 20
150.1057887712173
 30
0.0
 11
278.9159869864551
 21
150.1327357712173
 31
0.0
  0
LINE
  5
4D0
330
18
100
AcDbEntity
  8
1
  6
Continuous
100
AcDbLine
 10
279.1879529864551
 20
150.0617217712173
 30
0.0
 11
279.0562949864553
 21
150.1057887712173
 31
0.0
  0
LINE
  5
4D1
330
18
100
AcDbEntity
  8
1
  6
Continuous
100
AcDbLine
 10
279.3069289864553
 20
150.0019837712172
 30
0.0
 11
279.1879529864551
 21
150.0617217712173
 31
0.0
  0
LINE
  5
4D2
330
18
100
AcDbEntity
  8
1
  6
Continuous
100
AcDbLine
 10
279.4096459864551
 20
149.9282977712172
 30
0.0
 11
279.3069289864553
 21
150.0019837712172
 31
0.0
  0
LINE
  5
4D3
330
18
100
AcDbEntity
  8
1
  6
Continuous
100
AcDbLine
 10
279.4929799864552
 20
149.8429257712173
 30
0.0
 11
279.4096459864551
 21
149.9282977712172
 31
0.0
  0
LINE
  5
4D4
330
18
100
AcDbEntity
  8
1
  6
Continuous
100
AcDbLine
 10
279.5543479864551
 20
149.7484967712171
 30
0.0
 11
279.4929799864552
 21
149.8429257712173
 31
0.0
  0
LINE
  5
4D5
330
18
100
AcDbEntity
  8
1
  6
Continuous
100
AcDbLine
 10
279.5919379864552
 20
149.6478177712172
 30
0.0
 11
279.5543479864551
 21
149.7484967712171
 31
0.0
  0
LINE
  5
4D6
330
18
100
AcDbEntity
  8
1
  6
Continuous
100
AcDbLine
 10
279.6046189864549
 20
149.5440127712173
 30
0.0
 11
279.5919379864552
 21
149.6478177712172
 31
0.0
  0
LINE
  5
4D7
330
18
100
AcDbEntity
  8
1
  6
Continuous
100
AcDbLine
 10
278.451946986455
 20
150.069193771217
 30
0.0
 11
278.300270986455
 21
149.9804257712173
 31
0.0
  0
LINE
  5
4D8
330
18
100
AcDbEntity
  8
1
  6
Continuous
100
AcDbLine
 10
278.613631986455
 20
150.1235417712173
 30
0.0
 11
278.451946986455
 21
150.069193771217
 31
0.0
  0
LINE
  5
4D9
330
18
100
AcDbEntity
  8
1
  6
Continuous
100
AcDbLine
 10
278.7803439864552
 20
150.1418387712173
 30
0.0
 11
278.613631986455
 21
150.1235417712173
 31
0.0
  0
LINE
  5
4DA
330
18
100
AcDbEntity
  8
1
  6
Continuous
100
AcDbLine
 10
290.2043289864551
 20
146.1365007712171
 30
0.0
 11
290.2043289864551
 21
143.6365007712171
 31
0.0
  0
LINE
  5
4DB
330
18
100
AcDbEntity
  8
1
  6
Continuous
100
AcDbLine
 10
285.9873909864551
 20
144.0727717712173
 30
0.0
 11
285.9260229864549
 21
143.9783427712173
 31
0.0
  0
LINE
  5
4DC
330
18
100
AcDbEntity
  8
1
  6
Continuous
100
AcDbLine
 10
285.9783329864552
 20
145.6967757712173
 30
0.0
 11
285.9169649864551
 21
145.7912047712172
 31
0.0
  0
LINE
  5
4DD
330
18
100
AcDbEntity
  8
1
  6
Continuous
100
AcDbLine
 10
286.0159239864552
 20
145.5960967712172
 30
0.0
 11
285.9783329864552
 21
145.6967757712173
 31
0.0
  0
LINE
  5
4DE
330
18
100
AcDbEntity
  8
1
  6
Continuous
100
AcDbLine
 10
286.0286049864551
 20
145.4922917712173
 30
0.0
 11
286.0159239864552
 21
145.5960967712172
 31
0.0
  0
LINE
  5
4DF
330
18
100
AcDbEntity
  8
1
  6
Continuous
100
AcDbLine
 10
286.0249819864551
 20
144.1734517712172
 30
0.0
 11
285.9873909864551
 21
144.0727717712173
 31
0.0
  0
LINE
  5
4E0
330
18
100
AcDbEntity
  8
1
  6
Continuous
100
AcDbLine
 10
286.037662986455
 20
144.2772557712173
 30
0.0
 11
286.0249819864551
 21
144.1734517712172
 31
0.0
  0
LINE
  5
4E1
330
18
100
AcDbEntity
  8
1
  6
Continuous
100
AcDbLine
 10
287.3127669864551
 20
144.8847737712172
 30
0.0
 11
288.095891986455
 21
144.8847737712172
 31
0.0
  0
LINE
  5
4E2
330
18
100
AcDbEntity
  8
1
  6
Continuous
100
AcDbLine
 10
290.2043289864551
 20
146.1365007712171
 30
0.0
 11
289.9284669864549
 21
145.8692597712172
 31
0.0
  0
LINE
  5
4E4
330
18
100
AcDbEntity
  8
4
  6
CENTER
100
AcDbLine
 10
304.9543289864551
 20
122.1347737712173
 30
0.0
 11
304.9543289864551
 21
129.6347737712173
 31
0.0
  0
CIRCLE
  5
4E5
330
18
100
AcDbEntity
  8
1
  6
Continuous
100
AcDbCircle
 10
304.9543289864551
 20
125.8847737712172
 30
0.0
 40
1.75
  0
LINE
  5
4FB
330
18
100
AcDbEntity
  8
1
  6
Continuous
100
AcDbLine
 10
312.004328986455
 20
177.8847737712172
 30
0.0
 11
227.9043289864551
 21
177.8847737712172
 31
0.0
  0
LINE
  5
4FD
330
18
100
AcDbEntity
  8
4
  6
CENTER
100
AcDbLine
 10
238.7043289864551
 20
171.8847737712172
 30
0.0
 11
231.2043289864551
 21
171.8847737712172
 31
0.0
  0
LINE
  5
4FE
330
18
100
AcDbEntity
  8
4
  6
CENTER
100
AcDbLine
 10
234.9543289864551
 20
168.1347737712173
 30
0.0
 11
234.9543289864551
 21
175.6347737712172
 31
0.0
  0
CIRCLE
  5
4FF
330
18
100
AcDbEntity
  8
1
  6
Continuous
100
AcDbCircle
 10
234.9543289864551
 20
171.8847737712172
 30
0.0
 40
1.75
  0
LINE
  5
509
330
18
100
AcDbEntity
  8
4
  6
CENTER
100
AcDbLine
 10
308.7043289864551
 20
171.8847737712172
 30
0.0
 11
301.2043289864551
 21
171.8847737712172
 31
0.0
  0
LINE
  5
50B
330
18
100
AcDbEntity
  8
4
  6
CENTER
100
AcDbLine
 10
304.9543289864551
 20
168.1347737712173
 30
0.0
 11
304.9543289864551
 21
175.6347737712172
 31
0.0
  0
CIRCLE
  5
50C
330
18
100
AcDbEntity
  8
1
  6
Continuous
100
AcDbCircle
 10
304.9543289864551
 20
171.8847737712172
 30
0.0
 40
1.75
  0
LINE
  5
A33
330
18
100
AcDbEntity
  8
1
  6
Continuous
100
AcDbLine
 10
305.0543289864551
 20
164.6347737712172
 30
0.0
 11
234.8543289864551
 21
164.6347737712172
 31
0.0
  0
LINE
  5
A34
330
18
100
AcDbEntity
  8
1
  6
Continuous
100
AcDbLine
 10
305.0543289864551
 20
159.1347737712172
 30
0.0
 11
234.8543289864551
 21
159.1347737712172
 31
0.0
  0
ARC
  5
A35
330
18
100
AcDbEntity
  8
1
  6
Continuous
100
AcDbCircle
 10
234.8543289864551
 20
161.8847737712173
 30
0.0
 40
2.75
100
AcDbArc
 50
90.0
 51
270.0
  0
ARC
  5
A36
330
18
100
AcDbEntity
  8
1
  6
Continuous
100
AcDbCircle
 10
305.0543289864551
 20
161.8847737712173
 30
0.0
 40
2.75
100
AcDbArc
 50
270.0
 51
90.0
  0
LINE
  5
A6B
330
18
100
AcDbEntity
  8
1
  6
Continuous
100
AcDbLine
 10
305.0543289864551
 20
133.1347737712172
 30
0.0
 11
234.8543289864551
 21
133.1347737712172
 31
0.0
  0
ARC
  5
A6C
330
18
100
AcDbEntity
  8
1
  6
Continuous
100
AcDbCircle
 10
234.8543289864551
 20
135.8847737712173
 30
0.0
 40
2.75
100
AcDbArc
 50
90.0
 51
270.0
  0
LINE
  5
A6D
330
18
100
AcDbEntity
  8
1
  6
Continuous
100
AcDbLine
 10
305.0543289864551
 20
138.6347737712172
 30
0.0
 11
234.8543289864551
 21
138.6347737712172
 31
0.0
  0
ARC
  5
A6E
330
18
100
AcDbEntity
  8
1
  6
Continuous
100
AcDbCircle
 10
305.0543289864551
 20
135.8847737712173
 30
0.0
 40
2.75
100
AcDbArc
 50
270.0
 51
90.0
  0
ARC
  5
EB1
330
18
100
AcDbEntity
  8
1
  6
Continuous
100
AcDbCircle
 10
175.2599397353104
 20
161.8847737712173
 30
0.0
 40
3.16328125114484
100
AcDbArc
 50
299.6167540901488
 51
60.38324590985117
  0
ARC
  5
EC8
330
18
100
AcDbEntity
  8
1
  6
Continuous
100
AcDbCircle
 10
175.2599397353104
 20
135.8847737712171
 30
0.0
 40
3.16328125114484
100
AcDbArc
 50
299.6167540901488
 51
60.38324590985117
  0
LINE
  5
FEA
330
18
100
AcDbEntity
  8
1
  6
Continuous
100
AcDbLine
 10
101.1693829864552
 20
54.74383097206644
 30
0.0
 11
28.66938298645516
 21
54.74383097206644
 31
0.0
  0
LINE
  5
FEC
330
18
100
AcDbEntity
  8
1
  6
Continuous
100
AcDbLine
 10
104.5693829864551
 20
57.94383097206632
 30
0.0
 11
25.26938298645524
 21
57.94383097206632
 31
0.0
  0
LINE
  5
FED
330
18
100
AcDbEntity
  8
1
  6
Continuous
100
AcDbLine
 10
104.5693829864551
 20
56.34383097206643
 30
0.0
 11
25.26938298645524
 21
56.34383097206643
 31
0.0
  0
LINE
  5
FEF
330
18
100
AcDbEntity
  8
4
  6
CENTER
100
AcDbLine
 10
29.91938298645516
 20
51.74383097206643
 30
0.0
 11
29.91938298645516
 21
60.94383097206634
 31
0.0
  0
LINE
  5
FF0
330
18
100
AcDbEntity
  8
1
  6
Continuous
100
AcDbLine
 10
22.86938298645527
 20
58.74383097206643
 30
0.0
 11
22.86938298645527
 21
78.04383097206636
 31
0.0
  0
LINE
  5
FF1
330
18
100
AcDbEntity
  8
1
  6
Continuous
100
AcDbLine
 10
24.46938298645517
 20
58.74383097206643
 30
0.0
 11
24.46938298645517
 21
78.04383097206636
 31
0.0
  0
LINE
  5
FF3
330
18
100
AcDbEntity
  8
1
  6
Continuous
100
AcDbLine
 10
24.46938298645517
 20
78.04383097206636
 30
0.0
 11
22.86938298645527
 21
78.04383097206636
 31
0.0
  0
LINE
  5
FF4
330
18
100
AcDbEntity
  8
1
  6
Continuous
100
AcDbLine
 10
22.86938298645527
 20
78.04383097206636
 30
0.0
 11
24.46938298645517
 21
78.04383097206636
 31
0.0
  0
ARC
  5
FF5
330
18
100
AcDbEntity
  8
1
  6
Continuous
100
AcDbCircle
 10
25.26938298645524
 20
58.74383097206643
 30
0.0
 40
0.8
100
AcDbArc
 50
180.0
 51
270.0
  0
ARC
  5
FF6
330
18
100
AcDbEntity
  8
1
  6
Continuous
100
AcDbCircle
 10
25.26938298645524
 20
58.74383097206643
 30
0.0
 40
2.399999999999999
100
AcDbArc
 50
180.0
 51
270.0
  0
ARC
  5
FF7
330
18
100
AcDbEntity
  8
1
  6
Continuous
100
AcDbCircle
 10
28.66938298645516
 20
56.34383097206643
 30
0.0
 40
1.6
100
AcDbArc
 50
180.0
 51
270.0
  0
LINE
  5
FF8
330
18
100
AcDbEntity
  8
4
  6
CENTER
100
AcDbLine
 10
64.91938298645514
 20
62.94383097206632
 30
0.0
 11
64.91938298645514
 21
49.74383097206644
 31
0.0
  0
LINE
  5
FFA
330
18
100
AcDbEntity
  8
4
  6
CENTER
100
AcDbLine
 10
99.91938298645514
 20
51.74383097206643
 30
0.0
 11
99.91938298645514
 21
60.94383097206634
 31
0.0
  0
LINE
  5
FFB
330
18
100
AcDbEntity
  8
1
  6
Continuous
100
AcDbLine
 10
106.9693829864551
 20
58.74383097206643
 30
0.0
 11
106.9693829864551
 21
78.04383097206636
 31
0.0
  0
LINE
  5
FFC
330
18
100
AcDbEntity
  8
1
  6
Continuous
100
AcDbLine
 10
105.3693829864551
 20
58.74383097206643
 30
0.0
 11
105.3693829864551
 21
78.04383097206636
 31
0.0
  0
LINE
  5
FFF
330
18
100
AcDbEntity
  8
1
  6
Continuous
100
AcDbLine
 10
106.9693829864551
 20
78.04383097206636
 30
0.0
 11
105.3693829864551
 21
78.04383097206636
 31
0.0
  0
ARC
  5
1000
330
18
100
AcDbEntity
  8
1
  6
Continuous
100
AcDbCircle
 10
101.1693829864552
 20
56.34383097206643
 30
0.0
 40
1.6
100
AcDbArc
 50
270.0
 51
0.0
  0
ARC
  5
1001
330
18
100
AcDbEntity
  8
1
  6
Continuous
100
AcDbCircle
 10
104.5693829864551
 20
58.74383097206643
 30
0.0
 40
0.8
100
AcDbArc
 50
270.0
 51
0.0
  0
ARC
  5
1002
330
18
100
AcDbEntity
  8
1
  6
Continuous
100
AcDbCircle
 10
104.5693829864551
 20
58.74383097206643
 30
0.0
 40
2.399999999999999
100
AcDbArc
 50
270.0
 51
0.0
  0
LINE
  5
13CF
330
18
100
AcDbEntity
  8
4
  6
CENTER
100
AcDbLine
 10
102.8193829864552
 20
135.8847737714081
 30
0.0
 11
27.01938298645512
 21
135.8847737714081
 31
0.0
  0
LINE
  5
13D0
330
18
100
AcDbEntity
  8
4
  6
CENTER
100
AcDbLine
 10
102.8193829864551
 20
161.8847737710758
 30
0.0
 11
27.01938298645524
 21
161.8847737711187
 31
0.0
  0
ARC
  5
13D3
330
18
100
AcDbEntity
  8
1
  6
Continuous
100
AcDbCircle
 10
30.58266423645511
 20
135.8847737713322
 30
0.0
 40
1.563281249999989
100
AcDbArc
 50
90.0
 51
270.0
  0
ARC
  5
13D4
330
18
100
AcDbEntity
  8
1
  6
Continuous
100
AcDbCircle
 10
99.25610173645521
 20
135.8847737713322
 30
0.0
 40
1.563281250000045
100
AcDbArc
 50
270.0
 51
90.0
  0
ARC
  5
13D5
330
18
100
AcDbEntity
  8
1
  6
Continuous
100
AcDbCircle
 10
99.25610173645521
 20
161.8847737712159
 30
0.0
 40
1.563281249999988
100
AcDbArc
 50
270.0
 51
90.0
  0
ARC
  5
13D6
330
18
100
AcDbEntity
  8
1
  6
Continuous
100
AcDbCircle
 10
30.58266423645523
 20
161.8847737712159
 30
0.0
 40
1.563281249999988
100
AcDbArc
 50
90.0
 51
270.0
  0
LINE
  5
13D7
330
18
100
AcDbEntity
  8
1
  6
Continuous
100
AcDbLine
 10
99.25610173645521
 20
134.3214925213322
 30
0.0
 11
30.58266423645511
 21
134.3214925213322
 31
0.0
  0
LINE
  5
13D8
330
18
100
AcDbEntity
  8
1
  6
Continuous
100
AcDbLine
 10
99.25610173645521
 20
137.4480550213323
 30
0.0
 11
30.58266423645511
 21
137.4480550213323
 31
0.0
  0
LINE
  5
13D9
330
18
100
AcDbEntity
  8
1
  6
Continuous
100
AcDbLine
 10
99.25610173645521
 20
160.3214925212159
 30
0.0
 11
30.58266423645523
 21
160.3214925212159
 31
0.0
  0
LINE
  5
13DA
330
18
100
AcDbEntity
  8
1
  6
Continuous
100
AcDbLine
 10
99.25610173645521
 20
163.4480550212159
 30
0.0
 11
30.58266423645523
 21
163.4480550212159
 31
0.0
  0
ENDSEC
  0
SECTION
  2
OBJECTS
  0
DICTIONARY
  5
C
330
0
100
AcDbDictionary
281
     1
  3
ACAD_CIP_PREVIOUS_PRODUCT_INFO
350
17F3
  3
ACAD_COLOR
350
17D6
  3
ACAD_DETAILVIEWSTYLE
350
17EF
  3
ACAD_GROUP
350
D
  3
ACAD_LAYOUT
350
94
  3
ACAD_MATERIAL
350
17A4
  3
ACAD_MLEADERSTYLE
350
17EB
  3
ACAD_MLINESTYLE
350
1B
  3
ACAD_PLOTSETTINGS
350
95
  3
ACAD_PLOTSTYLENAME
350
17A2
  3
ACAD_SCALELIST
350
17D9
  3
ACAD_SECTIONVIEWSTYLE
350
17ED
  3
ACAD_TABLESTYLE
350
17D7
  3
ACAD_VISUALSTYLE
350
17BD
  3
ACDB_RECOMPOSE_DATA
350
1811
  3
AcDbVariableDictionary
350
1804
  3
CONTENTDICTIONARY
350
3D
  3
DWGPROPS
350
1812
  0
DICTIONARY
  5
17F4
330
E
100
AcDbDictionary
280
     1
281
     1
  3
ADSK_XREC_LAYER_RECONCILED
360
17F5
  0
DICTIONARY
  5
17F6
330
4E
100
AcDbDictionary
280
     1
281
     1
  3
ADSK_XREC_LAYER_RECONCILED
360
17F7
  0
DICTIONARY
  5
17F8
330
4F
100
AcDbDictionary
280
     1
281
     1
  3
ADSK_XREC_LAYER_RECONCILED
360
17F9
  0
DICTIONARY
  5
17FA
330
50
100
AcDbDictionary
280
     1
281
     1
  3
ADSK_XREC_LAYER_RECONCILED
360
17FB
  0
DICTIONARY
  5
17FC
330
51
100
AcDbDictionary
280
     1
281
     1
  3
ADSK_XREC_LAYER_RECONCILED
360
17FD
  0
DICTIONARY
  5
17FE
330
52
100
AcDbDictionary
280
     1
281
     1
  3
ADSK_XREC_LAYER_RECONCILED
360
17FF
  0
DICTIONARY
  5
1800
330
53
100
AcDbDictionary
280
     1
281
     1
  3
ADSK_XREC_LAYER_RECONCILED
360
1801
  0
DICTIONARY
  5
1802
330
54
100
AcDbDictionary
280
     1
281
     1
  3
ADSK_XREC_LAYER_RECONCILED
360
1803
  0
DICTIONARY
  5
179D
330
18
100
AcDbDictionary
281
     1
  3
ACAD_LAYOUTSELFREF
350
179E
  0
DICTIONARY
  5
179B
330
15
100
AcDbDictionary
281
     1
  3
ACAD_LAYOUTSELFREF
350
179C
  0
XRECORD
  5
17F3
102
{ACAD_REACTORS
330
C
102
}
330
C
100
AcDbXrecord
280
     1
300
ACDLT
300
2014
300
ACDLT_F_S
  0
DICTIONARY
  5
17D6
102
{ACAD_REACTORS
330
C
102
}
330
C
100
AcDbDictionary
281
     1
  0
DICTIONARY
  5
17EF
102
{ACAD_REACTORS
330
C
102
}
330
C
100
AcDbDictionary
281
     1
  3
Imperial24
350
17F0
  0
DICTIONARY
  5
D
102
{ACAD_REACTORS
330
C
102
}
330
C
100
AcDbDictionary
281
     1
  0
DICTIONARY
  5
94
102
{ACAD_REACTORS
330
C
102
}
330
C
100
AcDbDictionary
281
     1
  3
Model
350
17F1
  3
レイアウト1
350
17F2
  0
DICTIONARY
  5
17A4
102
{ACAD_REACTORS
330
C
102
}
330
C
100
AcDbDictionary
281
     1
  3
ByBlock
350
17AD
  3
ByLayer
350
17A5
  3
Global
350
17B5
  0
DICTIONARY
  5
17EB
102
{ACAD_REACTORS
330
C
102
}
330
C
100
AcDbDictionary
281
     1
  3
Standard
350
17EC
  0
DICTIONARY
  5
1B
102
{ACAD_REACTORS
330
C
102
}
330
C
100
AcDbDictionary
281
     1
  3
STANDARD
350
1C
  0
DICTIONARY
  5
95
102
{ACAD_REACTORS
330
C
102
}
330
C
100
AcDbDictionary
281
     1
  0
ACDBDICTIONARYWDFLT
  5
17A2
102
{ACAD_REACTORS
330
C
102
}
330
C
100
AcDbDictionary
281
     1
  3
Normal
350
17A3
100
AcDbDictionaryWithDefault
340
17A3
  0
DICTIONARY
  5
17D9
102
{ACAD_REACTORS
330
C
102
}
330
C
100
AcDbDictionary
281
     1
  3
A0
350
17DA
  3
A1
350
17DB
  3
A2
350
17DC
  3
A3
350
17DD
  3
A4
350
17DE
  3
A5
350
17DF
  3
A6
350
17E0
  3
A7
350
17E1
  3
A8
350
17E2
  3
A9
350
17E3
  3
B0
350
17E4
  3
B1
350
17E5
  3
B2
350
17E6
  3
B3
350
17E7
  3
B4
350
17E8
  3
B5
350
17E9
  3
B6
350
17EA
  0
DICTIONARY
  5
17ED
102
{ACAD_REACTORS
330
C
102
}
330
C
100
AcDbDictionary
281
     1
  3
Imperial24
350
17EE
  0
DICTIONARY
  5
17D7
102
{ACAD_REACTORS
330
C
102
}
330
C
100
AcDbDictionary
281
     1
  3
Standard
350
17D8
  0
DICTIONARY
  5
17BD
102
{ACAD_REACTORS
330
C
102
}
330
C
100
AcDbDictionary
281
     1
  3
2dWireframe
350
17C3
  3
Basic
350
17C2
  3
Brighten
350
17C9
  3
ColorChange
350
17CD
  3
Conceptual
350
17C6
  3
Dim
350
17C8
  3
EdgeColorOff
350
17D5
  3
Facepattern
350
17CC
  3
Flat
350
17BE
  3
FlatWithEdges
350
17BF
  3
Gouraud
350
17C0
  3
GouraudWithEdges
350
17C1
  3
Hidden
350
17C5
  3
JitterOff
350
17D3
  3
Linepattern
350
17CB
  3
OverhangOff
350
17D4
  3
Realistic
350
17C7
  3
Shaded
350
17D2
  3
Shaded with edges
350
17D1
  3
Shades of Gray
350
17CE
  3
Sketchy
350
17CF
  3
Thicken
350
17CA
  3
Wireframe
350
17C4
  3
X-Ray
350
17D0
  0
XRECORD
  5
1811
102
{ACAD_REACTORS
330
C
102
}
330
C
100
AcDbXrecord
280
     1
 90
        1
330
17D8
  0
DICTIONARY
  5
1804
102
{ACAD_REACTORS
330
C
102
}
330
C
100
AcDbDictionary
281
     1
  3
CANNOSCALE
350
1809
  3
CMLEADERSTYLE
350
1806
  3
CTABLESTYLE
350
1805
  3
CVIEWDETAILSTYLE
350
1807
  3
CVIEWSECTIONSTYLE
350
1808
  3
DIMASSOC
350
180C
  3
INDEXCTL
350
180B
  3
SORTENTS
350
180A
  3
XCLIPFRAME
350
180D
  0
DICTIONARY
  5
3D
102
{ACAD_REACTORS
330
C
102
}
330
C
100
AcDbDictionary
281
     1
  0
XRECORD
  5
1812
102
{ACAD_REACTORS
330
C
102
}
330
C
100
AcDbXrecord
280
     1
  1
DWGPROPS COOKIE
  2

  3

  4

  6

  7

  8
Yoshitsune
  9

300
=
301
=
302
=
303
=
304
=
305
=
306
=
307
=
308
=
309
=
 40
0.088193587962963
 41
2455569.400408252
 42
2457192.638409329
  1

 90
        0
  0
XRECORD
  5
17F5
102
{ACAD_REACTORS
330
17F4
102
}
330
17F4
100
AcDbXrecord
280
     1
290
     1
  0
XRECORD
  5
17F7
102
{ACAD_REACTORS
330
17F6
102
}
330
17F6
100
AcDbXrecord
280
     1
290
     1
  0
XRECORD
  5
17F9
102
{ACAD_REACTORS
330
17F8
102
}
330
17F8
100
AcDbXrecord
280
     1
290
     1
  0
XRECORD
  5
17FB
102
{ACAD_REACTORS
330
17FA
102
}
330
17FA
100
AcDbXrecord
280
     1
290
     1
  0
XRECORD
  5
17FD
102
{ACAD_REACTORS
330
17FC
102
}
330
17FC
100
AcDbXrecord
280
     1
290
     1
  0
XRECORD
  5
17FF
102
{ACAD_REACTORS
330
17FE
102
}
330
17FE
100
AcDbXrecord
280
     1
290
     1
  0
XRECORD
  5
1801
102
{ACAD_REACTORS
330
1800
102
}
330
1800
100
AcDbXrecord
280
     1
290
     1
  0
XRECORD
  5
1803
102
{ACAD_REACTORS
330
1802
102
}
330
1802
100
AcDbXrecord
280
     1
290
     1
  0
XRECORD
  5
179E
102
{ACAD_REACTORS
330
179D
102
}
330
179D
100
AcDbXrecord
280
     1
340
18
  0
XRECORD
  5
179C
102
{ACAD_REACTORS
330
179B
102
}
330
179B
100
AcDbXrecord
280
     1
340
15
  0
ACDBDETAILVIEWSTYLE
  5
17F0
102
{ACAD_XDICTIONARY
360
184A
102
}
102
{ACAD_REACTORS
330
17EF
102
}
330
17EF
100
AcDbModelDocViewStyle
 70
     0
  3
Imperial24
290
     0
100
AcDbDetailViewStyle
 70
     0
 71
     0
 90
        3
 71
     1
340
F
 40
0.24
340
0
 40
0.24
300

 40
0.36
280
     3
 71
     2
340
14
 90
       25
 71
     3
340
F
 40
0.24
 90
        1
 40
0.75
 90
        1
300
%<\AcVar ViewType \f "%tc1">% %<\AcVar ViewDetailId>%\PSCALE %<\AcVar ViewScale \f "%sn">%
 71
     4
340
14
 90
       25
340
14
 90
       25
280
     0
  0
LAYOUT
  5
17F1
102
{ACAD_XDICTIONARY
360
184C
102
}
102
{ACAD_REACTORS
330
94
102
}
330
94
100
AcDbPlotSettings
  1

  2
Canon LBP9100C
  4

  6

 40
0.0
 41
0.0
 42
0.0
 43
0.0
 44
0.0
 45
0.0
 46
0.0
 47
0.0
 48
0.0
 49
0.0
140
0.0
141
0.0
142
1.0
143
1.0
 70
  1712
 72
     0
 73
     0
 74
     0
  7

 75
     0
147
1.0
148
0.0
149
0.0
100
AcDbLayout
  1
Model
 70
     1
 71
     0
 10
0.0
 20
0.0
 11
12.0
 21
9.0
 12
0.0
 22
0.0
 32
0.0
 14
0.0
 24
0.0
 34
0.0
 15
0.0
 25
0.0
 35
0.0
146
0.0
 13
0.0
 23
0.0
 33
0.0
 16
1.0
 26
0.0
 36
0.0
 17
0.0
 27
1.0
 37
0.0
 76
     0
330
18
331
179A
  0
LAYOUT
  5
17F2
102
{ACAD_XDICTIONARY
360
184E
102
}
102
{ACAD_REACTORS
330
94
102
}
330
94
100
AcDbPlotSettings
  1

  2
Canon LBP9100C
  4

  6

 40
0.0
 41
0.0
 42
0.0
 43
0.0
 44
0.0
 45
0.0
 46
0.0
 47
0.0
 48
0.0
 49
0.0
140
0.0
141
0.0
142
1.0
143
1.0
 70
   688
 72
     0
 73
     0
 74
     5
  7

 75
    16
147
1.0
148
0.0
149
0.0
100
AcDbLayout
  1
レイアウト1
 70
     1
 71
     1
 10
0.0
 20
0.0
 11
420.0
 21
297.0
 12
0.0
 22
0.0
 32
0.0
 14
1.000000000000000E+20
 24
1.000000000000000E+20
 34
1.000000000000000E+20
 15
-1.000000000000000E+20
 25
-1.000000000000000E+20
 35
-1.000000000000000E+20
146
0.0
 13
0.0
 23
0.0
 33
0.0
 16
1.0
 26
0.0
 36
0.0
 17
0.0
 27
1.0
 37
0.0
 76
     0
330
15
  0
MATERIAL
  5
17AD
102
{ACAD_XDICTIONARY
360
17AE
102
}
102
{ACAD_REACTORS
330
17A4
102
}
330
17A4
100
AcDbMaterial
  1
ByBlock
 72
     0
 43
0.0208333333333333
 43
0.0
 43
0.0
 43
0.0
 43
0.0
 43
0.0208333333333333
 43
0.0
 43
0.0
 43
0.0
 43
0.0
 43
1.0
 43
0.0
 43
0.0
 43
0.0
 43
0.0
 43
1.0
 77
     0
 47
0.0208333333333333
 47
0.0
 47
0.0
 47
0.0
 47
0.0
 47
0.0208333333333333
 47
0.0
 47
0.0
 47
0.0
 47
0.0
 47
1.0
 47
0.0
 47
0.0
 47
0.0
 47
0.0
 47
1.0
171
     0
 49
0.0208333333333333
 49
0.0
 49
0.0
 49
0.0
 49
0.0
 49
0.0208333333333333
 49
0.0
 49
0.0
 49
0.0
 49
0.0
 49
1.0
 49
0.0
 49
0.0
 49
0.0
 49
0.0
 49
1.0
175
     0
142
0.0208333333333333
142
0.0
142
0.0
142
0.0
142
0.0
142
0.0208333333333333
142
0.0
142
0.0
142
0.0
142
0.0
142
1.0
142
0.0
142
0.0
142
0.0
142
0.0
142
1.0
179
     0
144
0.0208333333333333
144
0.0
144
0.0
144
0.0
144
0.0
144
0.0208333333333333
144
0.0
144
0.0
144
0.0
144
0.0
144
1.0
144
0.0
144
0.0
144
0.0
144
0.0
144
1.0
147
0.0208333333333333
147
0.0
147
0.0
147
0.0
147
0.0
147
0.0208333333333333
147
0.0
147
0.0
147
0.0
147
0.0
147
1.0
147
0.0
147
0.0
147
0.0
147
0.0
147
1.0
  0
MATERIAL
  5
17A5
102
{ACAD_XDICTIONARY
360
17A6
102
}
102
{ACAD_REACTORS
330
17A4
102
}
330
17A4
100
AcDbMaterial
  1
ByLayer
 72
     0
 43
0.0208333333333333
 43
0.0
 43
0.0
 43
0.0
 43
0.0
 43
0.0208333333333333
 43
0.0
 43
0.0
 43
0.0
 43
0.0
 43
1.0
 43
0.0
 43
0.0
 43
0.0
 43
0.0
 43
1.0
 77
     0
 47
0.0208333333333333
 47
0.0
 47
0.0
 47
0.0
 47
0.0
 47
0.0208333333333333
 47
0.0
 47
0.0
 47
0.0
 47
0.0
 47
1.0
 47
0.0
 47
0.0
 47
0.0
 47
0.0
 47
1.0
171
     0
 49
0.0208333333333333
 49
0.0
 49
0.0
 49
0.0
 49
0.0
 49
0.0208333333333333
 49
0.0
 49
0.0
 49
0.0
 49
0.0
 49
1.0
 49
0.0
 49
0.0
 49
0.0
 49
0.0
 49
1.0
175
     0
142
0.0208333333333333
142
0.0
142
0.0
142
0.0
142
0.0
142
0.0208333333333333
142
0.0
142
0.0
142
0.0
142
0.0
142
1.0
142
0.0
142
0.0
142
0.0
142
0.0
142
1.0
179
     0
144
0.0208333333333333
144
0.0
144
0.0
144
0.0
144
0.0
144
0.0208333333333333
144
0.0
144
0.0
144
0.0
144
0.0
144
1.0
144
0.0
144
0.0
144
0.0
144
0.0
144
1.0
147
0.0208333333333333
147
0.0
147
0.0
147
0.0
147
0.0
147
0.0208333333333333
147
0.0
147
0.0
147
0.0
147
0.0
147
1.0
147
0.0
147
0.0
147
0.0
147
0.0
147
1.0
  0
MATERIAL
  5
17B5
102
{ACAD_XDICTIONARY
360
17B6
102
}
102
{ACAD_REACTORS
330
17A4
102
}
330
17A4
100
AcDbMaterial
  1
Global
 72
     0
 43
0.0208333333333333
 43
0.0
 43
0.0
 43
0.0
 43
0.0
 43
0.0208333333333333
 43
0.0
 43
0.0
 43
0.0
 43
0.0
 43
1.0
 43
0.0
 43
0.0
 43
0.0
 43
0.0
 43
1.0
 77
     0
 47
0.0208333333333333
 47
0.0
 47
0.0
 47
0.0
 47
0.0
 47
0.0208333333333333
 47
0.0
 47
0.0
 47
0.0
 47
0.0
 47
1.0
 47
0.0
 47
0.0
 47
0.0
 47
0.0
 47
1.0
171
     0
 49
0.0208333333333333
 49
0.0
 49
0.0
 49
0.0
 49
0.0
 49
0.0208333333333333
 49
0.0
 49
0.0
 49
0.0
 49
0.0
 49
1.0
 49
0.0
 49
0.0
 49
0.0
 49
0.0
 49
1.0
175
     0
142
0.0208333333333333
142
0.0
142
0.0
142
0.0
142
0.0
142
0.0208333333333333
142
0.0
142
0.0
142
0.0
142
0.0
142
1.0
142
0.0
142
0.0
142
0.0
142
0.0
142
1.0
179
     0
144
0.0208333333333333
144
0.0
144
0.0
144
0.0
144
0.0
144
0.0208333333333333
144
0.0
144
0.0
144
0.0
144
0.0
144
1.0
144
0.0
144
0.0
144
0.0
144
0.0
144
1.0
147
0.0208333333333333
147
0.0
147
0.0
147
0.0
147
0.0
147
0.0208333333333333
147
0.0
147
0.0
147
0.0
147
0.0
147
1.0
147
0.0
147
0.0
147
0.0
147
0.0
147
1.0
  0
MLEADERSTYLE
  5
17EC
102
{ACAD_REACTORS
330
17EB
102
}
330
17EB
100
AcDbMLeaderStyle
170
     2
171
     1
172
     0
 90
        2
 40
0.0
 41
0.0
173
     1
 91
-1056964608
340
12
 92
       -2
290
     1
 42
0.09
291
     1
 43
0.36
  3
Standard
 44
0.18
300

342
F
174
     1
178
     6
175
     1
176
     0
 93
-1056964608
 45
0.18
292
     0
297
     0
 46
0.18
 94
-1056964608
 47
1.0
 49
1.0
140
1.0
293
     1
141
0.0
294
     1
177
     0
142
1.0
295
     0
296
     0
143
0.125
1001
ACAD_MLEADERVER
1070
     2
  0
MLINESTYLE
  5
1C
102
{ACAD_REACTORS
330
1B
102
}
330
1B
100
AcDbMlineStyle
  2
STANDARD
 70
     0
  3

 62
   256
 51
90.0
 52
90.0
 71
     2
 49
0.5
 62
   256
  6
BYLAYER
 49
-0.5
 62
   256
  6
BYLAYER
  0
ACDBPLACEHOLDER
  5
17A3
102
{ACAD_REACTORS
330
17A2
102
}
330
17A2
  0
SCALE
  5
17DA
102
{ACAD_REACTORS
330
17D9
102
}
330
17D9
100
AcDbScale
 70
     0
300
1:1
140
1.0
141
1.0
290
     1
  0
SCALE
  5
17DB
102
{ACAD_REACTORS
330
17D9
102
}
330
17D9
100
AcDbScale
 70
     0
300
1/128" = 1'-0"
140
0.0078125
141
12.0
290
     0
  0
SCALE
  5
17DC
102
{ACAD_REACTORS
330
17D9
102
}
330
17D9
100
AcDbScale
 70
     0
300
1/64" = 1'-0"
140
0.015625
141
12.0
290
     0
  0
SCALE
  5
17DD
102
{ACAD_REACTORS
330
17D9
102
}
330
17D9
100
AcDbScale
 70
     0
300
1/32" = 1'-0"
140
0.03125
141
12.0
290
     0
  0
SCALE
  5
17DE
102
{ACAD_REACTORS
330
17D9
102
}
330
17D9
100
AcDbScale
 70
     0
300
1/16" = 1'-0"
140
0.0625
141
12.0
290
     0
  0
SCALE
  5
17DF
102
{ACAD_REACTORS
330
17D9
102
}
330
17D9
100
AcDbScale
 70
     0
300
3/32" = 1'-0"
140
0.09375
141
12.0
290
     0
  0
SCALE
  5
17E0
102
{ACAD_REACTORS
330
17D9
102
}
330
17D9
100
AcDbScale
 70
     0
300
1/8" = 1'-0"
140
0.125
141
12.0
290
     0
  0
SCALE
  5
17E1
102
{ACAD_REACTORS
330
17D9
102
}
330
17D9
100
AcDbScale
 70
     0
300
3/16" = 1'-0"
140
0.1875
141
12.0
290
     0
  0
SCALE
  5
17E2
102
{ACAD_REACTORS
330
17D9
102
}
330
17D9
100
AcDbScale
 70
     0
300
1/4" = 1'-0"
140
0.25
141
12.0
290
     0
  0
SCALE
  5
17E3
102
{ACAD_REACTORS
330
17D9
102
}
330
17D9
100
AcDbScale
 70
     0
300
3/8" = 1'-0"
140
0.375
141
12.0
290
     0
  0
SCALE
  5
17E4
102
{ACAD_REACTORS
330
17D9
102
}
330
17D9
100
AcDbScale
 70
     0
300
1/2" = 1'-0"
140
0.5
141
12.0
290
     0
  0
SCALE
  5
17E5
102
{ACAD_REACTORS
330
17D9
102
}
330
17D9
100
AcDbScale
 70
     0
300
3/4" = 1'-0"
140
0.75
141
12.0
290
     0
  0
SCALE
  5
17E6
102
{ACAD_REACTORS
330
17D9
102
}
330
17D9
100
AcDbScale
 70
     0
300
1" = 1'-0"
140
1.0
141
12.0
290
     0
  0
SCALE
  5
17E7
102
{ACAD_REACTORS
330
17D9
102
}
330
17D9
100
AcDbScale
 70
     0
300
1-1/2" = 1'-0"
140
1.5
141
12.0
290
     0
  0
SCALE
  5
17E8
102
{ACAD_REACTORS
330
17D9
102
}
330
17D9
100
AcDbScale
 70
     0
300
3" = 1'-0"
140
3.0
141
12.0
290
     0
  0
SCALE
  5
17E9
102
{ACAD_REACTORS
330
17D9
102
}
330
17D9
100
AcDbScale
 70
     0
300
6" = 1'-0"
140
6.0
141
12.0
290
     0
  0
SCALE
  5
17EA
102
{ACAD_REACTORS
330
17D9
102
}
330
17D9
100
AcDbScale
 70
     0
300
1'-0" = 1'-0"
140
12.0
141
12.0
290
     0
  0
ACDBSECTIONVIEWSTYLE
  5
17EE
102
{ACAD_XDICTIONARY
360
1848
102
}
102
{ACAD_REACTORS
330
17ED
102
}
330
17ED
100
AcDbModelDocViewStyle
 70
     0
  3
Imperial24
290
     0
100
AcDbSectionViewStyle
 70
     0
 71
     0
 90
       78
 71
     1
340
F
 40
0.24
340
0
340
0
 40
0.24
300
I, O, Q, S, X, Z
 40
0.48
 90
        3
 40
0.18
 90
        1
 71
     2
340
14
 90
       25
340
14
 90
       50
 40
0.24
 40
0.0
 40
0.24
 71
     3
340
F
 40
0.24
 90
        1
 40
0.75
 90
        1
300
%<\AcVar ViewType \f "%tc1">% %<\AcVar ViewSectionStartId>%-%<\AcVar ViewSectionEndId>%\PSCALE %<\AcVar ViewScale \f "%sn">%
 71
     4
300
ANSI31
 40
1.0
 90
        0
290
     0
290
     0
 90
        6
 40
0.0
 40
1.570796326794896
 40
0.2617993877991494
 40
1.308996938995747
 40
-0.2617993877991494
 40
1.832595714594046
  0
TABLESTYLE
  5
17D8
102
{ACAD_XDICTIONARY
360
180F
102
}
102
{ACAD_REACTORS
330
17D7
102
}
330
17D7
100
AcDbTableStyle
  3
Standard
 70
     0
 71
     0
 40
0.06
 41
0.06
280
     0
281
     0
  7
STANDARD
140
0.18
170
     2
 62
     0
 63
     7
283
     0
274
    -2
284
     1
 64
     0
275
    -2
285
     1
 65
     0
276
    -2
286
     1
 66
     0
277
    -2
287
     1
 67
     0
278
    -2
288
     1
 68
     0
279
    -2
289
     1
 69
     0
  7
STANDARD
140
0.25
170
     5
 62
     0
 63
     7
283
     0
274
    -2
284
     1
 64
     0
275
    -2
285
     1
 65
     0
276
    -2
286
     1
 66
     0
277
    -2
287
     1
 67
     0
278
    -2
288
     1
 68
     0
279
    -2
289
     1
 69
     0
  7
STANDARD
140
0.18
170
     5
 62
     0
 63
     7
283
     0
274
    -2
284
     1
 64
     0
275
    -2
285
     1
 65
     0
276
    -2
286
     1
 66
     0
277
    -2
287
     1
 67
     0
278
    -2
288
     1
 68
     0
279
    -2
289
     1
 69
     0
  0
VISUALSTYLE
  5
17C3
102
{ACAD_XDICTIONARY
360
1820
102
}
102
{ACAD_REACTORS
330
17BD
102
}
330
17BD
100
AcDbVisualStyle
  2
2dWireframe
 70
     4
 71
     0
 72
     2
 73
     0
 90
        0
 40
-0.6
 41
-30.0
 62
     5
 63
     7
 74
     1
 91
        4
 64
     7
 65
   257
 75
     1
175
     1
 42
1.0
 92
        0
 66
   257
 43
1.0
 76
     1
 77
     6
 78
     2
 67
     7
 79
     5
170
     0
171
     0
290
     0
174
     0
 93
        1
 44
0.0
173
     0
291
     0
 45
0.0
1001
ACAD
1000
AcDbSavedByObjectVersion
1070
     0
  0
VISUALSTYLE
  5
17C2
102
{ACAD_XDICTIONARY
360
181E
102
}
102
{ACAD_REACTORS
330
17BD
102
}
330
17BD
100
AcDbVisualStyle
  2
Basic
 70
     7
 71
     1
 72
     0
 73
     1
 90
        0
 40
-0.6
 41
-30.0
 62
     5
 63
     7
 74
     0
 91
        4
 64
     7
 65
   257
 75
     1
175
     1
 42
1.0
 92
        8
 66
     7
 43
1.0
 76
     1
 77
     6
 78
     2
 67
     7
 79
     5
170
     0
171
     0
290
     0
174
     0
 93
        1
 44
0.0
173
     0
291
     1
 45
0.0
1001
ACAD
1000
AcDbSavedByObjectVersion
1070
     0
  0
VISUALSTYLE
  5
17C9
102
{ACAD_XDICTIONARY
360
182C
102
}
102
{ACAD_REACTORS
330
17BD
102
}
330
17BD
100
AcDbVisualStyle
  2
Brighten
 70
    12
 71
     2
 72
     2
 73
     0
 90
        0
 40
-0.6
 41
-30.0
 62
     5
 63
     7
 74
     1
 91
        4
 64
     7
 65
   257
 75
     1
175
     1
 42
1.0
 92
        8
 66
     7
 43
1.0
 76
     1
 77
     6
 78
     2
 67
     7
 79
     5
170
     0
171
     0
290
     0
174
     0
 93
        1
 44
50.0
173
     0
291
     1
 45
0.0
1001
ACAD
1000
AcDbSavedByObjectVersion
1070
     0
  0
VISUALSTYLE
  5
17CD
102
{ACAD_XDICTIONARY
360
1834
102
}
102
{ACAD_REACTORS
330
17BD
102
}
330
17BD
100
AcDbVisualStyle
  2
ColorChange
 70
    16
 71
     2
 72
     2
 73
     3
 90
        0
 40
-0.6
 41
-30.0
 62
     5
 63
     8
 74
     1
 91
        4
 64
     7
 65
   257
 75
     1
175
     1
 42
1.0
 92
        8
 66
     8
 43
1.0
 76
     1
 77
     6
 78
     2
 67
     7
 79
     5
170
     0
171
     0
290
     0
174
     0
 93
        1
 44
0.0
173
     0
291
     1
 45
0.0
1001
ACAD
1000
AcDbSavedByObjectVersion
1070
     0
  0
VISUALSTYLE
  5
17C6
102
{ACAD_XDICTIONARY
360
1826
102
}
102
{ACAD_REACTORS
330
17BD
102
}
330
17BD
100
AcDbVisualStyle
  2
Conceptual
 70
     9
 71
     3
 72
     2
 73
     0
 90
        0
 40
-0.6
 41
-30.0
 62
     5
 63
     7
 74
     2
 91
        2
 64
     7
 65
   257
 75
     1
175
     1
 42
179.0
 92
        8
 66
     7
 43
1.0
 76
     1
 77
     6
 78
     2
 67
     7
 79
     3
170
     0
171
     0
290
     0
174
     0
 93
        1
 44
0.0
173
     0
291
     0
 45
0.0
1001
ACAD
1000
AcDbSavedByObjectVersion
1070
     0
  0
VISUALSTYLE
  5
17C8
102
{ACAD_XDICTIONARY
360
182A
102
}
102
{ACAD_REACTORS
330
17BD
102
}
330
17BD
100
AcDbVisualStyle
  2
Dim
 70
    11
 71
     2
 72
     2
 73
     0
 90
        0
 40
-0.6
 41
-30.0
 62
     5
 63
     7
 74
     1
 91
        4
 64
     7
 65
   257
 75
     1
175
     1
 42
1.0
 92
        8
 66
     7
 43
1.0
 76
     1
 77
     6
 78
     2
 67
     7
 79
     5
170
     0
171
     0
290
     0
174
     0
 93
        1
 44
-50.0
173
     0
291
     1
 45
0.0
1001
ACAD
1000
AcDbSavedByObjectVersion
1070
     0
  0
VISUALSTYLE
  5
17D5
102
{ACAD_XDICTIONARY
360
1844
102
}
102
{ACAD_REACTORS
330
17BD
102
}
330
17BD
100
AcDbVisualStyle
  2
EdgeColorOff
 70
    22
 71
     2
 72
     2
 73
     0
 90
        0
 40
-0.6
 41
-30.0
 62
     5
 63
     7
 74
     1
 91
        4
 64
     7
 65
   257
 75
     1
175
     1
 42
1.0
 92
        8
 66
     7
 43
1.0
 76
     1
 77
     6
 78
     2
 67
     7
 79
     5
170
     0
171
     0
290
     0
174
     0
 93
        1
 44
0.0
173
     0
291
     1
 45
0.0
1001
ACAD
1000
AcDbSavedByObjectVersion
1070
     0
  0
VISUALSTYLE
  5
17CC
102
{ACAD_XDICTIONARY
360
1832
102
}
102
{ACAD_REACTORS
330
17BD
102
}
330
17BD
100
AcDbVisualStyle
  2
Facepattern
 70
    15
 71
     2
 72
     2
 73
     0
 90
        0
 40
-0.6
 41
-30.0
 62
     5
 63
     7
 74
     1
 91
        4
 64
     7
 65
   257
 75
     1
175
     1
 42
1.0
 92
        8
 66
     7
 43
1.0
 76
     1
 77
     6
 78
     2
 67
     7
 79
     5
170
     0
171
     0
290
     0
174
     0
 93
        1
 44
0.0
173
     0
291
     1
 45
0.0
1001
ACAD
1000
AcDbSavedByObjectVersion
1070
     0
  0
VISUALSTYLE
  5
17BE
102
{ACAD_XDICTIONARY
360
1816
102
}
102
{ACAD_REACTORS
330
17BD
102
}
330
17BD
100
AcDbVisualStyle
  2
Flat
 70
     0
 71
     2
 72
     1
 73
     1
 90
        2
 40
-0.6
 41
30.0
 62
     5
 63
     7
 74
     0
 91
        0
 64
     7
 65
   257
 75
     1
175
     1
 42
1.0
 92
        8
 66
     7
 43
1.0
 76
     1
 77
     6
 78
     2
 67
     7
 79
     5
170
     0
171
     0
290
     0
174
     0
 93
       13
 44
0.0
173
     0
291
     1
 45
0.0
1001
ACAD
1000
AcDbSavedByObjectVersion
1070
     0
  0
VISUALSTYLE
  5
17BF
102
{ACAD_XDICTIONARY
360
1818
102
}
102
{ACAD_REACTORS
330
17BD
102
}
330
17BD
100
AcDbVisualStyle
  2
FlatWithEdges
 70
     1
 71
     2
 72
     1
 73
     1
 90
        2
 40
-0.6
 41
30.0
 62
     5
 63
     7
 74
     1
 91
        0
 64
     7
 65
   257
 75
     1
175
     1
 42
1.0
 92
        0
 66
   257
 43
1.0
 76
     1
 77
     6
 78
     2
 67
     7
 79
     5
170
     0
171
     0
290
     0
174
     0
 93
       13
 44
0.0
173
     0
291
     1
 45
0.0
1001
ACAD
1000
AcDbSavedByObjectVersion
1070
     0
  0
VISUALSTYLE
  5
17C0
102
{ACAD_XDICTIONARY
360
181A
102
}
102
{ACAD_REACTORS
330
17BD
102
}
330
17BD
100
AcDbVisualStyle
  2
Gouraud
 70
     2
 71
     2
 72
     2
 73
     1
 90
        2
 40
-0.6
 41
30.0
 62
     5
 63
     7
 74
     0
 91
        0
 64
     7
 65
   257
 75
     1
175
     1
 42
1.0
 92
        0
 66
     7
 43
1.0
 76
     1
 77
     6
 78
     2
 67
     7
 79
     5
170
     0
171
     0
290
     0
174
     0
 93
       13
 44
0.0
173
     0
291
     1
 45
0.0
1001
ACAD
1000
AcDbSavedByObjectVersion
1070
     0
  0
VISUALSTYLE
  5
17C1
102
{ACAD_XDICTIONARY
360
181C
102
}
102
{ACAD_REACTORS
330
17BD
102
}
330
17BD
100
AcDbVisualStyle
  2
GouraudWithEdges
 70
     3
 71
     2
 72
     2
 73
     1
 90
        2
 40
-0.6
 41
30.0
 62
     5
 63
     7
 74
     1
 91
        0
 64
     7
 65
   257
 75
     1
175
     1
 42
1.0
 92
        0
 66
   257
 43
1.0
 76
     1
 77
     6
 78
     2
 67
     7
 79
     5
170
     0
171
     0
290
     0
174
     0
 93
       13
 44
0.0
173
     0
291
     1
 45
0.0
1001
ACAD
1000
AcDbSavedByObjectVersion
1070
     0
  0
VISUALSTYLE
  5
17C5
102
{ACAD_XDICTIONARY
360
1824
102
}
102
{ACAD_REACTORS
330
17BD
102
}
330
17BD
100
AcDbVisualStyle
  2
Hidden
 70
     6
 71
     1
 72
     2
 73
     2
 90
        0
 40
-0.6
 41
-30.0
 62
     5
 63
     7
 74
     2
 91
        2
 64
     7
 65
   257
 75
     2
175
     1
 42
40.0
 92
        0
 66
   257
 43
1.0
 76
     1
 77
     6
 78
     2
 67
     7
 79
     3
170
     0
171
     0
290
     0
174
     0
 93
        1
 44
0.0
173
     0
291
     0
 45
0.0
1001
ACAD
1000
AcDbSavedByObjectVersion
1070
     0
  0
VISUALSTYLE
  5
17D3
102
{ACAD_XDICTIONARY
360
1840
102
}
102
{ACAD_REACTORS
330
17BD
102
}
330
17BD
100
AcDbVisualStyle
  2
JitterOff
 70
    20
 71
     2
 72
     2
 73
     0
 90
        0
 40
-0.6
 41
-30.0
 62
     5
 63
     7
 74
     1
 91
        4
 64
     7
 65
   257
 75
     1
175
     1
 42
1.0
 92
       10
 66
     7
 43
1.0
 76
     1
 77
     6
 78
     2
 67
     7
 79
     5
170
     0
171
     0
290
     0
174
     0
 93
        1
 44
0.0
173
     0
291
     1
 45
0.0
1001
ACAD
1000
AcDbSavedByObjectVersion
1070
     0
  0
VISUALSTYLE
  5
17CB
102
{ACAD_XDICTIONARY
360
1830
102
}
102
{ACAD_REACTORS
330
17BD
102
}
330
17BD
100
AcDbVisualStyle
  2
Linepattern
 70
    14
 71
     2
 72
     2
 73
     0
 90
        0
 40
-0.6
 41
-30.0
 62
     5
 63
     7
 74
     1
 91
        4
 64
     7
 65
   257
 75
     7
175
     7
 42
1.0
 92
        8
 66
     7
 43
1.0
 76
     1
 77
     6
 78
     2
 67
     7
 79
     5
170
     0
171
     0
290
     0
174
     0
 93
        1
 44
0.0
173
     0
291
     1
 45
0.0
1001
ACAD
1000
AcDbSavedByObjectVersion
1070
     0
  0
VISUALSTYLE
  5
17D4
102
{ACAD_XDICTIONARY
360
1842
102
}
102
{ACAD_REACTORS
330
17BD
102
}
330
17BD
100
AcDbVisualStyle
  2
OverhangOff
 70
    21
 71
     2
 72
     2
 73
     0
 90
        0
 40
-0.6
 41
-30.0
 62
     5
 63
     7
 74
     1
 91
        4
 64
     7
 65
   257
 75
     1
175
     1
 42
1.0
 92
        9
 66
     7
 43
1.0
 76
     1
 77
     6
 78
     2
 67
     7
 79
     5
170
     0
171
     0
290
     0
174
     0
 93
        1
 44
0.0
173
     0
291
     1
 45
0.0
1001
ACAD
1000
AcDbSavedByObjectVersion
1070
     0
  0
VISUALSTYLE
  5
17C7
102
{ACAD_XDICTIONARY
360
1828
102
}
102
{ACAD_REACTORS
330
17BD
102
}
330
17BD
100
AcDbVisualStyle
  2
Realistic
 70
     8
 71
     2
 72
     3
 73
     0
 90
        2
 40
-0.6
 41
30.0
 62
     5
 63
     7
 74
     0
 91
        0
 64
     7
 65
   257
 75
     1
175
     1
 42
1.0
 92
        8
 66
   257
 43
1.0
 76
     1
 77
     6
 78
     2
 67
     7
 79
     3
170
     0
171
     0
290
     0
174
     0
 93
       13
 44
0.0
173
     0
291
     0
 45
0.0
1001
ACAD
1000
AcDbSavedByObjectVersion
1070
     0
  0
VISUALSTYLE
  5
17D2
102
{ACAD_XDICTIONARY
360
183E
102
}
102
{ACAD_REACTORS
330
17BD
102
}
330
17BD
100
AcDbVisualStyle
  2
Shaded
 70
    27
 71
     2
 72
     2
 73
     1
 90
        2
 40
-0.6
 41
30.0
 62
     5
 63
     7
 74
     0
 91
        4
 64
     7
 65
   257
 75
     1
175
     1
 42
1.0
 92
        8
 66
   257
 43
1.0
 76
     1
 77
     6
 78
     2
 67
     8
 79
     3
170
     0
171
     0
290
     0
174
     0
 93
        5
 44
0.0
173
     0
291
     0
 45
0.0
1001
ACAD
1000
AcDbSavedByObjectVersion
1070
     0
  0
VISUALSTYLE
  5
17D1
102
{ACAD_XDICTIONARY
360
183C
102
}
102
{ACAD_REACTORS
330
17BD
102
}
330
17BD
100
AcDbVisualStyle
  2
Shaded with edges
 70
    26
 71
     2
 72
     2
 73
     1
 90
        2
 40
-0.6
 41
30.0
 62
     5
 63
     7
 74
     1
 91
       10
 64
     7
 65
   257
 75
     2
175
     1
 42
1.0
 92
        8
 66
   257
 43
1.0
 76
     1
 77
     6
 78
     2
 67
     7
 79
     3
170
     0
171
     0
290
     0
174
     0
 93
        5
 44
0.0
173
     0
291
     0
 45
0.0
1001
ACAD
1000
AcDbSavedByObjectVersion
1070
     0
  0
VISUALSTYLE
  5
17CE
102
{ACAD_XDICTIONARY
360
1836
102
}
102
{ACAD_REACTORS
330
17BD
102
}
330
17BD
100
AcDbVisualStyle
  2
Shades of Gray
 70
    23
 71
     2
 72
     2
 73
     3
 90
        0
 40
-0.6
 41
-30.0
 62
     5
 63
     7
 74
     2
 91
        2
 64
     7
 65
     7
 75
     1
175
     1
 42
40.0
 92
        8
 66
     7
 43
1.0
 76
     1
 77
     6
 78
     2
 67
     7
 79
     3
170
     0
171
     0
290
     0
174
     0
 93
        1
 44
0.0
173
     0
291
     0
 45
0.0
1001
ACAD
1000
AcDbSavedByObjectVersion
1070
     0
  0
VISUALSTYLE
  5
17CF
102
{ACAD_XDICTIONARY
360
1838
102
}
102
{ACAD_REACTORS
330
17BD
102
}
330
17BD
100
AcDbVisualStyle
  2
Sketchy
 70
    24
 71
     1
 72
     2
 73
     2
 90
        0
 40
-0.6
 41
-30.0
 62
     5
 63
     7
 74
     2
 91
        2
 64
     7
 65
     7
 75
     1
175
     1
 42
40.0
 92
       11
 66
     7
 43
1.0
 76
     1
 77
     6
 78
     2
 67
     7
 79
     6
170
     0
171
     0
290
     0
174
     0
 93
        1
 44
0.0
173
     0
291
     0
 45
0.0
1001
ACAD
1000
AcDbSavedByObjectVersion
1070
     0
  0
VISUALSTYLE
  5
17CA
102
{ACAD_XDICTIONARY
360
182E
102
}
102
{ACAD_REACTORS
330
17BD
102
}
330
17BD
100
AcDbVisualStyle
  2
Thicken
 70
    13
 71
     2
 72
     2
 73
     0
 90
        0
 40
-0.6
 41
-30.0
 62
     5
 63
     7
 74
     1
 91
        4
 64
     7
 65
   257
 75
     1
175
     1
 42
1.0
 92
       12
 66
     7
 43
1.0
 76
     1
 77
     6
 78
     2
 67
     7
 79
     5
170
     0
171
     0
290
     0
174
     0
 93
        1
 44
0.0
173
     0
291
     1
 45
0.0
1001
ACAD
1000
AcDbSavedByObjectVersion
1070
     0
  0
VISUALSTYLE
  5
17C4
102
{ACAD_XDICTIONARY
360
1822
102
}
102
{ACAD_REACTORS
330
17BD
102
}
330
17BD
100
AcDbVisualStyle
  2
Wireframe
 70
     5
 71
     0
 72
     2
 73
     0
 90
        0
 40
-0.6
 41
-30.0
 62
     5
 63
     7
 74
     1
 91
        4
 64
     7
 65
   257
 75
     1
175
     1
 42
1.0
 92
        0
 66
   257
 43
1.0
 76
     1
 77
     6
 78
     2
 67
     7
 79
     3
170
     0
171
     0
290
     0
174
     0
 93
        1
 44
0.0
173
     0
291
     0
 45
0.0
1001
ACAD
1000
AcDbSavedByObjectVersion
1070
     0
  0
VISUALSTYLE
  5
17D0
102
{ACAD_XDICTIONARY
360
183A
102
}
102
{ACAD_REACTORS
330
17BD
102
}
330
17BD
100
AcDbVisualStyle
  2
X-Ray
 70
    25
 71
     2
 72
     2
 73
     1
 90
        1
 40
0.5
 41
-30.0
 62
     5
 63
     7
 74
     1
 91
        0
 64
     7
 65
   257
 75
     1
175
     1
 42
1.0
 92
        8
 66
     7
 43
1.0
 76
     1
 77
     6
 78
     2
 67
     7
 79
     3
170
     0
171
     0
290
     0
174
     0
 93
       13
 44
0.0
173
     0
291
     0
 45
0.0
1001
ACAD
1000
AcDbSavedByObjectVersion
1070
     0
  0
DICTIONARYVAR
  5
1809
102
{ACAD_REACTORS
330
1804
102
}
330
1804
100
DictionaryVariables
280
     0
  1
1:1
  0
DICTIONARYVAR
  5
1806
102
{ACAD_REACTORS
330
1804
102
}
330
1804
100
DictionaryVariables
280
     0
  1
STANDARD
  0
DICTIONARYVAR
  5
1805
102
{ACAD_REACTORS
330
1804
102
}
330
1804
100
DictionaryVariables
280
     0
  1
STANDARD
  0
DICTIONARYVAR
  5
1807
102
{ACAD_REACTORS
330
1804
102
}
330
1804
100
DictionaryVariables
280
     0
  1
Imperial24
  0
DICTIONARYVAR
  5
1808
102
{ACAD_REACTORS
330
1804
102
}
330
1804
100
DictionaryVariables
280
     0
  1
Imperial24
  0
DICTIONARYVAR
  5
180C
102
{ACAD_REACTORS
330
1804
102
}
330
1804
100
DictionaryVariables
280
     0
  1
1
  0
DICTIONARYVAR
  5
180B
102
{ACAD_REACTORS
330
1804
102
}
330
1804
100
DictionaryVariables
280
     0
  1
0
  0
DICTIONARYVAR
  5
180A
102
{ACAD_REACTORS
330
1804
102
}
330
1804
100
DictionaryVariables
280
     0
  1
127
  0
DICTIONARYVAR
  5
180D
102
{ACAD_REACTORS
330
1804
102
}
330
1804
100
DictionaryVariables
280
     0
  1
2
  0
DICTIONARY
  5
184A
330
17F0
100
AcDbDictionary
280
     1
281
     1
  3
ACAD_XREC_ROUNDTRIP
360
184B
  0
DICTIONARY
  5
184C
330
17F1
100
AcDbDictionary
280
     1
281
     1
  3
ACAD_XREC_ROUNDTRIP
360
184D
  0
DICTIONARY
  5
184E
330
17F2
100
AcDbDictionary
280
     1
281
     1
  3
ACAD_XREC_ROUNDTRIP
360
184F
  0
DICTIONARY
  5
17AE
330
17AD
100
AcDbDictionary
280
     1
281
     1
  3
ACAD_XREC_ROUNDTRIP
360
1814
  3
BUMPTILE
360
17B0
  3
DIFFUSETILE
360
17AF
  3
OPACITYTILE
360
17B3
  3
REFLECTIONTILE
360
17B2
  3
REFRACTIONTILE
360
17B4
  3
SPECULARTILE
360
17B1
  0
DICTIONARY
  5
17A6
330
17A5
100
AcDbDictionary
280
     1
281
     1
  3
ACAD_XREC_ROUNDTRIP
360
1813
  3
BUMPTILE
360
17A8
  3
DIFFUSETILE
360
17A7
  3
OPACITYTILE
360
17AB
  3
REFLECTIONTILE
360
17AA
  3
REFRACTIONTILE
360
17AC
  3
SPECULARTILE
360
17A9
  0
DICTIONARY
  5
17B6
330
17B5
100
AcDbDictionary
280
     1
281
     1
  3
ACAD_XREC_ROUNDTRIP
360
1815
  3
BUMPTILE
360
17B8
  3
DIFFUSETILE
360
17B7
  3
OPACITYTILE
360
17BB
  3
REFLECTIONTILE
360
17BA
  3
REFRACTIONTILE
360
17BC
  3
SPECULARTILE
360
17B9
  0
DICTIONARY
  5
1848
330
17EE
100
AcDbDictionary
280
     1
281
     1
  3
ACAD_XREC_ROUNDTRIP
360
1849
  0
DICTIONARY
  5
180F
330
17D8
100
AcDbDictionary
280
     1
281
     1
  3
ACAD_ROUNDTRIP_2008_TABLESTYLE_CELLSTYLEMAP
360
1810
  3
ACAD_XREC_ROUNDTRIP
360
1846
  0
DICTIONARY
  5
1820
330
17C3
100
AcDbDictionary
280
     1
281
     1
  3
ACAD_XREC_ROUNDTRIP
360
1821
  0
DICTIONARY
  5
181E
330
17C2
100
AcDbDictionary
280
     1
281
     1
  3
ACAD_XREC_ROUNDTRIP
360
181F
  0
DICTIONARY
  5
182C
330
17C9
100
AcDbDictionary
280
     1
281
     1
  3
ACAD_XREC_ROUNDTRIP
360
182D
  0
DICTIONARY
  5
1834
330
17CD
100
AcDbDictionary
280
     1
281
     1
  3
ACAD_XREC_ROUNDTRIP
360
1835
  0
DICTIONARY
  5
1826
330
17C6
100
AcDbDictionary
280
     1
281
     1
  3
ACAD_XREC_ROUNDTRIP
360
1827
  0
DICTIONARY
  5
182A
330
17C8
100
AcDbDictionary
280
     1
281
     1
  3
ACAD_XREC_ROUNDTRIP
360
182B
  0
DICTIONARY
  5
1844
330
17D5
100
AcDbDictionary
280
     1
281
     1
  3
ACAD_XREC_ROUNDTRIP
360
1845
  0
DICTIONARY
  5
1832
330
17CC
100
AcDbDictionary
280
     1
281
     1
  3
ACAD_XREC_ROUNDTRIP
360
1833
  0
DICTIONARY
  5
1816
330
17BE
100
AcDbDictionary
280
     1
281
     1
  3
ACAD_XREC_ROUNDTRIP
360
1817
  0
DICTIONARY
  5
1818
330
17BF
100
AcDbDictionary
280
     1
281
     1
  3
ACAD_XREC_ROUNDTRIP
360
1819
  0
DICTIONARY
  5
181A
330
17C0
100
AcDbDictionary
280
     1
281
     1
  3
ACAD_XREC_ROUNDTRIP
360
181B
  0
DICTIONARY
  5
181C
330
17C1
100
AcDbDictionary
280
     1
281
     1
  3
ACAD_XREC_ROUNDTRIP
360
181D
  0
DICTIONARY
  5
1824
330
17C5
100
AcDbDictionary
280
     1
281
     1
  3
ACAD_XREC_ROUNDTRIP
360
1825
  0
DICTIONARY
  5
1840
330
17D3
100
AcDbDictionary
280
     1
281
     1
  3
ACAD_XREC_ROUNDTRIP
360
1841
  0
DICTIONARY
  5
1830
330
17CB
100
AcDbDictionary
280
     1
281
     1
  3
ACAD_XREC_ROUNDTRIP
360
1831
  0
DICTIONARY
  5
1842
330
17D4
100
AcDbDictionary
280
     1
281
     1
  3
ACAD_XREC_ROUNDTRIP
360
1843
  0
DICTIONARY
  5
1828
330
17C7
100
AcDbDictionary
280
     1
281
     1
  3
ACAD_XREC_ROUNDTRIP
360
1829
  0
DICTIONARY
  5
183E
330
17D2
100
AcDbDictionary
280
     1
281
     1
  3
ACAD_XREC_ROUNDTRIP
360
183F
  0
DICTIONARY
  5
183C
330
17D1
100
AcDbDictionary
280
     1
281
     1
  3
ACAD_XREC_ROUNDTRIP
360
183D
  0
DICTIONARY
  5
1836
330
17CE
100
AcDbDictionary
280
     1
281
     1
  3
ACAD_XREC_ROUNDTRIP
360
1837
  0
DICTIONARY
  5
1838
330
17CF
100
AcDbDictionary
280
     1
281
     1
  3
ACAD_XREC_ROUNDTRIP
360
1839
  0
DICTIONARY
  5
182E
330
17CA
100
AcDbDictionary
280
     1
281
     1
  3
ACAD_XREC_ROUNDTRIP
360
182F
  0
DICTIONARY
  5
1822
330
17C4
100
AcDbDictionary
280
     1
281
     1
  3
ACAD_XREC_ROUNDTRIP
360
1823
  0
DICTIONARY
  5
183A
330
17D0
100
AcDbDictionary
280
     1
281
     1
  3
ACAD_XREC_ROUNDTRIP
360
183B
  0
XRECORD
  5
184B
102
{ACAD_REACTORS
330
184A
102
}
330
184A
100
AcDbXrecord
280
     1
102
DISPLAYNAME
  1
Imperial24
102
FLAGS
 90
        0
  0
XRECORD
  5
184D
102
{ACAD_REACTORS
330
184C
102
}
330
184C
100
AcDbXrecord
280
     1
102
SHADEPLOT
 70
     0
102
SHADEPLOTRESLEVEL
 70
     2
102
SHADEPLOTCUSTOMDPI
 70
   300
  0
XRECORD
  5
184F
102
{ACAD_REACTORS
330
184E
102
}
330
184E
100
AcDbXrecord
280
     1
102
SHADEPLOT
 70
     0
102
SHADEPLOTRESLEVEL
 70
     2
102
SHADEPLOTCUSTOMDPI
 70
   300
  0
XRECORD
  5
1814
102
{ACAD_REACTORS
330
17AE
102
}
330
17AE
100
AcDbXrecord
280
     1
102
MATERIAL
148
0.0
149
0.0
149
0.0
 93
        0
 94
      127
282
     0
 72
     0
 77
     0
171
     0
175
     0
179
     0
273
     0
  0
XRECORD
  5
17B0
102
{ACAD_REACTORS
330
17AE
102
}
330
17AE
100
AcDbXrecord
280
     1
270
     1
271
     1
  0
XRECORD
  5
17AF
102
{ACAD_REACTORS
330
17AE
102
}
330
17AE
100
AcDbXrecord
280
     1
270
     1
271
     1
  0
XRECORD
  5
17B3
102
{ACAD_REACTORS
330
17AE
102
}
330
17AE
100
AcDbXrecord
280
     1
270
     1
271
     1
  0
XRECORD
  5
17B2
102
{ACAD_REACTORS
330
17AE
102
}
330
17AE
100
AcDbXrecord
280
     1
270
     1
271
     1
  0
XRECORD
  5
17B4
102
{ACAD_REACTORS
330
17AE
102
}
330
17AE
100
AcDbXrecord
280
     1
270
     1
271
     1
  0
XRECORD
  5
17B1
102
{ACAD_REACTORS
330
17AE
102
}
330
17AE
100
AcDbXrecord
280
     1
270
     1
271
     1
  0
XRECORD
  5
1813
102
{ACAD_REACTORS
330
17A6
102
}
330
17A6
100
AcDbXrecord
280
     1
102
MATERIAL
148
0.0
149
0.0
149
0.0
 93
        0
 94
      127
282
     0
 72
     0
 77
     0
171
     0
175
     0
179
     0
273
     0
  0
XRECORD
  5
17A8
102
{ACAD_REACTORS
330
17A6
102
}
330
17A6
100
AcDbXrecord
280
     1
270
     1
271
     1
  0
XRECORD
  5
17A7
102
{ACAD_REACTORS
330
17A6
102
}
330
17A6
100
AcDbXrecord
280
     1
270
     1
271
     1
  0
XRECORD
  5
17AB
102
{ACAD_REACTORS
330
17A6
102
}
330
17A6
100
AcDbXrecord
280
     1
270
     1
271
     1
  0
XRECORD
  5
17AA
102
{ACAD_REACTORS
330
17A6
102
}
330
17A6
100
AcDbXrecord
280
     1
270
     1
271
     1
  0
XRECORD
  5
17AC
102
{ACAD_REACTORS
330
17A6
102
}
330
17A6
100
AcDbXrecord
280
     1
270
     1
271
     1
  0
XRECORD
  5
17A9
102
{ACAD_REACTORS
330
17A6
102
}
330
17A6
100
AcDbXrecord
280
     1
270
     1
271
     1
  0
XRECORD
  5
1815
102
{ACAD_REACTORS
330
17B6
102
}
330
17B6
100
AcDbXrecord
280
     1
102
MATERIAL
148
0.0
149
0.0
149
0.0
 93
        0
 94
      127
282
     0
 72
     0
 77
     0
171
     0
175
     0
179
     0
273
     0
  0
XRECORD
  5
17B8
102
{ACAD_REACTORS
330
17B6
102
}
330
17B6
100
AcDbXrecord
280
     1
270
     1
271
     1
  0
XRECORD
  5
17B7
102
{ACAD_REACTORS
330
17B6
102
}
330
17B6
100
AcDbXrecord
280
     1
270
     1
271
     1
  0
XRECORD
  5
17BB
102
{ACAD_REACTORS
330
17B6
102
}
330
17B6
100
AcDbXrecord
280
     1
270
     1
271
     1
  0
XRECORD
  5
17BA
102
{ACAD_REACTORS
330
17B6
102
}
330
17B6
100
AcDbXrecord
280
     1
270
     1
271
     1
  0
XRECORD
  5
17BC
102
{ACAD_REACTORS
330
17B6
102
}
330
17B6
100
AcDbXrecord
280
     1
270
     1
271
     1
  0
XRECORD
  5
17B9
102
{ACAD_REACTORS
330
17B6
102
}
330
17B6
100
AcDbXrecord
280
     1
270
     1
271
     1
  0
XRECORD
  5
1849
102
{ACAD_REACTORS
330
1848
102
}
330
1848
100
AcDbXrecord
280
     1
102
DISPLAYNAME
  1
Imperial24
102
FLAGS
 90
        0
  0
CELLSTYLEMAP
  5
1810
102
{ACAD_REACTORS
330
180F
102
}
330
180F
100
AcDbCellStyleMap
 90
        3
300
CELLSTYLE
  1
TABLEFORMAT_BEGIN
 90
        5
170
     1
 91
        0
 92
    32768
 62
   257
 93
        1
300
CONTENTFORMAT
  1
CONTENTFORMAT_BEGIN
 90
        0
 91
        0
 92
      512
 93
        0
300

 40
0.0
140
1.0
 94
        5
 62
     0
340
F
144
0.25
309
CONTENTFORMAT_END
171
     0
 94
        0
309
TABLEFORMAT_END
  1
CELLSTYLE_BEGIN
 90
        1
 91
        1
300
_TITLE
309
CELLSTYLE_END
300
CELLSTYLE
  1
TABLEFORMAT_BEGIN
 90
        5
170
     1
 91
        0
 92
        0
 62
   257
 93
        1
300
CONTENTFORMAT
  1
CONTENTFORMAT_BEGIN
 90
        0
 91
        0
 92
      512
 93
        0
300

 40
0.0
140
1.0
 94
        5
 62
     0
340
F
144
0.18
309
CONTENTFORMAT_END
171
     0
 94
        0
309
TABLEFORMAT_END
  1
CELLSTYLE_BEGIN
 90
        2
 91
        1
300
_HEADER
309
CELLSTYLE_END
300
CELLSTYLE
  1
TABLEFORMAT_BEGIN
 90
        5
170
     1
 91
        0
 92
        0
 62
   257
 93
        1
300
CONTENTFORMAT
  1
CONTENTFORMAT_BEGIN
 90
        0
 91
        0
 92
      512
 93
        0
300

 40
0.0
140
1.0
 94
        2
 62
     0
340
F
144
0.18
309
CONTENTFORMAT_END
171
     0
 94
        0
309
TABLEFORMAT_END
  1
CELLSTYLE_BEGIN
 90
        3
 91
        2
300
_DATA
309
CELLSTYLE_END
  0
XRECORD
  5
1846
102
{ACAD_REACTORS
330
180F
102
}
330
180F
100
AcDbXrecord
280
     1
102
ACAD_ROUNDTRIP_PRE2007_TABLESTYLE
 90
      512
 91
        0
  1

 92
      512
 93
        0
  2

 94
      512
 95
        0
  3

  0
XRECORD
  5
1821
102
{ACAD_REACTORS
330
1820
102
}
330
1820
100
AcDbXrecord
280
     1
102
RTVSPost2010Prop28
280
     1
102
RTVSPost2010PropOp28
 70
     1
102
RTVSPost2010Prop29
280
     1
102
RTVSPost2010PropOp29
 70
     1
102
RTVSPost2010Prop30
280
     0
102
RTVSPost2010PropOp30
 70
     1
102
RTVSPost2010Prop31
280
     0
102
RTVSPost2010PropOp31
 70
     1
102
RTVSPost2010Prop32
280
     0
102
RTVSPost2010PropOp32
 70
     1
102
RTVSPost2010Prop33
280
     0
102
RTVSPost2010PropOp33
 70
     1
102
RTVSPost2010Prop34
280
     0
102
RTVSPost2010PropOp34
 70
     1
102
RTVSPost2010Prop35
280
     0
102
RTVSPost2010PropOp35
 70
     1
102
RTVSPost2010Prop36
280
     0
102
RTVSPost2010PropOp36
 70
     1
102
RTVSPost2010Prop37
 90
       50
102
RTVSPost2010PropOp37
 70
     1
102
RTVSPost2010Prop38
140
0.0
102
RTVSPost2010PropOp38
 70
     1
102
RTVSPost2010Prop39
140
1.0
102
RTVSPost2010PropOp39
 70
     1
102
RTVSPost2010Prop40
 90
        0
102
RTVSPost2010PropOp40
 70
     1
102
RTVSPost2010Prop41ColorIndex
 90
       18
102
RTVSPost2010Prop41ColorRGB
 90
        0
102
RTVSPost2010PropOp41
 70
     1
102
RTVSPost2010Prop42
 90
       50
102
RTVSPost2010PropOp42
 70
     1
102
RTVSPost2010Prop43
 90
        3
102
RTVSPost2010PropOp43
 70
     1
102
RTVSPost2010Prop44ColorIndex
 90
        5
102
RTVSPost2010Prop44ColorRGB
 90
      255
102
RTVSPost2010PropOp44
 70
     1
102
RTVSPost2010Prop45
280
     0
102
RTVSPost2010PropOp45
 70
     1
102
RTVSPost2010Prop46
 90
       50
102
RTVSPost2010PropOp46
 70
     1
102
RTVSPost2010Prop47
 90
       50
102
RTVSPost2010PropOp47
 70
     1
102
RTVSPost2010Prop48
 90
       50
102
RTVSPost2010PropOp48
 70
     1
102
RTVSPost2010Prop49
280
     0
102
RTVSPost2010PropOp49
 70
     1
102
RTVSPost2010Prop50
 90
       50
102
RTVSPost2010PropOp50
 70
     1
102
RTVSPost2010Prop51ColorIndex
 90
      256
102
RTVSPost2010Prop51ColorRGB
 90
-16777216
102
RTVSPost2010PropOp51
 70
     0
102
RTVSPost2010Prop52
140
1.0
102
RTVSPost2010PropOp52
 70
     0
102
RTVSPost2010Prop53
 90
        2
102
RTVSPost2010PropOp53
 70
     1
102
RTVSPost2010Prop54
  1
strokes_ogs.tif
102
RTVSPost2010PropOp54
 70
     1
102
RTVSPost2010Prop55
280
     0
102
RTVSPost2010PropOp55
 70
     1
102
RTVSPost2010Prop56
140
1.0
102
RTVSPost2010PropOp56
 70
     1
102
RTVSPost2010Prop57
140
1.0
102
RTVSPost2010PropOp57
 70
     1
102
RTVSPropertyOp0
 70
     1
102
RTVSPropertyOp1
 70
     1
102
RTVSPropertyOp2
 70
     1
102
RTVSPropertyOp3
 70
     1
102
RTVSPropertyOp4
 70
     1
102
RTVSPropertyOp5
 70
     1
102
RTVSPropertyOp6
 70
     1
102
RTVSPropertyOp7
 70
     1
102
RTVSPropertyOp8
 70
     1
102
RTVSPropertyOp9
 70
     1
102
RTVSPropertyOp10
 70
     1
102
RTVSPropertyOp11
 70
     1
102
RTVSPropertyOp12
 70
     1
102
RTVSPropertyOp13
 70
     1
102
RTVSPropertyOp14
 70
     1
102
RTVSPropertyOp15
 70
     1
102
RTVSPropertyOp16
 70
     1
102
RTVSPropertyOp17
 70
     1
102
RTVSPropertyOp18
 70
     1
102
RTVSPropertyOp19
 70
     1
102
RTVSPropertyOp20
 70
     1
102
RTVSPropertyOp21
 70
     1
102
RTVSPropertyOp22
 70
     1
102
RTVSPropertyOp23
 70
     1
102
RTVSPropertyOp24
 70
     1
102
RTVSPropertyOp25
 70
     1
102
RTVSPropertyOp26
 70
     1
102
RTVSPropertyOp27
 70
     1
102
RTVSPropertyOp28
 70
     1
102
RTVSPropertyOp29
 70
     1
102
RTVSPropertyOp30
 70
     1
102
RTVSPropertyOp31
 70
     1
102
RTVSPropertyOp32
 70
     1
102
RTVSPropertyOp33
 70
     1
102
RTVSPropertyOp34
 70
     1
102
RTVSPropertyOp35
 70
     1
102
RTVSPropertyOp36
 70
     1
102
RTVSPropertyOp37
 70
     1
102
RTVSPropertyOp38
 70
     1
102
RTVSPropertyOp39
 70
     1
102
RTVSPropertyOp40
 70
     1
102
RTVSPropertyOp41
 70
     1
102
RTVSPropertyOp42
 70
     1
102
RTVSPropertyOp43
 70
     1
102
RTVSPropertyOp44
 70
     1
102
RTVSPropertyOp45
 70
     1
102
RTVSPropertyOp46
 70
     1
102
RTVSPropertyOp47
 70
     1
102
RTVSPropertyOp48
 70
     1
102
RTVSPropertyOp49
 70
     1
102
RTVSPropertyOp50
 70
     1
102
RTVSPropertyOp51
 70
     0
102
RTVSPropertyOp52
 70
     0
102
RTVSPropertyOp53
 70
     1
102
RTVSPropertyOp54
 70
     1
102
RTVSPropertyOp55
 70
     1
102
RTVSPropertyOp56
 70
     1
102
RTVSPropertyOp57
 70
     1
102
RTVSPropertyOp58
 70
     1
102
RTVSPropertyOp59
 70
     1
102
RTVSPropertyOp60
 70
     1
102
RTVSPropertyOp61
 70
     1
102
RTVSPropertyOp62
 70
     1
  0
XRECORD
  5
181F
102
{ACAD_REACTORS
330
181E
102
}
330
181E
100
AcDbXrecord
280
     1
102
RTVSPost2010Prop28
280
     0
102
RTVSPost2010PropOp28
 70
     1
102
RTVSPost2010Prop29
280
     1
102
RTVSPost2010PropOp29
 70
     1
102
RTVSPost2010Prop30
280
     1
102
RTVSPost2010PropOp30
 70
     1
102
RTVSPost2010Prop31
280
     0
102
RTVSPost2010PropOp31
 70
     1
102
RTVSPost2010Prop32
280
     0
102
RTVSPost2010PropOp32
 70
     1
102
RTVSPost2010Prop33
280
     0
102
RTVSPost2010PropOp33
 70
     1
102
RTVSPost2010Prop34
280
     0
102
RTVSPost2010PropOp34
 70
     1
102
RTVSPost2010Prop35
280
     0
102
RTVSPost2010PropOp35
 70
     1
102
RTVSPost2010Prop36
280
     0
102
RTVSPost2010PropOp36
 70
     1
102
RTVSPost2010Prop37
 90
       50
102
RTVSPost2010PropOp37
 70
     1
102
RTVSPost2010Prop38
140
0.0
102
RTVSPost2010PropOp38
 70
     1
102
RTVSPost2010Prop39
140
1.0
102
RTVSPost2010PropOp39
 70
     1
102
RTVSPost2010Prop40
 90
        0
102
RTVSPost2010PropOp40
 70
     1
102
RTVSPost2010Prop41ColorIndex
 90
       18
102
RTVSPost2010Prop41ColorRGB
 90
        0
102
RTVSPost2010PropOp41
 70
     1
102
RTVSPost2010Prop42
 90
       50
102
RTVSPost2010PropOp42
 70
     1
102
RTVSPost2010Prop43
 90
        3
102
RTVSPost2010PropOp43
 70
     1
102
RTVSPost2010Prop44ColorIndex
 90
        5
102
RTVSPost2010Prop44ColorRGB
 90
      255
102
RTVSPost2010PropOp44
 70
     1
102
RTVSPost2010Prop45
280
     0
102
RTVSPost2010PropOp45
 70
     1
102
RTVSPost2010Prop46
 90
       50
102
RTVSPost2010PropOp46
 70
     1
102
RTVSPost2010Prop47
 90
       50
102
RTVSPost2010PropOp47
 70
     1
102
RTVSPost2010Prop48
 90
       50
102
RTVSPost2010PropOp48
 70
     1
102
RTVSPost2010Prop49
280
     0
102
RTVSPost2010PropOp49
 70
     1
102
RTVSPost2010Prop50
 90
       50
102
RTVSPost2010PropOp50
 70
     1
102
RTVSPost2010Prop51ColorIndex
 90
      256
102
RTVSPost2010Prop51ColorRGB
 90
-16777216
102
RTVSPost2010PropOp51
 70
     0
102
RTVSPost2010Prop52
140
1.0
102
RTVSPost2010PropOp52
 70
     0
102
RTVSPost2010Prop53
 90
        2
102
RTVSPost2010PropOp53
 70
     1
102
RTVSPost2010Prop54
  1
strokes_ogs.tif
102
RTVSPost2010PropOp54
 70
     1
102
RTVSPost2010Prop55
280
     0
102
RTVSPost2010PropOp55
 70
     1
102
RTVSPost2010Prop56
140
1.0
102
RTVSPost2010PropOp56
 70
     1
102
RTVSPost2010Prop57
140
1.0
102
RTVSPost2010PropOp57
 70
     1
102
RTVSPropertyOp0
 70
     1
102
RTVSPropertyOp1
 70
     1
102
RTVSPropertyOp2
 70
     1
102
RTVSPropertyOp3
 70
     1
102
RTVSPropertyOp4
 70
     1
102
RTVSPropertyOp5
 70
     1
102
RTVSPropertyOp6
 70
     1
102
RTVSPropertyOp7
 70
     1
102
RTVSPropertyOp8
 70
     1
102
RTVSPropertyOp9
 70
     1
102
RTVSPropertyOp10
 70
     1
102
RTVSPropertyOp11
 70
     1
102
RTVSPropertyOp12
 70
     1
102
RTVSPropertyOp13
 70
     1
102
RTVSPropertyOp14
 70
     1
102
RTVSPropertyOp15
 70
     1
102
RTVSPropertyOp16
 70
     1
102
RTVSPropertyOp17
 70
     1
102
RTVSPropertyOp18
 70
     1
102
RTVSPropertyOp19
 70
     1
102
RTVSPropertyOp20
 70
     1
102
RTVSPropertyOp21
 70
     1
102
RTVSPropertyOp22
 70
     1
102
RTVSPropertyOp23
 70
     1
102
RTVSPropertyOp24
 70
     1
102
RTVSPropertyOp25
 70
     1
102
RTVSPropertyOp26
 70
     1
102
RTVSPropertyOp27
 70
     1
102
RTVSPropertyOp28
 70
     1
102
RTVSPropertyOp29
 70
     1
102
RTVSPropertyOp30
 70
     1
102
RTVSPropertyOp31
 70
     1
102
RTVSPropertyOp32
 70
     1
102
RTVSPropertyOp33
 70
     1
102
RTVSPropertyOp34
 70
     1
102
RTVSPropertyOp35
 70
     1
102
RTVSPropertyOp36
 70
     1
102
RTVSPropertyOp37
 70
     1
102
RTVSPropertyOp38
 70
     1
102
RTVSPropertyOp39
 70
     1
102
RTVSPropertyOp40
 70
     1
102
RTVSPropertyOp41
 70
     1
102
RTVSPropertyOp42
 70
     1
102
RTVSPropertyOp43
 70
     1
102
RTVSPropertyOp44
 70
     1
102
RTVSPropertyOp45
 70
     1
102
RTVSPropertyOp46
 70
     1
102
RTVSPropertyOp47
 70
     1
102
RTVSPropertyOp48
 70
     1
102
RTVSPropertyOp49
 70
     1
102
RTVSPropertyOp50
 70
     1
102
RTVSPropertyOp51
 70
     0
102
RTVSPropertyOp52
 70
     0
102
RTVSPropertyOp53
 70
     1
102
RTVSPropertyOp54
 70
     1
102
RTVSPropertyOp55
 70
     1
102
RTVSPropertyOp56
 70
     1
102
RTVSPropertyOp57
 70
     1
102
RTVSPropertyOp58
 70
     1
102
RTVSPropertyOp59
 70
     1
102
RTVSPropertyOp60
 70
     1
102
RTVSPropertyOp61
 70
     1
102
RTVSPropertyOp62
 70
     1
  0
XRECORD
  5
182D
102
{ACAD_REACTORS
330
182C
102
}
330
182C
100
AcDbXrecord
280
     1
102
RTVSPost2010Prop28
280
     0
102
RTVSPost2010PropOp28
 70
     1
102
RTVSPost2010Prop29
280
     1
102
RTVSPost2010PropOp29
 70
     1
102
RTVSPost2010Prop30
280
     1
102
RTVSPost2010PropOp30
 70
     1
102
RTVSPost2010Prop31
280
     0
102
RTVSPost2010PropOp31
 70
     1
102
RTVSPost2010Prop32
280
     0
102
RTVSPost2010PropOp32
 70
     1
102
RTVSPost2010Prop33
280
     0
102
RTVSPost2010PropOp33
 70
     1
102
RTVSPost2010Prop34
280
     0
102
RTVSPost2010PropOp34
 70
     1
102
RTVSPost2010Prop35
280
     0
102
RTVSPost2010PropOp35
 70
     1
102
RTVSPost2010Prop36
280
     0
102
RTVSPost2010PropOp36
 70
     1
102
RTVSPost2010Prop37
 90
       50
102
RTVSPost2010PropOp37
 70
     1
102
RTVSPost2010Prop38
140
0.0
102
RTVSPost2010PropOp38
 70
     1
102
RTVSPost2010Prop39
140
1.0
102
RTVSPost2010PropOp39
 70
     1
102
RTVSPost2010Prop40
 90
        0
102
RTVSPost2010PropOp40
 70
     1
102
RTVSPost2010Prop41ColorIndex
 90
       18
102
RTVSPost2010Prop41ColorRGB
 90
        0
102
RTVSPost2010PropOp41
 70
     1
102
RTVSPost2010Prop42
 90
       50
102
RTVSPost2010PropOp42
 70
     1
102
RTVSPost2010Prop43
 90
        3
102
RTVSPost2010PropOp43
 70
     1
102
RTVSPost2010Prop44ColorIndex
 90
        5
102
RTVSPost2010Prop44ColorRGB
 90
      255
102
RTVSPost2010PropOp44
 70
     1
102
RTVSPost2010Prop45
280
     0
102
RTVSPost2010PropOp45
 70
     1
102
RTVSPost2010Prop46
 90
       50
102
RTVSPost2010PropOp46
 70
     1
102
RTVSPost2010Prop47
 90
       50
102
RTVSPost2010PropOp47
 70
     1
102
RTVSPost2010Prop48
 90
       50
102
RTVSPost2010PropOp48
 70
     1
102
RTVSPost2010Prop49
280
     0
102
RTVSPost2010PropOp49
 70
     1
102
RTVSPost2010Prop50
 90
       50
102
RTVSPost2010PropOp50
 70
     1
102
RTVSPost2010Prop51ColorIndex
 90
      256
102
RTVSPost2010Prop51ColorRGB
 90
-16777216
102
RTVSPost2010PropOp51
 70
     0
102
RTVSPost2010Prop52
140
1.0
102
RTVSPost2010PropOp52
 70
     0
102
RTVSPost2010Prop53
 90
        2
102
RTVSPost2010PropOp53
 70
     1
102
RTVSPost2010Prop54
  1
strokes_ogs.tif
102
RTVSPost2010PropOp54
 70
     1
102
RTVSPost2010Prop55
280
     0
102
RTVSPost2010PropOp55
 70
     1
102
RTVSPost2010Prop56
140
1.0
102
RTVSPost2010PropOp56
 70
     1
102
RTVSPost2010Prop57
140
1.0
102
RTVSPost2010PropOp57
 70
     1
102
RTVSPropertyOp0
 70
     1
102
RTVSPropertyOp1
 70
     1
102
RTVSPropertyOp2
 70
     1
102
RTVSPropertyOp3
 70
     1
102
RTVSPropertyOp4
 70
     1
102
RTVSPropertyOp5
 70
     1
102
RTVSPropertyOp6
 70
     1
102
RTVSPropertyOp7
 70
     1
102
RTVSPropertyOp8
 70
     1
102
RTVSPropertyOp9
 70
     1
102
RTVSPropertyOp10
 70
     1
102
RTVSPropertyOp11
 70
     1
102
RTVSPropertyOp12
 70
     1
102
RTVSPropertyOp13
 70
     1
102
RTVSPropertyOp14
 70
     1
102
RTVSPropertyOp15
 70
     1
102
RTVSPropertyOp16
 70
     1
102
RTVSPropertyOp17
 70
     1
102
RTVSPropertyOp18
 70
     1
102
RTVSPropertyOp19
 70
     1
102
RTVSPropertyOp20
 70
     1
102
RTVSPropertyOp21
 70
     1
102
RTVSPropertyOp22
 70
     1
102
RTVSPropertyOp23
 70
     1
102
RTVSPropertyOp24
 70
     1
102
RTVSPropertyOp25
 70
     1
102
RTVSPropertyOp26
 70
     1
102
RTVSPropertyOp27
 70
     1
102
RTVSPropertyOp28
 70
     1
102
RTVSPropertyOp29
 70
     1
102
RTVSPropertyOp30
 70
     1
102
RTVSPropertyOp31
 70
     1
102
RTVSPropertyOp32
 70
     1
102
RTVSPropertyOp33
 70
     1
102
RTVSPropertyOp34
 70
     1
102
RTVSPropertyOp35
 70
     1
102
RTVSPropertyOp36
 70
     1
102
RTVSPropertyOp37
 70
     1
102
RTVSPropertyOp38
 70
     1
102
RTVSPropertyOp39
 70
     1
102
RTVSPropertyOp40
 70
     1
102
RTVSPropertyOp41
 70
     1
102
RTVSPropertyOp42
 70
     1
102
RTVSPropertyOp43
 70
     1
102
RTVSPropertyOp44
 70
     1
102
RTVSPropertyOp45
 70
     1
102
RTVSPropertyOp46
 70
     1
102
RTVSPropertyOp47
 70
     1
102
RTVSPropertyOp48
 70
     1
102
RTVSPropertyOp49
 70
     1
102
RTVSPropertyOp50
 70
     1
102
RTVSPropertyOp51
 70
     0
102
RTVSPropertyOp52
 70
     0
102
RTVSPropertyOp53
 70
     1
102
RTVSPropertyOp54
 70
     1
102
RTVSPropertyOp55
 70
     1
102
RTVSPropertyOp56
 70
     1
102
RTVSPropertyOp57
 70
     1
102
RTVSPropertyOp58
 70
     1
102
RTVSPropertyOp59
 70
     1
102
RTVSPropertyOp60
 70
     1
102
RTVSPropertyOp61
 70
     1
102
RTVSPropertyOp62
 70
     1
  0
XRECORD
  5
1835
102
{ACAD_REACTORS
330
1834
102
}
330
1834
100
AcDbXrecord
280
     1
102
RTVSPost2010Prop28
280
     0
102
RTVSPost2010PropOp28
 70
     1
102
RTVSPost2010Prop29
280
     1
102
RTVSPost2010PropOp29
 70
     1
102
RTVSPost2010Prop30
280
     1
102
RTVSPost2010PropOp30
 70
     1
102
RTVSPost2010Prop31
280
     0
102
RTVSPost2010PropOp31
 70
     1
102
RTVSPost2010Prop32
280
     0
102
RTVSPost2010PropOp32
 70
     1
102
RTVSPost2010Prop33
280
     0
102
RTVSPost2010PropOp33
 70
     1
102
RTVSPost2010Prop34
280
     0
102
RTVSPost2010PropOp34
 70
     1
102
RTVSPost2010Prop35
280
     0
102
RTVSPost2010PropOp35
 70
     1
102
RTVSPost2010Prop36
280
     0
102
RTVSPost2010PropOp36
 70
     1
102
RTVSPost2010Prop37
 90
       50
102
RTVSPost2010PropOp37
 70
     1
102
RTVSPost2010Prop38
140
0.0
102
RTVSPost2010PropOp38
 70
     1
102
RTVSPost2010Prop39
140
1.0
102
RTVSPost2010PropOp39
 70
     1
102
RTVSPost2010Prop40
 90
        0
102
RTVSPost2010PropOp40
 70
     1
102
RTVSPost2010Prop41ColorIndex
 90
       18
102
RTVSPost2010Prop41ColorRGB
 90
        0
102
RTVSPost2010PropOp41
 70
     1
102
RTVSPost2010Prop42
 90
       50
102
RTVSPost2010PropOp42
 70
     1
102
RTVSPost2010Prop43
 90
        3
102
RTVSPost2010PropOp43
 70
     1
102
RTVSPost2010Prop44ColorIndex
 90
        5
102
RTVSPost2010Prop44ColorRGB
 90
      255
102
RTVSPost2010PropOp44
 70
     1
102
RTVSPost2010Prop45
280
     0
102
RTVSPost2010PropOp45
 70
     1
102
RTVSPost2010Prop46
 90
       50
102
RTVSPost2010PropOp46
 70
     1
102
RTVSPost2010Prop47
 90
       50
102
RTVSPost2010PropOp47
 70
     1
102
RTVSPost2010Prop48
 90
       50
102
RTVSPost2010PropOp48
 70
     1
102
RTVSPost2010Prop49
280
     0
102
RTVSPost2010PropOp49
 70
     1
102
RTVSPost2010Prop50
 90
       50
102
RTVSPost2010PropOp50
 70
     1
102
RTVSPost2010Prop51ColorIndex
 90
      256
102
RTVSPost2010Prop51ColorRGB
 90
-16777216
102
RTVSPost2010PropOp51
 70
     0
102
RTVSPost2010Prop52
140
1.0
102
RTVSPost2010PropOp52
 70
     0
102
RTVSPost2010Prop53
 90
        2
102
RTVSPost2010PropOp53
 70
     1
102
RTVSPost2010Prop54
  1
strokes_ogs.tif
102
RTVSPost2010PropOp54
 70
     1
102
RTVSPost2010Prop55
280
     0
102
RTVSPost2010PropOp55
 70
     1
102
RTVSPost2010Prop56
140
1.0
102
RTVSPost2010PropOp56
 70
     1
102
RTVSPost2010Prop57
140
1.0
102
RTVSPost2010PropOp57
 70
     1
102
RTVSPropertyOp0
 70
     1
102
RTVSPropertyOp1
 70
     1
102
RTVSPropertyOp2
 70
     1
102
RTVSPropertyOp3
 70
     1
102
RTVSPropertyOp4
 70
     1
102
RTVSPropertyOp5
 70
     1
102
RTVSPropertyOp6
 70
     1
102
RTVSPropertyOp7
 70
     1
102
RTVSPropertyOp8
 70
     1
102
RTVSPropertyOp9
 70
     1
102
RTVSPropertyOp10
 70
     1
102
RTVSPropertyOp11
 70
     1
102
RTVSPropertyOp12
 70
     1
102
RTVSPropertyOp13
 70
     1
102
RTVSPropertyOp14
 70
     1
102
RTVSPropertyOp15
 70
     1
102
RTVSPropertyOp16
 70
     1
102
RTVSPropertyOp17
 70
     1
102
RTVSPropertyOp18
 70
     1
102
RTVSPropertyOp19
 70
     1
102
RTVSPropertyOp20
 70
     1
102
RTVSPropertyOp21
 70
     1
102
RTVSPropertyOp22
 70
     1
102
RTVSPropertyOp23
 70
     1
102
RTVSPropertyOp24
 70
     1
102
RTVSPropertyOp25
 70
     1
102
RTVSPropertyOp26
 70
     1
102
RTVSPropertyOp27
 70
     1
102
RTVSPropertyOp28
 70
     1
102
RTVSPropertyOp29
 70
     1
102
RTVSPropertyOp30
 70
     1
102
RTVSPropertyOp31
 70
     1
102
RTVSPropertyOp32
 70
     1
102
RTVSPropertyOp33
 70
     1
102
RTVSPropertyOp34
 70
     1
102
RTVSPropertyOp35
 70
     1
102
RTVSPropertyOp36
 70
     1
102
RTVSPropertyOp37
 70
     1
102
RTVSPropertyOp38
 70
     1
102
RTVSPropertyOp39
 70
     1
102
RTVSPropertyOp40
 70
     1
102
RTVSPropertyOp41
 70
     1
102
RTVSPropertyOp42
 70
     1
102
RTVSPropertyOp43
 70
     1
102
RTVSPropertyOp44
 70
     1
102
RTVSPropertyOp45
 70
     1
102
RTVSPropertyOp46
 70
     1
102
RTVSPropertyOp47
 70
     1
102
RTVSPropertyOp48
 70
     1
102
RTVSPropertyOp49
 70
     1
102
RTVSPropertyOp50
 70
     1
102
RTVSPropertyOp51
 70
     0
102
RTVSPropertyOp52
 70
     0
102
RTVSPropertyOp53
 70
     1
102
RTVSPropertyOp54
 70
     1
102
RTVSPropertyOp55
 70
     1
102
RTVSPropertyOp56
 70
     1
102
RTVSPropertyOp57
 70
     1
102
RTVSPropertyOp58
 70
     1
102
RTVSPropertyOp59
 70
     1
102
RTVSPropertyOp60
 70
     1
102
RTVSPropertyOp61
 70
     1
102
RTVSPropertyOp62
 70
     1
  0
XRECORD
  5
1827
102
{ACAD_REACTORS
330
1826
102
}
330
1826
100
AcDbXrecord
280
     1
102
RTVSPost2010Prop28
280
     0
102
RTVSPost2010PropOp28
 70
     1
102
RTVSPost2010Prop29
280
     1
102
RTVSPost2010PropOp29
 70
     1
102
RTVSPost2010Prop30
280
     1
102
RTVSPost2010PropOp30
 70
     1
102
RTVSPost2010Prop31
280
     0
102
RTVSPost2010PropOp31
 70
     1
102
RTVSPost2010Prop32
280
     0
102
RTVSPost2010PropOp32
 70
     1
102
RTVSPost2010Prop33
280
     0
102
RTVSPost2010PropOp33
 70
     1
102
RTVSPost2010Prop34
280
     0
102
RTVSPost2010PropOp34
 70
     1
102
RTVSPost2010Prop35
280
     0
102
RTVSPost2010PropOp35
 70
     1
102
RTVSPost2010Prop36
280
     0
102
RTVSPost2010PropOp36
 70
     1
102
RTVSPost2010Prop37
 90
       50
102
RTVSPost2010PropOp37
 70
     1
102
RTVSPost2010Prop38
140
0.0
102
RTVSPost2010PropOp38
 70
     1
102
RTVSPost2010Prop39
140
1.0
102
RTVSPost2010PropOp39
 70
     1
102
RTVSPost2010Prop40
 90
        0
102
RTVSPost2010PropOp40
 70
     1
102
RTVSPost2010Prop41ColorIndex
 90
       18
102
RTVSPost2010Prop41ColorRGB
 90
        0
102
RTVSPost2010PropOp41
 70
     1
102
RTVSPost2010Prop42
 90
       50
102
RTVSPost2010PropOp42
 70
     1
102
RTVSPost2010Prop43
 90
        3
102
RTVSPost2010PropOp43
 70
     1
102
RTVSPost2010Prop44ColorIndex
 90
        5
102
RTVSPost2010Prop44ColorRGB
 90
      255
102
RTVSPost2010PropOp44
 70
     1
102
RTVSPost2010Prop45
280
     0
102
RTVSPost2010PropOp45
 70
     1
102
RTVSPost2010Prop46
 90
       50
102
RTVSPost2010PropOp46
 70
     1
102
RTVSPost2010Prop47
 90
       50
102
RTVSPost2010PropOp47
 70
     1
102
RTVSPost2010Prop48
 90
       50
102
RTVSPost2010PropOp48
 70
     1
102
RTVSPost2010Prop49
280
     0
102
RTVSPost2010PropOp49
 70
     1
102
RTVSPost2010Prop50
 90
       50
102
RTVSPost2010PropOp50
 70
     1
102
RTVSPost2010Prop51ColorIndex
 90
      256
102
RTVSPost2010Prop51ColorRGB
 90
-16777216
102
RTVSPost2010PropOp51
 70
     0
102
RTVSPost2010Prop52
140
1.0
102
RTVSPost2010PropOp52
 70
     0
102
RTVSPost2010Prop53
 90
        2
102
RTVSPost2010PropOp53
 70
     1
102
RTVSPost2010Prop54
  1
strokes_ogs.tif
102
RTVSPost2010PropOp54
 70
     1
102
RTVSPost2010Prop55
280
     0
102
RTVSPost2010PropOp55
 70
     1
102
RTVSPost2010Prop56
140
1.0
102
RTVSPost2010PropOp56
 70
     1
102
RTVSPost2010Prop57
140
1.0
102
RTVSPost2010PropOp57
 70
     1
102
RTVSPropertyOp0
 70
     1
102
RTVSPropertyOp1
 70
     1
102
RTVSPropertyOp2
 70
     1
102
RTVSPropertyOp3
 70
     1
102
RTVSPropertyOp4
 70
     1
102
RTVSPropertyOp5
 70
     1
102
RTVSPropertyOp6
 70
     1
102
RTVSPropertyOp7
 70
     1
102
RTVSPropertyOp8
 70
     1
102
RTVSPropertyOp9
 70
     1
102
RTVSPropertyOp10
 70
     1
102
RTVSPropertyOp11
 70
     1
102
RTVSPropertyOp12
 70
     1
102
RTVSPropertyOp13
 70
     1
102
RTVSPropertyOp14
 70
     1
102
RTVSPropertyOp15
 70
     1
102
RTVSPropertyOp16
 70
     1
102
RTVSPropertyOp17
 70
     1
102
RTVSPropertyOp18
 70
     1
102
RTVSPropertyOp19
 70
     1
102
RTVSPropertyOp20
 70
     1
102
RTVSPropertyOp21
 70
     1
102
RTVSPropertyOp22
 70
     1
102
RTVSPropertyOp23
 70
     1
102
RTVSPropertyOp24
 70
     1
102
RTVSPropertyOp25
 70
     1
102
RTVSPropertyOp26
 70
     1
102
RTVSPropertyOp27
 70
     1
102
RTVSPropertyOp28
 70
     1
102
RTVSPropertyOp29
 70
     1
102
RTVSPropertyOp30
 70
     1
102
RTVSPropertyOp31
 70
     1
102
RTVSPropertyOp32
 70
     1
102
RTVSPropertyOp33
 70
     1
102
RTVSPropertyOp34
 70
     1
102
RTVSPropertyOp35
 70
     1
102
RTVSPropertyOp36
 70
     1
102
RTVSPropertyOp37
 70
     1
102
RTVSPropertyOp38
 70
     1
102
RTVSPropertyOp39
 70
     1
102
RTVSPropertyOp40
 70
     1
102
RTVSPropertyOp41
 70
     1
102
RTVSPropertyOp42
 70
     1
102
RTVSPropertyOp43
 70
     1
102
RTVSPropertyOp44
 70
     1
102
RTVSPropertyOp45
 70
     1
102
RTVSPropertyOp46
 70
     1
102
RTVSPropertyOp47
 70
     1
102
RTVSPropertyOp48
 70
     1
102
RTVSPropertyOp49
 70
     1
102
RTVSPropertyOp50
 70
     1
102
RTVSPropertyOp51
 70
     0
102
RTVSPropertyOp52
 70
     0
102
RTVSPropertyOp53
 70
     1
102
RTVSPropertyOp54
 70
     1
102
RTVSPropertyOp55
 70
     1
102
RTVSPropertyOp56
 70
     1
102
RTVSPropertyOp57
 70
     1
102
RTVSPropertyOp58
 70
     1
102
RTVSPropertyOp59
 70
     1
102
RTVSPropertyOp60
 70
     1
102
RTVSPropertyOp61
 70
     1
102
RTVSPropertyOp62
 70
     1
  0
XRECORD
  5
182B
102
{ACAD_REACTORS
330
182A
102
}
330
182A
100
AcDbXrecord
280
     1
102
RTVSPost2010Prop28
280
     0
102
RTVSPost2010PropOp28
 70
     1
102
RTVSPost2010Prop29
280
     1
102
RTVSPost2010PropOp29
 70
     1
102
RTVSPost2010Prop30
280
     1
102
RTVSPost2010PropOp30
 70
     1
102
RTVSPost2010Prop31
280
     0
102
RTVSPost2010PropOp31
 70
     1
102
RTVSPost2010Prop32
280
     0
102
RTVSPost2010PropOp32
 70
     1
102
RTVSPost2010Prop33
280
     0
102
RTVSPost2010PropOp33
 70
     1
102
RTVSPost2010Prop34
280
     0
102
RTVSPost2010PropOp34
 70
     1
102
RTVSPost2010Prop35
280
     0
102
RTVSPost2010PropOp35
 70
     1
102
RTVSPost2010Prop36
280
     0
102
RTVSPost2010PropOp36
 70
     1
102
RTVSPost2010Prop37
 90
       50
102
RTVSPost2010PropOp37
 70
     1
102
RTVSPost2010Prop38
140
0.0
102
RTVSPost2010PropOp38
 70
     1
102
RTVSPost2010Prop39
140
1.0
102
RTVSPost2010PropOp39
 70
     1
102
RTVSPost2010Prop40
 90
        0
102
RTVSPost2010PropOp40
 70
     1
102
RTVSPost2010Prop41ColorIndex
 90
       18
102
RTVSPost2010Prop41ColorRGB
 90
        0
102
RTVSPost2010PropOp41
 70
     1
102
RTVSPost2010Prop42
 90
       50
102
RTVSPost2010PropOp42
 70
     1
102
RTVSPost2010Prop43
 90
        3
102
RTVSPost2010PropOp43
 70
     1
102
RTVSPost2010Prop44ColorIndex
 90
        5
102
RTVSPost2010Prop44ColorRGB
 90
      255
102
RTVSPost2010PropOp44
 70
     1
102
RTVSPost2010Prop45
280
     0
102
RTVSPost2010PropOp45
 70
     1
102
RTVSPost2010Prop46
 90
       50
102
RTVSPost2010PropOp46
 70
     1
102
RTVSPost2010Prop47
 90
       50
102
RTVSPost2010PropOp47
 70
     1
102
RTVSPost2010Prop48
 90
       50
102
RTVSPost2010PropOp48
 70
     1
102
RTVSPost2010Prop49
280
     0
102
RTVSPost2010PropOp49
 70
     1
102
RTVSPost2010Prop50
 90
       50
102
RTVSPost2010PropOp50
 70
     1
102
RTVSPost2010Prop51ColorIndex
 90
      256
102
RTVSPost2010Prop51ColorRGB
 90
-16777216
102
RTVSPost2010PropOp51
 70
     0
102
RTVSPost2010Prop52
140
1.0
102
RTVSPost2010PropOp52
 70
     0
102
RTVSPost2010Prop53
 90
        2
102
RTVSPost2010PropOp53
 70
     1
102
RTVSPost2010Prop54
  1
strokes_ogs.tif
102
RTVSPost2010PropOp54
 70
     1
102
RTVSPost2010Prop55
280
     0
102
RTVSPost2010PropOp55
 70
     1
102
RTVSPost2010Prop56
140
1.0
102
RTVSPost2010PropOp56
 70
     1
102
RTVSPost2010Prop57
140
1.0
102
RTVSPost2010PropOp57
 70
     1
102
RTVSPropertyOp0
 70
     1
102
RTVSPropertyOp1
 70
     1
102
RTVSPropertyOp2
 70
     1
102
RTVSPropertyOp3
 70
     1
102
RTVSPropertyOp4
 70
     1
102
RTVSPropertyOp5
 70
     1
102
RTVSPropertyOp6
 70
     1
102
RTVSPropertyOp7
 70
     1
102
RTVSPropertyOp8
 70
     1
102
RTVSPropertyOp9
 70
     1
102
RTVSPropertyOp10
 70
     1
102
RTVSPropertyOp11
 70
     1
102
RTVSPropertyOp12
 70
     1
102
RTVSPropertyOp13
 70
     1
102
RTVSPropertyOp14
 70
     1
102
RTVSPropertyOp15
 70
     1
102
RTVSPropertyOp16
 70
     1
102
RTVSPropertyOp17
 70
     1
102
RTVSPropertyOp18
 70
     1
102
RTVSPropertyOp19
 70
     1
102
RTVSPropertyOp20
 70
     1
102
RTVSPropertyOp21
 70
     1
102
RTVSPropertyOp22
 70
     1
102
RTVSPropertyOp23
 70
     1
102
RTVSPropertyOp24
 70
     1
102
RTVSPropertyOp25
 70
     1
102
RTVSPropertyOp26
 70
     1
102
RTVSPropertyOp27
 70
     1
102
RTVSPropertyOp28
 70
     1
102
RTVSPropertyOp29
 70
     1
102
RTVSPropertyOp30
 70
     1
102
RTVSPropertyOp31
 70
     1
102
RTVSPropertyOp32
 70
     1
102
RTVSPropertyOp33
 70
     1
102
RTVSPropertyOp34
 70
     1
102
RTVSPropertyOp35
 70
     1
102
RTVSPropertyOp36
 70
     1
102
RTVSPropertyOp37
 70
     1
102
RTVSPropertyOp38
 70
     1
102
RTVSPropertyOp39
 70
     1
102
RTVSPropertyOp40
 70
     1
102
RTVSPropertyOp41
 70
     1
102
RTVSPropertyOp42
 70
     1
102
RTVSPropertyOp43
 70
     1
102
RTVSPropertyOp44
 70
     1
102
RTVSPropertyOp45
 70
     1
102
RTVSPropertyOp46
 70
     1
102
RTVSPropertyOp47
 70
     1
102
RTVSPropertyOp48
 70
     1
102
RTVSPropertyOp49
 70
     1
102
RTVSPropertyOp50
 70
     1
102
RTVSPropertyOp51
 70
     0
102
RTVSPropertyOp52
 70
     0
102
RTVSPropertyOp53
 70
     1
102
RTVSPropertyOp54
 70
     1
102
RTVSPropertyOp55
 70
     1
102
RTVSPropertyOp56
 70
     1
102
RTVSPropertyOp57
 70
     1
102
RTVSPropertyOp58
 70
     1
102
RTVSPropertyOp59
 70
     1
102
RTVSPropertyOp60
 70
     1
102
RTVSPropertyOp61
 70
     1
102
RTVSPropertyOp62
 70
     1
  0
XRECORD
  5
1845
102
{ACAD_REACTORS
330
1844
102
}
330
1844
100
AcDbXrecord
280
     1
102
RTVSPost2010Prop28
280
     0
102
RTVSPost2010PropOp28
 70
     1
102
RTVSPost2010Prop29
280
     1
102
RTVSPost2010PropOp29
 70
     1
102
RTVSPost2010Prop30
280
     1
102
RTVSPost2010PropOp30
 70
     1
102
RTVSPost2010Prop31
280
     0
102
RTVSPost2010PropOp31
 70
     1
102
RTVSPost2010Prop32
280
     0
102
RTVSPost2010PropOp32
 70
     1
102
RTVSPost2010Prop33
280
     0
102
RTVSPost2010PropOp33
 70
     1
102
RTVSPost2010Prop34
280
     0
102
RTVSPost2010PropOp34
 70
     1
102
RTVSPost2010Prop35
280
     0
102
RTVSPost2010PropOp35
 70
     1
102
RTVSPost2010Prop36
280
     0
102
RTVSPost2010PropOp36
 70
     1
102
RTVSPost2010Prop37
 90
       50
102
RTVSPost2010PropOp37
 70
     0
102
RTVSPost2010Prop38
140
0.0
102
RTVSPost2010PropOp38
 70
     0
102
RTVSPost2010Prop39
140
1.0
102
RTVSPost2010PropOp39
 70
     0
102
RTVSPost2010Prop40
 90
        0
102
RTVSPost2010PropOp40
 70
     0
102
RTVSPost2010Prop41ColorIndex
 90
       18
102
RTVSPost2010Prop41ColorRGB
 90
        0
102
RTVSPost2010PropOp41
 70
     0
102
RTVSPost2010Prop42
 90
       50
102
RTVSPost2010PropOp42
 70
     0
102
RTVSPost2010Prop43
 90
        3
102
RTVSPost2010PropOp43
 70
     0
102
RTVSPost2010Prop44ColorIndex
 90
        5
102
RTVSPost2010Prop44ColorRGB
 90
      255
102
RTVSPost2010PropOp44
 70
     0
102
RTVSPost2010Prop45
280
     0
102
RTVSPost2010PropOp45
 70
     1
102
RTVSPost2010Prop46
 90
       50
102
RTVSPost2010PropOp46
 70
     0
102
RTVSPost2010Prop47
 90
       50
102
RTVSPost2010PropOp47
 70
     0
102
RTVSPost2010Prop48
 90
       50
102
RTVSPost2010PropOp48
 70
     0
102
RTVSPost2010Prop49
280
     0
102
RTVSPost2010PropOp49
 70
     1
102
RTVSPost2010Prop50
 90
       50
102
RTVSPost2010PropOp50
 70
     0
102
RTVSPost2010Prop51ColorIndex
 90
      256
102
RTVSPost2010Prop51ColorRGB
 90
-16777216
102
RTVSPost2010PropOp51
 70
     0
102
RTVSPost2010Prop52
140
1.0
102
RTVSPost2010PropOp52
 70
     0
102
RTVSPost2010Prop53
 90
        2
102
RTVSPost2010PropOp53
 70
     0
102
RTVSPost2010Prop54
  1
strokes_ogs.tif
102
RTVSPost2010PropOp54
 70
     0
102
RTVSPost2010Prop55
280
     0
102
RTVSPost2010PropOp55
 70
     1
102
RTVSPost2010Prop56
140
1.0
102
RTVSPost2010PropOp56
 70
     0
102
RTVSPost2010Prop57
140
1.0
102
RTVSPost2010PropOp57
 70
     0
102
RTVSPropertyOp0
 70
     0
102
RTVSPropertyOp1
 70
     0
102
RTVSPropertyOp2
 70
     0
102
RTVSPropertyOp3
 70
     0
102
RTVSPropertyOp4
 70
     0
102
RTVSPropertyOp5
 70
     0
102
RTVSPropertyOp6
 70
     0
102
RTVSPropertyOp7
 70
     0
102
RTVSPropertyOp8
 70
     0
102
RTVSPropertyOp9
 70
     0
102
RTVSPropertyOp10
 70
     0
102
RTVSPropertyOp11
 70
     0
102
RTVSPropertyOp12
 70
     0
102
RTVSPropertyOp13
 70
     0
102
RTVSPropertyOp14
 70
     2
102
RTVSPropertyOp15
 70
     0
102
RTVSPropertyOp16
 70
     0
102
RTVSPropertyOp17
 70
     0
102
RTVSPropertyOp18
 70
     0
102
RTVSPropertyOp19
 70
     0
102
RTVSPropertyOp20
 70
     0
102
RTVSPropertyOp21
 70
     0
102
RTVSPropertyOp22
 70
     0
102
RTVSPropertyOp23
 70
     0
102
RTVSPropertyOp24
 70
     0
102
RTVSPropertyOp25
 70
     0
102
RTVSPropertyOp26
 70
     0
102
RTVSPropertyOp27
 70
     0
102
RTVSPropertyOp28
 70
     1
102
RTVSPropertyOp29
 70
     1
102
RTVSPropertyOp30
 70
     1
102
RTVSPropertyOp31
 70
     1
102
RTVSPropertyOp32
 70
     1
102
RTVSPropertyOp33
 70
     1
102
RTVSPropertyOp34
 70
     1
102
RTVSPropertyOp35
 70
     1
102
RTVSPropertyOp36
 70
     1
102
RTVSPropertyOp37
 70
     0
102
RTVSPropertyOp38
 70
     0
102
RTVSPropertyOp39
 70
     0
102
RTVSPropertyOp40
 70
     0
102
RTVSPropertyOp41
 70
     0
102
RTVSPropertyOp42
 70
     0
102
RTVSPropertyOp43
 70
     0
102
RTVSPropertyOp44
 70
     0
102
RTVSPropertyOp45
 70
     1
102
RTVSPropertyOp46
 70
     0
102
RTVSPropertyOp47
 70
     0
102
RTVSPropertyOp48
 70
     0
102
RTVSPropertyOp49
 70
     1
102
RTVSPropertyOp50
 70
     0
102
RTVSPropertyOp51
 70
     0
102
RTVSPropertyOp52
 70
     0
102
RTVSPropertyOp53
 70
     0
102
RTVSPropertyOp54
 70
     0
102
RTVSPropertyOp55
 70
     1
102
RTVSPropertyOp56
 70
     0
102
RTVSPropertyOp57
 70
     0
102
RTVSPropertyOp58
 70
     0
102
RTVSPropertyOp59
 70
     0
102
RTVSPropertyOp60
 70
     0
102
RTVSPropertyOp61
 70
     0
102
RTVSPropertyOp62
 70
     0
  0
XRECORD
  5
1833
102
{ACAD_REACTORS
330
1832
102
}
330
1832
100
AcDbXrecord
280
     1
102
RTVSPost2010Prop28
280
     0
102
RTVSPost2010PropOp28
 70
     1
102
RTVSPost2010Prop29
280
     1
102
RTVSPost2010PropOp29
 70
     1
102
RTVSPost2010Prop30
280
     1
102
RTVSPost2010PropOp30
 70
     1
102
RTVSPost2010Prop31
280
     0
102
RTVSPost2010PropOp31
 70
     1
102
RTVSPost2010Prop32
280
     0
102
RTVSPost2010PropOp32
 70
     1
102
RTVSPost2010Prop33
280
     0
102
RTVSPost2010PropOp33
 70
     1
102
RTVSPost2010Prop34
280
     0
102
RTVSPost2010PropOp34
 70
     1
102
RTVSPost2010Prop35
280
     0
102
RTVSPost2010PropOp35
 70
     1
102
RTVSPost2010Prop36
280
     0
102
RTVSPost2010PropOp36
 70
     1
102
RTVSPost2010Prop37
 90
       50
102
RTVSPost2010PropOp37
 70
     1
102
RTVSPost2010Prop38
140
0.0
102
RTVSPost2010PropOp38
 70
     1
102
RTVSPost2010Prop39
140
1.0
102
RTVSPost2010PropOp39
 70
     1
102
RTVSPost2010Prop40
 90
        0
102
RTVSPost2010PropOp40
 70
     1
102
RTVSPost2010Prop41ColorIndex
 90
       18
102
RTVSPost2010Prop41ColorRGB
 90
        0
102
RTVSPost2010PropOp41
 70
     1
102
RTVSPost2010Prop42
 90
       50
102
RTVSPost2010PropOp42
 70
     1
102
RTVSPost2010Prop43
 90
        3
102
RTVSPost2010PropOp43
 70
     1
102
RTVSPost2010Prop44ColorIndex
 90
        5
102
RTVSPost2010Prop44ColorRGB
 90
      255
102
RTVSPost2010PropOp44
 70
     1
102
RTVSPost2010Prop45
280
     0
102
RTVSPost2010PropOp45
 70
     1
102
RTVSPost2010Prop46
 90
       50
102
RTVSPost2010PropOp46
 70
     1
102
RTVSPost2010Prop47
 90
       50
102
RTVSPost2010PropOp47
 70
     1
102
RTVSPost2010Prop48
 90
       50
102
RTVSPost2010PropOp48
 70
     1
102
RTVSPost2010Prop49
280
     0
102
RTVSPost2010PropOp49
 70
     1
102
RTVSPost2010Prop50
 90
       50
102
RTVSPost2010PropOp50
 70
     1
102
RTVSPost2010Prop51ColorIndex
 90
      256
102
RTVSPost2010Prop51ColorRGB
 90
-16777216
102
RTVSPost2010PropOp51
 70
     0
102
RTVSPost2010Prop52
140
1.0
102
RTVSPost2010PropOp52
 70
     0
102
RTVSPost2010Prop53
 90
        2
102
RTVSPost2010PropOp53
 70
     1
102
RTVSPost2010Prop54
  1
strokes_ogs.tif
102
RTVSPost2010PropOp54
 70
     1
102
RTVSPost2010Prop55
280
     0
102
RTVSPost2010PropOp55
 70
     1
102
RTVSPost2010Prop56
140
1.0
102
RTVSPost2010PropOp56
 70
     1
102
RTVSPost2010Prop57
140
1.0
102
RTVSPost2010PropOp57
 70
     1
102
RTVSPropertyOp0
 70
     1
102
RTVSPropertyOp1
 70
     1
102
RTVSPropertyOp2
 70
     1
102
RTVSPropertyOp3
 70
     1
102
RTVSPropertyOp4
 70
     1
102
RTVSPropertyOp5
 70
     1
102
RTVSPropertyOp6
 70
     1
102
RTVSPropertyOp7
 70
     1
102
RTVSPropertyOp8
 70
     1
102
RTVSPropertyOp9
 70
     1
102
RTVSPropertyOp10
 70
     1
102
RTVSPropertyOp11
 70
     1
102
RTVSPropertyOp12
 70
     1
102
RTVSPropertyOp13
 70
     1
102
RTVSPropertyOp14
 70
     1
102
RTVSPropertyOp15
 70
     1
102
RTVSPropertyOp16
 70
     1
102
RTVSPropertyOp17
 70
     1
102
RTVSPropertyOp18
 70
     1
102
RTVSPropertyOp19
 70
     1
102
RTVSPropertyOp20
 70
     1
102
RTVSPropertyOp21
 70
     1
102
RTVSPropertyOp22
 70
     1
102
RTVSPropertyOp23
 70
     1
102
RTVSPropertyOp24
 70
     1
102
RTVSPropertyOp25
 70
     1
102
RTVSPropertyOp26
 70
     1
102
RTVSPropertyOp27
 70
     1
102
RTVSPropertyOp28
 70
     1
102
RTVSPropertyOp29
 70
     1
102
RTVSPropertyOp30
 70
     1
102
RTVSPropertyOp31
 70
     1
102
RTVSPropertyOp32
 70
     1
102
RTVSPropertyOp33
 70
     1
102
RTVSPropertyOp34
 70
     1
102
RTVSPropertyOp35
 70
     1
102
RTVSPropertyOp36
 70
     1
102
RTVSPropertyOp37
 70
     1
102
RTVSPropertyOp38
 70
     1
102
RTVSPropertyOp39
 70
     1
102
RTVSPropertyOp40
 70
     1
102
RTVSPropertyOp41
 70
     1
102
RTVSPropertyOp42
 70
     1
102
RTVSPropertyOp43
 70
     1
102
RTVSPropertyOp44
 70
     1
102
RTVSPropertyOp45
 70
     1
102
RTVSPropertyOp46
 70
     1
102
RTVSPropertyOp47
 70
     1
102
RTVSPropertyOp48
 70
     1
102
RTVSPropertyOp49
 70
     1
102
RTVSPropertyOp50
 70
     1
102
RTVSPropertyOp51
 70
     0
102
RTVSPropertyOp52
 70
     0
102
RTVSPropertyOp53
 70
     1
102
RTVSPropertyOp54
 70
     1
102
RTVSPropertyOp55
 70
     1
102
RTVSPropertyOp56
 70
     1
102
RTVSPropertyOp57
 70
     1
102
RTVSPropertyOp58
 70
     1
102
RTVSPropertyOp59
 70
     1
102
RTVSPropertyOp60
 70
     1
102
RTVSPropertyOp61
 70
     1
102
RTVSPropertyOp62
 70
     1
  0
XRECORD
  5
1817
102
{ACAD_REACTORS
330
1816
102
}
330
1816
100
AcDbXrecord
280
     1
102
RTVSPost2010Prop28
280
     0
102
RTVSPost2010PropOp28
 70
     1
102
RTVSPost2010Prop29
280
     1
102
RTVSPost2010PropOp29
 70
     1
102
RTVSPost2010Prop30
280
     1
102
RTVSPost2010PropOp30
 70
     1
102
RTVSPost2010Prop31
280
     0
102
RTVSPost2010PropOp31
 70
     1
102
RTVSPost2010Prop32
280
     0
102
RTVSPost2010PropOp32
 70
     1
102
RTVSPost2010Prop33
280
     0
102
RTVSPost2010PropOp33
 70
     1
102
RTVSPost2010Prop34
280
     0
102
RTVSPost2010PropOp34
 70
     1
102
RTVSPost2010Prop35
280
     0
102
RTVSPost2010PropOp35
 70
     1
102
RTVSPost2010Prop36
280
     0
102
RTVSPost2010PropOp36
 70
     1
102
RTVSPost2010Prop37
 90
       50
102
RTVSPost2010PropOp37
 70
     1
102
RTVSPost2010Prop38
140
0.0
102
RTVSPost2010PropOp38
 70
     1
102
RTVSPost2010Prop39
140
1.0
102
RTVSPost2010PropOp39
 70
     1
102
RTVSPost2010Prop40
 90
        0
102
RTVSPost2010PropOp40
 70
     1
102
RTVSPost2010Prop41ColorIndex
 90
       18
102
RTVSPost2010Prop41ColorRGB
 90
        0
102
RTVSPost2010PropOp41
 70
     1
102
RTVSPost2010Prop42
 90
       50
102
RTVSPost2010PropOp42
 70
     1
102
RTVSPost2010Prop43
 90
        3
102
RTVSPost2010PropOp43
 70
     1
102
RTVSPost2010Prop44ColorIndex
 90
        5
102
RTVSPost2010Prop44ColorRGB
 90
      255
102
RTVSPost2010PropOp44
 70
     1
102
RTVSPost2010Prop45
280
     0
102
RTVSPost2010PropOp45
 70
     1
102
RTVSPost2010Prop46
 90
       50
102
RTVSPost2010PropOp46
 70
     1
102
RTVSPost2010Prop47
 90
       50
102
RTVSPost2010PropOp47
 70
     1
102
RTVSPost2010Prop48
 90
       50
102
RTVSPost2010PropOp48
 70
     1
102
RTVSPost2010Prop49
280
     0
102
RTVSPost2010PropOp49
 70
     1
102
RTVSPost2010Prop50
 90
       50
102
RTVSPost2010PropOp50
 70
     1
102
RTVSPost2010Prop51ColorIndex
 90
      256
102
RTVSPost2010Prop51ColorRGB
 90
-16777216
102
RTVSPost2010PropOp51
 70
     0
102
RTVSPost2010Prop52
140
1.0
102
RTVSPost2010PropOp52
 70
     0
102
RTVSPost2010Prop53
 90
        2
102
RTVSPost2010PropOp53
 70
     1
102
RTVSPost2010Prop54
  1
strokes_ogs.tif
102
RTVSPost2010PropOp54
 70
     1
102
RTVSPost2010Prop55
280
     0
102
RTVSPost2010PropOp55
 70
     1
102
RTVSPost2010Prop56
140
1.0
102
RTVSPost2010PropOp56
 70
     1
102
RTVSPost2010Prop57
140
1.0
102
RTVSPost2010PropOp57
 70
     1
102
RTVSPropertyOp0
 70
     1
102
RTVSPropertyOp1
 70
     1
102
RTVSPropertyOp2
 70
     1
102
RTVSPropertyOp3
 70
     1
102
RTVSPropertyOp4
 70
     1
102
RTVSPropertyOp5
 70
     1
102
RTVSPropertyOp6
 70
     1
102
RTVSPropertyOp7
 70
     1
102
RTVSPropertyOp8
 70
     1
102
RTVSPropertyOp9
 70
     1
102
RTVSPropertyOp10
 70
     1
102
RTVSPropertyOp11
 70
     1
102
RTVSPropertyOp12
 70
     1
102
RTVSPropertyOp13
 70
     1
102
RTVSPropertyOp14
 70
     1
102
RTVSPropertyOp15
 70
     1
102
RTVSPropertyOp16
 70
     1
102
RTVSPropertyOp17
 70
     1
102
RTVSPropertyOp18
 70
     1
102
RTVSPropertyOp19
 70
     1
102
RTVSPropertyOp20
 70
     1
102
RTVSPropertyOp21
 70
     1
102
RTVSPropertyOp22
 70
     1
102
RTVSPropertyOp23
 70
     1
102
RTVSPropertyOp24
 70
     1
102
RTVSPropertyOp25
 70
     1
102
RTVSPropertyOp26
 70
     1
102
RTVSPropertyOp27
 70
     1
102
RTVSPropertyOp28
 70
     1
102
RTVSPropertyOp29
 70
     1
102
RTVSPropertyOp30
 70
     1
102
RTVSPropertyOp31
 70
     1
102
RTVSPropertyOp32
 70
     1
102
RTVSPropertyOp33
 70
     1
102
RTVSPropertyOp34
 70
     1
102
RTVSPropertyOp35
 70
     1
102
RTVSPropertyOp36
 70
     1
102
RTVSPropertyOp37
 70
     1
102
RTVSPropertyOp38
 70
     1
102
RTVSPropertyOp39
 70
     1
102
RTVSPropertyOp40
 70
     1
102
RTVSPropertyOp41
 70
     1
102
RTVSPropertyOp42
 70
     1
102
RTVSPropertyOp43
 70
     1
102
RTVSPropertyOp44
 70
     1
102
RTVSPropertyOp45
 70
     1
102
RTVSPropertyOp46
 70
     1
102
RTVSPropertyOp47
 70
     1
102
RTVSPropertyOp48
 70
     1
102
RTVSPropertyOp49
 70
     1
102
RTVSPropertyOp50
 70
     1
102
RTVSPropertyOp51
 70
     0
102
RTVSPropertyOp52
 70
     0
102
RTVSPropertyOp53
 70
     1
102
RTVSPropertyOp54
 70
     1
102
RTVSPropertyOp55
 70
     1
102
RTVSPropertyOp56
 70
     1
102
RTVSPropertyOp57
 70
     1
102
RTVSPropertyOp58
 70
     1
102
RTVSPropertyOp59
 70
     1
102
RTVSPropertyOp60
 70
     1
102
RTVSPropertyOp61
 70
     1
102
RTVSPropertyOp62
 70
     1
  0
XRECORD
  5
1819
102
{ACAD_REACTORS
330
1818
102
}
330
1818
100
AcDbXrecord
280
     1
102
RTVSPost2010Prop28
280
     0
102
RTVSPost2010PropOp28
 70
     1
102
RTVSPost2010Prop29
280
     1
102
RTVSPost2010PropOp29
 70
     1
102
RTVSPost2010Prop30
280
     1
102
RTVSPost2010PropOp30
 70
     1
102
RTVSPost2010Prop31
280
     0
102
RTVSPost2010PropOp31
 70
     1
102
RTVSPost2010Prop32
280
     0
102
RTVSPost2010PropOp32
 70
     1
102
RTVSPost2010Prop33
280
     0
102
RTVSPost2010PropOp33
 70
     1
102
RTVSPost2010Prop34
280
     0
102
RTVSPost2010PropOp34
 70
     1
102
RTVSPost2010Prop35
280
     0
102
RTVSPost2010PropOp35
 70
     1
102
RTVSPost2010Prop36
280
     0
102
RTVSPost2010PropOp36
 70
     1
102
RTVSPost2010Prop37
 90
       50
102
RTVSPost2010PropOp37
 70
     1
102
RTVSPost2010Prop38
140
0.0
102
RTVSPost2010PropOp38
 70
     1
102
RTVSPost2010Prop39
140
1.0
102
RTVSPost2010PropOp39
 70
     1
102
RTVSPost2010Prop40
 90
        0
102
RTVSPost2010PropOp40
 70
     1
102
RTVSPost2010Prop41ColorIndex
 90
       18
102
RTVSPost2010Prop41ColorRGB
 90
        0
102
RTVSPost2010PropOp41
 70
     1
102
RTVSPost2010Prop42
 90
       50
102
RTVSPost2010PropOp42
 70
     1
102
RTVSPost2010Prop43
 90
        3
102
RTVSPost2010PropOp43
 70
     1
102
RTVSPost2010Prop44ColorIndex
 90
        5
102
RTVSPost2010Prop44ColorRGB
 90
      255
102
RTVSPost2010PropOp44
 70
     1
102
RTVSPost2010Prop45
280
     0
102
RTVSPost2010PropOp45
 70
     1
102
RTVSPost2010Prop46
 90
       50
102
RTVSPost2010PropOp46
 70
     1
102
RTVSPost2010Prop47
 90
       50
102
RTVSPost2010PropOp47
 70
     1
102
RTVSPost2010Prop48
 90
       50
102
RTVSPost2010PropOp48
 70
     1
102
RTVSPost2010Prop49
280
     0
102
RTVSPost2010PropOp49
 70
     1
102
RTVSPost2010Prop50
 90
       50
102
RTVSPost2010PropOp50
 70
     1
102
RTVSPost2010Prop51ColorIndex
 90
      256
102
RTVSPost2010Prop51ColorRGB
 90
-16777216
102
RTVSPost2010PropOp51
 70
     0
102
RTVSPost2010Prop52
140
1.0
102
RTVSPost2010PropOp52
 70
     0
102
RTVSPost2010Prop53
 90
        2
102
RTVSPost2010PropOp53
 70
     1
102
RTVSPost2010Prop54
  1
strokes_ogs.tif
102
RTVSPost2010PropOp54
 70
     1
102
RTVSPost2010Prop55
280
     0
102
RTVSPost2010PropOp55
 70
     1
102
RTVSPost2010Prop56
140
1.0
102
RTVSPost2010PropOp56
 70
     1
102
RTVSPost2010Prop57
140
1.0
102
RTVSPost2010PropOp57
 70
     1
102
RTVSPropertyOp0
 70
     1
102
RTVSPropertyOp1
 70
     1
102
RTVSPropertyOp2
 70
     1
102
RTVSPropertyOp3
 70
     1
102
RTVSPropertyOp4
 70
     1
102
RTVSPropertyOp5
 70
     1
102
RTVSPropertyOp6
 70
     1
102
RTVSPropertyOp7
 70
     1
102
RTVSPropertyOp8
 70
     1
102
RTVSPropertyOp9
 70
     1
102
RTVSPropertyOp10
 70
     1
102
RTVSPropertyOp11
 70
     1
102
RTVSPropertyOp12
 70
     1
102
RTVSPropertyOp13
 70
     1
102
RTVSPropertyOp14
 70
     1
102
RTVSPropertyOp15
 70
     1
102
RTVSPropertyOp16
 70
     1
102
RTVSPropertyOp17
 70
     1
102
RTVSPropertyOp18
 70
     1
102
RTVSPropertyOp19
 70
     1
102
RTVSPropertyOp20
 70
     1
102
RTVSPropertyOp21
 70
     1
102
RTVSPropertyOp22
 70
     1
102
RTVSPropertyOp23
 70
     1
102
RTVSPropertyOp24
 70
     1
102
RTVSPropertyOp25
 70
     1
102
RTVSPropertyOp26
 70
     1
102
RTVSPropertyOp27
 70
     1
102
RTVSPropertyOp28
 70
     1
102
RTVSPropertyOp29
 70
     1
102
RTVSPropertyOp30
 70
     1
102
RTVSPropertyOp31
 70
     1
102
RTVSPropertyOp32
 70
     1
102
RTVSPropertyOp33
 70
     1
102
RTVSPropertyOp34
 70
     1
102
RTVSPropertyOp35
 70
     1
102
RTVSPropertyOp36
 70
     1
102
RTVSPropertyOp37
 70
     1
102
RTVSPropertyOp38
 70
     1
102
RTVSPropertyOp39
 70
     1
102
RTVSPropertyOp40
 70
     1
102
RTVSPropertyOp41
 70
     1
102
RTVSPropertyOp42
 70
     1
102
RTVSPropertyOp43
 70
     1
102
RTVSPropertyOp44
 70
     1
102
RTVSPropertyOp45
 70
     1
102
RTVSPropertyOp46
 70
     1
102
RTVSPropertyOp47
 70
     1
102
RTVSPropertyOp48
 70
     1
102
RTVSPropertyOp49
 70
     1
102
RTVSPropertyOp50
 70
     1
102
RTVSPropertyOp51
 70
     0
102
RTVSPropertyOp52
 70
     0
102
RTVSPropertyOp53
 70
     1
102
RTVSPropertyOp54
 70
     1
102
RTVSPropertyOp55
 70
     1
102
RTVSPropertyOp56
 70
     1
102
RTVSPropertyOp57
 70
     1
102
RTVSPropertyOp58
 70
     1
102
RTVSPropertyOp59
 70
     1
102
RTVSPropertyOp60
 70
     1
102
RTVSPropertyOp61
 70
     1
102
RTVSPropertyOp62
 70
     1
  0
XRECORD
  5
181B
102
{ACAD_REACTORS
330
181A
102
}
330
181A
100
AcDbXrecord
280
     1
102
RTVSPost2010Prop28
280
     0
102
RTVSPost2010PropOp28
 70
     1
102
RTVSPost2010Prop29
280
     1
102
RTVSPost2010PropOp29
 70
     1
102
RTVSPost2010Prop30
280
     1
102
RTVSPost2010PropOp30
 70
     1
102
RTVSPost2010Prop31
280
     0
102
RTVSPost2010PropOp31
 70
     1
102
RTVSPost2010Prop32
280
     0
102
RTVSPost2010PropOp32
 70
     1
102
RTVSPost2010Prop33
280
     0
102
RTVSPost2010PropOp33
 70
     1
102
RTVSPost2010Prop34
280
     0
102
RTVSPost2010PropOp34
 70
     1
102
RTVSPost2010Prop35
280
     0
102
RTVSPost2010PropOp35
 70
     1
102
RTVSPost2010Prop36
280
     0
102
RTVSPost2010PropOp36
 70
     1
102
RTVSPost2010Prop37
 90
       50
102
RTVSPost2010PropOp37
 70
     1
102
RTVSPost2010Prop38
140
0.0
102
RTVSPost2010PropOp38
 70
     1
102
RTVSPost2010Prop39
140
1.0
102
RTVSPost2010PropOp39
 70
     1
102
RTVSPost2010Prop40
 90
        0
102
RTVSPost2010PropOp40
 70
     1
102
RTVSPost2010Prop41ColorIndex
 90
       18
102
RTVSPost2010Prop41ColorRGB
 90
        0
102
RTVSPost2010PropOp41
 70
     1
102
RTVSPost2010Prop42
 90
       50
102
RTVSPost2010PropOp42
 70
     1
102
RTVSPost2010Prop43
 90
        3
102
RTVSPost2010PropOp43
 70
     1
102
RTVSPost2010Prop44ColorIndex
 90
        5
102
RTVSPost2010Prop44ColorRGB
 90
      255
102
RTVSPost2010PropOp44
 70
     1
102
RTVSPost2010Prop45
280
     0
102
RTVSPost2010PropOp45
 70
     1
102
RTVSPost2010Prop46
 90
       50
102
RTVSPost2010PropOp46
 70
     1
102
RTVSPost2010Prop47
 90
       50
102
RTVSPost2010PropOp47
 70
     1
102
RTVSPost2010Prop48
 90
       50
102
RTVSPost2010PropOp48
 70
     1
102
RTVSPost2010Prop49
280
     0
102
RTVSPost2010PropOp49
 70
     1
102
RTVSPost2010Prop50
 90
       50
102
RTVSPost2010PropOp50
 70
     1
102
RTVSPost2010Prop51ColorIndex
 90
      256
102
RTVSPost2010Prop51ColorRGB
 90
-16777216
102
RTVSPost2010PropOp51
 70
     0
102
RTVSPost2010Prop52
140
1.0
102
RTVSPost2010PropOp52
 70
     0
102
RTVSPost2010Prop53
 90
        2
102
RTVSPost2010PropOp53
 70
     1
102
RTVSPost2010Prop54
  1
strokes_ogs.tif
102
RTVSPost2010PropOp54
 70
     1
102
RTVSPost2010Prop55
280
     0
102
RTVSPost2010PropOp55
 70
     1
102
RTVSPost2010Prop56
140
1.0
102
RTVSPost2010PropOp56
 70
     1
102
RTVSPost2010Prop57
140
1.0
102
RTVSPost2010PropOp57
 70
     1
102
RTVSPropertyOp0
 70
     1
102
RTVSPropertyOp1
 70
     1
102
RTVSPropertyOp2
 70
     1
102
RTVSPropertyOp3
 70
     1
102
RTVSPropertyOp4
 70
     1
102
RTVSPropertyOp5
 70
     1
102
RTVSPropertyOp6
 70
     1
102
RTVSPropertyOp7
 70
     1
102
RTVSPropertyOp8
 70
     1
102
RTVSPropertyOp9
 70
     1
102
RTVSPropertyOp10
 70
     1
102
RTVSPropertyOp11
 70
     1
102
RTVSPropertyOp12
 70
     1
102
RTVSPropertyOp13
 70
     1
102
RTVSPropertyOp14
 70
     1
102
RTVSPropertyOp15
 70
     1
102
RTVSPropertyOp16
 70
     1
102
RTVSPropertyOp17
 70
     1
102
RTVSPropertyOp18
 70
     1
102
RTVSPropertyOp19
 70
     1
102
RTVSPropertyOp20
 70
     1
102
RTVSPropertyOp21
 70
     1
102
RTVSPropertyOp22
 70
     1
102
RTVSPropertyOp23
 70
     1
102
RTVSPropertyOp24
 70
     1
102
RTVSPropertyOp25
 70
     1
102
RTVSPropertyOp26
 70
     1
102
RTVSPropertyOp27
 70
     1
102
RTVSPropertyOp28
 70
     1
102
RTVSPropertyOp29
 70
     1
102
RTVSPropertyOp30
 70
     1
102
RTVSPropertyOp31
 70
     1
102
RTVSPropertyOp32
 70
     1
102
RTVSPropertyOp33
 70
     1
102
RTVSPropertyOp34
 70
     1
102
RTVSPropertyOp35
 70
     1
102
RTVSPropertyOp36
 70
     1
102
RTVSPropertyOp37
 70
     1
102
RTVSPropertyOp38
 70
     1
102
RTVSPropertyOp39
 70
     1
102
RTVSPropertyOp40
 70
     1
102
RTVSPropertyOp41
 70
     1
102
RTVSPropertyOp42
 70
     1
102
RTVSPropertyOp43
 70
     1
102
RTVSPropertyOp44
 70
     1
102
RTVSPropertyOp45
 70
     1
102
RTVSPropertyOp46
 70
     1
102
RTVSPropertyOp47
 70
     1
102
RTVSPropertyOp48
 70
     1
102
RTVSPropertyOp49
 70
     1
102
RTVSPropertyOp50
 70
     1
102
RTVSPropertyOp51
 70
     0
102
RTVSPropertyOp52
 70
     0
102
RTVSPropertyOp53
 70
     1
102
RTVSPropertyOp54
 70
     1
102
RTVSPropertyOp55
 70
     1
102
RTVSPropertyOp56
 70
     1
102
RTVSPropertyOp57
 70
     1
102
RTVSPropertyOp58
 70
     1
102
RTVSPropertyOp59
 70
     1
102
RTVSPropertyOp60
 70
     1
102
RTVSPropertyOp61
 70
     1
102
RTVSPropertyOp62
 70
     1
  0
XRECORD
  5
181D
102
{ACAD_REACTORS
330
181C
102
}
330
181C
100
AcDbXrecord
280
     1
102
RTVSPost2010Prop28
280
     0
102
RTVSPost2010PropOp28
 70
     1
102
RTVSPost2010Prop29
280
     1
102
RTVSPost2010PropOp29
 70
     1
102
RTVSPost2010Prop30
280
     1
102
RTVSPost2010PropOp30
 70
     1
102
RTVSPost2010Prop31
280
     0
102
RTVSPost2010PropOp31
 70
     1
102
RTVSPost2010Prop32
280
     0
102
RTVSPost2010PropOp32
 70
     1
102
RTVSPost2010Prop33
280
     0
102
RTVSPost2010PropOp33
 70
     1
102
RTVSPost2010Prop34
280
     0
102
RTVSPost2010PropOp34
 70
     1
102
RTVSPost2010Prop35
280
     0
102
RTVSPost2010PropOp35
 70
     1
102
RTVSPost2010Prop36
280
     0
102
RTVSPost2010PropOp36
 70
     1
102
RTVSPost2010Prop37
 90
       50
102
RTVSPost2010PropOp37
 70
     1
102
RTVSPost2010Prop38
140
0.0
102
RTVSPost2010PropOp38
 70
     1
102
RTVSPost2010Prop39
140
1.0
102
RTVSPost2010PropOp39
 70
     1
102
RTVSPost2010Prop40
 90
        0
102
RTVSPost2010PropOp40
 70
     1
102
RTVSPost2010Prop41ColorIndex
 90
       18
102
RTVSPost2010Prop41ColorRGB
 90
        0
102
RTVSPost2010PropOp41
 70
     1
102
RTVSPost2010Prop42
 90
       50
102
RTVSPost2010PropOp42
 70
     1
102
RTVSPost2010Prop43
 90
        3
102
RTVSPost2010PropOp43
 70
     1
102
RTVSPost2010Prop44ColorIndex
 90
        5
102
RTVSPost2010Prop44ColorRGB
 90
      255
102
RTVSPost2010PropOp44
 70
     1
102
RTVSPost2010Prop45
280
     0
102
RTVSPost2010PropOp45
 70
     1
102
RTVSPost2010Prop46
 90
       50
102
RTVSPost2010PropOp46
 70
     1
102
RTVSPost2010Prop47
 90
       50
102
RTVSPost2010PropOp47
 70
     1
102
RTVSPost2010Prop48
 90
       50
102
RTVSPost2010PropOp48
 70
     1
102
RTVSPost2010Prop49
280
     0
102
RTVSPost2010PropOp49
 70
     1
102
RTVSPost2010Prop50
 90
       50
102
RTVSPost2010PropOp50
 70
     1
102
RTVSPost2010Prop51ColorIndex
 90
      256
102
RTVSPost2010Prop51ColorRGB
 90
-16777216
102
RTVSPost2010PropOp51
 70
     0
102
RTVSPost2010Prop52
140
1.0
102
RTVSPost2010PropOp52
 70
     0
102
RTVSPost2010Prop53
 90
        2
102
RTVSPost2010PropOp53
 70
     1
102
RTVSPost2010Prop54
  1
strokes_ogs.tif
102
RTVSPost2010PropOp54
 70
     1
102
RTVSPost2010Prop55
280
     0
102
RTVSPost2010PropOp55
 70
     1
102
RTVSPost2010Prop56
140
1.0
102
RTVSPost2010PropOp56
 70
     1
102
RTVSPost2010Prop57
140
1.0
102
RTVSPost2010PropOp57
 70
     1
102
RTVSPropertyOp0
 70
     1
102
RTVSPropertyOp1
 70
     1
102
RTVSPropertyOp2
 70
     1
102
RTVSPropertyOp3
 70
     1
102
RTVSPropertyOp4
 70
     1
102
RTVSPropertyOp5
 70
     1
102
RTVSPropertyOp6
 70
     1
102
RTVSPropertyOp7
 70
     1
102
RTVSPropertyOp8
 70
     1
102
RTVSPropertyOp9
 70
     1
102
RTVSPropertyOp10
 70
     1
102
RTVSPropertyOp11
 70
     1
102
RTVSPropertyOp12
 70
     1
102
RTVSPropertyOp13
 70
     1
102
RTVSPropertyOp14
 70
     1
102
RTVSPropertyOp15
 70
     1
102
RTVSPropertyOp16
 70
     1
102
RTVSPropertyOp17
 70
     1
102
RTVSPropertyOp18
 70
     1
102
RTVSPropertyOp19
 70
     1
102
RTVSPropertyOp20
 70
     1
102
RTVSPropertyOp21
 70
     1
102
RTVSPropertyOp22
 70
     1
102
RTVSPropertyOp23
 70
     1
102
RTVSPropertyOp24
 70
     1
102
RTVSPropertyOp25
 70
     1
102
RTVSPropertyOp26
 70
     1
102
RTVSPropertyOp27
 70
     1
102
RTVSPropertyOp28
 70
     1
102
RTVSPropertyOp29
 70
     1
102
RTVSPropertyOp30
 70
     1
102
RTVSPropertyOp31
 70
     1
102
RTVSPropertyOp32
 70
     1
102
RTVSPropertyOp33
 70
     1
102
RTVSPropertyOp34
 70
     1
102
RTVSPropertyOp35
 70
     1
102
RTVSPropertyOp36
 70
     1
102
RTVSPropertyOp37
 70
     1
102
RTVSPropertyOp38
 70
     1
102
RTVSPropertyOp39
 70
     1
102
RTVSPropertyOp40
 70
     1
102
RTVSPropertyOp41
 70
     1
102
RTVSPropertyOp42
 70
     1
102
RTVSPropertyOp43
 70
     1
102
RTVSPropertyOp44
 70
     1
102
RTVSPropertyOp45
 70
     1
102
RTVSPropertyOp46
 70
     1
102
RTVSPropertyOp47
 70
     1
102
RTVSPropertyOp48
 70
     1
102
RTVSPropertyOp49
 70
     1
102
RTVSPropertyOp50
 70
     1
102
RTVSPropertyOp51
 70
     0
102
RTVSPropertyOp52
 70
     0
102
RTVSPropertyOp53
 70
     1
102
RTVSPropertyOp54
 70
     1
102
RTVSPropertyOp55
 70
     1
102
RTVSPropertyOp56
 70
     1
102
RTVSPropertyOp57
 70
     1
102
RTVSPropertyOp58
 70
     1
102
RTVSPropertyOp59
 70
     1
102
RTVSPropertyOp60
 70
     1
102
RTVSPropertyOp61
 70
     1
102
RTVSPropertyOp62
 70
     1
  0
XRECORD
  5
1825
102
{ACAD_REACTORS
330
1824
102
}
330
1824
100
AcDbXrecord
280
     1
102
RTVSPost2010Prop28
280
     0
102
RTVSPost2010PropOp28
 70
     1
102
RTVSPost2010Prop29
280
     1
102
RTVSPost2010PropOp29
 70
     1
102
RTVSPost2010Prop30
280
     1
102
RTVSPost2010PropOp30
 70
     1
102
RTVSPost2010Prop31
280
     0
102
RTVSPost2010PropOp31
 70
     1
102
RTVSPost2010Prop32
280
     0
102
RTVSPost2010PropOp32
 70
     1
102
RTVSPost2010Prop33
280
     0
102
RTVSPost2010PropOp33
 70
     1
102
RTVSPost2010Prop34
280
     0
102
RTVSPost2010PropOp34
 70
     1
102
RTVSPost2010Prop35
280
     0
102
RTVSPost2010PropOp35
 70
     1
102
RTVSPost2010Prop36
280
     0
102
RTVSPost2010PropOp36
 70
     1
102
RTVSPost2010Prop37
 90
       50
102
RTVSPost2010PropOp37
 70
     1
102
RTVSPost2010Prop38
140
0.0
102
RTVSPost2010PropOp38
 70
     1
102
RTVSPost2010Prop39
140
1.0
102
RTVSPost2010PropOp39
 70
     1
102
RTVSPost2010Prop40
 90
        0
102
RTVSPost2010PropOp40
 70
     1
102
RTVSPost2010Prop41ColorIndex
 90
       18
102
RTVSPost2010Prop41ColorRGB
 90
        0
102
RTVSPost2010PropOp41
 70
     1
102
RTVSPost2010Prop42
 90
       50
102
RTVSPost2010PropOp42
 70
     1
102
RTVSPost2010Prop43
 90
        3
102
RTVSPost2010PropOp43
 70
     1
102
RTVSPost2010Prop44ColorIndex
 90
        5
102
RTVSPost2010Prop44ColorRGB
 90
      255
102
RTVSPost2010PropOp44
 70
     1
102
RTVSPost2010Prop45
280
     0
102
RTVSPost2010PropOp45
 70
     1
102
RTVSPost2010Prop46
 90
       50
102
RTVSPost2010PropOp46
 70
     1
102
RTVSPost2010Prop47
 90
       50
102
RTVSPost2010PropOp47
 70
     1
102
RTVSPost2010Prop48
 90
       50
102
RTVSPost2010PropOp48
 70
     1
102
RTVSPost2010Prop49
280
     0
102
RTVSPost2010PropOp49
 70
     1
102
RTVSPost2010Prop50
 90
       50
102
RTVSPost2010PropOp50
 70
     1
102
RTVSPost2010Prop51ColorIndex
 90
      256
102
RTVSPost2010Prop51ColorRGB
 90
-16777216
102
RTVSPost2010PropOp51
 70
     0
102
RTVSPost2010Prop52
140
1.0
102
RTVSPost2010PropOp52
 70
     0
102
RTVSPost2010Prop53
 90
        2
102
RTVSPost2010PropOp53
 70
     1
102
RTVSPost2010Prop54
  1
strokes_ogs.tif
102
RTVSPost2010PropOp54
 70
     1
102
RTVSPost2010Prop55
280
     0
102
RTVSPost2010PropOp55
 70
     1
102
RTVSPost2010Prop56
140
1.0
102
RTVSPost2010PropOp56
 70
     1
102
RTVSPost2010Prop57
140
1.0
102
RTVSPost2010PropOp57
 70
     1
102
RTVSPropertyOp0
 70
     1
102
RTVSPropertyOp1
 70
     1
102
RTVSPropertyOp2
 70
     1
102
RTVSPropertyOp3
 70
     1
102
RTVSPropertyOp4
 70
     1
102
RTVSPropertyOp5
 70
     1
102
RTVSPropertyOp6
 70
     1
102
RTVSPropertyOp7
 70
     1
102
RTVSPropertyOp8
 70
     1
102
RTVSPropertyOp9
 70
     1
102
RTVSPropertyOp10
 70
     1
102
RTVSPropertyOp11
 70
     1
102
RTVSPropertyOp12
 70
     1
102
RTVSPropertyOp13
 70
     1
102
RTVSPropertyOp14
 70
     1
102
RTVSPropertyOp15
 70
     1
102
RTVSPropertyOp16
 70
     1
102
RTVSPropertyOp17
 70
     1
102
RTVSPropertyOp18
 70
     1
102
RTVSPropertyOp19
 70
     1
102
RTVSPropertyOp20
 70
     1
102
RTVSPropertyOp21
 70
     1
102
RTVSPropertyOp22
 70
     1
102
RTVSPropertyOp23
 70
     1
102
RTVSPropertyOp24
 70
     1
102
RTVSPropertyOp25
 70
     1
102
RTVSPropertyOp26
 70
     1
102
RTVSPropertyOp27
 70
     1
102
RTVSPropertyOp28
 70
     1
102
RTVSPropertyOp29
 70
     1
102
RTVSPropertyOp30
 70
     1
102
RTVSPropertyOp31
 70
     1
102
RTVSPropertyOp32
 70
     1
102
RTVSPropertyOp33
 70
     1
102
RTVSPropertyOp34
 70
     1
102
RTVSPropertyOp35
 70
     1
102
RTVSPropertyOp36
 70
     1
102
RTVSPropertyOp37
 70
     1
102
RTVSPropertyOp38
 70
     1
102
RTVSPropertyOp39
 70
     1
102
RTVSPropertyOp40
 70
     1
102
RTVSPropertyOp41
 70
     1
102
RTVSPropertyOp42
 70
     1
102
RTVSPropertyOp43
 70
     1
102
RTVSPropertyOp44
 70
     1
102
RTVSPropertyOp45
 70
     1
102
RTVSPropertyOp46
 70
     1
102
RTVSPropertyOp47
 70
     1
102
RTVSPropertyOp48
 70
     1
102
RTVSPropertyOp49
 70
     1
102
RTVSPropertyOp50
 70
     1
102
RTVSPropertyOp51
 70
     0
102
RTVSPropertyOp52
 70
     0
102
RTVSPropertyOp53
 70
     1
102
RTVSPropertyOp54
 70
     1
102
RTVSPropertyOp55
 70
     1
102
RTVSPropertyOp56
 70
     1
102
RTVSPropertyOp57
 70
     1
102
RTVSPropertyOp58
 70
     1
102
RTVSPropertyOp59
 70
     1
102
RTVSPropertyOp60
 70
     1
102
RTVSPropertyOp61
 70
     1
102
RTVSPropertyOp62
 70
     1
  0
XRECORD
  5
1841
102
{ACAD_REACTORS
330
1840
102
}
330
1840
100
AcDbXrecord
280
     1
102
RTVSPost2010Prop28
280
     0
102
RTVSPost2010PropOp28
 70
     1
102
RTVSPost2010Prop29
280
     1
102
RTVSPost2010PropOp29
 70
     1
102
RTVSPost2010Prop30
280
     1
102
RTVSPost2010PropOp30
 70
     1
102
RTVSPost2010Prop31
280
     0
102
RTVSPost2010PropOp31
 70
     1
102
RTVSPost2010Prop32
280
     0
102
RTVSPost2010PropOp32
 70
     1
102
RTVSPost2010Prop33
280
     0
102
RTVSPost2010PropOp33
 70
     1
102
RTVSPost2010Prop34
280
     0
102
RTVSPost2010PropOp34
 70
     1
102
RTVSPost2010Prop35
280
     0
102
RTVSPost2010PropOp35
 70
     1
102
RTVSPost2010Prop36
280
     0
102
RTVSPost2010PropOp36
 70
     1
102
RTVSPost2010Prop37
 90
       50
102
RTVSPost2010PropOp37
 70
     0
102
RTVSPost2010Prop38
140
0.0
102
RTVSPost2010PropOp38
 70
     0
102
RTVSPost2010Prop39
140
1.0
102
RTVSPost2010PropOp39
 70
     0
102
RTVSPost2010Prop40
 90
        0
102
RTVSPost2010PropOp40
 70
     0
102
RTVSPost2010Prop41ColorIndex
 90
       18
102
RTVSPost2010Prop41ColorRGB
 90
        0
102
RTVSPost2010PropOp41
 70
     0
102
RTVSPost2010Prop42
 90
       50
102
RTVSPost2010PropOp42
 70
     0
102
RTVSPost2010Prop43
 90
        3
102
RTVSPost2010PropOp43
 70
     0
102
RTVSPost2010Prop44ColorIndex
 90
        5
102
RTVSPost2010Prop44ColorRGB
 90
      255
102
RTVSPost2010PropOp44
 70
     0
102
RTVSPost2010Prop45
280
     0
102
RTVSPost2010PropOp45
 70
     1
102
RTVSPost2010Prop46
 90
       50
102
RTVSPost2010PropOp46
 70
     0
102
RTVSPost2010Prop47
 90
       50
102
RTVSPost2010PropOp47
 70
     0
102
RTVSPost2010Prop48
 90
       50
102
RTVSPost2010PropOp48
 70
     0
102
RTVSPost2010Prop49
280
     0
102
RTVSPost2010PropOp49
 70
     1
102
RTVSPost2010Prop50
 90
       50
102
RTVSPost2010PropOp50
 70
     0
102
RTVSPost2010Prop51ColorIndex
 90
      256
102
RTVSPost2010Prop51ColorRGB
 90
-16777216
102
RTVSPost2010PropOp51
 70
     0
102
RTVSPost2010Prop52
140
1.0
102
RTVSPost2010PropOp52
 70
     0
102
RTVSPost2010Prop53
 90
        2
102
RTVSPost2010PropOp53
 70
     0
102
RTVSPost2010Prop54
  1
strokes_ogs.tif
102
RTVSPost2010PropOp54
 70
     0
102
RTVSPost2010Prop55
280
     0
102
RTVSPost2010PropOp55
 70
     1
102
RTVSPost2010Prop56
140
1.0
102
RTVSPost2010PropOp56
 70
     0
102
RTVSPost2010Prop57
140
1.0
102
RTVSPost2010PropOp57
 70
     0
102
RTVSPropertyOp0
 70
     0
102
RTVSPropertyOp1
 70
     0
102
RTVSPropertyOp2
 70
     0
102
RTVSPropertyOp3
 70
     0
102
RTVSPropertyOp4
 70
     0
102
RTVSPropertyOp5
 70
     0
102
RTVSPropertyOp6
 70
     0
102
RTVSPropertyOp7
 70
     0
102
RTVSPropertyOp8
 70
     0
102
RTVSPropertyOp9
 70
     0
102
RTVSPropertyOp10
 70
     0
102
RTVSPropertyOp11
 70
     0
102
RTVSPropertyOp12
 70
     0
102
RTVSPropertyOp13
 70
     0
102
RTVSPropertyOp14
 70
     2
102
RTVSPropertyOp15
 70
     0
102
RTVSPropertyOp16
 70
     0
102
RTVSPropertyOp17
 70
     0
102
RTVSPropertyOp18
 70
     0
102
RTVSPropertyOp19
 70
     0
102
RTVSPropertyOp20
 70
     0
102
RTVSPropertyOp21
 70
     0
102
RTVSPropertyOp22
 70
     0
102
RTVSPropertyOp23
 70
     0
102
RTVSPropertyOp24
 70
     0
102
RTVSPropertyOp25
 70
     0
102
RTVSPropertyOp26
 70
     0
102
RTVSPropertyOp27
 70
     0
102
RTVSPropertyOp28
 70
     1
102
RTVSPropertyOp29
 70
     1
102
RTVSPropertyOp30
 70
     1
102
RTVSPropertyOp31
 70
     1
102
RTVSPropertyOp32
 70
     1
102
RTVSPropertyOp33
 70
     1
102
RTVSPropertyOp34
 70
     1
102
RTVSPropertyOp35
 70
     1
102
RTVSPropertyOp36
 70
     1
102
RTVSPropertyOp37
 70
     0
102
RTVSPropertyOp38
 70
     0
102
RTVSPropertyOp39
 70
     0
102
RTVSPropertyOp40
 70
     0
102
RTVSPropertyOp41
 70
     0
102
RTVSPropertyOp42
 70
     0
102
RTVSPropertyOp43
 70
     0
102
RTVSPropertyOp44
 70
     0
102
RTVSPropertyOp45
 70
     1
102
RTVSPropertyOp46
 70
     0
102
RTVSPropertyOp47
 70
     0
102
RTVSPropertyOp48
 70
     0
102
RTVSPropertyOp49
 70
     1
102
RTVSPropertyOp50
 70
     0
102
RTVSPropertyOp51
 70
     0
102
RTVSPropertyOp52
 70
     0
102
RTVSPropertyOp53
 70
     0
102
RTVSPropertyOp54
 70
     0
102
RTVSPropertyOp55
 70
     1
102
RTVSPropertyOp56
 70
     0
102
RTVSPropertyOp57
 70
     0
102
RTVSPropertyOp58
 70
     0
102
RTVSPropertyOp59
 70
     0
102
RTVSPropertyOp60
 70
     0
102
RTVSPropertyOp61
 70
     0
102
RTVSPropertyOp62
 70
     0
  0
XRECORD
  5
1831
102
{ACAD_REACTORS
330
1830
102
}
330
1830
100
AcDbXrecord
280
     1
102
RTVSPost2010Prop28
280
     0
102
RTVSPost2010PropOp28
 70
     1
102
RTVSPost2010Prop29
280
     1
102
RTVSPost2010PropOp29
 70
     1
102
RTVSPost2010Prop30
280
     1
102
RTVSPost2010PropOp30
 70
     1
102
RTVSPost2010Prop31
280
     0
102
RTVSPost2010PropOp31
 70
     1
102
RTVSPost2010Prop32
280
     0
102
RTVSPost2010PropOp32
 70
     1
102
RTVSPost2010Prop33
280
     0
102
RTVSPost2010PropOp33
 70
     1
102
RTVSPost2010Prop34
280
     0
102
RTVSPost2010PropOp34
 70
     1
102
RTVSPost2010Prop35
280
     0
102
RTVSPost2010PropOp35
 70
     1
102
RTVSPost2010Prop36
280
     0
102
RTVSPost2010PropOp36
 70
     1
102
RTVSPost2010Prop37
 90
       50
102
RTVSPost2010PropOp37
 70
     1
102
RTVSPost2010Prop38
140
0.0
102
RTVSPost2010PropOp38
 70
     1
102
RTVSPost2010Prop39
140
1.0
102
RTVSPost2010PropOp39
 70
     1
102
RTVSPost2010Prop40
 90
        0
102
RTVSPost2010PropOp40
 70
     1
102
RTVSPost2010Prop41ColorIndex
 90
       18
102
RTVSPost2010Prop41ColorRGB
 90
        0
102
RTVSPost2010PropOp41
 70
     1
102
RTVSPost2010Prop42
 90
       50
102
RTVSPost2010PropOp42
 70
     1
102
RTVSPost2010Prop43
 90
        3
102
RTVSPost2010PropOp43
 70
     1
102
RTVSPost2010Prop44ColorIndex
 90
        5
102
RTVSPost2010Prop44ColorRGB
 90
      255
102
RTVSPost2010PropOp44
 70
     1
102
RTVSPost2010Prop45
280
     0
102
RTVSPost2010PropOp45
 70
     1
102
RTVSPost2010Prop46
 90
       50
102
RTVSPost2010PropOp46
 70
     1
102
RTVSPost2010Prop47
 90
       50
102
RTVSPost2010PropOp47
 70
     1
102
RTVSPost2010Prop48
 90
       50
102
RTVSPost2010PropOp48
 70
     1
102
RTVSPost2010Prop49
280
     0
102
RTVSPost2010PropOp49
 70
     1
102
RTVSPost2010Prop50
 90
       50
102
RTVSPost2010PropOp50
 70
     1
102
RTVSPost2010Prop51ColorIndex
 90
      256
102
RTVSPost2010Prop51ColorRGB
 90
-16777216
102
RTVSPost2010PropOp51
 70
     0
102
RTVSPost2010Prop52
140
1.0
102
RTVSPost2010PropOp52
 70
     0
102
RTVSPost2010Prop53
 90
        2
102
RTVSPost2010PropOp53
 70
     1
102
RTVSPost2010Prop54
  1
strokes_ogs.tif
102
RTVSPost2010PropOp54
 70
     1
102
RTVSPost2010Prop55
280
     0
102
RTVSPost2010PropOp55
 70
     1
102
RTVSPost2010Prop56
140
1.0
102
RTVSPost2010PropOp56
 70
     1
102
RTVSPost2010Prop57
140
1.0
102
RTVSPost2010PropOp57
 70
     1
102
RTVSPropertyOp0
 70
     1
102
RTVSPropertyOp1
 70
     1
102
RTVSPropertyOp2
 70
     1
102
RTVSPropertyOp3
 70
     1
102
RTVSPropertyOp4
 70
     1
102
RTVSPropertyOp5
 70
     1
102
RTVSPropertyOp6
 70
     1
102
RTVSPropertyOp7
 70
     1
102
RTVSPropertyOp8
 70
     1
102
RTVSPropertyOp9
 70
     1
102
RTVSPropertyOp10
 70
     1
102
RTVSPropertyOp11
 70
     1
102
RTVSPropertyOp12
 70
     1
102
RTVSPropertyOp13
 70
     1
102
RTVSPropertyOp14
 70
     1
102
RTVSPropertyOp15
 70
     1
102
RTVSPropertyOp16
 70
     1
102
RTVSPropertyOp17
 70
     1
102
RTVSPropertyOp18
 70
     1
102
RTVSPropertyOp19
 70
     1
102
RTVSPropertyOp20
 70
     1
102
RTVSPropertyOp21
 70
     1
102
RTVSPropertyOp22
 70
     1
102
RTVSPropertyOp23
 70
     1
102
RTVSPropertyOp24
 70
     1
102
RTVSPropertyOp25
 70
     1
102
RTVSPropertyOp26
 70
     1
102
RTVSPropertyOp27
 70
     1
102
RTVSPropertyOp28
 70
     1
102
RTVSPropertyOp29
 70
     1
102
RTVSPropertyOp30
 70
     1
102
RTVSPropertyOp31
 70
     1
102
RTVSPropertyOp32
 70
     1
102
RTVSPropertyOp33
 70
     1
102
RTVSPropertyOp34
 70
     1
102
RTVSPropertyOp35
 70
     1
102
RTVSPropertyOp36
 70
     1
102
RTVSPropertyOp37
 70
     1
102
RTVSPropertyOp38
 70
     1
102
RTVSPropertyOp39
 70
     1
102
RTVSPropertyOp40
 70
     1
102
RTVSPropertyOp41
 70
     1
102
RTVSPropertyOp42
 70
     1
102
RTVSPropertyOp43
 70
     1
102
RTVSPropertyOp44
 70
     1
102
RTVSPropertyOp45
 70
     1
102
RTVSPropertyOp46
 70
     1
102
RTVSPropertyOp47
 70
     1
102
RTVSPropertyOp48
 70
     1
102
RTVSPropertyOp49
 70
     1
102
RTVSPropertyOp50
 70
     1
102
RTVSPropertyOp51
 70
     0
102
RTVSPropertyOp52
 70
     0
102
RTVSPropertyOp53
 70
     1
102
RTVSPropertyOp54
 70
     1
102
RTVSPropertyOp55
 70
     1
102
RTVSPropertyOp56
 70
     1
102
RTVSPropertyOp57
 70
     1
102
RTVSPropertyOp58
 70
     1
102
RTVSPropertyOp59
 70
     1
102
RTVSPropertyOp60
 70
     1
102
RTVSPropertyOp61
 70
     1
102
RTVSPropertyOp62
 70
     1
  0
XRECORD
  5
1843
102
{ACAD_REACTORS
330
1842
102
}
330
1842
100
AcDbXrecord
280
     1
102
RTVSPost2010Prop28
280
     0
102
RTVSPost2010PropOp28
 70
     1
102
RTVSPost2010Prop29
280
     1
102
RTVSPost2010PropOp29
 70
     1
102
RTVSPost2010Prop30
280
     1
102
RTVSPost2010PropOp30
 70
     1
102
RTVSPost2010Prop31
280
     0
102
RTVSPost2010PropOp31
 70
     1
102
RTVSPost2010Prop32
280
     0
102
RTVSPost2010PropOp32
 70
     1
102
RTVSPost2010Prop33
280
     0
102
RTVSPost2010PropOp33
 70
     1
102
RTVSPost2010Prop34
280
     0
102
RTVSPost2010PropOp34
 70
     1
102
RTVSPost2010Prop35
280
     0
102
RTVSPost2010PropOp35
 70
     1
102
RTVSPost2010Prop36
280
     0
102
RTVSPost2010PropOp36
 70
     1
102
RTVSPost2010Prop37
 90
       50
102
RTVSPost2010PropOp37
 70
     0
102
RTVSPost2010Prop38
140
0.0
102
RTVSPost2010PropOp38
 70
     0
102
RTVSPost2010Prop39
140
1.0
102
RTVSPost2010PropOp39
 70
     0
102
RTVSPost2010Prop40
 90
        0
102
RTVSPost2010PropOp40
 70
     0
102
RTVSPost2010Prop41ColorIndex
 90
       18
102
RTVSPost2010Prop41ColorRGB
 90
        0
102
RTVSPost2010PropOp41
 70
     0
102
RTVSPost2010Prop42
 90
       50
102
RTVSPost2010PropOp42
 70
     0
102
RTVSPost2010Prop43
 90
        3
102
RTVSPost2010PropOp43
 70
     0
102
RTVSPost2010Prop44ColorIndex
 90
        5
102
RTVSPost2010Prop44ColorRGB
 90
      255
102
RTVSPost2010PropOp44
 70
     0
102
RTVSPost2010Prop45
280
     0
102
RTVSPost2010PropOp45
 70
     1
102
RTVSPost2010Prop46
 90
       50
102
RTVSPost2010PropOp46
 70
     0
102
RTVSPost2010Prop47
 90
       50
102
RTVSPost2010PropOp47
 70
     0
102
RTVSPost2010Prop48
 90
       50
102
RTVSPost2010PropOp48
 70
     0
102
RTVSPost2010Prop49
280
     0
102
RTVSPost2010PropOp49
 70
     1
102
RTVSPost2010Prop50
 90
       50
102
RTVSPost2010PropOp50
 70
     0
102
RTVSPost2010Prop51ColorIndex
 90
      256
102
RTVSPost2010Prop51ColorRGB
 90
-16777216
102
RTVSPost2010PropOp51
 70
     0
102
RTVSPost2010Prop52
140
1.0
102
RTVSPost2010PropOp52
 70
     0
102
RTVSPost2010Prop53
 90
        2
102
RTVSPost2010PropOp53
 70
     0
102
RTVSPost2010Prop54
  1
strokes_ogs.tif
102
RTVSPost2010PropOp54
 70
     0
102
RTVSPost2010Prop55
280
     0
102
RTVSPost2010PropOp55
 70
     1
102
RTVSPost2010Prop56
140
1.0
102
RTVSPost2010PropOp56
 70
     0
102
RTVSPost2010Prop57
140
1.0
102
RTVSPost2010PropOp57
 70
     0
102
RTVSPropertyOp0
 70
     0
102
RTVSPropertyOp1
 70
     0
102
RTVSPropertyOp2
 70
     0
102
RTVSPropertyOp3
 70
     0
102
RTVSPropertyOp4
 70
     0
102
RTVSPropertyOp5
 70
     0
102
RTVSPropertyOp6
 70
     0
102
RTVSPropertyOp7
 70
     0
102
RTVSPropertyOp8
 70
     0
102
RTVSPropertyOp9
 70
     0
102
RTVSPropertyOp10
 70
     0
102
RTVSPropertyOp11
 70
     0
102
RTVSPropertyOp12
 70
     0
102
RTVSPropertyOp13
 70
     0
102
RTVSPropertyOp14
 70
     2
102
RTVSPropertyOp15
 70
     0
102
RTVSPropertyOp16
 70
     0
102
RTVSPropertyOp17
 70
     0
102
RTVSPropertyOp18
 70
     0
102
RTVSPropertyOp19
 70
     0
102
RTVSPropertyOp20
 70
     0
102
RTVSPropertyOp21
 70
     0
102
RTVSPropertyOp22
 70
     0
102
RTVSPropertyOp23
 70
     0
102
RTVSPropertyOp24
 70
     0
102
RTVSPropertyOp25
 70
     0
102
RTVSPropertyOp26
 70
     0
102
RTVSPropertyOp27
 70
     0
102
RTVSPropertyOp28
 70
     1
102
RTVSPropertyOp29
 70
     1
102
RTVSPropertyOp30
 70
     1
102
RTVSPropertyOp31
 70
     1
102
RTVSPropertyOp32
 70
     1
102
RTVSPropertyOp33
 70
     1
102
RTVSPropertyOp34
 70
     1
102
RTVSPropertyOp35
 70
     1
102
RTVSPropertyOp36
 70
     1
102
RTVSPropertyOp37
 70
     0
102
RTVSPropertyOp38
 70
     0
102
RTVSPropertyOp39
 70
     0
102
RTVSPropertyOp40
 70
     0
102
RTVSPropertyOp41
 70
     0
102
RTVSPropertyOp42
 70
     0
102
RTVSPropertyOp43
 70
     0
102
RTVSPropertyOp44
 70
     0
102
RTVSPropertyOp45
 70
     1
102
RTVSPropertyOp46
 70
     0
102
RTVSPropertyOp47
 70
     0
102
RTVSPropertyOp48
 70
     0
102
RTVSPropertyOp49
 70
     1
102
RTVSPropertyOp50
 70
     0
102
RTVSPropertyOp51
 70
     0
102
RTVSPropertyOp52
 70
     0
102
RTVSPropertyOp53
 70
     0
102
RTVSPropertyOp54
 70
     0
102
RTVSPropertyOp55
 70
     1
102
RTVSPropertyOp56
 70
     0
102
RTVSPropertyOp57
 70
     0
102
RTVSPropertyOp58
 70
     0
102
RTVSPropertyOp59
 70
     0
102
RTVSPropertyOp60
 70
     0
102
RTVSPropertyOp61
 70
     0
102
RTVSPropertyOp62
 70
     0
  0
XRECORD
  5
1829
102
{ACAD_REACTORS
330
1828
102
}
330
1828
100
AcDbXrecord
280
     1
102
RTVSPost2010Prop28
280
     0
102
RTVSPost2010PropOp28
 70
     1
102
RTVSPost2010Prop29
280
     1
102
RTVSPost2010PropOp29
 70
     1
102
RTVSPost2010Prop30
280
     1
102
RTVSPost2010PropOp30
 70
     1
102
RTVSPost2010Prop31
280
     0
102
RTVSPost2010PropOp31
 70
     1
102
RTVSPost2010Prop32
280
     0
102
RTVSPost2010PropOp32
 70
     1
102
RTVSPost2010Prop33
280
     0
102
RTVSPost2010PropOp33
 70
     1
102
RTVSPost2010Prop34
280
     0
102
RTVSPost2010PropOp34
 70
     1
102
RTVSPost2010Prop35
280
     0
102
RTVSPost2010PropOp35
 70
     1
102
RTVSPost2010Prop36
280
     0
102
RTVSPost2010PropOp36
 70
     1
102
RTVSPost2010Prop37
 90
       50
102
RTVSPost2010PropOp37
 70
     1
102
RTVSPost2010Prop38
140
0.0
102
RTVSPost2010PropOp38
 70
     1
102
RTVSPost2010Prop39
140
1.0
102
RTVSPost2010PropOp39
 70
     1
102
RTVSPost2010Prop40
 90
        0
102
RTVSPost2010PropOp40
 70
     1
102
RTVSPost2010Prop41ColorIndex
 90
       18
102
RTVSPost2010Prop41ColorRGB
 90
        0
102
RTVSPost2010PropOp41
 70
     1
102
RTVSPost2010Prop42
 90
       50
102
RTVSPost2010PropOp42
 70
     1
102
RTVSPost2010Prop43
 90
        3
102
RTVSPost2010PropOp43
 70
     1
102
RTVSPost2010Prop44ColorIndex
 90
        5
102
RTVSPost2010Prop44ColorRGB
 90
      255
102
RTVSPost2010PropOp44
 70
     1
102
RTVSPost2010Prop45
280
     0
102
RTVSPost2010PropOp45
 70
     1
102
RTVSPost2010Prop46
 90
       50
102
RTVSPost2010PropOp46
 70
     1
102
RTVSPost2010Prop47
 90
       50
102
RTVSPost2010PropOp47
 70
     1
102
RTVSPost2010Prop48
 90
       50
102
RTVSPost2010PropOp48
 70
     1
102
RTVSPost2010Prop49
280
     0
102
RTVSPost2010PropOp49
 70
     1
102
RTVSPost2010Prop50
 90
       50
102
RTVSPost2010PropOp50
 70
     1
102
RTVSPost2010Prop51ColorIndex
 90
      256
102
RTVSPost2010Prop51ColorRGB
 90
-16777216
102
RTVSPost2010PropOp51
 70
     0
102
RTVSPost2010Prop52
140
1.0
102
RTVSPost2010PropOp52
 70
     0
102
RTVSPost2010Prop53
 90
        2
102
RTVSPost2010PropOp53
 70
     1
102
RTVSPost2010Prop54
  1
strokes_ogs.tif
102
RTVSPost2010PropOp54
 70
     1
102
RTVSPost2010Prop55
280
     0
102
RTVSPost2010PropOp55
 70
     1
102
RTVSPost2010Prop56
140
1.0
102
RTVSPost2010PropOp56
 70
     1
102
RTVSPost2010Prop57
140
1.0
102
RTVSPost2010PropOp57
 70
     1
102
RTVSPropertyOp0
 70
     1
102
RTVSPropertyOp1
 70
     1
102
RTVSPropertyOp2
 70
     1
102
RTVSPropertyOp3
 70
     1
102
RTVSPropertyOp4
 70
     1
102
RTVSPropertyOp5
 70
     1
102
RTVSPropertyOp6
 70
     1
102
RTVSPropertyOp7
 70
     1
102
RTVSPropertyOp8
 70
     1
102
RTVSPropertyOp9
 70
     1
102
RTVSPropertyOp10
 70
     1
102
RTVSPropertyOp11
 70
     1
102
RTVSPropertyOp12
 70
     1
102
RTVSPropertyOp13
 70
     1
102
RTVSPropertyOp14
 70
     1
102
RTVSPropertyOp15
 70
     1
102
RTVSPropertyOp16
 70
     1
102
RTVSPropertyOp17
 70
     1
102
RTVSPropertyOp18
 70
     1
102
RTVSPropertyOp19
 70
     1
102
RTVSPropertyOp20
 70
     1
102
RTVSPropertyOp21
 70
     1
102
RTVSPropertyOp22
 70
     1
102
RTVSPropertyOp23
 70
     1
102
RTVSPropertyOp24
 70
     1
102
RTVSPropertyOp25
 70
     1
102
RTVSPropertyOp26
 70
     1
102
RTVSPropertyOp27
 70
     1
102
RTVSPropertyOp28
 70
     1
102
RTVSPropertyOp29
 70
     1
102
RTVSPropertyOp30
 70
     1
102
RTVSPropertyOp31
 70
     1
102
RTVSPropertyOp32
 70
     1
102
RTVSPropertyOp33
 70
     1
102
RTVSPropertyOp34
 70
     1
102
RTVSPropertyOp35
 70
     1
102
RTVSPropertyOp36
 70
     1
102
RTVSPropertyOp37
 70
     1
102
RTVSPropertyOp38
 70
     1
102
RTVSPropertyOp39
 70
     1
102
RTVSPropertyOp40
 70
     1
102
RTVSPropertyOp41
 70
     1
102
RTVSPropertyOp42
 70
     1
102
RTVSPropertyOp43
 70
     1
102
RTVSPropertyOp44
 70
     1
102
RTVSPropertyOp45
 70
     1
102
RTVSPropertyOp46
 70
     1
102
RTVSPropertyOp47
 70
     1
102
RTVSPropertyOp48
 70
     1
102
RTVSPropertyOp49
 70
     1
102
RTVSPropertyOp50
 70
     1
102
RTVSPropertyOp51
 70
     0
102
RTVSPropertyOp52
 70
     0
102
RTVSPropertyOp53
 70
     1
102
RTVSPropertyOp54
 70
     1
102
RTVSPropertyOp55
 70
     1
102
RTVSPropertyOp56
 70
     1
102
RTVSPropertyOp57
 70
     1
102
RTVSPropertyOp58
 70
     1
102
RTVSPropertyOp59
 70
     1
102
RTVSPropertyOp60
 70
     1
102
RTVSPropertyOp61
 70
     1
102
RTVSPropertyOp62
 70
     1
  0
XRECORD
  5
183F
102
{ACAD_REACTORS
330
183E
102
}
330
183E
100
AcDbXrecord
280
     1
102
RTVSPost2010Prop28
280
     0
102
RTVSPost2010PropOp28
 70
     1
102
RTVSPost2010Prop29
280
     1
102
RTVSPost2010PropOp29
 70
     1
102
RTVSPost2010Prop30
280
     1
102
RTVSPost2010PropOp30
 70
     1
102
RTVSPost2010Prop31
280
     0
102
RTVSPost2010PropOp31
 70
     1
102
RTVSPost2010Prop32
280
     0
102
RTVSPost2010PropOp32
 70
     1
102
RTVSPost2010Prop33
280
     0
102
RTVSPost2010PropOp33
 70
     1
102
RTVSPost2010Prop34
280
     0
102
RTVSPost2010PropOp34
 70
     1
102
RTVSPost2010Prop35
280
     0
102
RTVSPost2010PropOp35
 70
     1
102
RTVSPost2010Prop36
280
     0
102
RTVSPost2010PropOp36
 70
     1
102
RTVSPost2010Prop37
 90
       50
102
RTVSPost2010PropOp37
 70
     1
102
RTVSPost2010Prop38
140
0.0
102
RTVSPost2010PropOp38
 70
     1
102
RTVSPost2010Prop39
140
1.0
102
RTVSPost2010PropOp39
 70
     1
102
RTVSPost2010Prop40
 90
        0
102
RTVSPost2010PropOp40
 70
     1
102
RTVSPost2010Prop41ColorIndex
 90
       18
102
RTVSPost2010Prop41ColorRGB
 90
        0
102
RTVSPost2010PropOp41
 70
     1
102
RTVSPost2010Prop42
 90
       50
102
RTVSPost2010PropOp42
 70
     1
102
RTVSPost2010Prop43
 90
        3
102
RTVSPost2010PropOp43
 70
     1
102
RTVSPost2010Prop44ColorIndex
 90
        5
102
RTVSPost2010Prop44ColorRGB
 90
      255
102
RTVSPost2010PropOp44
 70
     1
102
RTVSPost2010Prop45
280
     0
102
RTVSPost2010PropOp45
 70
     1
102
RTVSPost2010Prop46
 90
       50
102
RTVSPost2010PropOp46
 70
     1
102
RTVSPost2010Prop47
 90
       50
102
RTVSPost2010PropOp47
 70
     1
102
RTVSPost2010Prop48
 90
       50
102
RTVSPost2010PropOp48
 70
     1
102
RTVSPost2010Prop49
280
     0
102
RTVSPost2010PropOp49
 70
     1
102
RTVSPost2010Prop50
 90
       50
102
RTVSPost2010PropOp50
 70
     1
102
RTVSPost2010Prop51ColorIndex
 90
      256
102
RTVSPost2010Prop51ColorRGB
 90
-16777216
102
RTVSPost2010PropOp51
 70
     0
102
RTVSPost2010Prop52
140
1.0
102
RTVSPost2010PropOp52
 70
     0
102
RTVSPost2010Prop53
 90
        2
102
RTVSPost2010PropOp53
 70
     1
102
RTVSPost2010Prop54
  1
strokes_ogs.tif
102
RTVSPost2010PropOp54
 70
     1
102
RTVSPost2010Prop55
280
     0
102
RTVSPost2010PropOp55
 70
     1
102
RTVSPost2010Prop56
140
1.0
102
RTVSPost2010PropOp56
 70
     1
102
RTVSPost2010Prop57
140
1.0
102
RTVSPost2010PropOp57
 70
     1
102
RTVSPropertyOp0
 70
     1
102
RTVSPropertyOp1
 70
     1
102
RTVSPropertyOp2
 70
     1
102
RTVSPropertyOp3
 70
     1
102
RTVSPropertyOp4
 70
     1
102
RTVSPropertyOp5
 70
     1
102
RTVSPropertyOp6
 70
     1
102
RTVSPropertyOp7
 70
     1
102
RTVSPropertyOp8
 70
     1
102
RTVSPropertyOp9
 70
     1
102
RTVSPropertyOp10
 70
     1
102
RTVSPropertyOp11
 70
     1
102
RTVSPropertyOp12
 70
     1
102
RTVSPropertyOp13
 70
     1
102
RTVSPropertyOp14
 70
     1
102
RTVSPropertyOp15
 70
     1
102
RTVSPropertyOp16
 70
     1
102
RTVSPropertyOp17
 70
     1
102
RTVSPropertyOp18
 70
     1
102
RTVSPropertyOp19
 70
     1
102
RTVSPropertyOp20
 70
     1
102
RTVSPropertyOp21
 70
     1
102
RTVSPropertyOp22
 70
     1
102
RTVSPropertyOp23
 70
     1
102
RTVSPropertyOp24
 70
     1
102
RTVSPropertyOp25
 70
     1
102
RTVSPropertyOp26
 70
     1
102
RTVSPropertyOp27
 70
     1
102
RTVSPropertyOp28
 70
     1
102
RTVSPropertyOp29
 70
     1
102
RTVSPropertyOp30
 70
     1
102
RTVSPropertyOp31
 70
     1
102
RTVSPropertyOp32
 70
     1
102
RTVSPropertyOp33
 70
     1
102
RTVSPropertyOp34
 70
     1
102
RTVSPropertyOp35
 70
     1
102
RTVSPropertyOp36
 70
     1
102
RTVSPropertyOp37
 70
     1
102
RTVSPropertyOp38
 70
     1
102
RTVSPropertyOp39
 70
     1
102
RTVSPropertyOp40
 70
     1
102
RTVSPropertyOp41
 70
     1
102
RTVSPropertyOp42
 70
     1
102
RTVSPropertyOp43
 70
     1
102
RTVSPropertyOp44
 70
     1
102
RTVSPropertyOp45
 70
     1
102
RTVSPropertyOp46
 70
     1
102
RTVSPropertyOp47
 70
     1
102
RTVSPropertyOp48
 70
     1
102
RTVSPropertyOp49
 70
     1
102
RTVSPropertyOp50
 70
     1
102
RTVSPropertyOp51
 70
     0
102
RTVSPropertyOp52
 70
     0
102
RTVSPropertyOp53
 70
     1
102
RTVSPropertyOp54
 70
     1
102
RTVSPropertyOp55
 70
     1
102
RTVSPropertyOp56
 70
     1
102
RTVSPropertyOp57
 70
     1
102
RTVSPropertyOp58
 70
     1
102
RTVSPropertyOp59
 70
     1
102
RTVSPropertyOp60
 70
     1
102
RTVSPropertyOp61
 70
     1
102
RTVSPropertyOp62
 70
     1
  0
XRECORD
  5
183D
102
{ACAD_REACTORS
330
183C
102
}
330
183C
100
AcDbXrecord
280
     1
102
RTVSPost2010Prop28
280
     0
102
RTVSPost2010PropOp28
 70
     1
102
RTVSPost2010Prop29
280
     1
102
RTVSPost2010PropOp29
 70
     1
102
RTVSPost2010Prop30
280
     1
102
RTVSPost2010PropOp30
 70
     1
102
RTVSPost2010Prop31
280
     0
102
RTVSPost2010PropOp31
 70
     1
102
RTVSPost2010Prop32
280
     0
102
RTVSPost2010PropOp32
 70
     1
102
RTVSPost2010Prop33
280
     0
102
RTVSPost2010PropOp33
 70
     1
102
RTVSPost2010Prop34
280
     0
102
RTVSPost2010PropOp34
 70
     1
102
RTVSPost2010Prop35
280
     0
102
RTVSPost2010PropOp35
 70
     1
102
RTVSPost2010Prop36
280
     0
102
RTVSPost2010PropOp36
 70
     1
102
RTVSPost2010Prop37
 90
       50
102
RTVSPost2010PropOp37
 70
     1
102
RTVSPost2010Prop38
140
0.0
102
RTVSPost2010PropOp38
 70
     1
102
RTVSPost2010Prop39
140
1.0
102
RTVSPost2010PropOp39
 70
     1
102
RTVSPost2010Prop40
 90
        0
102
RTVSPost2010PropOp40
 70
     1
102
RTVSPost2010Prop41ColorIndex
 90
       18
102
RTVSPost2010Prop41ColorRGB
 90
        0
102
RTVSPost2010PropOp41
 70
     1
102
RTVSPost2010Prop42
 90
       50
102
RTVSPost2010PropOp42
 70
     1
102
RTVSPost2010Prop43
 90
        3
102
RTVSPost2010PropOp43
 70
     1
102
RTVSPost2010Prop44ColorIndex
 90
        5
102
RTVSPost2010Prop44ColorRGB
 90
      255
102
RTVSPost2010PropOp44
 70
     1
102
RTVSPost2010Prop45
280
     0
102
RTVSPost2010PropOp45
 70
     1
102
RTVSPost2010Prop46
 90
       50
102
RTVSPost2010PropOp46
 70
     1
102
RTVSPost2010Prop47
 90
       50
102
RTVSPost2010PropOp47
 70
     1
102
RTVSPost2010Prop48
 90
       50
102
RTVSPost2010PropOp48
 70
     1
102
RTVSPost2010Prop49
280
     0
102
RTVSPost2010PropOp49
 70
     1
102
RTVSPost2010Prop50
 90
       50
102
RTVSPost2010PropOp50
 70
     1
102
RTVSPost2010Prop51ColorIndex
 90
      256
102
RTVSPost2010Prop51ColorRGB
 90
-16777216
102
RTVSPost2010PropOp51
 70
     0
102
RTVSPost2010Prop52
140
1.0
102
RTVSPost2010PropOp52
 70
     0
102
RTVSPost2010Prop53
 90
        2
102
RTVSPost2010PropOp53
 70
     1
102
RTVSPost2010Prop54
  1
strokes_ogs.tif
102
RTVSPost2010PropOp54
 70
     1
102
RTVSPost2010Prop55
280
     0
102
RTVSPost2010PropOp55
 70
     1
102
RTVSPost2010Prop56
140
1.0
102
RTVSPost2010PropOp56
 70
     1
102
RTVSPost2010Prop57
140
1.0
102
RTVSPost2010PropOp57
 70
     1
102
RTVSPropertyOp0
 70
     1
102
RTVSPropertyOp1
 70
     1
102
RTVSPropertyOp2
 70
     1
102
RTVSPropertyOp3
 70
     1
102
RTVSPropertyOp4
 70
     1
102
RTVSPropertyOp5
 70
     1
102
RTVSPropertyOp6
 70
     1
102
RTVSPropertyOp7
 70
     1
102
RTVSPropertyOp8
 70
     1
102
RTVSPropertyOp9
 70
     1
102
RTVSPropertyOp10
 70
     1
102
RTVSPropertyOp11
 70
     1
102
RTVSPropertyOp12
 70
     1
102
RTVSPropertyOp13
 70
     1
102
RTVSPropertyOp14
 70
     1
102
RTVSPropertyOp15
 70
     1
102
RTVSPropertyOp16
 70
     1
102
RTVSPropertyOp17
 70
     1
102
RTVSPropertyOp18
 70
     1
102
RTVSPropertyOp19
 70
     1
102
RTVSPropertyOp20
 70
     1
102
RTVSPropertyOp21
 70
     1
102
RTVSPropertyOp22
 70
     1
102
RTVSPropertyOp23
 70
     1
102
RTVSPropertyOp24
 70
     1
102
RTVSPropertyOp25
 70
     1
102
RTVSPropertyOp26
 70
     1
102
RTVSPropertyOp27
 70
     1
102
RTVSPropertyOp28
 70
     1
102
RTVSPropertyOp29
 70
     1
102
RTVSPropertyOp30
 70
     1
102
RTVSPropertyOp31
 70
     1
102
RTVSPropertyOp32
 70
     1
102
RTVSPropertyOp33
 70
     1
102
RTVSPropertyOp34
 70
     1
102
RTVSPropertyOp35
 70
     1
102
RTVSPropertyOp36
 70
     1
102
RTVSPropertyOp37
 70
     1
102
RTVSPropertyOp38
 70
     1
102
RTVSPropertyOp39
 70
     1
102
RTVSPropertyOp40
 70
     1
102
RTVSPropertyOp41
 70
     1
102
RTVSPropertyOp42
 70
     1
102
RTVSPropertyOp43
 70
     1
102
RTVSPropertyOp44
 70
     1
102
RTVSPropertyOp45
 70
     1
102
RTVSPropertyOp46
 70
     1
102
RTVSPropertyOp47
 70
     1
102
RTVSPropertyOp48
 70
     1
102
RTVSPropertyOp49
 70
     1
102
RTVSPropertyOp50
 70
     1
102
RTVSPropertyOp51
 70
     0
102
RTVSPropertyOp52
 70
     0
102
RTVSPropertyOp53
 70
     1
102
RTVSPropertyOp54
 70
     1
102
RTVSPropertyOp55
 70
     1
102
RTVSPropertyOp56
 70
     1
102
RTVSPropertyOp57
 70
     1
102
RTVSPropertyOp58
 70
     1
102
RTVSPropertyOp59
 70
     1
102
RTVSPropertyOp60
 70
     1
102
RTVSPropertyOp61
 70
     1
102
RTVSPropertyOp62
 70
     1
  0
XRECORD
  5
1837
102
{ACAD_REACTORS
330
1836
102
}
330
1836
100
AcDbXrecord
280
     1
102
RTVSPost2010Prop28
280
     0
102
RTVSPost2010PropOp28
 70
     1
102
RTVSPost2010Prop29
280
     1
102
RTVSPost2010PropOp29
 70
     1
102
RTVSPost2010Prop30
280
     1
102
RTVSPost2010PropOp30
 70
     1
102
RTVSPost2010Prop31
280
     0
102
RTVSPost2010PropOp31
 70
     1
102
RTVSPost2010Prop32
280
     0
102
RTVSPost2010PropOp32
 70
     1
102
RTVSPost2010Prop33
280
     0
102
RTVSPost2010PropOp33
 70
     1
102
RTVSPost2010Prop34
280
     0
102
RTVSPost2010PropOp34
 70
     1
102
RTVSPost2010Prop35
280
     0
102
RTVSPost2010PropOp35
 70
     1
102
RTVSPost2010Prop36
280
     0
102
RTVSPost2010PropOp36
 70
     1
102
RTVSPost2010Prop37
 90
       50
102
RTVSPost2010PropOp37
 70
     1
102
RTVSPost2010Prop38
140
0.0
102
RTVSPost2010PropOp38
 70
     1
102
RTVSPost2010Prop39
140
1.0
102
RTVSPost2010PropOp39
 70
     1
102
RTVSPost2010Prop40
 90
        0
102
RTVSPost2010PropOp40
 70
     1
102
RTVSPost2010Prop41ColorIndex
 90
       18
102
RTVSPost2010Prop41ColorRGB
 90
        0
102
RTVSPost2010PropOp41
 70
     1
102
RTVSPost2010Prop42
 90
       50
102
RTVSPost2010PropOp42
 70
     1
102
RTVSPost2010Prop43
 90
        3
102
RTVSPost2010PropOp43
 70
     1
102
RTVSPost2010Prop44ColorIndex
 90
        5
102
RTVSPost2010Prop44ColorRGB
 90
      255
102
RTVSPost2010PropOp44
 70
     1
102
RTVSPost2010Prop45
280
     0
102
RTVSPost2010PropOp45
 70
     1
102
RTVSPost2010Prop46
 90
       50
102
RTVSPost2010PropOp46
 70
     1
102
RTVSPost2010Prop47
 90
       50
102
RTVSPost2010PropOp47
 70
     1
102
RTVSPost2010Prop48
 90
       50
102
RTVSPost2010PropOp48
 70
     1
102
RTVSPost2010Prop49
280
     0
102
RTVSPost2010PropOp49
 70
     1
102
RTVSPost2010Prop50
 90
       50
102
RTVSPost2010PropOp50
 70
     1
102
RTVSPost2010Prop51ColorIndex
 90
      256
102
RTVSPost2010Prop51ColorRGB
 90
-16777216
102
RTVSPost2010PropOp51
 70
     0
102
RTVSPost2010Prop52
140
1.0
102
RTVSPost2010PropOp52
 70
     0
102
RTVSPost2010Prop53
 90
        2
102
RTVSPost2010PropOp53
 70
     1
102
RTVSPost2010Prop54
  1
strokes_ogs.tif
102
RTVSPost2010PropOp54
 70
     1
102
RTVSPost2010Prop55
280
     0
102
RTVSPost2010PropOp55
 70
     1
102
RTVSPost2010Prop56
140
1.0
102
RTVSPost2010PropOp56
 70
     1
102
RTVSPost2010Prop57
140
1.0
102
RTVSPost2010PropOp57
 70
     1
102
RTVSPropertyOp0
 70
     1
102
RTVSPropertyOp1
 70
     1
102
RTVSPropertyOp2
 70
     1
102
RTVSPropertyOp3
 70
     1
102
RTVSPropertyOp4
 70
     1
102
RTVSPropertyOp5
 70
     1
102
RTVSPropertyOp6
 70
     1
102
RTVSPropertyOp7
 70
     1
102
RTVSPropertyOp8
 70
     1
102
RTVSPropertyOp9
 70
     1
102
RTVSPropertyOp10
 70
     1
102
RTVSPropertyOp11
 70
     1
102
RTVSPropertyOp12
 70
     1
102
RTVSPropertyOp13
 70
     1
102
RTVSPropertyOp14
 70
     1
102
RTVSPropertyOp15
 70
     1
102
RTVSPropertyOp16
 70
     1
102
RTVSPropertyOp17
 70
     1
102
RTVSPropertyOp18
 70
     1
102
RTVSPropertyOp19
 70
     1
102
RTVSPropertyOp20
 70
     1
102
RTVSPropertyOp21
 70
     1
102
RTVSPropertyOp22
 70
     1
102
RTVSPropertyOp23
 70
     1
102
RTVSPropertyOp24
 70
     1
102
RTVSPropertyOp25
 70
     1
102
RTVSPropertyOp26
 70
     1
102
RTVSPropertyOp27
 70
     1
102
RTVSPropertyOp28
 70
     1
102
RTVSPropertyOp29
 70
     1
102
RTVSPropertyOp30
 70
     1
102
RTVSPropertyOp31
 70
     1
102
RTVSPropertyOp32
 70
     1
102
RTVSPropertyOp33
 70
     1
102
RTVSPropertyOp34
 70
     1
102
RTVSPropertyOp35
 70
     1
102
RTVSPropertyOp36
 70
     1
102
RTVSPropertyOp37
 70
     1
102
RTVSPropertyOp38
 70
     1
102
RTVSPropertyOp39
 70
     1
102
RTVSPropertyOp40
 70
     1
102
RTVSPropertyOp41
 70
     1
102
RTVSPropertyOp42
 70
     1
102
RTVSPropertyOp43
 70
     1
102
RTVSPropertyOp44
 70
     1
102
RTVSPropertyOp45
 70
     1
102
RTVSPropertyOp46
 70
     1
102
RTVSPropertyOp47
 70
     1
102
RTVSPropertyOp48
 70
     1
102
RTVSPropertyOp49
 70
     1
102
RTVSPropertyOp50
 70
     1
102
RTVSPropertyOp51
 70
     0
102
RTVSPropertyOp52
 70
     0
102
RTVSPropertyOp53
 70
     1
102
RTVSPropertyOp54
 70
     1
102
RTVSPropertyOp55
 70
     1
102
RTVSPropertyOp56
 70
     1
102
RTVSPropertyOp57
 70
     1
102
RTVSPropertyOp58
 70
     1
102
RTVSPropertyOp59
 70
     1
102
RTVSPropertyOp60
 70
     1
102
RTVSPropertyOp61
 70
     1
102
RTVSPropertyOp62
 70
     1
  0
XRECORD
  5
1839
102
{ACAD_REACTORS
330
1838
102
}
330
1838
100
AcDbXrecord
280
     1
102
RTVSPost2010Prop28
280
     0
102
RTVSPost2010PropOp28
 70
     1
102
RTVSPost2010Prop29
280
     1
102
RTVSPost2010PropOp29
 70
     1
102
RTVSPost2010Prop30
280
     1
102
RTVSPost2010PropOp30
 70
     1
102
RTVSPost2010Prop31
280
     0
102
RTVSPost2010PropOp31
 70
     1
102
RTVSPost2010Prop32
280
     0
102
RTVSPost2010PropOp32
 70
     1
102
RTVSPost2010Prop33
280
     0
102
RTVSPost2010PropOp33
 70
     1
102
RTVSPost2010Prop34
280
     0
102
RTVSPost2010PropOp34
 70
     1
102
RTVSPost2010Prop35
280
     0
102
RTVSPost2010PropOp35
 70
     1
102
RTVSPost2010Prop36
280
     0
102
RTVSPost2010PropOp36
 70
     1
102
RTVSPost2010Prop37
 90
       50
102
RTVSPost2010PropOp37
 70
     1
102
RTVSPost2010Prop38
140
0.0
102
RTVSPost2010PropOp38
 70
     1
102
RTVSPost2010Prop39
140
1.0
102
RTVSPost2010PropOp39
 70
     1
102
RTVSPost2010Prop40
 90
        0
102
RTVSPost2010PropOp40
 70
     1
102
RTVSPost2010Prop41ColorIndex
 90
       18
102
RTVSPost2010Prop41ColorRGB
 90
        0
102
RTVSPost2010PropOp41
 70
     1
102
RTVSPost2010Prop42
 90
       50
102
RTVSPost2010PropOp42
 70
     1
102
RTVSPost2010Prop43
 90
        3
102
RTVSPost2010PropOp43
 70
     1
102
RTVSPost2010Prop44ColorIndex
 90
        5
102
RTVSPost2010Prop44ColorRGB
 90
      255
102
RTVSPost2010PropOp44
 70
     1
102
RTVSPost2010Prop45
280
     0
102
RTVSPost2010PropOp45
 70
     1
102
RTVSPost2010Prop46
 90
       50
102
RTVSPost2010PropOp46
 70
     1
102
RTVSPost2010Prop47
 90
       50
102
RTVSPost2010PropOp47
 70
     1
102
RTVSPost2010Prop48
 90
       50
102
RTVSPost2010PropOp48
 70
     1
102
RTVSPost2010Prop49
280
     0
102
RTVSPost2010PropOp49
 70
     1
102
RTVSPost2010Prop50
 90
       50
102
RTVSPost2010PropOp50
 70
     1
102
RTVSPost2010Prop51ColorIndex
 90
      256
102
RTVSPost2010Prop51ColorRGB
 90
-16777216
102
RTVSPost2010PropOp51
 70
     0
102
RTVSPost2010Prop52
140
1.0
102
RTVSPost2010PropOp52
 70
     0
102
RTVSPost2010Prop53
 90
        2
102
RTVSPost2010PropOp53
 70
     1
102
RTVSPost2010Prop54
  1
strokes_ogs.tif
102
RTVSPost2010PropOp54
 70
     1
102
RTVSPost2010Prop55
280
     0
102
RTVSPost2010PropOp55
 70
     1
102
RTVSPost2010Prop56
140
1.0
102
RTVSPost2010PropOp56
 70
     1
102
RTVSPost2010Prop57
140
1.0
102
RTVSPost2010PropOp57
 70
     1
102
RTVSPropertyOp0
 70
     1
102
RTVSPropertyOp1
 70
     1
102
RTVSPropertyOp2
 70
     1
102
RTVSPropertyOp3
 70
     1
102
RTVSPropertyOp4
 70
     1
102
RTVSPropertyOp5
 70
     1
102
RTVSPropertyOp6
 70
     1
102
RTVSPropertyOp7
 70
     1
102
RTVSPropertyOp8
 70
     1
102
RTVSPropertyOp9
 70
     1
102
RTVSPropertyOp10
 70
     1
102
RTVSPropertyOp11
 70
     1
102
RTVSPropertyOp12
 70
     1
102
RTVSPropertyOp13
 70
     1
102
RTVSPropertyOp14
 70
     1
102
RTVSPropertyOp15
 70
     1
102
RTVSPropertyOp16
 70
     1
102
RTVSPropertyOp17
 70
     1
102
RTVSPropertyOp18
 70
     1
102
RTVSPropertyOp19
 70
     1
102
RTVSPropertyOp20
 70
     1
102
RTVSPropertyOp21
 70
     1
102
RTVSPropertyOp22
 70
     1
102
RTVSPropertyOp23
 70
     1
102
RTVSPropertyOp24
 70
     1
102
RTVSPropertyOp25
 70
     1
102
RTVSPropertyOp26
 70
     1
102
RTVSPropertyOp27
 70
     1
102
RTVSPropertyOp28
 70
     1
102
RTVSPropertyOp29
 70
     1
102
RTVSPropertyOp30
 70
     1
102
RTVSPropertyOp31
 70
     1
102
RTVSPropertyOp32
 70
     1
102
RTVSPropertyOp33
 70
     1
102
RTVSPropertyOp34
 70
     1
102
RTVSPropertyOp35
 70
     1
102
RTVSPropertyOp36
 70
     1
102
RTVSPropertyOp37
 70
     1
102
RTVSPropertyOp38
 70
     1
102
RTVSPropertyOp39
 70
     1
102
RTVSPropertyOp40
 70
     1
102
RTVSPropertyOp41
 70
     1
102
RTVSPropertyOp42
 70
     1
102
RTVSPropertyOp43
 70
     1
102
RTVSPropertyOp44
 70
     1
102
RTVSPropertyOp45
 70
     1
102
RTVSPropertyOp46
 70
     1
102
RTVSPropertyOp47
 70
     1
102
RTVSPropertyOp48
 70
     1
102
RTVSPropertyOp49
 70
     1
102
RTVSPropertyOp50
 70
     1
102
RTVSPropertyOp51
 70
     0
102
RTVSPropertyOp52
 70
     0
102
RTVSPropertyOp53
 70
     1
102
RTVSPropertyOp54
 70
     1
102
RTVSPropertyOp55
 70
     1
102
RTVSPropertyOp56
 70
     1
102
RTVSPropertyOp57
 70
     1
102
RTVSPropertyOp58
 70
     1
102
RTVSPropertyOp59
 70
     1
102
RTVSPropertyOp60
 70
     1
102
RTVSPropertyOp61
 70
     1
102
RTVSPropertyOp62
 70
     1
  0
XRECORD
  5
182F
102
{ACAD_REACTORS
330
182E
102
}
330
182E
100
AcDbXrecord
280
     1
102
RTVSPost2010Prop28
280
     0
102
RTVSPost2010PropOp28
 70
     1
102
RTVSPost2010Prop29
280
     1
102
RTVSPost2010PropOp29
 70
     1
102
RTVSPost2010Prop30
280
     1
102
RTVSPost2010PropOp30
 70
     1
102
RTVSPost2010Prop31
280
     0
102
RTVSPost2010PropOp31
 70
     1
102
RTVSPost2010Prop32
280
     0
102
RTVSPost2010PropOp32
 70
     1
102
RTVSPost2010Prop33
280
     0
102
RTVSPost2010PropOp33
 70
     1
102
RTVSPost2010Prop34
280
     0
102
RTVSPost2010PropOp34
 70
     1
102
RTVSPost2010Prop35
280
     0
102
RTVSPost2010PropOp35
 70
     1
102
RTVSPost2010Prop36
280
     0
102
RTVSPost2010PropOp36
 70
     1
102
RTVSPost2010Prop37
 90
       50
102
RTVSPost2010PropOp37
 70
     1
102
RTVSPost2010Prop38
140
0.0
102
RTVSPost2010PropOp38
 70
     1
102
RTVSPost2010Prop39
140
1.0
102
RTVSPost2010PropOp39
 70
     1
102
RTVSPost2010Prop40
 90
        0
102
RTVSPost2010PropOp40
 70
     1
102
RTVSPost2010Prop41ColorIndex
 90
       18
102
RTVSPost2010Prop41ColorRGB
 90
        0
102
RTVSPost2010PropOp41
 70
     1
102
RTVSPost2010Prop42
 90
       50
102
RTVSPost2010PropOp42
 70
     1
102
RTVSPost2010Prop43
 90
        3
102
RTVSPost2010PropOp43
 70
     1
102
RTVSPost2010Prop44ColorIndex
 90
        5
102
RTVSPost2010Prop44ColorRGB
 90
      255
102
RTVSPost2010PropOp44
 70
     1
102
RTVSPost2010Prop45
280
     0
102
RTVSPost2010PropOp45
 70
     1
102
RTVSPost2010Prop46
 90
       50
102
RTVSPost2010PropOp46
 70
     1
102
RTVSPost2010Prop47
 90
       50
102
RTVSPost2010PropOp47
 70
     1
102
RTVSPost2010Prop48
 90
       50
102
RTVSPost2010PropOp48
 70
     1
102
RTVSPost2010Prop49
280
     0
102
RTVSPost2010PropOp49
 70
     1
102
RTVSPost2010Prop50
 90
       50
102
RTVSPost2010PropOp50
 70
     1
102
RTVSPost2010Prop51ColorIndex
 90
      256
102
RTVSPost2010Prop51ColorRGB
 90
-16777216
102
RTVSPost2010PropOp51
 70
     0
102
RTVSPost2010Prop52
140
1.0
102
RTVSPost2010PropOp52
 70
     0
102
RTVSPost2010Prop53
 90
        2
102
RTVSPost2010PropOp53
 70
     1
102
RTVSPost2010Prop54
  1
strokes_ogs.tif
102
RTVSPost2010PropOp54
 70
     1
102
RTVSPost2010Prop55
280
     0
102
RTVSPost2010PropOp55
 70
     1
102
RTVSPost2010Prop56
140
1.0
102
RTVSPost2010PropOp56
 70
     1
102
RTVSPost2010Prop57
140
1.0
102
RTVSPost2010PropOp57
 70
     1
102
RTVSPropertyOp0
 70
     1
102
RTVSPropertyOp1
 70
     1
102
RTVSPropertyOp2
 70
     1
102
RTVSPropertyOp3
 70
     1
102
RTVSPropertyOp4
 70
     1
102
RTVSPropertyOp5
 70
     1
102
RTVSPropertyOp6
 70
     1
102
RTVSPropertyOp7
 70
     1
102
RTVSPropertyOp8
 70
     1
102
RTVSPropertyOp9
 70
     1
102
RTVSPropertyOp10
 70
     1
102
RTVSPropertyOp11
 70
     1
102
RTVSPropertyOp12
 70
     1
102
RTVSPropertyOp13
 70
     1
102
RTVSPropertyOp14
 70
     1
102
RTVSPropertyOp15
 70
     1
102
RTVSPropertyOp16
 70
     1
102
RTVSPropertyOp17
 70
     1
102
RTVSPropertyOp18
 70
     1
102
RTVSPropertyOp19
 70
     1
102
RTVSPropertyOp20
 70
     1
102
RTVSPropertyOp21
 70
     1
102
RTVSPropertyOp22
 70
     1
102
RTVSPropertyOp23
 70
     1
102
RTVSPropertyOp24
 70
     1
102
RTVSPropertyOp25
 70
     1
102
RTVSPropertyOp26
 70
     1
102
RTVSPropertyOp27
 70
     1
102
RTVSPropertyOp28
 70
     1
102
RTVSPropertyOp29
 70
     1
102
RTVSPropertyOp30
 70
     1
102
RTVSPropertyOp31
 70
     1
102
RTVSPropertyOp32
 70
     1
102
RTVSPropertyOp33
 70
     1
102
RTVSPropertyOp34
 70
     1
102
RTVSPropertyOp35
 70
     1
102
RTVSPropertyOp36
 70
     1
102
RTVSPropertyOp37
 70
     1
102
RTVSPropertyOp38
 70
     1
102
RTVSPropertyOp39
 70
     1
102
RTVSPropertyOp40
 70
     1
102
RTVSPropertyOp41
 70
     1
102
RTVSPropertyOp42
 70
     1
102
RTVSPropertyOp43
 70
     1
102
RTVSPropertyOp44
 70
     1
102
RTVSPropertyOp45
 70
     1
102
RTVSPropertyOp46
 70
     1
102
RTVSPropertyOp47
 70
     1
102
RTVSPropertyOp48
 70
     1
102
RTVSPropertyOp49
 70
     1
102
RTVSPropertyOp50
 70
     1
102
RTVSPropertyOp51
 70
     0
102
RTVSPropertyOp52
 70
     0
102
RTVSPropertyOp53
 70
     1
102
RTVSPropertyOp54
 70
     1
102
RTVSPropertyOp55
 70
     1
102
RTVSPropertyOp56
 70
     1
102
RTVSPropertyOp57
 70
     1
102
RTVSPropertyOp58
 70
     1
102
RTVSPropertyOp59
 70
     1
102
RTVSPropertyOp60
 70
     1
102
RTVSPropertyOp61
 70
     1
102
RTVSPropertyOp62
 70
     1
  0
XRECORD
  5
1823
102
{ACAD_REACTORS
330
1822
102
}
330
1822
100
AcDbXrecord
280
     1
102
RTVSPost2010Prop28
280
     0
102
RTVSPost2010PropOp28
 70
     1
102
RTVSPost2010Prop29
280
     1
102
RTVSPost2010PropOp29
 70
     1
102
RTVSPost2010Prop30
280
     1
102
RTVSPost2010PropOp30
 70
     1
102
RTVSPost2010Prop31
280
     0
102
RTVSPost2010PropOp31
 70
     1
102
RTVSPost2010Prop32
280
     0
102
RTVSPost2010PropOp32
 70
     1
102
RTVSPost2010Prop33
280
     0
102
RTVSPost2010PropOp33
 70
     1
102
RTVSPost2010Prop34
280
     0
102
RTVSPost2010PropOp34
 70
     1
102
RTVSPost2010Prop35
280
     0
102
RTVSPost2010PropOp35
 70
     1
102
RTVSPost2010Prop36
280
     0
102
RTVSPost2010PropOp36
 70
     1
102
RTVSPost2010Prop37
 90
       50
102
RTVSPost2010PropOp37
 70
     1
102
RTVSPost2010Prop38
140
0.0
102
RTVSPost2010PropOp38
 70
     1
102
RTVSPost2010Prop39
140
1.0
102
RTVSPost2010PropOp39
 70
     1
102
RTVSPost2010Prop40
 90
        0
102
RTVSPost2010PropOp40
 70
     1
102
RTVSPost2010Prop41ColorIndex
 90
       18
102
RTVSPost2010Prop41ColorRGB
 90
        0
102
RTVSPost2010PropOp41
 70
     1
102
RTVSPost2010Prop42
 90
       50
102
RTVSPost2010PropOp42
 70
     1
102
RTVSPost2010Prop43
 90
        3
102
RTVSPost2010PropOp43
 70
     1
102
RTVSPost2010Prop44ColorIndex
 90
        5
102
RTVSPost2010Prop44ColorRGB
 90
      255
102
RTVSPost2010PropOp44
 70
     1
102
RTVSPost2010Prop45
280
     0
102
RTVSPost2010PropOp45
 70
     1
102
RTVSPost2010Prop46
 90
       50
102
RTVSPost2010PropOp46
 70
     1
102
RTVSPost2010Prop47
 90
       50
102
RTVSPost2010PropOp47
 70
     1
102
RTVSPost2010Prop48
 90
       50
102
RTVSPost2010PropOp48
 70
     1
102
RTVSPost2010Prop49
280
     0
102
RTVSPost2010PropOp49
 70
     1
102
RTVSPost2010Prop50
 90
       50
102
RTVSPost2010PropOp50
 70
     1
102
RTVSPost2010Prop51ColorIndex
 90
      256
102
RTVSPost2010Prop51ColorRGB
 90
-16777216
102
RTVSPost2010PropOp51
 70
     0
102
RTVSPost2010Prop52
140
1.0
102
RTVSPost2010PropOp52
 70
     0
102
RTVSPost2010Prop53
 90
        2
102
RTVSPost2010PropOp53
 70
     1
102
RTVSPost2010Prop54
  1
strokes_ogs.tif
102
RTVSPost2010PropOp54
 70
     1
102
RTVSPost2010Prop55
280
     0
102
RTVSPost2010PropOp55
 70
     1
102
RTVSPost2010Prop56
140
1.0
102
RTVSPost2010PropOp56
 70
     1
102
RTVSPost2010Prop57
140
1.0
102
RTVSPost2010PropOp57
 70
     1
102
RTVSPropertyOp0
 70
     1
102
RTVSPropertyOp1
 70
     1
102
RTVSPropertyOp2
 70
     1
102
RTVSPropertyOp3
 70
     1
102
RTVSPropertyOp4
 70
     1
102
RTVSPropertyOp5
 70
     1
102
RTVSPropertyOp6
 70
     1
102
RTVSPropertyOp7
 70
     1
102
RTVSPropertyOp8
 70
     1
102
RTVSPropertyOp9
 70
     1
102
RTVSPropertyOp10
 70
     1
102
RTVSPropertyOp11
 70
     1
102
RTVSPropertyOp12
 70
     1
102
RTVSPropertyOp13
 70
     1
102
RTVSPropertyOp14
 70
     1
102
RTVSPropertyOp15
 70
     1
102
RTVSPropertyOp16
 70
     1
102
RTVSPropertyOp17
 70
     1
102
RTVSPropertyOp18
 70
     1
102
RTVSPropertyOp19
 70
     1
102
RTVSPropertyOp20
 70
     1
102
RTVSPropertyOp21
 70
     1
102
RTVSPropertyOp22
 70
     1
102
RTVSPropertyOp23
 70
     1
102
RTVSPropertyOp24
 70
     1
102
RTVSPropertyOp25
 70
     1
102
RTVSPropertyOp26
 70
     1
102
RTVSPropertyOp27
 70
     1
102
RTVSPropertyOp28
 70
     1
102
RTVSPropertyOp29
 70
     1
102
RTVSPropertyOp30
 70
     1
102
RTVSPropertyOp31
 70
     1
102
RTVSPropertyOp32
 70
     1
102
RTVSPropertyOp33
 70
     1
102
RTVSPropertyOp34
 70
     1
102
RTVSPropertyOp35
 70
     1
102
RTVSPropertyOp36
 70
     1
102
RTVSPropertyOp37
 70
     1
102
RTVSPropertyOp38
 70
     1
102
RTVSPropertyOp39
 70
     1
102
RTVSPropertyOp40
 70
     1
102
RTVSPropertyOp41
 70
     1
102
RTVSPropertyOp42
 70
     1
102
RTVSPropertyOp43
 70
     1
102
RTVSPropertyOp44
 70
     1
102
RTVSPropertyOp45
 70
     1
102
RTVSPropertyOp46
 70
     1
102
RTVSPropertyOp47
 70
     1
102
RTVSPropertyOp48
 70
     1
102
RTVSPropertyOp49
 70
     1
102
RTVSPropertyOp50
 70
     1
102
RTVSPropertyOp51
 70
     0
102
RTVSPropertyOp52
 70
     0
102
RTVSPropertyOp53
 70
     1
102
RTVSPropertyOp54
 70
     1
102
RTVSPropertyOp55
 70
     1
102
RTVSPropertyOp56
 70
     1
102
RTVSPropertyOp57
 70
     1
102
RTVSPropertyOp58
 70
     1
102
RTVSPropertyOp59
 70
     1
102
RTVSPropertyOp60
 70
     1
102
RTVSPropertyOp61
 70
     1
102
RTVSPropertyOp62
 70
     1
  0
XRECORD
  5
183B
102
{ACAD_REACTORS
330
183A
102
}
330
183A
100
AcDbXrecord
280
     1
102
RTVSPost2010Prop28
280
     0
102
RTVSPost2010PropOp28
 70
     1
102
RTVSPost2010Prop29
280
     1
102
RTVSPost2010PropOp29
 70
     1
102
RTVSPost2010Prop30
280
     1
102
RTVSPost2010PropOp30
 70
     1
102
RTVSPost2010Prop31
280
     0
102
RTVSPost2010PropOp31
 70
     1
102
RTVSPost2010Prop32
280
     0
102
RTVSPost2010PropOp32
 70
     1
102
RTVSPost2010Prop33
280
     0
102
RTVSPost2010PropOp33
 70
     1
102
RTVSPost2010Prop34
280
     0
102
RTVSPost2010PropOp34
 70
     1
102
RTVSPost2010Prop35
280
     0
102
RTVSPost2010PropOp35
 70
     1
102
RTVSPost2010Prop36
280
     0
102
RTVSPost2010PropOp36
 70
     1
102
RTVSPost2010Prop37
 90
       50
102
RTVSPost2010PropOp37
 70
     1
102
RTVSPost2010Prop38
140
0.0
102
RTVSPost2010PropOp38
 70
     1
102
RTVSPost2010Prop39
140
1.0
102
RTVSPost2010PropOp39
 70
     1
102
RTVSPost2010Prop40
 90
        0
102
RTVSPost2010PropOp40
 70
     1
102
RTVSPost2010Prop41ColorIndex
 90
       18
102
RTVSPost2010Prop41ColorRGB
 90
        0
102
RTVSPost2010PropOp41
 70
     1
102
RTVSPost2010Prop42
 90
       50
102
RTVSPost2010PropOp42
 70
     1
102
RTVSPost2010Prop43
 90
        3
102
RTVSPost2010PropOp43
 70
     1
102
RTVSPost2010Prop44ColorIndex
 90
        5
102
RTVSPost2010Prop44ColorRGB
 90
      255
102
RTVSPost2010PropOp44
 70
     1
102
RTVSPost2010Prop45
280
     0
102
RTVSPost2010PropOp45
 70
     1
102
RTVSPost2010Prop46
 90
       50
102
RTVSPost2010PropOp46
 70
     1
102
RTVSPost2010Prop47
 90
       50
102
RTVSPost2010PropOp47
 70
     1
102
RTVSPost2010Prop48
 90
       50
102
RTVSPost2010PropOp48
 70
     1
102
RTVSPost2010Prop49
280
     0
102
RTVSPost2010PropOp49
 70
     1
102
RTVSPost2010Prop50
 90
       50
102
RTVSPost2010PropOp50
 70
     1
102
RTVSPost2010Prop51ColorIndex
 90
      256
102
RTVSPost2010Prop51ColorRGB
 90
-16777216
102
RTVSPost2010PropOp51
 70
     0
102
RTVSPost2010Prop52
140
1.0
102
RTVSPost2010PropOp52
 70
     0
102
RTVSPost2010Prop53
 90
        2
102
RTVSPost2010PropOp53
 70
     1
102
RTVSPost2010Prop54
  1
strokes_ogs.tif
102
RTVSPost2010PropOp54
 70
     1
102
RTVSPost2010Prop55
280
     0
102
RTVSPost2010PropOp55
 70
     1
102
RTVSPost2010Prop56
140
1.0
102
RTVSPost2010PropOp56
 70
     1
102
RTVSPost2010Prop57
140
1.0
102
RTVSPost2010PropOp57
 70
     1
102
RTVSPropertyOp0
 70
     1
102
RTVSPropertyOp1
 70
     1
102
RTVSPropertyOp2
 70
     1
102
RTVSPropertyOp3
 70
     1
102
RTVSPropertyOp4
 70
     1
102
RTVSPropertyOp5
 70
     1
102
RTVSPropertyOp6
 70
     1
102
RTVSPropertyOp7
 70
     1
102
RTVSPropertyOp8
 70
     1
102
RTVSPropertyOp9
 70
     1
102
RTVSPropertyOp10
 70
     1
102
RTVSPropertyOp11
 70
     1
102
RTVSPropertyOp12
 70
     1
102
RTVSPropertyOp13
 70
     1
102
RTVSPropertyOp14
 70
     1
102
RTVSPropertyOp15
 70
     1
102
RTVSPropertyOp16
 70
     1
102
RTVSPropertyOp17
 70
     1
102
RTVSPropertyOp18
 70
     1
102
RTVSPropertyOp19
 70
     1
102
RTVSPropertyOp20
 70
     1
102
RTVSPropertyOp21
 70
     1
102
RTVSPropertyOp22
 70
     1
102
RTVSPropertyOp23
 70
     1
102
RTVSPropertyOp24
 70
     1
102
RTVSPropertyOp25
 70
     1
102
RTVSPropertyOp26
 70
     1
102
RTVSPropertyOp27
 70
     1
102
RTVSPropertyOp28
 70
     1
102
RTVSPropertyOp29
 70
     1
102
RTVSPropertyOp30
 70
     1
102
RTVSPropertyOp31
 70
     1
102
RTVSPropertyOp32
 70
     1
102
RTVSPropertyOp33
 70
     1
102
RTVSPropertyOp34
 70
     1
102
RTVSPropertyOp35
 70
     1
102
RTVSPropertyOp36
 70
     1
102
RTVSPropertyOp37
 70
     1
102
RTVSPropertyOp38
 70
     1
102
RTVSPropertyOp39
 70
     1
102
RTVSPropertyOp40
 70
     1
102
RTVSPropertyOp41
 70
     1
102
RTVSPropertyOp42
 70
     1
102
RTVSPropertyOp43
 70
     1
102
RTVSPropertyOp44
 70
     1
102
RTVSPropertyOp45
 70
     1
102
RTVSPropertyOp46
 70
     1
102
RTVSPropertyOp47
 70
     1
102
RTVSPropertyOp48
 70
     1
102
RTVSPropertyOp49
 70
     1
102
RTVSPropertyOp50
 70
     1
102
RTVSPropertyOp51
 70
     0
102
RTVSPropertyOp52
 70
     0
102
RTVSPropertyOp53
 70
     1
102
RTVSPropertyOp54
 70
     1
102
RTVSPropertyOp55
 70
     1
102
RTVSPropertyOp56
 70
     1
102
RTVSPropertyOp57
 70
     1
102
RTVSPropertyOp58
 70
     1
102
RTVSPropertyOp59
 70
     1
102
RTVSPropertyOp60
 70
     1
102
RTVSPropertyOp61
 70
     1
102
RTVSPropertyOp62
 70
     1
  0
ENDSEC
  0
EOF
