  0
SECTION
  2
HEADER
  9
$ACADVER
  1
AC1015
  9
$ACADMAINTVER
 70
    20
  9
$DWGCODEPAGE
  3
ANSI_932
  9
$INSBASE
 10
0.0
 20
0.0
 30
0.0
  9
$EXTMIN
 10
8.352233999999999
 20
9.999999999999998
 30
0.0
  9
$EXTMAX
 10
373.5391009999998
 20
236.6826619999999
 30
0.0
  9
$LIMMIN
 10
0.0
 20
0.0
  9
$LIMMAX
 10
396.0
 20
273.0
  9
$ORTHOMODE
 70
     1
  9
$REGENMODE
 70
     1
  9
$FILLMODE
 70
     1
  9
$QTEXTMODE
 70
     0
  9
$MIRRTEXT
 70
     1
  9
$LTSCALE
 40
20.0
  9
$ATTMODE
 70
     1
  9
$TEXTSIZE
 40
5.0
  9
$TRACEWID
 40
1.0
  9
$TEXTSTYLE
  7
STANDARD
  9
$CLAYER
  8
0
  9
$CELTYPE
  6
BYLAYER
  9
$CECOLOR
 62
   256
  9
$CELTSCALE
 40
1.0
  9
$DISPSILH
 70
     0
  9
$DIMSCALE
 40
1.0
  9
$DIMASZ
 40
3.0
  9
$DIMEXO
 40
1.0
  9
$DIMDLI
 40
1.0
  9
$DIMRND
 40
0.0
  9
$DIMDLE
 40
0.0
  9
$DIMEXE
 40
1.0
  9
$DIMTP
 40
0.0
  9
$DIMTM
 40
0.0
  9
$DIMTXT
 40
3.2
  9
$DIMCEN
 40
0.0
  9
$DIMTSZ
 40
0.0
  9
$DIMTOL
 70
     0
  9
$DIMLIM
 70
     0
  9
$DIMTIH
 70
     0
  9
$DIMTOH
 70
     0
  9
$DIMSE1
 70
     0
  9
$DIMSE2
 70
     0
  9
$DIMTAD
 70
     1
  9
$DIMZIN
 70
     8
  9
$DIMBLK
  1

  9
$DIMASO
 70
     1
  9
$DIMSHO
 70
     1
  9
$DIMPOST
  1

  9
$DIMAPOST
  1

  9
$DIMALT
 70
     0
  9
$DIMALTD
 70
     2
  9
$DIMALTF
 40
25.4
  9
$DIMLFAC
 40
1.0
  9
$DIMTOFL
 70
     1
  9
$DIMTVP
 40
0.0
  9
$DIMTIX
 70
     0
  9
$DIMSOXD
 70
     0
  9
$DIMSAH
 70
     1
  9
$DIMBLK1
  1

  9
$DIMBLK2
  1

  9
$DIMSTYLE
  2
STANDARD
  9
$DIMCLRD
 70
   256
  9
$DIMCLRE
 70
   256
  9
$DIMCLRT
 70
   256
  9
$DIMTFAC
 40
1.0
  9
$DIMGAP
 40
1.0
  9
$DIMJUST
 70
     0
  9
$DIMSD1
 70
     0
  9
$DIMSD2
 70
     0
  9
$DIMTOLJ
 70
     1
  9
$DIMTZIN
 70
     0
  9
$DIMALTZ
 70
     0
  9
$DIMALTTZ
 70
     0
  9
$DIMUPT
 70
     0
  9
$DIMDEC
 70
     4
  9
$DIMTDEC
 70
     4
  9
$DIMALTU
 70
     2
  9
$DIMALTTD
 70
     2
  9
$DIMTXSTY
  7
STANDARD
  9
$DIMAUNIT
 70
     0
  9
$DIMADEC
 70
     0
  9
$DIMALTRND
 40
0.0
  9
$DIMAZIN
 70
     0
  9
$DIMDSEP
 70
    46
  9
$DIMATFIT
 70
     3
  9
$DIMFRAC
 70
     0
  9
$DIMLDRBLK
  1

  9
$DIMLUNIT
 70
     2
  9
$DIMLWD
 70
    -2
  9
$DIMLWE
 70
    -2
  9
$DIMTMOVE
 70
     0
  9
$LUNITS
 70
     2
  9
$LUPREC
 70
     4
  9
$SKETCHINC
 40
1.0
  9
$FILLETRAD
 40
1.6
  9
$AUNITS
 70
     0
  9
$AUPREC
 70
     2
  9
$MENU
  1
.
  9
$ELEVATION
 40
0.0
  9
$PELEVATION
 40
0.0
  9
$THICKNESS
 40
0.0
  9
$LIMCHECK
 70
     0
  9
$CHAMFERA
 40
10.0
  9
$CHAMFERB
 40
10.0
  9
$CHAMFERC
 40
0.0
  9
$CHAMFERD
 40
0.0
  9
$SKPOLY
 70
     0
  9
$TDCREATE
 40
2450737.685937963
  9
$TDUCREATE
 40
2450737.310937963
  9
$TDUPDATE
 40
2457192.638418738
  9
$TDUUPDATE
 40
2457192.263418738
  9
$TDINDWG
 40
0.0000146296
  9
$TDUSRTIMER
 40
0.0000141435
  9
$USRTIMER
 70
     1
  9
$ANGBASE
 50
0.0
  9
$ANGDIR
 70
     0
  9
$PDMODE
 70
     0
  9
$PDSIZE
 40
0.0
  9
$PLINEWID
 40
0.0
  9
$SPLFRAME
 70
     0
  9
$SPLINETYPE
 70
     6
  9
$SPLINESEGS
 70
     8
  9
$HANDSEED
  5
A557
  9
$SURFTAB1
 70
     6
  9
$SURFTAB2
 70
     6
  9
$SURFTYPE
 70
     6
  9
$SURFU
 70
     6
  9
$SURFV
 70
     6
  9
$UCSBASE
  2

  9
$UCSNAME
  2

  9
$UCSORG
 10
0.0
 20
0.0
 30
0.0
  9
$UCSXDIR
 10
1.0
 20
0.0
 30
0.0
  9
$UCSYDIR
 10
0.0
 20
1.0
 30
0.0
  9
$UCSORTHOREF
  2

  9
$UCSORTHOVIEW
 70
     0
  9
$UCSORGTOP
 10
0.0
 20
0.0
 30
0.0
  9
$UCSORGBOTTOM
 10
0.0
 20
0.0
 30
0.0
  9
$UCSORGLEFT
 10
0.0
 20
0.0
 30
0.0
  9
$UCSORGRIGHT
 10
0.0
 20
0.0
 30
0.0
  9
$UCSORGFRONT
 10
0.0
 20
0.0
 30
0.0
  9
$UCSORGBACK
 10
0.0
 20
0.0
 30
0.0
  9
$PUCSBASE
  2

  9
$PUCSNAME
  2

  9
$PUCSORG
 10
0.0
 20
0.0
 30
0.0
  9
$PUCSXDIR
 10
1.0
 20
0.0
 30
0.0
  9
$PUCSYDIR
 10
0.0
 20
1.0
 30
0.0
  9
$PUCSORTHOREF
  2

  9
$PUCSORTHOVIEW
 70
     0
  9
$PUCSORGTOP
 10
0.0
 20
0.0
 30
0.0
  9
$PUCSORGBOTTOM
 10
0.0
 20
0.0
 30
0.0
  9
$PUCSORGLEFT
 10
0.0
 20
0.0
 30
0.0
  9
$PUCSORGRIGHT
 10
0.0
 20
0.0
 30
0.0
  9
$PUCSORGFRONT
 10
0.0
 20
0.0
 30
0.0
  9
$PUCSORGBACK
 10
0.0
 20
0.0
 30
0.0
  9
$USERI1
 70
     0
  9
$USERI2
 70
     0
  9
$USERI3
 70
     0
  9
$USERI4
 70
     0
  9
$USERI5
 70
     0
  9
$USERR1
 40
0.0
  9
$USERR2
 40
0.0
  9
$USERR3
 40
0.0
  9
$USERR4
 40
0.0
  9
$USERR5
 40
0.0
  9
$WORLDVIEW
 70
     1
  9
$SHADEDGE
 70
     3
  9
$SHADEDIF
 70
    70
  9
$TILEMODE
 70
     1
  9
$MAXACTVP
 70
    16
  9
$PINSBASE
 10
0.0
 20
0.0
 30
0.0
  9
$PLIMCHECK
 70
     0
  9
$PEXTMIN
 10
1.000000000000000E+20
 20
1.000000000000000E+20
 30
1.000000000000000E+20
  9
$PEXTMAX
 10
-1.000000000000000E+20
 20
-1.000000000000000E+20
 30
-1.000000000000000E+20
  9
$PLIMMIN
 10
0.0
 20
0.0
  9
$PLIMMAX
 10
420.0
 20
297.0
  9
$UNITMODE
 70
     0
  9
$VISRETAIN
 70
     0
  9
$PLINEGEN
 70
     0
  9
$PSLTSCALE
 70
     0
  9
$TREEDEPTH
 70
  3020
  9
$CMLSTYLE
  2
STANDARD
  9
$CMLJUST
 70
     0
  9
$CMLSCALE
 40
1.0
  9
$PROXYGRAPHICS
 70
     1
  9
$MEASUREMENT
 70
     0
  9
$CELWEIGHT
370
    -1
  9
$ENDCAPS
280
     0
  9
$JOINSTYLE
280
     0
  9
$LWDISPLAY
290
     0
  9
$INSUNITS
 70
     0
  9
$HYPERLINKBASE
  1

  9
$STYLESHEET
  1

  9
$XEDIT
290
     1
  9
$CEPSNTYPE
380
     0
  9
$PSTYLEMODE
290
     1
  9
$FINGERPRINTGUID
  2
{53287A0B-BD94-435D-A877-D1E2C3505011}
  9
$VERSIONGUID
  2
{A9396E21-20E0-463A-B112-2FA0DBAF1D36}
  9
$EXTNAMES
290
     1
  9
$PSVPSCALE
 40
0.0
  9
$OLESTARTUP
290
     0
  0
ENDSEC
  0
SECTION
  2
CLASSES
  0
CLASS
  1
ACDBDICTIONARYWDFLT
  2
AcDbDictionaryWithDefault
  3
ObjectDBX Classes
 90
        0
280
     0
281
     0
  0
CLASS
  1
ACDBPLACEHOLDER
  2
AcDbPlaceHolder
  3
ObjectDBX Classes
 90
        0
280
     0
281
     0
  0
CLASS
  1
LAYOUT
  2
AcDbLayout
  3
ObjectDBX Classes
 90
        0
280
     0
281
     0
  0
CLASS
  1
DICTIONARYVAR
  2
AcDbDictionaryVar
  3
ObjectDBX Classes
 90
        0
280
     0
281
     0
  0
CLASS
  1
MATERIAL
  2
AcDbMaterial
  3
ObjectDBX Classes
 90
     1153
280
     0
281
     0
  0
CLASS
  1
VISUALSTYLE
  2
AcDbVisualStyle
  3
ObjectDBX Classes
 90
     4095
280
     0
281
     0
  0
CLASS
  1
TABLESTYLE
  2
AcDbTableStyle
  3
ObjectDBX Classes
 90
     4095
280
     0
281
     0
  0
CLASS
  1
SCALE
  2
AcDbScale
  3
ObjectDBX Classes
 90
     1153
280
     0
281
     0
  0
CLASS
  1
MLEADERSTYLE
  2
AcDbMLeaderStyle
  3
ACDB_MLEADERSTYLE_CLASS
 90
     4095
280
     0
281
     0
  0
CLASS
  1
ACDBSECTIONVIEWSTYLE
  2
AcDbSectionViewStyle
  3
ObjectDBX Classes
 90
     1025
280
     0
281
     0
  0
CLASS
  1
ACDBDETAILVIEWSTYLE
  2
AcDbDetailViewStyle
  3
ObjectDBX Classes
 90
     1025
280
     0
281
     0
  0
CLASS
  1
CELLSTYLEMAP
  2
AcDbCellStyleMap
  3
ObjectDBX Classes
 90
     1152
280
     0
281
     0
  0
ENDSEC
  0
SECTION
  2
TABLES
  0
TABLE
  2
VPORT
  5
A2C7
330
0
100
AcDbSymbolTable
 70
     1
  0
VPORT
  5
A4A0
330
A2C7
100
AcDbSymbolTableRecord
100
AcDbViewportTableRecord
  2
*ACTIVE
 70
     0
 10
0.0
 20
0.0
 11
1.0
 21
1.0
 12
259.6071212190153
 22
123.3365484718658
 13
0.0
 23
0.0
 14
10.0
 24
10.0
 15
10.0
 25
10.0
 16
0.0
 26
0.0
 36
1.0
 17
0.0
 27
0.0
 37
0.0
 40
229.2300886110211
 41
1.899603698811096
 42
50.0
 43
0.0
 44
0.0
 50
0.0
 51
0.0
 71
     0
 72
   100
 73
     1
 74
     0
 75
     0
 76
     0
 77
     0
 78
     0
281
     0
 65
     1
110
0.0
120
0.0
130
0.0
111
1.0
121
0.0
131
0.0
112
0.0
122
1.0
132
0.0
 79
     0
146
0.0
1001
ACAD_NAV_VCDISPLAY
1070
     3
  0
ENDTAB
  0
TABLE
  2
LTYPE
  5
A2C4
330
0
100
AcDbSymbolTable
 70
     4
  0
LTYPE
  5
A2D2
330
A2C4
100
AcDbSymbolTableRecord
100
AcDbLinetypeTableRecord
  2
BYBLOCK
 70
     0
  3

 72
    65
 73
     0
 40
0.0
  0
LTYPE
  5
A2D3
330
A2C4
100
AcDbSymbolTableRecord
100
AcDbLinetypeTableRecord
  2
BYLAYER
 70
     0
  3

 72
    65
 73
     0
 40
0.0
  0
LTYPE
  5
A2D4
330
A2C4
100
AcDbSymbolTableRecord
100
AcDbLinetypeTableRecord
  2
CONTINUOUS
 70
     0
  3
Solid line
 72
    65
 73
     0
 40
0.0
  0
LTYPE
  5
A2E2
330
A2C4
100
AcDbSymbolTableRecord
100
AcDbLinetypeTableRecord
  2
DASHED
 70
     0
  3
__ __ __ __ __ __ __ __ __ __ __ __ __ __ __ __
 72
    65
 73
     2
 40
0.75
 49
0.5
 74
     0
 49
-0.25
 74
     0
  0
LTYPE
  5
A2E3
330
A2C4
100
AcDbSymbolTableRecord
100
AcDbLinetypeTableRecord
  2
CENTER
 70
     0
  3
____ _ ____ _ ____ _ ____ _ ____ _ ____ _ ____ 
 72
    65
 73
     4
 40
2.0
 49
1.25
 74
     0
 49
-0.25
 74
     0
 49
0.25
 74
     0
 49
-0.25
 74
     0
  0
LTYPE
  5
A2E4
330
A2C4
100
AcDbSymbolTableRecord
100
AcDbLinetypeTableRecord
  2
PHANTOM
 70
     0
  3
______  __  __  ______  __  __  ______  __  __ 
 72
    65
 73
     6
 40
2.5
 49
1.25
 74
     0
 49
-0.25
 74
     0
 49
0.25
 74
     0
 49
-0.25
 74
     0
 49
0.25
 74
     0
 49
-0.25
 74
     0
  0
ENDTAB
  0
TABLE
  2
LAYER
  5
A2C1
330
0
100
AcDbSymbolTable
 70
     8
  0
LAYER
  5
A2CF
102
{ACAD_XDICTIONARY
360
A4FB
102
}
330
A2C1
100
AcDbSymbolTableRecord
100
AcDbLayerTableRecord
  2
0
 70
     0
 62
     7
  6
CONTINUOUS
370
    -3
390
A4A9
  0
LAYER
  5
A2E5
102
{ACAD_XDICTIONARY
360
A4FD
102
}
330
A2C1
100
AcDbSymbolTableRecord
100
AcDbLayerTableRecord
  2
4
 70
     0
 62
     1
  6
CENTER
370
    -3
390
A4A9
  0
LAYER
  5
A2E6
102
{ACAD_XDICTIONARY
360
A4FF
102
}
330
A2C1
100
AcDbSymbolTableRecord
100
AcDbLayerTableRecord
  2
5
 70
     0
 62
     6
  6
PHANTOM
370
    -3
390
A4A9
  0
LAYER
  5
A2E7
102
{ACAD_XDICTIONARY
360
A501
102
}
330
A2C1
100
AcDbSymbolTableRecord
100
AcDbLayerTableRecord
  2
1
 70
     0
 62
     7
  6
CONTINUOUS
370
    -3
390
A4A9
  0
LAYER
  5
A2E8
102
{ACAD_XDICTIONARY
360
A503
102
}
330
A2C1
100
AcDbSymbolTableRecord
100
AcDbLayerTableRecord
  2
2
 70
     0
 62
     4
  6
CONTINUOUS
370
    -3
390
A4A9
  0
LAYER
  5
A2E9
102
{ACAD_XDICTIONARY
360
A505
102
}
330
A2C1
100
AcDbSymbolTableRecord
100
AcDbLayerTableRecord
  2
3
 70
     0
 62
     2
  6
DASHED
370
    -3
390
A4A9
  0
LAYER
  5
A2EA
102
{ACAD_XDICTIONARY
360
A507
102
}
330
A2C1
100
AcDbSymbolTableRecord
100
AcDbLayerTableRecord
  2
6
 70
     0
 62
     5
  6
CONTINUOUS
370
    -3
390
A4A9
  0
LAYER
  5
A2EB
102
{ACAD_XDICTIONARY
360
A509
102
}
330
A2C1
100
AcDbSymbolTableRecord
100
AcDbLayerTableRecord
  2
7
 70
     0
 62
     3
  6
CONTINUOUS
370
    -3
390
A4A9
  0
ENDTAB
  0
TABLE
  2
STYLE
  5
A2C2
330
0
100
AcDbSymbolTable
 70
     1
  0
STYLE
  5
A2D0
330
A2C2
100
AcDbSymbolTableRecord
100
AcDbTextStyleTableRecord
  2
STANDARD
 70
     0
 40
0.0
 41
1.0
 50
0.0
 71
     0
 42
5.0
  3
txt
  4

  0
ENDTAB
  0
TABLE
  2
VIEW
  5
A2C5
330
0
100
AcDbSymbolTable
 70
     1
  0
VIEW
  5
A2EC
330
A2C5
100
AcDbSymbolTableRecord
100
AcDbViewTableRecord
  2
0
 70
     0
 40
297.0
 10
283.8237409999999
 20
148.5
 41
567.6474820000001
 11
0.0
 21
0.0
 31
1.0
 12
0.0
 22
0.0
 32
0.0
 42
50.0
 43
0.0
 44
0.0
 50
0.0
 71
     0
281
     0
 72
     0
  0
ENDTAB
  0
TABLE
  2
UCS
  5
A2C6
330
0
100
AcDbSymbolTable
 70
     0
  0
ENDTAB
  0
TABLE
  2
APPID
  5
A2C8
330
0
100
AcDbSymbolTable
 70
     3
  0
APPID
  5
A2D1
330
A2C8
100
AcDbSymbolTableRecord
100
AcDbRegAppTableRecord
  2
ACAD
 70
     0
  0
APPID
  5
A515
330
A2C8
100
AcDbSymbolTableRecord
100
AcDbRegAppTableRecord
  2
ACAD_NAV_VCDISPLAY
 70
     0
  0
APPID
  5
A54E
330
A2C8
100
AcDbSymbolTableRecord
100
AcDbRegAppTableRecord
  2
ACAD_MLEADERVER
 70
     0
  0
ENDTAB
  0
TABLE
  2
DIMSTYLE
  5
A2C9
330
0
100
AcDbSymbolTable
 70
     1
100
AcDbDimStyleTable
 71
     0
  0
DIMSTYLE
105
A2EE
330
A2C9
100
AcDbSymbolTableRecord
100
AcDbDimStyleTableRecord
  2
STANDARD
 70
     0
 41
3.0
 42
1.0
 43
1.0
 44
1.0
 73
     0
 74
     0
 77
     1
 78
     8
140
3.2
141
0.0
147
1.0
172
     1
173
     1
176
   256
177
   256
178
   256
284
     8
285
     8
286
     8
340
A2D0
  0
ENDTAB
  0
TABLE
  2
BLOCK_RECORD
  5
A2C0
330
0
100
AcDbSymbolTable
 70
     0
  0
BLOCK_RECORD
  5
A2DD
102
{ACAD_XDICTIONARY
360
A4A3
102
}
330
A2C0
100
AcDbSymbolTableRecord
100
AcDbBlockTableRecord
  2
*MODEL_SPACE
340
A4F7
  0
BLOCK_RECORD
  5
A2D9
102
{ACAD_XDICTIONARY
360
A4A1
102
}
330
A2C0
100
AcDbSymbolTableRecord
100
AcDbBlockTableRecord
  2
*PAPER_SPACE
340
A4F8
  0
ENDTAB
  0
ENDSEC
  0
SECTION
  2
BLOCKS
  0
BLOCK
  5
A2DE
330
A2DD
100
AcDbEntity
  8
0
100
AcDbBlockBegin
  2
*MODEL_SPACE
 70
     0
 10
0.0
 20
0.0
 30
0.0
  3
*MODEL_SPACE
  1

  0
ENDBLK
  5
A2DF
330
A2DD
100
AcDbEntity
  8
0
100
AcDbBlockEnd
  0
BLOCK
  5
A2DA
330
A2D9
100
AcDbEntity
 67
     1
  8
0
100
AcDbBlockBegin
  2
*PAPER_SPACE
 70
     0
 10
0.0
 20
0.0
 30
0.0
  3
*PAPER_SPACE
  1

  0
ENDBLK
  5
A2DB
330
A2D9
100
AcDbEntity
 67
     1
  8
0
100
AcDbBlockEnd
  0
ENDSEC
  0
SECTION
  2
ENTITIES
  0
LINE
  5
A2F6
330
A2DD
100
AcDbEntity
  8
4
  6
CENTER
100
AcDbLine
 10
306.6891009999999
 20
104.8387729999999
 30
0.0
 11
306.6891009999999
 21
172.838773
 31
0.0
  0
LINE
  5
A2F7
330
A2DD
100
AcDbEntity
  8
1
  6
Continuous
100
AcDbLine
 10
368.5391009999999
 20
109.8387729999999
 30
0.0
 11
368.5391009999999
 21
167.838773
 31
0.0
  0
LINE
  5
A2F8
330
A2DD
100
AcDbEntity
  8
1
  6
Continuous
100
AcDbLine
 10
244.8391009999999
 20
109.8387729999999
 30
0.0
 11
244.8391009999999
 21
167.838773
 31
0.0
  0
LINE
  5
A2F9
330
A2DD
100
AcDbEntity
  8
4
  6
CENTER
100
AcDbLine
 10
373.5391009999998
 20
138.838773
 30
0.0
 11
239.8391009999999
 21
138.838773
 31
0.0
  0
LINE
  5
A2FA
330
A2DD
100
AcDbEntity
  8
1
  6
Continuous
100
AcDbLine
 10
368.5391009999999
 20
109.8387729999999
 30
0.0
 11
244.8391009999999
 21
109.8387729999999
 31
0.0
  0
LINE
  5
A2FB
330
A2DD
100
AcDbEntity
  8
1
  6
Continuous
100
AcDbLine
 10
368.5391009999999
 20
167.838773
 30
0.0
 11
244.8391009999999
 21
167.838773
 31
0.0
  0
LINE
  5
A2FC
330
A2DD
100
AcDbEntity
  8
1
  6
Continuous
100
AcDbLine
 10
361.6891009999998
 20
149.338773
 30
0.0
 11
251.6891009999999
 21
149.338773
 31
0.0
  0
LINE
  5
A2FD
330
A2DD
100
AcDbEntity
  8
1
  6
Continuous
100
AcDbLine
 10
361.6891009999998
 20
154.338773
 30
0.0
 11
251.6891009999999
 21
154.338773
 31
0.0
  0
LINE
  5
A2FE
330
A2DD
100
AcDbEntity
  8
1
  6
Continuous
100
AcDbLine
 10
361.6891009999998
 20
123.338773
 30
0.0
 11
251.6891009999999
 21
123.338773
 31
0.0
  0
LINE
  5
A2FF
330
A2DD
100
AcDbEntity
  8
1
  6
Continuous
100
AcDbLine
 10
361.6891009999998
 20
128.338773
 30
0.0
 11
251.6891009999999
 21
128.338773
 31
0.0
  0
ARC
  5
A300
330
A2DD
100
AcDbEntity
  8
1
  6
Continuous
100
AcDbCircle
 10
251.6891009999999
 20
125.838773
 30
0.0
 40
2.5
100
AcDbArc
 50
90.0
 51
270.0
  0
ARC
  5
A301
330
A2DD
100
AcDbEntity
  8
1
  6
Continuous
100
AcDbCircle
 10
251.6891009999999
 20
151.838773
 30
0.0
 40
2.5
100
AcDbArc
 50
90.0
 51
270.0
  0
ARC
  5
A302
330
A2DD
100
AcDbEntity
  8
1
  6
Continuous
100
AcDbCircle
 10
361.6891009999998
 20
151.838773
 30
0.0
 40
2.5
100
AcDbArc
 50
270.0
 51
90.0
  0
ARC
  5
A303
330
A2DD
100
AcDbEntity
  8
1
  6
Continuous
100
AcDbCircle
 10
361.6891009999998
 20
125.838773
 30
0.0
 40
2.5
100
AcDbArc
 50
270.0
 51
90.0
  0
LINE
  5
A304
330
A2DD
100
AcDbEntity
  8
3
  6
DASHED
100
AcDbLine
 10
366.939101
 20
109.8387729999999
 30
0.0
 11
366.939101
 21
167.838773
 31
0.0
  0
LINE
  5
A305
330
A2DD
100
AcDbEntity
  8
3
  6
DASHED
100
AcDbLine
 10
246.4391009999999
 20
109.8387729999999
 30
0.0
 11
246.4391009999999
 21
167.838773
 31
0.0
  0
LINE
  5
A306
330
A2DD
100
AcDbEntity
  8
4
  6
CENTER
100
AcDbLine
 10
361.6891009999998
 20
112.0887729999999
 30
0.0
 11
361.6891009999998
 21
119.588773
 31
0.0
  0
LINE
  5
A307
330
A2DD
100
AcDbEntity
  8
4
  6
CENTER
100
AcDbLine
 10
251.6891009999999
 20
112.0887729999999
 30
0.0
 11
251.6891009999999
 21
119.588773
 31
0.0
  0
LINE
  5
A308
330
A2DD
100
AcDbEntity
  8
4
  6
CENTER
100
AcDbLine
 10
365.4391009999998
 20
115.838773
 30
0.0
 11
357.939101
 21
115.838773
 31
0.0
  0
LINE
  5
A309
330
A2DD
100
AcDbEntity
  8
4
  6
CENTER
100
AcDbLine
 10
365.4391009999998
 20
161.838773
 30
0.0
 11
357.939101
 21
161.838773
 31
0.0
  0
CIRCLE
  5
A30A
330
A2DD
100
AcDbEntity
  8
1
  6
Continuous
100
AcDbCircle
 10
361.6891009999998
 20
161.838773
 30
0.0
 40
1.75
  0
CIRCLE
  5
A30B
330
A2DD
100
AcDbEntity
  8
1
  6
Continuous
100
AcDbCircle
 10
361.6891009999998
 20
115.838773
 30
0.0
 40
1.75
  0
CIRCLE
  5
A30C
330
A2DD
100
AcDbEntity
  8
1
  6
Continuous
100
AcDbCircle
 10
251.6891009999999
 20
115.838773
 30
0.0
 40
1.75
  0
CIRCLE
  5
A30D
330
A2DD
100
AcDbEntity
  8
1
  6
Continuous
100
AcDbCircle
 10
251.6891009999999
 20
161.838773
 30
0.0
 40
1.75
  0
LINE
  5
A30E
330
A2DD
100
AcDbEntity
  8
4
  6
CENTER
100
AcDbLine
 10
361.6891009999998
 20
158.088773
 30
0.0
 11
361.6891009999998
 21
165.588773
 31
0.0
  0
LINE
  5
A30F
330
A2DD
100
AcDbEntity
  8
4
  6
CENTER
100
AcDbLine
 10
251.6891009999999
 20
158.088773
 30
0.0
 11
251.6891009999999
 21
165.588773
 31
0.0
  0
LINE
  5
A310
330
A2DD
100
AcDbEntity
  8
4
  6
CENTER
100
AcDbLine
 10
255.4391009999999
 20
161.838773
 30
0.0
 11
247.939101
 21
161.838773
 31
0.0
  0
LINE
  5
A311
330
A2DD
100
AcDbEntity
  8
4
  6
CENTER
100
AcDbLine
 10
255.4391009999999
 20
115.838773
 30
0.0
 11
247.939101
 21
115.838773
 31
0.0
  0
LINE
  5
A312
330
A2DD
100
AcDbEntity
  8
4
  6
CENTER
100
AcDbLine
 10
75.20223399999998
 20
72.60847599999998
 30
0.0
 11
75.20223399999998
 21
39.008476
 31
0.0
  0
LINE
  5
A313
330
A2DD
100
AcDbEntity
  8
1
  6
Continuous
100
AcDbLine
 10
137.0522339999999
 20
67.60847599999999
 30
0.0
 11
135.452234
 21
67.60847599999999
 31
0.0
  0
LINE
  5
A314
330
A2DD
100
AcDbEntity
  8
1
  6
Continuous
100
AcDbLine
 10
134.6522339999999
 20
45.608476
 30
0.0
 11
15.752234
 21
45.608476
 31
0.0
  0
LINE
  5
A315
330
A2DD
100
AcDbEntity
  8
1
  6
Continuous
100
AcDbLine
 10
131.102234
 20
44.008476
 30
0.0
 11
19.302234
 21
44.008476
 31
0.0
  0
LINE
  5
A316
330
A2DD
100
AcDbEntity
  8
1
  6
Continuous
100
AcDbLine
 10
137.0522339999999
 20
48.008476
 30
0.0
 11
137.0522339999999
 21
67.60847599999999
 31
0.0
  0
LINE
  5
A317
330
A2DD
100
AcDbEntity
  8
1
  6
Continuous
100
AcDbLine
 10
135.452234
 20
48.008476
 30
0.0
 11
135.452234
 21
67.60847599999999
 31
0.0
  0
LINE
  5
A318
330
A2DD
100
AcDbEntity
  8
1
  6
Continuous
100
AcDbLine
 10
134.6522339999999
 20
47.20847599999999
 30
0.0
 11
15.752234
 21
47.20847599999999
 31
0.0
  0
LINE
  5
A319
330
A2DD
100
AcDbEntity
  8
1
  6
Continuous
100
AcDbLine
 10
14.95223399999999
 20
67.60847599999999
 30
0.0
 11
13.352234
 21
67.60847599999999
 31
0.0
  0
ARC
  5
A31A
330
A2DD
100
AcDbEntity
  8
1
  6
Continuous
100
AcDbCircle
 10
134.6522339999999
 20
48.008476
 30
0.0
 40
0.8
100
AcDbArc
 50
270.0
 51
0.0
  0
ARC
  5
A31B
330
A2DD
100
AcDbEntity
  8
1
  6
Continuous
100
AcDbCircle
 10
134.6522339999999
 20
48.008476
 30
0.0
 40
2.399999999999999
100
AcDbArc
 50
270.0
 51
0.0
  0
LINE
  5
A31C
330
A2DD
100
AcDbEntity
  8
1
  6
Continuous
100
AcDbLine
 10
13.352234
 20
48.008476
 30
0.0
 11
13.352234
 21
67.60847599999999
 31
0.0
  0
LINE
  5
A31D
330
A2DD
100
AcDbEntity
  8
1
  6
Continuous
100
AcDbLine
 10
14.95223399999999
 20
48.008476
 30
0.0
 11
14.95223399999999
 21
67.60847599999999
 31
0.0
  0
ARC
  5
A31E
330
A2DD
100
AcDbEntity
  8
1
  6
Continuous
100
AcDbCircle
 10
15.752234
 20
48.008476
 30
0.0
 40
2.399999999999999
100
AcDbArc
 50
180.0
 51
270.0
  0
ARC
  5
A31F
330
A2DD
100
AcDbEntity
  8
1
  6
Continuous
100
AcDbCircle
 10
15.752234
 20
48.008476
 30
0.0
 40
0.8
100
AcDbArc
 50
180.0
 51
270.0
  0
LINE
  5
A320
330
A2DD
100
AcDbEntity
  8
1
  6
Continuous
100
AcDbLine
 10
13.352234
 20
67.60847599999999
 30
0.0
 11
14.95223399999999
 21
67.60847599999999
 31
0.0
  0
LINE
  5
A321
330
A2DD
100
AcDbEntity
  8
1
  6
Continuous
100
AcDbLine
 10
134.6522339999999
 20
230.082662
 30
0.0
 11
15.752234
 21
230.082662
 31
0.0
  0
LINE
  5
A322
330
A2DD
100
AcDbEntity
  8
1
  6
Continuous
100
AcDbLine
 10
131.102234
 20
231.682662
 30
0.0
 11
19.302234
 21
231.682662
 31
0.0
  0
LINE
  5
A323
330
A2DD
100
AcDbEntity
  8
1
  6
Continuous
100
AcDbLine
 10
134.6522339999999
 20
228.482662
 30
0.0
 11
15.752234
 21
228.482662
 31
0.0
  0
LINE
  5
A324
330
A2DD
100
AcDbEntity
  8
1
  6
Continuous
100
AcDbLine
 10
13.352234
 20
227.682662
 30
0.0
 11
13.352234
 21
208.0826619999998
 31
0.0
  0
LINE
  5
A325
330
A2DD
100
AcDbEntity
  8
1
  6
Continuous
100
AcDbLine
 10
14.95223399999999
 20
227.682662
 30
0.0
 11
14.95223399999999
 21
208.0826619999998
 31
0.0
  0
LINE
  5
A326
330
A2DD
100
AcDbEntity
  8
1
  6
Continuous
100
AcDbLine
 10
14.95223399999999
 20
208.0826619999998
 30
0.0
 11
13.352234
 21
208.0826619999998
 31
0.0
  0
LINE
  5
A327
330
A2DD
100
AcDbEntity
  8
1
  6
Continuous
100
AcDbLine
 10
13.352234
 20
208.0826619999998
 30
0.0
 11
14.95223399999999
 21
208.0826619999998
 31
0.0
  0
ARC
  5
A328
330
A2DD
100
AcDbEntity
  8
1
  6
Continuous
100
AcDbCircle
 10
15.752234
 20
227.682662
 30
0.0
 40
2.399999999999999
100
AcDbArc
 50
90.0
 51
180.0
  0
ARC
  5
A329
330
A2DD
100
AcDbEntity
  8
1
  6
Continuous
100
AcDbCircle
 10
15.752234
 20
227.682662
 30
0.0
 40
0.8
100
AcDbArc
 50
90.0
 51
180.0
  0
LINE
  5
A32A
330
A2DD
100
AcDbEntity
  8
4
  6
CENTER
100
AcDbLine
 10
75.20223399999998
 20
203.082662
 30
0.0
 11
75.20223399999998
 21
236.6826619999999
 31
0.0
  0
LINE
  5
A32B
330
A2DD
100
AcDbEntity
  8
1
  6
Continuous
100
AcDbLine
 10
137.0522339999999
 20
227.682662
 30
0.0
 11
137.0522339999999
 21
208.0826619999998
 31
0.0
  0
LINE
  5
A32C
330
A2DD
100
AcDbEntity
  8
1
  6
Continuous
100
AcDbLine
 10
135.452234
 20
227.682662
 30
0.0
 11
135.452234
 21
208.0826619999998
 31
0.0
  0
LINE
  5
A32D
330
A2DD
100
AcDbEntity
  8
1
  6
Continuous
100
AcDbLine
 10
137.0522339999999
 20
208.0826619999998
 30
0.0
 11
135.452234
 21
208.0826619999998
 31
0.0
  0
ARC
  5
A32E
330
A2DD
100
AcDbEntity
  8
1
  6
Continuous
100
AcDbCircle
 10
134.6522339999999
 20
227.682662
 30
0.0
 40
2.399999999999999
100
AcDbArc
 50
0.0
 51
90.0
  0
ARC
  5
A32F
330
A2DD
100
AcDbEntity
  8
1
  6
Continuous
100
AcDbCircle
 10
134.6522339999999
 20
227.682662
 30
0.0
 40
0.8
100
AcDbArc
 50
0.0
 51
90.0
  0
LINE
  5
A330
330
A2DD
100
AcDbEntity
  8
1
  6
Continuous
100
AcDbLine
 10
203.6264399999998
 20
109.8387729999999
 30
0.0
 11
203.6264399999998
 21
167.838773
 31
0.0
  0
LINE
  5
A331
330
A2DD
100
AcDbEntity
  8
1
  6
Continuous
100
AcDbLine
 10
203.6264399999998
 20
109.8387729999999
 30
0.0
 11
181.62644
 21
109.8387729999999
 31
0.0
  0
LINE
  5
A332
330
A2DD
100
AcDbEntity
  8
1
  6
Continuous
100
AcDbLine
 10
203.6264399999998
 20
167.838773
 30
0.0
 11
181.62644
 21
167.838773
 31
0.0
  0
LINE
  5
A333
330
A2DD
100
AcDbEntity
  8
1
  6
Continuous
100
AcDbLine
 10
181.62644
 20
109.8387729999999
 30
0.0
 11
181.62644
 21
167.838773
 31
0.0
  0
ARC
  5
A334
330
A2DD
100
AcDbEntity
  8
1
  6
Continuous
100
AcDbCircle
 10
202.4733149999999
 20
151.838773
 30
0.0
 40
2.753124999999998
100
AcDbArc
 50
294.7615139999999
 51
65.23848599999999
  0
ARC
  5
A335
330
A2DD
100
AcDbEntity
  8
1
  6
Continuous
100
AcDbCircle
 10
202.4733149999999
 20
125.838773
 30
0.0
 40
2.753124999999998
100
AcDbArc
 50
294.7615139999999
 51
65.23848599999999
  0
LINE
  5
A336
330
A2DD
100
AcDbEntity
  8
3
  6
DASHED
100
AcDbLine
 10
202.0264399999998
 20
109.8387729999999
 30
0.0
 11
202.0264399999998
 21
167.838773
 31
0.0
  0
LINE
  5
A337
330
A2DD
100
AcDbEntity
  8
1
  6
Continuous
100
AcDbLine
 10
14.95223399999999
 20
109.8387729999999
 30
0.0
 11
14.95223399999999
 21
167.838773
 31
0.0
  0
LINE
  5
A338
330
A2DD
100
AcDbEntity
  8
1
  6
Continuous
100
AcDbLine
 10
137.0522339999999
 20
109.8387729999999
 30
0.0
 11
137.0522339999999
 21
167.838773
 31
0.0
  0
LINE
  5
A339
330
A2DD
100
AcDbEntity
  8
1
  6
Continuous
100
AcDbLine
 10
135.452234
 20
109.8387729999999
 30
0.0
 11
135.452234
 21
167.838773
 31
0.0
  0
LINE
  5
A33A
330
A2DD
100
AcDbEntity
  8
1
  6
Continuous
100
AcDbLine
 10
13.352234
 20
109.8387729999999
 30
0.0
 11
13.352234
 21
167.838773
 31
0.0
  0
LINE
  5
A33B
330
A2DD
100
AcDbEntity
  8
4
  6
CENTER
100
AcDbLine
 10
75.20223399999998
 20
104.8387729999999
 30
0.0
 11
75.20223399999998
 21
172.838773
 31
0.0
  0
LINE
  5
A33C
330
A2DD
100
AcDbEntity
  8
1
  6
Continuous
100
AcDbLine
 10
13.352234
 20
109.8387729999999
 30
0.0
 11
137.0522339999999
 21
109.8387729999999
 31
0.0
  0
LINE
  5
A33D
330
A2DD
100
AcDbEntity
  8
4
  6
CENTER
100
AcDbLine
 10
8.352233999999999
 20
138.838773
 30
0.0
 11
142.0522339999999
 21
138.838773
 31
0.0
  0
CIRCLE
  5
A33E
330
A2DD
100
AcDbEntity
  8
1
  6
Continuous
100
AcDbCircle
 10
130.202234
 20
115.838773
 30
0.0
 40
1.75
  0
LINE
  5
A33F
330
A2DD
100
AcDbEntity
  8
4
  6
CENTER
100
AcDbLine
 10
130.202234
 20
112.0887729999999
 30
0.0
 11
130.202234
 21
119.588773
 31
0.0
  0
LINE
  5
A340
330
A2DD
100
AcDbEntity
  8
4
  6
CENTER
100
AcDbLine
 10
126.452234
 20
115.838773
 30
0.0
 11
133.952234
 21
115.838773
 31
0.0
  0
CIRCLE
  5
A341
330
A2DD
100
AcDbEntity
  8
1
  6
Continuous
100
AcDbCircle
 10
20.202234
 20
115.838773
 30
0.0
 40
1.75
  0
LINE
  5
A342
330
A2DD
100
AcDbEntity
  8
4
  6
CENTER
100
AcDbLine
 10
16.452234
 20
115.838773
 30
0.0
 11
23.952234
 21
115.838773
 31
0.0
  0
LINE
  5
A343
330
A2DD
100
AcDbEntity
  8
4
  6
CENTER
100
AcDbLine
 10
20.202234
 20
112.0887729999999
 30
0.0
 11
20.202234
 21
119.588773
 31
0.0
  0
LINE
  5
A344
330
A2DD
100
AcDbEntity
  8
1
  6
Continuous
100
AcDbLine
 10
13.352234
 20
167.838773
 30
0.0
 11
137.0522339999999
 21
167.838773
 31
0.0
  0
LINE
  5
A345
330
A2DD
100
AcDbEntity
  8
4
  6
CENTER
100
AcDbLine
 10
126.452234
 20
161.838773
 30
0.0
 11
133.952234
 21
161.838773
 31
0.0
  0
LINE
  5
A346
330
A2DD
100
AcDbEntity
  8
4
  6
CENTER
100
AcDbLine
 10
130.202234
 20
158.088773
 30
0.0
 11
130.202234
 21
165.588773
 31
0.0
  0
CIRCLE
  5
A347
330
A2DD
100
AcDbEntity
  8
1
  6
Continuous
100
AcDbCircle
 10
130.202234
 20
161.838773
 30
0.0
 40
1.75
  0
CIRCLE
  5
A348
330
A2DD
100
AcDbEntity
  8
1
  6
Continuous
100
AcDbCircle
 10
20.202234
 20
161.838773
 30
0.0
 40
1.75
  0
LINE
  5
A349
330
A2DD
100
AcDbEntity
  8
4
  6
CENTER
100
AcDbLine
 10
16.452234
 20
161.838773
 30
0.0
 11
23.952234
 21
161.838773
 31
0.0
  0
LINE
  5
A34A
330
A2DD
100
AcDbEntity
  8
4
  6
CENTER
100
AcDbLine
 10
20.202234
 20
158.088773
 30
0.0
 11
20.202234
 21
165.588773
 31
0.0
  0
ARC
  5
A34B
330
A2DD
100
AcDbEntity
  8
1
  6
Continuous
100
AcDbCircle
 10
292.9562899999999
 20
138.837328
 30
0.0
 40
1.269449999999998
100
AcDbArc
 50
180.0
 51
234.4619999999999
  0
ARC
  5
A34C
330
A2DD
100
AcDbEntity
  8
1
  6
Continuous
100
AcDbCircle
 10
292.9562899999999
 20
138.837328
 30
0.0
 40
1.269449999999998
100
AcDbArc
 50
125.5376999999999
 51
166.5373999999999
  0
ARC
  5
A34D
330
A2DD
100
AcDbEntity
  8
1
  6
Continuous
100
AcDbCircle
 10
296.8962899999999
 20
140.2273279999998
 30
0.0
 40
0.24635
100
AcDbArc
 50
0.0
 51
79.896
  0
ARC
  5
A34E
330
A2DD
100
AcDbEntity
  8
1
  6
Continuous
100
AcDbCircle
 10
296.8962899999999
 20
137.446328
 30
0.0
 40
0.24635
100
AcDbArc
 50
280.104
 51
0.0
  0
LINE
  5
A34F
330
A2DD
100
AcDbEntity
  8
1
  6
Continuous
100
AcDbLine
 10
297.1432899999999
 20
138.837328
 30
0.0
 11
296.8962899999999
 21
138.837328
 31
0.0
  0
ARC
  5
A350
330
A2DD
100
AcDbEntity
  8
1
  6
Continuous
100
AcDbCircle
 10
295.91129
 20
142.974328
 30
0.0
 40
6.354269999999998
100
AcDbArc
 50
234.4619999999999
 51
305.5379999999999
  0
ARC
  5
A351
330
A2DD
100
AcDbEntity
  8
1
  6
Continuous
100
AcDbCircle
 10
295.91129
 20
134.699328
 30
0.0
 40
6.354269999999998
100
AcDbArc
 50
54.46200000000001
 51
125.5376999999999
  0
ARC
  5
A352
330
A2DD
100
AcDbEntity
  8
1
  6
Continuous
100
AcDbCircle
 10
295.91129
 20
134.699328
 30
0.0
 40
5.861699999999999
100
AcDbArc
 50
102.7288999999999
 51
103.2680999999999
  0
ARC
  5
A353
330
A2DD
100
AcDbEntity
  8
1
  6
Continuous
100
AcDbCircle
 10
295.91129
 20
134.699328
 30
0.0
 40
5.861699999999999
100
AcDbArc
 50
103.2680999999999
 51
105.2575
  0
ARC
  5
A354
330
A2DD
100
AcDbEntity
  8
1
  6
Continuous
100
AcDbCircle
 10
294.4342899999999
 20
140.116328
 30
0.0
 40
0.24635
100
AcDbArc
 50
105.2575
 51
180.0
  0
LINE
  5
A355
330
A2DD
100
AcDbEntity
  8
1
  6
Continuous
100
AcDbLine
 10
294.68029
 20
137.305328
 30
0.0
 11
294.68029
 21
138.246328
 31
0.0
  0
ARC
  5
A356
330
A2DD
100
AcDbEntity
  8
1
  6
Continuous
100
AcDbCircle
 10
294.4342899999999
 20
137.557328
 30
0.0
 40
0.24635
100
AcDbArc
 50
180.0
 51
254.742
  0
ARC
  5
A357
330
A2DD
100
AcDbEntity
  8
1
  6
Continuous
100
AcDbCircle
 10
295.91129
 20
142.974328
 30
0.0
 40
5.861699999999999
100
AcDbArc
 50
254.742
 51
254.794
  0
ARC
  5
A358
330
A2DD
100
AcDbEntity
  8
1
  6
Continuous
100
AcDbCircle
 10
295.91129
 20
142.974328
 30
0.0
 40
5.861699999999999
100
AcDbArc
 50
254.794
 51
257.2709999999998
  0
LINE
  5
A359
330
A2DD
100
AcDbEntity
  8
1
  6
Continuous
100
AcDbLine
 10
294.18729
 20
140.116328
 30
0.0
 11
294.18729
 21
137.557328
 31
0.0
  0
LINE
  5
A35A
330
A2DD
100
AcDbEntity
  8
1
  6
Continuous
100
AcDbLine
 10
294.68029
 20
139.428328
 30
0.0
 11
294.68029
 21
140.3683279999999
 31
0.0
  0
ARC
  5
A35B
330
A2DD
100
AcDbEntity
  8
1
  6
Continuous
100
AcDbCircle
 10
295.91129
 20
134.699328
 30
0.0
 40
5.861699999999999
100
AcDbArc
 50
79.896
 51
82.20699999999999
  0
ARC
  5
A35C
330
A2DD
100
AcDbEntity
  8
1
  6
Continuous
100
AcDbCircle
 10
296.69929
 20
140.4583279999999
 30
0.0
 40
0.04927
100
AcDbArc
 50
82.20699999999999
 51
180.0
  0
ARC
  5
A35D
330
A2DD
100
AcDbEntity
  8
1
  6
Continuous
100
AcDbCircle
 10
296.69929
 20
137.215328
 30
0.0
 40
0.04927
100
AcDbArc
 50
180.0
 51
277.793
  0
ARC
  5
A35E
330
A2DD
100
AcDbEntity
  8
1
  6
Continuous
100
AcDbCircle
 10
295.91129
 20
142.974328
 30
0.0
 40
5.861699999999999
100
AcDbArc
 50
277.793
 51
280.104
  0
LINE
  5
A35F
330
A2DD
100
AcDbEntity
  8
1
  6
Continuous
100
AcDbLine
 10
295.6652899999999
 20
138.837328
 30
0.0
 11
295.1722899999999
 21
138.837328
 31
0.0
  0
LINE
  5
A360
330
A2DD
100
AcDbEntity
  8
1
  6
Continuous
100
AcDbLine
 10
295.1722899999999
 20
140.514328
 30
0.0
 11
295.1722899999999
 21
137.1593279999999
 31
0.0
  0
LINE
  5
A361
330
A2DD
100
AcDbEntity
  8
1
  6
Continuous
100
AcDbLine
 10
295.6652899999999
 20
140.555328
 30
0.0
 11
295.6652899999999
 21
137.1183279999999
 31
0.0
  0
LINE
  5
A362
330
A2DD
100
AcDbEntity
  8
1
  6
Continuous
100
AcDbLine
 10
296.1582899999999
 20
140.555328
 30
0.0
 11
296.1582899999999
 21
137.1183279999999
 31
0.0
  0
LINE
  5
A363
330
A2DD
100
AcDbEntity
  8
1
  6
Continuous
100
AcDbLine
 10
296.65029
 20
140.4583279999999
 30
0.0
 11
296.65029
 21
137.215328
 31
0.0
  0
ARC
  5
A364
330
A2DD
100
AcDbEntity
  8
1
  6
Continuous
100
AcDbCircle
 10
294.63029
 20
137.305328
 30
0.0
 40
0.04927
100
AcDbArc
 50
257.2709999999998
 51
0.0
  0
ARC
  5
A365
330
A2DD
100
AcDbEntity
  8
1
  6
Continuous
100
AcDbCircle
 10
294.63029
 20
140.3683279999999
 30
0.0
 40
0.04927
100
AcDbArc
 50
0.0
 51
102.7288999999999
  0
ARC
  5
A366
330
A2DD
100
AcDbEntity
  8
1
  6
Continuous
100
AcDbCircle
 10
293.4482899999998
 20
137.9283279999999
 30
0.0
 40
0.24635
100
AcDbArc
 50
180.0
 51
243.9859999999999
  0
ARC
  5
A367
330
A2DD
100
AcDbEntity
  8
1
  6
Continuous
100
AcDbCircle
 10
293.6452899999998
 20
137.622328
 30
0.0
 40
0.04927
100
AcDbArc
 50
247.0559999999999
 51
0.0
  0
ARC
  5
A368
330
A2DD
100
AcDbEntity
  8
1
  6
Continuous
100
AcDbCircle
 10
295.91129
 20
142.974328
 30
0.0
 40
5.861699999999999
100
AcDbArc
 50
243.9859999999999
 51
247.0559999999999
  0
ARC
  5
A369
330
A2DD
100
AcDbEntity
  8
1
  6
Continuous
100
AcDbCircle
 10
295.91129
 20
142.974328
 30
0.0
 40
5.861699999999999
100
AcDbArc
 50
243.9859999999999
 51
244.772
  0
LINE
  5
A36A
330
A2DD
100
AcDbEntity
  8
1
  6
Continuous
100
AcDbLine
 10
293.20229
 20
137.9283279999999
 30
0.0
 11
293.20229
 21
139.745328
 31
0.0
  0
LINE
  5
A36B
330
A2DD
100
AcDbEntity
  8
1
  6
Continuous
100
AcDbLine
 10
293.6952899999998
 20
140.0523279999999
 30
0.0
 11
293.6952899999998
 21
137.622328
 31
0.0
  0
ARC
  5
A36C
330
A2DD
100
AcDbEntity
  8
1
  6
Continuous
100
AcDbCircle
 10
293.4482899999998
 20
139.745328
 30
0.0
 40
0.24635
100
AcDbArc
 50
116.0144
 51
180.0
  0
ARC
  5
A36D
330
A2DD
100
AcDbEntity
  8
1
  6
Continuous
100
AcDbCircle
 10
293.6452899999998
 20
140.0523279999999
 30
0.0
 40
0.04927
100
AcDbArc
 50
0.0
 51
112.9439999999999
  0
ARC
  5
A36E
330
A2DD
100
AcDbEntity
  8
1
  6
Continuous
100
AcDbCircle
 10
295.91129
 20
134.699328
 30
0.0
 40
5.861699999999999
100
AcDbArc
 50
112.9439999999999
 51
116.0144
  0
LINE
  5
A36F
330
A2DD
100
AcDbEntity
  8
1
  6
Continuous
100
AcDbLine
 10
292.70929
 20
140.188328
 30
0.0
 11
292.70929
 21
138.0643279999999
 31
0.0
  0
ARC
  5
A370
330
A2DD
100
AcDbEntity
  8
1
  6
Continuous
100
AcDbCircle
 10
298.8672899999999
 20
138.837328
 30
0.0
 40
1.269449999999998
100
AcDbArc
 50
305.5379999999999
 51
315.699
  0
LINE
  5
A371
330
A2DD
100
AcDbEntity
  8
1
  6
Continuous
100
AcDbLine
 10
300.1362899999999
 20
138.837328
 30
0.0
 11
299.11829
 21
138.837328
 31
0.0
  0
ARC
  5
A372
330
A2DD
100
AcDbEntity
  8
1
  6
Continuous
100
AcDbCircle
 10
298.8672899999999
 20
138.837328
 30
0.0
 40
1.269449999999998
100
AcDbArc
 50
332.25
 51
54.46200000000001
  0
LINE
  5
A373
330
A2DD
100
AcDbEntity
  8
1
  6
Continuous
100
AcDbLine
 10
298.8712899999999
 20
137.9153279999999
 30
0.0
 11
299.4282899999999
 21
139.991328
 31
0.0
  0
LINE
  5
A374
330
A2DD
100
AcDbEntity
  8
1
  6
Continuous
100
AcDbLine
 10
297.1432899999999
 20
137.446328
 30
0.0
 11
297.1432899999999
 21
138.837328
 31
0.0
  0
LINE
  5
A375
330
A2DD
100
AcDbEntity
  8
1
  6
Continuous
100
AcDbLine
 10
298.3742899999999
 20
138.837328
 30
0.0
 11
298.3742899999999
 21
137.6553279999999
 31
0.0
  0
ARC
  5
A376
330
A2DD
100
AcDbEntity
  8
1
  6
Continuous
100
AcDbCircle
 10
298.3742899999999
 20
139.083328
 30
0.0
 40
0.24635
100
AcDbArc
 50
180.0
 51
0.0
  0
LINE
  5
A377
330
A2DD
100
AcDbEntity
  8
1
  6
Continuous
100
AcDbLine
 10
297.63529
 20
140.456328
 30
0.0
 11
297.63529
 21
137.372328
 31
0.0
  0
LINE
  5
A378
330
A2DD
100
AcDbEntity
  8
1
  6
Continuous
100
AcDbLine
 10
297.1432899999999
 20
139.428328
 30
0.0
 11
297.1432899999999
 21
140.2273279999998
 31
0.0
  0
LINE
  5
A379
330
A2DD
100
AcDbEntity
  8
1
  6
Continuous
100
AcDbLine
 10
298.12829
 20
140.224328
 30
0.0
 11
298.12829
 21
139.083328
 31
0.0
  0
LINE
  5
A37A
330
A2DD
100
AcDbEntity
  8
1
  6
Continuous
100
AcDbLine
 10
298.62029
 20
139.083328
 30
0.0
 11
298.62029
 21
140.1353279999999
 31
0.0
  0
LINE
  5
A37B
330
A2DD
100
AcDbEntity
  8
1
  6
Continuous
100
AcDbLine
 10
304.439101
 20
136.0887729999998
 30
0.0
 11
304.439101
 21
133.588773
 31
0.0
  0
LINE
  5
A37C
330
A2DD
100
AcDbEntity
  8
1
  6
Continuous
100
AcDbLine
 10
306.1559759999998
 20
136.1075229999999
 30
0.0
 11
306.1559759999998
 21
133.6075229999998
 31
0.0
  0
LINE
  5
A37D
330
A2DD
100
AcDbEntity
  8
1
  6
Continuous
100
AcDbLine
 10
307.7222259999999
 20
136.1075229999999
 30
0.0
 11
307.7222259999999
 21
133.6075229999998
 31
0.0
  0
LINE
  5
A37E
330
A2DD
100
AcDbEntity
  8
1
  6
Continuous
100
AcDbLine
 10
309.4391009999998
 20
136.09096
 30
0.0
 11
310.363879
 21
133.5909599999999
 31
0.0
  0
LINE
  5
A37F
330
A2DD
100
AcDbEntity
  8
1
  6
Continuous
100
AcDbLine
 10
309.4391009999998
 20
136.086585
 30
0.0
 11
308.4700549999999
 21
133.5909599999999
 31
0.0
  0
LINE
  5
A380
330
A2DD
100
AcDbEntity
  8
1
  6
Continuous
100
AcDbLine
 10
306.1559759999998
 20
134.838773
 30
0.0
 11
307.7222259999999
 21
134.838773
 31
0.0
  0
LINE
  5
A381
330
A2DD
100
AcDbEntity
  8
1
  6
Continuous
100
AcDbLine
 10
308.769726
 20
134.345335
 30
0.0
 11
310.0866009999998
 21
134.345335
 31
0.0
  0
LINE
  5
A382
330
A2DD
100
AcDbEntity
  8
1
  6
Continuous
100
AcDbLine
 10
303.4591009999999
 20
136.0887729999998
 30
0.0
 11
305.4278509999999
 21
136.0887729999998
 31
0.0
  0
LINE
  5
A383
330
A2DD
100
AcDbEntity
  8
1
  6
Continuous
100
AcDbLine
 10
311.5475379999999
 20
134.838773
 30
0.0
 11
312.330663
 21
134.838773
 31
0.0
  0
ARC
  5
A384
330
A2DD
100
AcDbEntity
  8
1
  6
Continuous
100
AcDbCircle
 10
326.8803009999999
 20
135.3839
 30
0.0
 40
0.7056
100
AcDbArc
 50
317.181793
 51
180.0
  0
LINE
  5
A385
330
A2DD
100
AcDbEntity
  8
1
  6
Continuous
100
AcDbLine
 10
324.0475379999999
 20
134.838773
 30
0.0
 11
324.830663
 21
134.838773
 31
0.0
  0
LINE
  5
A386
330
A2DD
100
AcDbEntity
  8
1
  6
Continuous
100
AcDbLine
 10
327.3997009999998
 20
134.9036999999998
 30
0.0
 11
326.2139009999998
 21
133.5807
 31
0.0
  0
LINE
  5
A387
330
A2DD
100
AcDbEntity
  8
1
  6
Continuous
100
AcDbLine
 10
326.2139009999998
 20
133.5904999999999
 30
0.0
 11
327.6643009999999
 21
133.5904999999999
 31
0.0
  0
TEXT
  5
A388
330
A2DD
100
AcDbEntity
  8
7
  6
Continuous
100
AcDbText
 10
10.0
 20
18.0
 30
0.0
 40
3.0
  1
TYPE No.THA-195C-2
100
AcDbText
  0
TEXT
  5
A389
330
A2DD
100
AcDbEntity
  8
7
  6
Continuous
100
AcDbText
 10
10.0
 20
26.0
 30
0.0
 40
3.0
  1
CODE No.3999
100
AcDbText
  0
TEXT
  5
A38A
330
A2DD
100
AcDbEntity
  8
1
  6
Continuous
100
AcDbText
 10
10.0
 20
10.0
 30
0.0
 40
1.399999999999999
  1
LAYER
100
AcDbText
  0
TEXT
  5
A38B
330
A2DD
100
AcDbEntity
  8
1
  6
Continuous
100
AcDbText
 10
17.97951099999998
 20
10.04873699999998
 30
0.0
 40
1.399999999999999
  1
1
100
AcDbText
  0
TEXT
  5
A38C
330
A2DD
100
AcDbEntity
  8
6
  6
Continuous
100
AcDbText
 10
27.979511
 20
10.04873699999998
 30
0.0
 40
1.399999999999999
  1
6
100
AcDbText
  0
TEXT
  5
A38D
330
A2DD
100
AcDbEntity
  8
3
  6
DASHED
100
AcDbText
 10
21.979511
 20
10.04873699999998
 30
0.0
 40
1.399999999999999
  1
3
100
AcDbText
  0
TEXT
  5
A38E
330
A2DD
100
AcDbEntity
  8
2
  6
Continuous
100
AcDbText
 10
19.97951099999999
 20
10.04873699999998
 30
0.0
 40
1.399999999999999
  1
2
100
AcDbText
  0
TEXT
  5
A38F
330
A2DD
100
AcDbEntity
  8
4
  6
CENTER
100
AcDbText
 10
23.97951099999999
 20
10.04873699999998
 30
0.0
 40
1.399999999999999
  1
4
100
AcDbText
  0
TEXT
  5
A390
330
A2DD
100
AcDbEntity
  8
5
  6
PHANTOM
100
AcDbText
 10
25.97951099999999
 20
10.04873699999998
 30
0.0
 40
1.399999999999999
  1
5
100
AcDbText
  0
TEXT
  5
A391
330
A2DD
100
AcDbEntity
  8
7
  6
Continuous
100
AcDbText
 10
29.97951099999999
 20
10.04873699999998
 30
0.0
 40
1.399999999999999
  1
7
100
AcDbText
  0
LINE
  5
A392
330
A2DD
100
AcDbEntity
  8
4
  6
CENTER
100
AcDbLine
 10
130.202234
 20
50.20847599999999
 30
0.0
 11
130.202234
 21
41.008476
 31
0.0
  0
LINE
  5
A393
330
A2DD
100
AcDbEntity
  8
4
  6
CENTER
100
AcDbLine
 10
20.202234
 20
50.20847599999999
 30
0.0
 11
20.202234
 21
41.008476
 31
0.0
  0
LINE
  5
A394
330
A2DD
100
AcDbEntity
  8
4
  6
CENTER
100
AcDbLine
 10
130.202234
 20
234.6826619999999
 30
0.0
 11
130.202234
 21
225.482662
 31
0.0
  0
LINE
  5
A395
330
A2DD
100
AcDbEntity
  8
4
  6
CENTER
100
AcDbLine
 10
20.202234
 20
234.6826619999999
 30
0.0
 11
20.202234
 21
225.482662
 31
0.0
  0
LINE
  5
A396
330
A2DD
100
AcDbEntity
  8
4
  6
CENTER
100
AcDbLine
 10
206.62644
 20
161.838773
 30
0.0
 11
199.0264399999998
 21
161.838773
 31
0.0
  0
LINE
  5
A397
330
A2DD
100
AcDbEntity
  8
4
  6
CENTER
100
AcDbLine
 10
206.62644
 20
115.838773
 30
0.0
 11
199.0264399999998
 21
115.838773
 31
0.0
  0
LINE
  5
A398
330
A2DD
100
AcDbEntity
  8
1
  6
Continuous
100
AcDbLine
 10
320.5912019999999
 20
138.331526
 30
0.0
 11
321.954427
 21
138.331526
 31
0.0
  0
LINE
  5
A399
330
A2DD
100
AcDbEntity
  8
1
  6
Continuous
100
AcDbLine
 10
321.284137
 20
140.1385909999999
 30
0.0
 11
322.2306950000001
 21
137.5797149999999
 31
0.0
  0
LINE
  5
A39A
330
A2DD
100
AcDbEntity
  8
1
  6
Continuous
100
AcDbLine
 10
311.0531589999999
 20
138.884062
 30
0.0
 11
312.674536
 21
138.884062
 31
0.0
  0
LINE
  5
A39B
330
A2DD
100
AcDbEntity
  8
1
  6
Continuous
100
AcDbLine
 10
304.1691009999999
 20
140.0887729999998
 30
0.0
 11
304.1691009999999
 21
137.588773
 31
0.0
  0
LINE
  5
A39C
330
A2DD
100
AcDbEntity
  8
1
  6
Continuous
100
AcDbLine
 10
303.154608
 20
140.0887729999998
 30
0.0
 11
305.1926509999999
 21
140.0887729999998
 31
0.0
  0
LINE
  5
A39D
330
A2DD
100
AcDbEntity
  8
1
  6
Continuous
100
AcDbLine
 10
311.0531589999999
 20
140.1974679999999
 30
0.0
 11
311.0531589999999
 21
137.570657
 31
0.0
  0
LINE
  5
A39E
330
A2DD
100
AcDbEntity
  8
1
  6
Continuous
100
AcDbLine
 10
315.6002599999998
 20
138.757251
 30
0.0
 11
316.4788829999999
 21
138.757251
 31
0.0
  0
LINE
  5
A39F
330
A2DD
100
AcDbEntity
  8
1
  6
Continuous
100
AcDbLine
 10
312.674536
 20
140.1974679999999
 30
0.0
 11
312.674536
 21
137.570657
 31
0.0
  0
LINE
  5
A3A0
330
A2DD
100
AcDbEntity
  8
1
  6
Continuous
100
AcDbLine
 10
313.5531589999998
 20
140.1974679999999
 30
0.0
 11
313.5531589999998
 21
137.570657
 31
0.0
  0
LINE
  5
A3A1
330
A2DD
100
AcDbEntity
  8
1
  6
Continuous
100
AcDbLine
 10
321.284137
 20
140.134062
 30
0.0
 11
320.2922889999999
 21
137.5797149999999
 31
0.0
  0
LINE
  5
A3A2
330
A2DD
100
AcDbEntity
  8
1
  6
Continuous
100
AcDbLine
 10
318.9517089999998
 20
138.7481929999998
 30
0.0
 11
318.9517089999998
 21
137.570657
 31
0.0
  0
LINE
  5
A3A3
330
A2DD
100
AcDbEntity
  8
1
  6
Continuous
100
AcDbLine
 10
316.4788829999999
 20
138.757251
 30
0.0
 11
316.4788829999999
 21
137.588773
 31
0.0
  0
LINE
  5
A3A4
330
A2DD
100
AcDbEntity
  8
1
  6
Continuous
100
AcDbLine
 10
317.203521
 20
140.1974679999999
 30
0.0
 11
317.203521
 21
137.570657
 31
0.0
  0
LINE
  5
A3A5
330
A2DD
100
AcDbEntity
  8
1
  6
Continuous
100
AcDbLine
 10
318.9517089999998
 20
138.7481929999998
 30
0.0
 11
319.7999879999999
 21
140.2174409999997
 31
0.0
  0
LINE
  5
A3A6
330
A2DD
100
AcDbEntity
  8
1
  6
Continuous
100
AcDbLine
 10
318.9517089999998
 20
138.752722
 30
0.0
 11
318.109635
 21
140.215765
 31
0.0
  0
LINE
  5
A3A7
330
A2DD
100
AcDbEntity
  8
1
  6
Continuous
100
AcDbLine
 10
317.555447
 20
135.397061
 30
0.0
 11
317.555447
 21
134.191801
 31
0.0
  0
ARC
  5
A3A8
330
A2DD
100
AcDbEntity
  8
1
  6
Continuous
100
AcDbCircle
 10
316.8805009999999
 20
134.211085
 30
0.0
 40
0.6363770000000001
100
AcDbArc
 50
180.0
 51
270.0
  0
LINE
  5
A3A9
330
A2DD
100
AcDbEntity
  8
1
  6
Continuous
100
AcDbLine
 10
314.439101
 20
136.0887729999998
 30
0.0
 11
314.439101
 21
133.588773
 31
0.0
  0
LINE
  5
A3AA
330
A2DD
100
AcDbEntity
  8
1
  6
Continuous
100
AcDbLine
 10
314.439101
 20
136.0887729999998
 30
0.0
 11
314.1632389999998
 21
135.821531
 31
0.0
  0
LINE
  5
A3AB
330
A2DD
100
AcDbEntity
  8
1
  6
Continuous
100
AcDbLine
 10
321.9391009999998
 20
133.633428
 30
0.0
 11
321.7723889999998
 21
133.6517249999999
 31
0.0
  0
LINE
  5
A3AC
330
A2DD
100
AcDbEntity
  8
1
  6
Continuous
100
AcDbLine
 10
321.7723889999998
 20
133.6517249999999
 30
0.0
 11
321.610704
 21
133.706073
 31
0.0
  0
LINE
  5
A3AD
330
A2DD
100
AcDbEntity
  8
1
  6
Continuous
100
AcDbLine
 10
321.610704
 20
133.706073
 30
0.0
 11
321.4590279999999
 21
133.7948409999999
 31
0.0
  0
LINE
  5
A3AE
330
A2DD
100
AcDbEntity
  8
1
  6
Continuous
100
AcDbLine
 10
321.4590279999999
 20
133.7948409999999
 30
0.0
 11
321.321936
 21
133.915267
 31
0.0
  0
LINE
  5
A3AF
330
A2DD
100
AcDbEntity
  8
1
  6
Continuous
100
AcDbLine
 10
321.321936
 20
133.915267
 30
0.0
 11
321.203593
 21
134.0637269999998
 31
0.0
  0
LINE
  5
A3B0
330
A2DD
100
AcDbEntity
  8
1
  6
Continuous
100
AcDbLine
 10
321.203593
 20
134.0637269999998
 30
0.0
 11
321.1075789999998
 21
134.235783
 31
0.0
  0
LINE
  5
A3B1
330
A2DD
100
AcDbEntity
  8
1
  6
Continuous
100
AcDbLine
 10
321.1075789999998
 20
134.235783
 30
0.0
 11
321.0368819999998
 21
134.4260909999998
 31
0.0
  0
LINE
  5
A3B2
330
A2DD
100
AcDbEntity
  8
1
  6
Continuous
100
AcDbLine
 10
321.0368819999998
 20
134.4260909999998
 30
0.0
 11
320.993539
 21
134.6289449999999
 31
0.0
  0
LINE
  5
A3B3
330
A2DD
100
AcDbEntity
  8
1
  6
Continuous
100
AcDbLine
 10
320.993539
 20
134.6289449999999
 30
0.0
 11
320.9789559999999
 21
134.8381379999999
 31
0.0
  0
LINE
  5
A3B4
330
A2DD
100
AcDbEntity
  8
1
  6
Continuous
100
AcDbLine
 10
321.9391009999998
 20
136.044117
 30
0.0
 11
321.7723889999998
 21
136.0258199999998
 31
0.0
  0
LINE
  5
A3B5
330
A2DD
100
AcDbEntity
  8
1
  6
Continuous
100
AcDbLine
 10
321.7723889999998
 20
136.0258199999998
 30
0.0
 11
321.610704
 21
135.971472
 31
0.0
  0
LINE
  5
A3B6
330
A2DD
100
AcDbEntity
  8
1
  6
Continuous
100
AcDbLine
 10
321.610704
 20
135.971472
 30
0.0
 11
321.4590279999999
 21
135.8827039999999
 31
0.0
  0
LINE
  5
A3B7
330
A2DD
100
AcDbEntity
  8
1
  6
Continuous
100
AcDbLine
 10
321.4590279999999
 20
135.8827039999999
 30
0.0
 11
321.321936
 21
135.762278
 31
0.0
  0
LINE
  5
A3B8
330
A2DD
100
AcDbEntity
  8
1
  6
Continuous
100
AcDbLine
 10
321.321936
 20
135.762278
 30
0.0
 11
321.203593
 21
135.6138179999998
 31
0.0
  0
LINE
  5
A3B9
330
A2DD
100
AcDbEntity
  8
1
  6
Continuous
100
AcDbLine
 10
321.203593
 20
135.6138179999998
 30
0.0
 11
321.1075789999998
 21
135.441762
 31
0.0
  0
LINE
  5
A3BA
330
A2DD
100
AcDbEntity
  8
1
  6
Continuous
100
AcDbLine
 10
321.1075789999998
 20
135.441762
 30
0.0
 11
321.0368819999998
 21
135.251454
 31
0.0
  0
LINE
  5
A3BB
330
A2DD
100
AcDbEntity
  8
1
  6
Continuous
100
AcDbLine
 10
321.0368819999998
 20
135.251454
 30
0.0
 11
320.993539
 21
135.0485999999999
 31
0.0
  0
LINE
  5
A3BC
330
A2DD
100
AcDbEntity
  8
1
  6
Continuous
100
AcDbLine
 10
320.993539
 20
135.0485999999999
 30
0.0
 11
320.9789559999999
 21
134.8394069999999
 31
0.0
  0
LINE
  5
A3BD
330
A2DD
100
AcDbEntity
  8
1
  6
Continuous
100
AcDbLine
 10
318.8306789999999
 20
136.0887729999998
 30
0.0
 11
318.8306789999999
 21
134.748303
 31
0.0
  0
LINE
  5
A3BE
330
A2DD
100
AcDbEntity
  8
1
  6
Continuous
100
AcDbLine
 10
318.8208949999999
 20
136.0887729999998
 30
0.0
 11
320.1222259999998
 21
136.0887729999998
 31
0.0
  0
LINE
  5
A3BF
330
A2DD
100
AcDbEntity
  8
1
  6
Continuous
100
AcDbLine
 10
322.7633759999998
 20
135.446291
 30
0.0
 11
322.7506949999999
 21
135.5500949999999
 31
0.0
  0
LINE
  5
A3C0
330
A2DD
100
AcDbEntity
  8
1
  6
Continuous
100
AcDbLine
 10
322.7506949999999
 20
135.5500949999999
 30
0.0
 11
322.7131039999998
 21
135.650774
 31
0.0
  0
LINE
  5
A3C1
330
A2DD
100
AcDbEntity
  8
1
  6
Continuous
100
AcDbLine
 10
322.7131039999998
 20
135.650774
 30
0.0
 11
322.651737
 21
135.745204
 31
0.0
  0
LINE
  5
A3C2
330
A2DD
100
AcDbEntity
  8
1
  6
Continuous
100
AcDbLine
 10
322.651737
 20
135.745204
 30
0.0
 11
322.568403
 21
135.830575
 31
0.0
  0
LINE
  5
A3C3
330
A2DD
100
AcDbEntity
  8
1
  6
Continuous
100
AcDbLine
 10
322.568403
 20
135.830575
 30
0.0
 11
322.465686
 21
135.9042619999999
 31
0.0
  0
LINE
  5
A3C4
330
A2DD
100
AcDbEntity
  8
1
  6
Continuous
100
AcDbLine
 10
322.465686
 20
135.9042619999999
 30
0.0
 11
322.3467089999999
 21
135.963999
 31
0.0
  0
LINE
  5
A3C5
330
A2DD
100
AcDbEntity
  8
1
  6
Continuous
100
AcDbLine
 10
322.3467089999999
 20
135.963999
 30
0.0
 11
322.215052
 21
136.0080659999999
 31
0.0
  0
LINE
  5
A3C6
330
A2DD
100
AcDbEntity
  8
1
  6
Continuous
100
AcDbLine
 10
322.215052
 20
136.0080659999999
 30
0.0
 11
322.074744
 21
136.035013
 31
0.0
  0
LINE
  5
A3C7
330
A2DD
100
AcDbEntity
  8
1
  6
Continuous
100
AcDbLine
 10
322.074744
 20
136.035013
 30
0.0
 11
321.930043
 21
136.044117
 31
0.0
  0
LINE
  5
A3C8
330
A2DD
100
AcDbEntity
  8
1
  6
Continuous
100
AcDbLine
 10
322.7724339999999
 20
134.2312539999998
 30
0.0
 11
322.759753
 21
134.12745
 31
0.0
  0
LINE
  5
A3C9
330
A2DD
100
AcDbEntity
  8
1
  6
Continuous
100
AcDbLine
 10
322.759753
 20
134.12745
 30
0.0
 11
322.722162
 21
134.026771
 31
0.0
  0
LINE
  5
A3CA
330
A2DD
100
AcDbEntity
  8
1
  6
Continuous
100
AcDbLine
 10
322.722162
 20
134.026771
 30
0.0
 11
322.660795
 21
133.9323409999997
 31
0.0
  0
LINE
  5
A3CB
330
A2DD
100
AcDbEntity
  8
1
  6
Continuous
100
AcDbLine
 10
322.660795
 20
133.9323409999997
 30
0.0
 11
322.5774609999998
 21
133.84697
 31
0.0
  0
LINE
  5
A3CC
330
A2DD
100
AcDbEntity
  8
1
  6
Continuous
100
AcDbLine
 10
322.5774609999998
 20
133.84697
 30
0.0
 11
322.4747439999998
 21
133.7732829999999
 31
0.0
  0
LINE
  5
A3CD
330
A2DD
100
AcDbEntity
  8
1
  6
Continuous
100
AcDbLine
 10
322.4747439999998
 20
133.7732829999999
 30
0.0
 11
322.355767
 21
133.713546
 31
0.0
  0
LINE
  5
A3CE
330
A2DD
100
AcDbEntity
  8
1
  6
Continuous
100
AcDbLine
 10
322.355767
 20
133.713546
 30
0.0
 11
322.22411
 21
133.6694789999999
 31
0.0
  0
LINE
  5
A3CF
330
A2DD
100
AcDbEntity
  8
1
  6
Continuous
100
AcDbLine
 10
322.22411
 20
133.6694789999999
 30
0.0
 11
322.0838019999998
 21
133.6425319999999
 31
0.0
  0
LINE
  5
A3D0
330
A2DD
100
AcDbEntity
  8
1
  6
Continuous
100
AcDbLine
 10
322.0838019999998
 20
133.6425319999999
 30
0.0
 11
321.9391009999998
 21
133.633428
 31
0.0
  0
LINE
  5
A3D1
330
A2DD
100
AcDbEntity
  8
1
  6
Continuous
100
AcDbLine
 10
317.555447
 20
134.191801
 30
0.0
 11
317.5451779999999
 21
134.0863159999998
 31
0.0
  0
LINE
  5
A3D2
330
A2DD
100
AcDbEntity
  8
1
  6
Continuous
100
AcDbLine
 10
317.5451779999999
 20
134.0863159999998
 30
0.0
 11
317.514757
 21
133.9840619999999
 31
0.0
  0
LINE
  5
A3D3
330
A2DD
100
AcDbEntity
  8
1
  6
Continuous
100
AcDbLine
 10
317.514757
 20
133.9840619999999
 30
0.0
 11
317.465004
 21
133.8880749999999
 31
0.0
  0
LINE
  5
A3D4
330
A2DD
100
AcDbEntity
  8
1
  6
Continuous
100
AcDbLine
 10
317.465004
 20
133.8880749999999
 30
0.0
 11
317.397558
 21
133.801345
 31
0.0
  0
LINE
  5
A3D5
330
A2DD
100
AcDbEntity
  8
1
  6
Continuous
100
AcDbLine
 10
317.397558
 20
133.801345
 30
0.0
 11
317.3143459999999
 21
133.7264739999999
 31
0.0
  0
LINE
  5
A3D6
330
A2DD
100
AcDbEntity
  8
1
  6
Continuous
100
AcDbLine
 10
317.3143459999999
 20
133.7264739999999
 30
0.0
 11
317.217974
 21
133.6657289999999
 31
0.0
  0
LINE
  5
A3D7
330
A2DD
100
AcDbEntity
  8
1
  6
Continuous
100
AcDbLine
 10
317.217974
 20
133.6657289999999
 30
0.0
 11
317.1113319999999
 21
133.6209899999998
 31
0.0
  0
LINE
  5
A3D8
330
A2DD
100
AcDbEntity
  8
1
  6
Continuous
100
AcDbLine
 10
317.1113319999999
 20
133.6209899999998
 30
0.0
 11
316.9977
 21
133.593558
 31
0.0
  0
LINE
  5
A3D9
330
A2DD
100
AcDbEntity
  8
1
  6
Continuous
100
AcDbLine
 10
316.9977
 20
133.593558
 30
0.0
 11
316.8805009999999
 21
133.5843499999998
 31
0.0
  0
LINE
  5
A3DA
330
A2DD
100
AcDbEntity
  8
1
  6
Continuous
100
AcDbLine
 10
316.9046059999998
 20
134.6739049999999
 30
0.0
 11
316.794686
 21
134.684077
 31
0.0
  0
LINE
  5
A3DB
330
A2DD
100
AcDbEntity
  8
1
  6
Continuous
100
AcDbLine
 10
316.794686
 20
134.684077
 30
0.0
 11
316.6879489999999
 21
134.7143049999999
 31
0.0
  0
LINE
  5
A3DC
330
A2DD
100
AcDbEntity
  8
1
  6
Continuous
100
AcDbLine
 10
316.6879489999999
 20
134.7143049999999
 30
0.0
 11
316.58743
 21
134.7637689999999
 31
0.0
  0
LINE
  5
A3DD
330
A2DD
100
AcDbEntity
  8
1
  6
Continuous
100
AcDbLine
 10
316.58743
 20
134.7637689999999
 30
0.0
 11
316.4960229999999
 21
134.8309739999999
 31
0.0
  0
LINE
  5
A3DE
330
A2DD
100
AcDbEntity
  8
1
  6
Continuous
100
AcDbLine
 10
316.4960229999999
 20
134.8309739999999
 30
0.0
 11
316.416331
 21
134.9140409999999
 31
0.0
  0
LINE
  5
A3DF
330
A2DD
100
AcDbEntity
  8
1
  6
Continuous
100
AcDbLine
 10
316.416331
 20
134.9140409999999
 30
0.0
 11
316.3506689999999
 21
135.010558
 31
0.0
  0
LINE
  5
A3E0
330
A2DD
100
AcDbEntity
  8
1
  6
Continuous
100
AcDbLine
 10
316.3506689999999
 20
135.010558
 30
0.0
 11
316.3009149999999
 21
135.1177779999999
 31
0.0
  0
LINE
  5
A3E1
330
A2DD
100
AcDbEntity
  8
1
  6
Continuous
100
AcDbLine
 10
316.3009149999999
 20
135.1177779999999
 30
0.0
 11
316.2685179999999
 21
135.2325669999999
 31
0.0
  0
LINE
  5
A3E2
330
A2DD
100
AcDbEntity
  8
1
  6
Continuous
100
AcDbLine
 10
316.2685179999999
 20
135.2325669999999
 30
0.0
 11
316.254392
 21
135.351695
 31
0.0
  0
LINE
  5
A3E3
330
A2DD
100
AcDbEntity
  8
1
  6
Continuous
100
AcDbLine
 10
316.254392
 20
135.351695
 30
0.0
 11
316.2589239999999
 21
135.471691
 31
0.0
  0
LINE
  5
A3E4
330
A2DD
100
AcDbEntity
  8
1
  6
Continuous
100
AcDbLine
 10
316.2589239999999
 20
135.471691
 30
0.0
 11
316.2820169999998
 21
135.589131
 31
0.0
  0
LINE
  5
A3E5
330
A2DD
100
AcDbEntity
  8
1
  6
Continuous
100
AcDbLine
 10
316.2820169999998
 20
135.589131
 30
0.0
 11
316.3229959999998
 21
135.7006419999999
 31
0.0
  0
LINE
  5
A3E6
330
A2DD
100
AcDbEntity
  8
1
  6
Continuous
100
AcDbLine
 10
316.3229959999998
 20
135.7006419999999
 30
0.0
 11
316.3806549999998
 21
135.8030409999998
 31
0.0
  0
LINE
  5
A3E7
330
A2DD
100
AcDbEntity
  8
1
  6
Continuous
100
AcDbLine
 10
316.3806549999998
 20
135.8030409999998
 30
0.0
 11
316.4534049999998
 21
135.893339
 31
0.0
  0
LINE
  5
A3E8
330
A2DD
100
AcDbEntity
  8
1
  6
Continuous
100
AcDbLine
 10
316.4534049999998
 20
135.893339
 30
0.0
 11
316.539075
 21
135.968981
 31
0.0
  0
LINE
  5
A3E9
330
A2DD
100
AcDbEntity
  8
1
  6
Continuous
100
AcDbLine
 10
316.539075
 20
135.968981
 30
0.0
 11
316.6353029999999
 21
136.02775
 31
0.0
  0
LINE
  5
A3EA
330
A2DD
100
AcDbEntity
  8
1
  6
Continuous
100
AcDbLine
 10
316.6353029999999
 20
136.02775
 30
0.0
 11
316.7391959999998
 21
136.0680059999999
 31
0.0
  0
LINE
  5
A3EB
330
A2DD
100
AcDbEntity
  8
1
  6
Continuous
100
AcDbLine
 10
316.7391959999998
 20
136.0680059999999
 30
0.0
 11
316.8478629999999
 21
136.0885909999998
 31
0.0
  0
LINE
  5
A3EC
330
A2DD
100
AcDbEntity
  8
1
  6
Continuous
100
AcDbLine
 10
316.8478629999999
 20
136.0885909999998
 30
0.0
 11
316.958216
 21
136.0888809999999
 31
0.0
  0
LINE
  5
A3ED
330
A2DD
100
AcDbEntity
  8
1
  6
Continuous
100
AcDbLine
 10
316.958216
 20
136.0888809999999
 30
0.0
 11
317.066931
 21
136.0688729999999
 31
0.0
  0
LINE
  5
A3EE
330
A2DD
100
AcDbEntity
  8
1
  6
Continuous
100
AcDbLine
 10
317.066931
 20
136.0688729999999
 30
0.0
 11
317.171065
 21
136.0291959999998
 31
0.0
  0
LINE
  5
A3EF
330
A2DD
100
AcDbEntity
  8
1
  6
Continuous
100
AcDbLine
 10
317.171065
 20
136.0291959999998
 30
0.0
 11
317.2674859999998
 21
135.97091
 31
0.0
  0
LINE
  5
A3F0
330
A2DD
100
AcDbEntity
  8
1
  6
Continuous
100
AcDbLine
 10
317.2674859999998
 20
135.97091
 30
0.0
 11
317.353542
 21
135.895701
 31
0.0
  0
LINE
  5
A3F1
330
A2DD
100
AcDbEntity
  8
1
  6
Continuous
100
AcDbLine
 10
317.353542
 20
135.895701
 30
0.0
 11
317.426677
 21
135.8057889999997
 31
0.0
  0
LINE
  5
A3F2
330
A2DD
100
AcDbEntity
  8
1
  6
Continuous
100
AcDbLine
 10
317.426677
 20
135.8057889999997
 30
0.0
 11
317.48477
 21
135.703728
 31
0.0
  0
LINE
  5
A3F3
330
A2DD
100
AcDbEntity
  8
1
  6
Continuous
100
AcDbLine
 10
317.48477
 20
135.703728
 30
0.0
 11
317.526279
 21
135.5924099999998
 31
0.0
  0
LINE
  5
A3F4
330
A2DD
100
AcDbEntity
  8
1
  6
Continuous
100
AcDbLine
 10
317.526279
 20
135.5924099999998
 30
0.0
 11
317.5498539999999
 21
135.4751139999999
 31
0.0
  0
LINE
  5
A3F5
330
A2DD
100
AcDbEntity
  8
1
  6
Continuous
100
AcDbLine
 10
317.5498539999999
 20
135.4751139999999
 30
0.0
 11
317.5549649999999
 21
135.3551179999997
 31
0.0
  0
LINE
  5
A3F6
330
A2DD
100
AcDbEntity
  8
1
  6
Continuous
100
AcDbLine
 10
317.5549649999999
 20
135.3551179999997
 30
0.0
 11
317.5413689999999
 21
135.2359419999999
 31
0.0
  0
LINE
  5
A3F7
330
A2DD
100
AcDbEntity
  8
1
  6
Continuous
100
AcDbLine
 10
317.5413689999999
 20
135.2359419999999
 30
0.0
 11
317.5094539999999
 21
135.12096
 31
0.0
  0
LINE
  5
A3F8
330
A2DD
100
AcDbEntity
  8
1
  6
Continuous
100
AcDbLine
 10
317.5094539999999
 20
135.12096
 30
0.0
 11
317.4601829999998
 21
135.0134989999999
 31
0.0
  0
LINE
  5
A3F9
330
A2DD
100
AcDbEntity
  8
1
  6
Continuous
100
AcDbLine
 10
317.4601829999998
 20
135.0134989999999
 30
0.0
 11
317.3949539999999
 21
134.916596
 31
0.0
  0
LINE
  5
A3FA
330
A2DD
100
AcDbEntity
  8
1
  6
Continuous
100
AcDbLine
 10
317.3949539999999
 20
134.916596
 30
0.0
 11
317.315648
 21
134.833144
 31
0.0
  0
LINE
  5
A3FB
330
A2DD
100
AcDbEntity
  8
1
  6
Continuous
100
AcDbLine
 10
317.315648
 20
134.833144
 30
0.0
 11
317.2245299999999
 21
134.7654569999999
 31
0.0
  0
LINE
  5
A3FC
330
A2DD
100
AcDbEntity
  8
1
  6
Continuous
100
AcDbLine
 10
317.2245299999999
 20
134.7654569999999
 30
0.0
 11
317.1242529999998
 21
134.7154619999998
 31
0.0
  0
LINE
  5
A3FD
330
A2DD
100
AcDbEntity
  8
1
  6
Continuous
100
AcDbLine
 10
317.1242529999998
 20
134.7154619999998
 30
0.0
 11
317.0176109999998
 21
134.6846559999999
 31
0.0
  0
LINE
  5
A3FE
330
A2DD
100
AcDbEntity
  8
1
  6
Continuous
100
AcDbLine
 10
317.0176109999998
 20
134.6846559999999
 30
0.0
 11
316.9046059999998
 21
134.6739049999999
 31
0.0
  0
LINE
  5
A3FF
330
A2DD
100
AcDbEntity
  8
1
  6
Continuous
100
AcDbLine
 10
316.3393909999999
 20
139.4980119999999
 30
0.0
 11
316.326709
 21
139.6018159999998
 31
0.0
  0
LINE
  5
A400
330
A2DD
100
AcDbEntity
  8
1
  6
Continuous
100
AcDbLine
 10
316.326709
 20
139.6018159999998
 30
0.0
 11
316.2891189999998
 21
139.702495
 31
0.0
  0
LINE
  5
A401
330
A2DD
100
AcDbEntity
  8
1
  6
Continuous
100
AcDbLine
 10
316.2891189999998
 20
139.702495
 30
0.0
 11
316.2277509999999
 21
139.7969249999998
 31
0.0
  0
LINE
  5
A402
330
A2DD
100
AcDbEntity
  8
1
  6
Continuous
100
AcDbLine
 10
316.2277509999999
 20
139.7969249999998
 30
0.0
 11
316.1444179999999
 21
139.8822959999999
 31
0.0
  0
LINE
  5
A403
330
A2DD
100
AcDbEntity
  8
1
  6
Continuous
100
AcDbLine
 10
316.1444179999999
 20
139.8822959999999
 30
0.0
 11
316.0416999999998
 21
139.955983
 31
0.0
  0
LINE
  5
A404
330
A2DD
100
AcDbEntity
  8
1
  6
Continuous
100
AcDbLine
 10
316.0416999999998
 20
139.955983
 30
0.0
 11
315.922724
 21
140.0157199999999
 31
0.0
  0
LINE
  5
A405
330
A2DD
100
AcDbEntity
  8
1
  6
Continuous
100
AcDbLine
 10
315.922724
 20
140.0157199999999
 30
0.0
 11
315.791066
 21
140.059787
 31
0.0
  0
LINE
  5
A406
330
A2DD
100
AcDbEntity
  8
1
  6
Continuous
100
AcDbLine
 10
315.791066
 20
140.059787
 30
0.0
 11
315.6507579999999
 21
140.086734
 31
0.0
  0
LINE
  5
A407
330
A2DD
100
AcDbEntity
  8
1
  6
Continuous
100
AcDbLine
 10
315.6507579999999
 20
140.086734
 30
0.0
 11
315.5060569999998
 21
140.0958379999998
 31
0.0
  0
LINE
  5
A408
330
A2DD
100
AcDbEntity
  8
1
  6
Continuous
100
AcDbLine
 10
315.515115
 20
140.0958379999998
 30
0.0
 11
315.3484029999999
 21
140.077541
 31
0.0
  0
LINE
  5
A409
330
A2DD
100
AcDbEntity
  8
1
  6
Continuous
100
AcDbLine
 10
315.3484029999999
 20
140.077541
 30
0.0
 11
315.1867179999999
 21
140.0231929999999
 31
0.0
  0
LINE
  5
A40A
330
A2DD
100
AcDbEntity
  8
1
  6
Continuous
100
AcDbLine
 10
315.1867179999999
 20
140.0231929999999
 30
0.0
 11
315.0350429999999
 21
139.934425
 31
0.0
  0
LINE
  5
A40B
330
A2DD
100
AcDbEntity
  8
1
  6
Continuous
100
AcDbLine
 10
315.0350429999999
 20
139.934425
 30
0.0
 11
314.8979499999999
 21
139.8139989999999
 31
0.0
  0
LINE
  5
A40C
330
A2DD
100
AcDbEntity
  8
1
  6
Continuous
100
AcDbLine
 10
314.8979499999999
 20
139.8139989999999
 30
0.0
 11
314.7796079999999
 21
139.665539
 31
0.0
  0
LINE
  5
A40D
330
A2DD
100
AcDbEntity
  8
1
  6
Continuous
100
AcDbLine
 10
314.7796079999999
 20
139.665539
 30
0.0
 11
314.6835929999999
 21
139.4934829999999
 31
0.0
  0
LINE
  5
A40E
330
A2DD
100
AcDbEntity
  8
1
  6
Continuous
100
AcDbLine
 10
314.6835929999999
 20
139.4934829999999
 30
0.0
 11
314.6128959999999
 21
139.303175
 31
0.0
  0
LINE
  5
A40F
330
A2DD
100
AcDbEntity
  8
1
  6
Continuous
100
AcDbLine
 10
314.6128959999999
 20
139.303175
 30
0.0
 11
314.5695539999999
 21
139.100321
 31
0.0
  0
LINE
  5
A410
330
A2DD
100
AcDbEntity
  8
1
  6
Continuous
100
AcDbLine
 10
314.5695539999999
 20
139.100321
 30
0.0
 11
314.5549700000001
 21
138.891128
 31
0.0
  0
LINE
  5
A411
330
A2DD
100
AcDbEntity
  8
1
  6
Continuous
100
AcDbLine
 10
315.515115
 20
137.6851489999999
 30
0.0
 11
315.3484029999999
 21
137.7034459999999
 31
0.0
  0
LINE
  5
A412
330
A2DD
100
AcDbEntity
  8
1
  6
Continuous
100
AcDbLine
 10
315.3484029999999
 20
137.7034459999999
 30
0.0
 11
315.1867179999999
 21
137.7577939999999
 31
0.0
  0
LINE
  5
A413
330
A2DD
100
AcDbEntity
  8
1
  6
Continuous
100
AcDbLine
 10
315.1867179999999
 20
137.7577939999999
 30
0.0
 11
315.0350429999999
 21
137.846562
 31
0.0
  0
LINE
  5
A414
330
A2DD
100
AcDbEntity
  8
1
  6
Continuous
100
AcDbLine
 10
315.0350429999999
 20
137.846562
 30
0.0
 11
314.8979499999999
 21
137.9669879999999
 31
0.0
  0
LINE
  5
A415
330
A2DD
100
AcDbEntity
  8
1
  6
Continuous
100
AcDbLine
 10
314.8979499999999
 20
137.9669879999999
 30
0.0
 11
314.7796079999999
 21
138.1154479999999
 31
0.0
  0
LINE
  5
A416
330
A2DD
100
AcDbEntity
  8
1
  6
Continuous
100
AcDbLine
 10
314.7796079999999
 20
138.1154479999999
 30
0.0
 11
314.6835929999999
 21
138.287504
 31
0.0
  0
LINE
  5
A417
330
A2DD
100
AcDbEntity
  8
1
  6
Continuous
100
AcDbLine
 10
314.6835929999999
 20
138.287504
 30
0.0
 11
314.6128959999999
 21
138.477812
 31
0.0
  0
LINE
  5
A418
330
A2DD
100
AcDbEntity
  8
1
  6
Continuous
100
AcDbLine
 10
314.6128959999999
 20
138.477812
 30
0.0
 11
314.5695539999999
 21
138.6806659999998
 31
0.0
  0
LINE
  5
A419
330
A2DD
100
AcDbEntity
  8
1
  6
Continuous
100
AcDbLine
 10
314.5695539999999
 20
138.6806659999998
 30
0.0
 11
314.5549700000001
 21
138.8898589999998
 31
0.0
  0
LINE
  5
A41A
330
A2DD
100
AcDbEntity
  8
1
  6
Continuous
100
AcDbLine
 10
316.469825
 20
138.567033
 30
0.0
 11
316.4553329999999
 21
138.4139079999999
 31
0.0
  0
LINE
  5
A41B
330
A2DD
100
AcDbEntity
  8
1
  6
Continuous
100
AcDbLine
 10
316.4553329999999
 20
138.4139079999999
 30
0.0
 11
316.412262
 21
138.2654029999999
 31
0.0
  0
LINE
  5
A41C
330
A2DD
100
AcDbEntity
  8
1
  6
Continuous
100
AcDbLine
 10
316.412262
 20
138.2654029999999
 30
0.0
 11
316.3419269999999
 21
138.1260909999998
 31
0.0
  0
LINE
  5
A41D
330
A2DD
100
AcDbEntity
  8
1
  6
Continuous
100
AcDbLine
 10
316.3419269999999
 20
138.1260909999998
 30
0.0
 11
316.246456
 21
138.000186
 31
0.0
  0
LINE
  5
A41E
330
A2DD
100
AcDbEntity
  8
1
  6
Continuous
100
AcDbLine
 10
316.246456
 20
138.000186
 30
0.0
 11
316.1287929999998
 21
137.89149
 31
0.0
  0
LINE
  5
A41F
330
A2DD
100
AcDbEntity
  8
1
  6
Continuous
100
AcDbLine
 10
316.1287929999998
 20
137.89149
 30
0.0
 11
315.99247
 21
137.803311
 31
0.0
  0
LINE
  5
A420
330
A2DD
100
AcDbEntity
  8
1
  6
Continuous
100
AcDbLine
 10
315.99247
 20
137.803311
 30
0.0
 11
315.841655
 21
137.7383199999999
 31
0.0
  0
LINE
  5
A421
330
A2DD
100
AcDbEntity
  8
1
  6
Continuous
100
AcDbLine
 10
315.841655
 20
137.7383199999999
 30
0.0
 11
315.680921
 21
137.698555
 31
0.0
  0
LINE
  5
A422
330
A2DD
100
AcDbEntity
  8
1
  6
Continuous
100
AcDbLine
 10
315.680921
 20
137.698555
 30
0.0
 11
315.515115
 21
137.6851489999999
 31
0.0
  0
LINE
  5
A423
330
A2DD
100
AcDbEntity
  8
1
  6
Continuous
100
AcDbLine
 10
310.032325
 20
139.528446
 30
0.0
 11
310.0196439999999
 21
139.632251
 31
0.0
  0
LINE
  5
A424
330
A2DD
100
AcDbEntity
  8
1
  6
Continuous
100
AcDbLine
 10
310.0196439999999
 20
139.632251
 30
0.0
 11
309.982054
 21
139.73293
 31
0.0
  0
LINE
  5
A425
330
A2DD
100
AcDbEntity
  8
1
  6
Continuous
100
AcDbLine
 10
309.982054
 20
139.73293
 30
0.0
 11
309.9206859999998
 21
139.827359
 31
0.0
  0
LINE
  5
A426
330
A2DD
100
AcDbEntity
  8
1
  6
Continuous
100
AcDbLine
 10
309.9206859999998
 20
139.827359
 30
0.0
 11
309.8373529999999
 21
139.912731
 31
0.0
  0
LINE
  5
A427
330
A2DD
100
AcDbEntity
  8
1
  6
Continuous
100
AcDbLine
 10
309.8373529999999
 20
139.912731
 30
0.0
 11
309.734635
 21
139.9864169999998
 31
0.0
  0
LINE
  5
A428
330
A2DD
100
AcDbEntity
  8
1
  6
Continuous
100
AcDbLine
 10
309.734635
 20
139.9864169999998
 30
0.0
 11
309.615659
 21
140.0461549999999
 31
0.0
  0
LINE
  5
A429
330
A2DD
100
AcDbEntity
  8
1
  6
Continuous
100
AcDbLine
 10
309.615659
 20
140.0461549999999
 30
0.0
 11
309.4840009999999
 21
140.090222
 31
0.0
  0
LINE
  5
A42A
330
A2DD
100
AcDbEntity
  8
1
  6
Continuous
100
AcDbLine
 10
309.4840009999999
 20
140.090222
 30
0.0
 11
309.3436929999999
 21
140.1171689999999
 31
0.0
  0
LINE
  5
A42B
330
A2DD
100
AcDbEntity
  8
1
  6
Continuous
100
AcDbLine
 10
309.3436929999999
 20
140.1171689999999
 30
0.0
 11
309.1989919999999
 21
140.126273
 31
0.0
  0
LINE
  5
A42C
330
A2DD
100
AcDbEntity
  8
1
  6
Continuous
100
AcDbLine
 10
309.20805
 20
140.126273
 30
0.0
 11
309.041338
 21
140.107975
 31
0.0
  0
LINE
  5
A42D
330
A2DD
100
AcDbEntity
  8
1
  6
Continuous
100
AcDbLine
 10
309.041338
 20
140.107975
 30
0.0
 11
308.8796529999999
 21
140.053628
 31
0.0
  0
LINE
  5
A42E
330
A2DD
100
AcDbEntity
  8
1
  6
Continuous
100
AcDbLine
 10
308.8796529999999
 20
140.053628
 30
0.0
 11
308.727978
 21
139.9648589999999
 31
0.0
  0
LINE
  5
A42F
330
A2DD
100
AcDbEntity
  8
1
  6
Continuous
100
AcDbLine
 10
308.727978
 20
139.9648589999999
 30
0.0
 11
308.590885
 21
139.844434
 31
0.0
  0
LINE
  5
A430
330
A2DD
100
AcDbEntity
  8
1
  6
Continuous
100
AcDbLine
 10
308.590885
 20
139.844434
 30
0.0
 11
308.4725429999999
 21
139.6959739999998
 31
0.0
  0
LINE
  5
A431
330
A2DD
100
AcDbEntity
  8
1
  6
Continuous
100
AcDbLine
 10
308.4725429999999
 20
139.6959739999998
 30
0.0
 11
308.376528
 21
139.5239169999999
 31
0.0
  0
LINE
  5
A432
330
A2DD
100
AcDbEntity
  8
1
  6
Continuous
100
AcDbLine
 10
308.376528
 20
139.5239169999999
 30
0.0
 11
308.305831
 21
139.333609
 31
0.0
  0
LINE
  5
A433
330
A2DD
100
AcDbEntity
  8
1
  6
Continuous
100
AcDbLine
 10
308.305831
 20
139.333609
 30
0.0
 11
308.2624879999999
 21
139.1307559999999
 31
0.0
  0
LINE
  5
A434
330
A2DD
100
AcDbEntity
  8
1
  6
Continuous
100
AcDbLine
 10
308.2624879999999
 20
139.1307559999999
 30
0.0
 11
308.2479049999998
 21
138.9215619999999
 31
0.0
  0
LINE
  5
A435
330
A2DD
100
AcDbEntity
  8
1
  6
Continuous
100
AcDbLine
 10
310.0413829999999
 20
138.31341
 30
0.0
 11
310.028702
 21
138.209606
 31
0.0
  0
LINE
  5
A436
330
A2DD
100
AcDbEntity
  8
1
  6
Continuous
100
AcDbLine
 10
310.028702
 20
138.209606
 30
0.0
 11
309.9911119999998
 21
138.1089269999999
 31
0.0
  0
LINE
  5
A437
330
A2DD
100
AcDbEntity
  8
1
  6
Continuous
100
AcDbLine
 10
309.9911119999998
 20
138.1089269999999
 30
0.0
 11
309.9297439999999
 21
138.014497
 31
0.0
  0
LINE
  5
A438
330
A2DD
100
AcDbEntity
  8
1
  6
Continuous
100
AcDbLine
 10
309.9297439999999
 20
138.014497
 30
0.0
 11
309.846411
 21
137.929126
 31
0.0
  0
LINE
  5
A439
330
A2DD
100
AcDbEntity
  8
1
  6
Continuous
100
AcDbLine
 10
309.846411
 20
137.929126
 30
0.0
 11
309.743693
 21
137.8554389999999
 31
0.0
  0
LINE
  5
A43A
330
A2DD
100
AcDbEntity
  8
1
  6
Continuous
100
AcDbLine
 10
309.743693
 20
137.8554389999999
 30
0.0
 11
309.6247169999998
 21
137.7957019999997
 31
0.0
  0
LINE
  5
A43B
330
A2DD
100
AcDbEntity
  8
1
  6
Continuous
100
AcDbLine
 10
309.6247169999998
 20
137.7957019999997
 30
0.0
 11
309.4930589999999
 21
137.751635
 31
0.0
  0
LINE
  5
A43C
330
A2DD
100
AcDbEntity
  8
1
  6
Continuous
100
AcDbLine
 10
309.4930589999999
 20
137.751635
 30
0.0
 11
309.3527509999999
 21
137.724687
 31
0.0
  0
LINE
  5
A43D
330
A2DD
100
AcDbEntity
  8
1
  6
Continuous
100
AcDbLine
 10
309.3527509999999
 20
137.724687
 30
0.0
 11
309.20805
 21
137.715584
 31
0.0
  0
LINE
  5
A43E
330
A2DD
100
AcDbEntity
  8
1
  6
Continuous
100
AcDbLine
 10
309.20805
 20
137.715584
 30
0.0
 11
309.041338
 21
137.7338809999999
 31
0.0
  0
LINE
  5
A43F
330
A2DD
100
AcDbEntity
  8
1
  6
Continuous
100
AcDbLine
 10
309.041338
 20
137.7338809999999
 30
0.0
 11
308.8796529999999
 21
137.788229
 31
0.0
  0
LINE
  5
A440
330
A2DD
100
AcDbEntity
  8
1
  6
Continuous
100
AcDbLine
 10
308.8796529999999
 20
137.788229
 30
0.0
 11
308.727978
 21
137.876997
 31
0.0
  0
LINE
  5
A441
330
A2DD
100
AcDbEntity
  8
1
  6
Continuous
100
AcDbLine
 10
308.727978
 20
137.876997
 30
0.0
 11
308.590885
 21
137.9974229999999
 31
0.0
  0
LINE
  5
A442
330
A2DD
100
AcDbEntity
  8
1
  6
Continuous
100
AcDbLine
 10
308.590885
 20
137.9974229999999
 30
0.0
 11
308.4725429999999
 21
138.1458829999999
 31
0.0
  0
LINE
  5
A443
330
A2DD
100
AcDbEntity
  8
1
  6
Continuous
100
AcDbLine
 10
308.4725429999999
 20
138.1458829999999
 30
0.0
 11
308.376528
 21
138.317939
 31
0.0
  0
LINE
  5
A444
330
A2DD
100
AcDbEntity
  8
1
  6
Continuous
100
AcDbLine
 10
308.376528
 20
138.317939
 30
0.0
 11
308.305831
 21
138.5082469999999
 31
0.0
  0
LINE
  5
A445
330
A2DD
100
AcDbEntity
  8
1
  6
Continuous
100
AcDbLine
 10
308.305831
 20
138.5082469999999
 30
0.0
 11
308.2624879999999
 21
138.7110999999999
 31
0.0
  0
LINE
  5
A446
330
A2DD
100
AcDbEntity
  8
1
  6
Continuous
100
AcDbLine
 10
308.2624879999999
 20
138.7110999999999
 30
0.0
 11
308.2479049999998
 21
138.9202939999998
 31
0.0
  0
LINE
  5
A447
330
A2DD
100
AcDbEntity
  8
1
  6
Continuous
100
AcDbLine
 10
306.6691009999999
 20
137.68841
 30
0.0
 11
306.4916549999999
 21
137.7058019999997
 31
0.0
  0
LINE
  5
A448
330
A2DD
100
AcDbEntity
  8
1
  6
Continuous
100
AcDbLine
 10
306.4916549999999
 20
137.7058019999997
 30
0.0
 11
306.3193269999998
 21
137.7573869999999
 31
0.0
  0
LINE
  5
A449
330
A2DD
100
AcDbEntity
  8
1
  6
Continuous
100
AcDbLine
 10
306.3193269999998
 20
137.7573869999999
 30
0.0
 11
306.157008
 21
137.841762
 31
0.0
  0
LINE
  5
A44A
330
A2DD
100
AcDbEntity
  8
1
  6
Continuous
100
AcDbLine
 10
306.157008
 20
137.841762
 30
0.0
 11
306.009454
 21
137.956436
 31
0.0
  0
LINE
  5
A44B
330
A2DD
100
AcDbEntity
  8
1
  6
Continuous
100
AcDbLine
 10
306.009454
 20
137.956436
 30
0.0
 11
305.8807859999999
 21
138.098148
 31
0.0
  0
LINE
  5
A44C
330
A2DD
100
AcDbEntity
  8
1
  6
Continuous
100
AcDbLine
 10
305.8807859999999
 20
138.098148
 30
0.0
 11
305.774807
 21
138.262821
 31
0.0
  0
LINE
  5
A44D
330
A2DD
100
AcDbEntity
  8
1
  6
Continuous
100
AcDbLine
 10
305.774807
 20
138.262821
 30
0.0
 11
305.6945079999999
 21
138.4457469999998
 31
0.0
  0
LINE
  5
A44E
330
A2DD
100
AcDbEntity
  8
1
  6
Continuous
100
AcDbLine
 10
305.6945079999999
 20
138.4457469999998
 30
0.0
 11
305.642199
 21
138.6416709999998
 31
0.0
  0
LINE
  5
A44F
330
A2DD
100
AcDbEntity
  8
1
  6
Continuous
100
AcDbLine
 10
305.642199
 20
138.6416709999998
 30
0.0
 11
305.619372
 21
138.844932
 31
0.0
  0
LINE
  5
A450
330
A2DD
100
AcDbEntity
  8
1
  6
Continuous
100
AcDbLine
 10
305.619372
 20
138.844932
 30
0.0
 11
305.6267089999999
 21
139.0496869999997
 31
0.0
  0
LINE
  5
A451
330
A2DD
100
AcDbEntity
  8
1
  6
Continuous
100
AcDbLine
 10
305.6267089999999
 20
139.0496869999997
 30
0.0
 11
305.6639829999999
 21
139.2500949999998
 31
0.0
  0
LINE
  5
A452
330
A2DD
100
AcDbEntity
  8
1
  6
Continuous
100
AcDbLine
 10
305.6639829999999
 20
139.2500949999998
 30
0.0
 11
305.7301509999998
 21
139.440358
 31
0.0
  0
LINE
  5
A453
330
A2DD
100
AcDbEntity
  8
1
  6
Continuous
100
AcDbLine
 10
305.7301509999998
 20
139.440358
 30
0.0
 11
305.8232669999998
 21
139.6150409999999
 31
0.0
  0
LINE
  5
A454
330
A2DD
100
AcDbEntity
  8
1
  6
Continuous
100
AcDbLine
 10
305.8232669999998
 20
139.6150409999999
 30
0.0
 11
305.940659
 21
139.7691169999999
 31
0.0
  0
LINE
  5
A455
330
A2DD
100
AcDbEntity
  8
1
  6
Continuous
100
AcDbLine
 10
305.940659
 20
139.7691169999999
 30
0.0
 11
306.079019
 21
139.8981929999999
 31
0.0
  0
LINE
  5
A456
330
A2DD
100
AcDbEntity
  8
1
  6
Continuous
100
AcDbLine
 10
306.079019
 20
139.8981929999999
 30
0.0
 11
306.2343179999999
 21
139.99851
 31
0.0
  0
LINE
  5
A457
330
A2DD
100
AcDbEntity
  8
1
  6
Continuous
100
AcDbLine
 10
306.2343179999999
 20
139.99851
 30
0.0
 11
306.4020719999998
 21
140.067169
 31
0.0
  0
LINE
  5
A458
330
A2DD
100
AcDbEntity
  8
1
  6
Continuous
100
AcDbLine
 10
306.4020719999998
 20
140.067169
 30
0.0
 11
306.5775249999999
 21
140.102269
 31
0.0
  0
LINE
  5
A459
330
A2DD
100
AcDbEntity
  8
1
  6
Continuous
100
AcDbLine
 10
306.5775249999999
 20
140.102269
 30
0.0
 11
306.7556039999999
 21
140.1027669999998
 31
0.0
  0
LINE
  5
A45A
330
A2DD
100
AcDbEntity
  8
1
  6
Continuous
100
AcDbLine
 10
306.7556039999999
 20
140.1027669999998
 30
0.0
 11
306.931193
 21
140.0686639999999
 31
0.0
  0
LINE
  5
A45B
330
A2DD
100
AcDbEntity
  8
1
  6
Continuous
100
AcDbLine
 10
306.931193
 20
140.0686639999999
 30
0.0
 11
307.099264
 21
140.00091
 31
0.0
  0
LINE
  5
A45C
330
A2DD
100
AcDbEntity
  8
1
  6
Continuous
100
AcDbLine
 10
307.099264
 20
140.00091
 30
0.0
 11
307.25497
 21
139.901454
 31
0.0
  0
LINE
  5
A45D
330
A2DD
100
AcDbEntity
  8
1
  6
Continuous
100
AcDbLine
 10
307.25497
 20
139.901454
 30
0.0
 11
307.393829
 21
139.7731929999999
 31
0.0
  0
LINE
  5
A45E
330
A2DD
100
AcDbEntity
  8
1
  6
Continuous
100
AcDbLine
 10
307.393829
 20
139.7731929999999
 30
0.0
 11
307.5119
 21
139.619751
 31
0.0
  0
LINE
  5
A45F
330
A2DD
100
AcDbEntity
  8
1
  6
Continuous
100
AcDbLine
 10
307.5119
 20
139.619751
 30
0.0
 11
307.6057399999999
 21
139.445611
 31
0.0
  0
LINE
  5
A460
330
A2DD
100
AcDbEntity
  8
1
  6
Continuous
100
AcDbLine
 10
307.6057399999999
 20
139.445611
 30
0.0
 11
307.672724
 21
139.2556659999999
 31
0.0
  0
LINE
  5
A461
330
A2DD
100
AcDbEntity
  8
1
  6
Continuous
100
AcDbLine
 10
307.672724
 20
139.2556659999999
 30
0.0
 11
307.7108579999999
 21
139.055484
 31
0.0
  0
LINE
  5
A462
330
A2DD
100
AcDbEntity
  8
1
  6
Continuous
100
AcDbLine
 10
307.7108579999999
 20
139.055484
 30
0.0
 11
307.7190549999999
 21
138.850774
 31
0.0
  0
LINE
  5
A463
330
A2DD
100
AcDbEntity
  8
1
  6
Continuous
100
AcDbLine
 10
307.7190549999999
 20
138.850774
 30
0.0
 11
307.69709
 21
138.6473779999998
 31
0.0
  0
LINE
  5
A464
330
A2DD
100
AcDbEntity
  8
1
  6
Continuous
100
AcDbLine
 10
307.69709
 20
138.6473779999998
 30
0.0
 11
307.645595
 21
138.4511819999999
 31
0.0
  0
LINE
  5
A465
330
A2DD
100
AcDbEntity
  8
1
  6
Continuous
100
AcDbLine
 10
307.645595
 20
138.4511819999999
 30
0.0
 11
307.566066
 21
138.267849
 31
0.0
  0
LINE
  5
A466
330
A2DD
100
AcDbEntity
  8
1
  6
Continuous
100
AcDbLine
 10
307.566066
 20
138.267849
 30
0.0
 11
307.4607669999999
 21
138.102541
 31
0.0
  0
LINE
  5
A467
330
A2DD
100
AcDbEntity
  8
1
  6
Continuous
100
AcDbLine
 10
307.4607669999999
 20
138.102541
 30
0.0
 11
307.332733
 21
137.960104
 31
0.0
  0
LINE
  5
A468
330
A2DD
100
AcDbEntity
  8
1
  6
Continuous
100
AcDbLine
 10
307.332733
 20
137.960104
 30
0.0
 11
307.185632
 21
137.844615
 31
0.0
  0
LINE
  5
A469
330
A2DD
100
AcDbEntity
  8
1
  6
Continuous
100
AcDbLine
 10
307.185632
 20
137.844615
 30
0.0
 11
307.023675
 21
137.7593339999999
 31
0.0
  0
LINE
  5
A46A
330
A2DD
100
AcDbEntity
  8
1
  6
Continuous
100
AcDbLine
 10
307.023675
 20
137.7593339999999
 30
0.0
 11
306.851574
 21
137.7067979999999
 31
0.0
  0
LINE
  5
A46B
330
A2DD
100
AcDbEntity
  8
1
  6
Continuous
100
AcDbLine
 10
306.851574
 20
137.7067979999999
 30
0.0
 11
306.6691009999999
 21
137.68841
 31
0.0
  0
LINE
  5
A46C
330
A2DD
100
AcDbEntity
  8
1
  6
Continuous
100
AcDbLine
 10
318.8404639999999
 20
134.748303
 30
0.0
 11
318.8501009999999
 21
134.819632
 31
0.0
  0
LINE
  5
A46D
330
A2DD
100
AcDbEntity
  8
1
  6
Continuous
100
AcDbLine
 10
318.8501009999999
 20
134.819632
 30
0.0
 11
318.878819
 21
134.8888569999998
 31
0.0
  0
LINE
  5
A46E
330
A2DD
100
AcDbEntity
  8
1
  6
Continuous
100
AcDbLine
 10
318.878819
 20
134.8888569999998
 30
0.0
 11
318.9256859999999
 21
134.953776
 31
0.0
  0
LINE
  5
A46F
330
A2DD
100
AcDbEntity
  8
1
  6
Continuous
100
AcDbLine
 10
318.9256859999999
 20
134.953776
 30
0.0
 11
318.9892359999999
 21
135.012434
 31
0.0
  0
LINE
  5
A470
330
A2DD
100
AcDbEntity
  8
1
  6
Continuous
100
AcDbLine
 10
318.9892359999999
 20
135.012434
 30
0.0
 11
319.0676589999998
 21
135.063118
 31
0.0
  0
LINE
  5
A471
330
A2DD
100
AcDbEntity
  8
1
  6
Continuous
100
AcDbLine
 10
319.0676589999998
 20
135.063118
 30
0.0
 11
319.158458
 21
135.104212
 31
0.0
  0
LINE
  5
A472
330
A2DD
100
AcDbEntity
  8
1
  6
Continuous
100
AcDbLine
 10
319.158458
 20
135.104212
 30
0.0
 11
319.258896
 21
135.1344459999999
 31
0.0
  0
LINE
  5
A473
330
A2DD
100
AcDbEntity
  8
1
  6
Continuous
100
AcDbLine
 10
319.258896
 20
135.1344459999999
 30
0.0
 11
319.3659859999999
 21
135.1529879999999
 31
0.0
  0
LINE
  5
A474
330
A2DD
100
AcDbEntity
  8
1
  6
Continuous
100
AcDbLine
 10
319.3659859999999
 20
135.1529879999999
 30
0.0
 11
319.476453
 21
135.1592499999999
 31
0.0
  0
LINE
  5
A475
330
A2DD
100
AcDbEntity
  8
1
  6
Continuous
100
AcDbLine
 10
319.496022
 20
133.583954
 30
0.0
 11
319.38218
 21
133.593591
 31
0.0
  0
LINE
  5
A476
330
A2DD
100
AcDbEntity
  8
1
  6
Continuous
100
AcDbLine
 10
319.38218
 20
133.593591
 30
0.0
 11
319.271811
 21
133.622309
 31
0.0
  0
LINE
  5
A477
330
A2DD
100
AcDbEntity
  8
1
  6
Continuous
100
AcDbLine
 10
319.271811
 20
133.622309
 30
0.0
 11
319.168243
 21
133.6691759999999
 31
0.0
  0
LINE
  5
A478
330
A2DD
100
AcDbEntity
  8
1
  6
Continuous
100
AcDbLine
 10
319.168243
 20
133.6691759999999
 30
0.0
 11
319.074654
 21
133.732726
 31
0.0
  0
LINE
  5
A479
330
A2DD
100
AcDbEntity
  8
1
  6
Continuous
100
AcDbLine
 10
319.074654
 20
133.732726
 30
0.0
 11
318.9938349999998
 21
133.8111489999998
 31
0.0
  0
LINE
  5
A47A
330
A2DD
100
AcDbEntity
  8
1
  6
Continuous
100
AcDbLine
 10
318.9938349999998
 20
133.8111489999998
 30
0.0
 11
318.928279
 21
133.901948
 31
0.0
  0
LINE
  5
A47B
330
A2DD
100
AcDbEntity
  8
1
  6
Continuous
100
AcDbLine
 10
318.928279
 20
133.901948
 30
0.0
 11
318.879993
 21
134.0024349999999
 31
0.0
  0
LINE
  5
A47C
330
A2DD
100
AcDbEntity
  8
1
  6
Continuous
100
AcDbLine
 10
318.879993
 20
134.0024349999999
 30
0.0
 11
318.8504439999999
 21
134.109476
 31
0.0
  0
LINE
  5
A47D
330
A2DD
100
AcDbEntity
  8
1
  6
Continuous
100
AcDbLine
 10
318.8504439999999
 20
134.109476
 30
0.0
 11
318.8404639999999
 21
134.2199429999998
 31
0.0
  0
LINE
  5
A47E
330
A2DD
100
AcDbEntity
  8
1
  6
Continuous
100
AcDbLine
 10
319.4755719999998
 20
135.1592499999999
 30
0.0
 11
319.594649
 21
135.1472149999999
 31
0.0
  0
LINE
  5
A47F
330
A2DD
100
AcDbEntity
  8
1
  6
Continuous
100
AcDbLine
 10
319.594649
 20
135.1472149999999
 30
0.0
 11
319.710105
 21
135.111453
 31
0.0
  0
LINE
  5
A480
330
A2DD
100
AcDbEntity
  8
1
  6
Continuous
100
AcDbLine
 10
319.710105
 20
135.111453
 30
0.0
 11
319.818468
 21
135.0530889999998
 31
0.0
  0
LINE
  5
A481
330
A2DD
100
AcDbEntity
  8
1
  6
Continuous
100
AcDbLine
 10
319.818468
 20
135.0530889999998
 30
0.0
 11
319.9164109999999
 21
134.973835
 31
0.0
  0
LINE
  5
A482
330
A2DD
100
AcDbEntity
  8
1
  6
Continuous
100
AcDbLine
 10
319.9164109999999
 20
134.973835
 30
0.0
 11
320.000899
 21
134.876137
 31
0.0
  0
LINE
  5
A483
330
A2DD
100
AcDbEntity
  8
1
  6
Continuous
100
AcDbLine
 10
320.000899
 20
134.876137
 30
0.0
 11
320.0694879999999
 21
134.7629799999999
 31
0.0
  0
LINE
  5
A484
330
A2DD
100
AcDbEntity
  8
1
  6
Continuous
100
AcDbLine
 10
320.0694879999999
 20
134.7629799999999
 30
0.0
 11
320.1200249999998
 21
134.637788
 31
0.0
  0
LINE
  5
A485
330
A2DD
100
AcDbEntity
  8
1
  6
Continuous
100
AcDbLine
 10
320.1200249999998
 20
134.637788
 30
0.0
 11
320.1509439999999
 21
134.5043279999999
 31
0.0
  0
LINE
  5
A486
330
A2DD
100
AcDbEntity
  8
1
  6
Continuous
100
AcDbLine
 10
320.1509439999999
 20
134.5043279999999
 30
0.0
 11
320.161364
 21
134.36671
 31
0.0
  0
LINE
  5
A487
330
A2DD
100
AcDbEntity
  8
1
  6
Continuous
100
AcDbLine
 10
320.161364
 20
134.36671
 30
0.0
 11
320.1512369999999
 21
134.230804
 31
0.0
  0
LINE
  5
A488
330
A2DD
100
AcDbEntity
  8
1
  6
Continuous
100
AcDbLine
 10
320.1512369999999
 20
134.230804
 30
0.0
 11
320.1212479999999
 21
134.0990069999998
 31
0.0
  0
LINE
  5
A489
330
A2DD
100
AcDbEntity
  8
1
  6
Continuous
100
AcDbLine
 10
320.1212479999999
 20
134.0990069999998
 30
0.0
 11
320.0722279999999
 21
133.975332
 31
0.0
  0
LINE
  5
A48A
330
A2DD
100
AcDbEntity
  8
1
  6
Continuous
100
AcDbLine
 10
320.0722279999999
 20
133.975332
 30
0.0
 11
320.005694
 21
133.8635929999999
 31
0.0
  0
LINE
  5
A48B
330
A2DD
100
AcDbEntity
  8
1
  6
Continuous
100
AcDbLine
 10
320.005694
 20
133.8635929999999
 30
0.0
 11
319.9237
 21
133.7670699999998
 31
0.0
  0
LINE
  5
A48C
330
A2DD
100
AcDbEntity
  8
1
  6
Continuous
100
AcDbLine
 10
319.9237
 20
133.7670699999998
 30
0.0
 11
319.828693
 21
133.6888429999999
 31
0.0
  0
LINE
  5
A48D
330
A2DD
100
AcDbEntity
  8
1
  6
Continuous
100
AcDbLine
 10
319.828693
 20
133.6888429999999
 30
0.0
 11
319.723608
 21
133.6311639999999
 31
0.0
  0
LINE
  5
A48E
330
A2DD
100
AcDbEntity
  8
1
  6
Continuous
100
AcDbLine
 10
319.723608
 20
133.6311639999999
 30
0.0
 11
319.6115759999999
 21
133.595842
 31
0.0
  0
LINE
  5
A48F
330
A2DD
100
AcDbEntity
  8
1
  6
Continuous
100
AcDbLine
 10
319.6115759999999
 20
133.595842
 30
0.0
 11
319.496022
 21
133.583954
 31
0.0
  0
ARC
  5
A490
330
A2DD
100
AcDbEntity
  8
1
  6
Continuous
100
AcDbCircle
 10
19.302234
 20
230.082662
 30
0.0
 40
1.6
100
AcDbArc
 50
90.0
 51
180.0
  0
ARC
  5
A491
330
A2DD
100
AcDbEntity
  8
1
  6
Continuous
100
AcDbCircle
 10
131.102234
 20
230.082662
 30
0.0
 40
1.6
100
AcDbArc
 50
0.0
 51
90.0
  0
ARC
  5
A492
330
A2DD
100
AcDbEntity
  8
1
  6
Continuous
100
AcDbCircle
 10
19.302234
 20
45.608476
 30
0.0
 40
1.6
100
AcDbArc
 50
180.0
 51
270.0
  0
ARC
  5
A493
330
A2DD
100
AcDbEntity
  8
1
  6
Continuous
100
AcDbCircle
 10
131.102234
 20
45.608476
 30
0.0
 40
1.6
100
AcDbArc
 50
270.0
 51
0.0
  0
LINE
  5
A494
330
A2DD
100
AcDbEntity
  8
4
  6
CENTER
100
AcDbLine
 10
176.62644
 20
138.838773
 30
0.0
 11
208.62644
 21
138.838773
 31
0.0
  0
ENDSEC
  0
SECTION
  2
OBJECTS
  0
DICTIONARY
  5
A2CB
330
0
100
AcDbDictionary
281
     1
  3
ACAD_CIP_PREVIOUS_PRODUCT_INFO
350
A4FA
  3
ACAD_COLOR
350
A4DC
  3
ACAD_DETAILVIEWSTYLE
350
A4F5
  3
ACAD_GROUP
350
A2CC
  3
ACAD_LAYOUT
350
A2D8
  3
ACAD_MATERIAL
350
A4AA
  3
ACAD_MLEADERSTYLE
350
A4F1
  3
ACAD_MLINESTYLE
350
A2D5
  3
ACAD_PLOTSETTINGS
350
A2D7
  3
ACAD_PLOTSTYLENAME
350
A4A8
  3
ACAD_SCALELIST
350
A4DF
  3
ACAD_SECTIONVIEWSTYLE
350
A4F3
  3
ACAD_TABLESTYLE
350
A4DD
  3
ACAD_VISUALSTYLE
350
A4C3
  3
ACDB_RECOMPOSE_DATA
350
A518
  3
AcDbVariableDictionary
350
A50B
  3
DWGPROPS
350
A519
  0
DICTIONARY
  5
A4FB
330
A2CF
100
AcDbDictionary
280
     1
281
     1
  3
ADSK_XREC_LAYER_RECONCILED
360
A4FC
  0
DICTIONARY
  5
A4FD
330
A2E5
100
AcDbDictionary
280
     1
281
     1
  3
ADSK_XREC_LAYER_RECONCILED
360
A4FE
  0
DICTIONARY
  5
A4FF
330
A2E6
100
AcDbDictionary
280
     1
281
     1
  3
ADSK_XREC_LAYER_RECONCILED
360
A500
  0
DICTIONARY
  5
A501
330
A2E7
100
AcDbDictionary
280
     1
281
     1
  3
ADSK_XREC_LAYER_RECONCILED
360
A502
  0
DICTIONARY
  5
A503
330
A2E8
100
AcDbDictionary
280
     1
281
     1
  3
ADSK_XREC_LAYER_RECONCILED
360
A504
  0
DICTIONARY
  5
A505
330
A2E9
100
AcDbDictionary
280
     1
281
     1
  3
ADSK_XREC_LAYER_RECONCILED
360
A506
  0
DICTIONARY
  5
A507
330
A2EA
100
AcDbDictionary
280
     1
281
     1
  3
ADSK_XREC_LAYER_RECONCILED
360
A508
  0
DICTIONARY
  5
A509
330
A2EB
100
AcDbDictionary
280
     1
281
     1
  3
ADSK_XREC_LAYER_RECONCILED
360
A50A
  0
DICTIONARY
  5
A4A3
330
A2DD
100
AcDbDictionary
281
     1
  3
ACAD_LAYOUTSELFREF
350
A4A4
  0
DICTIONARY
  5
A4A1
330
A2D9
100
AcDbDictionary
281
     1
  3
ACAD_LAYOUTSELFREF
350
A4A2
  0
XRECORD
  5
A4FA
102
{ACAD_REACTORS
330
A2CB
102
}
330
A2CB
100
AcDbXrecord
280
     1
300
ACDLT
300
2014
300
ACDLT_F_S
  0
DICTIONARY
  5
A4DC
102
{ACAD_REACTORS
330
A2CB
102
}
330
A2CB
100
AcDbDictionary
281
     1
  0
DICTIONARY
  5
A4F5
102
{ACAD_REACTORS
330
A2CB
102
}
330
A2CB
100
AcDbDictionary
281
     1
  3
Imperial24
350
A4F6
  0
DICTIONARY
  5
A2CC
102
{ACAD_REACTORS
330
A2CB
102
}
330
A2CB
100
AcDbDictionary
281
     1
  0
DICTIONARY
  5
A2D8
102
{ACAD_REACTORS
330
A2CB
102
}
330
A2CB
100
AcDbDictionary
281
     1
  3
Model
350
A4F7
  3
レイアウト1
350
A4F8
  0
DICTIONARY
  5
A4AA
102
{ACAD_REACTORS
330
A2CB
102
}
330
A2CB
100
AcDbDictionary
281
     1
  3
ByBlock
350
A4B3
  3
ByLayer
350
A4AB
  3
Global
350
A4BB
  0
DICTIONARY
  5
A4F1
102
{ACAD_REACTORS
330
A2CB
102
}
330
A2CB
100
AcDbDictionary
281
     1
  3
Standard
350
A4F2
  0
DICTIONARY
  5
A2D5
102
{ACAD_REACTORS
330
A2CB
102
}
330
A2CB
100
AcDbDictionary
281
     1
  3
STANDARD
350
A2D6
  0
DICTIONARY
  5
A2D7
102
{ACAD_REACTORS
330
A2CB
102
}
330
A2CB
100
AcDbDictionary
281
     1
  0
ACDBDICTIONARYWDFLT
  5
A4A8
102
{ACAD_REACTORS
330
A2CB
102
}
330
A2CB
100
AcDbDictionary
281
     1
  3
Normal
350
A4A9
100
AcDbDictionaryWithDefault
340
A4A9
  0
DICTIONARY
  5
A4DF
102
{ACAD_REACTORS
330
A2CB
102
}
330
A2CB
100
AcDbDictionary
281
     1
  3
A0
350
A4E0
  3
A1
350
A4E1
  3
A2
350
A4E2
  3
A3
350
A4E3
  3
A4
350
A4E4
  3
A5
350
A4E5
  3
A6
350
A4E6
  3
A7
350
A4E7
  3
A8
350
A4E8
  3
A9
350
A4E9
  3
B0
350
A4EA
  3
B1
350
A4EB
  3
B2
350
A4EC
  3
B3
350
A4ED
  3
B4
350
A4EE
  3
B5
350
A4EF
  3
B6
350
A4F0
  0
DICTIONARY
  5
A4F3
102
{ACAD_REACTORS
330
A2CB
102
}
330
A2CB
100
AcDbDictionary
281
     1
  3
Imperial24
350
A4F4
  0
DICTIONARY
  5
A4DD
102
{ACAD_REACTORS
330
A2CB
102
}
330
A2CB
100
AcDbDictionary
281
     1
  3
Standard
350
A4DE
  0
DICTIONARY
  5
A4C3
102
{ACAD_REACTORS
330
A2CB
102
}
330
A2CB
100
AcDbDictionary
281
     1
  3
2dWireframe
350
A4C9
  3
Basic
350
A4C8
  3
Brighten
350
A4CF
  3
ColorChange
350
A4D3
  3
Conceptual
350
A4CC
  3
Dim
350
A4CE
  3
EdgeColorOff
350
A4DB
  3
Facepattern
350
A4D2
  3
Flat
350
A4C4
  3
FlatWithEdges
350
A4C5
  3
Gouraud
350
A4C6
  3
GouraudWithEdges
350
A4C7
  3
Hidden
350
A4CB
  3
JitterOff
350
A4D9
  3
Linepattern
350
A4D1
  3
OverhangOff
350
A4DA
  3
Realistic
350
A4CD
  3
Shaded
350
A4D8
  3
Shaded with edges
350
A4D7
  3
Shades of Gray
350
A4D4
  3
Sketchy
350
A4D5
  3
Thicken
350
A4D0
  3
Wireframe
350
A4CA
  3
X-Ray
350
A4D6
  0
XRECORD
  5
A518
102
{ACAD_REACTORS
330
A2CB
102
}
330
A2CB
100
AcDbXrecord
280
     1
 90
        1
330
A4DE
  0
DICTIONARY
  5
A50B
102
{ACAD_REACTORS
330
A2CB
102
}
330
A2CB
100
AcDbDictionary
281
     1
  3
CANNOSCALE
350
A510
  3
CMLEADERSTYLE
350
A50D
  3
CTABLESTYLE
350
A50C
  3
CVIEWDETAILSTYLE
350
A50E
  3
CVIEWSECTIONSTYLE
350
A50F
  3
DIMASSOC
350
A513
  3
INDEXCTL
350
A512
  3
SORTENTS
350
A511
  3
XCLIPFRAME
350
A514
  0
XRECORD
  5
A519
102
{ACAD_REACTORS
330
A2CB
102
}
330
A2CB
100
AcDbXrecord
280
     1
  1
DWGPROPS COOKIE
  2

  3

  4

  6

  7

  8
Yoshitsune
  9

300
=
301
=
302
=
303
=
304
=
305
=
306
=
307
=
308
=
309
=
 40
0.0000139467592593
 41
2450737.685937963
 42
2457192.638418738
  1

 90
        0
  0
XRECORD
  5
A4FC
102
{ACAD_REACTORS
330
A4FB
102
}
330
A4FB
100
AcDbXrecord
280
     1
290
     1
  0
XRECORD
  5
A4FE
102
{ACAD_REACTORS
330
A4FD
102
}
330
A4FD
100
AcDbXrecord
280
     1
290
     1
  0
XRECORD
  5
A500
102
{ACAD_REACTORS
330
A4FF
102
}
330
A4FF
100
AcDbXrecord
280
     1
290
     1
  0
XRECORD
  5
A502
102
{ACAD_REACTORS
330
A501
102
}
330
A501
100
AcDbXrecord
280
     1
290
     1
  0
XRECORD
  5
A504
102
{ACAD_REACTORS
330
A503
102
}
330
A503
100
AcDbXrecord
280
     1
290
     1
  0
XRECORD
  5
A506
102
{ACAD_REACTORS
330
A505
102
}
330
A505
100
AcDbXrecord
280
     1
290
     1
  0
XRECORD
  5
A508
102
{ACAD_REACTORS
330
A507
102
}
330
A507
100
AcDbXrecord
280
     1
290
     1
  0
XRECORD
  5
A50A
102
{ACAD_REACTORS
330
A509
102
}
330
A509
100
AcDbXrecord
280
     1
290
     1
  0
XRECORD
  5
A4A4
102
{ACAD_REACTORS
330
A4A3
102
}
330
A4A3
100
AcDbXrecord
280
     1
340
A2DD
  0
XRECORD
  5
A4A2
102
{ACAD_REACTORS
330
A4A1
102
}
330
A4A1
100
AcDbXrecord
280
     1
340
A2D9
  0
ACDBDETAILVIEWSTYLE
  5
A4F6
102
{ACAD_XDICTIONARY
360
A551
102
}
102
{ACAD_REACTORS
330
A4F5
102
}
330
A4F5
100
AcDbModelDocViewStyle
 70
     0
  3
Imperial24
290
     0
100
AcDbDetailViewStyle
 70
     0
 71
     0
 90
        3
 71
     1
340
A2D0
 40
0.24
340
0
 40
0.24
300

 40
0.36
280
     3
 71
     2
340
A2D4
 90
       25
 71
     3
340
A2D0
 40
0.24
 90
        1
 40
0.75
 90
        1
300
%<\AcVar ViewType \f "%tc1">% %<\AcVar ViewDetailId>%\PSCALE %<\AcVar ViewScale \f "%sn">%
 71
     4
340
A2D4
 90
       25
340
A2D4
 90
       25
280
     0
  0
LAYOUT
  5
A4F7
102
{ACAD_XDICTIONARY
360
A553
102
}
102
{ACAD_REACTORS
330
A2D8
102
}
330
A2D8
100
AcDbPlotSettings
  1

  2
Canon LBP9100C
  4

  6

 40
0.0
 41
0.0
 42
0.0
 43
0.0
 44
0.0
 45
0.0
 46
0.0
 47
0.0
 48
0.0
 49
0.0
140
0.0
141
0.0
142
1.0
143
1.0
 70
  1712
 72
     0
 73
     0
 74
     0
  7

 75
     0
147
1.0
148
0.0
149
0.0
100
AcDbLayout
  1
Model
 70
     1
 71
     0
 10
0.0
 20
0.0
 11
12.0
 21
9.0
 12
0.0
 22
0.0
 32
0.0
 14
0.0
 24
0.0
 34
0.0
 15
0.0
 25
0.0
 35
0.0
146
0.0
 13
0.0
 23
0.0
 33
0.0
 16
1.0
 26
0.0
 36
0.0
 17
0.0
 27
1.0
 37
0.0
 76
     0
330
A2DD
331
A4A0
  0
LAYOUT
  5
A4F8
102
{ACAD_XDICTIONARY
360
A555
102
}
102
{ACAD_REACTORS
330
A2D8
102
}
330
A2D8
100
AcDbPlotSettings
  1

  2
Canon LBP9100C
  4

  6

 40
0.0
 41
0.0
 42
0.0
 43
0.0
 44
0.0
 45
0.0
 46
0.0
 47
0.0
 48
0.0
 49
0.0
140
0.0
141
0.0
142
1.0
143
1.0
 70
   688
 72
     0
 73
     0
 74
     5
  7

 75
    16
147
1.0
148
0.0
149
0.0
100
AcDbLayout
  1
レイアウト1
 70
     0
 71
     1
 10
0.0
 20
0.0
 11
420.0
 21
297.0
 12
0.0
 22
0.0
 32
0.0
 14
1.000000000000000E+20
 24
1.000000000000000E+20
 34
1.000000000000000E+20
 15
-1.000000000000000E+20
 25
-1.000000000000000E+20
 35
-1.000000000000000E+20
146
0.0
 13
0.0
 23
0.0
 33
0.0
 16
1.0
 26
0.0
 36
0.0
 17
0.0
 27
1.0
 37
0.0
 76
     0
330
A2D9
  0
MATERIAL
  5
A4B3
102
{ACAD_XDICTIONARY
360
A4B4
102
}
102
{ACAD_REACTORS
330
A4AA
102
}
330
A4AA
100
AcDbMaterial
  1
ByBlock
 72
     0
 43
0.0208333333333333
 43
0.0
 43
0.0
 43
0.0
 43
0.0
 43
0.0208333333333333
 43
0.0
 43
0.0
 43
0.0
 43
0.0
 43
1.0
 43
0.0
 43
0.0
 43
0.0
 43
0.0
 43
1.0
 77
     0
 47
0.0208333333333333
 47
0.0
 47
0.0
 47
0.0
 47
0.0
 47
0.0208333333333333
 47
0.0
 47
0.0
 47
0.0
 47
0.0
 47
1.0
 47
0.0
 47
0.0
 47
0.0
 47
0.0
 47
1.0
171
     0
 49
0.0208333333333333
 49
0.0
 49
0.0
 49
0.0
 49
0.0
 49
0.0208333333333333
 49
0.0
 49
0.0
 49
0.0
 49
0.0
 49
1.0
 49
0.0
 49
0.0
 49
0.0
 49
0.0
 49
1.0
175
     0
142
0.0208333333333333
142
0.0
142
0.0
142
0.0
142
0.0
142
0.0208333333333333
142
0.0
142
0.0
142
0.0
142
0.0
142
1.0
142
0.0
142
0.0
142
0.0
142
0.0
142
1.0
179
     0
144
0.0208333333333333
144
0.0
144
0.0
144
0.0
144
0.0
144
0.0208333333333333
144
0.0
144
0.0
144
0.0
144
0.0
144
1.0
144
0.0
144
0.0
144
0.0
144
0.0
144
1.0
147
0.0208333333333333
147
0.0
147
0.0
147
0.0
147
0.0
147
0.0208333333333333
147
0.0
147
0.0
147
0.0
147
0.0
147
1.0
147
0.0
147
0.0
147
0.0
147
0.0
147
1.0
  0
MATERIAL
  5
A4AB
102
{ACAD_XDICTIONARY
360
A4AC
102
}
102
{ACAD_REACTORS
330
A4AA
102
}
330
A4AA
100
AcDbMaterial
  1
ByLayer
 72
     0
 43
0.0208333333333333
 43
0.0
 43
0.0
 43
0.0
 43
0.0
 43
0.0208333333333333
 43
0.0
 43
0.0
 43
0.0
 43
0.0
 43
1.0
 43
0.0
 43
0.0
 43
0.0
 43
0.0
 43
1.0
 77
     0
 47
0.0208333333333333
 47
0.0
 47
0.0
 47
0.0
 47
0.0
 47
0.0208333333333333
 47
0.0
 47
0.0
 47
0.0
 47
0.0
 47
1.0
 47
0.0
 47
0.0
 47
0.0
 47
0.0
 47
1.0
171
     0
 49
0.0208333333333333
 49
0.0
 49
0.0
 49
0.0
 49
0.0
 49
0.0208333333333333
 49
0.0
 49
0.0
 49
0.0
 49
0.0
 49
1.0
 49
0.0
 49
0.0
 49
0.0
 49
0.0
 49
1.0
175
     0
142
0.0208333333333333
142
0.0
142
0.0
142
0.0
142
0.0
142
0.0208333333333333
142
0.0
142
0.0
142
0.0
142
0.0
142
1.0
142
0.0
142
0.0
142
0.0
142
0.0
142
1.0
179
     0
144
0.0208333333333333
144
0.0
144
0.0
144
0.0
144
0.0
144
0.0208333333333333
144
0.0
144
0.0
144
0.0
144
0.0
144
1.0
144
0.0
144
0.0
144
0.0
144
0.0
144
1.0
147
0.0208333333333333
147
0.0
147
0.0
147
0.0
147
0.0
147
0.0208333333333333
147
0.0
147
0.0
147
0.0
147
0.0
147
1.0
147
0.0
147
0.0
147
0.0
147
0.0
147
1.0
  0
MATERIAL
  5
A4BB
102
{ACAD_XDICTIONARY
360
A4BC
102
}
102
{ACAD_REACTORS
330
A4AA
102
}
330
A4AA
100
AcDbMaterial
  1
Global
 72
     0
 43
0.0208333333333333
 43
0.0
 43
0.0
 43
0.0
 43
0.0
 43
0.0208333333333333
 43
0.0
 43
0.0
 43
0.0
 43
0.0
 43
1.0
 43
0.0
 43
0.0
 43
0.0
 43
0.0
 43
1.0
 77
     0
 47
0.0208333333333333
 47
0.0
 47
0.0
 47
0.0
 47
0.0
 47
0.0208333333333333
 47
0.0
 47
0.0
 47
0.0
 47
0.0
 47
1.0
 47
0.0
 47
0.0
 47
0.0
 47
0.0
 47
1.0
171
     0
 49
0.0208333333333333
 49
0.0
 49
0.0
 49
0.0
 49
0.0
 49
0.0208333333333333
 49
0.0
 49
0.0
 49
0.0
 49
0.0
 49
1.0
 49
0.0
 49
0.0
 49
0.0
 49
0.0
 49
1.0
175
     0
142
0.0208333333333333
142
0.0
142
0.0
142
0.0
142
0.0
142
0.0208333333333333
142
0.0
142
0.0
142
0.0
142
0.0
142
1.0
142
0.0
142
0.0
142
0.0
142
0.0
142
1.0
179
     0
144
0.0208333333333333
144
0.0
144
0.0
144
0.0
144
0.0
144
0.0208333333333333
144
0.0
144
0.0
144
0.0
144
0.0
144
1.0
144
0.0
144
0.0
144
0.0
144
0.0
144
1.0
147
0.0208333333333333
147
0.0
147
0.0
147
0.0
147
0.0
147
0.0208333333333333
147
0.0
147
0.0
147
0.0
147
0.0
147
1.0
147
0.0
147
0.0
147
0.0
147
0.0
147
1.0
  0
MLEADERSTYLE
  5
A4F2
102
{ACAD_REACTORS
330
A4F1
102
}
330
A4F1
100
AcDbMLeaderStyle
170
     2
171
     1
172
     0
 90
        2
 40
0.0
 41
0.0
173
     1
 91
-1056964608
340
A2D2
 92
       -2
290
     1
 42
0.09
291
     1
 43
0.36
  3
Standard
 44
0.18
300

342
A2D0
174
     1
178
     6
175
     1
176
     0
 93
-1056964608
 45
0.18
292
     0
297
     0
 46
0.18
 94
-1056964608
 47
1.0
 49
1.0
140
1.0
293
     1
141
0.0
294
     1
177
     0
142
1.0
295
     0
296
     0
143
0.125
1001
ACAD_MLEADERVER
1070
     2
  0
MLINESTYLE
  5
A2D6
102
{ACAD_REACTORS
330
A2D5
102
}
330
A2D5
100
AcDbMlineStyle
  2
STANDARD
 70
     0
  3

 62
   256
 51
90.0
 52
90.0
 71
     2
 49
0.5
 62
   256
  6
BYLAYER
 49
-0.5
 62
   256
  6
BYLAYER
  0
ACDBPLACEHOLDER
  5
A4A9
102
{ACAD_REACTORS
330
A4A8
102
}
330
A4A8
  0
SCALE
  5
A4E0
102
{ACAD_REACTORS
330
A4DF
102
}
330
A4DF
100
AcDbScale
 70
     0
300
1:1
140
1.0
141
1.0
290
     1
  0
SCALE
  5
A4E1
102
{ACAD_REACTORS
330
A4DF
102
}
330
A4DF
100
AcDbScale
 70
     0
300
1/128" = 1'-0"
140
0.0078125
141
12.0
290
     0
  0
SCALE
  5
A4E2
102
{ACAD_REACTORS
330
A4DF
102
}
330
A4DF
100
AcDbScale
 70
     0
300
1/64" = 1'-0"
140
0.015625
141
12.0
290
     0
  0
SCALE
  5
A4E3
102
{ACAD_REACTORS
330
A4DF
102
}
330
A4DF
100
AcDbScale
 70
     0
300
1/32" = 1'-0"
140
0.03125
141
12.0
290
     0
  0
SCALE
  5
A4E4
102
{ACAD_REACTORS
330
A4DF
102
}
330
A4DF
100
AcDbScale
 70
     0
300
1/16" = 1'-0"
140
0.0625
141
12.0
290
     0
  0
SCALE
  5
A4E5
102
{ACAD_REACTORS
330
A4DF
102
}
330
A4DF
100
AcDbScale
 70
     0
300
3/32" = 1'-0"
140
0.09375
141
12.0
290
     0
  0
SCALE
  5
A4E6
102
{ACAD_REACTORS
330
A4DF
102
}
330
A4DF
100
AcDbScale
 70
     0
300
1/8" = 1'-0"
140
0.125
141
12.0
290
     0
  0
SCALE
  5
A4E7
102
{ACAD_REACTORS
330
A4DF
102
}
330
A4DF
100
AcDbScale
 70
     0
300
3/16" = 1'-0"
140
0.1875
141
12.0
290
     0
  0
SCALE
  5
A4E8
102
{ACAD_REACTORS
330
A4DF
102
}
330
A4DF
100
AcDbScale
 70
     0
300
1/4" = 1'-0"
140
0.25
141
12.0
290
     0
  0
SCALE
  5
A4E9
102
{ACAD_REACTORS
330
A4DF
102
}
330
A4DF
100
AcDbScale
 70
     0
300
3/8" = 1'-0"
140
0.375
141
12.0
290
     0
  0
SCALE
  5
A4EA
102
{ACAD_REACTORS
330
A4DF
102
}
330
A4DF
100
AcDbScale
 70
     0
300
1/2" = 1'-0"
140
0.5
141
12.0
290
     0
  0
SCALE
  5
A4EB
102
{ACAD_REACTORS
330
A4DF
102
}
330
A4DF
100
AcDbScale
 70
     0
300
3/4" = 1'-0"
140
0.75
141
12.0
290
     0
  0
SCALE
  5
A4EC
102
{ACAD_REACTORS
330
A4DF
102
}
330
A4DF
100
AcDbScale
 70
     0
300
1" = 1'-0"
140
1.0
141
12.0
290
     0
  0
SCALE
  5
A4ED
102
{ACAD_REACTORS
330
A4DF
102
}
330
A4DF
100
AcDbScale
 70
     0
300
1-1/2" = 1'-0"
140
1.5
141
12.0
290
     0
  0
SCALE
  5
A4EE
102
{ACAD_REACTORS
330
A4DF
102
}
330
A4DF
100
AcDbScale
 70
     0
300
3" = 1'-0"
140
3.0
141
12.0
290
     0
  0
SCALE
  5
A4EF
102
{ACAD_REACTORS
330
A4DF
102
}
330
A4DF
100
AcDbScale
 70
     0
300
6" = 1'-0"
140
6.0
141
12.0
290
     0
  0
SCALE
  5
A4F0
102
{ACAD_REACTORS
330
A4DF
102
}
330
A4DF
100
AcDbScale
 70
     0
300
1'-0" = 1'-0"
140
12.0
141
12.0
290
     0
  0
ACDBSECTIONVIEWSTYLE
  5
A4F4
102
{ACAD_XDICTIONARY
360
A54F
102
}
102
{ACAD_REACTORS
330
A4F3
102
}
330
A4F3
100
AcDbModelDocViewStyle
 70
     0
  3
Imperial24
290
     0
100
AcDbSectionViewStyle
 70
     0
 71
     0
 90
       78
 71
     1
340
A2D0
 40
0.24
340
0
340
0
 40
0.24
300
I, O, Q, S, X, Z
 40
0.48
 90
        3
 40
0.18
 90
        1
 71
     2
340
A2D4
 90
       25
340
A2D4
 90
       50
 40
0.24
 40
0.0
 40
0.24
 71
     3
340
A2D0
 40
0.24
 90
        1
 40
0.75
 90
        1
300
%<\AcVar ViewType \f "%tc1">% %<\AcVar ViewSectionStartId>%-%<\AcVar ViewSectionEndId>%\PSCALE %<\AcVar ViewScale \f "%sn">%
 71
     4
300
ANSI31
 40
1.0
 90
        0
290
     0
290
     0
 90
        6
 40
0.0
 40
1.570796326794896
 40
0.2617993877991494
 40
1.308996938995747
 40
-0.2617993877991494
 40
1.832595714594046
  0
TABLESTYLE
  5
A4DE
102
{ACAD_XDICTIONARY
360
A516
102
}
102
{ACAD_REACTORS
330
A4DD
102
}
330
A4DD
100
AcDbTableStyle
  3
Standard
 70
     0
 71
     0
 40
0.06
 41
0.06
280
     0
281
     0
  7
STANDARD
140
0.18
170
     2
 62
     0
 63
     7
283
     0
274
    -2
284
     1
 64
     0
275
    -2
285
     1
 65
     0
276
    -2
286
     1
 66
     0
277
    -2
287
     1
 67
     0
278
    -2
288
     1
 68
     0
279
    -2
289
     1
 69
     0
  7
STANDARD
140
0.25
170
     5
 62
     0
 63
     7
283
     0
274
    -2
284
     1
 64
     0
275
    -2
285
     1
 65
     0
276
    -2
286
     1
 66
     0
277
    -2
287
     1
 67
     0
278
    -2
288
     1
 68
     0
279
    -2
289
     1
 69
     0
  7
STANDARD
140
0.18
170
     5
 62
     0
 63
     7
283
     0
274
    -2
284
     1
 64
     0
275
    -2
285
     1
 65
     0
276
    -2
286
     1
 66
     0
277
    -2
287
     1
 67
     0
278
    -2
288
     1
 68
     0
279
    -2
289
     1
 69
     0
  0
VISUALSTYLE
  5
A4C9
102
{ACAD_XDICTIONARY
360
A527
102
}
102
{ACAD_REACTORS
330
A4C3
102
}
330
A4C3
100
AcDbVisualStyle
  2
2dWireframe
 70
     4
 71
     0
 72
     2
 73
     0
 90
        0
 40
-0.6
 41
-30.0
 62
     5
 63
     7
 74
     1
 91
        4
 64
     7
 65
   257
 75
     1
175
     1
 42
1.0
 92
        0
 66
   257
 43
1.0
 76
     1
 77
     6
 78
     2
 67
     7
 79
     5
170
     0
171
     0
290
     0
174
     0
 93
        1
 44
0.0
173
     0
291
     0
 45
0.0
1001
ACAD
1000
AcDbSavedByObjectVersion
1070
     0
  0
VISUALSTYLE
  5
A4C8
102
{ACAD_XDICTIONARY
360
A525
102
}
102
{ACAD_REACTORS
330
A4C3
102
}
330
A4C3
100
AcDbVisualStyle
  2
Basic
 70
     7
 71
     1
 72
     0
 73
     1
 90
        0
 40
-0.6
 41
-30.0
 62
     5
 63
     7
 74
     0
 91
        4
 64
     7
 65
   257
 75
     1
175
     1
 42
1.0
 92
        8
 66
     7
 43
1.0
 76
     1
 77
     6
 78
     2
 67
     7
 79
     5
170
     0
171
     0
290
     0
174
     0
 93
        1
 44
0.0
173
     0
291
     1
 45
0.0
1001
ACAD
1000
AcDbSavedByObjectVersion
1070
     0
  0
VISUALSTYLE
  5
A4CF
102
{ACAD_XDICTIONARY
360
A533
102
}
102
{ACAD_REACTORS
330
A4C3
102
}
330
A4C3
100
AcDbVisualStyle
  2
Brighten
 70
    12
 71
     2
 72
     2
 73
     0
 90
        0
 40
-0.6
 41
-30.0
 62
     5
 63
     7
 74
     1
 91
        4
 64
     7
 65
   257
 75
     1
175
     1
 42
1.0
 92
        8
 66
     7
 43
1.0
 76
     1
 77
     6
 78
     2
 67
     7
 79
     5
170
     0
171
     0
290
     0
174
     0
 93
        1
 44
50.0
173
     0
291
     1
 45
0.0
1001
ACAD
1000
AcDbSavedByObjectVersion
1070
     0
  0
VISUALSTYLE
  5
A4D3
102
{ACAD_XDICTIONARY
360
A53B
102
}
102
{ACAD_REACTORS
330
A4C3
102
}
330
A4C3
100
AcDbVisualStyle
  2
ColorChange
 70
    16
 71
     2
 72
     2
 73
     3
 90
        0
 40
-0.6
 41
-30.0
 62
     5
 63
     8
 74
     1
 91
        4
 64
     7
 65
   257
 75
     1
175
     1
 42
1.0
 92
        8
 66
     8
 43
1.0
 76
     1
 77
     6
 78
     2
 67
     7
 79
     5
170
     0
171
     0
290
     0
174
     0
 93
        1
 44
0.0
173
     0
291
     1
 45
0.0
1001
ACAD
1000
AcDbSavedByObjectVersion
1070
     0
  0
VISUALSTYLE
  5
A4CC
102
{ACAD_XDICTIONARY
360
A52D
102
}
102
{ACAD_REACTORS
330
A4C3
102
}
330
A4C3
100
AcDbVisualStyle
  2
Conceptual
 70
     9
 71
     3
 72
     2
 73
     0
 90
        0
 40
-0.6
 41
-30.0
 62
     5
 63
     7
 74
     2
 91
        2
 64
     7
 65
   257
 75
     1
175
     1
 42
179.0
 92
        8
 66
     7
 43
1.0
 76
     1
 77
     6
 78
     2
 67
     7
 79
     3
170
     0
171
     0
290
     0
174
     0
 93
        1
 44
0.0
173
     0
291
     0
 45
0.0
1001
ACAD
1000
AcDbSavedByObjectVersion
1070
     0
  0
VISUALSTYLE
  5
A4CE
102
{ACAD_XDICTIONARY
360
A531
102
}
102
{ACAD_REACTORS
330
A4C3
102
}
330
A4C3
100
AcDbVisualStyle
  2
Dim
 70
    11
 71
     2
 72
     2
 73
     0
 90
        0
 40
-0.6
 41
-30.0
 62
     5
 63
     7
 74
     1
 91
        4
 64
     7
 65
   257
 75
     1
175
     1
 42
1.0
 92
        8
 66
     7
 43
1.0
 76
     1
 77
     6
 78
     2
 67
     7
 79
     5
170
     0
171
     0
290
     0
174
     0
 93
        1
 44
-50.0
173
     0
291
     1
 45
0.0
1001
ACAD
1000
AcDbSavedByObjectVersion
1070
     0
  0
VISUALSTYLE
  5
A4DB
102
{ACAD_XDICTIONARY
360
A54B
102
}
102
{ACAD_REACTORS
330
A4C3
102
}
330
A4C3
100
AcDbVisualStyle
  2
EdgeColorOff
 70
    22
 71
     2
 72
     2
 73
     0
 90
        0
 40
-0.6
 41
-30.0
 62
     5
 63
     7
 74
     1
 91
        4
 64
     7
 65
   257
 75
     1
175
     1
 42
1.0
 92
        8
 66
     7
 43
1.0
 76
     1
 77
     6
 78
     2
 67
     7
 79
     5
170
     0
171
     0
290
     0
174
     0
 93
        1
 44
0.0
173
     0
291
     1
 45
0.0
1001
ACAD
1000
AcDbSavedByObjectVersion
1070
     0
  0
VISUALSTYLE
  5
A4D2
102
{ACAD_XDICTIONARY
360
A539
102
}
102
{ACAD_REACTORS
330
A4C3
102
}
330
A4C3
100
AcDbVisualStyle
  2
Facepattern
 70
    15
 71
     2
 72
     2
 73
     0
 90
        0
 40
-0.6
 41
-30.0
 62
     5
 63
     7
 74
     1
 91
        4
 64
     7
 65
   257
 75
     1
175
     1
 42
1.0
 92
        8
 66
     7
 43
1.0
 76
     1
 77
     6
 78
     2
 67
     7
 79
     5
170
     0
171
     0
290
     0
174
     0
 93
        1
 44
0.0
173
     0
291
     1
 45
0.0
1001
ACAD
1000
AcDbSavedByObjectVersion
1070
     0
  0
VISUALSTYLE
  5
A4C4
102
{ACAD_XDICTIONARY
360
A51D
102
}
102
{ACAD_REACTORS
330
A4C3
102
}
330
A4C3
100
AcDbVisualStyle
  2
Flat
 70
     0
 71
     2
 72
     1
 73
     1
 90
        2
 40
-0.6
 41
30.0
 62
     5
 63
     7
 74
     0
 91
        0
 64
     7
 65
   257
 75
     1
175
     1
 42
1.0
 92
        8
 66
     7
 43
1.0
 76
     1
 77
     6
 78
     2
 67
     7
 79
     5
170
     0
171
     0
290
     0
174
     0
 93
       13
 44
0.0
173
     0
291
     1
 45
0.0
1001
ACAD
1000
AcDbSavedByObjectVersion
1070
     0
  0
VISUALSTYLE
  5
A4C5
102
{ACAD_XDICTIONARY
360
A51F
102
}
102
{ACAD_REACTORS
330
A4C3
102
}
330
A4C3
100
AcDbVisualStyle
  2
FlatWithEdges
 70
     1
 71
     2
 72
     1
 73
     1
 90
        2
 40
-0.6
 41
30.0
 62
     5
 63
     7
 74
     1
 91
        0
 64
     7
 65
   257
 75
     1
175
     1
 42
1.0
 92
        0
 66
   257
 43
1.0
 76
     1
 77
     6
 78
     2
 67
     7
 79
     5
170
     0
171
     0
290
     0
174
     0
 93
       13
 44
0.0
173
     0
291
     1
 45
0.0
1001
ACAD
1000
AcDbSavedByObjectVersion
1070
     0
  0
VISUALSTYLE
  5
A4C6
102
{ACAD_XDICTIONARY
360
A521
102
}
102
{ACAD_REACTORS
330
A4C3
102
}
330
A4C3
100
AcDbVisualStyle
  2
Gouraud
 70
     2
 71
     2
 72
     2
 73
     1
 90
        2
 40
-0.6
 41
30.0
 62
     5
 63
     7
 74
     0
 91
        0
 64
     7
 65
   257
 75
     1
175
     1
 42
1.0
 92
        0
 66
     7
 43
1.0
 76
     1
 77
     6
 78
     2
 67
     7
 79
     5
170
     0
171
     0
290
     0
174
     0
 93
       13
 44
0.0
173
     0
291
     1
 45
0.0
1001
ACAD
1000
AcDbSavedByObjectVersion
1070
     0
  0
VISUALSTYLE
  5
A4C7
102
{ACAD_XDICTIONARY
360
A523
102
}
102
{ACAD_REACTORS
330
A4C3
102
}
330
A4C3
100
AcDbVisualStyle
  2
GouraudWithEdges
 70
     3
 71
     2
 72
     2
 73
     1
 90
        2
 40
-0.6
 41
30.0
 62
     5
 63
     7
 74
     1
 91
        0
 64
     7
 65
   257
 75
     1
175
     1
 42
1.0
 92
        0
 66
   257
 43
1.0
 76
     1
 77
     6
 78
     2
 67
     7
 79
     5
170
     0
171
     0
290
     0
174
     0
 93
       13
 44
0.0
173
     0
291
     1
 45
0.0
1001
ACAD
1000
AcDbSavedByObjectVersion
1070
     0
  0
VISUALSTYLE
  5
A4CB
102
{ACAD_XDICTIONARY
360
A52B
102
}
102
{ACAD_REACTORS
330
A4C3
102
}
330
A4C3
100
AcDbVisualStyle
  2
Hidden
 70
     6
 71
     1
 72
     2
 73
     2
 90
        0
 40
-0.6
 41
-30.0
 62
     5
 63
     7
 74
     2
 91
        2
 64
     7
 65
   257
 75
     2
175
     1
 42
40.0
 92
        0
 66
   257
 43
1.0
 76
     1
 77
     6
 78
     2
 67
     7
 79
     3
170
     0
171
     0
290
     0
174
     0
 93
        1
 44
0.0
173
     0
291
     0
 45
0.0
1001
ACAD
1000
AcDbSavedByObjectVersion
1070
     0
  0
VISUALSTYLE
  5
A4D9
102
{ACAD_XDICTIONARY
360
A547
102
}
102
{ACAD_REACTORS
330
A4C3
102
}
330
A4C3
100
AcDbVisualStyle
  2
JitterOff
 70
    20
 71
     2
 72
     2
 73
     0
 90
        0
 40
-0.6
 41
-30.0
 62
     5
 63
     7
 74
     1
 91
        4
 64
     7
 65
   257
 75
     1
175
     1
 42
1.0
 92
       10
 66
     7
 43
1.0
 76
     1
 77
     6
 78
     2
 67
     7
 79
     5
170
     0
171
     0
290
     0
174
     0
 93
        1
 44
0.0
173
     0
291
     1
 45
0.0
1001
ACAD
1000
AcDbSavedByObjectVersion
1070
     0
  0
VISUALSTYLE
  5
A4D1
102
{ACAD_XDICTIONARY
360
A537
102
}
102
{ACAD_REACTORS
330
A4C3
102
}
330
A4C3
100
AcDbVisualStyle
  2
Linepattern
 70
    14
 71
     2
 72
     2
 73
     0
 90
        0
 40
-0.6
 41
-30.0
 62
     5
 63
     7
 74
     1
 91
        4
 64
     7
 65
   257
 75
     7
175
     7
 42
1.0
 92
        8
 66
     7
 43
1.0
 76
     1
 77
     6
 78
     2
 67
     7
 79
     5
170
     0
171
     0
290
     0
174
     0
 93
        1
 44
0.0
173
     0
291
     1
 45
0.0
1001
ACAD
1000
AcDbSavedByObjectVersion
1070
     0
  0
VISUALSTYLE
  5
A4DA
102
{ACAD_XDICTIONARY
360
A549
102
}
102
{ACAD_REACTORS
330
A4C3
102
}
330
A4C3
100
AcDbVisualStyle
  2
OverhangOff
 70
    21
 71
     2
 72
     2
 73
     0
 90
        0
 40
-0.6
 41
-30.0
 62
     5
 63
     7
 74
     1
 91
        4
 64
     7
 65
   257
 75
     1
175
     1
 42
1.0
 92
        9
 66
     7
 43
1.0
 76
     1
 77
     6
 78
     2
 67
     7
 79
     5
170
     0
171
     0
290
     0
174
     0
 93
        1
 44
0.0
173
     0
291
     1
 45
0.0
1001
ACAD
1000
AcDbSavedByObjectVersion
1070
     0
  0
VISUALSTYLE
  5
A4CD
102
{ACAD_XDICTIONARY
360
A52F
102
}
102
{ACAD_REACTORS
330
A4C3
102
}
330
A4C3
100
AcDbVisualStyle
  2
Realistic
 70
     8
 71
     2
 72
     3
 73
     0
 90
        2
 40
-0.6
 41
30.0
 62
     5
 63
     7
 74
     0
 91
        0
 64
     7
 65
   257
 75
     1
175
     1
 42
1.0
 92
        8
 66
   257
 43
1.0
 76
     1
 77
     6
 78
     2
 67
     7
 79
     3
170
     0
171
     0
290
     0
174
     0
 93
       13
 44
0.0
173
     0
291
     0
 45
0.0
1001
ACAD
1000
AcDbSavedByObjectVersion
1070
     0
  0
VISUALSTYLE
  5
A4D8
102
{ACAD_XDICTIONARY
360
A545
102
}
102
{ACAD_REACTORS
330
A4C3
102
}
330
A4C3
100
AcDbVisualStyle
  2
Shaded
 70
    27
 71
     2
 72
     2
 73
     1
 90
        2
 40
-0.6
 41
30.0
 62
     5
 63
     7
 74
     0
 91
        4
 64
     7
 65
   257
 75
     1
175
     1
 42
1.0
 92
        8
 66
   257
 43
1.0
 76
     1
 77
     6
 78
     2
 67
     8
 79
     3
170
     0
171
     0
290
     0
174
     0
 93
        5
 44
0.0
173
     0
291
     0
 45
0.0
1001
ACAD
1000
AcDbSavedByObjectVersion
1070
     0
  0
VISUALSTYLE
  5
A4D7
102
{ACAD_XDICTIONARY
360
A543
102
}
102
{ACAD_REACTORS
330
A4C3
102
}
330
A4C3
100
AcDbVisualStyle
  2
Shaded with edges
 70
    26
 71
     2
 72
     2
 73
     1
 90
        2
 40
-0.6
 41
30.0
 62
     5
 63
     7
 74
     1
 91
       10
 64
     7
 65
   257
 75
     2
175
     1
 42
1.0
 92
        8
 66
   257
 43
1.0
 76
     1
 77
     6
 78
     2
 67
     7
 79
     3
170
     0
171
     0
290
     0
174
     0
 93
        5
 44
0.0
173
     0
291
     0
 45
0.0
1001
ACAD
1000
AcDbSavedByObjectVersion
1070
     0
  0
VISUALSTYLE
  5
A4D4
102
{ACAD_XDICTIONARY
360
A53D
102
}
102
{ACAD_REACTORS
330
A4C3
102
}
330
A4C3
100
AcDbVisualStyle
  2
Shades of Gray
 70
    23
 71
     2
 72
     2
 73
     3
 90
        0
 40
-0.6
 41
-30.0
 62
     5
 63
     7
 74
     2
 91
        2
 64
     7
 65
     7
 75
     1
175
     1
 42
40.0
 92
        8
 66
     7
 43
1.0
 76
     1
 77
     6
 78
     2
 67
     7
 79
     3
170
     0
171
     0
290
     0
174
     0
 93
        1
 44
0.0
173
     0
291
     0
 45
0.0
1001
ACAD
1000
AcDbSavedByObjectVersion
1070
     0
  0
VISUALSTYLE
  5
A4D5
102
{ACAD_XDICTIONARY
360
A53F
102
}
102
{ACAD_REACTORS
330
A4C3
102
}
330
A4C3
100
AcDbVisualStyle
  2
Sketchy
 70
    24
 71
     1
 72
     2
 73
     2
 90
        0
 40
-0.6
 41
-30.0
 62
     5
 63
     7
 74
     2
 91
        2
 64
     7
 65
     7
 75
     1
175
     1
 42
40.0
 92
       11
 66
     7
 43
1.0
 76
     1
 77
     6
 78
     2
 67
     7
 79
     6
170
     0
171
     0
290
     0
174
     0
 93
        1
 44
0.0
173
     0
291
     0
 45
0.0
1001
ACAD
1000
AcDbSavedByObjectVersion
1070
     0
  0
VISUALSTYLE
  5
A4D0
102
{ACAD_XDICTIONARY
360
A535
102
}
102
{ACAD_REACTORS
330
A4C3
102
}
330
A4C3
100
AcDbVisualStyle
  2
Thicken
 70
    13
 71
     2
 72
     2
 73
     0
 90
        0
 40
-0.6
 41
-30.0
 62
     5
 63
     7
 74
     1
 91
        4
 64
     7
 65
   257
 75
     1
175
     1
 42
1.0
 92
       12
 66
     7
 43
1.0
 76
     1
 77
     6
 78
     2
 67
     7
 79
     5
170
     0
171
     0
290
     0
174
     0
 93
        1
 44
0.0
173
     0
291
     1
 45
0.0
1001
ACAD
1000
AcDbSavedByObjectVersion
1070
     0
  0
VISUALSTYLE
  5
A4CA
102
{ACAD_XDICTIONARY
360
A529
102
}
102
{ACAD_REACTORS
330
A4C3
102
}
330
A4C3
100
AcDbVisualStyle
  2
Wireframe
 70
     5
 71
     0
 72
     2
 73
     0
 90
        0
 40
-0.6
 41
-30.0
 62
     5
 63
     7
 74
     1
 91
        4
 64
     7
 65
   257
 75
     1
175
     1
 42
1.0
 92
        0
 66
   257
 43
1.0
 76
     1
 77
     6
 78
     2
 67
     7
 79
     3
170
     0
171
     0
290
     0
174
     0
 93
        1
 44
0.0
173
     0
291
     0
 45
0.0
1001
ACAD
1000
AcDbSavedByObjectVersion
1070
     0
  0
VISUALSTYLE
  5
A4D6
102
{ACAD_XDICTIONARY
360
A541
102
}
102
{ACAD_REACTORS
330
A4C3
102
}
330
A4C3
100
AcDbVisualStyle
  2
X-Ray
 70
    25
 71
     2
 72
     2
 73
     1
 90
        1
 40
0.5
 41
-30.0
 62
     5
 63
     7
 74
     1
 91
        0
 64
     7
 65
   257
 75
     1
175
     1
 42
1.0
 92
        8
 66
     7
 43
1.0
 76
     1
 77
     6
 78
     2
 67
     7
 79
     3
170
     0
171
     0
290
     0
174
     0
 93
       13
 44
0.0
173
     0
291
     0
 45
0.0
1001
ACAD
1000
AcDbSavedByObjectVersion
1070
     0
  0
DICTIONARYVAR
  5
A510
102
{ACAD_REACTORS
330
A50B
102
}
330
A50B
100
DictionaryVariables
280
     0
  1
1:1
  0
DICTIONARYVAR
  5
A50D
102
{ACAD_REACTORS
330
A50B
102
}
330
A50B
100
DictionaryVariables
280
     0
  1
STANDARD
  0
DICTIONARYVAR
  5
A50C
102
{ACAD_REACTORS
330
A50B
102
}
330
A50B
100
DictionaryVariables
280
     0
  1
STANDARD
  0
DICTIONARYVAR
  5
A50E
102
{ACAD_REACTORS
330
A50B
102
}
330
A50B
100
DictionaryVariables
280
     0
  1
Imperial24
  0
DICTIONARYVAR
  5
A50F
102
{ACAD_REACTORS
330
A50B
102
}
330
A50B
100
DictionaryVariables
280
     0
  1
Imperial24
  0
DICTIONARYVAR
  5
A513
102
{ACAD_REACTORS
330
A50B
102
}
330
A50B
100
DictionaryVariables
280
     0
  1
1
  0
DICTIONARYVAR
  5
A512
102
{ACAD_REACTORS
330
A50B
102
}
330
A50B
100
DictionaryVariables
280
     0
  1
0
  0
DICTIONARYVAR
  5
A511
102
{ACAD_REACTORS
330
A50B
102
}
330
A50B
100
DictionaryVariables
280
     0
  1
127
  0
DICTIONARYVAR
  5
A514
102
{ACAD_REACTORS
330
A50B
102
}
330
A50B
100
DictionaryVariables
280
     0
  1
2
  0
DICTIONARY
  5
A551
330
A4F6
100
AcDbDictionary
280
     1
281
     1
  3
ACAD_XREC_ROUNDTRIP
360
A552
  0
DICTIONARY
  5
A553
330
A4F7
100
AcDbDictionary
280
     1
281
     1
  3
ACAD_XREC_ROUNDTRIP
360
A554
  0
DICTIONARY
  5
A555
330
A4F8
100
AcDbDictionary
280
     1
281
     1
  3
ACAD_XREC_ROUNDTRIP
360
A556
  0
DICTIONARY
  5
A4B4
330
A4B3
100
AcDbDictionary
280
     1
281
     1
  3
ACAD_XREC_ROUNDTRIP
360
A51B
  3
BUMPTILE
360
A4B6
  3
DIFFUSETILE
360
A4B5
  3
OPACITYTILE
360
A4B9
  3
REFLECTIONTILE
360
A4B8
  3
REFRACTIONTILE
360
A4BA
  3
SPECULARTILE
360
A4B7
  0
DICTIONARY
  5
A4AC
330
A4AB
100
AcDbDictionary
280
     1
281
     1
  3
ACAD_XREC_ROUNDTRIP
360
A51A
  3
BUMPTILE
360
A4AE
  3
DIFFUSETILE
360
A4AD
  3
OPACITYTILE
360
A4B1
  3
REFLECTIONTILE
360
A4B0
  3
REFRACTIONTILE
360
A4B2
  3
SPECULARTILE
360
A4AF
  0
DICTIONARY
  5
A4BC
330
A4BB
100
AcDbDictionary
280
     1
281
     1
  3
ACAD_XREC_ROUNDTRIP
360
A51C
  3
BUMPTILE
360
A4BE
  3
DIFFUSETILE
360
A4BD
  3
OPACITYTILE
360
A4C1
  3
REFLECTIONTILE
360
A4C0
  3
REFRACTIONTILE
360
A4C2
  3
SPECULARTILE
360
A4BF
  0
DICTIONARY
  5
A54F
330
A4F4
100
AcDbDictionary
280
     1
281
     1
  3
ACAD_XREC_ROUNDTRIP
360
A550
  0
DICTIONARY
  5
A516
330
A4DE
100
AcDbDictionary
280
     1
281
     1
  3
ACAD_ROUNDTRIP_2008_TABLESTYLE_CELLSTYLEMAP
360
A517
  3
ACAD_XREC_ROUNDTRIP
360
A54D
  0
DICTIONARY
  5
A527
330
A4C9
100
AcDbDictionary
280
     1
281
     1
  3
ACAD_XREC_ROUNDTRIP
360
A528
  0
DICTIONARY
  5
A525
330
A4C8
100
AcDbDictionary
280
     1
281
     1
  3
ACAD_XREC_ROUNDTRIP
360
A526
  0
DICTIONARY
  5
A533
330
A4CF
100
AcDbDictionary
280
     1
281
     1
  3
ACAD_XREC_ROUNDTRIP
360
A534
  0
DICTIONARY
  5
A53B
330
A4D3
100
AcDbDictionary
280
     1
281
     1
  3
ACAD_XREC_ROUNDTRIP
360
A53C
  0
DICTIONARY
  5
A52D
330
A4CC
100
AcDbDictionary
280
     1
281
     1
  3
ACAD_XREC_ROUNDTRIP
360
A52E
  0
DICTIONARY
  5
A531
330
A4CE
100
AcDbDictionary
280
     1
281
     1
  3
ACAD_XREC_ROUNDTRIP
360
A532
  0
DICTIONARY
  5
A54B
330
A4DB
100
AcDbDictionary
280
     1
281
     1
  3
ACAD_XREC_ROUNDTRIP
360
A54C
  0
DICTIONARY
  5
A539
330
A4D2
100
AcDbDictionary
280
     1
281
     1
  3
ACAD_XREC_ROUNDTRIP
360
A53A
  0
DICTIONARY
  5
A51D
330
A4C4
100
AcDbDictionary
280
     1
281
     1
  3
ACAD_XREC_ROUNDTRIP
360
A51E
  0
DICTIONARY
  5
A51F
330
A4C5
100
AcDbDictionary
280
     1
281
     1
  3
ACAD_XREC_ROUNDTRIP
360
A520
  0
DICTIONARY
  5
A521
330
A4C6
100
AcDbDictionary
280
     1
281
     1
  3
ACAD_XREC_ROUNDTRIP
360
A522
  0
DICTIONARY
  5
A523
330
A4C7
100
AcDbDictionary
280
     1
281
     1
  3
ACAD_XREC_ROUNDTRIP
360
A524
  0
DICTIONARY
  5
A52B
330
A4CB
100
AcDbDictionary
280
     1
281
     1
  3
ACAD_XREC_ROUNDTRIP
360
A52C
  0
DICTIONARY
  5
A547
330
A4D9
100
AcDbDictionary
280
     1
281
     1
  3
ACAD_XREC_ROUNDTRIP
360
A548
  0
DICTIONARY
  5
A537
330
A4D1
100
AcDbDictionary
280
     1
281
     1
  3
ACAD_XREC_ROUNDTRIP
360
A538
  0
DICTIONARY
  5
A549
330
A4DA
100
AcDbDictionary
280
     1
281
     1
  3
ACAD_XREC_ROUNDTRIP
360
A54A
  0
DICTIONARY
  5
A52F
330
A4CD
100
AcDbDictionary
280
     1
281
     1
  3
ACAD_XREC_ROUNDTRIP
360
A530
  0
DICTIONARY
  5
A545
330
A4D8
100
AcDbDictionary
280
     1
281
     1
  3
ACAD_XREC_ROUNDTRIP
360
A546
  0
DICTIONARY
  5
A543
330
A4D7
100
AcDbDictionary
280
     1
281
     1
  3
ACAD_XREC_ROUNDTRIP
360
A544
  0
DICTIONARY
  5
A53D
330
A4D4
100
AcDbDictionary
280
     1
281
     1
  3
ACAD_XREC_ROUNDTRIP
360
A53E
  0
DICTIONARY
  5
A53F
330
A4D5
100
AcDbDictionary
280
     1
281
     1
  3
ACAD_XREC_ROUNDTRIP
360
A540
  0
DICTIONARY
  5
A535
330
A4D0
100
AcDbDictionary
280
     1
281
     1
  3
ACAD_XREC_ROUNDTRIP
360
A536
  0
DICTIONARY
  5
A529
330
A4CA
100
AcDbDictionary
280
     1
281
     1
  3
ACAD_XREC_ROUNDTRIP
360
A52A
  0
DICTIONARY
  5
A541
330
A4D6
100
AcDbDictionary
280
     1
281
     1
  3
ACAD_XREC_ROUNDTRIP
360
A542
  0
XRECORD
  5
A552
102
{ACAD_REACTORS
330
A551
102
}
330
A551
100
AcDbXrecord
280
     1
102
DISPLAYNAME
  1
Imperial24
102
FLAGS
 90
        0
  0
XRECORD
  5
A554
102
{ACAD_REACTORS
330
A553
102
}
330
A553
100
AcDbXrecord
280
     1
102
SHADEPLOT
 70
     0
102
SHADEPLOTRESLEVEL
 70
     2
102
SHADEPLOTCUSTOMDPI
 70
   300
  0
XRECORD
  5
A556
102
{ACAD_REACTORS
330
A555
102
}
330
A555
100
AcDbXrecord
280
     1
102
SHADEPLOT
 70
     0
102
SHADEPLOTRESLEVEL
 70
     2
102
SHADEPLOTCUSTOMDPI
 70
   300
  0
XRECORD
  5
A51B
102
{ACAD_REACTORS
330
A4B4
102
}
330
A4B4
100
AcDbXrecord
280
     1
102
MATERIAL
148
0.0
149
0.0
149
0.0
 93
        0
 94
      127
282
     0
 72
     0
 77
     0
171
     0
175
     0
179
     0
273
     0
  0
XRECORD
  5
A4B6
102
{ACAD_REACTORS
330
A4B4
102
}
330
A4B4
100
AcDbXrecord
280
     1
270
     1
271
     1
  0
XRECORD
  5
A4B5
102
{ACAD_REACTORS
330
A4B4
102
}
330
A4B4
100
AcDbXrecord
280
     1
270
     1
271
     1
  0
XRECORD
  5
A4B9
102
{ACAD_REACTORS
330
A4B4
102
}
330
A4B4
100
AcDbXrecord
280
     1
270
     1
271
     1
  0
XRECORD
  5
A4B8
102
{ACAD_REACTORS
330
A4B4
102
}
330
A4B4
100
AcDbXrecord
280
     1
270
     1
271
     1
  0
XRECORD
  5
A4BA
102
{ACAD_REACTORS
330
A4B4
102
}
330
A4B4
100
AcDbXrecord
280
     1
270
     1
271
     1
  0
XRECORD
  5
A4B7
102
{ACAD_REACTORS
330
A4B4
102
}
330
A4B4
100
AcDbXrecord
280
     1
270
     1
271
     1
  0
XRECORD
  5
A51A
102
{ACAD_REACTORS
330
A4AC
102
}
330
A4AC
100
AcDbXrecord
280
     1
102
MATERIAL
148
0.0
149
0.0
149
0.0
 93
        0
 94
      127
282
     0
 72
     0
 77
     0
171
     0
175
     0
179
     0
273
     0
  0
XRECORD
  5
A4AE
102
{ACAD_REACTORS
330
A4AC
102
}
330
A4AC
100
AcDbXrecord
280
     1
270
     1
271
     1
  0
XRECORD
  5
A4AD
102
{ACAD_REACTORS
330
A4AC
102
}
330
A4AC
100
AcDbXrecord
280
     1
270
     1
271
     1
  0
XRECORD
  5
A4B1
102
{ACAD_REACTORS
330
A4AC
102
}
330
A4AC
100
AcDbXrecord
280
     1
270
     1
271
     1
  0
XRECORD
  5
A4B0
102
{ACAD_REACTORS
330
A4AC
102
}
330
A4AC
100
AcDbXrecord
280
     1
270
     1
271
     1
  0
XRECORD
  5
A4B2
102
{ACAD_REACTORS
330
A4AC
102
}
330
A4AC
100
AcDbXrecord
280
     1
270
     1
271
     1
  0
XRECORD
  5
A4AF
102
{ACAD_REACTORS
330
A4AC
102
}
330
A4AC
100
AcDbXrecord
280
     1
270
     1
271
     1
  0
XRECORD
  5
A51C
102
{ACAD_REACTORS
330
A4BC
102
}
330
A4BC
100
AcDbXrecord
280
     1
102
MATERIAL
148
0.0
149
0.0
149
0.0
 93
        0
 94
      127
282
     0
 72
     0
 77
     0
171
     0
175
     0
179
     0
273
     0
  0
XRECORD
  5
A4BE
102
{ACAD_REACTORS
330
A4BC
102
}
330
A4BC
100
AcDbXrecord
280
     1
270
     1
271
     1
  0
XRECORD
  5
A4BD
102
{ACAD_REACTORS
330
A4BC
102
}
330
A4BC
100
AcDbXrecord
280
     1
270
     1
271
     1
  0
XRECORD
  5
A4C1
102
{ACAD_REACTORS
330
A4BC
102
}
330
A4BC
100
AcDbXrecord
280
     1
270
     1
271
     1
  0
XRECORD
  5
A4C0
102
{ACAD_REACTORS
330
A4BC
102
}
330
A4BC
100
AcDbXrecord
280
     1
270
     1
271
     1
  0
XRECORD
  5
A4C2
102
{ACAD_REACTORS
330
A4BC
102
}
330
A4BC
100
AcDbXrecord
280
     1
270
     1
271
     1
  0
XRECORD
  5
A4BF
102
{ACAD_REACTORS
330
A4BC
102
}
330
A4BC
100
AcDbXrecord
280
     1
270
     1
271
     1
  0
XRECORD
  5
A550
102
{ACAD_REACTORS
330
A54F
102
}
330
A54F
100
AcDbXrecord
280
     1
102
DISPLAYNAME
  1
Imperial24
102
FLAGS
 90
        0
  0
CELLSTYLEMAP
  5
A517
102
{ACAD_REACTORS
330
A516
102
}
330
A516
100
AcDbCellStyleMap
 90
        3
300
CELLSTYLE
  1
TABLEFORMAT_BEGIN
 90
        5
170
     1
 91
        0
 92
    32768
 62
   257
 93
        1
300
CONTENTFORMAT
  1
CONTENTFORMAT_BEGIN
 90
        0
 91
        0
 92
      512
 93
        0
300

 40
0.0
140
1.0
 94
        5
 62
     0
340
A2D0
144
0.25
309
CONTENTFORMAT_END
171
     0
 94
        0
309
TABLEFORMAT_END
  1
CELLSTYLE_BEGIN
 90
        1
 91
        1
300
_TITLE
309
CELLSTYLE_END
300
CELLSTYLE
  1
TABLEFORMAT_BEGIN
 90
        5
170
     1
 91
        0
 92
        0
 62
   257
 93
        1
300
CONTENTFORMAT
  1
CONTENTFORMAT_BEGIN
 90
        0
 91
        0
 92
      512
 93
        0
300

 40
0.0
140
1.0
 94
        5
 62
     0
340
A2D0
144
0.18
309
CONTENTFORMAT_END
171
     0
 94
        0
309
TABLEFORMAT_END
  1
CELLSTYLE_BEGIN
 90
        2
 91
        1
300
_HEADER
309
CELLSTYLE_END
300
CELLSTYLE
  1
TABLEFORMAT_BEGIN
 90
        5
170
     1
 91
        0
 92
        0
 62
   257
 93
        1
300
CONTENTFORMAT
  1
CONTENTFORMAT_BEGIN
 90
        0
 91
        0
 92
      512
 93
        0
300

 40
0.0
140
1.0
 94
        2
 62
     0
340
A2D0
144
0.18
309
CONTENTFORMAT_END
171
     0
 94
        0
309
TABLEFORMAT_END
  1
CELLSTYLE_BEGIN
 90
        3
 91
        2
300
_DATA
309
CELLSTYLE_END
  0
XRECORD
  5
A54D
102
{ACAD_REACTORS
330
A516
102
}
330
A516
100
AcDbXrecord
280
     1
102
ACAD_ROUNDTRIP_PRE2007_TABLESTYLE
 90
      512
 91
        0
  1

 92
      512
 93
        0
  2

 94
      512
 95
        0
  3

  0
XRECORD
  5
A528
102
{ACAD_REACTORS
330
A527
102
}
330
A527
100
AcDbXrecord
280
     1
102
RTVSPost2010Prop28
280
     1
102
RTVSPost2010PropOp28
 70
     1
102
RTVSPost2010Prop29
280
     1
102
RTVSPost2010PropOp29
 70
     1
102
RTVSPost2010Prop30
280
     0
102
RTVSPost2010PropOp30
 70
     1
102
RTVSPost2010Prop31
280
     0
102
RTVSPost2010PropOp31
 70
     1
102
RTVSPost2010Prop32
280
     0
102
RTVSPost2010PropOp32
 70
     1
102
RTVSPost2010Prop33
280
     0
102
RTVSPost2010PropOp33
 70
     1
102
RTVSPost2010Prop34
280
     0
102
RTVSPost2010PropOp34
 70
     1
102
RTVSPost2010Prop35
280
     0
102
RTVSPost2010PropOp35
 70
     1
102
RTVSPost2010Prop36
280
     0
102
RTVSPost2010PropOp36
 70
     1
102
RTVSPost2010Prop37
 90
       50
102
RTVSPost2010PropOp37
 70
     1
102
RTVSPost2010Prop38
140
0.0
102
RTVSPost2010PropOp38
 70
     1
102
RTVSPost2010Prop39
140
1.0
102
RTVSPost2010PropOp39
 70
     1
102
RTVSPost2010Prop40
 90
        0
102
RTVSPost2010PropOp40
 70
     1
102
RTVSPost2010Prop41ColorIndex
 90
       18
102
RTVSPost2010Prop41ColorRGB
 90
        0
102
RTVSPost2010PropOp41
 70
     1
102
RTVSPost2010Prop42
 90
       50
102
RTVSPost2010PropOp42
 70
     1
102
RTVSPost2010Prop43
 90
        3
102
RTVSPost2010PropOp43
 70
     1
102
RTVSPost2010Prop44ColorIndex
 90
        5
102
RTVSPost2010Prop44ColorRGB
 90
      255
102
RTVSPost2010PropOp44
 70
     1
102
RTVSPost2010Prop45
280
     0
102
RTVSPost2010PropOp45
 70
     1
102
RTVSPost2010Prop46
 90
       50
102
RTVSPost2010PropOp46
 70
     1
102
RTVSPost2010Prop47
 90
       50
102
RTVSPost2010PropOp47
 70
     1
102
RTVSPost2010Prop48
 90
       50
102
RTVSPost2010PropOp48
 70
     1
102
RTVSPost2010Prop49
280
     0
102
RTVSPost2010PropOp49
 70
     1
102
RTVSPost2010Prop50
 90
       50
102
RTVSPost2010PropOp50
 70
     1
102
RTVSPost2010Prop51ColorIndex
 90
      256
102
RTVSPost2010Prop51ColorRGB
 90
-16777216
102
RTVSPost2010PropOp51
 70
     0
102
RTVSPost2010Prop52
140
1.0
102
RTVSPost2010PropOp52
 70
     0
102
RTVSPost2010Prop53
 90
        2
102
RTVSPost2010PropOp53
 70
     1
102
RTVSPost2010Prop54
  1
strokes_ogs.tif
102
RTVSPost2010PropOp54
 70
     1
102
RTVSPost2010Prop55
280
     0
102
RTVSPost2010PropOp55
 70
     1
102
RTVSPost2010Prop56
140
1.0
102
RTVSPost2010PropOp56
 70
     1
102
RTVSPost2010Prop57
140
1.0
102
RTVSPost2010PropOp57
 70
     1
102
RTVSPropertyOp0
 70
     1
102
RTVSPropertyOp1
 70
     1
102
RTVSPropertyOp2
 70
     1
102
RTVSPropertyOp3
 70
     1
102
RTVSPropertyOp4
 70
     1
102
RTVSPropertyOp5
 70
     1
102
RTVSPropertyOp6
 70
     1
102
RTVSPropertyOp7
 70
     1
102
RTVSPropertyOp8
 70
     1
102
RTVSPropertyOp9
 70
     1
102
RTVSPropertyOp10
 70
     1
102
RTVSPropertyOp11
 70
     1
102
RTVSPropertyOp12
 70
     1
102
RTVSPropertyOp13
 70
     1
102
RTVSPropertyOp14
 70
     1
102
RTVSPropertyOp15
 70
     1
102
RTVSPropertyOp16
 70
     1
102
RTVSPropertyOp17
 70
     1
102
RTVSPropertyOp18
 70
     1
102
RTVSPropertyOp19
 70
     1
102
RTVSPropertyOp20
 70
     1
102
RTVSPropertyOp21
 70
     1
102
RTVSPropertyOp22
 70
     1
102
RTVSPropertyOp23
 70
     1
102
RTVSPropertyOp24
 70
     1
102
RTVSPropertyOp25
 70
     1
102
RTVSPropertyOp26
 70
     1
102
RTVSPropertyOp27
 70
     1
102
RTVSPropertyOp28
 70
     1
102
RTVSPropertyOp29
 70
     1
102
RTVSPropertyOp30
 70
     1
102
RTVSPropertyOp31
 70
     1
102
RTVSPropertyOp32
 70
     1
102
RTVSPropertyOp33
 70
     1
102
RTVSPropertyOp34
 70
     1
102
RTVSPropertyOp35
 70
     1
102
RTVSPropertyOp36
 70
     1
102
RTVSPropertyOp37
 70
     1
102
RTVSPropertyOp38
 70
     1
102
RTVSPropertyOp39
 70
     1
102
RTVSPropertyOp40
 70
     1
102
RTVSPropertyOp41
 70
     1
102
RTVSPropertyOp42
 70
     1
102
RTVSPropertyOp43
 70
     1
102
RTVSPropertyOp44
 70
     1
102
RTVSPropertyOp45
 70
     1
102
RTVSPropertyOp46
 70
     1
102
RTVSPropertyOp47
 70
     1
102
RTVSPropertyOp48
 70
     1
102
RTVSPropertyOp49
 70
     1
102
RTVSPropertyOp50
 70
     1
102
RTVSPropertyOp51
 70
     0
102
RTVSPropertyOp52
 70
     0
102
RTVSPropertyOp53
 70
     1
102
RTVSPropertyOp54
 70
     1
102
RTVSPropertyOp55
 70
     1
102
RTVSPropertyOp56
 70
     1
102
RTVSPropertyOp57
 70
     1
102
RTVSPropertyOp58
 70
     1
102
RTVSPropertyOp59
 70
     1
102
RTVSPropertyOp60
 70
     1
102
RTVSPropertyOp61
 70
     1
102
RTVSPropertyOp62
 70
     1
  0
XRECORD
  5
A526
102
{ACAD_REACTORS
330
A525
102
}
330
A525
100
AcDbXrecord
280
     1
102
RTVSPost2010Prop28
280
     0
102
RTVSPost2010PropOp28
 70
     1
102
RTVSPost2010Prop29
280
     1
102
RTVSPost2010PropOp29
 70
     1
102
RTVSPost2010Prop30
280
     1
102
RTVSPost2010PropOp30
 70
     1
102
RTVSPost2010Prop31
280
     0
102
RTVSPost2010PropOp31
 70
     1
102
RTVSPost2010Prop32
280
     0
102
RTVSPost2010PropOp32
 70
     1
102
RTVSPost2010Prop33
280
     0
102
RTVSPost2010PropOp33
 70
     1
102
RTVSPost2010Prop34
280
     0
102
RTVSPost2010PropOp34
 70
     1
102
RTVSPost2010Prop35
280
     0
102
RTVSPost2010PropOp35
 70
     1
102
RTVSPost2010Prop36
280
     0
102
RTVSPost2010PropOp36
 70
     1
102
RTVSPost2010Prop37
 90
       50
102
RTVSPost2010PropOp37
 70
     1
102
RTVSPost2010Prop38
140
0.0
102
RTVSPost2010PropOp38
 70
     1
102
RTVSPost2010Prop39
140
1.0
102
RTVSPost2010PropOp39
 70
     1
102
RTVSPost2010Prop40
 90
        0
102
RTVSPost2010PropOp40
 70
     1
102
RTVSPost2010Prop41ColorIndex
 90
       18
102
RTVSPost2010Prop41ColorRGB
 90
        0
102
RTVSPost2010PropOp41
 70
     1
102
RTVSPost2010Prop42
 90
       50
102
RTVSPost2010PropOp42
 70
     1
102
RTVSPost2010Prop43
 90
        3
102
RTVSPost2010PropOp43
 70
     1
102
RTVSPost2010Prop44ColorIndex
 90
        5
102
RTVSPost2010Prop44ColorRGB
 90
      255
102
RTVSPost2010PropOp44
 70
     1
102
RTVSPost2010Prop45
280
     0
102
RTVSPost2010PropOp45
 70
     1
102
RTVSPost2010Prop46
 90
       50
102
RTVSPost2010PropOp46
 70
     1
102
RTVSPost2010Prop47
 90
       50
102
RTVSPost2010PropOp47
 70
     1
102
RTVSPost2010Prop48
 90
       50
102
RTVSPost2010PropOp48
 70
     1
102
RTVSPost2010Prop49
280
     0
102
RTVSPost2010PropOp49
 70
     1
102
RTVSPost2010Prop50
 90
       50
102
RTVSPost2010PropOp50
 70
     1
102
RTVSPost2010Prop51ColorIndex
 90
      256
102
RTVSPost2010Prop51ColorRGB
 90
-16777216
102
RTVSPost2010PropOp51
 70
     0
102
RTVSPost2010Prop52
140
1.0
102
RTVSPost2010PropOp52
 70
     0
102
RTVSPost2010Prop53
 90
        2
102
RTVSPost2010PropOp53
 70
     1
102
RTVSPost2010Prop54
  1
strokes_ogs.tif
102
RTVSPost2010PropOp54
 70
     1
102
RTVSPost2010Prop55
280
     0
102
RTVSPost2010PropOp55
 70
     1
102
RTVSPost2010Prop56
140
1.0
102
RTVSPost2010PropOp56
 70
     1
102
RTVSPost2010Prop57
140
1.0
102
RTVSPost2010PropOp57
 70
     1
102
RTVSPropertyOp0
 70
     1
102
RTVSPropertyOp1
 70
     1
102
RTVSPropertyOp2
 70
     1
102
RTVSPropertyOp3
 70
     1
102
RTVSPropertyOp4
 70
     1
102
RTVSPropertyOp5
 70
     1
102
RTVSPropertyOp6
 70
     1
102
RTVSPropertyOp7
 70
     1
102
RTVSPropertyOp8
 70
     1
102
RTVSPropertyOp9
 70
     1
102
RTVSPropertyOp10
 70
     1
102
RTVSPropertyOp11
 70
     1
102
RTVSPropertyOp12
 70
     1
102
RTVSPropertyOp13
 70
     1
102
RTVSPropertyOp14
 70
     1
102
RTVSPropertyOp15
 70
     1
102
RTVSPropertyOp16
 70
     1
102
RTVSPropertyOp17
 70
     1
102
RTVSPropertyOp18
 70
     1
102
RTVSPropertyOp19
 70
     1
102
RTVSPropertyOp20
 70
     1
102
RTVSPropertyOp21
 70
     1
102
RTVSPropertyOp22
 70
     1
102
RTVSPropertyOp23
 70
     1
102
RTVSPropertyOp24
 70
     1
102
RTVSPropertyOp25
 70
     1
102
RTVSPropertyOp26
 70
     1
102
RTVSPropertyOp27
 70
     1
102
RTVSPropertyOp28
 70
     1
102
RTVSPropertyOp29
 70
     1
102
RTVSPropertyOp30
 70
     1
102
RTVSPropertyOp31
 70
     1
102
RTVSPropertyOp32
 70
     1
102
RTVSPropertyOp33
 70
     1
102
RTVSPropertyOp34
 70
     1
102
RTVSPropertyOp35
 70
     1
102
RTVSPropertyOp36
 70
     1
102
RTVSPropertyOp37
 70
     1
102
RTVSPropertyOp38
 70
     1
102
RTVSPropertyOp39
 70
     1
102
RTVSPropertyOp40
 70
     1
102
RTVSPropertyOp41
 70
     1
102
RTVSPropertyOp42
 70
     1
102
RTVSPropertyOp43
 70
     1
102
RTVSPropertyOp44
 70
     1
102
RTVSPropertyOp45
 70
     1
102
RTVSPropertyOp46
 70
     1
102
RTVSPropertyOp47
 70
     1
102
RTVSPropertyOp48
 70
     1
102
RTVSPropertyOp49
 70
     1
102
RTVSPropertyOp50
 70
     1
102
RTVSPropertyOp51
 70
     0
102
RTVSPropertyOp52
 70
     0
102
RTVSPropertyOp53
 70
     1
102
RTVSPropertyOp54
 70
     1
102
RTVSPropertyOp55
 70
     1
102
RTVSPropertyOp56
 70
     1
102
RTVSPropertyOp57
 70
     1
102
RTVSPropertyOp58
 70
     1
102
RTVSPropertyOp59
 70
     1
102
RTVSPropertyOp60
 70
     1
102
RTVSPropertyOp61
 70
     1
102
RTVSPropertyOp62
 70
     1
  0
XRECORD
  5
A534
102
{ACAD_REACTORS
330
A533
102
}
330
A533
100
AcDbXrecord
280
     1
102
RTVSPost2010Prop28
280
     0
102
RTVSPost2010PropOp28
 70
     1
102
RTVSPost2010Prop29
280
     1
102
RTVSPost2010PropOp29
 70
     1
102
RTVSPost2010Prop30
280
     1
102
RTVSPost2010PropOp30
 70
     1
102
RTVSPost2010Prop31
280
     0
102
RTVSPost2010PropOp31
 70
     1
102
RTVSPost2010Prop32
280
     0
102
RTVSPost2010PropOp32
 70
     1
102
RTVSPost2010Prop33
280
     0
102
RTVSPost2010PropOp33
 70
     1
102
RTVSPost2010Prop34
280
     0
102
RTVSPost2010PropOp34
 70
     1
102
RTVSPost2010Prop35
280
     0
102
RTVSPost2010PropOp35
 70
     1
102
RTVSPost2010Prop36
280
     0
102
RTVSPost2010PropOp36
 70
     1
102
RTVSPost2010Prop37
 90
       50
102
RTVSPost2010PropOp37
 70
     1
102
RTVSPost2010Prop38
140
0.0
102
RTVSPost2010PropOp38
 70
     1
102
RTVSPost2010Prop39
140
1.0
102
RTVSPost2010PropOp39
 70
     1
102
RTVSPost2010Prop40
 90
        0
102
RTVSPost2010PropOp40
 70
     1
102
RTVSPost2010Prop41ColorIndex
 90
       18
102
RTVSPost2010Prop41ColorRGB
 90
        0
102
RTVSPost2010PropOp41
 70
     1
102
RTVSPost2010Prop42
 90
       50
102
RTVSPost2010PropOp42
 70
     1
102
RTVSPost2010Prop43
 90
        3
102
RTVSPost2010PropOp43
 70
     1
102
RTVSPost2010Prop44ColorIndex
 90
        5
102
RTVSPost2010Prop44ColorRGB
 90
      255
102
RTVSPost2010PropOp44
 70
     1
102
RTVSPost2010Prop45
280
     0
102
RTVSPost2010PropOp45
 70
     1
102
RTVSPost2010Prop46
 90
       50
102
RTVSPost2010PropOp46
 70
     1
102
RTVSPost2010Prop47
 90
       50
102
RTVSPost2010PropOp47
 70
     1
102
RTVSPost2010Prop48
 90
       50
102
RTVSPost2010PropOp48
 70
     1
102
RTVSPost2010Prop49
280
     0
102
RTVSPost2010PropOp49
 70
     1
102
RTVSPost2010Prop50
 90
       50
102
RTVSPost2010PropOp50
 70
     1
102
RTVSPost2010Prop51ColorIndex
 90
      256
102
RTVSPost2010Prop51ColorRGB
 90
-16777216
102
RTVSPost2010PropOp51
 70
     0
102
RTVSPost2010Prop52
140
1.0
102
RTVSPost2010PropOp52
 70
     0
102
RTVSPost2010Prop53
 90
        2
102
RTVSPost2010PropOp53
 70
     1
102
RTVSPost2010Prop54
  1
strokes_ogs.tif
102
RTVSPost2010PropOp54
 70
     1
102
RTVSPost2010Prop55
280
     0
102
RTVSPost2010PropOp55
 70
     1
102
RTVSPost2010Prop56
140
1.0
102
RTVSPost2010PropOp56
 70
     1
102
RTVSPost2010Prop57
140
1.0
102
RTVSPost2010PropOp57
 70
     1
102
RTVSPropertyOp0
 70
     1
102
RTVSPropertyOp1
 70
     1
102
RTVSPropertyOp2
 70
     1
102
RTVSPropertyOp3
 70
     1
102
RTVSPropertyOp4
 70
     1
102
RTVSPropertyOp5
 70
     1
102
RTVSPropertyOp6
 70
     1
102
RTVSPropertyOp7
 70
     1
102
RTVSPropertyOp8
 70
     1
102
RTVSPropertyOp9
 70
     1
102
RTVSPropertyOp10
 70
     1
102
RTVSPropertyOp11
 70
     1
102
RTVSPropertyOp12
 70
     1
102
RTVSPropertyOp13
 70
     1
102
RTVSPropertyOp14
 70
     1
102
RTVSPropertyOp15
 70
     1
102
RTVSPropertyOp16
 70
     1
102
RTVSPropertyOp17
 70
     1
102
RTVSPropertyOp18
 70
     1
102
RTVSPropertyOp19
 70
     1
102
RTVSPropertyOp20
 70
     1
102
RTVSPropertyOp21
 70
     1
102
RTVSPropertyOp22
 70
     1
102
RTVSPropertyOp23
 70
     1
102
RTVSPropertyOp24
 70
     1
102
RTVSPropertyOp25
 70
     1
102
RTVSPropertyOp26
 70
     1
102
RTVSPropertyOp27
 70
     1
102
RTVSPropertyOp28
 70
     1
102
RTVSPropertyOp29
 70
     1
102
RTVSPropertyOp30
 70
     1
102
RTVSPropertyOp31
 70
     1
102
RTVSPropertyOp32
 70
     1
102
RTVSPropertyOp33
 70
     1
102
RTVSPropertyOp34
 70
     1
102
RTVSPropertyOp35
 70
     1
102
RTVSPropertyOp36
 70
     1
102
RTVSPropertyOp37
 70
     1
102
RTVSPropertyOp38
 70
     1
102
RTVSPropertyOp39
 70
     1
102
RTVSPropertyOp40
 70
     1
102
RTVSPropertyOp41
 70
     1
102
RTVSPropertyOp42
 70
     1
102
RTVSPropertyOp43
 70
     1
102
RTVSPropertyOp44
 70
     1
102
RTVSPropertyOp45
 70
     1
102
RTVSPropertyOp46
 70
     1
102
RTVSPropertyOp47
 70
     1
102
RTVSPropertyOp48
 70
     1
102
RTVSPropertyOp49
 70
     1
102
RTVSPropertyOp50
 70
     1
102
RTVSPropertyOp51
 70
     0
102
RTVSPropertyOp52
 70
     0
102
RTVSPropertyOp53
 70
     1
102
RTVSPropertyOp54
 70
     1
102
RTVSPropertyOp55
 70
     1
102
RTVSPropertyOp56
 70
     1
102
RTVSPropertyOp57
 70
     1
102
RTVSPropertyOp58
 70
     1
102
RTVSPropertyOp59
 70
     1
102
RTVSPropertyOp60
 70
     1
102
RTVSPropertyOp61
 70
     1
102
RTVSPropertyOp62
 70
     1
  0
XRECORD
  5
A53C
102
{ACAD_REACTORS
330
A53B
102
}
330
A53B
100
AcDbXrecord
280
     1
102
RTVSPost2010Prop28
280
     0
102
RTVSPost2010PropOp28
 70
     1
102
RTVSPost2010Prop29
280
     1
102
RTVSPost2010PropOp29
 70
     1
102
RTVSPost2010Prop30
280
     1
102
RTVSPost2010PropOp30
 70
     1
102
RTVSPost2010Prop31
280
     0
102
RTVSPost2010PropOp31
 70
     1
102
RTVSPost2010Prop32
280
     0
102
RTVSPost2010PropOp32
 70
     1
102
RTVSPost2010Prop33
280
     0
102
RTVSPost2010PropOp33
 70
     1
102
RTVSPost2010Prop34
280
     0
102
RTVSPost2010PropOp34
 70
     1
102
RTVSPost2010Prop35
280
     0
102
RTVSPost2010PropOp35
 70
     1
102
RTVSPost2010Prop36
280
     0
102
RTVSPost2010PropOp36
 70
     1
102
RTVSPost2010Prop37
 90
       50
102
RTVSPost2010PropOp37
 70
     1
102
RTVSPost2010Prop38
140
0.0
102
RTVSPost2010PropOp38
 70
     1
102
RTVSPost2010Prop39
140
1.0
102
RTVSPost2010PropOp39
 70
     1
102
RTVSPost2010Prop40
 90
        0
102
RTVSPost2010PropOp40
 70
     1
102
RTVSPost2010Prop41ColorIndex
 90
       18
102
RTVSPost2010Prop41ColorRGB
 90
        0
102
RTVSPost2010PropOp41
 70
     1
102
RTVSPost2010Prop42
 90
       50
102
RTVSPost2010PropOp42
 70
     1
102
RTVSPost2010Prop43
 90
        3
102
RTVSPost2010PropOp43
 70
     1
102
RTVSPost2010Prop44ColorIndex
 90
        5
102
RTVSPost2010Prop44ColorRGB
 90
      255
102
RTVSPost2010PropOp44
 70
     1
102
RTVSPost2010Prop45
280
     0
102
RTVSPost2010PropOp45
 70
     1
102
RTVSPost2010Prop46
 90
       50
102
RTVSPost2010PropOp46
 70
     1
102
RTVSPost2010Prop47
 90
       50
102
RTVSPost2010PropOp47
 70
     1
102
RTVSPost2010Prop48
 90
       50
102
RTVSPost2010PropOp48
 70
     1
102
RTVSPost2010Prop49
280
     0
102
RTVSPost2010PropOp49
 70
     1
102
RTVSPost2010Prop50
 90
       50
102
RTVSPost2010PropOp50
 70
     1
102
RTVSPost2010Prop51ColorIndex
 90
      256
102
RTVSPost2010Prop51ColorRGB
 90
-16777216
102
RTVSPost2010PropOp51
 70
     0
102
RTVSPost2010Prop52
140
1.0
102
RTVSPost2010PropOp52
 70
     0
102
RTVSPost2010Prop53
 90
        2
102
RTVSPost2010PropOp53
 70
     1
102
RTVSPost2010Prop54
  1
strokes_ogs.tif
102
RTVSPost2010PropOp54
 70
     1
102
RTVSPost2010Prop55
280
     0
102
RTVSPost2010PropOp55
 70
     1
102
RTVSPost2010Prop56
140
1.0
102
RTVSPost2010PropOp56
 70
     1
102
RTVSPost2010Prop57
140
1.0
102
RTVSPost2010PropOp57
 70
     1
102
RTVSPropertyOp0
 70
     1
102
RTVSPropertyOp1
 70
     1
102
RTVSPropertyOp2
 70
     1
102
RTVSPropertyOp3
 70
     1
102
RTVSPropertyOp4
 70
     1
102
RTVSPropertyOp5
 70
     1
102
RTVSPropertyOp6
 70
     1
102
RTVSPropertyOp7
 70
     1
102
RTVSPropertyOp8
 70
     1
102
RTVSPropertyOp9
 70
     1
102
RTVSPropertyOp10
 70
     1
102
RTVSPropertyOp11
 70
     1
102
RTVSPropertyOp12
 70
     1
102
RTVSPropertyOp13
 70
     1
102
RTVSPropertyOp14
 70
     1
102
RTVSPropertyOp15
 70
     1
102
RTVSPropertyOp16
 70
     1
102
RTVSPropertyOp17
 70
     1
102
RTVSPropertyOp18
 70
     1
102
RTVSPropertyOp19
 70
     1
102
RTVSPropertyOp20
 70
     1
102
RTVSPropertyOp21
 70
     1
102
RTVSPropertyOp22
 70
     1
102
RTVSPropertyOp23
 70
     1
102
RTVSPropertyOp24
 70
     1
102
RTVSPropertyOp25
 70
     1
102
RTVSPropertyOp26
 70
     1
102
RTVSPropertyOp27
 70
     1
102
RTVSPropertyOp28
 70
     1
102
RTVSPropertyOp29
 70
     1
102
RTVSPropertyOp30
 70
     1
102
RTVSPropertyOp31
 70
     1
102
RTVSPropertyOp32
 70
     1
102
RTVSPropertyOp33
 70
     1
102
RTVSPropertyOp34
 70
     1
102
RTVSPropertyOp35
 70
     1
102
RTVSPropertyOp36
 70
     1
102
RTVSPropertyOp37
 70
     1
102
RTVSPropertyOp38
 70
     1
102
RTVSPropertyOp39
 70
     1
102
RTVSPropertyOp40
 70
     1
102
RTVSPropertyOp41
 70
     1
102
RTVSPropertyOp42
 70
     1
102
RTVSPropertyOp43
 70
     1
102
RTVSPropertyOp44
 70
     1
102
RTVSPropertyOp45
 70
     1
102
RTVSPropertyOp46
 70
     1
102
RTVSPropertyOp47
 70
     1
102
RTVSPropertyOp48
 70
     1
102
RTVSPropertyOp49
 70
     1
102
RTVSPropertyOp50
 70
     1
102
RTVSPropertyOp51
 70
     0
102
RTVSPropertyOp52
 70
     0
102
RTVSPropertyOp53
 70
     1
102
RTVSPropertyOp54
 70
     1
102
RTVSPropertyOp55
 70
     1
102
RTVSPropertyOp56
 70
     1
102
RTVSPropertyOp57
 70
     1
102
RTVSPropertyOp58
 70
     1
102
RTVSPropertyOp59
 70
     1
102
RTVSPropertyOp60
 70
     1
102
RTVSPropertyOp61
 70
     1
102
RTVSPropertyOp62
 70
     1
  0
XRECORD
  5
A52E
102
{ACAD_REACTORS
330
A52D
102
}
330
A52D
100
AcDbXrecord
280
     1
102
RTVSPost2010Prop28
280
     0
102
RTVSPost2010PropOp28
 70
     1
102
RTVSPost2010Prop29
280
     1
102
RTVSPost2010PropOp29
 70
     1
102
RTVSPost2010Prop30
280
     1
102
RTVSPost2010PropOp30
 70
     1
102
RTVSPost2010Prop31
280
     0
102
RTVSPost2010PropOp31
 70
     1
102
RTVSPost2010Prop32
280
     0
102
RTVSPost2010PropOp32
 70
     1
102
RTVSPost2010Prop33
280
     0
102
RTVSPost2010PropOp33
 70
     1
102
RTVSPost2010Prop34
280
     0
102
RTVSPost2010PropOp34
 70
     1
102
RTVSPost2010Prop35
280
     0
102
RTVSPost2010PropOp35
 70
     1
102
RTVSPost2010Prop36
280
     0
102
RTVSPost2010PropOp36
 70
     1
102
RTVSPost2010Prop37
 90
       50
102
RTVSPost2010PropOp37
 70
     1
102
RTVSPost2010Prop38
140
0.0
102
RTVSPost2010PropOp38
 70
     1
102
RTVSPost2010Prop39
140
1.0
102
RTVSPost2010PropOp39
 70
     1
102
RTVSPost2010Prop40
 90
        0
102
RTVSPost2010PropOp40
 70
     1
102
RTVSPost2010Prop41ColorIndex
 90
       18
102
RTVSPost2010Prop41ColorRGB
 90
        0
102
RTVSPost2010PropOp41
 70
     1
102
RTVSPost2010Prop42
 90
       50
102
RTVSPost2010PropOp42
 70
     1
102
RTVSPost2010Prop43
 90
        3
102
RTVSPost2010PropOp43
 70
     1
102
RTVSPost2010Prop44ColorIndex
 90
        5
102
RTVSPost2010Prop44ColorRGB
 90
      255
102
RTVSPost2010PropOp44
 70
     1
102
RTVSPost2010Prop45
280
     0
102
RTVSPost2010PropOp45
 70
     1
102
RTVSPost2010Prop46
 90
       50
102
RTVSPost2010PropOp46
 70
     1
102
RTVSPost2010Prop47
 90
       50
102
RTVSPost2010PropOp47
 70
     1
102
RTVSPost2010Prop48
 90
       50
102
RTVSPost2010PropOp48
 70
     1
102
RTVSPost2010Prop49
280
     0
102
RTVSPost2010PropOp49
 70
     1
102
RTVSPost2010Prop50
 90
       50
102
RTVSPost2010PropOp50
 70
     1
102
RTVSPost2010Prop51ColorIndex
 90
      256
102
RTVSPost2010Prop51ColorRGB
 90
-16777216
102
RTVSPost2010PropOp51
 70
     0
102
RTVSPost2010Prop52
140
1.0
102
RTVSPost2010PropOp52
 70
     0
102
RTVSPost2010Prop53
 90
        2
102
RTVSPost2010PropOp53
 70
     1
102
RTVSPost2010Prop54
  1
strokes_ogs.tif
102
RTVSPost2010PropOp54
 70
     1
102
RTVSPost2010Prop55
280
     0
102
RTVSPost2010PropOp55
 70
     1
102
RTVSPost2010Prop56
140
1.0
102
RTVSPost2010PropOp56
 70
     1
102
RTVSPost2010Prop57
140
1.0
102
RTVSPost2010PropOp57
 70
     1
102
RTVSPropertyOp0
 70
     1
102
RTVSPropertyOp1
 70
     1
102
RTVSPropertyOp2
 70
     1
102
RTVSPropertyOp3
 70
     1
102
RTVSPropertyOp4
 70
     1
102
RTVSPropertyOp5
 70
     1
102
RTVSPropertyOp6
 70
     1
102
RTVSPropertyOp7
 70
     1
102
RTVSPropertyOp8
 70
     1
102
RTVSPropertyOp9
 70
     1
102
RTVSPropertyOp10
 70
     1
102
RTVSPropertyOp11
 70
     1
102
RTVSPropertyOp12
 70
     1
102
RTVSPropertyOp13
 70
     1
102
RTVSPropertyOp14
 70
     1
102
RTVSPropertyOp15
 70
     1
102
RTVSPropertyOp16
 70
     1
102
RTVSPropertyOp17
 70
     1
102
RTVSPropertyOp18
 70
     1
102
RTVSPropertyOp19
 70
     1
102
RTVSPropertyOp20
 70
     1
102
RTVSPropertyOp21
 70
     1
102
RTVSPropertyOp22
 70
     1
102
RTVSPropertyOp23
 70
     1
102
RTVSPropertyOp24
 70
     1
102
RTVSPropertyOp25
 70
     1
102
RTVSPropertyOp26
 70
     1
102
RTVSPropertyOp27
 70
     1
102
RTVSPropertyOp28
 70
     1
102
RTVSPropertyOp29
 70
     1
102
RTVSPropertyOp30
 70
     1
102
RTVSPropertyOp31
 70
     1
102
RTVSPropertyOp32
 70
     1
102
RTVSPropertyOp33
 70
     1
102
RTVSPropertyOp34
 70
     1
102
RTVSPropertyOp35
 70
     1
102
RTVSPropertyOp36
 70
     1
102
RTVSPropertyOp37
 70
     1
102
RTVSPropertyOp38
 70
     1
102
RTVSPropertyOp39
 70
     1
102
RTVSPropertyOp40
 70
     1
102
RTVSPropertyOp41
 70
     1
102
RTVSPropertyOp42
 70
     1
102
RTVSPropertyOp43
 70
     1
102
RTVSPropertyOp44
 70
     1
102
RTVSPropertyOp45
 70
     1
102
RTVSPropertyOp46
 70
     1
102
RTVSPropertyOp47
 70
     1
102
RTVSPropertyOp48
 70
     1
102
RTVSPropertyOp49
 70
     1
102
RTVSPropertyOp50
 70
     1
102
RTVSPropertyOp51
 70
     0
102
RTVSPropertyOp52
 70
     0
102
RTVSPropertyOp53
 70
     1
102
RTVSPropertyOp54
 70
     1
102
RTVSPropertyOp55
 70
     1
102
RTVSPropertyOp56
 70
     1
102
RTVSPropertyOp57
 70
     1
102
RTVSPropertyOp58
 70
     1
102
RTVSPropertyOp59
 70
     1
102
RTVSPropertyOp60
 70
     1
102
RTVSPropertyOp61
 70
     1
102
RTVSPropertyOp62
 70
     1
  0
XRECORD
  5
A532
102
{ACAD_REACTORS
330
A531
102
}
330
A531
100
AcDbXrecord
280
     1
102
RTVSPost2010Prop28
280
     0
102
RTVSPost2010PropOp28
 70
     1
102
RTVSPost2010Prop29
280
     1
102
RTVSPost2010PropOp29
 70
     1
102
RTVSPost2010Prop30
280
     1
102
RTVSPost2010PropOp30
 70
     1
102
RTVSPost2010Prop31
280
     0
102
RTVSPost2010PropOp31
 70
     1
102
RTVSPost2010Prop32
280
     0
102
RTVSPost2010PropOp32
 70
     1
102
RTVSPost2010Prop33
280
     0
102
RTVSPost2010PropOp33
 70
     1
102
RTVSPost2010Prop34
280
     0
102
RTVSPost2010PropOp34
 70
     1
102
RTVSPost2010Prop35
280
     0
102
RTVSPost2010PropOp35
 70
     1
102
RTVSPost2010Prop36
280
     0
102
RTVSPost2010PropOp36
 70
     1
102
RTVSPost2010Prop37
 90
       50
102
RTVSPost2010PropOp37
 70
     1
102
RTVSPost2010Prop38
140
0.0
102
RTVSPost2010PropOp38
 70
     1
102
RTVSPost2010Prop39
140
1.0
102
RTVSPost2010PropOp39
 70
     1
102
RTVSPost2010Prop40
 90
        0
102
RTVSPost2010PropOp40
 70
     1
102
RTVSPost2010Prop41ColorIndex
 90
       18
102
RTVSPost2010Prop41ColorRGB
 90
        0
102
RTVSPost2010PropOp41
 70
     1
102
RTVSPost2010Prop42
 90
       50
102
RTVSPost2010PropOp42
 70
     1
102
RTVSPost2010Prop43
 90
        3
102
RTVSPost2010PropOp43
 70
     1
102
RTVSPost2010Prop44ColorIndex
 90
        5
102
RTVSPost2010Prop44ColorRGB
 90
      255
102
RTVSPost2010PropOp44
 70
     1
102
RTVSPost2010Prop45
280
     0
102
RTVSPost2010PropOp45
 70
     1
102
RTVSPost2010Prop46
 90
       50
102
RTVSPost2010PropOp46
 70
     1
102
RTVSPost2010Prop47
 90
       50
102
RTVSPost2010PropOp47
 70
     1
102
RTVSPost2010Prop48
 90
       50
102
RTVSPost2010PropOp48
 70
     1
102
RTVSPost2010Prop49
280
     0
102
RTVSPost2010PropOp49
 70
     1
102
RTVSPost2010Prop50
 90
       50
102
RTVSPost2010PropOp50
 70
     1
102
RTVSPost2010Prop51ColorIndex
 90
      256
102
RTVSPost2010Prop51ColorRGB
 90
-16777216
102
RTVSPost2010PropOp51
 70
     0
102
RTVSPost2010Prop52
140
1.0
102
RTVSPost2010PropOp52
 70
     0
102
RTVSPost2010Prop53
 90
        2
102
RTVSPost2010PropOp53
 70
     1
102
RTVSPost2010Prop54
  1
strokes_ogs.tif
102
RTVSPost2010PropOp54
 70
     1
102
RTVSPost2010Prop55
280
     0
102
RTVSPost2010PropOp55
 70
     1
102
RTVSPost2010Prop56
140
1.0
102
RTVSPost2010PropOp56
 70
     1
102
RTVSPost2010Prop57
140
1.0
102
RTVSPost2010PropOp57
 70
     1
102
RTVSPropertyOp0
 70
     1
102
RTVSPropertyOp1
 70
     1
102
RTVSPropertyOp2
 70
     1
102
RTVSPropertyOp3
 70
     1
102
RTVSPropertyOp4
 70
     1
102
RTVSPropertyOp5
 70
     1
102
RTVSPropertyOp6
 70
     1
102
RTVSPropertyOp7
 70
     1
102
RTVSPropertyOp8
 70
     1
102
RTVSPropertyOp9
 70
     1
102
RTVSPropertyOp10
 70
     1
102
RTVSPropertyOp11
 70
     1
102
RTVSPropertyOp12
 70
     1
102
RTVSPropertyOp13
 70
     1
102
RTVSPropertyOp14
 70
     1
102
RTVSPropertyOp15
 70
     1
102
RTVSPropertyOp16
 70
     1
102
RTVSPropertyOp17
 70
     1
102
RTVSPropertyOp18
 70
     1
102
RTVSPropertyOp19
 70
     1
102
RTVSPropertyOp20
 70
     1
102
RTVSPropertyOp21
 70
     1
102
RTVSPropertyOp22
 70
     1
102
RTVSPropertyOp23
 70
     1
102
RTVSPropertyOp24
 70
     1
102
RTVSPropertyOp25
 70
     1
102
RTVSPropertyOp26
 70
     1
102
RTVSPropertyOp27
 70
     1
102
RTVSPropertyOp28
 70
     1
102
RTVSPropertyOp29
 70
     1
102
RTVSPropertyOp30
 70
     1
102
RTVSPropertyOp31
 70
     1
102
RTVSPropertyOp32
 70
     1
102
RTVSPropertyOp33
 70
     1
102
RTVSPropertyOp34
 70
     1
102
RTVSPropertyOp35
 70
     1
102
RTVSPropertyOp36
 70
     1
102
RTVSPropertyOp37
 70
     1
102
RTVSPropertyOp38
 70
     1
102
RTVSPropertyOp39
 70
     1
102
RTVSPropertyOp40
 70
     1
102
RTVSPropertyOp41
 70
     1
102
RTVSPropertyOp42
 70
     1
102
RTVSPropertyOp43
 70
     1
102
RTVSPropertyOp44
 70
     1
102
RTVSPropertyOp45
 70
     1
102
RTVSPropertyOp46
 70
     1
102
RTVSPropertyOp47
 70
     1
102
RTVSPropertyOp48
 70
     1
102
RTVSPropertyOp49
 70
     1
102
RTVSPropertyOp50
 70
     1
102
RTVSPropertyOp51
 70
     0
102
RTVSPropertyOp52
 70
     0
102
RTVSPropertyOp53
 70
     1
102
RTVSPropertyOp54
 70
     1
102
RTVSPropertyOp55
 70
     1
102
RTVSPropertyOp56
 70
     1
102
RTVSPropertyOp57
 70
     1
102
RTVSPropertyOp58
 70
     1
102
RTVSPropertyOp59
 70
     1
102
RTVSPropertyOp60
 70
     1
102
RTVSPropertyOp61
 70
     1
102
RTVSPropertyOp62
 70
     1
  0
XRECORD
  5
A54C
102
{ACAD_REACTORS
330
A54B
102
}
330
A54B
100
AcDbXrecord
280
     1
102
RTVSPost2010Prop28
280
     0
102
RTVSPost2010PropOp28
 70
     1
102
RTVSPost2010Prop29
280
     1
102
RTVSPost2010PropOp29
 70
     1
102
RTVSPost2010Prop30
280
     1
102
RTVSPost2010PropOp30
 70
     1
102
RTVSPost2010Prop31
280
     0
102
RTVSPost2010PropOp31
 70
     1
102
RTVSPost2010Prop32
280
     0
102
RTVSPost2010PropOp32
 70
     1
102
RTVSPost2010Prop33
280
     0
102
RTVSPost2010PropOp33
 70
     1
102
RTVSPost2010Prop34
280
     0
102
RTVSPost2010PropOp34
 70
     1
102
RTVSPost2010Prop35
280
     0
102
RTVSPost2010PropOp35
 70
     1
102
RTVSPost2010Prop36
280
     0
102
RTVSPost2010PropOp36
 70
     1
102
RTVSPost2010Prop37
 90
       50
102
RTVSPost2010PropOp37
 70
     0
102
RTVSPost2010Prop38
140
0.0
102
RTVSPost2010PropOp38
 70
     0
102
RTVSPost2010Prop39
140
1.0
102
RTVSPost2010PropOp39
 70
     0
102
RTVSPost2010Prop40
 90
        0
102
RTVSPost2010PropOp40
 70
     0
102
RTVSPost2010Prop41ColorIndex
 90
       18
102
RTVSPost2010Prop41ColorRGB
 90
        0
102
RTVSPost2010PropOp41
 70
     0
102
RTVSPost2010Prop42
 90
       50
102
RTVSPost2010PropOp42
 70
     0
102
RTVSPost2010Prop43
 90
        3
102
RTVSPost2010PropOp43
 70
     0
102
RTVSPost2010Prop44ColorIndex
 90
        5
102
RTVSPost2010Prop44ColorRGB
 90
      255
102
RTVSPost2010PropOp44
 70
     0
102
RTVSPost2010Prop45
280
     0
102
RTVSPost2010PropOp45
 70
     1
102
RTVSPost2010Prop46
 90
       50
102
RTVSPost2010PropOp46
 70
     0
102
RTVSPost2010Prop47
 90
       50
102
RTVSPost2010PropOp47
 70
     0
102
RTVSPost2010Prop48
 90
       50
102
RTVSPost2010PropOp48
 70
     0
102
RTVSPost2010Prop49
280
     0
102
RTVSPost2010PropOp49
 70
     1
102
RTVSPost2010Prop50
 90
       50
102
RTVSPost2010PropOp50
 70
     0
102
RTVSPost2010Prop51ColorIndex
 90
      256
102
RTVSPost2010Prop51ColorRGB
 90
-16777216
102
RTVSPost2010PropOp51
 70
     0
102
RTVSPost2010Prop52
140
1.0
102
RTVSPost2010PropOp52
 70
     0
102
RTVSPost2010Prop53
 90
        2
102
RTVSPost2010PropOp53
 70
     0
102
RTVSPost2010Prop54
  1
strokes_ogs.tif
102
RTVSPost2010PropOp54
 70
     0
102
RTVSPost2010Prop55
280
     0
102
RTVSPost2010PropOp55
 70
     1
102
RTVSPost2010Prop56
140
1.0
102
RTVSPost2010PropOp56
 70
     0
102
RTVSPost2010Prop57
140
1.0
102
RTVSPost2010PropOp57
 70
     0
102
RTVSPropertyOp0
 70
     0
102
RTVSPropertyOp1
 70
     0
102
RTVSPropertyOp2
 70
     0
102
RTVSPropertyOp3
 70
     0
102
RTVSPropertyOp4
 70
     0
102
RTVSPropertyOp5
 70
     0
102
RTVSPropertyOp6
 70
     0
102
RTVSPropertyOp7
 70
     0
102
RTVSPropertyOp8
 70
     0
102
RTVSPropertyOp9
 70
     0
102
RTVSPropertyOp10
 70
     0
102
RTVSPropertyOp11
 70
     0
102
RTVSPropertyOp12
 70
     0
102
RTVSPropertyOp13
 70
     0
102
RTVSPropertyOp14
 70
     2
102
RTVSPropertyOp15
 70
     0
102
RTVSPropertyOp16
 70
     0
102
RTVSPropertyOp17
 70
     0
102
RTVSPropertyOp18
 70
     0
102
RTVSPropertyOp19
 70
     0
102
RTVSPropertyOp20
 70
     0
102
RTVSPropertyOp21
 70
     0
102
RTVSPropertyOp22
 70
     0
102
RTVSPropertyOp23
 70
     0
102
RTVSPropertyOp24
 70
     0
102
RTVSPropertyOp25
 70
     0
102
RTVSPropertyOp26
 70
     0
102
RTVSPropertyOp27
 70
     0
102
RTVSPropertyOp28
 70
     1
102
RTVSPropertyOp29
 70
     1
102
RTVSPropertyOp30
 70
     1
102
RTVSPropertyOp31
 70
     1
102
RTVSPropertyOp32
 70
     1
102
RTVSPropertyOp33
 70
     1
102
RTVSPropertyOp34
 70
     1
102
RTVSPropertyOp35
 70
     1
102
RTVSPropertyOp36
 70
     1
102
RTVSPropertyOp37
 70
     0
102
RTVSPropertyOp38
 70
     0
102
RTVSPropertyOp39
 70
     0
102
RTVSPropertyOp40
 70
     0
102
RTVSPropertyOp41
 70
     0
102
RTVSPropertyOp42
 70
     0
102
RTVSPropertyOp43
 70
     0
102
RTVSPropertyOp44
 70
     0
102
RTVSPropertyOp45
 70
     1
102
RTVSPropertyOp46
 70
     0
102
RTVSPropertyOp47
 70
     0
102
RTVSPropertyOp48
 70
     0
102
RTVSPropertyOp49
 70
     1
102
RTVSPropertyOp50
 70
     0
102
RTVSPropertyOp51
 70
     0
102
RTVSPropertyOp52
 70
     0
102
RTVSPropertyOp53
 70
     0
102
RTVSPropertyOp54
 70
     0
102
RTVSPropertyOp55
 70
     1
102
RTVSPropertyOp56
 70
     0
102
RTVSPropertyOp57
 70
     0
102
RTVSPropertyOp58
 70
     0
102
RTVSPropertyOp59
 70
     0
102
RTVSPropertyOp60
 70
     0
102
RTVSPropertyOp61
 70
     0
102
RTVSPropertyOp62
 70
     0
  0
XRECORD
  5
A53A
102
{ACAD_REACTORS
330
A539
102
}
330
A539
100
AcDbXrecord
280
     1
102
RTVSPost2010Prop28
280
     0
102
RTVSPost2010PropOp28
 70
     1
102
RTVSPost2010Prop29
280
     1
102
RTVSPost2010PropOp29
 70
     1
102
RTVSPost2010Prop30
280
     1
102
RTVSPost2010PropOp30
 70
     1
102
RTVSPost2010Prop31
280
     0
102
RTVSPost2010PropOp31
 70
     1
102
RTVSPost2010Prop32
280
     0
102
RTVSPost2010PropOp32
 70
     1
102
RTVSPost2010Prop33
280
     0
102
RTVSPost2010PropOp33
 70
     1
102
RTVSPost2010Prop34
280
     0
102
RTVSPost2010PropOp34
 70
     1
102
RTVSPost2010Prop35
280
     0
102
RTVSPost2010PropOp35
 70
     1
102
RTVSPost2010Prop36
280
     0
102
RTVSPost2010PropOp36
 70
     1
102
RTVSPost2010Prop37
 90
       50
102
RTVSPost2010PropOp37
 70
     1
102
RTVSPost2010Prop38
140
0.0
102
RTVSPost2010PropOp38
 70
     1
102
RTVSPost2010Prop39
140
1.0
102
RTVSPost2010PropOp39
 70
     1
102
RTVSPost2010Prop40
 90
        0
102
RTVSPost2010PropOp40
 70
     1
102
RTVSPost2010Prop41ColorIndex
 90
       18
102
RTVSPost2010Prop41ColorRGB
 90
        0
102
RTVSPost2010PropOp41
 70
     1
102
RTVSPost2010Prop42
 90
       50
102
RTVSPost2010PropOp42
 70
     1
102
RTVSPost2010Prop43
 90
        3
102
RTVSPost2010PropOp43
 70
     1
102
RTVSPost2010Prop44ColorIndex
 90
        5
102
RTVSPost2010Prop44ColorRGB
 90
      255
102
RTVSPost2010PropOp44
 70
     1
102
RTVSPost2010Prop45
280
     0
102
RTVSPost2010PropOp45
 70
     1
102
RTVSPost2010Prop46
 90
       50
102
RTVSPost2010PropOp46
 70
     1
102
RTVSPost2010Prop47
 90
       50
102
RTVSPost2010PropOp47
 70
     1
102
RTVSPost2010Prop48
 90
       50
102
RTVSPost2010PropOp48
 70
     1
102
RTVSPost2010Prop49
280
     0
102
RTVSPost2010PropOp49
 70
     1
102
RTVSPost2010Prop50
 90
       50
102
RTVSPost2010PropOp50
 70
     1
102
RTVSPost2010Prop51ColorIndex
 90
      256
102
RTVSPost2010Prop51ColorRGB
 90
-16777216
102
RTVSPost2010PropOp51
 70
     0
102
RTVSPost2010Prop52
140
1.0
102
RTVSPost2010PropOp52
 70
     0
102
RTVSPost2010Prop53
 90
        2
102
RTVSPost2010PropOp53
 70
     1
102
RTVSPost2010Prop54
  1
strokes_ogs.tif
102
RTVSPost2010PropOp54
 70
     1
102
RTVSPost2010Prop55
280
     0
102
RTVSPost2010PropOp55
 70
     1
102
RTVSPost2010Prop56
140
1.0
102
RTVSPost2010PropOp56
 70
     1
102
RTVSPost2010Prop57
140
1.0
102
RTVSPost2010PropOp57
 70
     1
102
RTVSPropertyOp0
 70
     1
102
RTVSPropertyOp1
 70
     1
102
RTVSPropertyOp2
 70
     1
102
RTVSPropertyOp3
 70
     1
102
RTVSPropertyOp4
 70
     1
102
RTVSPropertyOp5
 70
     1
102
RTVSPropertyOp6
 70
     1
102
RTVSPropertyOp7
 70
     1
102
RTVSPropertyOp8
 70
     1
102
RTVSPropertyOp9
 70
     1
102
RTVSPropertyOp10
 70
     1
102
RTVSPropertyOp11
 70
     1
102
RTVSPropertyOp12
 70
     1
102
RTVSPropertyOp13
 70
     1
102
RTVSPropertyOp14
 70
     1
102
RTVSPropertyOp15
 70
     1
102
RTVSPropertyOp16
 70
     1
102
RTVSPropertyOp17
 70
     1
102
RTVSPropertyOp18
 70
     1
102
RTVSPropertyOp19
 70
     1
102
RTVSPropertyOp20
 70
     1
102
RTVSPropertyOp21
 70
     1
102
RTVSPropertyOp22
 70
     1
102
RTVSPropertyOp23
 70
     1
102
RTVSPropertyOp24
 70
     1
102
RTVSPropertyOp25
 70
     1
102
RTVSPropertyOp26
 70
     1
102
RTVSPropertyOp27
 70
     1
102
RTVSPropertyOp28
 70
     1
102
RTVSPropertyOp29
 70
     1
102
RTVSPropertyOp30
 70
     1
102
RTVSPropertyOp31
 70
     1
102
RTVSPropertyOp32
 70
     1
102
RTVSPropertyOp33
 70
     1
102
RTVSPropertyOp34
 70
     1
102
RTVSPropertyOp35
 70
     1
102
RTVSPropertyOp36
 70
     1
102
RTVSPropertyOp37
 70
     1
102
RTVSPropertyOp38
 70
     1
102
RTVSPropertyOp39
 70
     1
102
RTVSPropertyOp40
 70
     1
102
RTVSPropertyOp41
 70
     1
102
RTVSPropertyOp42
 70
     1
102
RTVSPropertyOp43
 70
     1
102
RTVSPropertyOp44
 70
     1
102
RTVSPropertyOp45
 70
     1
102
RTVSPropertyOp46
 70
     1
102
RTVSPropertyOp47
 70
     1
102
RTVSPropertyOp48
 70
     1
102
RTVSPropertyOp49
 70
     1
102
RTVSPropertyOp50
 70
     1
102
RTVSPropertyOp51
 70
     0
102
RTVSPropertyOp52
 70
     0
102
RTVSPropertyOp53
 70
     1
102
RTVSPropertyOp54
 70
     1
102
RTVSPropertyOp55
 70
     1
102
RTVSPropertyOp56
 70
     1
102
RTVSPropertyOp57
 70
     1
102
RTVSPropertyOp58
 70
     1
102
RTVSPropertyOp59
 70
     1
102
RTVSPropertyOp60
 70
     1
102
RTVSPropertyOp61
 70
     1
102
RTVSPropertyOp62
 70
     1
  0
XRECORD
  5
A51E
102
{ACAD_REACTORS
330
A51D
102
}
330
A51D
100
AcDbXrecord
280
     1
102
RTVSPost2010Prop28
280
     0
102
RTVSPost2010PropOp28
 70
     1
102
RTVSPost2010Prop29
280
     1
102
RTVSPost2010PropOp29
 70
     1
102
RTVSPost2010Prop30
280
     1
102
RTVSPost2010PropOp30
 70
     1
102
RTVSPost2010Prop31
280
     0
102
RTVSPost2010PropOp31
 70
     1
102
RTVSPost2010Prop32
280
     0
102
RTVSPost2010PropOp32
 70
     1
102
RTVSPost2010Prop33
280
     0
102
RTVSPost2010PropOp33
 70
     1
102
RTVSPost2010Prop34
280
     0
102
RTVSPost2010PropOp34
 70
     1
102
RTVSPost2010Prop35
280
     0
102
RTVSPost2010PropOp35
 70
     1
102
RTVSPost2010Prop36
280
     0
102
RTVSPost2010PropOp36
 70
     1
102
RTVSPost2010Prop37
 90
       50
102
RTVSPost2010PropOp37
 70
     1
102
RTVSPost2010Prop38
140
0.0
102
RTVSPost2010PropOp38
 70
     1
102
RTVSPost2010Prop39
140
1.0
102
RTVSPost2010PropOp39
 70
     1
102
RTVSPost2010Prop40
 90
        0
102
RTVSPost2010PropOp40
 70
     1
102
RTVSPost2010Prop41ColorIndex
 90
       18
102
RTVSPost2010Prop41ColorRGB
 90
        0
102
RTVSPost2010PropOp41
 70
     1
102
RTVSPost2010Prop42
 90
       50
102
RTVSPost2010PropOp42
 70
     1
102
RTVSPost2010Prop43
 90
        3
102
RTVSPost2010PropOp43
 70
     1
102
RTVSPost2010Prop44ColorIndex
 90
        5
102
RTVSPost2010Prop44ColorRGB
 90
      255
102
RTVSPost2010PropOp44
 70
     1
102
RTVSPost2010Prop45
280
     0
102
RTVSPost2010PropOp45
 70
     1
102
RTVSPost2010Prop46
 90
       50
102
RTVSPost2010PropOp46
 70
     1
102
RTVSPost2010Prop47
 90
       50
102
RTVSPost2010PropOp47
 70
     1
102
RTVSPost2010Prop48
 90
       50
102
RTVSPost2010PropOp48
 70
     1
102
RTVSPost2010Prop49
280
     0
102
RTVSPost2010PropOp49
 70
     1
102
RTVSPost2010Prop50
 90
       50
102
RTVSPost2010PropOp50
 70
     1
102
RTVSPost2010Prop51ColorIndex
 90
      256
102
RTVSPost2010Prop51ColorRGB
 90
-16777216
102
RTVSPost2010PropOp51
 70
     0
102
RTVSPost2010Prop52
140
1.0
102
RTVSPost2010PropOp52
 70
     0
102
RTVSPost2010Prop53
 90
        2
102
RTVSPost2010PropOp53
 70
     1
102
RTVSPost2010Prop54
  1
strokes_ogs.tif
102
RTVSPost2010PropOp54
 70
     1
102
RTVSPost2010Prop55
280
     0
102
RTVSPost2010PropOp55
 70
     1
102
RTVSPost2010Prop56
140
1.0
102
RTVSPost2010PropOp56
 70
     1
102
RTVSPost2010Prop57
140
1.0
102
RTVSPost2010PropOp57
 70
     1
102
RTVSPropertyOp0
 70
     1
102
RTVSPropertyOp1
 70
     1
102
RTVSPropertyOp2
 70
     1
102
RTVSPropertyOp3
 70
     1
102
RTVSPropertyOp4
 70
     1
102
RTVSPropertyOp5
 70
     1
102
RTVSPropertyOp6
 70
     1
102
RTVSPropertyOp7
 70
     1
102
RTVSPropertyOp8
 70
     1
102
RTVSPropertyOp9
 70
     1
102
RTVSPropertyOp10
 70
     1
102
RTVSPropertyOp11
 70
     1
102
RTVSPropertyOp12
 70
     1
102
RTVSPropertyOp13
 70
     1
102
RTVSPropertyOp14
 70
     1
102
RTVSPropertyOp15
 70
     1
102
RTVSPropertyOp16
 70
     1
102
RTVSPropertyOp17
 70
     1
102
RTVSPropertyOp18
 70
     1
102
RTVSPropertyOp19
 70
     1
102
RTVSPropertyOp20
 70
     1
102
RTVSPropertyOp21
 70
     1
102
RTVSPropertyOp22
 70
     1
102
RTVSPropertyOp23
 70
     1
102
RTVSPropertyOp24
 70
     1
102
RTVSPropertyOp25
 70
     1
102
RTVSPropertyOp26
 70
     1
102
RTVSPropertyOp27
 70
     1
102
RTVSPropertyOp28
 70
     1
102
RTVSPropertyOp29
 70
     1
102
RTVSPropertyOp30
 70
     1
102
RTVSPropertyOp31
 70
     1
102
RTVSPropertyOp32
 70
     1
102
RTVSPropertyOp33
 70
     1
102
RTVSPropertyOp34
 70
     1
102
RTVSPropertyOp35
 70
     1
102
RTVSPropertyOp36
 70
     1
102
RTVSPropertyOp37
 70
     1
102
RTVSPropertyOp38
 70
     1
102
RTVSPropertyOp39
 70
     1
102
RTVSPropertyOp40
 70
     1
102
RTVSPropertyOp41
 70
     1
102
RTVSPropertyOp42
 70
     1
102
RTVSPropertyOp43
 70
     1
102
RTVSPropertyOp44
 70
     1
102
RTVSPropertyOp45
 70
     1
102
RTVSPropertyOp46
 70
     1
102
RTVSPropertyOp47
 70
     1
102
RTVSPropertyOp48
 70
     1
102
RTVSPropertyOp49
 70
     1
102
RTVSPropertyOp50
 70
     1
102
RTVSPropertyOp51
 70
     0
102
RTVSPropertyOp52
 70
     0
102
RTVSPropertyOp53
 70
     1
102
RTVSPropertyOp54
 70
     1
102
RTVSPropertyOp55
 70
     1
102
RTVSPropertyOp56
 70
     1
102
RTVSPropertyOp57
 70
     1
102
RTVSPropertyOp58
 70
     1
102
RTVSPropertyOp59
 70
     1
102
RTVSPropertyOp60
 70
     1
102
RTVSPropertyOp61
 70
     1
102
RTVSPropertyOp62
 70
     1
  0
XRECORD
  5
A520
102
{ACAD_REACTORS
330
A51F
102
}
330
A51F
100
AcDbXrecord
280
     1
102
RTVSPost2010Prop28
280
     0
102
RTVSPost2010PropOp28
 70
     1
102
RTVSPost2010Prop29
280
     1
102
RTVSPost2010PropOp29
 70
     1
102
RTVSPost2010Prop30
280
     1
102
RTVSPost2010PropOp30
 70
     1
102
RTVSPost2010Prop31
280
     0
102
RTVSPost2010PropOp31
 70
     1
102
RTVSPost2010Prop32
280
     0
102
RTVSPost2010PropOp32
 70
     1
102
RTVSPost2010Prop33
280
     0
102
RTVSPost2010PropOp33
 70
     1
102
RTVSPost2010Prop34
280
     0
102
RTVSPost2010PropOp34
 70
     1
102
RTVSPost2010Prop35
280
     0
102
RTVSPost2010PropOp35
 70
     1
102
RTVSPost2010Prop36
280
     0
102
RTVSPost2010PropOp36
 70
     1
102
RTVSPost2010Prop37
 90
       50
102
RTVSPost2010PropOp37
 70
     1
102
RTVSPost2010Prop38
140
0.0
102
RTVSPost2010PropOp38
 70
     1
102
RTVSPost2010Prop39
140
1.0
102
RTVSPost2010PropOp39
 70
     1
102
RTVSPost2010Prop40
 90
        0
102
RTVSPost2010PropOp40
 70
     1
102
RTVSPost2010Prop41ColorIndex
 90
       18
102
RTVSPost2010Prop41ColorRGB
 90
        0
102
RTVSPost2010PropOp41
 70
     1
102
RTVSPost2010Prop42
 90
       50
102
RTVSPost2010PropOp42
 70
     1
102
RTVSPost2010Prop43
 90
        3
102
RTVSPost2010PropOp43
 70
     1
102
RTVSPost2010Prop44ColorIndex
 90
        5
102
RTVSPost2010Prop44ColorRGB
 90
      255
102
RTVSPost2010PropOp44
 70
     1
102
RTVSPost2010Prop45
280
     0
102
RTVSPost2010PropOp45
 70
     1
102
RTVSPost2010Prop46
 90
       50
102
RTVSPost2010PropOp46
 70
     1
102
RTVSPost2010Prop47
 90
       50
102
RTVSPost2010PropOp47
 70
     1
102
RTVSPost2010Prop48
 90
       50
102
RTVSPost2010PropOp48
 70
     1
102
RTVSPost2010Prop49
280
     0
102
RTVSPost2010PropOp49
 70
     1
102
RTVSPost2010Prop50
 90
       50
102
RTVSPost2010PropOp50
 70
     1
102
RTVSPost2010Prop51ColorIndex
 90
      256
102
RTVSPost2010Prop51ColorRGB
 90
-16777216
102
RTVSPost2010PropOp51
 70
     0
102
RTVSPost2010Prop52
140
1.0
102
RTVSPost2010PropOp52
 70
     0
102
RTVSPost2010Prop53
 90
        2
102
RTVSPost2010PropOp53
 70
     1
102
RTVSPost2010Prop54
  1
strokes_ogs.tif
102
RTVSPost2010PropOp54
 70
     1
102
RTVSPost2010Prop55
280
     0
102
RTVSPost2010PropOp55
 70
     1
102
RTVSPost2010Prop56
140
1.0
102
RTVSPost2010PropOp56
 70
     1
102
RTVSPost2010Prop57
140
1.0
102
RTVSPost2010PropOp57
 70
     1
102
RTVSPropertyOp0
 70
     1
102
RTVSPropertyOp1
 70
     1
102
RTVSPropertyOp2
 70
     1
102
RTVSPropertyOp3
 70
     1
102
RTVSPropertyOp4
 70
     1
102
RTVSPropertyOp5
 70
     1
102
RTVSPropertyOp6
 70
     1
102
RTVSPropertyOp7
 70
     1
102
RTVSPropertyOp8
 70
     1
102
RTVSPropertyOp9
 70
     1
102
RTVSPropertyOp10
 70
     1
102
RTVSPropertyOp11
 70
     1
102
RTVSPropertyOp12
 70
     1
102
RTVSPropertyOp13
 70
     1
102
RTVSPropertyOp14
 70
     1
102
RTVSPropertyOp15
 70
     1
102
RTVSPropertyOp16
 70
     1
102
RTVSPropertyOp17
 70
     1
102
RTVSPropertyOp18
 70
     1
102
RTVSPropertyOp19
 70
     1
102
RTVSPropertyOp20
 70
     1
102
RTVSPropertyOp21
 70
     1
102
RTVSPropertyOp22
 70
     1
102
RTVSPropertyOp23
 70
     1
102
RTVSPropertyOp24
 70
     1
102
RTVSPropertyOp25
 70
     1
102
RTVSPropertyOp26
 70
     1
102
RTVSPropertyOp27
 70
     1
102
RTVSPropertyOp28
 70
     1
102
RTVSPropertyOp29
 70
     1
102
RTVSPropertyOp30
 70
     1
102
RTVSPropertyOp31
 70
     1
102
RTVSPropertyOp32
 70
     1
102
RTVSPropertyOp33
 70
     1
102
RTVSPropertyOp34
 70
     1
102
RTVSPropertyOp35
 70
     1
102
RTVSPropertyOp36
 70
     1
102
RTVSPropertyOp37
 70
     1
102
RTVSPropertyOp38
 70
     1
102
RTVSPropertyOp39
 70
     1
102
RTVSPropertyOp40
 70
     1
102
RTVSPropertyOp41
 70
     1
102
RTVSPropertyOp42
 70
     1
102
RTVSPropertyOp43
 70
     1
102
RTVSPropertyOp44
 70
     1
102
RTVSPropertyOp45
 70
     1
102
RTVSPropertyOp46
 70
     1
102
RTVSPropertyOp47
 70
     1
102
RTVSPropertyOp48
 70
     1
102
RTVSPropertyOp49
 70
     1
102
RTVSPropertyOp50
 70
     1
102
RTVSPropertyOp51
 70
     0
102
RTVSPropertyOp52
 70
     0
102
RTVSPropertyOp53
 70
     1
102
RTVSPropertyOp54
 70
     1
102
RTVSPropertyOp55
 70
     1
102
RTVSPropertyOp56
 70
     1
102
RTVSPropertyOp57
 70
     1
102
RTVSPropertyOp58
 70
     1
102
RTVSPropertyOp59
 70
     1
102
RTVSPropertyOp60
 70
     1
102
RTVSPropertyOp61
 70
     1
102
RTVSPropertyOp62
 70
     1
  0
XRECORD
  5
A522
102
{ACAD_REACTORS
330
A521
102
}
330
A521
100
AcDbXrecord
280
     1
102
RTVSPost2010Prop28
280
     0
102
RTVSPost2010PropOp28
 70
     1
102
RTVSPost2010Prop29
280
     1
102
RTVSPost2010PropOp29
 70
     1
102
RTVSPost2010Prop30
280
     1
102
RTVSPost2010PropOp30
 70
     1
102
RTVSPost2010Prop31
280
     0
102
RTVSPost2010PropOp31
 70
     1
102
RTVSPost2010Prop32
280
     0
102
RTVSPost2010PropOp32
 70
     1
102
RTVSPost2010Prop33
280
     0
102
RTVSPost2010PropOp33
 70
     1
102
RTVSPost2010Prop34
280
     0
102
RTVSPost2010PropOp34
 70
     1
102
RTVSPost2010Prop35
280
     0
102
RTVSPost2010PropOp35
 70
     1
102
RTVSPost2010Prop36
280
     0
102
RTVSPost2010PropOp36
 70
     1
102
RTVSPost2010Prop37
 90
       50
102
RTVSPost2010PropOp37
 70
     1
102
RTVSPost2010Prop38
140
0.0
102
RTVSPost2010PropOp38
 70
     1
102
RTVSPost2010Prop39
140
1.0
102
RTVSPost2010PropOp39
 70
     1
102
RTVSPost2010Prop40
 90
        0
102
RTVSPost2010PropOp40
 70
     1
102
RTVSPost2010Prop41ColorIndex
 90
       18
102
RTVSPost2010Prop41ColorRGB
 90
        0
102
RTVSPost2010PropOp41
 70
     1
102
RTVSPost2010Prop42
 90
       50
102
RTVSPost2010PropOp42
 70
     1
102
RTVSPost2010Prop43
 90
        3
102
RTVSPost2010PropOp43
 70
     1
102
RTVSPost2010Prop44ColorIndex
 90
        5
102
RTVSPost2010Prop44ColorRGB
 90
      255
102
RTVSPost2010PropOp44
 70
     1
102
RTVSPost2010Prop45
280
     0
102
RTVSPost2010PropOp45
 70
     1
102
RTVSPost2010Prop46
 90
       50
102
RTVSPost2010PropOp46
 70
     1
102
RTVSPost2010Prop47
 90
       50
102
RTVSPost2010PropOp47
 70
     1
102
RTVSPost2010Prop48
 90
       50
102
RTVSPost2010PropOp48
 70
     1
102
RTVSPost2010Prop49
280
     0
102
RTVSPost2010PropOp49
 70
     1
102
RTVSPost2010Prop50
 90
       50
102
RTVSPost2010PropOp50
 70
     1
102
RTVSPost2010Prop51ColorIndex
 90
      256
102
RTVSPost2010Prop51ColorRGB
 90
-16777216
102
RTVSPost2010PropOp51
 70
     0
102
RTVSPost2010Prop52
140
1.0
102
RTVSPost2010PropOp52
 70
     0
102
RTVSPost2010Prop53
 90
        2
102
RTVSPost2010PropOp53
 70
     1
102
RTVSPost2010Prop54
  1
strokes_ogs.tif
102
RTVSPost2010PropOp54
 70
     1
102
RTVSPost2010Prop55
280
     0
102
RTVSPost2010PropOp55
 70
     1
102
RTVSPost2010Prop56
140
1.0
102
RTVSPost2010PropOp56
 70
     1
102
RTVSPost2010Prop57
140
1.0
102
RTVSPost2010PropOp57
 70
     1
102
RTVSPropertyOp0
 70
     1
102
RTVSPropertyOp1
 70
     1
102
RTVSPropertyOp2
 70
     1
102
RTVSPropertyOp3
 70
     1
102
RTVSPropertyOp4
 70
     1
102
RTVSPropertyOp5
 70
     1
102
RTVSPropertyOp6
 70
     1
102
RTVSPropertyOp7
 70
     1
102
RTVSPropertyOp8
 70
     1
102
RTVSPropertyOp9
 70
     1
102
RTVSPropertyOp10
 70
     1
102
RTVSPropertyOp11
 70
     1
102
RTVSPropertyOp12
 70
     1
102
RTVSPropertyOp13
 70
     1
102
RTVSPropertyOp14
 70
     1
102
RTVSPropertyOp15
 70
     1
102
RTVSPropertyOp16
 70
     1
102
RTVSPropertyOp17
 70
     1
102
RTVSPropertyOp18
 70
     1
102
RTVSPropertyOp19
 70
     1
102
RTVSPropertyOp20
 70
     1
102
RTVSPropertyOp21
 70
     1
102
RTVSPropertyOp22
 70
     1
102
RTVSPropertyOp23
 70
     1
102
RTVSPropertyOp24
 70
     1
102
RTVSPropertyOp25
 70
     1
102
RTVSPropertyOp26
 70
     1
102
RTVSPropertyOp27
 70
     1
102
RTVSPropertyOp28
 70
     1
102
RTVSPropertyOp29
 70
     1
102
RTVSPropertyOp30
 70
     1
102
RTVSPropertyOp31
 70
     1
102
RTVSPropertyOp32
 70
     1
102
RTVSPropertyOp33
 70
     1
102
RTVSPropertyOp34
 70
     1
102
RTVSPropertyOp35
 70
     1
102
RTVSPropertyOp36
 70
     1
102
RTVSPropertyOp37
 70
     1
102
RTVSPropertyOp38
 70
     1
102
RTVSPropertyOp39
 70
     1
102
RTVSPropertyOp40
 70
     1
102
RTVSPropertyOp41
 70
     1
102
RTVSPropertyOp42
 70
     1
102
RTVSPropertyOp43
 70
     1
102
RTVSPropertyOp44
 70
     1
102
RTVSPropertyOp45
 70
     1
102
RTVSPropertyOp46
 70
     1
102
RTVSPropertyOp47
 70
     1
102
RTVSPropertyOp48
 70
     1
102
RTVSPropertyOp49
 70
     1
102
RTVSPropertyOp50
 70
     1
102
RTVSPropertyOp51
 70
     0
102
RTVSPropertyOp52
 70
     0
102
RTVSPropertyOp53
 70
     1
102
RTVSPropertyOp54
 70
     1
102
RTVSPropertyOp55
 70
     1
102
RTVSPropertyOp56
 70
     1
102
RTVSPropertyOp57
 70
     1
102
RTVSPropertyOp58
 70
     1
102
RTVSPropertyOp59
 70
     1
102
RTVSPropertyOp60
 70
     1
102
RTVSPropertyOp61
 70
     1
102
RTVSPropertyOp62
 70
     1
  0
XRECORD
  5
A524
102
{ACAD_REACTORS
330
A523
102
}
330
A523
100
AcDbXrecord
280
     1
102
RTVSPost2010Prop28
280
     0
102
RTVSPost2010PropOp28
 70
     1
102
RTVSPost2010Prop29
280
     1
102
RTVSPost2010PropOp29
 70
     1
102
RTVSPost2010Prop30
280
     1
102
RTVSPost2010PropOp30
 70
     1
102
RTVSPost2010Prop31
280
     0
102
RTVSPost2010PropOp31
 70
     1
102
RTVSPost2010Prop32
280
     0
102
RTVSPost2010PropOp32
 70
     1
102
RTVSPost2010Prop33
280
     0
102
RTVSPost2010PropOp33
 70
     1
102
RTVSPost2010Prop34
280
     0
102
RTVSPost2010PropOp34
 70
     1
102
RTVSPost2010Prop35
280
     0
102
RTVSPost2010PropOp35
 70
     1
102
RTVSPost2010Prop36
280
     0
102
RTVSPost2010PropOp36
 70
     1
102
RTVSPost2010Prop37
 90
       50
102
RTVSPost2010PropOp37
 70
     1
102
RTVSPost2010Prop38
140
0.0
102
RTVSPost2010PropOp38
 70
     1
102
RTVSPost2010Prop39
140
1.0
102
RTVSPost2010PropOp39
 70
     1
102
RTVSPost2010Prop40
 90
        0
102
RTVSPost2010PropOp40
 70
     1
102
RTVSPost2010Prop41ColorIndex
 90
       18
102
RTVSPost2010Prop41ColorRGB
 90
        0
102
RTVSPost2010PropOp41
 70
     1
102
RTVSPost2010Prop42
 90
       50
102
RTVSPost2010PropOp42
 70
     1
102
RTVSPost2010Prop43
 90
        3
102
RTVSPost2010PropOp43
 70
     1
102
RTVSPost2010Prop44ColorIndex
 90
        5
102
RTVSPost2010Prop44ColorRGB
 90
      255
102
RTVSPost2010PropOp44
 70
     1
102
RTVSPost2010Prop45
280
     0
102
RTVSPost2010PropOp45
 70
     1
102
RTVSPost2010Prop46
 90
       50
102
RTVSPost2010PropOp46
 70
     1
102
RTVSPost2010Prop47
 90
       50
102
RTVSPost2010PropOp47
 70
     1
102
RTVSPost2010Prop48
 90
       50
102
RTVSPost2010PropOp48
 70
     1
102
RTVSPost2010Prop49
280
     0
102
RTVSPost2010PropOp49
 70
     1
102
RTVSPost2010Prop50
 90
       50
102
RTVSPost2010PropOp50
 70
     1
102
RTVSPost2010Prop51ColorIndex
 90
      256
102
RTVSPost2010Prop51ColorRGB
 90
-16777216
102
RTVSPost2010PropOp51
 70
     0
102
RTVSPost2010Prop52
140
1.0
102
RTVSPost2010PropOp52
 70
     0
102
RTVSPost2010Prop53
 90
        2
102
RTVSPost2010PropOp53
 70
     1
102
RTVSPost2010Prop54
  1
strokes_ogs.tif
102
RTVSPost2010PropOp54
 70
     1
102
RTVSPost2010Prop55
280
     0
102
RTVSPost2010PropOp55
 70
     1
102
RTVSPost2010Prop56
140
1.0
102
RTVSPost2010PropOp56
 70
     1
102
RTVSPost2010Prop57
140
1.0
102
RTVSPost2010PropOp57
 70
     1
102
RTVSPropertyOp0
 70
     1
102
RTVSPropertyOp1
 70
     1
102
RTVSPropertyOp2
 70
     1
102
RTVSPropertyOp3
 70
     1
102
RTVSPropertyOp4
 70
     1
102
RTVSPropertyOp5
 70
     1
102
RTVSPropertyOp6
 70
     1
102
RTVSPropertyOp7
 70
     1
102
RTVSPropertyOp8
 70
     1
102
RTVSPropertyOp9
 70
     1
102
RTVSPropertyOp10
 70
     1
102
RTVSPropertyOp11
 70
     1
102
RTVSPropertyOp12
 70
     1
102
RTVSPropertyOp13
 70
     1
102
RTVSPropertyOp14
 70
     1
102
RTVSPropertyOp15
 70
     1
102
RTVSPropertyOp16
 70
     1
102
RTVSPropertyOp17
 70
     1
102
RTVSPropertyOp18
 70
     1
102
RTVSPropertyOp19
 70
     1
102
RTVSPropertyOp20
 70
     1
102
RTVSPropertyOp21
 70
     1
102
RTVSPropertyOp22
 70
     1
102
RTVSPropertyOp23
 70
     1
102
RTVSPropertyOp24
 70
     1
102
RTVSPropertyOp25
 70
     1
102
RTVSPropertyOp26
 70
     1
102
RTVSPropertyOp27
 70
     1
102
RTVSPropertyOp28
 70
     1
102
RTVSPropertyOp29
 70
     1
102
RTVSPropertyOp30
 70
     1
102
RTVSPropertyOp31
 70
     1
102
RTVSPropertyOp32
 70
     1
102
RTVSPropertyOp33
 70
     1
102
RTVSPropertyOp34
 70
     1
102
RTVSPropertyOp35
 70
     1
102
RTVSPropertyOp36
 70
     1
102
RTVSPropertyOp37
 70
     1
102
RTVSPropertyOp38
 70
     1
102
RTVSPropertyOp39
 70
     1
102
RTVSPropertyOp40
 70
     1
102
RTVSPropertyOp41
 70
     1
102
RTVSPropertyOp42
 70
     1
102
RTVSPropertyOp43
 70
     1
102
RTVSPropertyOp44
 70
     1
102
RTVSPropertyOp45
 70
     1
102
RTVSPropertyOp46
 70
     1
102
RTVSPropertyOp47
 70
     1
102
RTVSPropertyOp48
 70
     1
102
RTVSPropertyOp49
 70
     1
102
RTVSPropertyOp50
 70
     1
102
RTVSPropertyOp51
 70
     0
102
RTVSPropertyOp52
 70
     0
102
RTVSPropertyOp53
 70
     1
102
RTVSPropertyOp54
 70
     1
102
RTVSPropertyOp55
 70
     1
102
RTVSPropertyOp56
 70
     1
102
RTVSPropertyOp57
 70
     1
102
RTVSPropertyOp58
 70
     1
102
RTVSPropertyOp59
 70
     1
102
RTVSPropertyOp60
 70
     1
102
RTVSPropertyOp61
 70
     1
102
RTVSPropertyOp62
 70
     1
  0
XRECORD
  5
A52C
102
{ACAD_REACTORS
330
A52B
102
}
330
A52B
100
AcDbXrecord
280
     1
102
RTVSPost2010Prop28
280
     0
102
RTVSPost2010PropOp28
 70
     1
102
RTVSPost2010Prop29
280
     1
102
RTVSPost2010PropOp29
 70
     1
102
RTVSPost2010Prop30
280
     1
102
RTVSPost2010PropOp30
 70
     1
102
RTVSPost2010Prop31
280
     0
102
RTVSPost2010PropOp31
 70
     1
102
RTVSPost2010Prop32
280
     0
102
RTVSPost2010PropOp32
 70
     1
102
RTVSPost2010Prop33
280
     0
102
RTVSPost2010PropOp33
 70
     1
102
RTVSPost2010Prop34
280
     0
102
RTVSPost2010PropOp34
 70
     1
102
RTVSPost2010Prop35
280
     0
102
RTVSPost2010PropOp35
 70
     1
102
RTVSPost2010Prop36
280
     0
102
RTVSPost2010PropOp36
 70
     1
102
RTVSPost2010Prop37
 90
       50
102
RTVSPost2010PropOp37
 70
     1
102
RTVSPost2010Prop38
140
0.0
102
RTVSPost2010PropOp38
 70
     1
102
RTVSPost2010Prop39
140
1.0
102
RTVSPost2010PropOp39
 70
     1
102
RTVSPost2010Prop40
 90
        0
102
RTVSPost2010PropOp40
 70
     1
102
RTVSPost2010Prop41ColorIndex
 90
       18
102
RTVSPost2010Prop41ColorRGB
 90
        0
102
RTVSPost2010PropOp41
 70
     1
102
RTVSPost2010Prop42
 90
       50
102
RTVSPost2010PropOp42
 70
     1
102
RTVSPost2010Prop43
 90
        3
102
RTVSPost2010PropOp43
 70
     1
102
RTVSPost2010Prop44ColorIndex
 90
        5
102
RTVSPost2010Prop44ColorRGB
 90
      255
102
RTVSPost2010PropOp44
 70
     1
102
RTVSPost2010Prop45
280
     0
102
RTVSPost2010PropOp45
 70
     1
102
RTVSPost2010Prop46
 90
       50
102
RTVSPost2010PropOp46
 70
     1
102
RTVSPost2010Prop47
 90
       50
102
RTVSPost2010PropOp47
 70
     1
102
RTVSPost2010Prop48
 90
       50
102
RTVSPost2010PropOp48
 70
     1
102
RTVSPost2010Prop49
280
     0
102
RTVSPost2010PropOp49
 70
     1
102
RTVSPost2010Prop50
 90
       50
102
RTVSPost2010PropOp50
 70
     1
102
RTVSPost2010Prop51ColorIndex
 90
      256
102
RTVSPost2010Prop51ColorRGB
 90
-16777216
102
RTVSPost2010PropOp51
 70
     0
102
RTVSPost2010Prop52
140
1.0
102
RTVSPost2010PropOp52
 70
     0
102
RTVSPost2010Prop53
 90
        2
102
RTVSPost2010PropOp53
 70
     1
102
RTVSPost2010Prop54
  1
strokes_ogs.tif
102
RTVSPost2010PropOp54
 70
     1
102
RTVSPost2010Prop55
280
     0
102
RTVSPost2010PropOp55
 70
     1
102
RTVSPost2010Prop56
140
1.0
102
RTVSPost2010PropOp56
 70
     1
102
RTVSPost2010Prop57
140
1.0
102
RTVSPost2010PropOp57
 70
     1
102
RTVSPropertyOp0
 70
     1
102
RTVSPropertyOp1
 70
     1
102
RTVSPropertyOp2
 70
     1
102
RTVSPropertyOp3
 70
     1
102
RTVSPropertyOp4
 70
     1
102
RTVSPropertyOp5
 70
     1
102
RTVSPropertyOp6
 70
     1
102
RTVSPropertyOp7
 70
     1
102
RTVSPropertyOp8
 70
     1
102
RTVSPropertyOp9
 70
     1
102
RTVSPropertyOp10
 70
     1
102
RTVSPropertyOp11
 70
     1
102
RTVSPropertyOp12
 70
     1
102
RTVSPropertyOp13
 70
     1
102
RTVSPropertyOp14
 70
     1
102
RTVSPropertyOp15
 70
     1
102
RTVSPropertyOp16
 70
     1
102
RTVSPropertyOp17
 70
     1
102
RTVSPropertyOp18
 70
     1
102
RTVSPropertyOp19
 70
     1
102
RTVSPropertyOp20
 70
     1
102
RTVSPropertyOp21
 70
     1
102
RTVSPropertyOp22
 70
     1
102
RTVSPropertyOp23
 70
     1
102
RTVSPropertyOp24
 70
     1
102
RTVSPropertyOp25
 70
     1
102
RTVSPropertyOp26
 70
     1
102
RTVSPropertyOp27
 70
     1
102
RTVSPropertyOp28
 70
     1
102
RTVSPropertyOp29
 70
     1
102
RTVSPropertyOp30
 70
     1
102
RTVSPropertyOp31
 70
     1
102
RTVSPropertyOp32
 70
     1
102
RTVSPropertyOp33
 70
     1
102
RTVSPropertyOp34
 70
     1
102
RTVSPropertyOp35
 70
     1
102
RTVSPropertyOp36
 70
     1
102
RTVSPropertyOp37
 70
     1
102
RTVSPropertyOp38
 70
     1
102
RTVSPropertyOp39
 70
     1
102
RTVSPropertyOp40
 70
     1
102
RTVSPropertyOp41
 70
     1
102
RTVSPropertyOp42
 70
     1
102
RTVSPropertyOp43
 70
     1
102
RTVSPropertyOp44
 70
     1
102
RTVSPropertyOp45
 70
     1
102
RTVSPropertyOp46
 70
     1
102
RTVSPropertyOp47
 70
     1
102
RTVSPropertyOp48
 70
     1
102
RTVSPropertyOp49
 70
     1
102
RTVSPropertyOp50
 70
     1
102
RTVSPropertyOp51
 70
     0
102
RTVSPropertyOp52
 70
     0
102
RTVSPropertyOp53
 70
     1
102
RTVSPropertyOp54
 70
     1
102
RTVSPropertyOp55
 70
     1
102
RTVSPropertyOp56
 70
     1
102
RTVSPropertyOp57
 70
     1
102
RTVSPropertyOp58
 70
     1
102
RTVSPropertyOp59
 70
     1
102
RTVSPropertyOp60
 70
     1
102
RTVSPropertyOp61
 70
     1
102
RTVSPropertyOp62
 70
     1
  0
XRECORD
  5
A548
102
{ACAD_REACTORS
330
A547
102
}
330
A547
100
AcDbXrecord
280
     1
102
RTVSPost2010Prop28
280
     0
102
RTVSPost2010PropOp28
 70
     1
102
RTVSPost2010Prop29
280
     1
102
RTVSPost2010PropOp29
 70
     1
102
RTVSPost2010Prop30
280
     1
102
RTVSPost2010PropOp30
 70
     1
102
RTVSPost2010Prop31
280
     0
102
RTVSPost2010PropOp31
 70
     1
102
RTVSPost2010Prop32
280
     0
102
RTVSPost2010PropOp32
 70
     1
102
RTVSPost2010Prop33
280
     0
102
RTVSPost2010PropOp33
 70
     1
102
RTVSPost2010Prop34
280
     0
102
RTVSPost2010PropOp34
 70
     1
102
RTVSPost2010Prop35
280
     0
102
RTVSPost2010PropOp35
 70
     1
102
RTVSPost2010Prop36
280
     0
102
RTVSPost2010PropOp36
 70
     1
102
RTVSPost2010Prop37
 90
       50
102
RTVSPost2010PropOp37
 70
     0
102
RTVSPost2010Prop38
140
0.0
102
RTVSPost2010PropOp38
 70
     0
102
RTVSPost2010Prop39
140
1.0
102
RTVSPost2010PropOp39
 70
     0
102
RTVSPost2010Prop40
 90
        0
102
RTVSPost2010PropOp40
 70
     0
102
RTVSPost2010Prop41ColorIndex
 90
       18
102
RTVSPost2010Prop41ColorRGB
 90
        0
102
RTVSPost2010PropOp41
 70
     0
102
RTVSPost2010Prop42
 90
       50
102
RTVSPost2010PropOp42
 70
     0
102
RTVSPost2010Prop43
 90
        3
102
RTVSPost2010PropOp43
 70
     0
102
RTVSPost2010Prop44ColorIndex
 90
        5
102
RTVSPost2010Prop44ColorRGB
 90
      255
102
RTVSPost2010PropOp44
 70
     0
102
RTVSPost2010Prop45
280
     0
102
RTVSPost2010PropOp45
 70
     1
102
RTVSPost2010Prop46
 90
       50
102
RTVSPost2010PropOp46
 70
     0
102
RTVSPost2010Prop47
 90
       50
102
RTVSPost2010PropOp47
 70
     0
102
RTVSPost2010Prop48
 90
       50
102
RTVSPost2010PropOp48
 70
     0
102
RTVSPost2010Prop49
280
     0
102
RTVSPost2010PropOp49
 70
     1
102
RTVSPost2010Prop50
 90
       50
102
RTVSPost2010PropOp50
 70
     0
102
RTVSPost2010Prop51ColorIndex
 90
      256
102
RTVSPost2010Prop51ColorRGB
 90
-16777216
102
RTVSPost2010PropOp51
 70
     0
102
RTVSPost2010Prop52
140
1.0
102
RTVSPost2010PropOp52
 70
     0
102
RTVSPost2010Prop53
 90
        2
102
RTVSPost2010PropOp53
 70
     0
102
RTVSPost2010Prop54
  1
strokes_ogs.tif
102
RTVSPost2010PropOp54
 70
     0
102
RTVSPost2010Prop55
280
     0
102
RTVSPost2010PropOp55
 70
     1
102
RTVSPost2010Prop56
140
1.0
102
RTVSPost2010PropOp56
 70
     0
102
RTVSPost2010Prop57
140
1.0
102
RTVSPost2010PropOp57
 70
     0
102
RTVSPropertyOp0
 70
     0
102
RTVSPropertyOp1
 70
     0
102
RTVSPropertyOp2
 70
     0
102
RTVSPropertyOp3
 70
     0
102
RTVSPropertyOp4
 70
     0
102
RTVSPropertyOp5
 70
     0
102
RTVSPropertyOp6
 70
     0
102
RTVSPropertyOp7
 70
     0
102
RTVSPropertyOp8
 70
     0
102
RTVSPropertyOp9
 70
     0
102
RTVSPropertyOp10
 70
     0
102
RTVSPropertyOp11
 70
     0
102
RTVSPropertyOp12
 70
     0
102
RTVSPropertyOp13
 70
     0
102
RTVSPropertyOp14
 70
     2
102
RTVSPropertyOp15
 70
     0
102
RTVSPropertyOp16
 70
     0
102
RTVSPropertyOp17
 70
     0
102
RTVSPropertyOp18
 70
     0
102
RTVSPropertyOp19
 70
     0
102
RTVSPropertyOp20
 70
     0
102
RTVSPropertyOp21
 70
     0
102
RTVSPropertyOp22
 70
     0
102
RTVSPropertyOp23
 70
     0
102
RTVSPropertyOp24
 70
     0
102
RTVSPropertyOp25
 70
     0
102
RTVSPropertyOp26
 70
     0
102
RTVSPropertyOp27
 70
     0
102
RTVSPropertyOp28
 70
     1
102
RTVSPropertyOp29
 70
     1
102
RTVSPropertyOp30
 70
     1
102
RTVSPropertyOp31
 70
     1
102
RTVSPropertyOp32
 70
     1
102
RTVSPropertyOp33
 70
     1
102
RTVSPropertyOp34
 70
     1
102
RTVSPropertyOp35
 70
     1
102
RTVSPropertyOp36
 70
     1
102
RTVSPropertyOp37
 70
     0
102
RTVSPropertyOp38
 70
     0
102
RTVSPropertyOp39
 70
     0
102
RTVSPropertyOp40
 70
     0
102
RTVSPropertyOp41
 70
     0
102
RTVSPropertyOp42
 70
     0
102
RTVSPropertyOp43
 70
     0
102
RTVSPropertyOp44
 70
     0
102
RTVSPropertyOp45
 70
     1
102
RTVSPropertyOp46
 70
     0
102
RTVSPropertyOp47
 70
     0
102
RTVSPropertyOp48
 70
     0
102
RTVSPropertyOp49
 70
     1
102
RTVSPropertyOp50
 70
     0
102
RTVSPropertyOp51
 70
     0
102
RTVSPropertyOp52
 70
     0
102
RTVSPropertyOp53
 70
     0
102
RTVSPropertyOp54
 70
     0
102
RTVSPropertyOp55
 70
     1
102
RTVSPropertyOp56
 70
     0
102
RTVSPropertyOp57
 70
     0
102
RTVSPropertyOp58
 70
     0
102
RTVSPropertyOp59
 70
     0
102
RTVSPropertyOp60
 70
     0
102
RTVSPropertyOp61
 70
     0
102
RTVSPropertyOp62
 70
     0
  0
XRECORD
  5
A538
102
{ACAD_REACTORS
330
A537
102
}
330
A537
100
AcDbXrecord
280
     1
102
RTVSPost2010Prop28
280
     0
102
RTVSPost2010PropOp28
 70
     1
102
RTVSPost2010Prop29
280
     1
102
RTVSPost2010PropOp29
 70
     1
102
RTVSPost2010Prop30
280
     1
102
RTVSPost2010PropOp30
 70
     1
102
RTVSPost2010Prop31
280
     0
102
RTVSPost2010PropOp31
 70
     1
102
RTVSPost2010Prop32
280
     0
102
RTVSPost2010PropOp32
 70
     1
102
RTVSPost2010Prop33
280
     0
102
RTVSPost2010PropOp33
 70
     1
102
RTVSPost2010Prop34
280
     0
102
RTVSPost2010PropOp34
 70
     1
102
RTVSPost2010Prop35
280
     0
102
RTVSPost2010PropOp35
 70
     1
102
RTVSPost2010Prop36
280
     0
102
RTVSPost2010PropOp36
 70
     1
102
RTVSPost2010Prop37
 90
       50
102
RTVSPost2010PropOp37
 70
     1
102
RTVSPost2010Prop38
140
0.0
102
RTVSPost2010PropOp38
 70
     1
102
RTVSPost2010Prop39
140
1.0
102
RTVSPost2010PropOp39
 70
     1
102
RTVSPost2010Prop40
 90
        0
102
RTVSPost2010PropOp40
 70
     1
102
RTVSPost2010Prop41ColorIndex
 90
       18
102
RTVSPost2010Prop41ColorRGB
 90
        0
102
RTVSPost2010PropOp41
 70
     1
102
RTVSPost2010Prop42
 90
       50
102
RTVSPost2010PropOp42
 70
     1
102
RTVSPost2010Prop43
 90
        3
102
RTVSPost2010PropOp43
 70
     1
102
RTVSPost2010Prop44ColorIndex
 90
        5
102
RTVSPost2010Prop44ColorRGB
 90
      255
102
RTVSPost2010PropOp44
 70
     1
102
RTVSPost2010Prop45
280
     0
102
RTVSPost2010PropOp45
 70
     1
102
RTVSPost2010Prop46
 90
       50
102
RTVSPost2010PropOp46
 70
     1
102
RTVSPost2010Prop47
 90
       50
102
RTVSPost2010PropOp47
 70
     1
102
RTVSPost2010Prop48
 90
       50
102
RTVSPost2010PropOp48
 70
     1
102
RTVSPost2010Prop49
280
     0
102
RTVSPost2010PropOp49
 70
     1
102
RTVSPost2010Prop50
 90
       50
102
RTVSPost2010PropOp50
 70
     1
102
RTVSPost2010Prop51ColorIndex
 90
      256
102
RTVSPost2010Prop51ColorRGB
 90
-16777216
102
RTVSPost2010PropOp51
 70
     0
102
RTVSPost2010Prop52
140
1.0
102
RTVSPost2010PropOp52
 70
     0
102
RTVSPost2010Prop53
 90
        2
102
RTVSPost2010PropOp53
 70
     1
102
RTVSPost2010Prop54
  1
strokes_ogs.tif
102
RTVSPost2010PropOp54
 70
     1
102
RTVSPost2010Prop55
280
     0
102
RTVSPost2010PropOp55
 70
     1
102
RTVSPost2010Prop56
140
1.0
102
RTVSPost2010PropOp56
 70
     1
102
RTVSPost2010Prop57
140
1.0
102
RTVSPost2010PropOp57
 70
     1
102
RTVSPropertyOp0
 70
     1
102
RTVSPropertyOp1
 70
     1
102
RTVSPropertyOp2
 70
     1
102
RTVSPropertyOp3
 70
     1
102
RTVSPropertyOp4
 70
     1
102
RTVSPropertyOp5
 70
     1
102
RTVSPropertyOp6
 70
     1
102
RTVSPropertyOp7
 70
     1
102
RTVSPropertyOp8
 70
     1
102
RTVSPropertyOp9
 70
     1
102
RTVSPropertyOp10
 70
     1
102
RTVSPropertyOp11
 70
     1
102
RTVSPropertyOp12
 70
     1
102
RTVSPropertyOp13
 70
     1
102
RTVSPropertyOp14
 70
     1
102
RTVSPropertyOp15
 70
     1
102
RTVSPropertyOp16
 70
     1
102
RTVSPropertyOp17
 70
     1
102
RTVSPropertyOp18
 70
     1
102
RTVSPropertyOp19
 70
     1
102
RTVSPropertyOp20
 70
     1
102
RTVSPropertyOp21
 70
     1
102
RTVSPropertyOp22
 70
     1
102
RTVSPropertyOp23
 70
     1
102
RTVSPropertyOp24
 70
     1
102
RTVSPropertyOp25
 70
     1
102
RTVSPropertyOp26
 70
     1
102
RTVSPropertyOp27
 70
     1
102
RTVSPropertyOp28
 70
     1
102
RTVSPropertyOp29
 70
     1
102
RTVSPropertyOp30
 70
     1
102
RTVSPropertyOp31
 70
     1
102
RTVSPropertyOp32
 70
     1
102
RTVSPropertyOp33
 70
     1
102
RTVSPropertyOp34
 70
     1
102
RTVSPropertyOp35
 70
     1
102
RTVSPropertyOp36
 70
     1
102
RTVSPropertyOp37
 70
     1
102
RTVSPropertyOp38
 70
     1
102
RTVSPropertyOp39
 70
     1
102
RTVSPropertyOp40
 70
     1
102
RTVSPropertyOp41
 70
     1
102
RTVSPropertyOp42
 70
     1
102
RTVSPropertyOp43
 70
     1
102
RTVSPropertyOp44
 70
     1
102
RTVSPropertyOp45
 70
     1
102
RTVSPropertyOp46
 70
     1
102
RTVSPropertyOp47
 70
     1
102
RTVSPropertyOp48
 70
     1
102
RTVSPropertyOp49
 70
     1
102
RTVSPropertyOp50
 70
     1
102
RTVSPropertyOp51
 70
     0
102
RTVSPropertyOp52
 70
     0
102
RTVSPropertyOp53
 70
     1
102
RTVSPropertyOp54
 70
     1
102
RTVSPropertyOp55
 70
     1
102
RTVSPropertyOp56
 70
     1
102
RTVSPropertyOp57
 70
     1
102
RTVSPropertyOp58
 70
     1
102
RTVSPropertyOp59
 70
     1
102
RTVSPropertyOp60
 70
     1
102
RTVSPropertyOp61
 70
     1
102
RTVSPropertyOp62
 70
     1
  0
XRECORD
  5
A54A
102
{ACAD_REACTORS
330
A549
102
}
330
A549
100
AcDbXrecord
280
     1
102
RTVSPost2010Prop28
280
     0
102
RTVSPost2010PropOp28
 70
     1
102
RTVSPost2010Prop29
280
     1
102
RTVSPost2010PropOp29
 70
     1
102
RTVSPost2010Prop30
280
     1
102
RTVSPost2010PropOp30
 70
     1
102
RTVSPost2010Prop31
280
     0
102
RTVSPost2010PropOp31
 70
     1
102
RTVSPost2010Prop32
280
     0
102
RTVSPost2010PropOp32
 70
     1
102
RTVSPost2010Prop33
280
     0
102
RTVSPost2010PropOp33
 70
     1
102
RTVSPost2010Prop34
280
     0
102
RTVSPost2010PropOp34
 70
     1
102
RTVSPost2010Prop35
280
     0
102
RTVSPost2010PropOp35
 70
     1
102
RTVSPost2010Prop36
280
     0
102
RTVSPost2010PropOp36
 70
     1
102
RTVSPost2010Prop37
 90
       50
102
RTVSPost2010PropOp37
 70
     0
102
RTVSPost2010Prop38
140
0.0
102
RTVSPost2010PropOp38
 70
     0
102
RTVSPost2010Prop39
140
1.0
102
RTVSPost2010PropOp39
 70
     0
102
RTVSPost2010Prop40
 90
        0
102
RTVSPost2010PropOp40
 70
     0
102
RTVSPost2010Prop41ColorIndex
 90
       18
102
RTVSPost2010Prop41ColorRGB
 90
        0
102
RTVSPost2010PropOp41
 70
     0
102
RTVSPost2010Prop42
 90
       50
102
RTVSPost2010PropOp42
 70
     0
102
RTVSPost2010Prop43
 90
        3
102
RTVSPost2010PropOp43
 70
     0
102
RTVSPost2010Prop44ColorIndex
 90
        5
102
RTVSPost2010Prop44ColorRGB
 90
      255
102
RTVSPost2010PropOp44
 70
     0
102
RTVSPost2010Prop45
280
     0
102
RTVSPost2010PropOp45
 70
     1
102
RTVSPost2010Prop46
 90
       50
102
RTVSPost2010PropOp46
 70
     0
102
RTVSPost2010Prop47
 90
       50
102
RTVSPost2010PropOp47
 70
     0
102
RTVSPost2010Prop48
 90
       50
102
RTVSPost2010PropOp48
 70
     0
102
RTVSPost2010Prop49
280
     0
102
RTVSPost2010PropOp49
 70
     1
102
RTVSPost2010Prop50
 90
       50
102
RTVSPost2010PropOp50
 70
     0
102
RTVSPost2010Prop51ColorIndex
 90
      256
102
RTVSPost2010Prop51ColorRGB
 90
-16777216
102
RTVSPost2010PropOp51
 70
     0
102
RTVSPost2010Prop52
140
1.0
102
RTVSPost2010PropOp52
 70
     0
102
RTVSPost2010Prop53
 90
        2
102
RTVSPost2010PropOp53
 70
     0
102
RTVSPost2010Prop54
  1
strokes_ogs.tif
102
RTVSPost2010PropOp54
 70
     0
102
RTVSPost2010Prop55
280
     0
102
RTVSPost2010PropOp55
 70
     1
102
RTVSPost2010Prop56
140
1.0
102
RTVSPost2010PropOp56
 70
     0
102
RTVSPost2010Prop57
140
1.0
102
RTVSPost2010PropOp57
 70
     0
102
RTVSPropertyOp0
 70
     0
102
RTVSPropertyOp1
 70
     0
102
RTVSPropertyOp2
 70
     0
102
RTVSPropertyOp3
 70
     0
102
RTVSPropertyOp4
 70
     0
102
RTVSPropertyOp5
 70
     0
102
RTVSPropertyOp6
 70
     0
102
RTVSPropertyOp7
 70
     0
102
RTVSPropertyOp8
 70
     0
102
RTVSPropertyOp9
 70
     0
102
RTVSPropertyOp10
 70
     0
102
RTVSPropertyOp11
 70
     0
102
RTVSPropertyOp12
 70
     0
102
RTVSPropertyOp13
 70
     0
102
RTVSPropertyOp14
 70
     2
102
RTVSPropertyOp15
 70
     0
102
RTVSPropertyOp16
 70
     0
102
RTVSPropertyOp17
 70
     0
102
RTVSPropertyOp18
 70
     0
102
RTVSPropertyOp19
 70
     0
102
RTVSPropertyOp20
 70
     0
102
RTVSPropertyOp21
 70
     0
102
RTVSPropertyOp22
 70
     0
102
RTVSPropertyOp23
 70
     0
102
RTVSPropertyOp24
 70
     0
102
RTVSPropertyOp25
 70
     0
102
RTVSPropertyOp26
 70
     0
102
RTVSPropertyOp27
 70
     0
102
RTVSPropertyOp28
 70
     1
102
RTVSPropertyOp29
 70
     1
102
RTVSPropertyOp30
 70
     1
102
RTVSPropertyOp31
 70
     1
102
RTVSPropertyOp32
 70
     1
102
RTVSPropertyOp33
 70
     1
102
RTVSPropertyOp34
 70
     1
102
RTVSPropertyOp35
 70
     1
102
RTVSPropertyOp36
 70
     1
102
RTVSPropertyOp37
 70
     0
102
RTVSPropertyOp38
 70
     0
102
RTVSPropertyOp39
 70
     0
102
RTVSPropertyOp40
 70
     0
102
RTVSPropertyOp41
 70
     0
102
RTVSPropertyOp42
 70
     0
102
RTVSPropertyOp43
 70
     0
102
RTVSPropertyOp44
 70
     0
102
RTVSPropertyOp45
 70
     1
102
RTVSPropertyOp46
 70
     0
102
RTVSPropertyOp47
 70
     0
102
RTVSPropertyOp48
 70
     0
102
RTVSPropertyOp49
 70
     1
102
RTVSPropertyOp50
 70
     0
102
RTVSPropertyOp51
 70
     0
102
RTVSPropertyOp52
 70
     0
102
RTVSPropertyOp53
 70
     0
102
RTVSPropertyOp54
 70
     0
102
RTVSPropertyOp55
 70
     1
102
RTVSPropertyOp56
 70
     0
102
RTVSPropertyOp57
 70
     0
102
RTVSPropertyOp58
 70
     0
102
RTVSPropertyOp59
 70
     0
102
RTVSPropertyOp60
 70
     0
102
RTVSPropertyOp61
 70
     0
102
RTVSPropertyOp62
 70
     0
  0
XRECORD
  5
A530
102
{ACAD_REACTORS
330
A52F
102
}
330
A52F
100
AcDbXrecord
280
     1
102
RTVSPost2010Prop28
280
     0
102
RTVSPost2010PropOp28
 70
     1
102
RTVSPost2010Prop29
280
     1
102
RTVSPost2010PropOp29
 70
     1
102
RTVSPost2010Prop30
280
     1
102
RTVSPost2010PropOp30
 70
     1
102
RTVSPost2010Prop31
280
     0
102
RTVSPost2010PropOp31
 70
     1
102
RTVSPost2010Prop32
280
     0
102
RTVSPost2010PropOp32
 70
     1
102
RTVSPost2010Prop33
280
     0
102
RTVSPost2010PropOp33
 70
     1
102
RTVSPost2010Prop34
280
     0
102
RTVSPost2010PropOp34
 70
     1
102
RTVSPost2010Prop35
280
     0
102
RTVSPost2010PropOp35
 70
     1
102
RTVSPost2010Prop36
280
     0
102
RTVSPost2010PropOp36
 70
     1
102
RTVSPost2010Prop37
 90
       50
102
RTVSPost2010PropOp37
 70
     1
102
RTVSPost2010Prop38
140
0.0
102
RTVSPost2010PropOp38
 70
     1
102
RTVSPost2010Prop39
140
1.0
102
RTVSPost2010PropOp39
 70
     1
102
RTVSPost2010Prop40
 90
        0
102
RTVSPost2010PropOp40
 70
     1
102
RTVSPost2010Prop41ColorIndex
 90
       18
102
RTVSPost2010Prop41ColorRGB
 90
        0
102
RTVSPost2010PropOp41
 70
     1
102
RTVSPost2010Prop42
 90
       50
102
RTVSPost2010PropOp42
 70
     1
102
RTVSPost2010Prop43
 90
        3
102
RTVSPost2010PropOp43
 70
     1
102
RTVSPost2010Prop44ColorIndex
 90
        5
102
RTVSPost2010Prop44ColorRGB
 90
      255
102
RTVSPost2010PropOp44
 70
     1
102
RTVSPost2010Prop45
280
     0
102
RTVSPost2010PropOp45
 70
     1
102
RTVSPost2010Prop46
 90
       50
102
RTVSPost2010PropOp46
 70
     1
102
RTVSPost2010Prop47
 90
       50
102
RTVSPost2010PropOp47
 70
     1
102
RTVSPost2010Prop48
 90
       50
102
RTVSPost2010PropOp48
 70
     1
102
RTVSPost2010Prop49
280
     0
102
RTVSPost2010PropOp49
 70
     1
102
RTVSPost2010Prop50
 90
       50
102
RTVSPost2010PropOp50
 70
     1
102
RTVSPost2010Prop51ColorIndex
 90
      256
102
RTVSPost2010Prop51ColorRGB
 90
-16777216
102
RTVSPost2010PropOp51
 70
     0
102
RTVSPost2010Prop52
140
1.0
102
RTVSPost2010PropOp52
 70
     0
102
RTVSPost2010Prop53
 90
        2
102
RTVSPost2010PropOp53
 70
     1
102
RTVSPost2010Prop54
  1
strokes_ogs.tif
102
RTVSPost2010PropOp54
 70
     1
102
RTVSPost2010Prop55
280
     0
102
RTVSPost2010PropOp55
 70
     1
102
RTVSPost2010Prop56
140
1.0
102
RTVSPost2010PropOp56
 70
     1
102
RTVSPost2010Prop57
140
1.0
102
RTVSPost2010PropOp57
 70
     1
102
RTVSPropertyOp0
 70
     1
102
RTVSPropertyOp1
 70
     1
102
RTVSPropertyOp2
 70
     1
102
RTVSPropertyOp3
 70
     1
102
RTVSPropertyOp4
 70
     1
102
RTVSPropertyOp5
 70
     1
102
RTVSPropertyOp6
 70
     1
102
RTVSPropertyOp7
 70
     1
102
RTVSPropertyOp8
 70
     1
102
RTVSPropertyOp9
 70
     1
102
RTVSPropertyOp10
 70
     1
102
RTVSPropertyOp11
 70
     1
102
RTVSPropertyOp12
 70
     1
102
RTVSPropertyOp13
 70
     1
102
RTVSPropertyOp14
 70
     1
102
RTVSPropertyOp15
 70
     1
102
RTVSPropertyOp16
 70
     1
102
RTVSPropertyOp17
 70
     1
102
RTVSPropertyOp18
 70
     1
102
RTVSPropertyOp19
 70
     1
102
RTVSPropertyOp20
 70
     1
102
RTVSPropertyOp21
 70
     1
102
RTVSPropertyOp22
 70
     1
102
RTVSPropertyOp23
 70
     1
102
RTVSPropertyOp24
 70
     1
102
RTVSPropertyOp25
 70
     1
102
RTVSPropertyOp26
 70
     1
102
RTVSPropertyOp27
 70
     1
102
RTVSPropertyOp28
 70
     1
102
RTVSPropertyOp29
 70
     1
102
RTVSPropertyOp30
 70
     1
102
RTVSPropertyOp31
 70
     1
102
RTVSPropertyOp32
 70
     1
102
RTVSPropertyOp33
 70
     1
102
RTVSPropertyOp34
 70
     1
102
RTVSPropertyOp35
 70
     1
102
RTVSPropertyOp36
 70
     1
102
RTVSPropertyOp37
 70
     1
102
RTVSPropertyOp38
 70
     1
102
RTVSPropertyOp39
 70
     1
102
RTVSPropertyOp40
 70
     1
102
RTVSPropertyOp41
 70
     1
102
RTVSPropertyOp42
 70
     1
102
RTVSPropertyOp43
 70
     1
102
RTVSPropertyOp44
 70
     1
102
RTVSPropertyOp45
 70
     1
102
RTVSPropertyOp46
 70
     1
102
RTVSPropertyOp47
 70
     1
102
RTVSPropertyOp48
 70
     1
102
RTVSPropertyOp49
 70
     1
102
RTVSPropertyOp50
 70
     1
102
RTVSPropertyOp51
 70
     0
102
RTVSPropertyOp52
 70
     0
102
RTVSPropertyOp53
 70
     1
102
RTVSPropertyOp54
 70
     1
102
RTVSPropertyOp55
 70
     1
102
RTVSPropertyOp56
 70
     1
102
RTVSPropertyOp57
 70
     1
102
RTVSPropertyOp58
 70
     1
102
RTVSPropertyOp59
 70
     1
102
RTVSPropertyOp60
 70
     1
102
RTVSPropertyOp61
 70
     1
102
RTVSPropertyOp62
 70
     1
  0
XRECORD
  5
A546
102
{ACAD_REACTORS
330
A545
102
}
330
A545
100
AcDbXrecord
280
     1
102
RTVSPost2010Prop28
280
     0
102
RTVSPost2010PropOp28
 70
     1
102
RTVSPost2010Prop29
280
     1
102
RTVSPost2010PropOp29
 70
     1
102
RTVSPost2010Prop30
280
     1
102
RTVSPost2010PropOp30
 70
     1
102
RTVSPost2010Prop31
280
     0
102
RTVSPost2010PropOp31
 70
     1
102
RTVSPost2010Prop32
280
     0
102
RTVSPost2010PropOp32
 70
     1
102
RTVSPost2010Prop33
280
     0
102
RTVSPost2010PropOp33
 70
     1
102
RTVSPost2010Prop34
280
     0
102
RTVSPost2010PropOp34
 70
     1
102
RTVSPost2010Prop35
280
     0
102
RTVSPost2010PropOp35
 70
     1
102
RTVSPost2010Prop36
280
     0
102
RTVSPost2010PropOp36
 70
     1
102
RTVSPost2010Prop37
 90
       50
102
RTVSPost2010PropOp37
 70
     1
102
RTVSPost2010Prop38
140
0.0
102
RTVSPost2010PropOp38
 70
     1
102
RTVSPost2010Prop39
140
1.0
102
RTVSPost2010PropOp39
 70
     1
102
RTVSPost2010Prop40
 90
        0
102
RTVSPost2010PropOp40
 70
     1
102
RTVSPost2010Prop41ColorIndex
 90
       18
102
RTVSPost2010Prop41ColorRGB
 90
        0
102
RTVSPost2010PropOp41
 70
     1
102
RTVSPost2010Prop42
 90
       50
102
RTVSPost2010PropOp42
 70
     1
102
RTVSPost2010Prop43
 90
        3
102
RTVSPost2010PropOp43
 70
     1
102
RTVSPost2010Prop44ColorIndex
 90
        5
102
RTVSPost2010Prop44ColorRGB
 90
      255
102
RTVSPost2010PropOp44
 70
     1
102
RTVSPost2010Prop45
280
     0
102
RTVSPost2010PropOp45
 70
     1
102
RTVSPost2010Prop46
 90
       50
102
RTVSPost2010PropOp46
 70
     1
102
RTVSPost2010Prop47
 90
       50
102
RTVSPost2010PropOp47
 70
     1
102
RTVSPost2010Prop48
 90
       50
102
RTVSPost2010PropOp48
 70
     1
102
RTVSPost2010Prop49
280
     0
102
RTVSPost2010PropOp49
 70
     1
102
RTVSPost2010Prop50
 90
       50
102
RTVSPost2010PropOp50
 70
     1
102
RTVSPost2010Prop51ColorIndex
 90
      256
102
RTVSPost2010Prop51ColorRGB
 90
-16777216
102
RTVSPost2010PropOp51
 70
     0
102
RTVSPost2010Prop52
140
1.0
102
RTVSPost2010PropOp52
 70
     0
102
RTVSPost2010Prop53
 90
        2
102
RTVSPost2010PropOp53
 70
     1
102
RTVSPost2010Prop54
  1
strokes_ogs.tif
102
RTVSPost2010PropOp54
 70
     1
102
RTVSPost2010Prop55
280
     0
102
RTVSPost2010PropOp55
 70
     1
102
RTVSPost2010Prop56
140
1.0
102
RTVSPost2010PropOp56
 70
     1
102
RTVSPost2010Prop57
140
1.0
102
RTVSPost2010PropOp57
 70
     1
102
RTVSPropertyOp0
 70
     1
102
RTVSPropertyOp1
 70
     1
102
RTVSPropertyOp2
 70
     1
102
RTVSPropertyOp3
 70
     1
102
RTVSPropertyOp4
 70
     1
102
RTVSPropertyOp5
 70
     1
102
RTVSPropertyOp6
 70
     1
102
RTVSPropertyOp7
 70
     1
102
RTVSPropertyOp8
 70
     1
102
RTVSPropertyOp9
 70
     1
102
RTVSPropertyOp10
 70
     1
102
RTVSPropertyOp11
 70
     1
102
RTVSPropertyOp12
 70
     1
102
RTVSPropertyOp13
 70
     1
102
RTVSPropertyOp14
 70
     1
102
RTVSPropertyOp15
 70
     1
102
RTVSPropertyOp16
 70
     1
102
RTVSPropertyOp17
 70
     1
102
RTVSPropertyOp18
 70
     1
102
RTVSPropertyOp19
 70
     1
102
RTVSPropertyOp20
 70
     1
102
RTVSPropertyOp21
 70
     1
102
RTVSPropertyOp22
 70
     1
102
RTVSPropertyOp23
 70
     1
102
RTVSPropertyOp24
 70
     1
102
RTVSPropertyOp25
 70
     1
102
RTVSPropertyOp26
 70
     1
102
RTVSPropertyOp27
 70
     1
102
RTVSPropertyOp28
 70
     1
102
RTVSPropertyOp29
 70
     1
102
RTVSPropertyOp30
 70
     1
102
RTVSPropertyOp31
 70
     1
102
RTVSPropertyOp32
 70
     1
102
RTVSPropertyOp33
 70
     1
102
RTVSPropertyOp34
 70
     1
102
RTVSPropertyOp35
 70
     1
102
RTVSPropertyOp36
 70
     1
102
RTVSPropertyOp37
 70
     1
102
RTVSPropertyOp38
 70
     1
102
RTVSPropertyOp39
 70
     1
102
RTVSPropertyOp40
 70
     1
102
RTVSPropertyOp41
 70
     1
102
RTVSPropertyOp42
 70
     1
102
RTVSPropertyOp43
 70
     1
102
RTVSPropertyOp44
 70
     1
102
RTVSPropertyOp45
 70
     1
102
RTVSPropertyOp46
 70
     1
102
RTVSPropertyOp47
 70
     1
102
RTVSPropertyOp48
 70
     1
102
RTVSPropertyOp49
 70
     1
102
RTVSPropertyOp50
 70
     1
102
RTVSPropertyOp51
 70
     0
102
RTVSPropertyOp52
 70
     0
102
RTVSPropertyOp53
 70
     1
102
RTVSPropertyOp54
 70
     1
102
RTVSPropertyOp55
 70
     1
102
RTVSPropertyOp56
 70
     1
102
RTVSPropertyOp57
 70
     1
102
RTVSPropertyOp58
 70
     1
102
RTVSPropertyOp59
 70
     1
102
RTVSPropertyOp60
 70
     1
102
RTVSPropertyOp61
 70
     1
102
RTVSPropertyOp62
 70
     1
  0
XRECORD
  5
A544
102
{ACAD_REACTORS
330
A543
102
}
330
A543
100
AcDbXrecord
280
     1
102
RTVSPost2010Prop28
280
     0
102
RTVSPost2010PropOp28
 70
     1
102
RTVSPost2010Prop29
280
     1
102
RTVSPost2010PropOp29
 70
     1
102
RTVSPost2010Prop30
280
     1
102
RTVSPost2010PropOp30
 70
     1
102
RTVSPost2010Prop31
280
     0
102
RTVSPost2010PropOp31
 70
     1
102
RTVSPost2010Prop32
280
     0
102
RTVSPost2010PropOp32
 70
     1
102
RTVSPost2010Prop33
280
     0
102
RTVSPost2010PropOp33
 70
     1
102
RTVSPost2010Prop34
280
     0
102
RTVSPost2010PropOp34
 70
     1
102
RTVSPost2010Prop35
280
     0
102
RTVSPost2010PropOp35
 70
     1
102
RTVSPost2010Prop36
280
     0
102
RTVSPost2010PropOp36
 70
     1
102
RTVSPost2010Prop37
 90
       50
102
RTVSPost2010PropOp37
 70
     1
102
RTVSPost2010Prop38
140
0.0
102
RTVSPost2010PropOp38
 70
     1
102
RTVSPost2010Prop39
140
1.0
102
RTVSPost2010PropOp39
 70
     1
102
RTVSPost2010Prop40
 90
        0
102
RTVSPost2010PropOp40
 70
     1
102
RTVSPost2010Prop41ColorIndex
 90
       18
102
RTVSPost2010Prop41ColorRGB
 90
        0
102
RTVSPost2010PropOp41
 70
     1
102
RTVSPost2010Prop42
 90
       50
102
RTVSPost2010PropOp42
 70
     1
102
RTVSPost2010Prop43
 90
        3
102
RTVSPost2010PropOp43
 70
     1
102
RTVSPost2010Prop44ColorIndex
 90
        5
102
RTVSPost2010Prop44ColorRGB
 90
      255
102
RTVSPost2010PropOp44
 70
     1
102
RTVSPost2010Prop45
280
     0
102
RTVSPost2010PropOp45
 70
     1
102
RTVSPost2010Prop46
 90
       50
102
RTVSPost2010PropOp46
 70
     1
102
RTVSPost2010Prop47
 90
       50
102
RTVSPost2010PropOp47
 70
     1
102
RTVSPost2010Prop48
 90
       50
102
RTVSPost2010PropOp48
 70
     1
102
RTVSPost2010Prop49
280
     0
102
RTVSPost2010PropOp49
 70
     1
102
RTVSPost2010Prop50
 90
       50
102
RTVSPost2010PropOp50
 70
     1
102
RTVSPost2010Prop51ColorIndex
 90
      256
102
RTVSPost2010Prop51ColorRGB
 90
-16777216
102
RTVSPost2010PropOp51
 70
     0
102
RTVSPost2010Prop52
140
1.0
102
RTVSPost2010PropOp52
 70
     0
102
RTVSPost2010Prop53
 90
        2
102
RTVSPost2010PropOp53
 70
     1
102
RTVSPost2010Prop54
  1
strokes_ogs.tif
102
RTVSPost2010PropOp54
 70
     1
102
RTVSPost2010Prop55
280
     0
102
RTVSPost2010PropOp55
 70
     1
102
RTVSPost2010Prop56
140
1.0
102
RTVSPost2010PropOp56
 70
     1
102
RTVSPost2010Prop57
140
1.0
102
RTVSPost2010PropOp57
 70
     1
102
RTVSPropertyOp0
 70
     1
102
RTVSPropertyOp1
 70
     1
102
RTVSPropertyOp2
 70
     1
102
RTVSPropertyOp3
 70
     1
102
RTVSPropertyOp4
 70
     1
102
RTVSPropertyOp5
 70
     1
102
RTVSPropertyOp6
 70
     1
102
RTVSPropertyOp7
 70
     1
102
RTVSPropertyOp8
 70
     1
102
RTVSPropertyOp9
 70
     1
102
RTVSPropertyOp10
 70
     1
102
RTVSPropertyOp11
 70
     1
102
RTVSPropertyOp12
 70
     1
102
RTVSPropertyOp13
 70
     1
102
RTVSPropertyOp14
 70
     1
102
RTVSPropertyOp15
 70
     1
102
RTVSPropertyOp16
 70
     1
102
RTVSPropertyOp17
 70
     1
102
RTVSPropertyOp18
 70
     1
102
RTVSPropertyOp19
 70
     1
102
RTVSPropertyOp20
 70
     1
102
RTVSPropertyOp21
 70
     1
102
RTVSPropertyOp22
 70
     1
102
RTVSPropertyOp23
 70
     1
102
RTVSPropertyOp24
 70
     1
102
RTVSPropertyOp25
 70
     1
102
RTVSPropertyOp26
 70
     1
102
RTVSPropertyOp27
 70
     1
102
RTVSPropertyOp28
 70
     1
102
RTVSPropertyOp29
 70
     1
102
RTVSPropertyOp30
 70
     1
102
RTVSPropertyOp31
 70
     1
102
RTVSPropertyOp32
 70
     1
102
RTVSPropertyOp33
 70
     1
102
RTVSPropertyOp34
 70
     1
102
RTVSPropertyOp35
 70
     1
102
RTVSPropertyOp36
 70
     1
102
RTVSPropertyOp37
 70
     1
102
RTVSPropertyOp38
 70
     1
102
RTVSPropertyOp39
 70
     1
102
RTVSPropertyOp40
 70
     1
102
RTVSPropertyOp41
 70
     1
102
RTVSPropertyOp42
 70
     1
102
RTVSPropertyOp43
 70
     1
102
RTVSPropertyOp44
 70
     1
102
RTVSPropertyOp45
 70
     1
102
RTVSPropertyOp46
 70
     1
102
RTVSPropertyOp47
 70
     1
102
RTVSPropertyOp48
 70
     1
102
RTVSPropertyOp49
 70
     1
102
RTVSPropertyOp50
 70
     1
102
RTVSPropertyOp51
 70
     0
102
RTVSPropertyOp52
 70
     0
102
RTVSPropertyOp53
 70
     1
102
RTVSPropertyOp54
 70
     1
102
RTVSPropertyOp55
 70
     1
102
RTVSPropertyOp56
 70
     1
102
RTVSPropertyOp57
 70
     1
102
RTVSPropertyOp58
 70
     1
102
RTVSPropertyOp59
 70
     1
102
RTVSPropertyOp60
 70
     1
102
RTVSPropertyOp61
 70
     1
102
RTVSPropertyOp62
 70
     1
  0
XRECORD
  5
A53E
102
{ACAD_REACTORS
330
A53D
102
}
330
A53D
100
AcDbXrecord
280
     1
102
RTVSPost2010Prop28
280
     0
102
RTVSPost2010PropOp28
 70
     1
102
RTVSPost2010Prop29
280
     1
102
RTVSPost2010PropOp29
 70
     1
102
RTVSPost2010Prop30
280
     1
102
RTVSPost2010PropOp30
 70
     1
102
RTVSPost2010Prop31
280
     0
102
RTVSPost2010PropOp31
 70
     1
102
RTVSPost2010Prop32
280
     0
102
RTVSPost2010PropOp32
 70
     1
102
RTVSPost2010Prop33
280
     0
102
RTVSPost2010PropOp33
 70
     1
102
RTVSPost2010Prop34
280
     0
102
RTVSPost2010PropOp34
 70
     1
102
RTVSPost2010Prop35
280
     0
102
RTVSPost2010PropOp35
 70
     1
102
RTVSPost2010Prop36
280
     0
102
RTVSPost2010PropOp36
 70
     1
102
RTVSPost2010Prop37
 90
       50
102
RTVSPost2010PropOp37
 70
     1
102
RTVSPost2010Prop38
140
0.0
102
RTVSPost2010PropOp38
 70
     1
102
RTVSPost2010Prop39
140
1.0
102
RTVSPost2010PropOp39
 70
     1
102
RTVSPost2010Prop40
 90
        0
102
RTVSPost2010PropOp40
 70
     1
102
RTVSPost2010Prop41ColorIndex
 90
       18
102
RTVSPost2010Prop41ColorRGB
 90
        0
102
RTVSPost2010PropOp41
 70
     1
102
RTVSPost2010Prop42
 90
       50
102
RTVSPost2010PropOp42
 70
     1
102
RTVSPost2010Prop43
 90
        3
102
RTVSPost2010PropOp43
 70
     1
102
RTVSPost2010Prop44ColorIndex
 90
        5
102
RTVSPost2010Prop44ColorRGB
 90
      255
102
RTVSPost2010PropOp44
 70
     1
102
RTVSPost2010Prop45
280
     0
102
RTVSPost2010PropOp45
 70
     1
102
RTVSPost2010Prop46
 90
       50
102
RTVSPost2010PropOp46
 70
     1
102
RTVSPost2010Prop47
 90
       50
102
RTVSPost2010PropOp47
 70
     1
102
RTVSPost2010Prop48
 90
       50
102
RTVSPost2010PropOp48
 70
     1
102
RTVSPost2010Prop49
280
     0
102
RTVSPost2010PropOp49
 70
     1
102
RTVSPost2010Prop50
 90
       50
102
RTVSPost2010PropOp50
 70
     1
102
RTVSPost2010Prop51ColorIndex
 90
      256
102
RTVSPost2010Prop51ColorRGB
 90
-16777216
102
RTVSPost2010PropOp51
 70
     0
102
RTVSPost2010Prop52
140
1.0
102
RTVSPost2010PropOp52
 70
     0
102
RTVSPost2010Prop53
 90
        2
102
RTVSPost2010PropOp53
 70
     1
102
RTVSPost2010Prop54
  1
strokes_ogs.tif
102
RTVSPost2010PropOp54
 70
     1
102
RTVSPost2010Prop55
280
     0
102
RTVSPost2010PropOp55
 70
     1
102
RTVSPost2010Prop56
140
1.0
102
RTVSPost2010PropOp56
 70
     1
102
RTVSPost2010Prop57
140
1.0
102
RTVSPost2010PropOp57
 70
     1
102
RTVSPropertyOp0
 70
     1
102
RTVSPropertyOp1
 70
     1
102
RTVSPropertyOp2
 70
     1
102
RTVSPropertyOp3
 70
     1
102
RTVSPropertyOp4
 70
     1
102
RTVSPropertyOp5
 70
     1
102
RTVSPropertyOp6
 70
     1
102
RTVSPropertyOp7
 70
     1
102
RTVSPropertyOp8
 70
     1
102
RTVSPropertyOp9
 70
     1
102
RTVSPropertyOp10
 70
     1
102
RTVSPropertyOp11
 70
     1
102
RTVSPropertyOp12
 70
     1
102
RTVSPropertyOp13
 70
     1
102
RTVSPropertyOp14
 70
     1
102
RTVSPropertyOp15
 70
     1
102
RTVSPropertyOp16
 70
     1
102
RTVSPropertyOp17
 70
     1
102
RTVSPropertyOp18
 70
     1
102
RTVSPropertyOp19
 70
     1
102
RTVSPropertyOp20
 70
     1
102
RTVSPropertyOp21
 70
     1
102
RTVSPropertyOp22
 70
     1
102
RTVSPropertyOp23
 70
     1
102
RTVSPropertyOp24
 70
     1
102
RTVSPropertyOp25
 70
     1
102
RTVSPropertyOp26
 70
     1
102
RTVSPropertyOp27
 70
     1
102
RTVSPropertyOp28
 70
     1
102
RTVSPropertyOp29
 70
     1
102
RTVSPropertyOp30
 70
     1
102
RTVSPropertyOp31
 70
     1
102
RTVSPropertyOp32
 70
     1
102
RTVSPropertyOp33
 70
     1
102
RTVSPropertyOp34
 70
     1
102
RTVSPropertyOp35
 70
     1
102
RTVSPropertyOp36
 70
     1
102
RTVSPropertyOp37
 70
     1
102
RTVSPropertyOp38
 70
     1
102
RTVSPropertyOp39
 70
     1
102
RTVSPropertyOp40
 70
     1
102
RTVSPropertyOp41
 70
     1
102
RTVSPropertyOp42
 70
     1
102
RTVSPropertyOp43
 70
     1
102
RTVSPropertyOp44
 70
     1
102
RTVSPropertyOp45
 70
     1
102
RTVSPropertyOp46
 70
     1
102
RTVSPropertyOp47
 70
     1
102
RTVSPropertyOp48
 70
     1
102
RTVSPropertyOp49
 70
     1
102
RTVSPropertyOp50
 70
     1
102
RTVSPropertyOp51
 70
     0
102
RTVSPropertyOp52
 70
     0
102
RTVSPropertyOp53
 70
     1
102
RTVSPropertyOp54
 70
     1
102
RTVSPropertyOp55
 70
     1
102
RTVSPropertyOp56
 70
     1
102
RTVSPropertyOp57
 70
     1
102
RTVSPropertyOp58
 70
     1
102
RTVSPropertyOp59
 70
     1
102
RTVSPropertyOp60
 70
     1
102
RTVSPropertyOp61
 70
     1
102
RTVSPropertyOp62
 70
     1
  0
XRECORD
  5
A540
102
{ACAD_REACTORS
330
A53F
102
}
330
A53F
100
AcDbXrecord
280
     1
102
RTVSPost2010Prop28
280
     0
102
RTVSPost2010PropOp28
 70
     1
102
RTVSPost2010Prop29
280
     1
102
RTVSPost2010PropOp29
 70
     1
102
RTVSPost2010Prop30
280
     1
102
RTVSPost2010PropOp30
 70
     1
102
RTVSPost2010Prop31
280
     0
102
RTVSPost2010PropOp31
 70
     1
102
RTVSPost2010Prop32
280
     0
102
RTVSPost2010PropOp32
 70
     1
102
RTVSPost2010Prop33
280
     0
102
RTVSPost2010PropOp33
 70
     1
102
RTVSPost2010Prop34
280
     0
102
RTVSPost2010PropOp34
 70
     1
102
RTVSPost2010Prop35
280
     0
102
RTVSPost2010PropOp35
 70
     1
102
RTVSPost2010Prop36
280
     0
102
RTVSPost2010PropOp36
 70
     1
102
RTVSPost2010Prop37
 90
       50
102
RTVSPost2010PropOp37
 70
     1
102
RTVSPost2010Prop38
140
0.0
102
RTVSPost2010PropOp38
 70
     1
102
RTVSPost2010Prop39
140
1.0
102
RTVSPost2010PropOp39
 70
     1
102
RTVSPost2010Prop40
 90
        0
102
RTVSPost2010PropOp40
 70
     1
102
RTVSPost2010Prop41ColorIndex
 90
       18
102
RTVSPost2010Prop41ColorRGB
 90
        0
102
RTVSPost2010PropOp41
 70
     1
102
RTVSPost2010Prop42
 90
       50
102
RTVSPost2010PropOp42
 70
     1
102
RTVSPost2010Prop43
 90
        3
102
RTVSPost2010PropOp43
 70
     1
102
RTVSPost2010Prop44ColorIndex
 90
        5
102
RTVSPost2010Prop44ColorRGB
 90
      255
102
RTVSPost2010PropOp44
 70
     1
102
RTVSPost2010Prop45
280
     0
102
RTVSPost2010PropOp45
 70
     1
102
RTVSPost2010Prop46
 90
       50
102
RTVSPost2010PropOp46
 70
     1
102
RTVSPost2010Prop47
 90
       50
102
RTVSPost2010PropOp47
 70
     1
102
RTVSPost2010Prop48
 90
       50
102
RTVSPost2010PropOp48
 70
     1
102
RTVSPost2010Prop49
280
     0
102
RTVSPost2010PropOp49
 70
     1
102
RTVSPost2010Prop50
 90
       50
102
RTVSPost2010PropOp50
 70
     1
102
RTVSPost2010Prop51ColorIndex
 90
      256
102
RTVSPost2010Prop51ColorRGB
 90
-16777216
102
RTVSPost2010PropOp51
 70
     0
102
RTVSPost2010Prop52
140
1.0
102
RTVSPost2010PropOp52
 70
     0
102
RTVSPost2010Prop53
 90
        2
102
RTVSPost2010PropOp53
 70
     1
102
RTVSPost2010Prop54
  1
strokes_ogs.tif
102
RTVSPost2010PropOp54
 70
     1
102
RTVSPost2010Prop55
280
     0
102
RTVSPost2010PropOp55
 70
     1
102
RTVSPost2010Prop56
140
1.0
102
RTVSPost2010PropOp56
 70
     1
102
RTVSPost2010Prop57
140
1.0
102
RTVSPost2010PropOp57
 70
     1
102
RTVSPropertyOp0
 70
     1
102
RTVSPropertyOp1
 70
     1
102
RTVSPropertyOp2
 70
     1
102
RTVSPropertyOp3
 70
     1
102
RTVSPropertyOp4
 70
     1
102
RTVSPropertyOp5
 70
     1
102
RTVSPropertyOp6
 70
     1
102
RTVSPropertyOp7
 70
     1
102
RTVSPropertyOp8
 70
     1
102
RTVSPropertyOp9
 70
     1
102
RTVSPropertyOp10
 70
     1
102
RTVSPropertyOp11
 70
     1
102
RTVSPropertyOp12
 70
     1
102
RTVSPropertyOp13
 70
     1
102
RTVSPropertyOp14
 70
     1
102
RTVSPropertyOp15
 70
     1
102
RTVSPropertyOp16
 70
     1
102
RTVSPropertyOp17
 70
     1
102
RTVSPropertyOp18
 70
     1
102
RTVSPropertyOp19
 70
     1
102
RTVSPropertyOp20
 70
     1
102
RTVSPropertyOp21
 70
     1
102
RTVSPropertyOp22
 70
     1
102
RTVSPropertyOp23
 70
     1
102
RTVSPropertyOp24
 70
     1
102
RTVSPropertyOp25
 70
     1
102
RTVSPropertyOp26
 70
     1
102
RTVSPropertyOp27
 70
     1
102
RTVSPropertyOp28
 70
     1
102
RTVSPropertyOp29
 70
     1
102
RTVSPropertyOp30
 70
     1
102
RTVSPropertyOp31
 70
     1
102
RTVSPropertyOp32
 70
     1
102
RTVSPropertyOp33
 70
     1
102
RTVSPropertyOp34
 70
     1
102
RTVSPropertyOp35
 70
     1
102
RTVSPropertyOp36
 70
     1
102
RTVSPropertyOp37
 70
     1
102
RTVSPropertyOp38
 70
     1
102
RTVSPropertyOp39
 70
     1
102
RTVSPropertyOp40
 70
     1
102
RTVSPropertyOp41
 70
     1
102
RTVSPropertyOp42
 70
     1
102
RTVSPropertyOp43
 70
     1
102
RTVSPropertyOp44
 70
     1
102
RTVSPropertyOp45
 70
     1
102
RTVSPropertyOp46
 70
     1
102
RTVSPropertyOp47
 70
     1
102
RTVSPropertyOp48
 70
     1
102
RTVSPropertyOp49
 70
     1
102
RTVSPropertyOp50
 70
     1
102
RTVSPropertyOp51
 70
     0
102
RTVSPropertyOp52
 70
     0
102
RTVSPropertyOp53
 70
     1
102
RTVSPropertyOp54
 70
     1
102
RTVSPropertyOp55
 70
     1
102
RTVSPropertyOp56
 70
     1
102
RTVSPropertyOp57
 70
     1
102
RTVSPropertyOp58
 70
     1
102
RTVSPropertyOp59
 70
     1
102
RTVSPropertyOp60
 70
     1
102
RTVSPropertyOp61
 70
     1
102
RTVSPropertyOp62
 70
     1
  0
XRECORD
  5
A536
102
{ACAD_REACTORS
330
A535
102
}
330
A535
100
AcDbXrecord
280
     1
102
RTVSPost2010Prop28
280
     0
102
RTVSPost2010PropOp28
 70
     1
102
RTVSPost2010Prop29
280
     1
102
RTVSPost2010PropOp29
 70
     1
102
RTVSPost2010Prop30
280
     1
102
RTVSPost2010PropOp30
 70
     1
102
RTVSPost2010Prop31
280
     0
102
RTVSPost2010PropOp31
 70
     1
102
RTVSPost2010Prop32
280
     0
102
RTVSPost2010PropOp32
 70
     1
102
RTVSPost2010Prop33
280
     0
102
RTVSPost2010PropOp33
 70
     1
102
RTVSPost2010Prop34
280
     0
102
RTVSPost2010PropOp34
 70
     1
102
RTVSPost2010Prop35
280
     0
102
RTVSPost2010PropOp35
 70
     1
102
RTVSPost2010Prop36
280
     0
102
RTVSPost2010PropOp36
 70
     1
102
RTVSPost2010Prop37
 90
       50
102
RTVSPost2010PropOp37
 70
     1
102
RTVSPost2010Prop38
140
0.0
102
RTVSPost2010PropOp38
 70
     1
102
RTVSPost2010Prop39
140
1.0
102
RTVSPost2010PropOp39
 70
     1
102
RTVSPost2010Prop40
 90
        0
102
RTVSPost2010PropOp40
 70
     1
102
RTVSPost2010Prop41ColorIndex
 90
       18
102
RTVSPost2010Prop41ColorRGB
 90
        0
102
RTVSPost2010PropOp41
 70
     1
102
RTVSPost2010Prop42
 90
       50
102
RTVSPost2010PropOp42
 70
     1
102
RTVSPost2010Prop43
 90
        3
102
RTVSPost2010PropOp43
 70
     1
102
RTVSPost2010Prop44ColorIndex
 90
        5
102
RTVSPost2010Prop44ColorRGB
 90
      255
102
RTVSPost2010PropOp44
 70
     1
102
RTVSPost2010Prop45
280
     0
102
RTVSPost2010PropOp45
 70
     1
102
RTVSPost2010Prop46
 90
       50
102
RTVSPost2010PropOp46
 70
     1
102
RTVSPost2010Prop47
 90
       50
102
RTVSPost2010PropOp47
 70
     1
102
RTVSPost2010Prop48
 90
       50
102
RTVSPost2010PropOp48
 70
     1
102
RTVSPost2010Prop49
280
     0
102
RTVSPost2010PropOp49
 70
     1
102
RTVSPost2010Prop50
 90
       50
102
RTVSPost2010PropOp50
 70
     1
102
RTVSPost2010Prop51ColorIndex
 90
      256
102
RTVSPost2010Prop51ColorRGB
 90
-16777216
102
RTVSPost2010PropOp51
 70
     0
102
RTVSPost2010Prop52
140
1.0
102
RTVSPost2010PropOp52
 70
     0
102
RTVSPost2010Prop53
 90
        2
102
RTVSPost2010PropOp53
 70
     1
102
RTVSPost2010Prop54
  1
strokes_ogs.tif
102
RTVSPost2010PropOp54
 70
     1
102
RTVSPost2010Prop55
280
     0
102
RTVSPost2010PropOp55
 70
     1
102
RTVSPost2010Prop56
140
1.0
102
RTVSPost2010PropOp56
 70
     1
102
RTVSPost2010Prop57
140
1.0
102
RTVSPost2010PropOp57
 70
     1
102
RTVSPropertyOp0
 70
     1
102
RTVSPropertyOp1
 70
     1
102
RTVSPropertyOp2
 70
     1
102
RTVSPropertyOp3
 70
     1
102
RTVSPropertyOp4
 70
     1
102
RTVSPropertyOp5
 70
     1
102
RTVSPropertyOp6
 70
     1
102
RTVSPropertyOp7
 70
     1
102
RTVSPropertyOp8
 70
     1
102
RTVSPropertyOp9
 70
     1
102
RTVSPropertyOp10
 70
     1
102
RTVSPropertyOp11
 70
     1
102
RTVSPropertyOp12
 70
     1
102
RTVSPropertyOp13
 70
     1
102
RTVSPropertyOp14
 70
     1
102
RTVSPropertyOp15
 70
     1
102
RTVSPropertyOp16
 70
     1
102
RTVSPropertyOp17
 70
     1
102
RTVSPropertyOp18
 70
     1
102
RTVSPropertyOp19
 70
     1
102
RTVSPropertyOp20
 70
     1
102
RTVSPropertyOp21
 70
     1
102
RTVSPropertyOp22
 70
     1
102
RTVSPropertyOp23
 70
     1
102
RTVSPropertyOp24
 70
     1
102
RTVSPropertyOp25
 70
     1
102
RTVSPropertyOp26
 70
     1
102
RTVSPropertyOp27
 70
     1
102
RTVSPropertyOp28
 70
     1
102
RTVSPropertyOp29
 70
     1
102
RTVSPropertyOp30
 70
     1
102
RTVSPropertyOp31
 70
     1
102
RTVSPropertyOp32
 70
     1
102
RTVSPropertyOp33
 70
     1
102
RTVSPropertyOp34
 70
     1
102
RTVSPropertyOp35
 70
     1
102
RTVSPropertyOp36
 70
     1
102
RTVSPropertyOp37
 70
     1
102
RTVSPropertyOp38
 70
     1
102
RTVSPropertyOp39
 70
     1
102
RTVSPropertyOp40
 70
     1
102
RTVSPropertyOp41
 70
     1
102
RTVSPropertyOp42
 70
     1
102
RTVSPropertyOp43
 70
     1
102
RTVSPropertyOp44
 70
     1
102
RTVSPropertyOp45
 70
     1
102
RTVSPropertyOp46
 70
     1
102
RTVSPropertyOp47
 70
     1
102
RTVSPropertyOp48
 70
     1
102
RTVSPropertyOp49
 70
     1
102
RTVSPropertyOp50
 70
     1
102
RTVSPropertyOp51
 70
     0
102
RTVSPropertyOp52
 70
     0
102
RTVSPropertyOp53
 70
     1
102
RTVSPropertyOp54
 70
     1
102
RTVSPropertyOp55
 70
     1
102
RTVSPropertyOp56
 70
     1
102
RTVSPropertyOp57
 70
     1
102
RTVSPropertyOp58
 70
     1
102
RTVSPropertyOp59
 70
     1
102
RTVSPropertyOp60
 70
     1
102
RTVSPropertyOp61
 70
     1
102
RTVSPropertyOp62
 70
     1
  0
XRECORD
  5
A52A
102
{ACAD_REACTORS
330
A529
102
}
330
A529
100
AcDbXrecord
280
     1
102
RTVSPost2010Prop28
280
     0
102
RTVSPost2010PropOp28
 70
     1
102
RTVSPost2010Prop29
280
     1
102
RTVSPost2010PropOp29
 70
     1
102
RTVSPost2010Prop30
280
     1
102
RTVSPost2010PropOp30
 70
     1
102
RTVSPost2010Prop31
280
     0
102
RTVSPost2010PropOp31
 70
     1
102
RTVSPost2010Prop32
280
     0
102
RTVSPost2010PropOp32
 70
     1
102
RTVSPost2010Prop33
280
     0
102
RTVSPost2010PropOp33
 70
     1
102
RTVSPost2010Prop34
280
     0
102
RTVSPost2010PropOp34
 70
     1
102
RTVSPost2010Prop35
280
     0
102
RTVSPost2010PropOp35
 70
     1
102
RTVSPost2010Prop36
280
     0
102
RTVSPost2010PropOp36
 70
     1
102
RTVSPost2010Prop37
 90
       50
102
RTVSPost2010PropOp37
 70
     1
102
RTVSPost2010Prop38
140
0.0
102
RTVSPost2010PropOp38
 70
     1
102
RTVSPost2010Prop39
140
1.0
102
RTVSPost2010PropOp39
 70
     1
102
RTVSPost2010Prop40
 90
        0
102
RTVSPost2010PropOp40
 70
     1
102
RTVSPost2010Prop41ColorIndex
 90
       18
102
RTVSPost2010Prop41ColorRGB
 90
        0
102
RTVSPost2010PropOp41
 70
     1
102
RTVSPost2010Prop42
 90
       50
102
RTVSPost2010PropOp42
 70
     1
102
RTVSPost2010Prop43
 90
        3
102
RTVSPost2010PropOp43
 70
     1
102
RTVSPost2010Prop44ColorIndex
 90
        5
102
RTVSPost2010Prop44ColorRGB
 90
      255
102
RTVSPost2010PropOp44
 70
     1
102
RTVSPost2010Prop45
280
     0
102
RTVSPost2010PropOp45
 70
     1
102
RTVSPost2010Prop46
 90
       50
102
RTVSPost2010PropOp46
 70
     1
102
RTVSPost2010Prop47
 90
       50
102
RTVSPost2010PropOp47
 70
     1
102
RTVSPost2010Prop48
 90
       50
102
RTVSPost2010PropOp48
 70
     1
102
RTVSPost2010Prop49
280
     0
102
RTVSPost2010PropOp49
 70
     1
102
RTVSPost2010Prop50
 90
       50
102
RTVSPost2010PropOp50
 70
     1
102
RTVSPost2010Prop51ColorIndex
 90
      256
102
RTVSPost2010Prop51ColorRGB
 90
-16777216
102
RTVSPost2010PropOp51
 70
     0
102
RTVSPost2010Prop52
140
1.0
102
RTVSPost2010PropOp52
 70
     0
102
RTVSPost2010Prop53
 90
        2
102
RTVSPost2010PropOp53
 70
     1
102
RTVSPost2010Prop54
  1
strokes_ogs.tif
102
RTVSPost2010PropOp54
 70
     1
102
RTVSPost2010Prop55
280
     0
102
RTVSPost2010PropOp55
 70
     1
102
RTVSPost2010Prop56
140
1.0
102
RTVSPost2010PropOp56
 70
     1
102
RTVSPost2010Prop57
140
1.0
102
RTVSPost2010PropOp57
 70
     1
102
RTVSPropertyOp0
 70
     1
102
RTVSPropertyOp1
 70
     1
102
RTVSPropertyOp2
 70
     1
102
RTVSPropertyOp3
 70
     1
102
RTVSPropertyOp4
 70
     1
102
RTVSPropertyOp5
 70
     1
102
RTVSPropertyOp6
 70
     1
102
RTVSPropertyOp7
 70
     1
102
RTVSPropertyOp8
 70
     1
102
RTVSPropertyOp9
 70
     1
102
RTVSPropertyOp10
 70
     1
102
RTVSPropertyOp11
 70
     1
102
RTVSPropertyOp12
 70
     1
102
RTVSPropertyOp13
 70
     1
102
RTVSPropertyOp14
 70
     1
102
RTVSPropertyOp15
 70
     1
102
RTVSPropertyOp16
 70
     1
102
RTVSPropertyOp17
 70
     1
102
RTVSPropertyOp18
 70
     1
102
RTVSPropertyOp19
 70
     1
102
RTVSPropertyOp20
 70
     1
102
RTVSPropertyOp21
 70
     1
102
RTVSPropertyOp22
 70
     1
102
RTVSPropertyOp23
 70
     1
102
RTVSPropertyOp24
 70
     1
102
RTVSPropertyOp25
 70
     1
102
RTVSPropertyOp26
 70
     1
102
RTVSPropertyOp27
 70
     1
102
RTVSPropertyOp28
 70
     1
102
RTVSPropertyOp29
 70
     1
102
RTVSPropertyOp30
 70
     1
102
RTVSPropertyOp31
 70
     1
102
RTVSPropertyOp32
 70
     1
102
RTVSPropertyOp33
 70
     1
102
RTVSPropertyOp34
 70
     1
102
RTVSPropertyOp35
 70
     1
102
RTVSPropertyOp36
 70
     1
102
RTVSPropertyOp37
 70
     1
102
RTVSPropertyOp38
 70
     1
102
RTVSPropertyOp39
 70
     1
102
RTVSPropertyOp40
 70
     1
102
RTVSPropertyOp41
 70
     1
102
RTVSPropertyOp42
 70
     1
102
RTVSPropertyOp43
 70
     1
102
RTVSPropertyOp44
 70
     1
102
RTVSPropertyOp45
 70
     1
102
RTVSPropertyOp46
 70
     1
102
RTVSPropertyOp47
 70
     1
102
RTVSPropertyOp48
 70
     1
102
RTVSPropertyOp49
 70
     1
102
RTVSPropertyOp50
 70
     1
102
RTVSPropertyOp51
 70
     0
102
RTVSPropertyOp52
 70
     0
102
RTVSPropertyOp53
 70
     1
102
RTVSPropertyOp54
 70
     1
102
RTVSPropertyOp55
 70
     1
102
RTVSPropertyOp56
 70
     1
102
RTVSPropertyOp57
 70
     1
102
RTVSPropertyOp58
 70
     1
102
RTVSPropertyOp59
 70
     1
102
RTVSPropertyOp60
 70
     1
102
RTVSPropertyOp61
 70
     1
102
RTVSPropertyOp62
 70
     1
  0
XRECORD
  5
A542
102
{ACAD_REACTORS
330
A541
102
}
330
A541
100
AcDbXrecord
280
     1
102
RTVSPost2010Prop28
280
     0
102
RTVSPost2010PropOp28
 70
     1
102
RTVSPost2010Prop29
280
     1
102
RTVSPost2010PropOp29
 70
     1
102
RTVSPost2010Prop30
280
     1
102
RTVSPost2010PropOp30
 70
     1
102
RTVSPost2010Prop31
280
     0
102
RTVSPost2010PropOp31
 70
     1
102
RTVSPost2010Prop32
280
     0
102
RTVSPost2010PropOp32
 70
     1
102
RTVSPost2010Prop33
280
     0
102
RTVSPost2010PropOp33
 70
     1
102
RTVSPost2010Prop34
280
     0
102
RTVSPost2010PropOp34
 70
     1
102
RTVSPost2010Prop35
280
     0
102
RTVSPost2010PropOp35
 70
     1
102
RTVSPost2010Prop36
280
     0
102
RTVSPost2010PropOp36
 70
     1
102
RTVSPost2010Prop37
 90
       50
102
RTVSPost2010PropOp37
 70
     1
102
RTVSPost2010Prop38
140
0.0
102
RTVSPost2010PropOp38
 70
     1
102
RTVSPost2010Prop39
140
1.0
102
RTVSPost2010PropOp39
 70
     1
102
RTVSPost2010Prop40
 90
        0
102
RTVSPost2010PropOp40
 70
     1
102
RTVSPost2010Prop41ColorIndex
 90
       18
102
RTVSPost2010Prop41ColorRGB
 90
        0
102
RTVSPost2010PropOp41
 70
     1
102
RTVSPost2010Prop42
 90
       50
102
RTVSPost2010PropOp42
 70
     1
102
RTVSPost2010Prop43
 90
        3
102
RTVSPost2010PropOp43
 70
     1
102
RTVSPost2010Prop44ColorIndex
 90
        5
102
RTVSPost2010Prop44ColorRGB
 90
      255
102
RTVSPost2010PropOp44
 70
     1
102
RTVSPost2010Prop45
280
     0
102
RTVSPost2010PropOp45
 70
     1
102
RTVSPost2010Prop46
 90
       50
102
RTVSPost2010PropOp46
 70
     1
102
RTVSPost2010Prop47
 90
       50
102
RTVSPost2010PropOp47
 70
     1
102
RTVSPost2010Prop48
 90
       50
102
RTVSPost2010PropOp48
 70
     1
102
RTVSPost2010Prop49
280
     0
102
RTVSPost2010PropOp49
 70
     1
102
RTVSPost2010Prop50
 90
       50
102
RTVSPost2010PropOp50
 70
     1
102
RTVSPost2010Prop51ColorIndex
 90
      256
102
RTVSPost2010Prop51ColorRGB
 90
-16777216
102
RTVSPost2010PropOp51
 70
     0
102
RTVSPost2010Prop52
140
1.0
102
RTVSPost2010PropOp52
 70
     0
102
RTVSPost2010Prop53
 90
        2
102
RTVSPost2010PropOp53
 70
     1
102
RTVSPost2010Prop54
  1
strokes_ogs.tif
102
RTVSPost2010PropOp54
 70
     1
102
RTVSPost2010Prop55
280
     0
102
RTVSPost2010PropOp55
 70
     1
102
RTVSPost2010Prop56
140
1.0
102
RTVSPost2010PropOp56
 70
     1
102
RTVSPost2010Prop57
140
1.0
102
RTVSPost2010PropOp57
 70
     1
102
RTVSPropertyOp0
 70
     1
102
RTVSPropertyOp1
 70
     1
102
RTVSPropertyOp2
 70
     1
102
RTVSPropertyOp3
 70
     1
102
RTVSPropertyOp4
 70
     1
102
RTVSPropertyOp5
 70
     1
102
RTVSPropertyOp6
 70
     1
102
RTVSPropertyOp7
 70
     1
102
RTVSPropertyOp8
 70
     1
102
RTVSPropertyOp9
 70
     1
102
RTVSPropertyOp10
 70
     1
102
RTVSPropertyOp11
 70
     1
102
RTVSPropertyOp12
 70
     1
102
RTVSPropertyOp13
 70
     1
102
RTVSPropertyOp14
 70
     1
102
RTVSPropertyOp15
 70
     1
102
RTVSPropertyOp16
 70
     1
102
RTVSPropertyOp17
 70
     1
102
RTVSPropertyOp18
 70
     1
102
RTVSPropertyOp19
 70
     1
102
RTVSPropertyOp20
 70
     1
102
RTVSPropertyOp21
 70
     1
102
RTVSPropertyOp22
 70
     1
102
RTVSPropertyOp23
 70
     1
102
RTVSPropertyOp24
 70
     1
102
RTVSPropertyOp25
 70
     1
102
RTVSPropertyOp26
 70
     1
102
RTVSPropertyOp27
 70
     1
102
RTVSPropertyOp28
 70
     1
102
RTVSPropertyOp29
 70
     1
102
RTVSPropertyOp30
 70
     1
102
RTVSPropertyOp31
 70
     1
102
RTVSPropertyOp32
 70
     1
102
RTVSPropertyOp33
 70
     1
102
RTVSPropertyOp34
 70
     1
102
RTVSPropertyOp35
 70
     1
102
RTVSPropertyOp36
 70
     1
102
RTVSPropertyOp37
 70
     1
102
RTVSPropertyOp38
 70
     1
102
RTVSPropertyOp39
 70
     1
102
RTVSPropertyOp40
 70
     1
102
RTVSPropertyOp41
 70
     1
102
RTVSPropertyOp42
 70
     1
102
RTVSPropertyOp43
 70
     1
102
RTVSPropertyOp44
 70
     1
102
RTVSPropertyOp45
 70
     1
102
RTVSPropertyOp46
 70
     1
102
RTVSPropertyOp47
 70
     1
102
RTVSPropertyOp48
 70
     1
102
RTVSPropertyOp49
 70
     1
102
RTVSPropertyOp50
 70
     1
102
RTVSPropertyOp51
 70
     0
102
RTVSPropertyOp52
 70
     0
102
RTVSPropertyOp53
 70
     1
102
RTVSPropertyOp54
 70
     1
102
RTVSPropertyOp55
 70
     1
102
RTVSPropertyOp56
 70
     1
102
RTVSPropertyOp57
 70
     1
102
RTVSPropertyOp58
 70
     1
102
RTVSPropertyOp59
 70
     1
102
RTVSPropertyOp60
 70
     1
102
RTVSPropertyOp61
 70
     1
102
RTVSPropertyOp62
 70
     1
  0
ENDSEC
  0
EOF
