  0
SECTION
  2
HEADER
  9
$ACADVER
  1
AC1015
  9
$ACADMAINTVER
 70
    20
  9
$DWGCODEPAGE
  3
ANSI_932
  9
$INSBASE
 10
0.0
 20
0.0
 30
0.0
  9
$EXTMIN
 10
10.0
 20
9.999999999999998
 30
0.0
  9
$EXTMAX
 10
245.3991789999999
 20
210.0340759999999
 30
0.0
  9
$LIMMIN
 10
0.0
 20
0.0
  9
$LIMMAX
 10
396.0
 20
273.0
  9
$ORTHOMODE
 70
     1
  9
$REGENMODE
 70
     1
  9
$FILLMODE
 70
     1
  9
$QTEXTMODE
 70
     0
  9
$MIRRTEXT
 70
     1
  9
$LTSCALE
 40
20.0
  9
$ATTMODE
 70
     1
  9
$TEXTSIZE
 40
5.0
  9
$TRACEWID
 40
1.0
  9
$TEXTSTYLE
  7
STANDARD
  9
$CLAYER
  8
0
  9
$CELTYPE
  6
BYLAYER
  9
$CECOLOR
 62
   256
  9
$CELTSCALE
 40
1.0
  9
$DISPSILH
 70
     0
  9
$DIMSCALE
 40
1.0
  9
$DIMASZ
 40
2.5
  9
$DIMEXO
 40
1.0
  9
$DIMDLI
 40
7.0
  9
$DIMRND
 40
0.0
  9
$DIMDLE
 40
0.0
  9
$DIMEXE
 40
1.0
  9
$DIMTP
 40
0.0
  9
$DIMTM
 40
0.0
  9
$DIMTXT
 40
2.5
  9
$DIMCEN
 40
0.0
  9
$DIMTSZ
 40
0.0
  9
$DIMTOL
 70
     0
  9
$DIMLIM
 70
     0
  9
$DIMTIH
 70
     0
  9
$DIMTOH
 70
     0
  9
$DIMSE1
 70
     0
  9
$DIMSE2
 70
     0
  9
$DIMTAD
 70
     1
  9
$DIMZIN
 70
     8
  9
$DIMBLK
  1

  9
$DIMASO
 70
     1
  9
$DIMSHO
 70
     1
  9
$DIMPOST
  1

  9
$DIMAPOST
  1

  9
$DIMALT
 70
     0
  9
$DIMALTD
 70
     2
  9
$DIMALTF
 40
0.0394
  9
$DIMLFAC
 40
1.0
  9
$DIMTOFL
 70
     1
  9
$DIMTVP
 40
0.0
  9
$DIMTIX
 70
     1
  9
$DIMSOXD
 70
     1
  9
$DIMSAH
 70
     0
  9
$DIMBLK1
  1

  9
$DIMBLK2
  1

  9
$DIMSTYLE
  2
JIS
  9
$DIMCLRD
 70
     0
  9
$DIMCLRE
 70
     0
  9
$DIMCLRT
 70
     0
  9
$DIMTFAC
 40
1.0
  9
$DIMGAP
 40
0.0
  9
$DIMJUST
 70
     0
  9
$DIMSD1
 70
     0
  9
$DIMSD2
 70
     0
  9
$DIMTOLJ
 70
     1
  9
$DIMTZIN
 70
     0
  9
$DIMALTZ
 70
     0
  9
$DIMALTTZ
 70
     0
  9
$DIMUPT
 70
     0
  9
$DIMDEC
 70
     4
  9
$DIMTDEC
 70
     4
  9
$DIMALTU
 70
     2
  9
$DIMALTTD
 70
     2
  9
$DIMTXSTY
  7
STANDARD
  9
$DIMAUNIT
 70
     0
  9
$DIMADEC
 70
     0
  9
$DIMALTRND
 40
0.0
  9
$DIMAZIN
 70
     0
  9
$DIMDSEP
 70
    46
  9
$DIMATFIT
 70
     3
  9
$DIMFRAC
 70
     0
  9
$DIMLDRBLK
  1

  9
$DIMLUNIT
 70
     2
  9
$DIMLWD
 70
    -2
  9
$DIMLWE
 70
    -2
  9
$DIMTMOVE
 70
     0
  9
$LUNITS
 70
     2
  9
$LUPREC
 70
     4
  9
$SKETCHINC
 40
1.0
  9
$FILLETRAD
 40
2.5
  9
$AUNITS
 70
     0
  9
$AUPREC
 70
     2
  9
$MENU
  1
.
  9
$ELEVATION
 40
0.0
  9
$PELEVATION
 40
0.0
  9
$THICKNESS
 40
0.0
  9
$LIMCHECK
 70
     0
  9
$CHAMFERA
 40
10.0
  9
$CHAMFERB
 40
10.0
  9
$CHAMFERC
 40
0.0
  9
$CHAMFERD
 40
0.0
  9
$SKPOLY
 70
     0
  9
$TDCREATE
 40
2450737.633608681
  9
$TDUCREATE
 40
2450737.258608681
  9
$TDUPDATE
 40
2457192.638998010
  9
$TDUUPDATE
 40
2457192.263998009
  9
$TDINDWG
 40
0.0000140162
  9
$TDUSRTIMER
 40
0.0000136921
  9
$USRTIMER
 70
     1
  9
$ANGBASE
 50
0.0
  9
$ANGDIR
 70
     0
  9
$PDMODE
 70
     0
  9
$PDSIZE
 40
0.0
  9
$PLINEWID
 40
0.0
  9
$SPLFRAME
 70
     0
  9
$SPLINETYPE
 70
     6
  9
$SPLINESEGS
 70
     8
  9
$HANDSEED
  5
970C
  9
$SURFTAB1
 70
     6
  9
$SURFTAB2
 70
     6
  9
$SURFTYPE
 70
     6
  9
$SURFU
 70
     6
  9
$SURFV
 70
     6
  9
$UCSBASE
  2

  9
$UCSNAME
  2

  9
$UCSORG
 10
0.0
 20
0.0
 30
0.0
  9
$UCSXDIR
 10
1.0
 20
0.0
 30
0.0
  9
$UCSYDIR
 10
0.0
 20
1.0
 30
0.0
  9
$UCSORTHOREF
  2

  9
$UCSORTHOVIEW
 70
     0
  9
$UCSORGTOP
 10
0.0
 20
0.0
 30
0.0
  9
$UCSORGBOTTOM
 10
0.0
 20
0.0
 30
0.0
  9
$UCSORGLEFT
 10
0.0
 20
0.0
 30
0.0
  9
$UCSORGRIGHT
 10
0.0
 20
0.0
 30
0.0
  9
$UCSORGFRONT
 10
0.0
 20
0.0
 30
0.0
  9
$UCSORGBACK
 10
0.0
 20
0.0
 30
0.0
  9
$PUCSBASE
  2

  9
$PUCSNAME
  2

  9
$PUCSORG
 10
0.0
 20
0.0
 30
0.0
  9
$PUCSXDIR
 10
1.0
 20
0.0
 30
0.0
  9
$PUCSYDIR
 10
0.0
 20
1.0
 30
0.0
  9
$PUCSORTHOREF
  2

  9
$PUCSORTHOVIEW
 70
     0
  9
$PUCSORGTOP
 10
0.0
 20
0.0
 30
0.0
  9
$PUCSORGBOTTOM
 10
0.0
 20
0.0
 30
0.0
  9
$PUCSORGLEFT
 10
0.0
 20
0.0
 30
0.0
  9
$PUCSORGRIGHT
 10
0.0
 20
0.0
 30
0.0
  9
$PUCSORGFRONT
 10
0.0
 20
0.0
 30
0.0
  9
$PUCSORGBACK
 10
0.0
 20
0.0
 30
0.0
  9
$USERI1
 70
     0
  9
$USERI2
 70
     0
  9
$USERI3
 70
     0
  9
$USERI4
 70
     0
  9
$USERI5
 70
     0
  9
$USERR1
 40
0.0
  9
$USERR2
 40
0.0
  9
$USERR3
 40
0.0
  9
$USERR4
 40
0.0
  9
$USERR5
 40
0.0
  9
$WORLDVIEW
 70
     1
  9
$SHADEDGE
 70
     3
  9
$SHADEDIF
 70
    70
  9
$TILEMODE
 70
     1
  9
$MAXACTVP
 70
    16
  9
$PINSBASE
 10
0.0
 20
0.0
 30
0.0
  9
$PLIMCHECK
 70
     0
  9
$PEXTMIN
 10
1.000000000000000E+20
 20
1.000000000000000E+20
 30
1.000000000000000E+20
  9
$PEXTMAX
 10
-1.000000000000000E+20
 20
-1.000000000000000E+20
 30
-1.000000000000000E+20
  9
$PLIMMIN
 10
0.0
 20
0.0
  9
$PLIMMAX
 10
420.0
 20
297.0
  9
$UNITMODE
 70
     0
  9
$VISRETAIN
 70
     0
  9
$PLINEGEN
 70
     0
  9
$PSLTSCALE
 70
     0
  9
$TREEDEPTH
 70
  3020
  9
$CMLSTYLE
  2
STANDARD
  9
$CMLJUST
 70
     0
  9
$CMLSCALE
 40
1.0
  9
$PROXYGRAPHICS
 70
     1
  9
$MEASUREMENT
 70
     0
  9
$CELWEIGHT
370
    -1
  9
$ENDCAPS
280
     0
  9
$JOINSTYLE
280
     0
  9
$LWDISPLAY
290
     0
  9
$INSUNITS
 70
     0
  9
$HYPERLINKBASE
  1

  9
$STYLESHEET
  1

  9
$XEDIT
290
     1
  9
$CEPSNTYPE
380
     0
  9
$PSTYLEMODE
290
     1
  9
$FINGERPRINTGUID
  2
{DB6A50C8-4695-4B2B-843E-5F9A3068F745}
  9
$VERSIONGUID
  2
{EB7A01E7-E87B-49F4-AAFE-3A1C78D5E994}
  9
$EXTNAMES
290
     1
  9
$PSVPSCALE
 40
0.0
  9
$OLESTARTUP
290
     0
  0
ENDSEC
  0
SECTION
  2
CLASSES
  0
CLASS
  1
ACDBDICTIONARYWDFLT
  2
AcDbDictionaryWithDefault
  3
ObjectDBX Classes
 90
        0
280
     0
281
     0
  0
CLASS
  1
ACDBPLACEHOLDER
  2
AcDbPlaceHolder
  3
ObjectDBX Classes
 90
        0
280
     0
281
     0
  0
CLASS
  1
LAYOUT
  2
AcDbLayout
  3
ObjectDBX Classes
 90
        0
280
     0
281
     0
  0
CLASS
  1
DICTIONARYVAR
  2
AcDbDictionaryVar
  3
ObjectDBX Classes
 90
        0
280
     0
281
     0
  0
CLASS
  1
MATERIAL
  2
AcDbMaterial
  3
ObjectDBX Classes
 90
     1153
280
     0
281
     0
  0
CLASS
  1
VISUALSTYLE
  2
AcDbVisualStyle
  3
ObjectDBX Classes
 90
     4095
280
     0
281
     0
  0
CLASS
  1
TABLESTYLE
  2
AcDbTableStyle
  3
ObjectDBX Classes
 90
     4095
280
     0
281
     0
  0
CLASS
  1
SCALE
  2
AcDbScale
  3
ObjectDBX Classes
 90
     1153
280
     0
281
     0
  0
CLASS
  1
MLEADERSTYLE
  2
AcDbMLeaderStyle
  3
ACDB_MLEADERSTYLE_CLASS
 90
     4095
280
     0
281
     0
  0
CLASS
  1
ACDBSECTIONVIEWSTYLE
  2
AcDbSectionViewStyle
  3
ObjectDBX Classes
 90
     1025
280
     0
281
     0
  0
CLASS
  1
ACDBDETAILVIEWSTYLE
  2
AcDbDetailViewStyle
  3
ObjectDBX Classes
 90
     1025
280
     0
281
     0
  0
CLASS
  1
CELLSTYLEMAP
  2
AcDbCellStyleMap
  3
ObjectDBX Classes
 90
     1152
280
     0
281
     0
  0
ENDSEC
  0
SECTION
  2
TABLES
  0
TABLE
  2
VPORT
  5
940B
330
0
100
AcDbSymbolTable
 70
     1
  0
VPORT
  5
9655
330
940B
100
AcDbSymbolTableRecord
100
AcDbViewportTableRecord
  2
*ACTIVE
 70
     0
 10
0.0
 20
0.0
 11
1.0
 21
1.0
 12
188.2888850627367
 22
110.0168844548948
 13
0.0
 23
0.0
 14
10.0
 24
10.0
 15
10.0
 25
10.0
 16
0.0
 26
0.0
 36
1.0
 17
0.0
 27
0.0
 37
0.0
 40
202.2928152056072
 41
1.899603698811096
 42
50.0
 43
0.0
 44
0.0
 50
0.0
 51
0.0
 71
     0
 72
   100
 73
     1
 74
     0
 75
     0
 76
     0
 77
     0
 78
     0
281
     0
 65
     1
110
0.0
120
0.0
130
0.0
111
1.0
121
0.0
131
0.0
112
0.0
122
1.0
132
0.0
 79
     0
146
0.0
1001
ACAD_NAV_VCDISPLAY
1070
     3
  0
ENDTAB
  0
TABLE
  2
LTYPE
  5
9408
330
0
100
AcDbSymbolTable
 70
     4
  0
LTYPE
  5
9416
330
9408
100
AcDbSymbolTableRecord
100
AcDbLinetypeTableRecord
  2
BYBLOCK
 70
     0
  3

 72
    65
 73
     0
 40
0.0
  0
LTYPE
  5
9417
330
9408
100
AcDbSymbolTableRecord
100
AcDbLinetypeTableRecord
  2
BYLAYER
 70
     0
  3

 72
    65
 73
     0
 40
0.0
  0
LTYPE
  5
9418
330
9408
100
AcDbSymbolTableRecord
100
AcDbLinetypeTableRecord
  2
CONTINUOUS
 70
     0
  3
Solid line
 72
    65
 73
     0
 40
0.0
  0
LTYPE
  5
9426
330
9408
100
AcDbSymbolTableRecord
100
AcDbLinetypeTableRecord
  2
DASHED
 70
     0
  3
__ __ __ __ __ __ __ __ __ __ __ __ __ __ __ __
 72
    65
 73
     2
 40
0.75
 49
0.5
 74
     0
 49
-0.25
 74
     0
  0
LTYPE
  5
9427
330
9408
100
AcDbSymbolTableRecord
100
AcDbLinetypeTableRecord
  2
CENTER
 70
     0
  3
____ _ ____ _ ____ _ ____ _ ____ _ ____ _ ____ 
 72
    65
 73
     4
 40
2.0
 49
1.25
 74
     0
 49
-0.25
 74
     0
 49
0.25
 74
     0
 49
-0.25
 74
     0
  0
LTYPE
  5
9428
330
9408
100
AcDbSymbolTableRecord
100
AcDbLinetypeTableRecord
  2
PHANTOM
 70
     0
  3
______  __  __  ______  __  __  ______  __  __ 
 72
    65
 73
     6
 40
2.5
 49
1.25
 74
     0
 49
-0.25
 74
     0
 49
0.25
 74
     0
 49
-0.25
 74
     0
 49
0.25
 74
     0
 49
-0.25
 74
     0
  0
ENDTAB
  0
TABLE
  2
LAYER
  5
9405
330
0
100
AcDbSymbolTable
 70
     8
  0
LAYER
  5
9413
102
{ACAD_XDICTIONARY
360
96B0
102
}
330
9405
100
AcDbSymbolTableRecord
100
AcDbLayerTableRecord
  2
0
 70
     0
 62
     7
  6
CONTINUOUS
370
    -3
390
965E
  0
LAYER
  5
9429
102
{ACAD_XDICTIONARY
360
96B2
102
}
330
9405
100
AcDbSymbolTableRecord
100
AcDbLayerTableRecord
  2
4
 70
     0
 62
     1
  6
CENTER
370
    -3
390
965E
  0
LAYER
  5
942A
102
{ACAD_XDICTIONARY
360
96B4
102
}
330
9405
100
AcDbSymbolTableRecord
100
AcDbLayerTableRecord
  2
5
 70
     0
 62
     6
  6
PHANTOM
370
    -3
390
965E
  0
LAYER
  5
942B
102
{ACAD_XDICTIONARY
360
96B6
102
}
330
9405
100
AcDbSymbolTableRecord
100
AcDbLayerTableRecord
  2
1
 70
     0
 62
     7
  6
CONTINUOUS
370
    -3
390
965E
  0
LAYER
  5
942C
102
{ACAD_XDICTIONARY
360
96B8
102
}
330
9405
100
AcDbSymbolTableRecord
100
AcDbLayerTableRecord
  2
2
 70
     0
 62
     4
  6
CONTINUOUS
370
    -3
390
965E
  0
LAYER
  5
942D
102
{ACAD_XDICTIONARY
360
96BA
102
}
330
9405
100
AcDbSymbolTableRecord
100
AcDbLayerTableRecord
  2
3
 70
     0
 62
     2
  6
DASHED
370
    -3
390
965E
  0
LAYER
  5
942E
102
{ACAD_XDICTIONARY
360
96BC
102
}
330
9405
100
AcDbSymbolTableRecord
100
AcDbLayerTableRecord
  2
6
 70
     0
 62
     5
  6
CONTINUOUS
370
    -3
390
965E
  0
LAYER
  5
942F
102
{ACAD_XDICTIONARY
360
96BE
102
}
330
9405
100
AcDbSymbolTableRecord
100
AcDbLayerTableRecord
  2
7
 70
     0
 62
     3
  6
CONTINUOUS
370
    -3
390
965E
  0
ENDTAB
  0
TABLE
  2
STYLE
  5
9406
330
0
100
AcDbSymbolTable
 70
     1
  0
STYLE
  5
9414
330
9406
100
AcDbSymbolTableRecord
100
AcDbTextStyleTableRecord
  2
STANDARD
 70
     0
 40
0.0
 41
1.0
 50
0.0
 71
     0
 42
5.0
  3
txt
  4

  0
ENDTAB
  0
TABLE
  2
VIEW
  5
9409
330
0
100
AcDbSymbolTable
 70
     0
  0
ENDTAB
  0
TABLE
  2
UCS
  5
940A
330
0
100
AcDbSymbolTable
 70
     0
  0
ENDTAB
  0
TABLE
  2
APPID
  5
940C
330
0
100
AcDbSymbolTable
 70
     3
  0
APPID
  5
9415
330
940C
100
AcDbSymbolTableRecord
100
AcDbRegAppTableRecord
  2
ACAD
 70
     0
  0
APPID
  5
96CA
330
940C
100
AcDbSymbolTableRecord
100
AcDbRegAppTableRecord
  2
ACAD_NAV_VCDISPLAY
 70
     0
  0
APPID
  5
9703
330
940C
100
AcDbSymbolTableRecord
100
AcDbRegAppTableRecord
  2
ACAD_MLEADERVER
 70
     0
  0
ENDTAB
  0
TABLE
  2
DIMSTYLE
  5
940D
330
0
100
AcDbSymbolTable
 70
     1
100
AcDbDimStyleTable
 71
     0
  0
DIMSTYLE
105
9430
330
940D
100
AcDbSymbolTableRecord
100
AcDbDimStyleTableRecord
  2
JIS
 70
     0
 41
2.5
 42
1.0
 43
7.0
 44
1.0
 73
     0
 74
     0
 77
     1
 78
     8
140
2.5
141
0.0
143
0.0394
147
0.0
172
     1
174
     1
175
     1
284
     8
285
     8
286
     8
340
9414
  0
ENDTAB
  0
TABLE
  2
BLOCK_RECORD
  5
9404
330
0
100
AcDbSymbolTable
 70
     0
  0
BLOCK_RECORD
  5
9421
102
{ACAD_XDICTIONARY
360
9658
102
}
330
9404
100
AcDbSymbolTableRecord
100
AcDbBlockTableRecord
  2
*MODEL_SPACE
340
96AC
  0
BLOCK_RECORD
  5
941D
102
{ACAD_XDICTIONARY
360
9656
102
}
330
9404
100
AcDbSymbolTableRecord
100
AcDbBlockTableRecord
  2
*PAPER_SPACE
340
96AD
  0
ENDTAB
  0
ENDSEC
  0
SECTION
  2
BLOCKS
  0
BLOCK
  5
9422
330
9421
100
AcDbEntity
  8
0
100
AcDbBlockBegin
  2
*MODEL_SPACE
 70
     0
 10
0.0
 20
0.0
 30
0.0
  3
*MODEL_SPACE
  1

  0
ENDBLK
  5
9423
330
9421
100
AcDbEntity
  8
0
100
AcDbBlockEnd
  0
BLOCK
  5
941E
330
941D
100
AcDbEntity
 67
     1
  8
0
100
AcDbBlockBegin
  2
*PAPER_SPACE
 70
     0
 10
0.0
 20
0.0
 30
0.0
  3
*PAPER_SPACE
  1

  0
ENDBLK
  5
941F
330
941D
100
AcDbEntity
 67
     1
  8
0
100
AcDbBlockEnd
  0
ENDSEC
  0
SECTION
  2
ENTITIES
  0
TEXT
  5
9438
330
9421
100
AcDbEntity
  8
7
  6
Continuous
100
AcDbText
 10
10.0
 20
18.0
 30
0.0
 40
3.0
  1
TYPE No.THA-236-3
100
AcDbText
  0
TEXT
  5
9439
330
9421
100
AcDbEntity
  8
7
  6
Continuous
100
AcDbText
 10
10.0
 20
26.0
 30
0.0
 40
3.0
  1
CODE No.3133
100
AcDbText
  0
TEXT
  5
943A
330
9421
100
AcDbEntity
  8
1
  6
Continuous
100
AcDbText
 10
10.0
 20
10.0
 30
0.0
 40
1.399999999999999
  1
LAYER
100
AcDbText
  0
TEXT
  5
943B
330
9421
100
AcDbEntity
  8
1
  6
Continuous
100
AcDbText
 10
17.97951099999998
 20
10.04873699999998
 30
0.0
 40
1.399999999999999
  1
1
100
AcDbText
  0
TEXT
  5
943C
330
9421
100
AcDbEntity
  8
7
  6
Continuous
100
AcDbText
 10
29.97951099999999
 20
10.04873699999998
 30
0.0
 40
1.399999999999999
  1
7
100
AcDbText
  0
TEXT
  5
943D
330
9421
100
AcDbEntity
  8
4
  6
CENTER
100
AcDbText
 10
23.97951099999999
 20
10.04873699999998
 30
0.0
 40
1.399999999999999
  1
4
100
AcDbText
  0
TEXT
  5
943E
330
9421
100
AcDbEntity
  8
3
  6
DASHED
100
AcDbText
 10
21.979511
 20
10.04873699999998
 30
0.0
 40
1.399999999999999
  1
3
100
AcDbText
  0
TEXT
  5
943F
330
9421
100
AcDbEntity
  8
2
  6
Continuous
100
AcDbText
 10
19.97951099999999
 20
10.04873699999998
 30
0.0
 40
1.399999999999999
  1
2
100
AcDbText
  0
TEXT
  5
9440
330
9421
100
AcDbEntity
  8
6
  6
Continuous
100
AcDbText
 10
27.979511
 20
10.04873699999998
 30
0.0
 40
1.399999999999999
  1
6
100
AcDbText
  0
TEXT
  5
9441
330
9421
100
AcDbEntity
  8
5
  6
PHANTOM
100
AcDbText
 10
25.97951099999999
 20
10.04873699999998
 30
0.0
 40
1.399999999999999
  1
5
100
AcDbText
  0
LINE
  5
9442
330
9421
100
AcDbEntity
  8
4
  6
CENTER
100
AcDbLine
 10
26.60517899999998
 20
151.575176
 30
0.0
 11
26.60517899999998
 21
46.37477599999999
 31
0.0
  0
LINE
  5
9443
330
9421
100
AcDbEntity
  8
4
  6
CENTER
100
AcDbLine
 10
10.896179
 20
99.992376
 30
0.0
 11
43.57937899999998
 21
99.992376
 31
0.0
  0
LINE
  5
9444
330
9421
100
AcDbEntity
  8
4
  6
CENTER
100
AcDbLine
 10
89.10167900000002
 20
99.992376
 30
0.0
 11
158.7395789999999
 21
99.992376
 31
0.0
  0
LINE
  5
9445
330
9421
100
AcDbEntity
  8
1
  6
Continuous
100
AcDbLine
 10
120.147679
 20
51.724376
 30
0.0
 11
120.147679
 21
148.2602759999998
 31
0.0
  0
LINE
  5
9446
330
9421
100
AcDbEntity
  8
4
  6
CENTER
100
AcDbLine
 10
124.147679
 20
96.99237600000001
 30
0.0
 11
124.147679
 21
102.9923759999999
 31
0.0
  0
LINE
  5
9447
330
9421
100
AcDbEntity
  8
1
  6
Continuous
100
AcDbLine
 10
16.605179
 20
149.492376
 30
0.0
 11
16.605179
 21
50.492376
 31
0.0
  0
LINE
  5
9448
330
9421
100
AcDbEntity
  8
1
  6
Continuous
100
AcDbLine
 10
36.605179
 20
149.492376
 30
0.0
 11
36.605179
 21
50.492376
 31
0.0
  0
LINE
  5
9449
330
9421
100
AcDbEntity
  8
1
  6
Continuous
100
AcDbLine
 10
17.105179
 20
49.992376
 30
0.0
 11
36.105179
 21
49.992376
 31
0.0
  0
LINE
  5
944A
330
9421
100
AcDbEntity
  8
1
  6
Continuous
100
AcDbLine
 10
17.105179
 20
149.992376
 30
0.0
 11
36.105179
 21
149.992376
 31
0.0
  0
LINE
  5
944B
330
9421
100
AcDbEntity
  8
1
  6
Continuous
100
AcDbLine
 10
121.147679
 20
149.992376
 30
0.0
 11
122.147679
 21
149.992376
 31
0.0
  0
LINE
  5
944C
330
9421
100
AcDbEntity
  8
1
  6
Continuous
100
AcDbLine
 10
121.147679
 20
49.992376
 30
0.0
 11
122.147679
 21
49.992376
 31
0.0
  0
LINE
  5
944D
330
9421
100
AcDbEntity
  8
1
  6
Continuous
100
AcDbLine
 10
121.147679
 20
49.992376
 30
0.0
 11
121.147679
 21
149.992376
 31
0.0
  0
LINE
  5
944E
330
9421
100
AcDbEntity
  8
1
  6
Continuous
100
AcDbLine
 10
122.147679
 20
49.992376
 30
0.0
 11
122.147679
 21
149.992376
 31
0.0
  0
LINE
  5
944F
330
9421
100
AcDbEntity
  8
1
  6
Continuous
100
AcDbLine
 10
120.147679
 20
148.2602759999998
 30
0.0
 11
121.147679
 21
149.992376
 31
0.0
  0
LINE
  5
9450
330
9421
100
AcDbEntity
  8
1
  6
Continuous
100
AcDbLine
 10
120.147679
 20
51.724376
 30
0.0
 11
121.147679
 21
49.992376
 31
0.0
  0
LINE
  5
9451
330
9421
100
AcDbEntity
  8
1
  6
Continuous
100
AcDbLine
 10
18.33717899999999
 20
51.724376
 30
0.0
 11
34.873179
 21
51.724376
 31
0.0
  0
LINE
  5
9452
330
9421
100
AcDbEntity
  8
1
  6
Continuous
100
AcDbLine
 10
18.33717899999999
 20
148.2602759999998
 30
0.0
 11
34.873179
 21
148.2602759999998
 31
0.0
  0
LINE
  5
9453
330
9421
100
AcDbEntity
  8
1
  6
Continuous
100
AcDbLine
 10
18.33717899999999
 20
148.2602759999998
 30
0.0
 11
18.33717899999999
 21
51.724376
 31
0.0
  0
LINE
  5
9454
330
9421
100
AcDbEntity
  8
1
  6
Continuous
100
AcDbLine
 10
34.873179
 20
148.2602759999998
 30
0.0
 11
34.873179
 21
51.724376
 31
0.0
  0
LINE
  5
9455
330
9421
100
AcDbEntity
  8
1
  6
Continuous
100
AcDbLine
 10
20.605179
 20
133.492376
 30
0.0
 11
32.60517899999999
 21
133.492376
 31
0.0
  0
LINE
  5
9456
330
9421
100
AcDbEntity
  8
1
  6
Continuous
100
AcDbLine
 10
20.605179
 20
66.49237600000001
 30
0.0
 11
32.60517899999999
 21
66.49237600000001
 31
0.0
  0
LINE
  5
9457
330
9421
100
AcDbEntity
  8
1
  6
Continuous
100
AcDbLine
 10
20.605179
 20
133.492376
 30
0.0
 11
20.605179
 21
66.49237600000001
 31
0.0
  0
LINE
  5
9458
330
9421
100
AcDbEntity
  8
1
  6
Continuous
100
AcDbLine
 10
32.60517899999999
 20
133.492376
 30
0.0
 11
32.60517899999999
 21
66.49237600000001
 31
0.0
  0
LINE
  5
9459
330
9421
100
AcDbEntity
  8
1
  6
Continuous
100
AcDbLine
 10
126.147679
 20
139.492376
 30
0.0
 11
126.147679
 21
145.4923759999998
 31
0.0
  0
LINE
  5
945A
330
9421
100
AcDbEntity
  8
1
  6
Continuous
100
AcDbLine
 10
128.147679
 20
59.992376
 30
0.0
 11
128.147679
 21
131.492376
 31
0.0
  0
LINE
  5
945B
330
9421
100
AcDbEntity
  8
1
  6
Continuous
100
AcDbLine
 10
125.6401789999999
 20
99.842376
 30
0.0
 11
125.035179
 21
99.842376
 31
0.0
  0
LINE
  5
945C
330
9421
100
AcDbEntity
  8
1
  6
Continuous
100
AcDbLine
 10
125.6401789999999
 20
100.1423759999999
 30
0.0
 11
125.035179
 21
100.1423759999999
 31
0.0
  0
LINE
  5
945D
330
9421
100
AcDbEntity
  8
4
  6
CENTER
100
AcDbLine
 10
117.184279
 20
142.492376
 30
0.0
 11
129.662979
 21
142.492376
 31
0.0
  0
LINE
  5
945E
330
9421
100
AcDbEntity
  8
1
  6
Continuous
100
AcDbLine
 10
122.147679
 20
145.992376
 30
0.0
 11
125.647679
 21
145.992376
 31
0.0
  0
LINE
  5
945F
330
9421
100
AcDbEntity
  8
1
  6
Continuous
100
AcDbLine
 10
122.147679
 20
138.992376
 30
0.0
 11
125.647679
 21
138.992376
 31
0.0
  0
LINE
  5
9460
330
9421
100
AcDbEntity
  8
1
  6
Continuous
100
AcDbLine
 10
125.647679
 20
145.992376
 30
0.0
 11
126.147679
 21
145.4923759999998
 31
0.0
  0
LINE
  5
9461
330
9421
100
AcDbEntity
  8
1
  6
Continuous
100
AcDbLine
 10
126.147679
 20
139.492376
 30
0.0
 11
125.647679
 21
138.992376
 31
0.0
  0
LINE
  5
9462
330
9421
100
AcDbEntity
  8
1
  6
Continuous
100
AcDbLine
 10
125.647679
 20
145.992376
 30
0.0
 11
125.647679
 21
138.992376
 31
0.0
  0
LINE
  5
9463
330
9421
100
AcDbEntity
  8
1
  6
Continuous
100
AcDbLine
 10
122.147679
 20
135.992376
 30
0.0
 11
123.647679
 21
135.992376
 31
0.0
  0
LINE
  5
9464
330
9421
100
AcDbEntity
  8
1
  6
Continuous
100
AcDbLine
 10
123.647679
 20
135.992376
 30
0.0
 11
128.147679
 21
131.492376
 31
0.0
  0
LINE
  5
9465
330
9421
100
AcDbEntity
  8
1
  6
Continuous
100
AcDbLine
 10
122.147679
 20
64.99237599999999
 30
0.0
 11
127.147679
 21
59.992376
 31
0.0
  0
LINE
  5
9466
330
9421
100
AcDbEntity
  8
1
  6
Continuous
100
AcDbLine
 10
127.147679
 20
59.992376
 30
0.0
 11
128.147679
 21
59.992376
 31
0.0
  0
LINE
  5
9467
330
9421
100
AcDbEntity
  8
5
  6
PHANTOM
100
AcDbLine
 10
95.64767899999999
 20
115.8251759999999
 30
0.0
 11
95.64767899999999
 21
84.15960600000003
 31
0.0
  0
LINE
  5
9468
330
9421
100
AcDbEntity
  8
1
  6
Continuous
100
AcDbLine
 10
149.647719
 20
86.27576600000002
 30
0.0
 11
149.647719
 21
113.708976
 31
0.0
  0
LINE
  5
9469
330
9421
100
AcDbEntity
  8
5
  6
PHANTOM
100
AcDbLine
 10
120.147679
 20
130.8326759999999
 30
0.0
 11
96.66397899999999
 21
117.5664759999998
 31
0.0
  0
LINE
  5
946A
330
9421
100
AcDbEntity
  8
5
  6
PHANTOM
100
AcDbLine
 10
120.147679
 20
69.152016
 30
0.0
 11
96.66397899999999
 21
82.418256
 31
0.0
  0
LINE
  5
946B
330
9421
100
AcDbEntity
  8
1
  6
Continuous
100
AcDbLine
 10
130.9809789999999
 20
123.547976
 30
0.0
 11
148.481029
 21
115.527076
 31
0.0
  0
LINE
  5
946C
330
9421
100
AcDbEntity
  8
1
  6
Continuous
100
AcDbLine
 10
130.9809789999999
 20
76.436806
 30
0.0
 11
148.481029
 21
84.45763599999997
 31
0.0
  0
LINE
  5
946D
330
9421
100
AcDbEntity
  8
1
  6
Continuous
100
AcDbLine
 10
224.690279
 20
82.992366
 30
0.0
 11
234.690279
 21
82.992366
 31
0.0
  0
LINE
  5
946E
330
9421
100
AcDbEntity
  8
1
  6
Continuous
100
AcDbLine
 10
224.690279
 20
116.9923759999999
 30
0.0
 11
234.690279
 21
116.9923759999999
 31
0.0
  0
LINE
  5
946F
330
9421
100
AcDbEntity
  8
1
  6
Continuous
100
AcDbLine
 10
20.705179
 20
133.092376
 30
0.0
 11
20.705179
 21
66.892376
 31
0.0
  0
LINE
  5
9470
330
9421
100
AcDbEntity
  8
1
  6
Continuous
100
AcDbLine
 10
32.505179
 20
133.092376
 30
0.0
 11
32.505179
 21
66.892376
 31
0.0
  0
LINE
  5
9471
330
9421
100
AcDbEntity
  8
1
  6
Continuous
100
AcDbLine
 10
20.705179
 20
133.092376
 30
0.0
 11
32.505179
 21
133.092376
 31
0.0
  0
LINE
  5
9472
330
9421
100
AcDbEntity
  8
1
  6
Continuous
100
AcDbLine
 10
20.705179
 20
66.892376
 30
0.0
 11
32.505179
 21
66.892376
 31
0.0
  0
LINE
  5
9473
330
9421
100
AcDbEntity
  8
1
  6
Continuous
100
AcDbLine
 10
23.85517899999999
 20
66.892376
 30
0.0
 11
23.85517899999999
 21
66.49237600000001
 31
0.0
  0
LINE
  5
9474
330
9421
100
AcDbEntity
  8
1
  6
Continuous
100
AcDbLine
 10
29.35517899999998
 20
66.892376
 30
0.0
 11
29.35517899999998
 21
66.49237600000001
 31
0.0
  0
LINE
  5
9475
330
9421
100
AcDbEntity
  8
4
  6
CENTER
100
AcDbLine
 10
229.690279
 20
151.575176
 30
0.0
 11
229.690279
 21
46.37477599999999
 31
0.0
  0
LINE
  5
9476
330
9421
100
AcDbEntity
  8
4
  6
CENTER
100
AcDbLine
 10
245.3991789999999
 20
99.992376
 30
0.0
 11
212.716079
 21
99.992376
 31
0.0
  0
LINE
  5
9477
330
9421
100
AcDbEntity
  8
1
  6
Continuous
100
AcDbLine
 10
239.6902789999999
 20
149.492376
 30
0.0
 11
239.6902789999999
 21
50.492376
 31
0.0
  0
LINE
  5
9478
330
9421
100
AcDbEntity
  8
1
  6
Continuous
100
AcDbLine
 10
219.690279
 20
149.492376
 30
0.0
 11
219.690279
 21
50.492376
 31
0.0
  0
LINE
  5
9479
330
9421
100
AcDbEntity
  8
1
  6
Continuous
100
AcDbLine
 10
239.190279
 20
49.992376
 30
0.0
 11
220.190279
 21
49.992376
 31
0.0
  0
LINE
  5
947A
330
9421
100
AcDbEntity
  8
1
  6
Continuous
100
AcDbLine
 10
239.190279
 20
149.992376
 30
0.0
 11
220.190279
 21
149.992376
 31
0.0
  0
LINE
  5
947B
330
9421
100
AcDbEntity
  8
1
  6
Continuous
100
AcDbLine
 10
235.6902789999999
 20
133.492376
 30
0.0
 11
223.690279
 21
133.492376
 31
0.0
  0
LINE
  5
947C
330
9421
100
AcDbEntity
  8
1
  6
Continuous
100
AcDbLine
 10
235.6902789999999
 20
66.49237600000001
 30
0.0
 11
232.440279
 21
66.49237600000001
 31
0.0
  0
LINE
  5
947D
330
9421
100
AcDbEntity
  8
1
  6
Continuous
100
AcDbLine
 10
235.6902789999999
 20
133.492376
 30
0.0
 11
235.6902789999999
 21
66.49237600000001
 31
0.0
  0
LINE
  5
947E
330
9421
100
AcDbEntity
  8
1
  6
Continuous
100
AcDbLine
 10
223.690279
 20
133.492376
 30
0.0
 11
223.690279
 21
66.49237600000001
 31
0.0
  0
LINE
  5
947F
330
9421
100
AcDbEntity
  8
1
  6
Continuous
100
AcDbLine
 10
235.590279
 20
133.092376
 30
0.0
 11
235.590279
 21
66.892376
 31
0.0
  0
LINE
  5
9480
330
9421
100
AcDbEntity
  8
1
  6
Continuous
100
AcDbLine
 10
223.790279
 20
133.092376
 30
0.0
 11
223.790279
 21
66.892376
 31
0.0
  0
LINE
  5
9481
330
9421
100
AcDbEntity
  8
1
  6
Continuous
100
AcDbLine
 10
235.590279
 20
133.092376
 30
0.0
 11
223.790279
 21
133.092376
 31
0.0
  0
LINE
  5
9482
330
9421
100
AcDbEntity
  8
1
  6
Continuous
100
AcDbLine
 10
235.590279
 20
66.892376
 30
0.0
 11
223.790279
 21
66.892376
 31
0.0
  0
LINE
  5
9483
330
9421
100
AcDbEntity
  8
1
  6
Continuous
100
AcDbLine
 10
232.440279
 20
66.892376
 30
0.0
 11
232.440279
 21
65.39237599999998
 31
0.0
  0
LINE
  5
9484
330
9421
100
AcDbEntity
  8
1
  6
Continuous
100
AcDbLine
 10
226.940279
 20
66.892376
 30
0.0
 11
226.940279
 21
65.39237599999998
 31
0.0
  0
LINE
  5
9485
330
9421
100
AcDbEntity
  8
1
  6
Continuous
100
AcDbLine
 10
226.690279
 20
135.992376
 30
0.0
 11
226.690279
 21
133.492376
 31
0.0
  0
LINE
  5
9486
330
9421
100
AcDbEntity
  8
1
  6
Continuous
100
AcDbLine
 10
232.690279
 20
135.992376
 30
0.0
 11
232.690279
 21
133.492376
 31
0.0
  0
LINE
  5
9487
330
9421
100
AcDbEntity
  8
1
  6
Continuous
100
AcDbLine
 10
17.105179
 20
149.492376
 30
0.0
 11
18.33717899999999
 21
148.2602759999998
 31
0.0
  0
LINE
  5
9488
330
9421
100
AcDbEntity
  8
1
  6
Continuous
100
AcDbLine
 10
36.105179
 20
149.492376
 30
0.0
 11
34.873179
 21
148.2602759999998
 31
0.0
  0
LINE
  5
9489
330
9421
100
AcDbEntity
  8
1
  6
Continuous
100
AcDbLine
 10
18.33717899999999
 20
51.724376
 30
0.0
 11
17.105179
 21
50.492376
 31
0.0
  0
LINE
  5
948A
330
9421
100
AcDbEntity
  8
1
  6
Continuous
100
AcDbLine
 10
34.873179
 20
51.724376
 30
0.0
 11
36.105179
 21
50.492376
 31
0.0
  0
LINE
  5
948B
330
9421
100
AcDbEntity
  8
1
  6
Continuous
100
AcDbLine
 10
237.9402789999998
 20
134.992376
 30
0.0
 11
237.9402789999998
 21
59.992376
 31
0.0
  0
LINE
  5
948C
330
9421
100
AcDbEntity
  8
1
  6
Continuous
100
AcDbLine
 10
221.440279
 20
134.992376
 30
0.0
 11
221.440279
 21
59.992376
 31
0.0
  0
LINE
  5
948D
330
9421
100
AcDbEntity
  8
1
  6
Continuous
100
AcDbLine
 10
221.440279
 20
59.992376
 30
0.0
 11
226.690279
 21
59.992376
 31
0.0
  0
LINE
  5
948E
330
9421
100
AcDbEntity
  8
1
  6
Continuous
100
AcDbLine
 10
222.440279
 20
135.992376
 30
0.0
 11
236.940279
 21
135.992376
 31
0.0
  0
LINE
  5
948F
330
9421
100
AcDbEntity
  8
1
  6
Continuous
100
AcDbLine
 10
226.690279
 20
66.49237600000001
 30
0.0
 11
226.690279
 21
59.992376
 31
0.0
  0
LINE
  5
9490
330
9421
100
AcDbEntity
  8
1
  6
Continuous
100
AcDbLine
 10
232.690279
 20
66.49237600000001
 30
0.0
 11
232.690279
 21
59.992376
 31
0.0
  0
LINE
  5
9491
330
9421
100
AcDbEntity
  8
1
  6
Continuous
100
AcDbLine
 10
232.690279
 20
59.992376
 30
0.0
 11
237.9402789999998
 21
59.992376
 31
0.0
  0
LINE
  5
9492
330
9421
100
AcDbEntity
  8
1
  6
Continuous
100
AcDbLine
 10
232.440279
 20
65.39237599999998
 30
0.0
 11
226.940279
 21
65.39237599999998
 31
0.0
  0
LINE
  5
9493
330
9421
100
AcDbEntity
  8
1
  6
Continuous
100
AcDbLine
 10
226.940279
 20
66.49237600000001
 30
0.0
 11
223.690279
 21
66.49237600000001
 31
0.0
  0
LINE
  5
9494
330
9421
100
AcDbEntity
  8
1
  6
Continuous
100
AcDbLine
 10
221.440279
 20
131.492376
 30
0.0
 11
223.690279
 21
131.492376
 31
0.0
  0
LINE
  5
9495
330
9421
100
AcDbEntity
  8
1
  6
Continuous
100
AcDbLine
 10
235.6902789999999
 20
131.492376
 30
0.0
 11
237.9402789999998
 21
131.492376
 31
0.0
  0
LINE
  5
9496
330
9421
100
AcDbEntity
  8
1
  6
Continuous
100
AcDbLine
 10
237.6902789999999
 20
147.992376
 30
0.0
 11
237.6902789999999
 21
137.492376
 31
0.0
  0
LINE
  5
9497
330
9421
100
AcDbEntity
  8
1
  6
Continuous
100
AcDbLine
 10
221.690279
 20
147.992376
 30
0.0
 11
221.690279
 21
137.492376
 31
0.0
  0
LINE
  5
9498
330
9421
100
AcDbEntity
  8
1
  6
Continuous
100
AcDbLine
 10
224.690279
 20
147.992376
 30
0.0
 11
224.690279
 21
137.492376
 31
0.0
  0
LINE
  5
9499
330
9421
100
AcDbEntity
  8
1
  6
Continuous
100
AcDbLine
 10
234.690279
 20
147.992376
 30
0.0
 11
234.690279
 21
137.492376
 31
0.0
  0
LINE
  5
949A
330
9421
100
AcDbEntity
  8
1
  6
Continuous
100
AcDbLine
 10
237.6902789999999
 20
147.992376
 30
0.0
 11
234.690279
 21
147.992376
 31
0.0
  0
LINE
  5
949B
330
9421
100
AcDbEntity
  8
1
  6
Continuous
100
AcDbLine
 10
237.6902789999999
 20
137.492376
 30
0.0
 11
234.690279
 21
137.492376
 31
0.0
  0
LINE
  5
949C
330
9421
100
AcDbEntity
  8
1
  6
Continuous
100
AcDbLine
 10
224.690279
 20
147.992376
 30
0.0
 11
221.690279
 21
147.992376
 31
0.0
  0
LINE
  5
949D
330
9421
100
AcDbEntity
  8
1
  6
Continuous
100
AcDbLine
 10
224.690279
 20
137.492376
 30
0.0
 11
221.690279
 21
137.492376
 31
0.0
  0
LINE
  5
949E
330
9421
100
AcDbEntity
  8
1
  6
Continuous
100
AcDbLine
 10
121.147679
 20
210.0340759999999
 30
0.0
 11
122.147679
 21
210.0340759999999
 31
0.0
  0
LINE
  5
949F
330
9421
100
AcDbEntity
  8
1
  6
Continuous
100
AcDbLine
 10
121.147679
 20
190.0340759999999
 30
0.0
 11
122.147679
 21
190.0340759999999
 31
0.0
  0
LINE
  5
94A0
330
9421
100
AcDbEntity
  8
1
  6
Continuous
100
AcDbLine
 10
120.147679
 20
208.302076
 30
0.0
 11
120.147679
 21
191.766076
 31
0.0
  0
LINE
  5
94A1
330
9421
100
AcDbEntity
  8
1
  6
Continuous
100
AcDbLine
 10
121.147679
 20
210.0340759999999
 30
0.0
 11
121.147679
 21
190.0340759999999
 31
0.0
  0
LINE
  5
94A2
330
9421
100
AcDbEntity
  8
1
  6
Continuous
100
AcDbLine
 10
122.147679
 20
210.0340759999999
 30
0.0
 11
122.147679
 21
190.0340759999999
 31
0.0
  0
LINE
  5
94A3
330
9421
100
AcDbEntity
  8
1
  6
Continuous
100
AcDbLine
 10
128.147679
 20
208.2840759999998
 30
0.0
 11
128.147679
 21
191.7840759999999
 31
0.0
  0
LINE
  5
94A4
330
9421
100
AcDbEntity
  8
1
  6
Continuous
100
AcDbLine
 10
121.147679
 20
210.0340759999999
 30
0.0
 11
120.147679
 21
208.302076
 31
0.0
  0
LINE
  5
94A5
330
9421
100
AcDbEntity
  8
1
  6
Continuous
100
AcDbLine
 10
120.147679
 20
191.766076
 30
0.0
 11
121.147679
 21
190.0340759999999
 31
0.0
  0
LINE
  5
94A6
330
9421
100
AcDbEntity
  8
4
  6
CENTER
100
AcDbLine
 10
116.168979
 20
200.0340759999999
 30
0.0
 11
159.681979
 21
200.0340759999999
 31
0.0
  0
LINE
  5
94A7
330
9421
100
AcDbEntity
  8
1
  6
Continuous
100
AcDbLine
 10
122.147679
 20
191.7840759999999
 30
0.0
 11
128.147679
 21
191.7840759999999
 31
0.0
  0
LINE
  5
94A8
330
9421
100
AcDbEntity
  8
1
  6
Continuous
100
AcDbLine
 10
122.147679
 20
208.2840759999998
 30
0.0
 11
128.147679
 21
208.2840759999998
 31
0.0
  0
LINE
  5
94A9
330
9421
100
AcDbEntity
  8
1
  6
Continuous
100
AcDbLine
 10
126.147679
 20
203.034076
 30
0.0
 11
126.147679
 21
197.034076
 31
0.0
  0
LINE
  5
94AA
330
9421
100
AcDbEntity
  8
1
  6
Continuous
100
AcDbLine
 10
122.147679
 20
203.5340759999999
 30
0.0
 11
125.647679
 21
203.5340759999999
 31
0.0
  0
LINE
  5
94AB
330
9421
100
AcDbEntity
  8
1
  6
Continuous
100
AcDbLine
 10
122.147679
 20
196.534076
 30
0.0
 11
125.647679
 21
196.534076
 31
0.0
  0
LINE
  5
94AC
330
9421
100
AcDbEntity
  8
1
  6
Continuous
100
AcDbLine
 10
125.647679
 20
203.5340759999999
 30
0.0
 11
126.147679
 21
203.034076
 31
0.0
  0
LINE
  5
94AD
330
9421
100
AcDbEntity
  8
1
  6
Continuous
100
AcDbLine
 10
126.147679
 20
197.034076
 30
0.0
 11
125.647679
 21
196.534076
 31
0.0
  0
LINE
  5
94AE
330
9421
100
AcDbEntity
  8
1
  6
Continuous
100
AcDbLine
 10
125.647679
 20
203.5340759999999
 30
0.0
 11
125.647679
 21
196.534076
 31
0.0
  0
LINE
  5
94AF
330
9421
100
AcDbEntity
  8
1
  6
Continuous
100
AcDbLine
 10
128.147679
 20
194.1340759999999
 30
0.0
 11
151.1477189999999
 21
194.1340759999999
 31
0.0
  0
LINE
  5
94B0
330
9421
100
AcDbEntity
  8
1
  6
Continuous
100
AcDbLine
 10
128.147679
 20
205.9340759999999
 30
0.0
 11
151.1477189999999
 21
205.9340759999999
 31
0.0
  0
LINE
  5
94B1
330
9421
100
AcDbEntity
  8
1
  6
Continuous
100
AcDbLine
 10
152.647719
 20
195.6340759999999
 30
0.0
 11
152.647719
 21
204.4340759999998
 31
0.0
  0
LINE
  5
94B2
330
9421
100
AcDbEntity
  8
1
  6
Continuous
100
AcDbLine
 10
123.647679
 20
208.2840759999998
 30
0.0
 11
123.647679
 21
203.5340759999999
 31
0.0
  0
LINE
  5
94B3
330
9421
100
AcDbEntity
  8
1
  6
Continuous
100
AcDbLine
 10
123.647679
 20
196.534076
 30
0.0
 11
123.647679
 21
191.7840759999999
 31
0.0
  0
LINE
  5
94B4
330
9421
100
AcDbEntity
  8
1
  6
Continuous
100
AcDbLine
 10
230.3618789999999
 20
141.820776
 30
0.0
 11
230.868579
 21
142.0570759999999
 31
0.0
  0
LINE
  5
94B5
330
9421
100
AcDbEntity
  8
1
  6
Continuous
100
AcDbLine
 10
230.868579
 20
142.0570759999999
 30
0.0
 11
231.747779
 21
142.072376
 31
0.0
  0
LINE
  5
94B6
330
9421
100
AcDbEntity
  8
1
  6
Continuous
100
AcDbLine
 10
230.868579
 20
142.9277759999999
 30
0.0
 11
231.747879
 21
142.9123759999999
 31
0.0
  0
LINE
  5
94B7
330
9421
100
AcDbEntity
  8
1
  6
Continuous
100
AcDbLine
 10
230.3618789999999
 20
143.164076
 30
0.0
 11
230.868579
 21
142.9277759999999
 31
0.0
  0
LINE
  5
94B8
330
9421
100
AcDbEntity
  8
1
  6
Continuous
100
AcDbLine
 10
229.0186789999999
 20
143.164076
 30
0.0
 11
229.254879
 21
143.670776
 31
0.0
  0
LINE
  5
94B9
330
9421
100
AcDbEntity
  8
1
  6
Continuous
100
AcDbLine
 10
229.254879
 20
143.670776
 30
0.0
 11
229.2702789999999
 21
144.5499759999999
 31
0.0
  0
LINE
  5
94BA
330
9421
100
AcDbEntity
  8
1
  6
Continuous
100
AcDbLine
 10
230.1255789999999
 20
143.670776
 30
0.0
 11
230.1102789999999
 21
144.5499759999999
 31
0.0
  0
LINE
  5
94BB
330
9421
100
AcDbEntity
  8
1
  6
Continuous
100
AcDbLine
 10
230.3618789999999
 20
143.164076
 30
0.0
 11
230.1255789999999
 21
143.670776
 31
0.0
  0
LINE
  5
94BC
330
9421
100
AcDbEntity
  8
1
  6
Continuous
100
AcDbLine
 10
229.0185789999999
 20
141.820776
 30
0.0
 11
228.5118789999999
 21
142.0570759999999
 31
0.0
  0
LINE
  5
94BD
330
9421
100
AcDbEntity
  8
1
  6
Continuous
100
AcDbLine
 10
228.5118789999999
 20
142.0570759999999
 30
0.0
 11
227.632679
 21
142.072376
 31
0.0
  0
LINE
  5
94BE
330
9421
100
AcDbEntity
  8
1
  6
Continuous
100
AcDbLine
 10
228.5118789999999
 20
142.9277759999999
 30
0.0
 11
227.632679
 21
142.9123759999999
 31
0.0
  0
LINE
  5
94BF
330
9421
100
AcDbEntity
  8
1
  6
Continuous
100
AcDbLine
 10
229.0185789999999
 20
143.164076
 30
0.0
 11
228.5118789999999
 21
142.9277759999999
 31
0.0
  0
LINE
  5
94C0
330
9421
100
AcDbEntity
  8
1
  6
Continuous
100
AcDbLine
 10
230.3618789999999
 20
141.820776
 30
0.0
 11
230.1255789999999
 21
141.314076
 31
0.0
  0
LINE
  5
94C1
330
9421
100
AcDbEntity
  8
1
  6
Continuous
100
AcDbLine
 10
230.1255789999999
 20
141.314076
 30
0.0
 11
230.1102789999999
 21
140.4348759999998
 31
0.0
  0
LINE
  5
94C2
330
9421
100
AcDbEntity
  8
1
  6
Continuous
100
AcDbLine
 10
229.254879
 20
141.314076
 30
0.0
 11
229.2702789999999
 21
140.4348759999998
 31
0.0
  0
LINE
  5
94C3
330
9421
100
AcDbEntity
  8
1
  6
Continuous
100
AcDbLine
 10
229.0186789999999
 20
141.820776
 30
0.0
 11
229.254879
 21
141.314076
 31
0.0
  0
LINE
  5
94C4
330
9421
100
AcDbEntity
  8
4
  6
CENTER
100
AcDbLine
 10
168.8558789999999
 20
200.0340759999999
 30
0.0
 11
181.303879
 21
200.0340759999999
 31
0.0
  0
LINE
  5
94C5
330
9421
100
AcDbEntity
  8
1
  6
Continuous
100
AcDbLine
 10
171.016779
 20
204.5370759999999
 30
0.0
 11
171.016779
 21
195.531076
 31
0.0
  0
LINE
  5
94C6
330
9421
100
AcDbEntity
  8
1
  6
Continuous
100
AcDbLine
 10
175.516779
 20
204.037076
 30
0.0
 11
175.516779
 21
196.031076
 31
0.0
  0
LINE
  5
94C7
330
9421
100
AcDbEntity
  8
1
  6
Continuous
100
AcDbLine
 10
176.516779
 20
203.834076
 30
0.0
 11
176.516779
 21
196.234076
 31
0.0
  0
LINE
  5
94C8
330
9421
100
AcDbEntity
  8
1
  6
Continuous
100
AcDbLine
 10
177.6361789999999
 20
203.436076
 30
0.0
 11
176.516779
 21
203.5330759999999
 31
0.0
  0
LINE
  5
94C9
330
9421
100
AcDbEntity
  8
1
  6
Continuous
100
AcDbLine
 10
177.6361789999999
 20
196.631076
 30
0.0
 11
176.516779
 21
196.533076
 31
0.0
  0
LINE
  5
94CA
330
9421
100
AcDbEntity
  8
1
  6
Continuous
100
AcDbLine
 10
175.516779
 20
203.834076
 30
0.0
 11
176.516779
 21
203.834076
 31
0.0
  0
LINE
  5
94CB
330
9421
100
AcDbEntity
  8
1
  6
Continuous
100
AcDbLine
 10
175.516779
 20
196.234076
 30
0.0
 11
176.516779
 21
196.234076
 31
0.0
  0
LINE
  5
94CC
330
9421
100
AcDbEntity
  8
1
  6
Continuous
100
AcDbLine
 10
175.5168789999999
 20
200.250076
 30
0.0
 11
176.5168789999999
 21
200.518076
 31
0.0
  0
LINE
  5
94CD
330
9421
100
AcDbEntity
  8
1
  6
Continuous
100
AcDbLine
 10
175.5168789999999
 20
199.5500759999999
 30
0.0
 11
176.5168789999999
 21
199.8180759999999
 31
0.0
  0
LINE
  5
94CE
330
9421
100
AcDbEntity
  8
1
  6
Continuous
100
AcDbLine
 10
171.016779
 20
195.531076
 30
0.0
 11
175.516779
 21
196.031076
 31
0.0
  0
LINE
  5
94CF
330
9421
100
AcDbEntity
  8
1
  6
Continuous
100
AcDbLine
 10
171.016779
 20
204.5370759999999
 30
0.0
 11
175.516779
 21
204.037076
 31
0.0
  0
LINE
  5
94D0
330
9421
100
AcDbEntity
  8
1
  6
Continuous
100
AcDbLine
 10
152.647719
 20
84.15960600000003
 30
0.0
 11
152.647719
 21
115.8251759999999
 31
0.0
  0
LINE
  5
94D1
330
9421
100
AcDbEntity
  8
1
  6
Continuous
100
AcDbLine
 10
128.147679
 20
69.152016
 30
0.0
 11
151.6314289999999
 21
82.418256
 31
0.0
  0
LINE
  5
94D2
330
9421
100
AcDbEntity
  8
1
  6
Continuous
100
AcDbLine
 10
128.147679
 20
130.8326759999999
 30
0.0
 11
151.6314289999999
 21
117.5664759999998
 31
0.0
  0
LINE
  5
94D3
330
9421
100
AcDbEntity
  8
1
  6
Continuous
100
AcDbLine
 10
126.147679
 20
197.034076
 30
0.0
 11
128.147679
 21
197.034076
 31
0.0
  0
LINE
  5
94D4
330
9421
100
AcDbEntity
  8
1
  6
Continuous
100
AcDbLine
 10
126.147679
 20
203.034076
 30
0.0
 11
128.147679
 21
203.034076
 31
0.0
  0
LINE
  5
94D5
330
9421
100
AcDbEntity
  8
4
  6
CENTER
100
AcDbLine
 10
224.2093019999999
 20
142.492376
 30
0.0
 11
235.2129839999999
 21
142.492376
 31
0.0
  0
LINE
  5
94D6
330
9421
100
AcDbEntity
  8
4
  6
CENTER
100
AcDbLine
 10
168.8558789999999
 20
142.492376
 30
0.0
 11
181.303879
 21
142.492376
 31
0.0
  0
LINE
  5
94D7
330
9421
100
AcDbEntity
  8
1
  6
Continuous
100
AcDbLine
 10
171.016779
 20
146.995476
 30
0.0
 11
171.016779
 21
137.9892759999999
 31
0.0
  0
LINE
  5
94D8
330
9421
100
AcDbEntity
  8
1
  6
Continuous
100
AcDbLine
 10
175.516779
 20
146.4954759999999
 30
0.0
 11
175.516779
 21
138.4892759999999
 31
0.0
  0
LINE
  5
94D9
330
9421
100
AcDbEntity
  8
1
  6
Continuous
100
AcDbLine
 10
176.516779
 20
146.2923759999999
 30
0.0
 11
176.516779
 21
138.6923759999999
 31
0.0
  0
LINE
  5
94DA
330
9421
100
AcDbEntity
  8
1
  6
Continuous
100
AcDbLine
 10
177.6361789999999
 20
145.8941759999999
 30
0.0
 11
176.516779
 21
145.9920759999999
 31
0.0
  0
LINE
  5
94DB
330
9421
100
AcDbEntity
  8
1
  6
Continuous
100
AcDbLine
 10
177.6361789999999
 20
139.090076
 30
0.0
 11
176.516779
 21
138.992076
 31
0.0
  0
LINE
  5
94DC
330
9421
100
AcDbEntity
  8
1
  6
Continuous
100
AcDbLine
 10
175.516779
 20
146.2923759999999
 30
0.0
 11
176.516779
 21
146.2923759999999
 31
0.0
  0
LINE
  5
94DD
330
9421
100
AcDbEntity
  8
1
  6
Continuous
100
AcDbLine
 10
175.516779
 20
138.6923759999999
 30
0.0
 11
176.516779
 21
138.6923759999999
 31
0.0
  0
LINE
  5
94DE
330
9421
100
AcDbEntity
  8
1
  6
Continuous
100
AcDbLine
 10
175.5168789999999
 20
142.7083759999999
 30
0.0
 11
176.5168789999999
 21
142.976276
 31
0.0
  0
LINE
  5
94DF
330
9421
100
AcDbEntity
  8
1
  6
Continuous
100
AcDbLine
 10
175.5168789999999
 20
142.0083759999999
 30
0.0
 11
176.5168789999999
 21
142.2762759999999
 31
0.0
  0
LINE
  5
94E0
330
9421
100
AcDbEntity
  8
1
  6
Continuous
100
AcDbLine
 10
171.016779
 20
137.9892759999999
 30
0.0
 11
175.516779
 21
138.4892759999999
 31
0.0
  0
LINE
  5
94E1
330
9421
100
AcDbEntity
  8
1
  6
Continuous
100
AcDbLine
 10
171.016779
 20
146.995476
 30
0.0
 11
175.516779
 21
146.4954759999999
 31
0.0
  0
ARC
  5
94E2
330
9421
100
AcDbEntity
  8
1
  6
Continuous
100
AcDbCircle
 10
17.105179
 20
149.492376
 30
0.0
 40
0.5
100
AcDbArc
 50
90.0
 51
180.0
  0
ARC
  5
94E3
330
9421
100
AcDbEntity
  8
1
  6
Continuous
100
AcDbCircle
 10
17.105179
 20
50.492376
 30
0.0
 40
0.5
100
AcDbArc
 50
180.0
 51
270.0
  0
ARC
  5
94E4
330
9421
100
AcDbEntity
  8
1
  6
Continuous
100
AcDbCircle
 10
36.105179
 20
50.492376
 30
0.0
 40
0.5
100
AcDbArc
 50
270.0
 51
0.0
  0
ARC
  5
94E5
330
9421
100
AcDbEntity
  8
1
  6
Continuous
100
AcDbCircle
 10
36.105179
 20
149.492376
 30
0.0
 40
0.5
100
AcDbArc
 50
0.0
 51
90.0
  0
ARC
  5
94E6
330
9421
100
AcDbEntity
  8
1
  6
Continuous
100
AcDbCircle
 10
124.147679
 20
99.992376
 30
0.0
 40
1.5
100
AcDbArc
 50
180.0
 51
354.2609999999998
  0
ARC
  5
94E7
330
9421
100
AcDbEntity
  8
1
  6
Continuous
100
AcDbCircle
 10
124.147679
 20
99.992376
 30
0.0
 40
0.9
100
AcDbArc
 50
180.0
 51
350.4059999999999
  0
ARC
  5
94E8
330
9421
100
AcDbEntity
  8
1
  6
Continuous
100
AcDbCircle
 10
124.147679
 20
99.992376
 30
0.0
 40
1.5
100
AcDbArc
 50
5.73916
 51
180.0
  0
ARC
  5
94E9
330
9421
100
AcDbEntity
  8
1
  6
Continuous
100
AcDbCircle
 10
124.147679
 20
99.992376
 30
0.0
 40
0.9
100
AcDbArc
 50
9.594049999999999
 51
180.0
  0
ARC
  5
94EA
330
9421
100
AcDbEntity
  8
5
  6
PHANTOM
100
AcDbCircle
 10
97.64767900000002
 20
84.15960600000003
 30
0.0
 40
2.0
100
AcDbArc
 50
180.0
 51
240.537
  0
ARC
  5
94EB
330
9421
100
AcDbEntity
  8
5
  6
PHANTOM
100
AcDbCircle
 10
97.64767900000002
 20
115.8251759999999
 30
0.0
 40
2.0
100
AcDbArc
 50
119.463
 51
180.0
  0
ARC
  5
94EC
330
9421
100
AcDbEntity
  8
1
  6
Continuous
100
AcDbCircle
 10
147.6477189999999
 20
113.708976
 30
0.0
 40
2.0
100
AcDbArc
 50
0.0
 51
65.3764
  0
ARC
  5
94ED
330
9421
100
AcDbEntity
  8
1
  6
Continuous
100
AcDbCircle
 10
147.6477189999999
 20
86.27576600000002
 30
0.0
 40
2.0
100
AcDbArc
 50
294.624
 51
0.0
  0
ARC
  5
94EE
330
9421
100
AcDbEntity
  8
1
  6
Continuous
100
AcDbCircle
 10
130.147679
 20
78.25493299999997
 30
0.0
 40
2.0
100
AcDbArc
 50
180.0
 51
294.624
  0
ARC
  5
94EF
330
9421
100
AcDbEntity
  8
1
  6
Continuous
100
AcDbCircle
 10
130.147679
 20
121.729776
 30
0.0
 40
2.0
100
AcDbArc
 50
65.3764
 51
180.0
  0
ARC
  5
94F0
330
9421
100
AcDbEntity
  8
1
  6
Continuous
100
AcDbCircle
 10
239.190279
 20
149.492376
 30
0.0
 40
0.5
100
AcDbArc
 50
0.0
 51
90.0
  0
ARC
  5
94F1
330
9421
100
AcDbEntity
  8
1
  6
Continuous
100
AcDbCircle
 10
239.190279
 20
50.492376
 30
0.0
 40
0.5
100
AcDbArc
 50
270.0
 51
0.0
  0
ARC
  5
94F2
330
9421
100
AcDbEntity
  8
1
  6
Continuous
100
AcDbCircle
 10
220.190279
 20
50.492376
 30
0.0
 40
0.5
100
AcDbArc
 50
180.0
 51
270.0
  0
ARC
  5
94F3
330
9421
100
AcDbEntity
  8
1
  6
Continuous
100
AcDbCircle
 10
220.190279
 20
149.492376
 30
0.0
 40
0.5
100
AcDbArc
 50
90.0
 51
180.0
  0
ARC
  5
94F4
330
9421
100
AcDbEntity
  8
1
  6
Continuous
100
AcDbCircle
 10
222.440279
 20
134.992376
 30
0.0
 40
1.0
100
AcDbArc
 50
90.0
 51
180.0
  0
ARC
  5
94F5
330
9421
100
AcDbEntity
  8
1
  6
Continuous
100
AcDbCircle
 10
236.940279
 20
134.992376
 30
0.0
 40
1.0
100
AcDbArc
 50
0.0
 51
90.0
  0
ARC
  5
94F6
330
9421
100
AcDbEntity
  8
1
  6
Continuous
100
AcDbCircle
 10
151.1477189999999
 20
195.6340759999999
 30
0.0
 40
1.5
100
AcDbArc
 50
270.0
 51
0.0
  0
ARC
  5
94F7
330
9421
100
AcDbEntity
  8
1
  6
Continuous
100
AcDbCircle
 10
151.1477189999999
 20
204.4340759999998
 30
0.0
 40
1.5
100
AcDbArc
 50
0.0
 51
90.0
  0
CIRCLE
  5
94F8
330
9421
100
AcDbEntity
  8
1
  6
Continuous
100
AcDbCircle
 10
229.690279
 20
142.492376
 30
0.0
 40
3.5
  0
ARC
  5
94F9
330
9421
100
AcDbEntity
  8
1
  6
Continuous
100
AcDbCircle
 10
229.690279
 20
142.492376
 30
0.0
 40
2.1
100
AcDbArc
 50
348.463
 51
11.537
  0
ARC
  5
94FA
330
9421
100
AcDbEntity
  8
1
  6
Continuous
100
AcDbCircle
 10
229.690279
 20
142.492376
 30
0.0
 40
2.1
100
AcDbArc
 50
78.46299999999998
 51
101.537
  0
ARC
  5
94FB
330
9421
100
AcDbEntity
  8
1
  6
Continuous
100
AcDbCircle
 10
229.690279
 20
142.492376
 30
0.0
 40
2.1
100
AcDbArc
 50
168.463
 51
191.5369999999998
  0
ARC
  5
94FC
330
9421
100
AcDbEntity
  8
1
  6
Continuous
100
AcDbCircle
 10
229.690279
 20
142.492376
 30
0.0
 40
2.1
100
AcDbArc
 50
258.4629999999999
 51
281.5369999999999
  0
CIRCLE
  5
94FD
330
9421
100
AcDbEntity
  8
1
  6
Continuous
100
AcDbCircle
 10
229.690279
 20
142.492376
 30
0.0
 40
3.799999999999998
  0
ARC
  5
94FE
330
9421
100
AcDbEntity
  8
1
  6
Continuous
100
AcDbCircle
 10
177.5228789999999
 20
197.927076
 30
0.0
 40
1.3
100
AcDbArc
 50
275.0
 51
344.1190000000001
  0
ARC
  5
94FF
330
9421
100
AcDbEntity
  8
1
  6
Continuous
100
AcDbCircle
 10
170.116779
 20
200.0340759999999
 30
0.0
 40
9.0
100
AcDbArc
 50
344.1190000000001
 51
15.8809
  0
ARC
  5
9500
330
9421
100
AcDbEntity
  8
1
  6
Continuous
100
AcDbCircle
 10
177.5228789999999
 20
202.141076
 30
0.0
 40
1.3
100
AcDbArc
 50
15.8809
 51
85.0
  0
ARC
  5
9501
330
9421
100
AcDbEntity
  8
1
  6
Continuous
100
AcDbCircle
 10
150.647719
 20
84.15960600000003
 30
0.0
 40
2.0
100
AcDbArc
 50
299.4629999999999
 51
0.0
  0
ARC
  5
9502
330
9421
100
AcDbEntity
  8
1
  6
Continuous
100
AcDbCircle
 10
150.647719
 20
115.8251759999999
 30
0.0
 40
2.0
100
AcDbArc
 50
0.0
 51
60.5374
  0
CIRCLE
  5
9503
330
9421
100
AcDbEntity
  8
1
  6
Continuous
100
AcDbCircle
 10
229.690279
 20
142.492376
 30
0.0
 40
4.00307
  0
CIRCLE
  5
9504
330
9421
100
AcDbEntity
  8
1
  6
Continuous
100
AcDbCircle
 10
229.690279
 20
142.492376
 30
0.0
 40
4.50307
  0
ARC
  5
9505
330
9421
100
AcDbEntity
  8
1
  6
Continuous
100
AcDbCircle
 10
177.5228789999999
 20
140.385376
 30
0.0
 40
1.3
100
AcDbArc
 50
275.0
 51
344.1190000000001
  0
ARC
  5
9506
330
9421
100
AcDbEntity
  8
1
  6
Continuous
100
AcDbCircle
 10
170.116779
 20
142.492376
 30
0.0
 40
9.0
100
AcDbArc
 50
344.1190000000001
 51
15.8809
  0
ARC
  5
9507
330
9421
100
AcDbEntity
  8
1
  6
Continuous
100
AcDbCircle
 10
177.5228789999999
 20
144.599376
 30
0.0
 40
1.3
100
AcDbArc
 50
15.8809
 51
85.0
  0
LINE
  5
9508
330
9421
100
AcDbEntity
  8
1
  6
Continuous
100
AcDbLine
 10
223.944146
 20
145.146828
 30
0.0
 11
222.4441459999999
 21
145.146828
 31
0.0
  0
LINE
  5
9509
330
9421
100
AcDbEntity
  8
1
  6
Continuous
100
AcDbLine
 10
223.182896
 20
146.0865779999998
 30
0.0
 11
223.182896
 21
145.146828
 31
0.0
  0
LINE
  5
950A
330
9421
100
AcDbEntity
  8
1
  6
Continuous
100
AcDbLine
 10
223.944146
 20
146.0865779999998
 30
0.0
 11
222.4441459999999
 21
146.0865779999998
 31
0.0
  0
LINE
  5
950B
330
9421
100
AcDbEntity
  8
1
  6
Continuous
100
AcDbLine
 10
223.944146
 20
147.52761
 30
0.0
 11
223.944146
 21
146.34636
 31
0.0
  0
LINE
  5
950C
330
9421
100
AcDbEntity
  8
1
  6
Continuous
100
AcDbLine
 10
223.944146
 20
146.9396099999999
 30
0.0
 11
222.4441459999999
 21
146.9396099999999
 31
0.0
  0
LINE
  5
950D
330
9421
100
AcDbEntity
  8
1
  6
Continuous
100
AcDbLine
 10
223.182896
 20
143.315851
 30
0.0
 11
223.182896
 21
142.845976
 31
0.0
  0
LINE
  5
950E
330
9421
100
AcDbEntity
  8
1
  6
Continuous
100
AcDbLine
 10
223.944146
 20
144.2079389999999
 30
0.0
 11
222.4441459999999
 21
143.653072
 31
0.0
  0
LINE
  5
950F
330
9421
100
AcDbEntity
  8
1
  6
Continuous
100
AcDbLine
 10
222.896771
 20
144.6095639999998
 30
0.0
 11
222.896771
 21
143.8194389999999
 31
0.0
  0
LINE
  5
9510
330
9421
100
AcDbEntity
  8
1
  6
Continuous
100
AcDbLine
 10
223.941521
 20
144.2079389999999
 30
0.0
 11
222.4441459999999
 21
144.789367
 31
0.0
  0
LINE
  5
9511
330
9421
100
AcDbEntity
  8
1
  6
Continuous
100
AcDbLine
 10
223.207946
 20
141.8433709999999
 30
0.0
 11
222.438446
 21
142.533071
 31
0.0
  0
LINE
  5
9512
330
9421
100
AcDbEntity
  8
1
  6
Continuous
100
AcDbLine
 10
222.4441459999999
 20
142.533071
 30
0.0
 11
222.4441459999999
 21
141.689471
 31
0.0
  0
ARC
  5
9513
330
9421
100
AcDbEntity
  8
1
  6
Continuous
100
AcDbCircle
 10
223.487246
 20
142.1454709999999
 30
0.0
 40
0.4104
100
AcDbArc
 50
227.181793
 51
90.0
  0
LINE
  5
9514
330
9421
100
AcDbEntity
  8
1
  6
Continuous
100
AcDbLine
 10
223.182896
 20
139.010061
 30
0.0
 11
223.182896
 21
138.5401859999997
 31
0.0
  0
LINE
  5
9515
330
9421
100
AcDbEntity
  8
1
  6
Continuous
100
AcDbLine
 10
223.2589739999999
 20
140.9814019999998
 30
0.0
 11
223.2589739999999
 21
141.1214019999999
 31
0.0
  0
LINE
  5
9516
330
9421
100
AcDbEntity
  8
1
  6
Continuous
100
AcDbLine
 10
223.5217959999999
 20
140.1968789999999
 30
0.0
 11
222.844196
 21
140.1968789999999
 31
0.0
  0
ARC
  5
9517
330
9421
100
AcDbEntity
  8
1
  6
Continuous
100
AcDbCircle
 10
223.5217959999999
 20
139.8104789999999
 30
0.0
 40
0.3864
100
AcDbArc
 50
0.0
 51
90.0
  0
LINE
  5
9518
330
9421
100
AcDbEntity
  8
1
  6
Continuous
100
AcDbLine
 10
223.908196
 20
139.8104789999999
 30
0.0
 11
223.9030159999999
 21
139.7453229999999
 31
0.0
  0
LINE
  5
9519
330
9421
100
AcDbEntity
  8
1
  6
Continuous
100
AcDbLine
 10
223.9030159999999
 20
139.7453229999999
 30
0.0
 11
223.887588
 21
139.682155
 31
0.0
  0
LINE
  5
951A
330
9421
100
AcDbEntity
  8
1
  6
Continuous
100
AcDbLine
 10
223.887588
 20
139.682155
 30
0.0
 11
223.862416
 21
139.622879
 31
0.0
  0
LINE
  5
951B
330
9421
100
AcDbEntity
  8
1
  6
Continuous
100
AcDbLine
 10
223.862416
 20
139.622879
 30
0.0
 11
223.828284
 21
139.5693149999999
 31
0.0
  0
LINE
  5
951C
330
9421
100
AcDbEntity
  8
1
  6
Continuous
100
AcDbLine
 10
223.828284
 20
139.5693149999999
 30
0.0
 11
223.786172
 21
139.5230589999999
 31
0.0
  0
LINE
  5
951D
330
9421
100
AcDbEntity
  8
1
  6
Continuous
100
AcDbLine
 10
223.786172
 20
139.5230589999999
 30
0.0
 11
223.7373959999999
 21
139.4855389999999
 31
0.0
  0
LINE
  5
951E
330
9421
100
AcDbEntity
  8
1
  6
Continuous
100
AcDbLine
 10
223.7373959999999
 20
139.4855389999999
 30
0.0
 11
223.6834399999999
 21
139.4579029999999
 31
0.0
  0
LINE
  5
951F
330
9421
100
AcDbEntity
  8
1
  6
Continuous
100
AcDbLine
 10
223.6834399999999
 20
139.4579029999999
 30
0.0
 11
223.6258999999999
 21
139.440991
 31
0.0
  0
LINE
  5
9520
330
9421
100
AcDbEntity
  8
1
  6
Continuous
100
AcDbLine
 10
223.6258999999999
 20
139.440991
 30
0.0
 11
223.5665959999999
 21
139.435279
 31
0.0
  0
LINE
  5
9521
330
9421
100
AcDbEntity
  8
1
  6
Continuous
100
AcDbLine
 10
222.440996
 20
139.816079
 30
0.0
 11
222.4469599999999
 21
139.880395
 31
0.0
  0
LINE
  5
9522
330
9421
100
AcDbEntity
  8
1
  6
Continuous
100
AcDbLine
 10
222.4469599999999
 20
139.880395
 30
0.0
 11
222.4646279999999
 21
139.9428629999998
 31
0.0
  0
LINE
  5
9523
330
9421
100
AcDbEntity
  8
1
  6
Continuous
100
AcDbLine
 10
222.4646279999999
 20
139.9428629999998
 30
0.0
 11
222.4935519999999
 21
140.0016629999998
 31
0.0
  0
LINE
  5
9524
330
9421
100
AcDbEntity
  8
1
  6
Continuous
100
AcDbLine
 10
222.4935519999999
 20
140.0016629999998
 30
0.0
 11
222.5328359999998
 21
140.0551429999999
 31
0.0
  0
LINE
  5
9525
330
9421
100
AcDbEntity
  8
1
  6
Continuous
100
AcDbLine
 10
222.5328359999998
 20
140.0551429999999
 30
0.0
 11
222.581416
 21
140.1017629999998
 31
0.0
  0
LINE
  5
9526
330
9421
100
AcDbEntity
  8
1
  6
Continuous
100
AcDbLine
 10
222.581416
 20
140.1017629999998
 30
0.0
 11
222.637836
 21
140.1401789999999
 31
0.0
  0
LINE
  5
9527
330
9421
100
AcDbEntity
  8
1
  6
Continuous
100
AcDbLine
 10
222.637836
 20
140.1401789999999
 30
0.0
 11
222.7005279999999
 21
140.1692989999999
 31
0.0
  0
LINE
  5
9528
330
9421
100
AcDbEntity
  8
1
  6
Continuous
100
AcDbLine
 10
222.7005279999999
 20
140.1692989999999
 30
0.0
 11
222.767672
 21
140.188255
 31
0.0
  0
LINE
  5
9529
330
9421
100
AcDbEntity
  8
1
  6
Continuous
100
AcDbLine
 10
222.767672
 20
140.188255
 30
0.0
 11
222.8373359999999
 21
140.1965149999998
 31
0.0
  0
LINE
  5
952A
330
9421
100
AcDbEntity
  8
1
  6
Continuous
100
AcDbLine
 10
222.8373359999999
 20
140.1965149999998
 30
0.0
 11
222.907504
 21
140.193855
 31
0.0
  0
LINE
  5
952B
330
9421
100
AcDbEntity
  8
1
  6
Continuous
100
AcDbLine
 10
222.907504
 20
140.193855
 30
0.0
 11
222.9761879999998
 21
140.180359
 31
0.0
  0
LINE
  5
952C
330
9421
100
AcDbEntity
  8
1
  6
Continuous
100
AcDbLine
 10
222.9761879999998
 20
140.180359
 30
0.0
 11
223.041372
 21
140.156363
 31
0.0
  0
LINE
  5
952D
330
9421
100
AcDbEntity
  8
1
  6
Continuous
100
AcDbLine
 10
223.041372
 20
140.156363
 30
0.0
 11
223.101236
 21
140.1226229999998
 31
0.0
  0
LINE
  5
952E
330
9421
100
AcDbEntity
  8
1
  6
Continuous
100
AcDbLine
 10
223.101236
 20
140.1226229999998
 30
0.0
 11
223.1540439999999
 21
140.0800629999999
 31
0.0
  0
LINE
  5
952F
330
9421
100
AcDbEntity
  8
1
  6
Continuous
100
AcDbLine
 10
223.1540439999999
 20
140.0800629999999
 30
0.0
 11
223.1982839999998
 21
140.029943
 31
0.0
  0
LINE
  5
9530
330
9421
100
AcDbEntity
  8
1
  6
Continuous
100
AcDbLine
 10
223.1982839999998
 20
140.029943
 30
0.0
 11
223.23264
 21
139.9736629999999
 31
0.0
  0
LINE
  5
9531
330
9421
100
AcDbEntity
  8
1
  6
Continuous
100
AcDbLine
 10
223.23264
 20
139.9736629999999
 30
0.0
 11
223.2561879999999
 21
139.9128469999999
 31
0.0
  0
LINE
  5
9532
330
9421
100
AcDbEntity
  8
1
  6
Continuous
100
AcDbLine
 10
223.2561879999999
 20
139.9128469999999
 30
0.0
 11
223.268228
 21
139.8492589999999
 31
0.0
  0
LINE
  5
9533
330
9421
100
AcDbEntity
  8
1
  6
Continuous
100
AcDbLine
 10
223.268228
 20
139.8492589999999
 30
0.0
 11
223.268396
 21
139.784719
 31
0.0
  0
LINE
  5
9534
330
9421
100
AcDbEntity
  8
1
  6
Continuous
100
AcDbLine
 10
223.268396
 20
139.784719
 30
0.0
 11
223.256692
 21
139.721103
 31
0.0
  0
LINE
  5
9535
330
9421
100
AcDbEntity
  8
1
  6
Continuous
100
AcDbLine
 10
223.256692
 20
139.721103
 30
0.0
 11
223.2334799999999
 21
139.660175
 31
0.0
  0
LINE
  5
9536
330
9421
100
AcDbEntity
  8
1
  6
Continuous
100
AcDbLine
 10
223.2334799999999
 20
139.660175
 30
0.0
 11
223.199404
 21
139.603755
 31
0.0
  0
LINE
  5
9537
330
9421
100
AcDbEntity
  8
1
  6
Continuous
100
AcDbLine
 10
223.199404
 20
139.603755
 30
0.0
 11
223.155444
 21
139.553411
 31
0.0
  0
LINE
  5
9538
330
9421
100
AcDbEntity
  8
1
  6
Continuous
100
AcDbLine
 10
223.155444
 20
139.553411
 30
0.0
 11
223.10286
 21
139.510627
 31
0.0
  0
LINE
  5
9539
330
9421
100
AcDbEntity
  8
1
  6
Continuous
100
AcDbLine
 10
223.10286
 20
139.510627
 30
0.0
 11
223.0431639999999
 21
139.4766069999998
 31
0.0
  0
LINE
  5
953A
330
9421
100
AcDbEntity
  8
1
  6
Continuous
100
AcDbLine
 10
223.0431639999999
 20
139.4766069999998
 30
0.0
 11
222.978092
 21
139.452359
 31
0.0
  0
LINE
  5
953B
330
9421
100
AcDbEntity
  8
1
  6
Continuous
100
AcDbLine
 10
222.978092
 20
139.452359
 30
0.0
 11
222.909492
 21
139.4385269999999
 31
0.0
  0
LINE
  5
953C
330
9421
100
AcDbEntity
  8
1
  6
Continuous
100
AcDbLine
 10
222.909492
 20
139.4385269999999
 30
0.0
 11
222.839324
 21
139.435559
 31
0.0
  0
LINE
  5
953D
330
9421
100
AcDbEntity
  8
1
  6
Continuous
100
AcDbLine
 10
222.839324
 20
139.435559
 30
0.0
 11
222.7696319999998
 21
139.443511
 31
0.0
  0
LINE
  5
953E
330
9421
100
AcDbEntity
  8
1
  6
Continuous
100
AcDbLine
 10
222.7696319999998
 20
139.443511
 30
0.0
 11
222.7024039999998
 21
139.4621869999998
 31
0.0
  0
LINE
  5
953F
330
9421
100
AcDbEntity
  8
1
  6
Continuous
100
AcDbLine
 10
222.7024039999998
 20
139.4621869999998
 30
0.0
 11
222.6395719999999
 21
139.4909989999999
 31
0.0
  0
LINE
  5
9540
330
9421
100
AcDbEntity
  8
1
  6
Continuous
100
AcDbLine
 10
222.6395719999999
 20
139.4909989999999
 30
0.0
 11
222.5829279999999
 21
139.5291629999998
 31
0.0
  0
LINE
  5
9541
330
9421
100
AcDbEntity
  8
1
  6
Continuous
100
AcDbLine
 10
222.5829279999999
 20
139.5291629999998
 30
0.0
 11
222.534096
 21
139.575559
 31
0.0
  0
LINE
  5
9542
330
9421
100
AcDbEntity
  8
1
  6
Continuous
100
AcDbLine
 10
222.534096
 20
139.575559
 30
0.0
 11
222.4945319999999
 21
139.6288989999999
 31
0.0
  0
LINE
  5
9543
330
9421
100
AcDbEntity
  8
1
  6
Continuous
100
AcDbLine
 10
222.4945319999999
 20
139.6288989999999
 30
0.0
 11
222.4652999999999
 21
139.687559
 31
0.0
  0
LINE
  5
9544
330
9421
100
AcDbEntity
  8
1
  6
Continuous
100
AcDbLine
 10
222.4652999999999
 20
139.687559
 30
0.0
 11
222.4472959999999
 21
139.749943
 31
0.0
  0
LINE
  5
9545
330
9421
100
AcDbEntity
  8
1
  6
Continuous
100
AcDbLine
 10
222.4472959999999
 20
139.749943
 30
0.0
 11
222.440996
 21
139.816079
 31
0.0
  0
LINE
  5
9546
330
9421
100
AcDbEntity
  8
1
  6
Continuous
100
AcDbLine
 10
223.538974
 20
141.3902019999999
 30
0.0
 11
223.608974
 21
141.3841539999999
 31
0.0
  0
LINE
  5
9547
330
9421
100
AcDbEntity
  8
1
  6
Continuous
100
AcDbLine
 10
223.608974
 20
141.3841539999999
 30
0.0
 11
223.676874
 21
141.3662339999999
 31
0.0
  0
LINE
  5
9548
330
9421
100
AcDbEntity
  8
1
  6
Continuous
100
AcDbLine
 10
223.676874
 20
141.3662339999999
 30
0.0
 11
223.740574
 21
141.336946
 31
0.0
  0
LINE
  5
9549
330
9421
100
AcDbEntity
  8
1
  6
Continuous
100
AcDbLine
 10
223.740574
 20
141.336946
 30
0.0
 11
223.798142
 21
141.297186
 31
0.0
  0
LINE
  5
954A
330
9421
100
AcDbEntity
  8
1
  6
Continuous
100
AcDbLine
 10
223.798142
 20
141.297186
 30
0.0
 11
223.8478419999999
 21
141.2481859999998
 31
0.0
  0
LINE
  5
954B
330
9421
100
AcDbEntity
  8
1
  6
Continuous
100
AcDbLine
 10
223.8478419999999
 20
141.2481859999998
 30
0.0
 11
223.8881619999999
 21
141.191402
 31
0.0
  0
LINE
  5
954C
330
9421
100
AcDbEntity
  8
1
  6
Continuous
100
AcDbLine
 10
223.8881619999999
 20
141.191402
 30
0.0
 11
223.917842
 21
141.128598
 31
0.0
  0
LINE
  5
954D
330
9421
100
AcDbEntity
  8
1
  6
Continuous
100
AcDbLine
 10
223.917842
 20
141.128598
 30
0.0
 11
223.936042
 21
141.0616499999999
 31
0.0
  0
LINE
  5
954E
330
9421
100
AcDbEntity
  8
1
  6
Continuous
100
AcDbLine
 10
223.936042
 20
141.0616499999999
 30
0.0
 11
223.942174
 21
140.992602
 31
0.0
  0
LINE
  5
954F
330
9421
100
AcDbEntity
  8
1
  6
Continuous
100
AcDbLine
 10
223.936574
 20
140.992602
 30
0.0
 11
223.931058
 21
140.933298
 31
0.0
  0
LINE
  5
9550
330
9421
100
AcDbEntity
  8
1
  6
Continuous
100
AcDbLine
 10
223.931058
 20
140.933298
 30
0.0
 11
223.914622
 21
140.8757579999999
 31
0.0
  0
LINE
  5
9551
330
9421
100
AcDbEntity
  8
1
  6
Continuous
100
AcDbLine
 10
223.914622
 20
140.8757579999999
 30
0.0
 11
223.887798
 21
140.8218019999999
 31
0.0
  0
LINE
  5
9552
330
9421
100
AcDbEntity
  8
1
  6
Continuous
100
AcDbLine
 10
223.887798
 20
140.8218019999999
 30
0.0
 11
223.8514259999998
 21
140.7730259999999
 31
0.0
  0
LINE
  5
9553
330
9421
100
AcDbEntity
  8
1
  6
Continuous
100
AcDbLine
 10
223.8514259999998
 20
140.7730259999999
 30
0.0
 11
223.8065419999998
 21
140.7309139999999
 31
0.0
  0
LINE
  5
9554
330
9421
100
AcDbEntity
  8
1
  6
Continuous
100
AcDbLine
 10
223.8065419999998
 20
140.7309139999999
 30
0.0
 11
223.7545739999999
 21
140.696782
 31
0.0
  0
LINE
  5
9555
330
9421
100
AcDbEntity
  8
1
  6
Continuous
100
AcDbLine
 10
223.7545739999999
 20
140.696782
 30
0.0
 11
223.697062
 21
140.6716099999999
 31
0.0
  0
LINE
  5
9556
330
9421
100
AcDbEntity
  8
1
  6
Continuous
100
AcDbLine
 10
223.697062
 20
140.6716099999999
 30
0.0
 11
223.63577
 21
140.656182
 31
0.0
  0
LINE
  5
9557
330
9421
100
AcDbEntity
  8
1
  6
Continuous
100
AcDbLine
 10
223.63577
 20
140.656182
 30
0.0
 11
223.572574
 21
140.6510019999998
 31
0.0
  0
LINE
  5
9558
330
9421
100
AcDbEntity
  8
1
  6
Continuous
100
AcDbLine
 10
223.2589739999999
 20
140.9870019999999
 30
0.0
 11
223.252086
 21
140.9257379999999
 31
0.0
  0
LINE
  5
9559
330
9421
100
AcDbEntity
  8
1
  6
Continuous
100
AcDbLine
 10
223.252086
 20
140.9257379999999
 30
0.0
 11
223.231618
 21
140.86635
 31
0.0
  0
LINE
  5
955A
330
9421
100
AcDbEntity
  8
1
  6
Continuous
100
AcDbLine
 10
223.231618
 20
140.86635
 30
0.0
 11
223.1982139999999
 21
140.8106019999999
 31
0.0
  0
LINE
  5
955B
330
9421
100
AcDbEntity
  8
1
  6
Continuous
100
AcDbLine
 10
223.1982139999999
 20
140.8106019999999
 30
0.0
 11
223.1528539999999
 21
140.76023
 31
0.0
  0
LINE
  5
955C
330
9421
100
AcDbEntity
  8
1
  6
Continuous
100
AcDbLine
 10
223.1528539999999
 20
140.76023
 30
0.0
 11
223.0969379999999
 21
140.7167459999998
 31
0.0
  0
LINE
  5
955D
330
9421
100
AcDbEntity
  8
1
  6
Continuous
100
AcDbLine
 10
223.0969379999999
 20
140.7167459999998
 30
0.0
 11
223.032174
 21
140.681466
 31
0.0
  0
LINE
  5
955E
330
9421
100
AcDbEntity
  8
1
  6
Continuous
100
AcDbLine
 10
223.032174
 20
140.681466
 30
0.0
 11
222.960522
 21
140.655482
 31
0.0
  0
LINE
  5
955F
330
9421
100
AcDbEntity
  8
1
  6
Continuous
100
AcDbLine
 10
222.960522
 20
140.655482
 30
0.0
 11
222.8841379999999
 21
140.63955
 31
0.0
  0
LINE
  5
9560
330
9421
100
AcDbEntity
  8
1
  6
Continuous
100
AcDbLine
 10
222.8841379999999
 20
140.63955
 30
0.0
 11
222.805374
 21
140.6342019999998
 31
0.0
  0
LINE
  5
9561
330
9421
100
AcDbEntity
  8
1
  6
Continuous
100
AcDbLine
 10
222.805374
 20
140.6342019999998
 30
0.0
 11
222.7421779999999
 21
140.63983
 31
0.0
  0
LINE
  5
9562
330
9421
100
AcDbEntity
  8
1
  6
Continuous
100
AcDbLine
 10
222.7421779999999
 20
140.63983
 30
0.0
 11
222.6808859999999
 21
140.65649
 31
0.0
  0
LINE
  5
9563
330
9421
100
AcDbEntity
  8
1
  6
Continuous
100
AcDbLine
 10
222.6808859999999
 20
140.65649
 30
0.0
 11
222.623374
 21
140.6837059999998
 31
0.0
  0
LINE
  5
9564
330
9421
100
AcDbEntity
  8
1
  6
Continuous
100
AcDbLine
 10
222.623374
 20
140.6837059999998
 30
0.0
 11
222.571406
 21
140.7206659999999
 31
0.0
  0
LINE
  5
9565
330
9421
100
AcDbEntity
  8
1
  6
Continuous
100
AcDbLine
 10
222.571406
 20
140.7206659999999
 30
0.0
 11
222.526522
 21
140.7662219999999
 31
0.0
  0
LINE
  5
9566
330
9421
100
AcDbEntity
  8
1
  6
Continuous
100
AcDbLine
 10
222.526522
 20
140.7662219999999
 30
0.0
 11
222.49015
 21
140.819002
 31
0.0
  0
LINE
  5
9567
330
9421
100
AcDbEntity
  8
1
  6
Continuous
100
AcDbLine
 10
222.49015
 20
140.819002
 30
0.0
 11
222.4633259999999
 21
140.877382
 31
0.0
  0
LINE
  5
9568
330
9421
100
AcDbEntity
  8
1
  6
Continuous
100
AcDbLine
 10
222.4633259999999
 20
140.877382
 30
0.0
 11
222.446918
 21
140.939626
 31
0.0
  0
LINE
  5
9569
330
9421
100
AcDbEntity
  8
1
  6
Continuous
100
AcDbLine
 10
222.446918
 20
140.939626
 30
0.0
 11
222.441374
 21
141.003802
 31
0.0
  0
LINE
  5
956A
330
9421
100
AcDbEntity
  8
1
  6
Continuous
100
AcDbLine
 10
222.441374
 20
141.003802
 30
0.0
 11
222.447002
 21
141.0708899999999
 31
0.0
  0
LINE
  5
956B
330
9421
100
AcDbEntity
  8
1
  6
Continuous
100
AcDbLine
 10
222.447002
 20
141.0708899999999
 30
0.0
 11
222.463662
 21
141.1359619999998
 31
0.0
  0
LINE
  5
956C
330
9421
100
AcDbEntity
  8
1
  6
Continuous
100
AcDbLine
 10
222.463662
 20
141.1359619999998
 30
0.0
 11
222.4908779999999
 21
141.197002
 31
0.0
  0
LINE
  5
956D
330
9421
100
AcDbEntity
  8
1
  6
Continuous
100
AcDbLine
 10
222.4908779999999
 20
141.197002
 30
0.0
 11
222.527838
 21
141.2521619999999
 31
0.0
  0
LINE
  5
956E
330
9421
100
AcDbEntity
  8
1
  6
Continuous
100
AcDbLine
 10
222.527838
 20
141.2521619999999
 30
0.0
 11
222.573394
 21
141.29979
 31
0.0
  0
LINE
  5
956F
330
9421
100
AcDbEntity
  8
1
  6
Continuous
100
AcDbLine
 10
222.573394
 20
141.29979
 30
0.0
 11
222.6261739999999
 21
141.3384299999999
 31
0.0
  0
LINE
  5
9570
330
9421
100
AcDbEntity
  8
1
  6
Continuous
100
AcDbLine
 10
222.6261739999999
 20
141.3384299999999
 30
0.0
 11
222.6845539999999
 21
141.3669059999998
 31
0.0
  0
LINE
  5
9571
330
9421
100
AcDbEntity
  8
1
  6
Continuous
100
AcDbLine
 10
222.6845539999999
 20
141.3669059999998
 30
0.0
 11
222.7467979999999
 21
141.3843219999999
 31
0.0
  0
LINE
  5
9572
330
9421
100
AcDbEntity
  8
1
  6
Continuous
100
AcDbLine
 10
222.7467979999999
 20
141.3843219999999
 30
0.0
 11
222.8109739999999
 21
141.3902019999999
 31
0.0
  0
LINE
  5
9573
330
9421
100
AcDbEntity
  8
1
  6
Continuous
100
AcDbLine
 10
223.572574
 20
140.6510019999998
 30
0.0
 11
223.518114
 21
140.6560979999999
 31
0.0
  0
LINE
  5
9574
330
9421
100
AcDbEntity
  8
1
  6
Continuous
100
AcDbLine
 10
223.518114
 20
140.6560979999999
 30
0.0
 11
223.4653059999998
 21
140.671274
 31
0.0
  0
LINE
  5
9575
330
9421
100
AcDbEntity
  8
1
  6
Continuous
100
AcDbLine
 10
223.4653059999998
 20
140.671274
 30
0.0
 11
223.415774
 21
140.6960259999999
 31
0.0
  0
LINE
  5
9576
330
9421
100
AcDbEntity
  8
1
  6
Continuous
100
AcDbLine
 10
223.415774
 20
140.6960259999999
 30
0.0
 11
223.371002
 21
140.729598
 31
0.0
  0
LINE
  5
9577
330
9421
100
AcDbEntity
  8
1
  6
Continuous
100
AcDbLine
 10
223.371002
 20
140.729598
 30
0.0
 11
223.3323339999998
 21
140.7710379999998
 31
0.0
  0
LINE
  5
9578
330
9421
100
AcDbEntity
  8
1
  6
Continuous
100
AcDbLine
 10
223.3323339999998
 20
140.7710379999998
 30
0.0
 11
223.301002
 21
140.819002
 31
0.0
  0
LINE
  5
9579
330
9421
100
AcDbEntity
  8
1
  6
Continuous
100
AcDbLine
 10
223.301002
 20
140.819002
 30
0.0
 11
223.277874
 21
140.8720899999998
 31
0.0
  0
LINE
  5
957A
330
9421
100
AcDbEntity
  8
1
  6
Continuous
100
AcDbLine
 10
223.277874
 20
140.8720899999998
 30
0.0
 11
223.2637339999999
 21
140.92865
 31
0.0
  0
LINE
  5
957B
330
9421
100
AcDbEntity
  8
1
  6
Continuous
100
AcDbLine
 10
223.2637339999999
 20
140.92865
 30
0.0
 11
223.2589739999999
 21
140.9870019999999
 31
0.0
  0
LINE
  5
957C
330
9421
100
AcDbEntity
  8
1
  6
Continuous
100
AcDbLine
 10
236.9979569999999
 20
142.210023
 30
0.0
 11
235.4319569999999
 21
142.210023
 31
0.0
  0
LWPOLYLINE
  5
957D
330
9421
100
AcDbEntity
  8
1
  6
Continuous
100
AcDbPolyline
 90
       37
 70
     1
 43
0.0
 10
235.5021569999999
 20
145.9146229999998
 10
235.5125249999999
 20
146.0204089999998
 10
235.543278
 20
146.1231439999999
 10
235.593579
 20
146.219912
 10
235.661943
 20
146.3078779999999
 10
235.7464259999999
 20
146.384585
 10
235.8445979999999
 20
146.447765
 10
235.9536509999998
 20
146.4956359999999
 10
236.070453
 20
146.5268209999998
 10
236.1916289999999
 20
146.5404289999999
 10
236.3136959999999
 20
146.5360549999998
 10
236.433171
 20
146.513834
 10
236.5465979999999
 20
146.474387
 10
236.6507369999999
 20
146.418875
 10
236.742591
 20
146.3488909999998
 10
236.8195409999999
 20
146.2664059999999
 10
236.879346
 20
146.1738229999999
 10
236.9202779999999
 20
146.073815
 10
236.9412029999999
 20
145.9692169999998
 10
236.9415
 20
145.863053
 10
236.9211689999999
 20
145.758374
 10
236.880777
 20
145.6581769999999
 10
236.821485
 20
145.5653509999999
 10
236.745021
 20
145.4825689999998
 10
236.653545
 20
145.41218
 10
236.5497299999999
 20
145.356236
 10
236.4364919999999
 20
145.3163029999998
 10
236.3171519999999
 20
145.2935689999999
 10
236.195112
 20
145.2886819999999
 10
236.0738549999999
 20
145.3017769999999
 10
235.956891
 20
145.332476
 10
235.847595
 20
145.3798879999999
 10
235.749045
 20
145.4426629999999
 10
235.6641299999998
 20
145.518992
 10
235.5952799999998
 20
145.6066879999999
 10
235.544439
 20
145.7032399999999
 10
235.5131189999999
 20
145.8058399999998
  0
LINE
  5
95A4
330
9421
100
AcDbEntity
  8
1
  6
Continuous
100
AcDbLine
 10
236.9331569999999
 20
147.7748829999999
 30
0.0
 11
236.9331569999999
 21
146.559883
 31
0.0
  0
LINE
  5
95A5
330
9421
100
AcDbEntity
  8
1
  6
Continuous
100
AcDbLine
 10
236.9331569999999
 20
147.170083
 30
0.0
 11
235.4427569999999
 21
147.170083
 31
0.0
  0
LINE
  5
95A6
330
9421
100
AcDbEntity
  8
1
  6
Continuous
100
AcDbLine
 10
236.1366569999999
 20
139.367529
 30
0.0
 11
237.008865
 21
139.86954
 31
0.0
  0
LINE
  5
95A7
330
9421
100
AcDbEntity
  8
1
  6
Continuous
100
AcDbLine
 10
236.1339569999999
 20
139.367529
 30
0.0
 11
237.009864
 21
138.861819
 31
0.0
  0
LINE
  5
95A8
330
9421
100
AcDbEntity
  8
1
  6
Continuous
100
AcDbLine
 10
236.1339569999999
 20
139.367529
 30
0.0
 11
235.4319569999999
 21
139.367529
 31
0.0
  0
LINE
  5
95A9
330
9421
100
AcDbEntity
  8
1
  6
Continuous
100
AcDbLine
 10
235.8855569999998
 20
138.8130209999999
 30
0.0
 11
235.8855569999998
 21
138.0003209999999
 31
0.0
  0
LINE
  5
95AA
330
9421
100
AcDbEntity
  8
1
  6
Continuous
100
AcDbLine
 10
236.9628569999999
 20
138.399921
 30
0.0
 11
235.4373569999999
 21
137.8356209999998
 31
0.0
  0
LINE
  5
95AB
330
9421
100
AcDbEntity
  8
1
  6
Continuous
100
AcDbLine
 10
236.9601569999999
 20
138.399921
 30
0.0
 11
235.4373569999999
 21
138.991221
 31
0.0
  0
LINE
  5
95AC
330
9421
100
AcDbEntity
  8
1
  6
Continuous
100
AcDbLine
 10
236.139357
 20
141.1540809999999
 30
0.0
 11
236.139357
 21
140.6302809999999
 31
0.0
  0
LWPOLYLINE
  5
95AD
330
9421
100
AcDbEntity
  8
1
  6
Continuous
100
AcDbPolyline
 90
       10
 70
     0
 43
0.0
 10
236.0259569999998
 20
140.635681
 10
235.93467
 20
140.6443209999999
 10
235.846137
 20
140.6699979999999
 10
235.763085
 20
140.7119289999999
 10
235.688025
 20
140.768845
 10
235.623225
 20
140.8389909999999
 10
235.570656
 20
140.920261
 10
235.5319109999999
 20
141.0101709999999
 10
235.5082049999999
 20
141.1059939999999
 10
235.5002129999999
 20
141.2048409999998
  0
LWPOLYLINE
  5
95B9
330
9421
100
AcDbEntity
  8
1
  6
Continuous
100
AcDbPolyline
 90
       10
 70
     0
 43
0.0
 10
235.5002129999999
 20
141.2048409999998
 10
235.511121
 20
141.3042279999999
 10
235.543521
 20
141.4006179999998
 10
235.596441
 20
141.491041
 10
235.6682339999999
 20
141.5727699999998
 10
235.7567399999998
 20
141.6433209999999
 10
235.859313
 20
141.7005609999999
 10
235.972767
 20
141.7427079999999
 10
236.0937
 20
141.7685469999999
 10
236.218413
 20
141.7772409999998
  0
LWPOLYLINE
  5
95C5
330
9421
100
AcDbEntity
  8
1
  6
Continuous
100
AcDbPolyline
 90
       10
 70
     0
 43
0.0
 10
236.9373689999999
 20
141.2048409999998
 10
236.926461
 20
141.3042279999999
 10
236.894061
 20
141.4006179999998
 10
236.8411409999999
 20
141.491041
 10
236.769348
 20
141.5727699999998
 10
236.6808419999999
 20
141.6433209999999
 10
236.578269
 20
141.7005609999999
 10
236.4648149999999
 20
141.7427079999999
 10
236.3438819999998
 20
141.7685469999999
 10
236.2191689999999
 20
141.7772409999998
  0
LWPOLYLINE
  5
95D1
330
9421
100
AcDbEntity
  8
1
  6
Continuous
100
AcDbPolyline
 90
       10
 70
     0
 43
0.0
 10
236.5809689999999
 20
140.7134409999999
 10
236.6428529999998
 20
140.721001
 10
236.702874
 20
140.743411
 10
236.7591689999999
 20
140.779996
 10
236.810064
 20
140.8296759999998
 10
236.853993
 20
140.8909119999999
 10
236.8896059999999
 20
140.961841
 10
236.9158769999999
 20
141.04033
 10
236.931942
 20
141.1239759999999
 10
236.9373689999999
 20
141.2102409999999
  0
LINE
  5
95DD
330
9421
100
AcDbEntity
  8
1
  6
Continuous
100
AcDbLine
 10
236.139357
 20
140.6302809999999
 30
0.0
 11
235.4427569999999
 21
140.6302809999999
 31
0.0
  0
LINE
  5
95DE
330
9421
100
AcDbEntity
  8
1
  6
Continuous
100
AcDbLine
 10
236.9979569999999
 20
140.1982809999998
 30
0.0
 11
235.4319569999999
 21
140.1982809999998
 31
0.0
  0
LINE
  5
95DF
330
9421
100
AcDbEntity
  8
1
  6
Continuous
100
AcDbLine
 10
236.9979569999999
 20
143.6064469999998
 30
0.0
 11
235.4319569999999
 21
143.6064469999998
 31
0.0
  0
LINE
  5
95E0
330
9421
100
AcDbEntity
  8
1
  6
Continuous
100
AcDbLine
 10
236.2149569999999
 20
143.6064469999998
 30
0.0
 11
236.2149569999999
 21
142.639847
 31
0.0
  0
LINE
  5
95E1
330
9421
100
AcDbEntity
  8
1
  6
Continuous
100
AcDbLine
 10
236.9979569999999
 20
142.639847
 30
0.0
 11
235.4319569999999
 21
142.639847
 31
0.0
  0
LWPOLYLINE
  5
95E2
330
9421
100
AcDbEntity
  8
1
  6
Continuous
100
AcDbPolyline
 90
       10
 70
     0
 43
0.0
 10
236.5991129999999
 20
143.980087
 10
236.660997
 20
143.987647
 10
236.7210179999999
 20
144.010057
 10
236.7773129999999
 20
144.0466419999999
 10
236.8282079999999
 20
144.0963219999999
 10
236.872137
 20
144.157558
 10
236.9077499999999
 20
144.2284869999998
 10
236.934021
 20
144.306976
 10
236.950086
 20
144.390622
 10
236.955513
 20
144.476887
  0
LWPOLYLINE
  5
95EE
330
9421
100
AcDbEntity
  8
1
  6
Continuous
100
AcDbPolyline
 90
       10
 70
     0
 43
0.0
 10
236.955513
 20
144.471487
 10
236.9446049999999
 20
144.570874
 10
236.9122049999998
 20
144.6672639999998
 10
236.859285
 20
144.7576869999998
 10
236.7874919999999
 20
144.839416
 10
236.6989859999999
 20
144.909967
 10
236.596413
 20
144.967207
 10
236.4829589999999
 20
145.009354
 10
236.3620259999999
 20
145.0351929999999
 10
236.2373129999999
 20
145.043887
  0
LWPOLYLINE
  5
95FA
330
9421
100
AcDbEntity
  8
1
  6
Continuous
100
AcDbPolyline
 90
       10
 70
     0
 43
0.0
 10
235.8747569999999
 20
143.974687
 10
235.812873
 20
143.982247
 10
235.7528519999999
 20
144.0046569999998
 10
235.6965569999999
 20
144.0412419999999
 10
235.6456619999999
 20
144.0909219999998
 10
235.6017329999999
 20
144.1521579999999
 10
235.56612
 20
144.2230869999999
 10
235.539849
 20
144.301576
 10
235.523784
 20
144.3852219999999
 10
235.5183569999999
 20
144.471487
  0
LWPOLYLINE
  5
9606
330
9421
100
AcDbEntity
  8
1
  6
Continuous
100
AcDbPolyline
 90
       10
 70
     0
 43
0.0
 10
235.5183569999999
 20
144.471487
 10
235.5292649999999
 20
144.570874
 10
235.5616649999999
 20
144.6672639999998
 10
235.614585
 20
144.7576869999998
 10
235.6863779999999
 20
144.839416
 10
235.7748839999999
 20
144.909967
 10
235.877457
 20
144.967207
 10
235.9909109999999
 20
145.009354
 10
236.1118439999999
 20
145.0351929999999
 10
236.2365569999998
 20
145.043887
  0
LINE
  5
9612
330
9421
100
AcDbEntity
  8
1
  6
Continuous
100
AcDbLine
 10
223.415774
 20
137.7966099999999
 30
0.0
 11
223.371002
 21
137.830182
 31
0.0
  0
LINE
  5
9613
330
9421
100
AcDbEntity
  8
1
  6
Continuous
100
AcDbLine
 10
223.371002
 20
137.830182
 30
0.0
 11
223.3323339999998
 21
137.871622
 31
0.0
  0
LINE
  5
9614
330
9421
100
AcDbEntity
  8
1
  6
Continuous
100
AcDbLine
 10
223.2637339999999
 20
138.029234
 30
0.0
 11
223.2589739999999
 21
138.0875859999999
 31
0.0
  0
LINE
  5
9615
330
9421
100
AcDbEntity
  8
1
  6
Continuous
100
AcDbLine
 10
223.277874
 20
137.972674
 30
0.0
 11
223.2637339999999
 21
138.029234
 31
0.0
  0
LINE
  5
9616
330
9421
100
AcDbEntity
  8
1
  6
Continuous
100
AcDbLine
 10
223.301002
 20
137.919586
 30
0.0
 11
223.277874
 21
137.972674
 31
0.0
  0
LINE
  5
9617
330
9421
100
AcDbEntity
  8
1
  6
Continuous
100
AcDbLine
 10
222.7467979999999
 20
138.484906
 30
0.0
 11
222.8109739999999
 21
138.490786
 31
0.0
  0
LINE
  5
9618
330
9421
100
AcDbEntity
  8
1
  6
Continuous
100
AcDbLine
 10
222.6845539999999
 20
138.46749
 30
0.0
 11
222.7467979999999
 21
138.484906
 31
0.0
  0
LINE
  5
9619
330
9421
100
AcDbEntity
  8
1
  6
Continuous
100
AcDbLine
 10
222.6261739999999
 20
138.4390139999998
 30
0.0
 11
222.6845539999999
 21
138.46749
 31
0.0
  0
LINE
  5
961A
330
9421
100
AcDbEntity
  8
1
  6
Continuous
100
AcDbLine
 10
222.573394
 20
138.400374
 30
0.0
 11
222.6261739999999
 21
138.4390139999998
 31
0.0
  0
LINE
  5
961B
330
9421
100
AcDbEntity
  8
1
  6
Continuous
100
AcDbLine
 10
222.527838
 20
138.352746
 30
0.0
 11
222.573394
 21
138.400374
 31
0.0
  0
LINE
  5
961C
330
9421
100
AcDbEntity
  8
1
  6
Continuous
100
AcDbLine
 10
222.4908779999999
 20
138.297586
 30
0.0
 11
222.527838
 21
138.352746
 31
0.0
  0
LINE
  5
961D
330
9421
100
AcDbEntity
  8
1
  6
Continuous
100
AcDbLine
 10
222.463662
 20
138.236546
 30
0.0
 11
222.4908779999999
 21
138.297586
 31
0.0
  0
LINE
  5
961E
330
9421
100
AcDbEntity
  8
1
  6
Continuous
100
AcDbLine
 10
222.447002
 20
138.1714739999999
 30
0.0
 11
222.463662
 21
138.236546
 31
0.0
  0
LINE
  5
961F
330
9421
100
AcDbEntity
  8
1
  6
Continuous
100
AcDbLine
 10
222.441374
 20
138.104386
 30
0.0
 11
222.447002
 21
138.1714739999999
 31
0.0
  0
LINE
  5
9620
330
9421
100
AcDbEntity
  8
1
  6
Continuous
100
AcDbLine
 10
222.446918
 20
138.0402099999998
 30
0.0
 11
222.441374
 21
138.104386
 31
0.0
  0
LINE
  5
9621
330
9421
100
AcDbEntity
  8
1
  6
Continuous
100
AcDbLine
 10
222.4633259999999
 20
137.9779659999998
 30
0.0
 11
222.446918
 21
138.0402099999998
 31
0.0
  0
LINE
  5
9622
330
9421
100
AcDbEntity
  8
1
  6
Continuous
100
AcDbLine
 10
222.49015
 20
137.919586
 30
0.0
 11
222.4633259999999
 21
137.9779659999998
 31
0.0
  0
LINE
  5
9623
330
9421
100
AcDbEntity
  8
1
  6
Continuous
100
AcDbLine
 10
222.526522
 20
137.866806
 30
0.0
 11
222.49015
 21
137.919586
 31
0.0
  0
LINE
  5
9624
330
9421
100
AcDbEntity
  8
1
  6
Continuous
100
AcDbLine
 10
222.571406
 20
137.8212499999999
 30
0.0
 11
222.526522
 21
137.866806
 31
0.0
  0
LINE
  5
9625
330
9421
100
AcDbEntity
  8
1
  6
Continuous
100
AcDbLine
 10
222.623374
 20
137.78429
 30
0.0
 11
222.571406
 21
137.8212499999999
 31
0.0
  0
LINE
  5
9626
330
9421
100
AcDbEntity
  8
1
  6
Continuous
100
AcDbLine
 10
222.6808859999999
 20
137.7570739999999
 30
0.0
 11
222.623374
 21
137.78429
 31
0.0
  0
LINE
  5
9627
330
9421
100
AcDbEntity
  8
1
  6
Continuous
100
AcDbLine
 10
222.7421779999999
 20
137.7404139999998
 30
0.0
 11
222.6808859999999
 21
137.7570739999999
 31
0.0
  0
LINE
  5
9628
330
9421
100
AcDbEntity
  8
1
  6
Continuous
100
AcDbLine
 10
222.805374
 20
137.734786
 30
0.0
 11
222.7421779999999
 21
137.7404139999998
 31
0.0
  0
LINE
  5
9629
330
9421
100
AcDbEntity
  8
1
  6
Continuous
100
AcDbLine
 10
222.8841379999999
 20
137.740134
 30
0.0
 11
222.805374
 21
137.734786
 31
0.0
  0
LINE
  5
962A
330
9421
100
AcDbEntity
  8
1
  6
Continuous
100
AcDbLine
 10
222.960522
 20
137.756066
 30
0.0
 11
222.8841379999999
 21
137.740134
 31
0.0
  0
LINE
  5
962B
330
9421
100
AcDbEntity
  8
1
  6
Continuous
100
AcDbLine
 10
223.032174
 20
137.78205
 30
0.0
 11
222.960522
 21
137.756066
 31
0.0
  0
LINE
  5
962C
330
9421
100
AcDbEntity
  8
1
  6
Continuous
100
AcDbLine
 10
223.0969379999999
 20
137.81733
 30
0.0
 11
223.032174
 21
137.78205
 31
0.0
  0
LINE
  5
962D
330
9421
100
AcDbEntity
  8
1
  6
Continuous
100
AcDbLine
 10
223.1528539999999
 20
137.8608139999998
 30
0.0
 11
223.0969379999999
 21
137.81733
 31
0.0
  0
LINE
  5
962E
330
9421
100
AcDbEntity
  8
1
  6
Continuous
100
AcDbLine
 10
223.1982139999999
 20
137.9111859999999
 30
0.0
 11
223.1528539999999
 21
137.8608139999998
 31
0.0
  0
LINE
  5
962F
330
9421
100
AcDbEntity
  8
1
  6
Continuous
100
AcDbLine
 10
223.231618
 20
137.966934
 30
0.0
 11
223.1982139999999
 21
137.9111859999999
 31
0.0
  0
LINE
  5
9630
330
9421
100
AcDbEntity
  8
1
  6
Continuous
100
AcDbLine
 10
223.252086
 20
138.026322
 30
0.0
 11
223.231618
 21
137.966934
 31
0.0
  0
LINE
  5
9631
330
9421
100
AcDbEntity
  8
1
  6
Continuous
100
AcDbLine
 10
223.2589739999999
 20
138.0875859999999
 30
0.0
 11
223.252086
 21
138.026322
 31
0.0
  0
LINE
  5
9632
330
9421
100
AcDbEntity
  8
1
  6
Continuous
100
AcDbLine
 10
223.2589739999999
 20
138.081986
 30
0.0
 11
223.2589739999999
 21
138.2219859999999
 31
0.0
  0
LINE
  5
9633
330
9421
100
AcDbEntity
  8
1
  6
Continuous
100
AcDbLine
 10
223.3323339999998
 20
137.871622
 30
0.0
 11
223.301002
 21
137.919586
 31
0.0
  0
LINE
  5
9634
330
9421
100
AcDbEntity
  8
1
  6
Continuous
100
AcDbLine
 10
223.518114
 20
137.756682
 30
0.0
 11
223.4653059999998
 21
137.771858
 31
0.0
  0
LINE
  5
9635
330
9421
100
AcDbEntity
  8
1
  6
Continuous
100
AcDbLine
 10
223.4653059999998
 20
137.771858
 30
0.0
 11
223.415774
 21
137.7966099999999
 31
0.0
  0
LINE
  5
9636
330
9421
100
AcDbEntity
  8
1
  6
Continuous
100
AcDbLine
 10
223.63577
 20
137.7567659999999
 30
0.0
 11
223.572574
 21
137.751586
 31
0.0
  0
LINE
  5
9637
330
9421
100
AcDbEntity
  8
1
  6
Continuous
100
AcDbLine
 10
223.697062
 20
137.7721939999998
 30
0.0
 11
223.63577
 21
137.7567659999999
 31
0.0
  0
LINE
  5
9638
330
9421
100
AcDbEntity
  8
1
  6
Continuous
100
AcDbLine
 10
223.7545739999999
 20
137.7973659999998
 30
0.0
 11
223.697062
 21
137.7721939999998
 31
0.0
  0
LINE
  5
9639
330
9421
100
AcDbEntity
  8
1
  6
Continuous
100
AcDbLine
 10
223.8065419999998
 20
137.831498
 30
0.0
 11
223.7545739999999
 21
137.7973659999998
 31
0.0
  0
LINE
  5
963A
330
9421
100
AcDbEntity
  8
1
  6
Continuous
100
AcDbLine
 10
223.8514259999998
 20
137.87361
 30
0.0
 11
223.8065419999998
 21
137.831498
 31
0.0
  0
LINE
  5
963B
330
9421
100
AcDbEntity
  8
1
  6
Continuous
100
AcDbLine
 10
223.887798
 20
137.9223859999999
 30
0.0
 11
223.8514259999998
 21
137.87361
 31
0.0
  0
LINE
  5
963C
330
9421
100
AcDbEntity
  8
1
  6
Continuous
100
AcDbLine
 10
223.914622
 20
137.9763419999999
 30
0.0
 11
223.887798
 21
137.9223859999999
 31
0.0
  0
LINE
  5
963D
330
9421
100
AcDbEntity
  8
1
  6
Continuous
100
AcDbLine
 10
223.931058
 20
138.033882
 30
0.0
 11
223.914622
 21
137.9763419999999
 31
0.0
  0
LINE
  5
963E
330
9421
100
AcDbEntity
  8
1
  6
Continuous
100
AcDbLine
 10
223.936574
 20
138.093186
 30
0.0
 11
223.931058
 21
138.033882
 31
0.0
  0
LINE
  5
963F
330
9421
100
AcDbEntity
  8
1
  6
Continuous
100
AcDbLine
 10
223.936042
 20
138.162234
 30
0.0
 11
223.942174
 21
138.093186
 31
0.0
  0
LINE
  5
9640
330
9421
100
AcDbEntity
  8
1
  6
Continuous
100
AcDbLine
 10
223.917842
 20
138.229182
 30
0.0
 11
223.936042
 21
138.162234
 31
0.0
  0
LINE
  5
9641
330
9421
100
AcDbEntity
  8
1
  6
Continuous
100
AcDbLine
 10
223.8881619999999
 20
138.291986
 30
0.0
 11
223.917842
 21
138.229182
 31
0.0
  0
LINE
  5
9642
330
9421
100
AcDbEntity
  8
1
  6
Continuous
100
AcDbLine
 10
223.8478419999999
 20
138.34877
 30
0.0
 11
223.8881619999999
 21
138.291986
 31
0.0
  0
LINE
  5
9643
330
9421
100
AcDbEntity
  8
1
  6
Continuous
100
AcDbLine
 10
223.798142
 20
138.39777
 30
0.0
 11
223.8478419999999
 21
138.34877
 31
0.0
  0
LINE
  5
9644
330
9421
100
AcDbEntity
  8
1
  6
Continuous
100
AcDbLine
 10
223.740574
 20
138.43753
 30
0.0
 11
223.798142
 21
138.39777
 31
0.0
  0
LINE
  5
9645
330
9421
100
AcDbEntity
  8
1
  6
Continuous
100
AcDbLine
 10
223.676874
 20
138.466818
 30
0.0
 11
223.740574
 21
138.43753
 31
0.0
  0
LINE
  5
9646
330
9421
100
AcDbEntity
  8
1
  6
Continuous
100
AcDbLine
 10
223.608974
 20
138.4847379999999
 30
0.0
 11
223.676874
 21
138.466818
 31
0.0
  0
LINE
  5
9647
330
9421
100
AcDbEntity
  8
1
  6
Continuous
100
AcDbLine
 10
223.572574
 20
137.751586
 30
0.0
 11
223.518114
 21
137.756682
 31
0.0
  0
LINE
  5
9648
330
9421
100
AcDbEntity
  8
1
  6
Continuous
100
AcDbLine
 10
223.538974
 20
138.490786
 30
0.0
 11
223.608974
 21
138.4847379999999
 31
0.0
  0
LINE
  5
9649
330
9421
100
AcDbEntity
  8
4
  6
CENTER
100
AcDbLine
 10
22.05057899999999
 20
142.492376
 30
0.0
 11
31.208179
 21
142.492376
 31
0.0
  0
ENDSEC
  0
SECTION
  2
OBJECTS
  0
DICTIONARY
  5
940F
330
0
100
AcDbDictionary
281
     1
  3
ACAD_CIP_PREVIOUS_PRODUCT_INFO
350
96AF
  3
ACAD_COLOR
350
9691
  3
ACAD_DETAILVIEWSTYLE
350
96AA
  3
ACAD_GROUP
350
9410
  3
ACAD_LAYOUT
350
941C
  3
ACAD_MATERIAL
350
965F
  3
ACAD_MLEADERSTYLE
350
96A6
  3
ACAD_MLINESTYLE
350
9419
  3
ACAD_PLOTSETTINGS
350
941B
  3
ACAD_PLOTSTYLENAME
350
965D
  3
ACAD_SCALELIST
350
9694
  3
ACAD_SECTIONVIEWSTYLE
350
96A8
  3
ACAD_TABLESTYLE
350
9692
  3
ACAD_VISUALSTYLE
350
9678
  3
ACDB_RECOMPOSE_DATA
350
96CD
  3
AcDbVariableDictionary
350
96C0
  3
DWGPROPS
350
96CE
  0
DICTIONARY
  5
96B0
330
9413
100
AcDbDictionary
280
     1
281
     1
  3
ADSK_XREC_LAYER_RECONCILED
360
96B1
  0
DICTIONARY
  5
96B2
330
9429
100
AcDbDictionary
280
     1
281
     1
  3
ADSK_XREC_LAYER_RECONCILED
360
96B3
  0
DICTIONARY
  5
96B4
330
942A
100
AcDbDictionary
280
     1
281
     1
  3
ADSK_XREC_LAYER_RECONCILED
360
96B5
  0
DICTIONARY
  5
96B6
330
942B
100
AcDbDictionary
280
     1
281
     1
  3
ADSK_XREC_LAYER_RECONCILED
360
96B7
  0
DICTIONARY
  5
96B8
330
942C
100
AcDbDictionary
280
     1
281
     1
  3
ADSK_XREC_LAYER_RECONCILED
360
96B9
  0
DICTIONARY
  5
96BA
330
942D
100
AcDbDictionary
280
     1
281
     1
  3
ADSK_XREC_LAYER_RECONCILED
360
96BB
  0
DICTIONARY
  5
96BC
330
942E
100
AcDbDictionary
280
     1
281
     1
  3
ADSK_XREC_LAYER_RECONCILED
360
96BD
  0
DICTIONARY
  5
96BE
330
942F
100
AcDbDictionary
280
     1
281
     1
  3
ADSK_XREC_LAYER_RECONCILED
360
96BF
  0
DICTIONARY
  5
9658
330
9421
100
AcDbDictionary
281
     1
  3
ACAD_LAYOUTSELFREF
350
9659
  0
DICTIONARY
  5
9656
330
941D
100
AcDbDictionary
281
     1
  3
ACAD_LAYOUTSELFREF
350
9657
  0
XRECORD
  5
96AF
102
{ACAD_REACTORS
330
940F
102
}
330
940F
100
AcDbXrecord
280
     1
300
ACDLT
300
2014
300
ACDLT_F_S
  0
DICTIONARY
  5
9691
102
{ACAD_REACTORS
330
940F
102
}
330
940F
100
AcDbDictionary
281
     1
  0
DICTIONARY
  5
96AA
102
{ACAD_REACTORS
330
940F
102
}
330
940F
100
AcDbDictionary
281
     1
  3
Imperial24
350
96AB
  0
DICTIONARY
  5
9410
102
{ACAD_REACTORS
330
940F
102
}
330
940F
100
AcDbDictionary
281
     1
  0
DICTIONARY
  5
941C
102
{ACAD_REACTORS
330
940F
102
}
330
940F
100
AcDbDictionary
281
     1
  3
Model
350
96AC
  3
レイアウト1
350
96AD
  0
DICTIONARY
  5
965F
102
{ACAD_REACTORS
330
940F
102
}
330
940F
100
AcDbDictionary
281
     1
  3
ByBlock
350
9668
  3
ByLayer
350
9660
  3
Global
350
9670
  0
DICTIONARY
  5
96A6
102
{ACAD_REACTORS
330
940F
102
}
330
940F
100
AcDbDictionary
281
     1
  3
Standard
350
96A7
  0
DICTIONARY
  5
9419
102
{ACAD_REACTORS
330
940F
102
}
330
940F
100
AcDbDictionary
281
     1
  3
STANDARD
350
941A
  0
DICTIONARY
  5
941B
102
{ACAD_REACTORS
330
940F
102
}
330
940F
100
AcDbDictionary
281
     1
  0
ACDBDICTIONARYWDFLT
  5
965D
102
{ACAD_REACTORS
330
940F
102
}
330
940F
100
AcDbDictionary
281
     1
  3
Normal
350
965E
100
AcDbDictionaryWithDefault
340
965E
  0
DICTIONARY
  5
9694
102
{ACAD_REACTORS
330
940F
102
}
330
940F
100
AcDbDictionary
281
     1
  3
A0
350
9695
  3
A1
350
9696
  3
A2
350
9697
  3
A3
350
9698
  3
A4
350
9699
  3
A5
350
969A
  3
A6
350
969B
  3
A7
350
969C
  3
A8
350
969D
  3
A9
350
969E
  3
B0
350
969F
  3
B1
350
96A0
  3
B2
350
96A1
  3
B3
350
96A2
  3
B4
350
96A3
  3
B5
350
96A4
  3
B6
350
96A5
  0
DICTIONARY
  5
96A8
102
{ACAD_REACTORS
330
940F
102
}
330
940F
100
AcDbDictionary
281
     1
  3
Imperial24
350
96A9
  0
DICTIONARY
  5
9692
102
{ACAD_REACTORS
330
940F
102
}
330
940F
100
AcDbDictionary
281
     1
  3
Standard
350
9693
  0
DICTIONARY
  5
9678
102
{ACAD_REACTORS
330
940F
102
}
330
940F
100
AcDbDictionary
281
     1
  3
2dWireframe
350
967E
  3
Basic
350
967D
  3
Brighten
350
9684
  3
ColorChange
350
9688
  3
Conceptual
350
9681
  3
Dim
350
9683
  3
EdgeColorOff
350
9690
  3
Facepattern
350
9687
  3
Flat
350
9679
  3
FlatWithEdges
350
967A
  3
Gouraud
350
967B
  3
GouraudWithEdges
350
967C
  3
Hidden
350
9680
  3
JitterOff
350
968E
  3
Linepattern
350
9686
  3
OverhangOff
350
968F
  3
Realistic
350
9682
  3
Shaded
350
968D
  3
Shaded with edges
350
968C
  3
Shades of Gray
350
9689
  3
Sketchy
350
968A
  3
Thicken
350
9685
  3
Wireframe
350
967F
  3
X-Ray
350
968B
  0
XRECORD
  5
96CD
102
{ACAD_REACTORS
330
940F
102
}
330
940F
100
AcDbXrecord
280
     1
 90
        1
330
9693
  0
DICTIONARY
  5
96C0
102
{ACAD_REACTORS
330
940F
102
}
330
940F
100
AcDbDictionary
281
     1
  3
CANNOSCALE
350
96C5
  3
CMLEADERSTYLE
350
96C2
  3
CTABLESTYLE
350
96C1
  3
CVIEWDETAILSTYLE
350
96C3
  3
CVIEWSECTIONSTYLE
350
96C4
  3
DIMASSOC
350
96C8
  3
INDEXCTL
350
96C7
  3
SORTENTS
350
96C6
  3
XCLIPFRAME
350
96C9
  0
XRECORD
  5
96CE
102
{ACAD_REACTORS
330
940F
102
}
330
940F
100
AcDbXrecord
280
     1
  1
DWGPROPS COOKIE
  2

  3

  4

  6

  7

  8
Yoshitsune
  9

300
=
301
=
302
=
303
=
304
=
305
=
306
=
307
=
308
=
309
=
 40
0.0000133449074074
 41
2450737.633608681
 42
2457192.63899801
  1

 90
        0
  0
XRECORD
  5
96B1
102
{ACAD_REACTORS
330
96B0
102
}
330
96B0
100
AcDbXrecord
280
     1
290
     1
  0
XRECORD
  5
96B3
102
{ACAD_REACTORS
330
96B2
102
}
330
96B2
100
AcDbXrecord
280
     1
290
     1
  0
XRECORD
  5
96B5
102
{ACAD_REACTORS
330
96B4
102
}
330
96B4
100
AcDbXrecord
280
     1
290
     1
  0
XRECORD
  5
96B7
102
{ACAD_REACTORS
330
96B6
102
}
330
96B6
100
AcDbXrecord
280
     1
290
     1
  0
XRECORD
  5
96B9
102
{ACAD_REACTORS
330
96B8
102
}
330
96B8
100
AcDbXrecord
280
     1
290
     1
  0
XRECORD
  5
96BB
102
{ACAD_REACTORS
330
96BA
102
}
330
96BA
100
AcDbXrecord
280
     1
290
     1
  0
XRECORD
  5
96BD
102
{ACAD_REACTORS
330
96BC
102
}
330
96BC
100
AcDbXrecord
280
     1
290
     1
  0
XRECORD
  5
96BF
102
{ACAD_REACTORS
330
96BE
102
}
330
96BE
100
AcDbXrecord
280
     1
290
     1
  0
XRECORD
  5
9659
102
{ACAD_REACTORS
330
9658
102
}
330
9658
100
AcDbXrecord
280
     1
340
9421
  0
XRECORD
  5
9657
102
{ACAD_REACTORS
330
9656
102
}
330
9656
100
AcDbXrecord
280
     1
340
941D
  0
ACDBDETAILVIEWSTYLE
  5
96AB
102
{ACAD_XDICTIONARY
360
9706
102
}
102
{ACAD_REACTORS
330
96AA
102
}
330
96AA
100
AcDbModelDocViewStyle
 70
     0
  3
Imperial24
290
     0
100
AcDbDetailViewStyle
 70
     0
 71
     0
 90
        3
 71
     1
340
9414
 40
0.24
340
0
 40
0.24
300

 40
0.36
280
     3
 71
     2
340
9418
 90
       25
 71
     3
340
9414
 40
0.24
 90
        1
 40
0.75
 90
        1
300
%<\AcVar ViewType \f "%tc1">% %<\AcVar ViewDetailId>%\PSCALE %<\AcVar ViewScale \f "%sn">%
 71
     4
340
9418
 90
       25
340
9418
 90
       25
280
     0
  0
LAYOUT
  5
96AC
102
{ACAD_XDICTIONARY
360
9708
102
}
102
{ACAD_REACTORS
330
941C
102
}
330
941C
100
AcDbPlotSettings
  1

  2
Canon LBP9100C
  4

  6

 40
0.0
 41
0.0
 42
0.0
 43
0.0
 44
0.0
 45
0.0
 46
0.0
 47
0.0
 48
0.0
 49
0.0
140
0.0
141
0.0
142
1.0
143
1.0
 70
  1712
 72
     0
 73
     0
 74
     0
  7

 75
     0
147
1.0
148
0.0
149
0.0
100
AcDbLayout
  1
Model
 70
     1
 71
     0
 10
0.0
 20
0.0
 11
12.0
 21
9.0
 12
0.0
 22
0.0
 32
0.0
 14
0.0
 24
0.0
 34
0.0
 15
0.0
 25
0.0
 35
0.0
146
0.0
 13
0.0
 23
0.0
 33
0.0
 16
1.0
 26
0.0
 36
0.0
 17
0.0
 27
1.0
 37
0.0
 76
     0
330
9421
331
9655
  0
LAYOUT
  5
96AD
102
{ACAD_XDICTIONARY
360
970A
102
}
102
{ACAD_REACTORS
330
941C
102
}
330
941C
100
AcDbPlotSettings
  1

  2
Canon LBP9100C
  4

  6

 40
0.0
 41
0.0
 42
0.0
 43
0.0
 44
0.0
 45
0.0
 46
0.0
 47
0.0
 48
0.0
 49
0.0
140
0.0
141
0.0
142
1.0
143
1.0
 70
   688
 72
     0
 73
     0
 74
     5
  7

 75
    16
147
1.0
148
0.0
149
0.0
100
AcDbLayout
  1
レイアウト1
 70
     0
 71
     1
 10
0.0
 20
0.0
 11
420.0
 21
297.0
 12
0.0
 22
0.0
 32
0.0
 14
1.000000000000000E+20
 24
1.000000000000000E+20
 34
1.000000000000000E+20
 15
-1.000000000000000E+20
 25
-1.000000000000000E+20
 35
-1.000000000000000E+20
146
0.0
 13
0.0
 23
0.0
 33
0.0
 16
1.0
 26
0.0
 36
0.0
 17
0.0
 27
1.0
 37
0.0
 76
     0
330
941D
  0
MATERIAL
  5
9668
102
{ACAD_XDICTIONARY
360
9669
102
}
102
{ACAD_REACTORS
330
965F
102
}
330
965F
100
AcDbMaterial
  1
ByBlock
 72
     0
 43
0.0208333333333333
 43
0.0
 43
0.0
 43
0.0
 43
0.0
 43
0.0208333333333333
 43
0.0
 43
0.0
 43
0.0
 43
0.0
 43
1.0
 43
0.0
 43
0.0
 43
0.0
 43
0.0
 43
1.0
 77
     0
 47
0.0208333333333333
 47
0.0
 47
0.0
 47
0.0
 47
0.0
 47
0.0208333333333333
 47
0.0
 47
0.0
 47
0.0
 47
0.0
 47
1.0
 47
0.0
 47
0.0
 47
0.0
 47
0.0
 47
1.0
171
     0
 49
0.0208333333333333
 49
0.0
 49
0.0
 49
0.0
 49
0.0
 49
0.0208333333333333
 49
0.0
 49
0.0
 49
0.0
 49
0.0
 49
1.0
 49
0.0
 49
0.0
 49
0.0
 49
0.0
 49
1.0
175
     0
142
0.0208333333333333
142
0.0
142
0.0
142
0.0
142
0.0
142
0.0208333333333333
142
0.0
142
0.0
142
0.0
142
0.0
142
1.0
142
0.0
142
0.0
142
0.0
142
0.0
142
1.0
179
     0
144
0.0208333333333333
144
0.0
144
0.0
144
0.0
144
0.0
144
0.0208333333333333
144
0.0
144
0.0
144
0.0
144
0.0
144
1.0
144
0.0
144
0.0
144
0.0
144
0.0
144
1.0
147
0.0208333333333333
147
0.0
147
0.0
147
0.0
147
0.0
147
0.0208333333333333
147
0.0
147
0.0
147
0.0
147
0.0
147
1.0
147
0.0
147
0.0
147
0.0
147
0.0
147
1.0
  0
MATERIAL
  5
9660
102
{ACAD_XDICTIONARY
360
9661
102
}
102
{ACAD_REACTORS
330
965F
102
}
330
965F
100
AcDbMaterial
  1
ByLayer
 72
     0
 43
0.0208333333333333
 43
0.0
 43
0.0
 43
0.0
 43
0.0
 43
0.0208333333333333
 43
0.0
 43
0.0
 43
0.0
 43
0.0
 43
1.0
 43
0.0
 43
0.0
 43
0.0
 43
0.0
 43
1.0
 77
     0
 47
0.0208333333333333
 47
0.0
 47
0.0
 47
0.0
 47
0.0
 47
0.0208333333333333
 47
0.0
 47
0.0
 47
0.0
 47
0.0
 47
1.0
 47
0.0
 47
0.0
 47
0.0
 47
0.0
 47
1.0
171
     0
 49
0.0208333333333333
 49
0.0
 49
0.0
 49
0.0
 49
0.0
 49
0.0208333333333333
 49
0.0
 49
0.0
 49
0.0
 49
0.0
 49
1.0
 49
0.0
 49
0.0
 49
0.0
 49
0.0
 49
1.0
175
     0
142
0.0208333333333333
142
0.0
142
0.0
142
0.0
142
0.0
142
0.0208333333333333
142
0.0
142
0.0
142
0.0
142
0.0
142
1.0
142
0.0
142
0.0
142
0.0
142
0.0
142
1.0
179
     0
144
0.0208333333333333
144
0.0
144
0.0
144
0.0
144
0.0
144
0.0208333333333333
144
0.0
144
0.0
144
0.0
144
0.0
144
1.0
144
0.0
144
0.0
144
0.0
144
0.0
144
1.0
147
0.0208333333333333
147
0.0
147
0.0
147
0.0
147
0.0
147
0.0208333333333333
147
0.0
147
0.0
147
0.0
147
0.0
147
1.0
147
0.0
147
0.0
147
0.0
147
0.0
147
1.0
  0
MATERIAL
  5
9670
102
{ACAD_XDICTIONARY
360
9671
102
}
102
{ACAD_REACTORS
330
965F
102
}
330
965F
100
AcDbMaterial
  1
Global
 72
     0
 43
0.0208333333333333
 43
0.0
 43
0.0
 43
0.0
 43
0.0
 43
0.0208333333333333
 43
0.0
 43
0.0
 43
0.0
 43
0.0
 43
1.0
 43
0.0
 43
0.0
 43
0.0
 43
0.0
 43
1.0
 77
     0
 47
0.0208333333333333
 47
0.0
 47
0.0
 47
0.0
 47
0.0
 47
0.0208333333333333
 47
0.0
 47
0.0
 47
0.0
 47
0.0
 47
1.0
 47
0.0
 47
0.0
 47
0.0
 47
0.0
 47
1.0
171
     0
 49
0.0208333333333333
 49
0.0
 49
0.0
 49
0.0
 49
0.0
 49
0.0208333333333333
 49
0.0
 49
0.0
 49
0.0
 49
0.0
 49
1.0
 49
0.0
 49
0.0
 49
0.0
 49
0.0
 49
1.0
175
     0
142
0.0208333333333333
142
0.0
142
0.0
142
0.0
142
0.0
142
0.0208333333333333
142
0.0
142
0.0
142
0.0
142
0.0
142
1.0
142
0.0
142
0.0
142
0.0
142
0.0
142
1.0
179
     0
144
0.0208333333333333
144
0.0
144
0.0
144
0.0
144
0.0
144
0.0208333333333333
144
0.0
144
0.0
144
0.0
144
0.0
144
1.0
144
0.0
144
0.0
144
0.0
144
0.0
144
1.0
147
0.0208333333333333
147
0.0
147
0.0
147
0.0
147
0.0
147
0.0208333333333333
147
0.0
147
0.0
147
0.0
147
0.0
147
1.0
147
0.0
147
0.0
147
0.0
147
0.0
147
1.0
  0
MLEADERSTYLE
  5
96A7
102
{ACAD_REACTORS
330
96A6
102
}
330
96A6
100
AcDbMLeaderStyle
170
     2
171
     1
172
     0
 90
        2
 40
0.0
 41
0.0
173
     1
 91
-1056964608
340
9416
 92
       -2
290
     1
 42
0.09
291
     1
 43
0.36
  3
Standard
 44
0.18
300

342
9414
174
     1
178
     6
175
     1
176
     0
 93
-1056964608
 45
0.18
292
     0
297
     0
 46
0.18
 94
-1056964608
 47
1.0
 49
1.0
140
1.0
293
     1
141
0.0
294
     1
177
     0
142
1.0
295
     0
296
     0
143
0.125
1001
ACAD_MLEADERVER
1070
     2
  0
MLINESTYLE
  5
941A
102
{ACAD_REACTORS
330
9419
102
}
330
9419
100
AcDbMlineStyle
  2
STANDARD
 70
     0
  3

 62
   256
 51
90.0
 52
90.0
 71
     2
 49
0.5
 62
   256
  6
BYLAYER
 49
-0.5
 62
   256
  6
BYLAYER
  0
ACDBPLACEHOLDER
  5
965E
102
{ACAD_REACTORS
330
965D
102
}
330
965D
  0
SCALE
  5
9695
102
{ACAD_REACTORS
330
9694
102
}
330
9694
100
AcDbScale
 70
     0
300
1:1
140
1.0
141
1.0
290
     1
  0
SCALE
  5
9696
102
{ACAD_REACTORS
330
9694
102
}
330
9694
100
AcDbScale
 70
     0
300
1/128" = 1'-0"
140
0.0078125
141
12.0
290
     0
  0
SCALE
  5
9697
102
{ACAD_REACTORS
330
9694
102
}
330
9694
100
AcDbScale
 70
     0
300
1/64" = 1'-0"
140
0.015625
141
12.0
290
     0
  0
SCALE
  5
9698
102
{ACAD_REACTORS
330
9694
102
}
330
9694
100
AcDbScale
 70
     0
300
1/32" = 1'-0"
140
0.03125
141
12.0
290
     0
  0
SCALE
  5
9699
102
{ACAD_REACTORS
330
9694
102
}
330
9694
100
AcDbScale
 70
     0
300
1/16" = 1'-0"
140
0.0625
141
12.0
290
     0
  0
SCALE
  5
969A
102
{ACAD_REACTORS
330
9694
102
}
330
9694
100
AcDbScale
 70
     0
300
3/32" = 1'-0"
140
0.09375
141
12.0
290
     0
  0
SCALE
  5
969B
102
{ACAD_REACTORS
330
9694
102
}
330
9694
100
AcDbScale
 70
     0
300
1/8" = 1'-0"
140
0.125
141
12.0
290
     0
  0
SCALE
  5
969C
102
{ACAD_REACTORS
330
9694
102
}
330
9694
100
AcDbScale
 70
     0
300
3/16" = 1'-0"
140
0.1875
141
12.0
290
     0
  0
SCALE
  5
969D
102
{ACAD_REACTORS
330
9694
102
}
330
9694
100
AcDbScale
 70
     0
300
1/4" = 1'-0"
140
0.25
141
12.0
290
     0
  0
SCALE
  5
969E
102
{ACAD_REACTORS
330
9694
102
}
330
9694
100
AcDbScale
 70
     0
300
3/8" = 1'-0"
140
0.375
141
12.0
290
     0
  0
SCALE
  5
969F
102
{ACAD_REACTORS
330
9694
102
}
330
9694
100
AcDbScale
 70
     0
300
1/2" = 1'-0"
140
0.5
141
12.0
290
     0
  0
SCALE
  5
96A0
102
{ACAD_REACTORS
330
9694
102
}
330
9694
100
AcDbScale
 70
     0
300
3/4" = 1'-0"
140
0.75
141
12.0
290
     0
  0
SCALE
  5
96A1
102
{ACAD_REACTORS
330
9694
102
}
330
9694
100
AcDbScale
 70
     0
300
1" = 1'-0"
140
1.0
141
12.0
290
     0
  0
SCALE
  5
96A2
102
{ACAD_REACTORS
330
9694
102
}
330
9694
100
AcDbScale
 70
     0
300
1-1/2" = 1'-0"
140
1.5
141
12.0
290
     0
  0
SCALE
  5
96A3
102
{ACAD_REACTORS
330
9694
102
}
330
9694
100
AcDbScale
 70
     0
300
3" = 1'-0"
140
3.0
141
12.0
290
     0
  0
SCALE
  5
96A4
102
{ACAD_REACTORS
330
9694
102
}
330
9694
100
AcDbScale
 70
     0
300
6" = 1'-0"
140
6.0
141
12.0
290
     0
  0
SCALE
  5
96A5
102
{ACAD_REACTORS
330
9694
102
}
330
9694
100
AcDbScale
 70
     0
300
1'-0" = 1'-0"
140
12.0
141
12.0
290
     0
  0
ACDBSECTIONVIEWSTYLE
  5
96A9
102
{ACAD_XDICTIONARY
360
9704
102
}
102
{ACAD_REACTORS
330
96A8
102
}
330
96A8
100
AcDbModelDocViewStyle
 70
     0
  3
Imperial24
290
     0
100
AcDbSectionViewStyle
 70
     0
 71
     0
 90
       78
 71
     1
340
9414
 40
0.24
340
0
340
0
 40
0.24
300
I, O, Q, S, X, Z
 40
0.48
 90
        3
 40
0.18
 90
        1
 71
     2
340
9418
 90
       25
340
9418
 90
       50
 40
0.24
 40
0.0
 40
0.24
 71
     3
340
9414
 40
0.24
 90
        1
 40
0.75
 90
        1
300
%<\AcVar ViewType \f "%tc1">% %<\AcVar ViewSectionStartId>%-%<\AcVar ViewSectionEndId>%\PSCALE %<\AcVar ViewScale \f "%sn">%
 71
     4
300
ANSI31
 40
1.0
 90
        0
290
     0
290
     0
 90
        6
 40
0.0
 40
1.570796326794896
 40
0.2617993877991494
 40
1.308996938995747
 40
-0.2617993877991494
 40
1.832595714594046
  0
TABLESTYLE
  5
9693
102
{ACAD_XDICTIONARY
360
96CB
102
}
102
{ACAD_REACTORS
330
9692
102
}
330
9692
100
AcDbTableStyle
  3
Standard
 70
     0
 71
     0
 40
0.06
 41
0.06
280
     0
281
     0
  7
STANDARD
140
0.18
170
     2
 62
     0
 63
     7
283
     0
274
    -2
284
     1
 64
     0
275
    -2
285
     1
 65
     0
276
    -2
286
     1
 66
     0
277
    -2
287
     1
 67
     0
278
    -2
288
     1
 68
     0
279
    -2
289
     1
 69
     0
  7
STANDARD
140
0.25
170
     5
 62
     0
 63
     7
283
     0
274
    -2
284
     1
 64
     0
275
    -2
285
     1
 65
     0
276
    -2
286
     1
 66
     0
277
    -2
287
     1
 67
     0
278
    -2
288
     1
 68
     0
279
    -2
289
     1
 69
     0
  7
STANDARD
140
0.18
170
     5
 62
     0
 63
     7
283
     0
274
    -2
284
     1
 64
     0
275
    -2
285
     1
 65
     0
276
    -2
286
     1
 66
     0
277
    -2
287
     1
 67
     0
278
    -2
288
     1
 68
     0
279
    -2
289
     1
 69
     0
  0
VISUALSTYLE
  5
967E
102
{ACAD_XDICTIONARY
360
96DC
102
}
102
{ACAD_REACTORS
330
9678
102
}
330
9678
100
AcDbVisualStyle
  2
2dWireframe
 70
     4
 71
     0
 72
     2
 73
     0
 90
        0
 40
-0.6
 41
-30.0
 62
     5
 63
     7
 74
     1
 91
        4
 64
     7
 65
   257
 75
     1
175
     1
 42
1.0
 92
        0
 66
   257
 43
1.0
 76
     1
 77
     6
 78
     2
 67
     7
 79
     5
170
     0
171
     0
290
     0
174
     0
 93
        1
 44
0.0
173
     0
291
     0
 45
0.0
1001
ACAD
1000
AcDbSavedByObjectVersion
1070
     0
  0
VISUALSTYLE
  5
967D
102
{ACAD_XDICTIONARY
360
96DA
102
}
102
{ACAD_REACTORS
330
9678
102
}
330
9678
100
AcDbVisualStyle
  2
Basic
 70
     7
 71
     1
 72
     0
 73
     1
 90
        0
 40
-0.6
 41
-30.0
 62
     5
 63
     7
 74
     0
 91
        4
 64
     7
 65
   257
 75
     1
175
     1
 42
1.0
 92
        8
 66
     7
 43
1.0
 76
     1
 77
     6
 78
     2
 67
     7
 79
     5
170
     0
171
     0
290
     0
174
     0
 93
        1
 44
0.0
173
     0
291
     1
 45
0.0
1001
ACAD
1000
AcDbSavedByObjectVersion
1070
     0
  0
VISUALSTYLE
  5
9684
102
{ACAD_XDICTIONARY
360
96E8
102
}
102
{ACAD_REACTORS
330
9678
102
}
330
9678
100
AcDbVisualStyle
  2
Brighten
 70
    12
 71
     2
 72
     2
 73
     0
 90
        0
 40
-0.6
 41
-30.0
 62
     5
 63
     7
 74
     1
 91
        4
 64
     7
 65
   257
 75
     1
175
     1
 42
1.0
 92
        8
 66
     7
 43
1.0
 76
     1
 77
     6
 78
     2
 67
     7
 79
     5
170
     0
171
     0
290
     0
174
     0
 93
        1
 44
50.0
173
     0
291
     1
 45
0.0
1001
ACAD
1000
AcDbSavedByObjectVersion
1070
     0
  0
VISUALSTYLE
  5
9688
102
{ACAD_XDICTIONARY
360
96F0
102
}
102
{ACAD_REACTORS
330
9678
102
}
330
9678
100
AcDbVisualStyle
  2
ColorChange
 70
    16
 71
     2
 72
     2
 73
     3
 90
        0
 40
-0.6
 41
-30.0
 62
     5
 63
     8
 74
     1
 91
        4
 64
     7
 65
   257
 75
     1
175
     1
 42
1.0
 92
        8
 66
     8
 43
1.0
 76
     1
 77
     6
 78
     2
 67
     7
 79
     5
170
     0
171
     0
290
     0
174
     0
 93
        1
 44
0.0
173
     0
291
     1
 45
0.0
1001
ACAD
1000
AcDbSavedByObjectVersion
1070
     0
  0
VISUALSTYLE
  5
9681
102
{ACAD_XDICTIONARY
360
96E2
102
}
102
{ACAD_REACTORS
330
9678
102
}
330
9678
100
AcDbVisualStyle
  2
Conceptual
 70
     9
 71
     3
 72
     2
 73
     0
 90
        0
 40
-0.6
 41
-30.0
 62
     5
 63
     7
 74
     2
 91
        2
 64
     7
 65
   257
 75
     1
175
     1
 42
179.0
 92
        8
 66
     7
 43
1.0
 76
     1
 77
     6
 78
     2
 67
     7
 79
     3
170
     0
171
     0
290
     0
174
     0
 93
        1
 44
0.0
173
     0
291
     0
 45
0.0
1001
ACAD
1000
AcDbSavedByObjectVersion
1070
     0
  0
VISUALSTYLE
  5
9683
102
{ACAD_XDICTIONARY
360
96E6
102
}
102
{ACAD_REACTORS
330
9678
102
}
330
9678
100
AcDbVisualStyle
  2
Dim
 70
    11
 71
     2
 72
     2
 73
     0
 90
        0
 40
-0.6
 41
-30.0
 62
     5
 63
     7
 74
     1
 91
        4
 64
     7
 65
   257
 75
     1
175
     1
 42
1.0
 92
        8
 66
     7
 43
1.0
 76
     1
 77
     6
 78
     2
 67
     7
 79
     5
170
     0
171
     0
290
     0
174
     0
 93
        1
 44
-50.0
173
     0
291
     1
 45
0.0
1001
ACAD
1000
AcDbSavedByObjectVersion
1070
     0
  0
VISUALSTYLE
  5
9690
102
{ACAD_XDICTIONARY
360
9700
102
}
102
{ACAD_REACTORS
330
9678
102
}
330
9678
100
AcDbVisualStyle
  2
EdgeColorOff
 70
    22
 71
     2
 72
     2
 73
     0
 90
        0
 40
-0.6
 41
-30.0
 62
     5
 63
     7
 74
     1
 91
        4
 64
     7
 65
   257
 75
     1
175
     1
 42
1.0
 92
        8
 66
     7
 43
1.0
 76
     1
 77
     6
 78
     2
 67
     7
 79
     5
170
     0
171
     0
290
     0
174
     0
 93
        1
 44
0.0
173
     0
291
     1
 45
0.0
1001
ACAD
1000
AcDbSavedByObjectVersion
1070
     0
  0
VISUALSTYLE
  5
9687
102
{ACAD_XDICTIONARY
360
96EE
102
}
102
{ACAD_REACTORS
330
9678
102
}
330
9678
100
AcDbVisualStyle
  2
Facepattern
 70
    15
 71
     2
 72
     2
 73
     0
 90
        0
 40
-0.6
 41
-30.0
 62
     5
 63
     7
 74
     1
 91
        4
 64
     7
 65
   257
 75
     1
175
     1
 42
1.0
 92
        8
 66
     7
 43
1.0
 76
     1
 77
     6
 78
     2
 67
     7
 79
     5
170
     0
171
     0
290
     0
174
     0
 93
        1
 44
0.0
173
     0
291
     1
 45
0.0
1001
ACAD
1000
AcDbSavedByObjectVersion
1070
     0
  0
VISUALSTYLE
  5
9679
102
{ACAD_XDICTIONARY
360
96D2
102
}
102
{ACAD_REACTORS
330
9678
102
}
330
9678
100
AcDbVisualStyle
  2
Flat
 70
     0
 71
     2
 72
     1
 73
     1
 90
        2
 40
-0.6
 41
30.0
 62
     5
 63
     7
 74
     0
 91
        0
 64
     7
 65
   257
 75
     1
175
     1
 42
1.0
 92
        8
 66
     7
 43
1.0
 76
     1
 77
     6
 78
     2
 67
     7
 79
     5
170
     0
171
     0
290
     0
174
     0
 93
       13
 44
0.0
173
     0
291
     1
 45
0.0
1001
ACAD
1000
AcDbSavedByObjectVersion
1070
     0
  0
VISUALSTYLE
  5
967A
102
{ACAD_XDICTIONARY
360
96D4
102
}
102
{ACAD_REACTORS
330
9678
102
}
330
9678
100
AcDbVisualStyle
  2
FlatWithEdges
 70
     1
 71
     2
 72
     1
 73
     1
 90
        2
 40
-0.6
 41
30.0
 62
     5
 63
     7
 74
     1
 91
        0
 64
     7
 65
   257
 75
     1
175
     1
 42
1.0
 92
        0
 66
   257
 43
1.0
 76
     1
 77
     6
 78
     2
 67
     7
 79
     5
170
     0
171
     0
290
     0
174
     0
 93
       13
 44
0.0
173
     0
291
     1
 45
0.0
1001
ACAD
1000
AcDbSavedByObjectVersion
1070
     0
  0
VISUALSTYLE
  5
967B
102
{ACAD_XDICTIONARY
360
96D6
102
}
102
{ACAD_REACTORS
330
9678
102
}
330
9678
100
AcDbVisualStyle
  2
Gouraud
 70
     2
 71
     2
 72
     2
 73
     1
 90
        2
 40
-0.6
 41
30.0
 62
     5
 63
     7
 74
     0
 91
        0
 64
     7
 65
   257
 75
     1
175
     1
 42
1.0
 92
        0
 66
     7
 43
1.0
 76
     1
 77
     6
 78
     2
 67
     7
 79
     5
170
     0
171
     0
290
     0
174
     0
 93
       13
 44
0.0
173
     0
291
     1
 45
0.0
1001
ACAD
1000
AcDbSavedByObjectVersion
1070
     0
  0
VISUALSTYLE
  5
967C
102
{ACAD_XDICTIONARY
360
96D8
102
}
102
{ACAD_REACTORS
330
9678
102
}
330
9678
100
AcDbVisualStyle
  2
GouraudWithEdges
 70
     3
 71
     2
 72
     2
 73
     1
 90
        2
 40
-0.6
 41
30.0
 62
     5
 63
     7
 74
     1
 91
        0
 64
     7
 65
   257
 75
     1
175
     1
 42
1.0
 92
        0
 66
   257
 43
1.0
 76
     1
 77
     6
 78
     2
 67
     7
 79
     5
170
     0
171
     0
290
     0
174
     0
 93
       13
 44
0.0
173
     0
291
     1
 45
0.0
1001
ACAD
1000
AcDbSavedByObjectVersion
1070
     0
  0
VISUALSTYLE
  5
9680
102
{ACAD_XDICTIONARY
360
96E0
102
}
102
{ACAD_REACTORS
330
9678
102
}
330
9678
100
AcDbVisualStyle
  2
Hidden
 70
     6
 71
     1
 72
     2
 73
     2
 90
        0
 40
-0.6
 41
-30.0
 62
     5
 63
     7
 74
     2
 91
        2
 64
     7
 65
   257
 75
     2
175
     1
 42
40.0
 92
        0
 66
   257
 43
1.0
 76
     1
 77
     6
 78
     2
 67
     7
 79
     3
170
     0
171
     0
290
     0
174
     0
 93
        1
 44
0.0
173
     0
291
     0
 45
0.0
1001
ACAD
1000
AcDbSavedByObjectVersion
1070
     0
  0
VISUALSTYLE
  5
968E
102
{ACAD_XDICTIONARY
360
96FC
102
}
102
{ACAD_REACTORS
330
9678
102
}
330
9678
100
AcDbVisualStyle
  2
JitterOff
 70
    20
 71
     2
 72
     2
 73
     0
 90
        0
 40
-0.6
 41
-30.0
 62
     5
 63
     7
 74
     1
 91
        4
 64
     7
 65
   257
 75
     1
175
     1
 42
1.0
 92
       10
 66
     7
 43
1.0
 76
     1
 77
     6
 78
     2
 67
     7
 79
     5
170
     0
171
     0
290
     0
174
     0
 93
        1
 44
0.0
173
     0
291
     1
 45
0.0
1001
ACAD
1000
AcDbSavedByObjectVersion
1070
     0
  0
VISUALSTYLE
  5
9686
102
{ACAD_XDICTIONARY
360
96EC
102
}
102
{ACAD_REACTORS
330
9678
102
}
330
9678
100
AcDbVisualStyle
  2
Linepattern
 70
    14
 71
     2
 72
     2
 73
     0
 90
        0
 40
-0.6
 41
-30.0
 62
     5
 63
     7
 74
     1
 91
        4
 64
     7
 65
   257
 75
     7
175
     7
 42
1.0
 92
        8
 66
     7
 43
1.0
 76
     1
 77
     6
 78
     2
 67
     7
 79
     5
170
     0
171
     0
290
     0
174
     0
 93
        1
 44
0.0
173
     0
291
     1
 45
0.0
1001
ACAD
1000
AcDbSavedByObjectVersion
1070
     0
  0
VISUALSTYLE
  5
968F
102
{ACAD_XDICTIONARY
360
96FE
102
}
102
{ACAD_REACTORS
330
9678
102
}
330
9678
100
AcDbVisualStyle
  2
OverhangOff
 70
    21
 71
     2
 72
     2
 73
     0
 90
        0
 40
-0.6
 41
-30.0
 62
     5
 63
     7
 74
     1
 91
        4
 64
     7
 65
   257
 75
     1
175
     1
 42
1.0
 92
        9
 66
     7
 43
1.0
 76
     1
 77
     6
 78
     2
 67
     7
 79
     5
170
     0
171
     0
290
     0
174
     0
 93
        1
 44
0.0
173
     0
291
     1
 45
0.0
1001
ACAD
1000
AcDbSavedByObjectVersion
1070
     0
  0
VISUALSTYLE
  5
9682
102
{ACAD_XDICTIONARY
360
96E4
102
}
102
{ACAD_REACTORS
330
9678
102
}
330
9678
100
AcDbVisualStyle
  2
Realistic
 70
     8
 71
     2
 72
     3
 73
     0
 90
        2
 40
-0.6
 41
30.0
 62
     5
 63
     7
 74
     0
 91
        0
 64
     7
 65
   257
 75
     1
175
     1
 42
1.0
 92
        8
 66
   257
 43
1.0
 76
     1
 77
     6
 78
     2
 67
     7
 79
     3
170
     0
171
     0
290
     0
174
     0
 93
       13
 44
0.0
173
     0
291
     0
 45
0.0
1001
ACAD
1000
AcDbSavedByObjectVersion
1070
     0
  0
VISUALSTYLE
  5
968D
102
{ACAD_XDICTIONARY
360
96FA
102
}
102
{ACAD_REACTORS
330
9678
102
}
330
9678
100
AcDbVisualStyle
  2
Shaded
 70
    27
 71
     2
 72
     2
 73
     1
 90
        2
 40
-0.6
 41
30.0
 62
     5
 63
     7
 74
     0
 91
        4
 64
     7
 65
   257
 75
     1
175
     1
 42
1.0
 92
        8
 66
   257
 43
1.0
 76
     1
 77
     6
 78
     2
 67
     8
 79
     3
170
     0
171
     0
290
     0
174
     0
 93
        5
 44
0.0
173
     0
291
     0
 45
0.0
1001
ACAD
1000
AcDbSavedByObjectVersion
1070
     0
  0
VISUALSTYLE
  5
968C
102
{ACAD_XDICTIONARY
360
96F8
102
}
102
{ACAD_REACTORS
330
9678
102
}
330
9678
100
AcDbVisualStyle
  2
Shaded with edges
 70
    26
 71
     2
 72
     2
 73
     1
 90
        2
 40
-0.6
 41
30.0
 62
     5
 63
     7
 74
     1
 91
       10
 64
     7
 65
   257
 75
     2
175
     1
 42
1.0
 92
        8
 66
   257
 43
1.0
 76
     1
 77
     6
 78
     2
 67
     7
 79
     3
170
     0
171
     0
290
     0
174
     0
 93
        5
 44
0.0
173
     0
291
     0
 45
0.0
1001
ACAD
1000
AcDbSavedByObjectVersion
1070
     0
  0
VISUALSTYLE
  5
9689
102
{ACAD_XDICTIONARY
360
96F2
102
}
102
{ACAD_REACTORS
330
9678
102
}
330
9678
100
AcDbVisualStyle
  2
Shades of Gray
 70
    23
 71
     2
 72
     2
 73
     3
 90
        0
 40
-0.6
 41
-30.0
 62
     5
 63
     7
 74
     2
 91
        2
 64
     7
 65
     7
 75
     1
175
     1
 42
40.0
 92
        8
 66
     7
 43
1.0
 76
     1
 77
     6
 78
     2
 67
     7
 79
     3
170
     0
171
     0
290
     0
174
     0
 93
        1
 44
0.0
173
     0
291
     0
 45
0.0
1001
ACAD
1000
AcDbSavedByObjectVersion
1070
     0
  0
VISUALSTYLE
  5
968A
102
{ACAD_XDICTIONARY
360
96F4
102
}
102
{ACAD_REACTORS
330
9678
102
}
330
9678
100
AcDbVisualStyle
  2
Sketchy
 70
    24
 71
     1
 72
     2
 73
     2
 90
        0
 40
-0.6
 41
-30.0
 62
     5
 63
     7
 74
     2
 91
        2
 64
     7
 65
     7
 75
     1
175
     1
 42
40.0
 92
       11
 66
     7
 43
1.0
 76
     1
 77
     6
 78
     2
 67
     7
 79
     6
170
     0
171
     0
290
     0
174
     0
 93
        1
 44
0.0
173
     0
291
     0
 45
0.0
1001
ACAD
1000
AcDbSavedByObjectVersion
1070
     0
  0
VISUALSTYLE
  5
9685
102
{ACAD_XDICTIONARY
360
96EA
102
}
102
{ACAD_REACTORS
330
9678
102
}
330
9678
100
AcDbVisualStyle
  2
Thicken
 70
    13
 71
     2
 72
     2
 73
     0
 90
        0
 40
-0.6
 41
-30.0
 62
     5
 63
     7
 74
     1
 91
        4
 64
     7
 65
   257
 75
     1
175
     1
 42
1.0
 92
       12
 66
     7
 43
1.0
 76
     1
 77
     6
 78
     2
 67
     7
 79
     5
170
     0
171
     0
290
     0
174
     0
 93
        1
 44
0.0
173
     0
291
     1
 45
0.0
1001
ACAD
1000
AcDbSavedByObjectVersion
1070
     0
  0
VISUALSTYLE
  5
967F
102
{ACAD_XDICTIONARY
360
96DE
102
}
102
{ACAD_REACTORS
330
9678
102
}
330
9678
100
AcDbVisualStyle
  2
Wireframe
 70
     5
 71
     0
 72
     2
 73
     0
 90
        0
 40
-0.6
 41
-30.0
 62
     5
 63
     7
 74
     1
 91
        4
 64
     7
 65
   257
 75
     1
175
     1
 42
1.0
 92
        0
 66
   257
 43
1.0
 76
     1
 77
     6
 78
     2
 67
     7
 79
     3
170
     0
171
     0
290
     0
174
     0
 93
        1
 44
0.0
173
     0
291
     0
 45
0.0
1001
ACAD
1000
AcDbSavedByObjectVersion
1070
     0
  0
VISUALSTYLE
  5
968B
102
{ACAD_XDICTIONARY
360
96F6
102
}
102
{ACAD_REACTORS
330
9678
102
}
330
9678
100
AcDbVisualStyle
  2
X-Ray
 70
    25
 71
     2
 72
     2
 73
     1
 90
        1
 40
0.5
 41
-30.0
 62
     5
 63
     7
 74
     1
 91
        0
 64
     7
 65
   257
 75
     1
175
     1
 42
1.0
 92
        8
 66
     7
 43
1.0
 76
     1
 77
     6
 78
     2
 67
     7
 79
     3
170
     0
171
     0
290
     0
174
     0
 93
       13
 44
0.0
173
     0
291
     0
 45
0.0
1001
ACAD
1000
AcDbSavedByObjectVersion
1070
     0
  0
DICTIONARYVAR
  5
96C5
102
{ACAD_REACTORS
330
96C0
102
}
330
96C0
100
DictionaryVariables
280
     0
  1
1:1
  0
DICTIONARYVAR
  5
96C2
102
{ACAD_REACTORS
330
96C0
102
}
330
96C0
100
DictionaryVariables
280
     0
  1
STANDARD
  0
DICTIONARYVAR
  5
96C1
102
{ACAD_REACTORS
330
96C0
102
}
330
96C0
100
DictionaryVariables
280
     0
  1
STANDARD
  0
DICTIONARYVAR
  5
96C3
102
{ACAD_REACTORS
330
96C0
102
}
330
96C0
100
DictionaryVariables
280
     0
  1
Imperial24
  0
DICTIONARYVAR
  5
96C4
102
{ACAD_REACTORS
330
96C0
102
}
330
96C0
100
DictionaryVariables
280
     0
  1
Imperial24
  0
DICTIONARYVAR
  5
96C8
102
{ACAD_REACTORS
330
96C0
102
}
330
96C0
100
DictionaryVariables
280
     0
  1
1
  0
DICTIONARYVAR
  5
96C7
102
{ACAD_REACTORS
330
96C0
102
}
330
96C0
100
DictionaryVariables
280
     0
  1
0
  0
DICTIONARYVAR
  5
96C6
102
{ACAD_REACTORS
330
96C0
102
}
330
96C0
100
DictionaryVariables
280
     0
  1
127
  0
DICTIONARYVAR
  5
96C9
102
{ACAD_REACTORS
330
96C0
102
}
330
96C0
100
DictionaryVariables
280
     0
  1
2
  0
DICTIONARY
  5
9706
330
96AB
100
AcDbDictionary
280
     1
281
     1
  3
ACAD_XREC_ROUNDTRIP
360
9707
  0
DICTIONARY
  5
9708
330
96AC
100
AcDbDictionary
280
     1
281
     1
  3
ACAD_XREC_ROUNDTRIP
360
9709
  0
DICTIONARY
  5
970A
330
96AD
100
AcDbDictionary
280
     1
281
     1
  3
ACAD_XREC_ROUNDTRIP
360
970B
  0
DICTIONARY
  5
9669
330
9668
100
AcDbDictionary
280
     1
281
     1
  3
ACAD_XREC_ROUNDTRIP
360
96D0
  3
BUMPTILE
360
966B
  3
DIFFUSETILE
360
966A
  3
OPACITYTILE
360
966E
  3
REFLECTIONTILE
360
966D
  3
REFRACTIONTILE
360
966F
  3
SPECULARTILE
360
966C
  0
DICTIONARY
  5
9661
330
9660
100
AcDbDictionary
280
     1
281
     1
  3
ACAD_XREC_ROUNDTRIP
360
96CF
  3
BUMPTILE
360
9663
  3
DIFFUSETILE
360
9662
  3
OPACITYTILE
360
9666
  3
REFLECTIONTILE
360
9665
  3
REFRACTIONTILE
360
9667
  3
SPECULARTILE
360
9664
  0
DICTIONARY
  5
9671
330
9670
100
AcDbDictionary
280
     1
281
     1
  3
ACAD_XREC_ROUNDTRIP
360
96D1
  3
BUMPTILE
360
9673
  3
DIFFUSETILE
360
9672
  3
OPACITYTILE
360
9676
  3
REFLECTIONTILE
360
9675
  3
REFRACTIONTILE
360
9677
  3
SPECULARTILE
360
9674
  0
DICTIONARY
  5
9704
330
96A9
100
AcDbDictionary
280
     1
281
     1
  3
ACAD_XREC_ROUNDTRIP
360
9705
  0
DICTIONARY
  5
96CB
330
9693
100
AcDbDictionary
280
     1
281
     1
  3
ACAD_ROUNDTRIP_2008_TABLESTYLE_CELLSTYLEMAP
360
96CC
  3
ACAD_XREC_ROUNDTRIP
360
9702
  0
DICTIONARY
  5
96DC
330
967E
100
AcDbDictionary
280
     1
281
     1
  3
ACAD_XREC_ROUNDTRIP
360
96DD
  0
DICTIONARY
  5
96DA
330
967D
100
AcDbDictionary
280
     1
281
     1
  3
ACAD_XREC_ROUNDTRIP
360
96DB
  0
DICTIONARY
  5
96E8
330
9684
100
AcDbDictionary
280
     1
281
     1
  3
ACAD_XREC_ROUNDTRIP
360
96E9
  0
DICTIONARY
  5
96F0
330
9688
100
AcDbDictionary
280
     1
281
     1
  3
ACAD_XREC_ROUNDTRIP
360
96F1
  0
DICTIONARY
  5
96E2
330
9681
100
AcDbDictionary
280
     1
281
     1
  3
ACAD_XREC_ROUNDTRIP
360
96E3
  0
DICTIONARY
  5
96E6
330
9683
100
AcDbDictionary
280
     1
281
     1
  3
ACAD_XREC_ROUNDTRIP
360
96E7
  0
DICTIONARY
  5
9700
330
9690
100
AcDbDictionary
280
     1
281
     1
  3
ACAD_XREC_ROUNDTRIP
360
9701
  0
DICTIONARY
  5
96EE
330
9687
100
AcDbDictionary
280
     1
281
     1
  3
ACAD_XREC_ROUNDTRIP
360
96EF
  0
DICTIONARY
  5
96D2
330
9679
100
AcDbDictionary
280
     1
281
     1
  3
ACAD_XREC_ROUNDTRIP
360
96D3
  0
DICTIONARY
  5
96D4
330
967A
100
AcDbDictionary
280
     1
281
     1
  3
ACAD_XREC_ROUNDTRIP
360
96D5
  0
DICTIONARY
  5
96D6
330
967B
100
AcDbDictionary
280
     1
281
     1
  3
ACAD_XREC_ROUNDTRIP
360
96D7
  0
DICTIONARY
  5
96D8
330
967C
100
AcDbDictionary
280
     1
281
     1
  3
ACAD_XREC_ROUNDTRIP
360
96D9
  0
DICTIONARY
  5
96E0
330
9680
100
AcDbDictionary
280
     1
281
     1
  3
ACAD_XREC_ROUNDTRIP
360
96E1
  0
DICTIONARY
  5
96FC
330
968E
100
AcDbDictionary
280
     1
281
     1
  3
ACAD_XREC_ROUNDTRIP
360
96FD
  0
DICTIONARY
  5
96EC
330
9686
100
AcDbDictionary
280
     1
281
     1
  3
ACAD_XREC_ROUNDTRIP
360
96ED
  0
DICTIONARY
  5
96FE
330
968F
100
AcDbDictionary
280
     1
281
     1
  3
ACAD_XREC_ROUNDTRIP
360
96FF
  0
DICTIONARY
  5
96E4
330
9682
100
AcDbDictionary
280
     1
281
     1
  3
ACAD_XREC_ROUNDTRIP
360
96E5
  0
DICTIONARY
  5
96FA
330
968D
100
AcDbDictionary
280
     1
281
     1
  3
ACAD_XREC_ROUNDTRIP
360
96FB
  0
DICTIONARY
  5
96F8
330
968C
100
AcDbDictionary
280
     1
281
     1
  3
ACAD_XREC_ROUNDTRIP
360
96F9
  0
DICTIONARY
  5
96F2
330
9689
100
AcDbDictionary
280
     1
281
     1
  3
ACAD_XREC_ROUNDTRIP
360
96F3
  0
DICTIONARY
  5
96F4
330
968A
100
AcDbDictionary
280
     1
281
     1
  3
ACAD_XREC_ROUNDTRIP
360
96F5
  0
DICTIONARY
  5
96EA
330
9685
100
AcDbDictionary
280
     1
281
     1
  3
ACAD_XREC_ROUNDTRIP
360
96EB
  0
DICTIONARY
  5
96DE
330
967F
100
AcDbDictionary
280
     1
281
     1
  3
ACAD_XREC_ROUNDTRIP
360
96DF
  0
DICTIONARY
  5
96F6
330
968B
100
AcDbDictionary
280
     1
281
     1
  3
ACAD_XREC_ROUNDTRIP
360
96F7
  0
XRECORD
  5
9707
102
{ACAD_REACTORS
330
9706
102
}
330
9706
100
AcDbXrecord
280
     1
102
DISPLAYNAME
  1
Imperial24
102
FLAGS
 90
        0
  0
XRECORD
  5
9709
102
{ACAD_REACTORS
330
9708
102
}
330
9708
100
AcDbXrecord
280
     1
102
SHADEPLOT
 70
     0
102
SHADEPLOTRESLEVEL
 70
     2
102
SHADEPLOTCUSTOMDPI
 70
   300
  0
XRECORD
  5
970B
102
{ACAD_REACTORS
330
970A
102
}
330
970A
100
AcDbXrecord
280
     1
102
SHADEPLOT
 70
     0
102
SHADEPLOTRESLEVEL
 70
     2
102
SHADEPLOTCUSTOMDPI
 70
   300
  0
XRECORD
  5
96D0
102
{ACAD_REACTORS
330
9669
102
}
330
9669
100
AcDbXrecord
280
     1
102
MATERIAL
148
0.0
149
0.0
149
0.0
 93
        0
 94
      127
282
     0
 72
     0
 77
     0
171
     0
175
     0
179
     0
273
     0
  0
XRECORD
  5
966B
102
{ACAD_REACTORS
330
9669
102
}
330
9669
100
AcDbXrecord
280
     1
270
     1
271
     1
  0
XRECORD
  5
966A
102
{ACAD_REACTORS
330
9669
102
}
330
9669
100
AcDbXrecord
280
     1
270
     1
271
     1
  0
XRECORD
  5
966E
102
{ACAD_REACTORS
330
9669
102
}
330
9669
100
AcDbXrecord
280
     1
270
     1
271
     1
  0
XRECORD
  5
966D
102
{ACAD_REACTORS
330
9669
102
}
330
9669
100
AcDbXrecord
280
     1
270
     1
271
     1
  0
XRECORD
  5
966F
102
{ACAD_REACTORS
330
9669
102
}
330
9669
100
AcDbXrecord
280
     1
270
     1
271
     1
  0
XRECORD
  5
966C
102
{ACAD_REACTORS
330
9669
102
}
330
9669
100
AcDbXrecord
280
     1
270
     1
271
     1
  0
XRECORD
  5
96CF
102
{ACAD_REACTORS
330
9661
102
}
330
9661
100
AcDbXrecord
280
     1
102
MATERIAL
148
0.0
149
0.0
149
0.0
 93
        0
 94
      127
282
     0
 72
     0
 77
     0
171
     0
175
     0
179
     0
273
     0
  0
XRECORD
  5
9663
102
{ACAD_REACTORS
330
9661
102
}
330
9661
100
AcDbXrecord
280
     1
270
     1
271
     1
  0
XRECORD
  5
9662
102
{ACAD_REACTORS
330
9661
102
}
330
9661
100
AcDbXrecord
280
     1
270
     1
271
     1
  0
XRECORD
  5
9666
102
{ACAD_REACTORS
330
9661
102
}
330
9661
100
AcDbXrecord
280
     1
270
     1
271
     1
  0
XRECORD
  5
9665
102
{ACAD_REACTORS
330
9661
102
}
330
9661
100
AcDbXrecord
280
     1
270
     1
271
     1
  0
XRECORD
  5
9667
102
{ACAD_REACTORS
330
9661
102
}
330
9661
100
AcDbXrecord
280
     1
270
     1
271
     1
  0
XRECORD
  5
9664
102
{ACAD_REACTORS
330
9661
102
}
330
9661
100
AcDbXrecord
280
     1
270
     1
271
     1
  0
XRECORD
  5
96D1
102
{ACAD_REACTORS
330
9671
102
}
330
9671
100
AcDbXrecord
280
     1
102
MATERIAL
148
0.0
149
0.0
149
0.0
 93
        0
 94
      127
282
     0
 72
     0
 77
     0
171
     0
175
     0
179
     0
273
     0
  0
XRECORD
  5
9673
102
{ACAD_REACTORS
330
9671
102
}
330
9671
100
AcDbXrecord
280
     1
270
     1
271
     1
  0
XRECORD
  5
9672
102
{ACAD_REACTORS
330
9671
102
}
330
9671
100
AcDbXrecord
280
     1
270
     1
271
     1
  0
XRECORD
  5
9676
102
{ACAD_REACTORS
330
9671
102
}
330
9671
100
AcDbXrecord
280
     1
270
     1
271
     1
  0
XRECORD
  5
9675
102
{ACAD_REACTORS
330
9671
102
}
330
9671
100
AcDbXrecord
280
     1
270
     1
271
     1
  0
XRECORD
  5
9677
102
{ACAD_REACTORS
330
9671
102
}
330
9671
100
AcDbXrecord
280
     1
270
     1
271
     1
  0
XRECORD
  5
9674
102
{ACAD_REACTORS
330
9671
102
}
330
9671
100
AcDbXrecord
280
     1
270
     1
271
     1
  0
XRECORD
  5
9705
102
{ACAD_REACTORS
330
9704
102
}
330
9704
100
AcDbXrecord
280
     1
102
DISPLAYNAME
  1
Imperial24
102
FLAGS
 90
        0
  0
CELLSTYLEMAP
  5
96CC
102
{ACAD_REACTORS
330
96CB
102
}
330
96CB
100
AcDbCellStyleMap
 90
        3
300
CELLSTYLE
  1
TABLEFORMAT_BEGIN
 90
        5
170
     1
 91
        0
 92
    32768
 62
   257
 93
        1
300
CONTENTFORMAT
  1
CONTENTFORMAT_BEGIN
 90
        0
 91
        0
 92
      512
 93
        0
300

 40
0.0
140
1.0
 94
        5
 62
     0
340
9414
144
0.25
309
CONTENTFORMAT_END
171
     0
 94
        0
309
TABLEFORMAT_END
  1
CELLSTYLE_BEGIN
 90
        1
 91
        1
300
_TITLE
309
CELLSTYLE_END
300
CELLSTYLE
  1
TABLEFORMAT_BEGIN
 90
        5
170
     1
 91
        0
 92
        0
 62
   257
 93
        1
300
CONTENTFORMAT
  1
CONTENTFORMAT_BEGIN
 90
        0
 91
        0
 92
      512
 93
        0
300

 40
0.0
140
1.0
 94
        5
 62
     0
340
9414
144
0.18
309
CONTENTFORMAT_END
171
     0
 94
        0
309
TABLEFORMAT_END
  1
CELLSTYLE_BEGIN
 90
        2
 91
        1
300
_HEADER
309
CELLSTYLE_END
300
CELLSTYLE
  1
TABLEFORMAT_BEGIN
 90
        5
170
     1
 91
        0
 92
        0
 62
   257
 93
        1
300
CONTENTFORMAT
  1
CONTENTFORMAT_BEGIN
 90
        0
 91
        0
 92
      512
 93
        0
300

 40
0.0
140
1.0
 94
        2
 62
     0
340
9414
144
0.18
309
CONTENTFORMAT_END
171
     0
 94
        0
309
TABLEFORMAT_END
  1
CELLSTYLE_BEGIN
 90
        3
 91
        2
300
_DATA
309
CELLSTYLE_END
  0
XRECORD
  5
9702
102
{ACAD_REACTORS
330
96CB
102
}
330
96CB
100
AcDbXrecord
280
     1
102
ACAD_ROUNDTRIP_PRE2007_TABLESTYLE
 90
      512
 91
        0
  1

 92
      512
 93
        0
  2

 94
      512
 95
        0
  3

  0
XRECORD
  5
96DD
102
{ACAD_REACTORS
330
96DC
102
}
330
96DC
100
AcDbXrecord
280
     1
102
RTVSPost2010Prop28
280
     1
102
RTVSPost2010PropOp28
 70
     1
102
RTVSPost2010Prop29
280
     1
102
RTVSPost2010PropOp29
 70
     1
102
RTVSPost2010Prop30
280
     0
102
RTVSPost2010PropOp30
 70
     1
102
RTVSPost2010Prop31
280
     0
102
RTVSPost2010PropOp31
 70
     1
102
RTVSPost2010Prop32
280
     0
102
RTVSPost2010PropOp32
 70
     1
102
RTVSPost2010Prop33
280
     0
102
RTVSPost2010PropOp33
 70
     1
102
RTVSPost2010Prop34
280
     0
102
RTVSPost2010PropOp34
 70
     1
102
RTVSPost2010Prop35
280
     0
102
RTVSPost2010PropOp35
 70
     1
102
RTVSPost2010Prop36
280
     0
102
RTVSPost2010PropOp36
 70
     1
102
RTVSPost2010Prop37
 90
       50
102
RTVSPost2010PropOp37
 70
     1
102
RTVSPost2010Prop38
140
0.0
102
RTVSPost2010PropOp38
 70
     1
102
RTVSPost2010Prop39
140
1.0
102
RTVSPost2010PropOp39
 70
     1
102
RTVSPost2010Prop40
 90
        0
102
RTVSPost2010PropOp40
 70
     1
102
RTVSPost2010Prop41ColorIndex
 90
       18
102
RTVSPost2010Prop41ColorRGB
 90
        0
102
RTVSPost2010PropOp41
 70
     1
102
RTVSPost2010Prop42
 90
       50
102
RTVSPost2010PropOp42
 70
     1
102
RTVSPost2010Prop43
 90
        3
102
RTVSPost2010PropOp43
 70
     1
102
RTVSPost2010Prop44ColorIndex
 90
        5
102
RTVSPost2010Prop44ColorRGB
 90
      255
102
RTVSPost2010PropOp44
 70
     1
102
RTVSPost2010Prop45
280
     0
102
RTVSPost2010PropOp45
 70
     1
102
RTVSPost2010Prop46
 90
       50
102
RTVSPost2010PropOp46
 70
     1
102
RTVSPost2010Prop47
 90
       50
102
RTVSPost2010PropOp47
 70
     1
102
RTVSPost2010Prop48
 90
       50
102
RTVSPost2010PropOp48
 70
     1
102
RTVSPost2010Prop49
280
     0
102
RTVSPost2010PropOp49
 70
     1
102
RTVSPost2010Prop50
 90
       50
102
RTVSPost2010PropOp50
 70
     1
102
RTVSPost2010Prop51ColorIndex
 90
      256
102
RTVSPost2010Prop51ColorRGB
 90
-16777216
102
RTVSPost2010PropOp51
 70
     0
102
RTVSPost2010Prop52
140
1.0
102
RTVSPost2010PropOp52
 70
     0
102
RTVSPost2010Prop53
 90
        2
102
RTVSPost2010PropOp53
 70
     1
102
RTVSPost2010Prop54
  1
strokes_ogs.tif
102
RTVSPost2010PropOp54
 70
     1
102
RTVSPost2010Prop55
280
     0
102
RTVSPost2010PropOp55
 70
     1
102
RTVSPost2010Prop56
140
1.0
102
RTVSPost2010PropOp56
 70
     1
102
RTVSPost2010Prop57
140
1.0
102
RTVSPost2010PropOp57
 70
     1
102
RTVSPropertyOp0
 70
     1
102
RTVSPropertyOp1
 70
     1
102
RTVSPropertyOp2
 70
     1
102
RTVSPropertyOp3
 70
     1
102
RTVSPropertyOp4
 70
     1
102
RTVSPropertyOp5
 70
     1
102
RTVSPropertyOp6
 70
     1
102
RTVSPropertyOp7
 70
     1
102
RTVSPropertyOp8
 70
     1
102
RTVSPropertyOp9
 70
     1
102
RTVSPropertyOp10
 70
     1
102
RTVSPropertyOp11
 70
     1
102
RTVSPropertyOp12
 70
     1
102
RTVSPropertyOp13
 70
     1
102
RTVSPropertyOp14
 70
     1
102
RTVSPropertyOp15
 70
     1
102
RTVSPropertyOp16
 70
     1
102
RTVSPropertyOp17
 70
     1
102
RTVSPropertyOp18
 70
     1
102
RTVSPropertyOp19
 70
     1
102
RTVSPropertyOp20
 70
     1
102
RTVSPropertyOp21
 70
     1
102
RTVSPropertyOp22
 70
     1
102
RTVSPropertyOp23
 70
     1
102
RTVSPropertyOp24
 70
     1
102
RTVSPropertyOp25
 70
     1
102
RTVSPropertyOp26
 70
     1
102
RTVSPropertyOp27
 70
     1
102
RTVSPropertyOp28
 70
     1
102
RTVSPropertyOp29
 70
     1
102
RTVSPropertyOp30
 70
     1
102
RTVSPropertyOp31
 70
     1
102
RTVSPropertyOp32
 70
     1
102
RTVSPropertyOp33
 70
     1
102
RTVSPropertyOp34
 70
     1
102
RTVSPropertyOp35
 70
     1
102
RTVSPropertyOp36
 70
     1
102
RTVSPropertyOp37
 70
     1
102
RTVSPropertyOp38
 70
     1
102
RTVSPropertyOp39
 70
     1
102
RTVSPropertyOp40
 70
     1
102
RTVSPropertyOp41
 70
     1
102
RTVSPropertyOp42
 70
     1
102
RTVSPropertyOp43
 70
     1
102
RTVSPropertyOp44
 70
     1
102
RTVSPropertyOp45
 70
     1
102
RTVSPropertyOp46
 70
     1
102
RTVSPropertyOp47
 70
     1
102
RTVSPropertyOp48
 70
     1
102
RTVSPropertyOp49
 70
     1
102
RTVSPropertyOp50
 70
     1
102
RTVSPropertyOp51
 70
     0
102
RTVSPropertyOp52
 70
     0
102
RTVSPropertyOp53
 70
     1
102
RTVSPropertyOp54
 70
     1
102
RTVSPropertyOp55
 70
     1
102
RTVSPropertyOp56
 70
     1
102
RTVSPropertyOp57
 70
     1
102
RTVSPropertyOp58
 70
     1
102
RTVSPropertyOp59
 70
     1
102
RTVSPropertyOp60
 70
     1
102
RTVSPropertyOp61
 70
     1
102
RTVSPropertyOp62
 70
     1
  0
XRECORD
  5
96DB
102
{ACAD_REACTORS
330
96DA
102
}
330
96DA
100
AcDbXrecord
280
     1
102
RTVSPost2010Prop28
280
     0
102
RTVSPost2010PropOp28
 70
     1
102
RTVSPost2010Prop29
280
     1
102
RTVSPost2010PropOp29
 70
     1
102
RTVSPost2010Prop30
280
     1
102
RTVSPost2010PropOp30
 70
     1
102
RTVSPost2010Prop31
280
     0
102
RTVSPost2010PropOp31
 70
     1
102
RTVSPost2010Prop32
280
     0
102
RTVSPost2010PropOp32
 70
     1
102
RTVSPost2010Prop33
280
     0
102
RTVSPost2010PropOp33
 70
     1
102
RTVSPost2010Prop34
280
     0
102
RTVSPost2010PropOp34
 70
     1
102
RTVSPost2010Prop35
280
     0
102
RTVSPost2010PropOp35
 70
     1
102
RTVSPost2010Prop36
280
     0
102
RTVSPost2010PropOp36
 70
     1
102
RTVSPost2010Prop37
 90
       50
102
RTVSPost2010PropOp37
 70
     1
102
RTVSPost2010Prop38
140
0.0
102
RTVSPost2010PropOp38
 70
     1
102
RTVSPost2010Prop39
140
1.0
102
RTVSPost2010PropOp39
 70
     1
102
RTVSPost2010Prop40
 90
        0
102
RTVSPost2010PropOp40
 70
     1
102
RTVSPost2010Prop41ColorIndex
 90
       18
102
RTVSPost2010Prop41ColorRGB
 90
        0
102
RTVSPost2010PropOp41
 70
     1
102
RTVSPost2010Prop42
 90
       50
102
RTVSPost2010PropOp42
 70
     1
102
RTVSPost2010Prop43
 90
        3
102
RTVSPost2010PropOp43
 70
     1
102
RTVSPost2010Prop44ColorIndex
 90
        5
102
RTVSPost2010Prop44ColorRGB
 90
      255
102
RTVSPost2010PropOp44
 70
     1
102
RTVSPost2010Prop45
280
     0
102
RTVSPost2010PropOp45
 70
     1
102
RTVSPost2010Prop46
 90
       50
102
RTVSPost2010PropOp46
 70
     1
102
RTVSPost2010Prop47
 90
       50
102
RTVSPost2010PropOp47
 70
     1
102
RTVSPost2010Prop48
 90
       50
102
RTVSPost2010PropOp48
 70
     1
102
RTVSPost2010Prop49
280
     0
102
RTVSPost2010PropOp49
 70
     1
102
RTVSPost2010Prop50
 90
       50
102
RTVSPost2010PropOp50
 70
     1
102
RTVSPost2010Prop51ColorIndex
 90
      256
102
RTVSPost2010Prop51ColorRGB
 90
-16777216
102
RTVSPost2010PropOp51
 70
     0
102
RTVSPost2010Prop52
140
1.0
102
RTVSPost2010PropOp52
 70
     0
102
RTVSPost2010Prop53
 90
        2
102
RTVSPost2010PropOp53
 70
     1
102
RTVSPost2010Prop54
  1
strokes_ogs.tif
102
RTVSPost2010PropOp54
 70
     1
102
RTVSPost2010Prop55
280
     0
102
RTVSPost2010PropOp55
 70
     1
102
RTVSPost2010Prop56
140
1.0
102
RTVSPost2010PropOp56
 70
     1
102
RTVSPost2010Prop57
140
1.0
102
RTVSPost2010PropOp57
 70
     1
102
RTVSPropertyOp0
 70
     1
102
RTVSPropertyOp1
 70
     1
102
RTVSPropertyOp2
 70
     1
102
RTVSPropertyOp3
 70
     1
102
RTVSPropertyOp4
 70
     1
102
RTVSPropertyOp5
 70
     1
102
RTVSPropertyOp6
 70
     1
102
RTVSPropertyOp7
 70
     1
102
RTVSPropertyOp8
 70
     1
102
RTVSPropertyOp9
 70
     1
102
RTVSPropertyOp10
 70
     1
102
RTVSPropertyOp11
 70
     1
102
RTVSPropertyOp12
 70
     1
102
RTVSPropertyOp13
 70
     1
102
RTVSPropertyOp14
 70
     1
102
RTVSPropertyOp15
 70
     1
102
RTVSPropertyOp16
 70
     1
102
RTVSPropertyOp17
 70
     1
102
RTVSPropertyOp18
 70
     1
102
RTVSPropertyOp19
 70
     1
102
RTVSPropertyOp20
 70
     1
102
RTVSPropertyOp21
 70
     1
102
RTVSPropertyOp22
 70
     1
102
RTVSPropertyOp23
 70
     1
102
RTVSPropertyOp24
 70
     1
102
RTVSPropertyOp25
 70
     1
102
RTVSPropertyOp26
 70
     1
102
RTVSPropertyOp27
 70
     1
102
RTVSPropertyOp28
 70
     1
102
RTVSPropertyOp29
 70
     1
102
RTVSPropertyOp30
 70
     1
102
RTVSPropertyOp31
 70
     1
102
RTVSPropertyOp32
 70
     1
102
RTVSPropertyOp33
 70
     1
102
RTVSPropertyOp34
 70
     1
102
RTVSPropertyOp35
 70
     1
102
RTVSPropertyOp36
 70
     1
102
RTVSPropertyOp37
 70
     1
102
RTVSPropertyOp38
 70
     1
102
RTVSPropertyOp39
 70
     1
102
RTVSPropertyOp40
 70
     1
102
RTVSPropertyOp41
 70
     1
102
RTVSPropertyOp42
 70
     1
102
RTVSPropertyOp43
 70
     1
102
RTVSPropertyOp44
 70
     1
102
RTVSPropertyOp45
 70
     1
102
RTVSPropertyOp46
 70
     1
102
RTVSPropertyOp47
 70
     1
102
RTVSPropertyOp48
 70
     1
102
RTVSPropertyOp49
 70
     1
102
RTVSPropertyOp50
 70
     1
102
RTVSPropertyOp51
 70
     0
102
RTVSPropertyOp52
 70
     0
102
RTVSPropertyOp53
 70
     1
102
RTVSPropertyOp54
 70
     1
102
RTVSPropertyOp55
 70
     1
102
RTVSPropertyOp56
 70
     1
102
RTVSPropertyOp57
 70
     1
102
RTVSPropertyOp58
 70
     1
102
RTVSPropertyOp59
 70
     1
102
RTVSPropertyOp60
 70
     1
102
RTVSPropertyOp61
 70
     1
102
RTVSPropertyOp62
 70
     1
  0
XRECORD
  5
96E9
102
{ACAD_REACTORS
330
96E8
102
}
330
96E8
100
AcDbXrecord
280
     1
102
RTVSPost2010Prop28
280
     0
102
RTVSPost2010PropOp28
 70
     1
102
RTVSPost2010Prop29
280
     1
102
RTVSPost2010PropOp29
 70
     1
102
RTVSPost2010Prop30
280
     1
102
RTVSPost2010PropOp30
 70
     1
102
RTVSPost2010Prop31
280
     0
102
RTVSPost2010PropOp31
 70
     1
102
RTVSPost2010Prop32
280
     0
102
RTVSPost2010PropOp32
 70
     1
102
RTVSPost2010Prop33
280
     0
102
RTVSPost2010PropOp33
 70
     1
102
RTVSPost2010Prop34
280
     0
102
RTVSPost2010PropOp34
 70
     1
102
RTVSPost2010Prop35
280
     0
102
RTVSPost2010PropOp35
 70
     1
102
RTVSPost2010Prop36
280
     0
102
RTVSPost2010PropOp36
 70
     1
102
RTVSPost2010Prop37
 90
       50
102
RTVSPost2010PropOp37
 70
     1
102
RTVSPost2010Prop38
140
0.0
102
RTVSPost2010PropOp38
 70
     1
102
RTVSPost2010Prop39
140
1.0
102
RTVSPost2010PropOp39
 70
     1
102
RTVSPost2010Prop40
 90
        0
102
RTVSPost2010PropOp40
 70
     1
102
RTVSPost2010Prop41ColorIndex
 90
       18
102
RTVSPost2010Prop41ColorRGB
 90
        0
102
RTVSPost2010PropOp41
 70
     1
102
RTVSPost2010Prop42
 90
       50
102
RTVSPost2010PropOp42
 70
     1
102
RTVSPost2010Prop43
 90
        3
102
RTVSPost2010PropOp43
 70
     1
102
RTVSPost2010Prop44ColorIndex
 90
        5
102
RTVSPost2010Prop44ColorRGB
 90
      255
102
RTVSPost2010PropOp44
 70
     1
102
RTVSPost2010Prop45
280
     0
102
RTVSPost2010PropOp45
 70
     1
102
RTVSPost2010Prop46
 90
       50
102
RTVSPost2010PropOp46
 70
     1
102
RTVSPost2010Prop47
 90
       50
102
RTVSPost2010PropOp47
 70
     1
102
RTVSPost2010Prop48
 90
       50
102
RTVSPost2010PropOp48
 70
     1
102
RTVSPost2010Prop49
280
     0
102
RTVSPost2010PropOp49
 70
     1
102
RTVSPost2010Prop50
 90
       50
102
RTVSPost2010PropOp50
 70
     1
102
RTVSPost2010Prop51ColorIndex
 90
      256
102
RTVSPost2010Prop51ColorRGB
 90
-16777216
102
RTVSPost2010PropOp51
 70
     0
102
RTVSPost2010Prop52
140
1.0
102
RTVSPost2010PropOp52
 70
     0
102
RTVSPost2010Prop53
 90
        2
102
RTVSPost2010PropOp53
 70
     1
102
RTVSPost2010Prop54
  1
strokes_ogs.tif
102
RTVSPost2010PropOp54
 70
     1
102
RTVSPost2010Prop55
280
     0
102
RTVSPost2010PropOp55
 70
     1
102
RTVSPost2010Prop56
140
1.0
102
RTVSPost2010PropOp56
 70
     1
102
RTVSPost2010Prop57
140
1.0
102
RTVSPost2010PropOp57
 70
     1
102
RTVSPropertyOp0
 70
     1
102
RTVSPropertyOp1
 70
     1
102
RTVSPropertyOp2
 70
     1
102
RTVSPropertyOp3
 70
     1
102
RTVSPropertyOp4
 70
     1
102
RTVSPropertyOp5
 70
     1
102
RTVSPropertyOp6
 70
     1
102
RTVSPropertyOp7
 70
     1
102
RTVSPropertyOp8
 70
     1
102
RTVSPropertyOp9
 70
     1
102
RTVSPropertyOp10
 70
     1
102
RTVSPropertyOp11
 70
     1
102
RTVSPropertyOp12
 70
     1
102
RTVSPropertyOp13
 70
     1
102
RTVSPropertyOp14
 70
     1
102
RTVSPropertyOp15
 70
     1
102
RTVSPropertyOp16
 70
     1
102
RTVSPropertyOp17
 70
     1
102
RTVSPropertyOp18
 70
     1
102
RTVSPropertyOp19
 70
     1
102
RTVSPropertyOp20
 70
     1
102
RTVSPropertyOp21
 70
     1
102
RTVSPropertyOp22
 70
     1
102
RTVSPropertyOp23
 70
     1
102
RTVSPropertyOp24
 70
     1
102
RTVSPropertyOp25
 70
     1
102
RTVSPropertyOp26
 70
     1
102
RTVSPropertyOp27
 70
     1
102
RTVSPropertyOp28
 70
     1
102
RTVSPropertyOp29
 70
     1
102
RTVSPropertyOp30
 70
     1
102
RTVSPropertyOp31
 70
     1
102
RTVSPropertyOp32
 70
     1
102
RTVSPropertyOp33
 70
     1
102
RTVSPropertyOp34
 70
     1
102
RTVSPropertyOp35
 70
     1
102
RTVSPropertyOp36
 70
     1
102
RTVSPropertyOp37
 70
     1
102
RTVSPropertyOp38
 70
     1
102
RTVSPropertyOp39
 70
     1
102
RTVSPropertyOp40
 70
     1
102
RTVSPropertyOp41
 70
     1
102
RTVSPropertyOp42
 70
     1
102
RTVSPropertyOp43
 70
     1
102
RTVSPropertyOp44
 70
     1
102
RTVSPropertyOp45
 70
     1
102
RTVSPropertyOp46
 70
     1
102
RTVSPropertyOp47
 70
     1
102
RTVSPropertyOp48
 70
     1
102
RTVSPropertyOp49
 70
     1
102
RTVSPropertyOp50
 70
     1
102
RTVSPropertyOp51
 70
     0
102
RTVSPropertyOp52
 70
     0
102
RTVSPropertyOp53
 70
     1
102
RTVSPropertyOp54
 70
     1
102
RTVSPropertyOp55
 70
     1
102
RTVSPropertyOp56
 70
     1
102
RTVSPropertyOp57
 70
     1
102
RTVSPropertyOp58
 70
     1
102
RTVSPropertyOp59
 70
     1
102
RTVSPropertyOp60
 70
     1
102
RTVSPropertyOp61
 70
     1
102
RTVSPropertyOp62
 70
     1
  0
XRECORD
  5
96F1
102
{ACAD_REACTORS
330
96F0
102
}
330
96F0
100
AcDbXrecord
280
     1
102
RTVSPost2010Prop28
280
     0
102
RTVSPost2010PropOp28
 70
     1
102
RTVSPost2010Prop29
280
     1
102
RTVSPost2010PropOp29
 70
     1
102
RTVSPost2010Prop30
280
     1
102
RTVSPost2010PropOp30
 70
     1
102
RTVSPost2010Prop31
280
     0
102
RTVSPost2010PropOp31
 70
     1
102
RTVSPost2010Prop32
280
     0
102
RTVSPost2010PropOp32
 70
     1
102
RTVSPost2010Prop33
280
     0
102
RTVSPost2010PropOp33
 70
     1
102
RTVSPost2010Prop34
280
     0
102
RTVSPost2010PropOp34
 70
     1
102
RTVSPost2010Prop35
280
     0
102
RTVSPost2010PropOp35
 70
     1
102
RTVSPost2010Prop36
280
     0
102
RTVSPost2010PropOp36
 70
     1
102
RTVSPost2010Prop37
 90
       50
102
RTVSPost2010PropOp37
 70
     1
102
RTVSPost2010Prop38
140
0.0
102
RTVSPost2010PropOp38
 70
     1
102
RTVSPost2010Prop39
140
1.0
102
RTVSPost2010PropOp39
 70
     1
102
RTVSPost2010Prop40
 90
        0
102
RTVSPost2010PropOp40
 70
     1
102
RTVSPost2010Prop41ColorIndex
 90
       18
102
RTVSPost2010Prop41ColorRGB
 90
        0
102
RTVSPost2010PropOp41
 70
     1
102
RTVSPost2010Prop42
 90
       50
102
RTVSPost2010PropOp42
 70
     1
102
RTVSPost2010Prop43
 90
        3
102
RTVSPost2010PropOp43
 70
     1
102
RTVSPost2010Prop44ColorIndex
 90
        5
102
RTVSPost2010Prop44ColorRGB
 90
      255
102
RTVSPost2010PropOp44
 70
     1
102
RTVSPost2010Prop45
280
     0
102
RTVSPost2010PropOp45
 70
     1
102
RTVSPost2010Prop46
 90
       50
102
RTVSPost2010PropOp46
 70
     1
102
RTVSPost2010Prop47
 90
       50
102
RTVSPost2010PropOp47
 70
     1
102
RTVSPost2010Prop48
 90
       50
102
RTVSPost2010PropOp48
 70
     1
102
RTVSPost2010Prop49
280
     0
102
RTVSPost2010PropOp49
 70
     1
102
RTVSPost2010Prop50
 90
       50
102
RTVSPost2010PropOp50
 70
     1
102
RTVSPost2010Prop51ColorIndex
 90
      256
102
RTVSPost2010Prop51ColorRGB
 90
-16777216
102
RTVSPost2010PropOp51
 70
     0
102
RTVSPost2010Prop52
140
1.0
102
RTVSPost2010PropOp52
 70
     0
102
RTVSPost2010Prop53
 90
        2
102
RTVSPost2010PropOp53
 70
     1
102
RTVSPost2010Prop54
  1
strokes_ogs.tif
102
RTVSPost2010PropOp54
 70
     1
102
RTVSPost2010Prop55
280
     0
102
RTVSPost2010PropOp55
 70
     1
102
RTVSPost2010Prop56
140
1.0
102
RTVSPost2010PropOp56
 70
     1
102
RTVSPost2010Prop57
140
1.0
102
RTVSPost2010PropOp57
 70
     1
102
RTVSPropertyOp0
 70
     1
102
RTVSPropertyOp1
 70
     1
102
RTVSPropertyOp2
 70
     1
102
RTVSPropertyOp3
 70
     1
102
RTVSPropertyOp4
 70
     1
102
RTVSPropertyOp5
 70
     1
102
RTVSPropertyOp6
 70
     1
102
RTVSPropertyOp7
 70
     1
102
RTVSPropertyOp8
 70
     1
102
RTVSPropertyOp9
 70
     1
102
RTVSPropertyOp10
 70
     1
102
RTVSPropertyOp11
 70
     1
102
RTVSPropertyOp12
 70
     1
102
RTVSPropertyOp13
 70
     1
102
RTVSPropertyOp14
 70
     1
102
RTVSPropertyOp15
 70
     1
102
RTVSPropertyOp16
 70
     1
102
RTVSPropertyOp17
 70
     1
102
RTVSPropertyOp18
 70
     1
102
RTVSPropertyOp19
 70
     1
102
RTVSPropertyOp20
 70
     1
102
RTVSPropertyOp21
 70
     1
102
RTVSPropertyOp22
 70
     1
102
RTVSPropertyOp23
 70
     1
102
RTVSPropertyOp24
 70
     1
102
RTVSPropertyOp25
 70
     1
102
RTVSPropertyOp26
 70
     1
102
RTVSPropertyOp27
 70
     1
102
RTVSPropertyOp28
 70
     1
102
RTVSPropertyOp29
 70
     1
102
RTVSPropertyOp30
 70
     1
102
RTVSPropertyOp31
 70
     1
102
RTVSPropertyOp32
 70
     1
102
RTVSPropertyOp33
 70
     1
102
RTVSPropertyOp34
 70
     1
102
RTVSPropertyOp35
 70
     1
102
RTVSPropertyOp36
 70
     1
102
RTVSPropertyOp37
 70
     1
102
RTVSPropertyOp38
 70
     1
102
RTVSPropertyOp39
 70
     1
102
RTVSPropertyOp40
 70
     1
102
RTVSPropertyOp41
 70
     1
102
RTVSPropertyOp42
 70
     1
102
RTVSPropertyOp43
 70
     1
102
RTVSPropertyOp44
 70
     1
102
RTVSPropertyOp45
 70
     1
102
RTVSPropertyOp46
 70
     1
102
RTVSPropertyOp47
 70
     1
102
RTVSPropertyOp48
 70
     1
102
RTVSPropertyOp49
 70
     1
102
RTVSPropertyOp50
 70
     1
102
RTVSPropertyOp51
 70
     0
102
RTVSPropertyOp52
 70
     0
102
RTVSPropertyOp53
 70
     1
102
RTVSPropertyOp54
 70
     1
102
RTVSPropertyOp55
 70
     1
102
RTVSPropertyOp56
 70
     1
102
RTVSPropertyOp57
 70
     1
102
RTVSPropertyOp58
 70
     1
102
RTVSPropertyOp59
 70
     1
102
RTVSPropertyOp60
 70
     1
102
RTVSPropertyOp61
 70
     1
102
RTVSPropertyOp62
 70
     1
  0
XRECORD
  5
96E3
102
{ACAD_REACTORS
330
96E2
102
}
330
96E2
100
AcDbXrecord
280
     1
102
RTVSPost2010Prop28
280
     0
102
RTVSPost2010PropOp28
 70
     1
102
RTVSPost2010Prop29
280
     1
102
RTVSPost2010PropOp29
 70
     1
102
RTVSPost2010Prop30
280
     1
102
RTVSPost2010PropOp30
 70
     1
102
RTVSPost2010Prop31
280
     0
102
RTVSPost2010PropOp31
 70
     1
102
RTVSPost2010Prop32
280
     0
102
RTVSPost2010PropOp32
 70
     1
102
RTVSPost2010Prop33
280
     0
102
RTVSPost2010PropOp33
 70
     1
102
RTVSPost2010Prop34
280
     0
102
RTVSPost2010PropOp34
 70
     1
102
RTVSPost2010Prop35
280
     0
102
RTVSPost2010PropOp35
 70
     1
102
RTVSPost2010Prop36
280
     0
102
RTVSPost2010PropOp36
 70
     1
102
RTVSPost2010Prop37
 90
       50
102
RTVSPost2010PropOp37
 70
     1
102
RTVSPost2010Prop38
140
0.0
102
RTVSPost2010PropOp38
 70
     1
102
RTVSPost2010Prop39
140
1.0
102
RTVSPost2010PropOp39
 70
     1
102
RTVSPost2010Prop40
 90
        0
102
RTVSPost2010PropOp40
 70
     1
102
RTVSPost2010Prop41ColorIndex
 90
       18
102
RTVSPost2010Prop41ColorRGB
 90
        0
102
RTVSPost2010PropOp41
 70
     1
102
RTVSPost2010Prop42
 90
       50
102
RTVSPost2010PropOp42
 70
     1
102
RTVSPost2010Prop43
 90
        3
102
RTVSPost2010PropOp43
 70
     1
102
RTVSPost2010Prop44ColorIndex
 90
        5
102
RTVSPost2010Prop44ColorRGB
 90
      255
102
RTVSPost2010PropOp44
 70
     1
102
RTVSPost2010Prop45
280
     0
102
RTVSPost2010PropOp45
 70
     1
102
RTVSPost2010Prop46
 90
       50
102
RTVSPost2010PropOp46
 70
     1
102
RTVSPost2010Prop47
 90
       50
102
RTVSPost2010PropOp47
 70
     1
102
RTVSPost2010Prop48
 90
       50
102
RTVSPost2010PropOp48
 70
     1
102
RTVSPost2010Prop49
280
     0
102
RTVSPost2010PropOp49
 70
     1
102
RTVSPost2010Prop50
 90
       50
102
RTVSPost2010PropOp50
 70
     1
102
RTVSPost2010Prop51ColorIndex
 90
      256
102
RTVSPost2010Prop51ColorRGB
 90
-16777216
102
RTVSPost2010PropOp51
 70
     0
102
RTVSPost2010Prop52
140
1.0
102
RTVSPost2010PropOp52
 70
     0
102
RTVSPost2010Prop53
 90
        2
102
RTVSPost2010PropOp53
 70
     1
102
RTVSPost2010Prop54
  1
strokes_ogs.tif
102
RTVSPost2010PropOp54
 70
     1
102
RTVSPost2010Prop55
280
     0
102
RTVSPost2010PropOp55
 70
     1
102
RTVSPost2010Prop56
140
1.0
102
RTVSPost2010PropOp56
 70
     1
102
RTVSPost2010Prop57
140
1.0
102
RTVSPost2010PropOp57
 70
     1
102
RTVSPropertyOp0
 70
     1
102
RTVSPropertyOp1
 70
     1
102
RTVSPropertyOp2
 70
     1
102
RTVSPropertyOp3
 70
     1
102
RTVSPropertyOp4
 70
     1
102
RTVSPropertyOp5
 70
     1
102
RTVSPropertyOp6
 70
     1
102
RTVSPropertyOp7
 70
     1
102
RTVSPropertyOp8
 70
     1
102
RTVSPropertyOp9
 70
     1
102
RTVSPropertyOp10
 70
     1
102
RTVSPropertyOp11
 70
     1
102
RTVSPropertyOp12
 70
     1
102
RTVSPropertyOp13
 70
     1
102
RTVSPropertyOp14
 70
     1
102
RTVSPropertyOp15
 70
     1
102
RTVSPropertyOp16
 70
     1
102
RTVSPropertyOp17
 70
     1
102
RTVSPropertyOp18
 70
     1
102
RTVSPropertyOp19
 70
     1
102
RTVSPropertyOp20
 70
     1
102
RTVSPropertyOp21
 70
     1
102
RTVSPropertyOp22
 70
     1
102
RTVSPropertyOp23
 70
     1
102
RTVSPropertyOp24
 70
     1
102
RTVSPropertyOp25
 70
     1
102
RTVSPropertyOp26
 70
     1
102
RTVSPropertyOp27
 70
     1
102
RTVSPropertyOp28
 70
     1
102
RTVSPropertyOp29
 70
     1
102
RTVSPropertyOp30
 70
     1
102
RTVSPropertyOp31
 70
     1
102
RTVSPropertyOp32
 70
     1
102
RTVSPropertyOp33
 70
     1
102
RTVSPropertyOp34
 70
     1
102
RTVSPropertyOp35
 70
     1
102
RTVSPropertyOp36
 70
     1
102
RTVSPropertyOp37
 70
     1
102
RTVSPropertyOp38
 70
     1
102
RTVSPropertyOp39
 70
     1
102
RTVSPropertyOp40
 70
     1
102
RTVSPropertyOp41
 70
     1
102
RTVSPropertyOp42
 70
     1
102
RTVSPropertyOp43
 70
     1
102
RTVSPropertyOp44
 70
     1
102
RTVSPropertyOp45
 70
     1
102
RTVSPropertyOp46
 70
     1
102
RTVSPropertyOp47
 70
     1
102
RTVSPropertyOp48
 70
     1
102
RTVSPropertyOp49
 70
     1
102
RTVSPropertyOp50
 70
     1
102
RTVSPropertyOp51
 70
     0
102
RTVSPropertyOp52
 70
     0
102
RTVSPropertyOp53
 70
     1
102
RTVSPropertyOp54
 70
     1
102
RTVSPropertyOp55
 70
     1
102
RTVSPropertyOp56
 70
     1
102
RTVSPropertyOp57
 70
     1
102
RTVSPropertyOp58
 70
     1
102
RTVSPropertyOp59
 70
     1
102
RTVSPropertyOp60
 70
     1
102
RTVSPropertyOp61
 70
     1
102
RTVSPropertyOp62
 70
     1
  0
XRECORD
  5
96E7
102
{ACAD_REACTORS
330
96E6
102
}
330
96E6
100
AcDbXrecord
280
     1
102
RTVSPost2010Prop28
280
     0
102
RTVSPost2010PropOp28
 70
     1
102
RTVSPost2010Prop29
280
     1
102
RTVSPost2010PropOp29
 70
     1
102
RTVSPost2010Prop30
280
     1
102
RTVSPost2010PropOp30
 70
     1
102
RTVSPost2010Prop31
280
     0
102
RTVSPost2010PropOp31
 70
     1
102
RTVSPost2010Prop32
280
     0
102
RTVSPost2010PropOp32
 70
     1
102
RTVSPost2010Prop33
280
     0
102
RTVSPost2010PropOp33
 70
     1
102
RTVSPost2010Prop34
280
     0
102
RTVSPost2010PropOp34
 70
     1
102
RTVSPost2010Prop35
280
     0
102
RTVSPost2010PropOp35
 70
     1
102
RTVSPost2010Prop36
280
     0
102
RTVSPost2010PropOp36
 70
     1
102
RTVSPost2010Prop37
 90
       50
102
RTVSPost2010PropOp37
 70
     1
102
RTVSPost2010Prop38
140
0.0
102
RTVSPost2010PropOp38
 70
     1
102
RTVSPost2010Prop39
140
1.0
102
RTVSPost2010PropOp39
 70
     1
102
RTVSPost2010Prop40
 90
        0
102
RTVSPost2010PropOp40
 70
     1
102
RTVSPost2010Prop41ColorIndex
 90
       18
102
RTVSPost2010Prop41ColorRGB
 90
        0
102
RTVSPost2010PropOp41
 70
     1
102
RTVSPost2010Prop42
 90
       50
102
RTVSPost2010PropOp42
 70
     1
102
RTVSPost2010Prop43
 90
        3
102
RTVSPost2010PropOp43
 70
     1
102
RTVSPost2010Prop44ColorIndex
 90
        5
102
RTVSPost2010Prop44ColorRGB
 90
      255
102
RTVSPost2010PropOp44
 70
     1
102
RTVSPost2010Prop45
280
     0
102
RTVSPost2010PropOp45
 70
     1
102
RTVSPost2010Prop46
 90
       50
102
RTVSPost2010PropOp46
 70
     1
102
RTVSPost2010Prop47
 90
       50
102
RTVSPost2010PropOp47
 70
     1
102
RTVSPost2010Prop48
 90
       50
102
RTVSPost2010PropOp48
 70
     1
102
RTVSPost2010Prop49
280
     0
102
RTVSPost2010PropOp49
 70
     1
102
RTVSPost2010Prop50
 90
       50
102
RTVSPost2010PropOp50
 70
     1
102
RTVSPost2010Prop51ColorIndex
 90
      256
102
RTVSPost2010Prop51ColorRGB
 90
-16777216
102
RTVSPost2010PropOp51
 70
     0
102
RTVSPost2010Prop52
140
1.0
102
RTVSPost2010PropOp52
 70
     0
102
RTVSPost2010Prop53
 90
        2
102
RTVSPost2010PropOp53
 70
     1
102
RTVSPost2010Prop54
  1
strokes_ogs.tif
102
RTVSPost2010PropOp54
 70
     1
102
RTVSPost2010Prop55
280
     0
102
RTVSPost2010PropOp55
 70
     1
102
RTVSPost2010Prop56
140
1.0
102
RTVSPost2010PropOp56
 70
     1
102
RTVSPost2010Prop57
140
1.0
102
RTVSPost2010PropOp57
 70
     1
102
RTVSPropertyOp0
 70
     1
102
RTVSPropertyOp1
 70
     1
102
RTVSPropertyOp2
 70
     1
102
RTVSPropertyOp3
 70
     1
102
RTVSPropertyOp4
 70
     1
102
RTVSPropertyOp5
 70
     1
102
RTVSPropertyOp6
 70
     1
102
RTVSPropertyOp7
 70
     1
102
RTVSPropertyOp8
 70
     1
102
RTVSPropertyOp9
 70
     1
102
RTVSPropertyOp10
 70
     1
102
RTVSPropertyOp11
 70
     1
102
RTVSPropertyOp12
 70
     1
102
RTVSPropertyOp13
 70
     1
102
RTVSPropertyOp14
 70
     1
102
RTVSPropertyOp15
 70
     1
102
RTVSPropertyOp16
 70
     1
102
RTVSPropertyOp17
 70
     1
102
RTVSPropertyOp18
 70
     1
102
RTVSPropertyOp19
 70
     1
102
RTVSPropertyOp20
 70
     1
102
RTVSPropertyOp21
 70
     1
102
RTVSPropertyOp22
 70
     1
102
RTVSPropertyOp23
 70
     1
102
RTVSPropertyOp24
 70
     1
102
RTVSPropertyOp25
 70
     1
102
RTVSPropertyOp26
 70
     1
102
RTVSPropertyOp27
 70
     1
102
RTVSPropertyOp28
 70
     1
102
RTVSPropertyOp29
 70
     1
102
RTVSPropertyOp30
 70
     1
102
RTVSPropertyOp31
 70
     1
102
RTVSPropertyOp32
 70
     1
102
RTVSPropertyOp33
 70
     1
102
RTVSPropertyOp34
 70
     1
102
RTVSPropertyOp35
 70
     1
102
RTVSPropertyOp36
 70
     1
102
RTVSPropertyOp37
 70
     1
102
RTVSPropertyOp38
 70
     1
102
RTVSPropertyOp39
 70
     1
102
RTVSPropertyOp40
 70
     1
102
RTVSPropertyOp41
 70
     1
102
RTVSPropertyOp42
 70
     1
102
RTVSPropertyOp43
 70
     1
102
RTVSPropertyOp44
 70
     1
102
RTVSPropertyOp45
 70
     1
102
RTVSPropertyOp46
 70
     1
102
RTVSPropertyOp47
 70
     1
102
RTVSPropertyOp48
 70
     1
102
RTVSPropertyOp49
 70
     1
102
RTVSPropertyOp50
 70
     1
102
RTVSPropertyOp51
 70
     0
102
RTVSPropertyOp52
 70
     0
102
RTVSPropertyOp53
 70
     1
102
RTVSPropertyOp54
 70
     1
102
RTVSPropertyOp55
 70
     1
102
RTVSPropertyOp56
 70
     1
102
RTVSPropertyOp57
 70
     1
102
RTVSPropertyOp58
 70
     1
102
RTVSPropertyOp59
 70
     1
102
RTVSPropertyOp60
 70
     1
102
RTVSPropertyOp61
 70
     1
102
RTVSPropertyOp62
 70
     1
  0
XRECORD
  5
9701
102
{ACAD_REACTORS
330
9700
102
}
330
9700
100
AcDbXrecord
280
     1
102
RTVSPost2010Prop28
280
     0
102
RTVSPost2010PropOp28
 70
     1
102
RTVSPost2010Prop29
280
     1
102
RTVSPost2010PropOp29
 70
     1
102
RTVSPost2010Prop30
280
     1
102
RTVSPost2010PropOp30
 70
     1
102
RTVSPost2010Prop31
280
     0
102
RTVSPost2010PropOp31
 70
     1
102
RTVSPost2010Prop32
280
     0
102
RTVSPost2010PropOp32
 70
     1
102
RTVSPost2010Prop33
280
     0
102
RTVSPost2010PropOp33
 70
     1
102
RTVSPost2010Prop34
280
     0
102
RTVSPost2010PropOp34
 70
     1
102
RTVSPost2010Prop35
280
     0
102
RTVSPost2010PropOp35
 70
     1
102
RTVSPost2010Prop36
280
     0
102
RTVSPost2010PropOp36
 70
     1
102
RTVSPost2010Prop37
 90
       50
102
RTVSPost2010PropOp37
 70
     0
102
RTVSPost2010Prop38
140
0.0
102
RTVSPost2010PropOp38
 70
     0
102
RTVSPost2010Prop39
140
1.0
102
RTVSPost2010PropOp39
 70
     0
102
RTVSPost2010Prop40
 90
        0
102
RTVSPost2010PropOp40
 70
     0
102
RTVSPost2010Prop41ColorIndex
 90
       18
102
RTVSPost2010Prop41ColorRGB
 90
        0
102
RTVSPost2010PropOp41
 70
     0
102
RTVSPost2010Prop42
 90
       50
102
RTVSPost2010PropOp42
 70
     0
102
RTVSPost2010Prop43
 90
        3
102
RTVSPost2010PropOp43
 70
     0
102
RTVSPost2010Prop44ColorIndex
 90
        5
102
RTVSPost2010Prop44ColorRGB
 90
      255
102
RTVSPost2010PropOp44
 70
     0
102
RTVSPost2010Prop45
280
     0
102
RTVSPost2010PropOp45
 70
     1
102
RTVSPost2010Prop46
 90
       50
102
RTVSPost2010PropOp46
 70
     0
102
RTVSPost2010Prop47
 90
       50
102
RTVSPost2010PropOp47
 70
     0
102
RTVSPost2010Prop48
 90
       50
102
RTVSPost2010PropOp48
 70
     0
102
RTVSPost2010Prop49
280
     0
102
RTVSPost2010PropOp49
 70
     1
102
RTVSPost2010Prop50
 90
       50
102
RTVSPost2010PropOp50
 70
     0
102
RTVSPost2010Prop51ColorIndex
 90
      256
102
RTVSPost2010Prop51ColorRGB
 90
-16777216
102
RTVSPost2010PropOp51
 70
     0
102
RTVSPost2010Prop52
140
1.0
102
RTVSPost2010PropOp52
 70
     0
102
RTVSPost2010Prop53
 90
        2
102
RTVSPost2010PropOp53
 70
     0
102
RTVSPost2010Prop54
  1
strokes_ogs.tif
102
RTVSPost2010PropOp54
 70
     0
102
RTVSPost2010Prop55
280
     0
102
RTVSPost2010PropOp55
 70
     1
102
RTVSPost2010Prop56
140
1.0
102
RTVSPost2010PropOp56
 70
     0
102
RTVSPost2010Prop57
140
1.0
102
RTVSPost2010PropOp57
 70
     0
102
RTVSPropertyOp0
 70
     0
102
RTVSPropertyOp1
 70
     0
102
RTVSPropertyOp2
 70
     0
102
RTVSPropertyOp3
 70
     0
102
RTVSPropertyOp4
 70
     0
102
RTVSPropertyOp5
 70
     0
102
RTVSPropertyOp6
 70
     0
102
RTVSPropertyOp7
 70
     0
102
RTVSPropertyOp8
 70
     0
102
RTVSPropertyOp9
 70
     0
102
RTVSPropertyOp10
 70
     0
102
RTVSPropertyOp11
 70
     0
102
RTVSPropertyOp12
 70
     0
102
RTVSPropertyOp13
 70
     0
102
RTVSPropertyOp14
 70
     2
102
RTVSPropertyOp15
 70
     0
102
RTVSPropertyOp16
 70
     0
102
RTVSPropertyOp17
 70
     0
102
RTVSPropertyOp18
 70
     0
102
RTVSPropertyOp19
 70
     0
102
RTVSPropertyOp20
 70
     0
102
RTVSPropertyOp21
 70
     0
102
RTVSPropertyOp22
 70
     0
102
RTVSPropertyOp23
 70
     0
102
RTVSPropertyOp24
 70
     0
102
RTVSPropertyOp25
 70
     0
102
RTVSPropertyOp26
 70
     0
102
RTVSPropertyOp27
 70
     0
102
RTVSPropertyOp28
 70
     1
102
RTVSPropertyOp29
 70
     1
102
RTVSPropertyOp30
 70
     1
102
RTVSPropertyOp31
 70
     1
102
RTVSPropertyOp32
 70
     1
102
RTVSPropertyOp33
 70
     1
102
RTVSPropertyOp34
 70
     1
102
RTVSPropertyOp35
 70
     1
102
RTVSPropertyOp36
 70
     1
102
RTVSPropertyOp37
 70
     0
102
RTVSPropertyOp38
 70
     0
102
RTVSPropertyOp39
 70
     0
102
RTVSPropertyOp40
 70
     0
102
RTVSPropertyOp41
 70
     0
102
RTVSPropertyOp42
 70
     0
102
RTVSPropertyOp43
 70
     0
102
RTVSPropertyOp44
 70
     0
102
RTVSPropertyOp45
 70
     1
102
RTVSPropertyOp46
 70
     0
102
RTVSPropertyOp47
 70
     0
102
RTVSPropertyOp48
 70
     0
102
RTVSPropertyOp49
 70
     1
102
RTVSPropertyOp50
 70
     0
102
RTVSPropertyOp51
 70
     0
102
RTVSPropertyOp52
 70
     0
102
RTVSPropertyOp53
 70
     0
102
RTVSPropertyOp54
 70
     0
102
RTVSPropertyOp55
 70
     1
102
RTVSPropertyOp56
 70
     0
102
RTVSPropertyOp57
 70
     0
102
RTVSPropertyOp58
 70
     0
102
RTVSPropertyOp59
 70
     0
102
RTVSPropertyOp60
 70
     0
102
RTVSPropertyOp61
 70
     0
102
RTVSPropertyOp62
 70
     0
  0
XRECORD
  5
96EF
102
{ACAD_REACTORS
330
96EE
102
}
330
96EE
100
AcDbXrecord
280
     1
102
RTVSPost2010Prop28
280
     0
102
RTVSPost2010PropOp28
 70
     1
102
RTVSPost2010Prop29
280
     1
102
RTVSPost2010PropOp29
 70
     1
102
RTVSPost2010Prop30
280
     1
102
RTVSPost2010PropOp30
 70
     1
102
RTVSPost2010Prop31
280
     0
102
RTVSPost2010PropOp31
 70
     1
102
RTVSPost2010Prop32
280
     0
102
RTVSPost2010PropOp32
 70
     1
102
RTVSPost2010Prop33
280
     0
102
RTVSPost2010PropOp33
 70
     1
102
RTVSPost2010Prop34
280
     0
102
RTVSPost2010PropOp34
 70
     1
102
RTVSPost2010Prop35
280
     0
102
RTVSPost2010PropOp35
 70
     1
102
RTVSPost2010Prop36
280
     0
102
RTVSPost2010PropOp36
 70
     1
102
RTVSPost2010Prop37
 90
       50
102
RTVSPost2010PropOp37
 70
     1
102
RTVSPost2010Prop38
140
0.0
102
RTVSPost2010PropOp38
 70
     1
102
RTVSPost2010Prop39
140
1.0
102
RTVSPost2010PropOp39
 70
     1
102
RTVSPost2010Prop40
 90
        0
102
RTVSPost2010PropOp40
 70
     1
102
RTVSPost2010Prop41ColorIndex
 90
       18
102
RTVSPost2010Prop41ColorRGB
 90
        0
102
RTVSPost2010PropOp41
 70
     1
102
RTVSPost2010Prop42
 90
       50
102
RTVSPost2010PropOp42
 70
     1
102
RTVSPost2010Prop43
 90
        3
102
RTVSPost2010PropOp43
 70
     1
102
RTVSPost2010Prop44ColorIndex
 90
        5
102
RTVSPost2010Prop44ColorRGB
 90
      255
102
RTVSPost2010PropOp44
 70
     1
102
RTVSPost2010Prop45
280
     0
102
RTVSPost2010PropOp45
 70
     1
102
RTVSPost2010Prop46
 90
       50
102
RTVSPost2010PropOp46
 70
     1
102
RTVSPost2010Prop47
 90
       50
102
RTVSPost2010PropOp47
 70
     1
102
RTVSPost2010Prop48
 90
       50
102
RTVSPost2010PropOp48
 70
     1
102
RTVSPost2010Prop49
280
     0
102
RTVSPost2010PropOp49
 70
     1
102
RTVSPost2010Prop50
 90
       50
102
RTVSPost2010PropOp50
 70
     1
102
RTVSPost2010Prop51ColorIndex
 90
      256
102
RTVSPost2010Prop51ColorRGB
 90
-16777216
102
RTVSPost2010PropOp51
 70
     0
102
RTVSPost2010Prop52
140
1.0
102
RTVSPost2010PropOp52
 70
     0
102
RTVSPost2010Prop53
 90
        2
102
RTVSPost2010PropOp53
 70
     1
102
RTVSPost2010Prop54
  1
strokes_ogs.tif
102
RTVSPost2010PropOp54
 70
     1
102
RTVSPost2010Prop55
280
     0
102
RTVSPost2010PropOp55
 70
     1
102
RTVSPost2010Prop56
140
1.0
102
RTVSPost2010PropOp56
 70
     1
102
RTVSPost2010Prop57
140
1.0
102
RTVSPost2010PropOp57
 70
     1
102
RTVSPropertyOp0
 70
     1
102
RTVSPropertyOp1
 70
     1
102
RTVSPropertyOp2
 70
     1
102
RTVSPropertyOp3
 70
     1
102
RTVSPropertyOp4
 70
     1
102
RTVSPropertyOp5
 70
     1
102
RTVSPropertyOp6
 70
     1
102
RTVSPropertyOp7
 70
     1
102
RTVSPropertyOp8
 70
     1
102
RTVSPropertyOp9
 70
     1
102
RTVSPropertyOp10
 70
     1
102
RTVSPropertyOp11
 70
     1
102
RTVSPropertyOp12
 70
     1
102
RTVSPropertyOp13
 70
     1
102
RTVSPropertyOp14
 70
     1
102
RTVSPropertyOp15
 70
     1
102
RTVSPropertyOp16
 70
     1
102
RTVSPropertyOp17
 70
     1
102
RTVSPropertyOp18
 70
     1
102
RTVSPropertyOp19
 70
     1
102
RTVSPropertyOp20
 70
     1
102
RTVSPropertyOp21
 70
     1
102
RTVSPropertyOp22
 70
     1
102
RTVSPropertyOp23
 70
     1
102
RTVSPropertyOp24
 70
     1
102
RTVSPropertyOp25
 70
     1
102
RTVSPropertyOp26
 70
     1
102
RTVSPropertyOp27
 70
     1
102
RTVSPropertyOp28
 70
     1
102
RTVSPropertyOp29
 70
     1
102
RTVSPropertyOp30
 70
     1
102
RTVSPropertyOp31
 70
     1
102
RTVSPropertyOp32
 70
     1
102
RTVSPropertyOp33
 70
     1
102
RTVSPropertyOp34
 70
     1
102
RTVSPropertyOp35
 70
     1
102
RTVSPropertyOp36
 70
     1
102
RTVSPropertyOp37
 70
     1
102
RTVSPropertyOp38
 70
     1
102
RTVSPropertyOp39
 70
     1
102
RTVSPropertyOp40
 70
     1
102
RTVSPropertyOp41
 70
     1
102
RTVSPropertyOp42
 70
     1
102
RTVSPropertyOp43
 70
     1
102
RTVSPropertyOp44
 70
     1
102
RTVSPropertyOp45
 70
     1
102
RTVSPropertyOp46
 70
     1
102
RTVSPropertyOp47
 70
     1
102
RTVSPropertyOp48
 70
     1
102
RTVSPropertyOp49
 70
     1
102
RTVSPropertyOp50
 70
     1
102
RTVSPropertyOp51
 70
     0
102
RTVSPropertyOp52
 70
     0
102
RTVSPropertyOp53
 70
     1
102
RTVSPropertyOp54
 70
     1
102
RTVSPropertyOp55
 70
     1
102
RTVSPropertyOp56
 70
     1
102
RTVSPropertyOp57
 70
     1
102
RTVSPropertyOp58
 70
     1
102
RTVSPropertyOp59
 70
     1
102
RTVSPropertyOp60
 70
     1
102
RTVSPropertyOp61
 70
     1
102
RTVSPropertyOp62
 70
     1
  0
XRECORD
  5
96D3
102
{ACAD_REACTORS
330
96D2
102
}
330
96D2
100
AcDbXrecord
280
     1
102
RTVSPost2010Prop28
280
     0
102
RTVSPost2010PropOp28
 70
     1
102
RTVSPost2010Prop29
280
     1
102
RTVSPost2010PropOp29
 70
     1
102
RTVSPost2010Prop30
280
     1
102
RTVSPost2010PropOp30
 70
     1
102
RTVSPost2010Prop31
280
     0
102
RTVSPost2010PropOp31
 70
     1
102
RTVSPost2010Prop32
280
     0
102
RTVSPost2010PropOp32
 70
     1
102
RTVSPost2010Prop33
280
     0
102
RTVSPost2010PropOp33
 70
     1
102
RTVSPost2010Prop34
280
     0
102
RTVSPost2010PropOp34
 70
     1
102
RTVSPost2010Prop35
280
     0
102
RTVSPost2010PropOp35
 70
     1
102
RTVSPost2010Prop36
280
     0
102
RTVSPost2010PropOp36
 70
     1
102
RTVSPost2010Prop37
 90
       50
102
RTVSPost2010PropOp37
 70
     1
102
RTVSPost2010Prop38
140
0.0
102
RTVSPost2010PropOp38
 70
     1
102
RTVSPost2010Prop39
140
1.0
102
RTVSPost2010PropOp39
 70
     1
102
RTVSPost2010Prop40
 90
        0
102
RTVSPost2010PropOp40
 70
     1
102
RTVSPost2010Prop41ColorIndex
 90
       18
102
RTVSPost2010Prop41ColorRGB
 90
        0
102
RTVSPost2010PropOp41
 70
     1
102
RTVSPost2010Prop42
 90
       50
102
RTVSPost2010PropOp42
 70
     1
102
RTVSPost2010Prop43
 90
        3
102
RTVSPost2010PropOp43
 70
     1
102
RTVSPost2010Prop44ColorIndex
 90
        5
102
RTVSPost2010Prop44ColorRGB
 90
      255
102
RTVSPost2010PropOp44
 70
     1
102
RTVSPost2010Prop45
280
     0
102
RTVSPost2010PropOp45
 70
     1
102
RTVSPost2010Prop46
 90
       50
102
RTVSPost2010PropOp46
 70
     1
102
RTVSPost2010Prop47
 90
       50
102
RTVSPost2010PropOp47
 70
     1
102
RTVSPost2010Prop48
 90
       50
102
RTVSPost2010PropOp48
 70
     1
102
RTVSPost2010Prop49
280
     0
102
RTVSPost2010PropOp49
 70
     1
102
RTVSPost2010Prop50
 90
       50
102
RTVSPost2010PropOp50
 70
     1
102
RTVSPost2010Prop51ColorIndex
 90
      256
102
RTVSPost2010Prop51ColorRGB
 90
-16777216
102
RTVSPost2010PropOp51
 70
     0
102
RTVSPost2010Prop52
140
1.0
102
RTVSPost2010PropOp52
 70
     0
102
RTVSPost2010Prop53
 90
        2
102
RTVSPost2010PropOp53
 70
     1
102
RTVSPost2010Prop54
  1
strokes_ogs.tif
102
RTVSPost2010PropOp54
 70
     1
102
RTVSPost2010Prop55
280
     0
102
RTVSPost2010PropOp55
 70
     1
102
RTVSPost2010Prop56
140
1.0
102
RTVSPost2010PropOp56
 70
     1
102
RTVSPost2010Prop57
140
1.0
102
RTVSPost2010PropOp57
 70
     1
102
RTVSPropertyOp0
 70
     1
102
RTVSPropertyOp1
 70
     1
102
RTVSPropertyOp2
 70
     1
102
RTVSPropertyOp3
 70
     1
102
RTVSPropertyOp4
 70
     1
102
RTVSPropertyOp5
 70
     1
102
RTVSPropertyOp6
 70
     1
102
RTVSPropertyOp7
 70
     1
102
RTVSPropertyOp8
 70
     1
102
RTVSPropertyOp9
 70
     1
102
RTVSPropertyOp10
 70
     1
102
RTVSPropertyOp11
 70
     1
102
RTVSPropertyOp12
 70
     1
102
RTVSPropertyOp13
 70
     1
102
RTVSPropertyOp14
 70
     1
102
RTVSPropertyOp15
 70
     1
102
RTVSPropertyOp16
 70
     1
102
RTVSPropertyOp17
 70
     1
102
RTVSPropertyOp18
 70
     1
102
RTVSPropertyOp19
 70
     1
102
RTVSPropertyOp20
 70
     1
102
RTVSPropertyOp21
 70
     1
102
RTVSPropertyOp22
 70
     1
102
RTVSPropertyOp23
 70
     1
102
RTVSPropertyOp24
 70
     1
102
RTVSPropertyOp25
 70
     1
102
RTVSPropertyOp26
 70
     1
102
RTVSPropertyOp27
 70
     1
102
RTVSPropertyOp28
 70
     1
102
RTVSPropertyOp29
 70
     1
102
RTVSPropertyOp30
 70
     1
102
RTVSPropertyOp31
 70
     1
102
RTVSPropertyOp32
 70
     1
102
RTVSPropertyOp33
 70
     1
102
RTVSPropertyOp34
 70
     1
102
RTVSPropertyOp35
 70
     1
102
RTVSPropertyOp36
 70
     1
102
RTVSPropertyOp37
 70
     1
102
RTVSPropertyOp38
 70
     1
102
RTVSPropertyOp39
 70
     1
102
RTVSPropertyOp40
 70
     1
102
RTVSPropertyOp41
 70
     1
102
RTVSPropertyOp42
 70
     1
102
RTVSPropertyOp43
 70
     1
102
RTVSPropertyOp44
 70
     1
102
RTVSPropertyOp45
 70
     1
102
RTVSPropertyOp46
 70
     1
102
RTVSPropertyOp47
 70
     1
102
RTVSPropertyOp48
 70
     1
102
RTVSPropertyOp49
 70
     1
102
RTVSPropertyOp50
 70
     1
102
RTVSPropertyOp51
 70
     0
102
RTVSPropertyOp52
 70
     0
102
RTVSPropertyOp53
 70
     1
102
RTVSPropertyOp54
 70
     1
102
RTVSPropertyOp55
 70
     1
102
RTVSPropertyOp56
 70
     1
102
RTVSPropertyOp57
 70
     1
102
RTVSPropertyOp58
 70
     1
102
RTVSPropertyOp59
 70
     1
102
RTVSPropertyOp60
 70
     1
102
RTVSPropertyOp61
 70
     1
102
RTVSPropertyOp62
 70
     1
  0
XRECORD
  5
96D5
102
{ACAD_REACTORS
330
96D4
102
}
330
96D4
100
AcDbXrecord
280
     1
102
RTVSPost2010Prop28
280
     0
102
RTVSPost2010PropOp28
 70
     1
102
RTVSPost2010Prop29
280
     1
102
RTVSPost2010PropOp29
 70
     1
102
RTVSPost2010Prop30
280
     1
102
RTVSPost2010PropOp30
 70
     1
102
RTVSPost2010Prop31
280
     0
102
RTVSPost2010PropOp31
 70
     1
102
RTVSPost2010Prop32
280
     0
102
RTVSPost2010PropOp32
 70
     1
102
RTVSPost2010Prop33
280
     0
102
RTVSPost2010PropOp33
 70
     1
102
RTVSPost2010Prop34
280
     0
102
RTVSPost2010PropOp34
 70
     1
102
RTVSPost2010Prop35
280
     0
102
RTVSPost2010PropOp35
 70
     1
102
RTVSPost2010Prop36
280
     0
102
RTVSPost2010PropOp36
 70
     1
102
RTVSPost2010Prop37
 90
       50
102
RTVSPost2010PropOp37
 70
     1
102
RTVSPost2010Prop38
140
0.0
102
RTVSPost2010PropOp38
 70
     1
102
RTVSPost2010Prop39
140
1.0
102
RTVSPost2010PropOp39
 70
     1
102
RTVSPost2010Prop40
 90
        0
102
RTVSPost2010PropOp40
 70
     1
102
RTVSPost2010Prop41ColorIndex
 90
       18
102
RTVSPost2010Prop41ColorRGB
 90
        0
102
RTVSPost2010PropOp41
 70
     1
102
RTVSPost2010Prop42
 90
       50
102
RTVSPost2010PropOp42
 70
     1
102
RTVSPost2010Prop43
 90
        3
102
RTVSPost2010PropOp43
 70
     1
102
RTVSPost2010Prop44ColorIndex
 90
        5
102
RTVSPost2010Prop44ColorRGB
 90
      255
102
RTVSPost2010PropOp44
 70
     1
102
RTVSPost2010Prop45
280
     0
102
RTVSPost2010PropOp45
 70
     1
102
RTVSPost2010Prop46
 90
       50
102
RTVSPost2010PropOp46
 70
     1
102
RTVSPost2010Prop47
 90
       50
102
RTVSPost2010PropOp47
 70
     1
102
RTVSPost2010Prop48
 90
       50
102
RTVSPost2010PropOp48
 70
     1
102
RTVSPost2010Prop49
280
     0
102
RTVSPost2010PropOp49
 70
     1
102
RTVSPost2010Prop50
 90
       50
102
RTVSPost2010PropOp50
 70
     1
102
RTVSPost2010Prop51ColorIndex
 90
      256
102
RTVSPost2010Prop51ColorRGB
 90
-16777216
102
RTVSPost2010PropOp51
 70
     0
102
RTVSPost2010Prop52
140
1.0
102
RTVSPost2010PropOp52
 70
     0
102
RTVSPost2010Prop53
 90
        2
102
RTVSPost2010PropOp53
 70
     1
102
RTVSPost2010Prop54
  1
strokes_ogs.tif
102
RTVSPost2010PropOp54
 70
     1
102
RTVSPost2010Prop55
280
     0
102
RTVSPost2010PropOp55
 70
     1
102
RTVSPost2010Prop56
140
1.0
102
RTVSPost2010PropOp56
 70
     1
102
RTVSPost2010Prop57
140
1.0
102
RTVSPost2010PropOp57
 70
     1
102
RTVSPropertyOp0
 70
     1
102
RTVSPropertyOp1
 70
     1
102
RTVSPropertyOp2
 70
     1
102
RTVSPropertyOp3
 70
     1
102
RTVSPropertyOp4
 70
     1
102
RTVSPropertyOp5
 70
     1
102
RTVSPropertyOp6
 70
     1
102
RTVSPropertyOp7
 70
     1
102
RTVSPropertyOp8
 70
     1
102
RTVSPropertyOp9
 70
     1
102
RTVSPropertyOp10
 70
     1
102
RTVSPropertyOp11
 70
     1
102
RTVSPropertyOp12
 70
     1
102
RTVSPropertyOp13
 70
     1
102
RTVSPropertyOp14
 70
     1
102
RTVSPropertyOp15
 70
     1
102
RTVSPropertyOp16
 70
     1
102
RTVSPropertyOp17
 70
     1
102
RTVSPropertyOp18
 70
     1
102
RTVSPropertyOp19
 70
     1
102
RTVSPropertyOp20
 70
     1
102
RTVSPropertyOp21
 70
     1
102
RTVSPropertyOp22
 70
     1
102
RTVSPropertyOp23
 70
     1
102
RTVSPropertyOp24
 70
     1
102
RTVSPropertyOp25
 70
     1
102
RTVSPropertyOp26
 70
     1
102
RTVSPropertyOp27
 70
     1
102
RTVSPropertyOp28
 70
     1
102
RTVSPropertyOp29
 70
     1
102
RTVSPropertyOp30
 70
     1
102
RTVSPropertyOp31
 70
     1
102
RTVSPropertyOp32
 70
     1
102
RTVSPropertyOp33
 70
     1
102
RTVSPropertyOp34
 70
     1
102
RTVSPropertyOp35
 70
     1
102
RTVSPropertyOp36
 70
     1
102
RTVSPropertyOp37
 70
     1
102
RTVSPropertyOp38
 70
     1
102
RTVSPropertyOp39
 70
     1
102
RTVSPropertyOp40
 70
     1
102
RTVSPropertyOp41
 70
     1
102
RTVSPropertyOp42
 70
     1
102
RTVSPropertyOp43
 70
     1
102
RTVSPropertyOp44
 70
     1
102
RTVSPropertyOp45
 70
     1
102
RTVSPropertyOp46
 70
     1
102
RTVSPropertyOp47
 70
     1
102
RTVSPropertyOp48
 70
     1
102
RTVSPropertyOp49
 70
     1
102
RTVSPropertyOp50
 70
     1
102
RTVSPropertyOp51
 70
     0
102
RTVSPropertyOp52
 70
     0
102
RTVSPropertyOp53
 70
     1
102
RTVSPropertyOp54
 70
     1
102
RTVSPropertyOp55
 70
     1
102
RTVSPropertyOp56
 70
     1
102
RTVSPropertyOp57
 70
     1
102
RTVSPropertyOp58
 70
     1
102
RTVSPropertyOp59
 70
     1
102
RTVSPropertyOp60
 70
     1
102
RTVSPropertyOp61
 70
     1
102
RTVSPropertyOp62
 70
     1
  0
XRECORD
  5
96D7
102
{ACAD_REACTORS
330
96D6
102
}
330
96D6
100
AcDbXrecord
280
     1
102
RTVSPost2010Prop28
280
     0
102
RTVSPost2010PropOp28
 70
     1
102
RTVSPost2010Prop29
280
     1
102
RTVSPost2010PropOp29
 70
     1
102
RTVSPost2010Prop30
280
     1
102
RTVSPost2010PropOp30
 70
     1
102
RTVSPost2010Prop31
280
     0
102
RTVSPost2010PropOp31
 70
     1
102
RTVSPost2010Prop32
280
     0
102
RTVSPost2010PropOp32
 70
     1
102
RTVSPost2010Prop33
280
     0
102
RTVSPost2010PropOp33
 70
     1
102
RTVSPost2010Prop34
280
     0
102
RTVSPost2010PropOp34
 70
     1
102
RTVSPost2010Prop35
280
     0
102
RTVSPost2010PropOp35
 70
     1
102
RTVSPost2010Prop36
280
     0
102
RTVSPost2010PropOp36
 70
     1
102
RTVSPost2010Prop37
 90
       50
102
RTVSPost2010PropOp37
 70
     1
102
RTVSPost2010Prop38
140
0.0
102
RTVSPost2010PropOp38
 70
     1
102
RTVSPost2010Prop39
140
1.0
102
RTVSPost2010PropOp39
 70
     1
102
RTVSPost2010Prop40
 90
        0
102
RTVSPost2010PropOp40
 70
     1
102
RTVSPost2010Prop41ColorIndex
 90
       18
102
RTVSPost2010Prop41ColorRGB
 90
        0
102
RTVSPost2010PropOp41
 70
     1
102
RTVSPost2010Prop42
 90
       50
102
RTVSPost2010PropOp42
 70
     1
102
RTVSPost2010Prop43
 90
        3
102
RTVSPost2010PropOp43
 70
     1
102
RTVSPost2010Prop44ColorIndex
 90
        5
102
RTVSPost2010Prop44ColorRGB
 90
      255
102
RTVSPost2010PropOp44
 70
     1
102
RTVSPost2010Prop45
280
     0
102
RTVSPost2010PropOp45
 70
     1
102
RTVSPost2010Prop46
 90
       50
102
RTVSPost2010PropOp46
 70
     1
102
RTVSPost2010Prop47
 90
       50
102
RTVSPost2010PropOp47
 70
     1
102
RTVSPost2010Prop48
 90
       50
102
RTVSPost2010PropOp48
 70
     1
102
RTVSPost2010Prop49
280
     0
102
RTVSPost2010PropOp49
 70
     1
102
RTVSPost2010Prop50
 90
       50
102
RTVSPost2010PropOp50
 70
     1
102
RTVSPost2010Prop51ColorIndex
 90
      256
102
RTVSPost2010Prop51ColorRGB
 90
-16777216
102
RTVSPost2010PropOp51
 70
     0
102
RTVSPost2010Prop52
140
1.0
102
RTVSPost2010PropOp52
 70
     0
102
RTVSPost2010Prop53
 90
        2
102
RTVSPost2010PropOp53
 70
     1
102
RTVSPost2010Prop54
  1
strokes_ogs.tif
102
RTVSPost2010PropOp54
 70
     1
102
RTVSPost2010Prop55
280
     0
102
RTVSPost2010PropOp55
 70
     1
102
RTVSPost2010Prop56
140
1.0
102
RTVSPost2010PropOp56
 70
     1
102
RTVSPost2010Prop57
140
1.0
102
RTVSPost2010PropOp57
 70
     1
102
RTVSPropertyOp0
 70
     1
102
RTVSPropertyOp1
 70
     1
102
RTVSPropertyOp2
 70
     1
102
RTVSPropertyOp3
 70
     1
102
RTVSPropertyOp4
 70
     1
102
RTVSPropertyOp5
 70
     1
102
RTVSPropertyOp6
 70
     1
102
RTVSPropertyOp7
 70
     1
102
RTVSPropertyOp8
 70
     1
102
RTVSPropertyOp9
 70
     1
102
RTVSPropertyOp10
 70
     1
102
RTVSPropertyOp11
 70
     1
102
RTVSPropertyOp12
 70
     1
102
RTVSPropertyOp13
 70
     1
102
RTVSPropertyOp14
 70
     1
102
RTVSPropertyOp15
 70
     1
102
RTVSPropertyOp16
 70
     1
102
RTVSPropertyOp17
 70
     1
102
RTVSPropertyOp18
 70
     1
102
RTVSPropertyOp19
 70
     1
102
RTVSPropertyOp20
 70
     1
102
RTVSPropertyOp21
 70
     1
102
RTVSPropertyOp22
 70
     1
102
RTVSPropertyOp23
 70
     1
102
RTVSPropertyOp24
 70
     1
102
RTVSPropertyOp25
 70
     1
102
RTVSPropertyOp26
 70
     1
102
RTVSPropertyOp27
 70
     1
102
RTVSPropertyOp28
 70
     1
102
RTVSPropertyOp29
 70
     1
102
RTVSPropertyOp30
 70
     1
102
RTVSPropertyOp31
 70
     1
102
RTVSPropertyOp32
 70
     1
102
RTVSPropertyOp33
 70
     1
102
RTVSPropertyOp34
 70
     1
102
RTVSPropertyOp35
 70
     1
102
RTVSPropertyOp36
 70
     1
102
RTVSPropertyOp37
 70
     1
102
RTVSPropertyOp38
 70
     1
102
RTVSPropertyOp39
 70
     1
102
RTVSPropertyOp40
 70
     1
102
RTVSPropertyOp41
 70
     1
102
RTVSPropertyOp42
 70
     1
102
RTVSPropertyOp43
 70
     1
102
RTVSPropertyOp44
 70
     1
102
RTVSPropertyOp45
 70
     1
102
RTVSPropertyOp46
 70
     1
102
RTVSPropertyOp47
 70
     1
102
RTVSPropertyOp48
 70
     1
102
RTVSPropertyOp49
 70
     1
102
RTVSPropertyOp50
 70
     1
102
RTVSPropertyOp51
 70
     0
102
RTVSPropertyOp52
 70
     0
102
RTVSPropertyOp53
 70
     1
102
RTVSPropertyOp54
 70
     1
102
RTVSPropertyOp55
 70
     1
102
RTVSPropertyOp56
 70
     1
102
RTVSPropertyOp57
 70
     1
102
RTVSPropertyOp58
 70
     1
102
RTVSPropertyOp59
 70
     1
102
RTVSPropertyOp60
 70
     1
102
RTVSPropertyOp61
 70
     1
102
RTVSPropertyOp62
 70
     1
  0
XRECORD
  5
96D9
102
{ACAD_REACTORS
330
96D8
102
}
330
96D8
100
AcDbXrecord
280
     1
102
RTVSPost2010Prop28
280
     0
102
RTVSPost2010PropOp28
 70
     1
102
RTVSPost2010Prop29
280
     1
102
RTVSPost2010PropOp29
 70
     1
102
RTVSPost2010Prop30
280
     1
102
RTVSPost2010PropOp30
 70
     1
102
RTVSPost2010Prop31
280
     0
102
RTVSPost2010PropOp31
 70
     1
102
RTVSPost2010Prop32
280
     0
102
RTVSPost2010PropOp32
 70
     1
102
RTVSPost2010Prop33
280
     0
102
RTVSPost2010PropOp33
 70
     1
102
RTVSPost2010Prop34
280
     0
102
RTVSPost2010PropOp34
 70
     1
102
RTVSPost2010Prop35
280
     0
102
RTVSPost2010PropOp35
 70
     1
102
RTVSPost2010Prop36
280
     0
102
RTVSPost2010PropOp36
 70
     1
102
RTVSPost2010Prop37
 90
       50
102
RTVSPost2010PropOp37
 70
     1
102
RTVSPost2010Prop38
140
0.0
102
RTVSPost2010PropOp38
 70
     1
102
RTVSPost2010Prop39
140
1.0
102
RTVSPost2010PropOp39
 70
     1
102
RTVSPost2010Prop40
 90
        0
102
RTVSPost2010PropOp40
 70
     1
102
RTVSPost2010Prop41ColorIndex
 90
       18
102
RTVSPost2010Prop41ColorRGB
 90
        0
102
RTVSPost2010PropOp41
 70
     1
102
RTVSPost2010Prop42
 90
       50
102
RTVSPost2010PropOp42
 70
     1
102
RTVSPost2010Prop43
 90
        3
102
RTVSPost2010PropOp43
 70
     1
102
RTVSPost2010Prop44ColorIndex
 90
        5
102
RTVSPost2010Prop44ColorRGB
 90
      255
102
RTVSPost2010PropOp44
 70
     1
102
RTVSPost2010Prop45
280
     0
102
RTVSPost2010PropOp45
 70
     1
102
RTVSPost2010Prop46
 90
       50
102
RTVSPost2010PropOp46
 70
     1
102
RTVSPost2010Prop47
 90
       50
102
RTVSPost2010PropOp47
 70
     1
102
RTVSPost2010Prop48
 90
       50
102
RTVSPost2010PropOp48
 70
     1
102
RTVSPost2010Prop49
280
     0
102
RTVSPost2010PropOp49
 70
     1
102
RTVSPost2010Prop50
 90
       50
102
RTVSPost2010PropOp50
 70
     1
102
RTVSPost2010Prop51ColorIndex
 90
      256
102
RTVSPost2010Prop51ColorRGB
 90
-16777216
102
RTVSPost2010PropOp51
 70
     0
102
RTVSPost2010Prop52
140
1.0
102
RTVSPost2010PropOp52
 70
     0
102
RTVSPost2010Prop53
 90
        2
102
RTVSPost2010PropOp53
 70
     1
102
RTVSPost2010Prop54
  1
strokes_ogs.tif
102
RTVSPost2010PropOp54
 70
     1
102
RTVSPost2010Prop55
280
     0
102
RTVSPost2010PropOp55
 70
     1
102
RTVSPost2010Prop56
140
1.0
102
RTVSPost2010PropOp56
 70
     1
102
RTVSPost2010Prop57
140
1.0
102
RTVSPost2010PropOp57
 70
     1
102
RTVSPropertyOp0
 70
     1
102
RTVSPropertyOp1
 70
     1
102
RTVSPropertyOp2
 70
     1
102
RTVSPropertyOp3
 70
     1
102
RTVSPropertyOp4
 70
     1
102
RTVSPropertyOp5
 70
     1
102
RTVSPropertyOp6
 70
     1
102
RTVSPropertyOp7
 70
     1
102
RTVSPropertyOp8
 70
     1
102
RTVSPropertyOp9
 70
     1
102
RTVSPropertyOp10
 70
     1
102
RTVSPropertyOp11
 70
     1
102
RTVSPropertyOp12
 70
     1
102
RTVSPropertyOp13
 70
     1
102
RTVSPropertyOp14
 70
     1
102
RTVSPropertyOp15
 70
     1
102
RTVSPropertyOp16
 70
     1
102
RTVSPropertyOp17
 70
     1
102
RTVSPropertyOp18
 70
     1
102
RTVSPropertyOp19
 70
     1
102
RTVSPropertyOp20
 70
     1
102
RTVSPropertyOp21
 70
     1
102
RTVSPropertyOp22
 70
     1
102
RTVSPropertyOp23
 70
     1
102
RTVSPropertyOp24
 70
     1
102
RTVSPropertyOp25
 70
     1
102
RTVSPropertyOp26
 70
     1
102
RTVSPropertyOp27
 70
     1
102
RTVSPropertyOp28
 70
     1
102
RTVSPropertyOp29
 70
     1
102
RTVSPropertyOp30
 70
     1
102
RTVSPropertyOp31
 70
     1
102
RTVSPropertyOp32
 70
     1
102
RTVSPropertyOp33
 70
     1
102
RTVSPropertyOp34
 70
     1
102
RTVSPropertyOp35
 70
     1
102
RTVSPropertyOp36
 70
     1
102
RTVSPropertyOp37
 70
     1
102
RTVSPropertyOp38
 70
     1
102
RTVSPropertyOp39
 70
     1
102
RTVSPropertyOp40
 70
     1
102
RTVSPropertyOp41
 70
     1
102
RTVSPropertyOp42
 70
     1
102
RTVSPropertyOp43
 70
     1
102
RTVSPropertyOp44
 70
     1
102
RTVSPropertyOp45
 70
     1
102
RTVSPropertyOp46
 70
     1
102
RTVSPropertyOp47
 70
     1
102
RTVSPropertyOp48
 70
     1
102
RTVSPropertyOp49
 70
     1
102
RTVSPropertyOp50
 70
     1
102
RTVSPropertyOp51
 70
     0
102
RTVSPropertyOp52
 70
     0
102
RTVSPropertyOp53
 70
     1
102
RTVSPropertyOp54
 70
     1
102
RTVSPropertyOp55
 70
     1
102
RTVSPropertyOp56
 70
     1
102
RTVSPropertyOp57
 70
     1
102
RTVSPropertyOp58
 70
     1
102
RTVSPropertyOp59
 70
     1
102
RTVSPropertyOp60
 70
     1
102
RTVSPropertyOp61
 70
     1
102
RTVSPropertyOp62
 70
     1
  0
XRECORD
  5
96E1
102
{ACAD_REACTORS
330
96E0
102
}
330
96E0
100
AcDbXrecord
280
     1
102
RTVSPost2010Prop28
280
     0
102
RTVSPost2010PropOp28
 70
     1
102
RTVSPost2010Prop29
280
     1
102
RTVSPost2010PropOp29
 70
     1
102
RTVSPost2010Prop30
280
     1
102
RTVSPost2010PropOp30
 70
     1
102
RTVSPost2010Prop31
280
     0
102
RTVSPost2010PropOp31
 70
     1
102
RTVSPost2010Prop32
280
     0
102
RTVSPost2010PropOp32
 70
     1
102
RTVSPost2010Prop33
280
     0
102
RTVSPost2010PropOp33
 70
     1
102
RTVSPost2010Prop34
280
     0
102
RTVSPost2010PropOp34
 70
     1
102
RTVSPost2010Prop35
280
     0
102
RTVSPost2010PropOp35
 70
     1
102
RTVSPost2010Prop36
280
     0
102
RTVSPost2010PropOp36
 70
     1
102
RTVSPost2010Prop37
 90
       50
102
RTVSPost2010PropOp37
 70
     1
102
RTVSPost2010Prop38
140
0.0
102
RTVSPost2010PropOp38
 70
     1
102
RTVSPost2010Prop39
140
1.0
102
RTVSPost2010PropOp39
 70
     1
102
RTVSPost2010Prop40
 90
        0
102
RTVSPost2010PropOp40
 70
     1
102
RTVSPost2010Prop41ColorIndex
 90
       18
102
RTVSPost2010Prop41ColorRGB
 90
        0
102
RTVSPost2010PropOp41
 70
     1
102
RTVSPost2010Prop42
 90
       50
102
RTVSPost2010PropOp42
 70
     1
102
RTVSPost2010Prop43
 90
        3
102
RTVSPost2010PropOp43
 70
     1
102
RTVSPost2010Prop44ColorIndex
 90
        5
102
RTVSPost2010Prop44ColorRGB
 90
      255
102
RTVSPost2010PropOp44
 70
     1
102
RTVSPost2010Prop45
280
     0
102
RTVSPost2010PropOp45
 70
     1
102
RTVSPost2010Prop46
 90
       50
102
RTVSPost2010PropOp46
 70
     1
102
RTVSPost2010Prop47
 90
       50
102
RTVSPost2010PropOp47
 70
     1
102
RTVSPost2010Prop48
 90
       50
102
RTVSPost2010PropOp48
 70
     1
102
RTVSPost2010Prop49
280
     0
102
RTVSPost2010PropOp49
 70
     1
102
RTVSPost2010Prop50
 90
       50
102
RTVSPost2010PropOp50
 70
     1
102
RTVSPost2010Prop51ColorIndex
 90
      256
102
RTVSPost2010Prop51ColorRGB
 90
-16777216
102
RTVSPost2010PropOp51
 70
     0
102
RTVSPost2010Prop52
140
1.0
102
RTVSPost2010PropOp52
 70
     0
102
RTVSPost2010Prop53
 90
        2
102
RTVSPost2010PropOp53
 70
     1
102
RTVSPost2010Prop54
  1
strokes_ogs.tif
102
RTVSPost2010PropOp54
 70
     1
102
RTVSPost2010Prop55
280
     0
102
RTVSPost2010PropOp55
 70
     1
102
RTVSPost2010Prop56
140
1.0
102
RTVSPost2010PropOp56
 70
     1
102
RTVSPost2010Prop57
140
1.0
102
RTVSPost2010PropOp57
 70
     1
102
RTVSPropertyOp0
 70
     1
102
RTVSPropertyOp1
 70
     1
102
RTVSPropertyOp2
 70
     1
102
RTVSPropertyOp3
 70
     1
102
RTVSPropertyOp4
 70
     1
102
RTVSPropertyOp5
 70
     1
102
RTVSPropertyOp6
 70
     1
102
RTVSPropertyOp7
 70
     1
102
RTVSPropertyOp8
 70
     1
102
RTVSPropertyOp9
 70
     1
102
RTVSPropertyOp10
 70
     1
102
RTVSPropertyOp11
 70
     1
102
RTVSPropertyOp12
 70
     1
102
RTVSPropertyOp13
 70
     1
102
RTVSPropertyOp14
 70
     1
102
RTVSPropertyOp15
 70
     1
102
RTVSPropertyOp16
 70
     1
102
RTVSPropertyOp17
 70
     1
102
RTVSPropertyOp18
 70
     1
102
RTVSPropertyOp19
 70
     1
102
RTVSPropertyOp20
 70
     1
102
RTVSPropertyOp21
 70
     1
102
RTVSPropertyOp22
 70
     1
102
RTVSPropertyOp23
 70
     1
102
RTVSPropertyOp24
 70
     1
102
RTVSPropertyOp25
 70
     1
102
RTVSPropertyOp26
 70
     1
102
RTVSPropertyOp27
 70
     1
102
RTVSPropertyOp28
 70
     1
102
RTVSPropertyOp29
 70
     1
102
RTVSPropertyOp30
 70
     1
102
RTVSPropertyOp31
 70
     1
102
RTVSPropertyOp32
 70
     1
102
RTVSPropertyOp33
 70
     1
102
RTVSPropertyOp34
 70
     1
102
RTVSPropertyOp35
 70
     1
102
RTVSPropertyOp36
 70
     1
102
RTVSPropertyOp37
 70
     1
102
RTVSPropertyOp38
 70
     1
102
RTVSPropertyOp39
 70
     1
102
RTVSPropertyOp40
 70
     1
102
RTVSPropertyOp41
 70
     1
102
RTVSPropertyOp42
 70
     1
102
RTVSPropertyOp43
 70
     1
102
RTVSPropertyOp44
 70
     1
102
RTVSPropertyOp45
 70
     1
102
RTVSPropertyOp46
 70
     1
102
RTVSPropertyOp47
 70
     1
102
RTVSPropertyOp48
 70
     1
102
RTVSPropertyOp49
 70
     1
102
RTVSPropertyOp50
 70
     1
102
RTVSPropertyOp51
 70
     0
102
RTVSPropertyOp52
 70
     0
102
RTVSPropertyOp53
 70
     1
102
RTVSPropertyOp54
 70
     1
102
RTVSPropertyOp55
 70
     1
102
RTVSPropertyOp56
 70
     1
102
RTVSPropertyOp57
 70
     1
102
RTVSPropertyOp58
 70
     1
102
RTVSPropertyOp59
 70
     1
102
RTVSPropertyOp60
 70
     1
102
RTVSPropertyOp61
 70
     1
102
RTVSPropertyOp62
 70
     1
  0
XRECORD
  5
96FD
102
{ACAD_REACTORS
330
96FC
102
}
330
96FC
100
AcDbXrecord
280
     1
102
RTVSPost2010Prop28
280
     0
102
RTVSPost2010PropOp28
 70
     1
102
RTVSPost2010Prop29
280
     1
102
RTVSPost2010PropOp29
 70
     1
102
RTVSPost2010Prop30
280
     1
102
RTVSPost2010PropOp30
 70
     1
102
RTVSPost2010Prop31
280
     0
102
RTVSPost2010PropOp31
 70
     1
102
RTVSPost2010Prop32
280
     0
102
RTVSPost2010PropOp32
 70
     1
102
RTVSPost2010Prop33
280
     0
102
RTVSPost2010PropOp33
 70
     1
102
RTVSPost2010Prop34
280
     0
102
RTVSPost2010PropOp34
 70
     1
102
RTVSPost2010Prop35
280
     0
102
RTVSPost2010PropOp35
 70
     1
102
RTVSPost2010Prop36
280
     0
102
RTVSPost2010PropOp36
 70
     1
102
RTVSPost2010Prop37
 90
       50
102
RTVSPost2010PropOp37
 70
     0
102
RTVSPost2010Prop38
140
0.0
102
RTVSPost2010PropOp38
 70
     0
102
RTVSPost2010Prop39
140
1.0
102
RTVSPost2010PropOp39
 70
     0
102
RTVSPost2010Prop40
 90
        0
102
RTVSPost2010PropOp40
 70
     0
102
RTVSPost2010Prop41ColorIndex
 90
       18
102
RTVSPost2010Prop41ColorRGB
 90
        0
102
RTVSPost2010PropOp41
 70
     0
102
RTVSPost2010Prop42
 90
       50
102
RTVSPost2010PropOp42
 70
     0
102
RTVSPost2010Prop43
 90
        3
102
RTVSPost2010PropOp43
 70
     0
102
RTVSPost2010Prop44ColorIndex
 90
        5
102
RTVSPost2010Prop44ColorRGB
 90
      255
102
RTVSPost2010PropOp44
 70
     0
102
RTVSPost2010Prop45
280
     0
102
RTVSPost2010PropOp45
 70
     1
102
RTVSPost2010Prop46
 90
       50
102
RTVSPost2010PropOp46
 70
     0
102
RTVSPost2010Prop47
 90
       50
102
RTVSPost2010PropOp47
 70
     0
102
RTVSPost2010Prop48
 90
       50
102
RTVSPost2010PropOp48
 70
     0
102
RTVSPost2010Prop49
280
     0
102
RTVSPost2010PropOp49
 70
     1
102
RTVSPost2010Prop50
 90
       50
102
RTVSPost2010PropOp50
 70
     0
102
RTVSPost2010Prop51ColorIndex
 90
      256
102
RTVSPost2010Prop51ColorRGB
 90
-16777216
102
RTVSPost2010PropOp51
 70
     0
102
RTVSPost2010Prop52
140
1.0
102
RTVSPost2010PropOp52
 70
     0
102
RTVSPost2010Prop53
 90
        2
102
RTVSPost2010PropOp53
 70
     0
102
RTVSPost2010Prop54
  1
strokes_ogs.tif
102
RTVSPost2010PropOp54
 70
     0
102
RTVSPost2010Prop55
280
     0
102
RTVSPost2010PropOp55
 70
     1
102
RTVSPost2010Prop56
140
1.0
102
RTVSPost2010PropOp56
 70
     0
102
RTVSPost2010Prop57
140
1.0
102
RTVSPost2010PropOp57
 70
     0
102
RTVSPropertyOp0
 70
     0
102
RTVSPropertyOp1
 70
     0
102
RTVSPropertyOp2
 70
     0
102
RTVSPropertyOp3
 70
     0
102
RTVSPropertyOp4
 70
     0
102
RTVSPropertyOp5
 70
     0
102
RTVSPropertyOp6
 70
     0
102
RTVSPropertyOp7
 70
     0
102
RTVSPropertyOp8
 70
     0
102
RTVSPropertyOp9
 70
     0
102
RTVSPropertyOp10
 70
     0
102
RTVSPropertyOp11
 70
     0
102
RTVSPropertyOp12
 70
     0
102
RTVSPropertyOp13
 70
     0
102
RTVSPropertyOp14
 70
     2
102
RTVSPropertyOp15
 70
     0
102
RTVSPropertyOp16
 70
     0
102
RTVSPropertyOp17
 70
     0
102
RTVSPropertyOp18
 70
     0
102
RTVSPropertyOp19
 70
     0
102
RTVSPropertyOp20
 70
     0
102
RTVSPropertyOp21
 70
     0
102
RTVSPropertyOp22
 70
     0
102
RTVSPropertyOp23
 70
     0
102
RTVSPropertyOp24
 70
     0
102
RTVSPropertyOp25
 70
     0
102
RTVSPropertyOp26
 70
     0
102
RTVSPropertyOp27
 70
     0
102
RTVSPropertyOp28
 70
     1
102
RTVSPropertyOp29
 70
     1
102
RTVSPropertyOp30
 70
     1
102
RTVSPropertyOp31
 70
     1
102
RTVSPropertyOp32
 70
     1
102
RTVSPropertyOp33
 70
     1
102
RTVSPropertyOp34
 70
     1
102
RTVSPropertyOp35
 70
     1
102
RTVSPropertyOp36
 70
     1
102
RTVSPropertyOp37
 70
     0
102
RTVSPropertyOp38
 70
     0
102
RTVSPropertyOp39
 70
     0
102
RTVSPropertyOp40
 70
     0
102
RTVSPropertyOp41
 70
     0
102
RTVSPropertyOp42
 70
     0
102
RTVSPropertyOp43
 70
     0
102
RTVSPropertyOp44
 70
     0
102
RTVSPropertyOp45
 70
     1
102
RTVSPropertyOp46
 70
     0
102
RTVSPropertyOp47
 70
     0
102
RTVSPropertyOp48
 70
     0
102
RTVSPropertyOp49
 70
     1
102
RTVSPropertyOp50
 70
     0
102
RTVSPropertyOp51
 70
     0
102
RTVSPropertyOp52
 70
     0
102
RTVSPropertyOp53
 70
     0
102
RTVSPropertyOp54
 70
     0
102
RTVSPropertyOp55
 70
     1
102
RTVSPropertyOp56
 70
     0
102
RTVSPropertyOp57
 70
     0
102
RTVSPropertyOp58
 70
     0
102
RTVSPropertyOp59
 70
     0
102
RTVSPropertyOp60
 70
     0
102
RTVSPropertyOp61
 70
     0
102
RTVSPropertyOp62
 70
     0
  0
XRECORD
  5
96ED
102
{ACAD_REACTORS
330
96EC
102
}
330
96EC
100
AcDbXrecord
280
     1
102
RTVSPost2010Prop28
280
     0
102
RTVSPost2010PropOp28
 70
     1
102
RTVSPost2010Prop29
280
     1
102
RTVSPost2010PropOp29
 70
     1
102
RTVSPost2010Prop30
280
     1
102
RTVSPost2010PropOp30
 70
     1
102
RTVSPost2010Prop31
280
     0
102
RTVSPost2010PropOp31
 70
     1
102
RTVSPost2010Prop32
280
     0
102
RTVSPost2010PropOp32
 70
     1
102
RTVSPost2010Prop33
280
     0
102
RTVSPost2010PropOp33
 70
     1
102
RTVSPost2010Prop34
280
     0
102
RTVSPost2010PropOp34
 70
     1
102
RTVSPost2010Prop35
280
     0
102
RTVSPost2010PropOp35
 70
     1
102
RTVSPost2010Prop36
280
     0
102
RTVSPost2010PropOp36
 70
     1
102
RTVSPost2010Prop37
 90
       50
102
RTVSPost2010PropOp37
 70
     1
102
RTVSPost2010Prop38
140
0.0
102
RTVSPost2010PropOp38
 70
     1
102
RTVSPost2010Prop39
140
1.0
102
RTVSPost2010PropOp39
 70
     1
102
RTVSPost2010Prop40
 90
        0
102
RTVSPost2010PropOp40
 70
     1
102
RTVSPost2010Prop41ColorIndex
 90
       18
102
RTVSPost2010Prop41ColorRGB
 90
        0
102
RTVSPost2010PropOp41
 70
     1
102
RTVSPost2010Prop42
 90
       50
102
RTVSPost2010PropOp42
 70
     1
102
RTVSPost2010Prop43
 90
        3
102
RTVSPost2010PropOp43
 70
     1
102
RTVSPost2010Prop44ColorIndex
 90
        5
102
RTVSPost2010Prop44ColorRGB
 90
      255
102
RTVSPost2010PropOp44
 70
     1
102
RTVSPost2010Prop45
280
     0
102
RTVSPost2010PropOp45
 70
     1
102
RTVSPost2010Prop46
 90
       50
102
RTVSPost2010PropOp46
 70
     1
102
RTVSPost2010Prop47
 90
       50
102
RTVSPost2010PropOp47
 70
     1
102
RTVSPost2010Prop48
 90
       50
102
RTVSPost2010PropOp48
 70
     1
102
RTVSPost2010Prop49
280
     0
102
RTVSPost2010PropOp49
 70
     1
102
RTVSPost2010Prop50
 90
       50
102
RTVSPost2010PropOp50
 70
     1
102
RTVSPost2010Prop51ColorIndex
 90
      256
102
RTVSPost2010Prop51ColorRGB
 90
-16777216
102
RTVSPost2010PropOp51
 70
     0
102
RTVSPost2010Prop52
140
1.0
102
RTVSPost2010PropOp52
 70
     0
102
RTVSPost2010Prop53
 90
        2
102
RTVSPost2010PropOp53
 70
     1
102
RTVSPost2010Prop54
  1
strokes_ogs.tif
102
RTVSPost2010PropOp54
 70
     1
102
RTVSPost2010Prop55
280
     0
102
RTVSPost2010PropOp55
 70
     1
102
RTVSPost2010Prop56
140
1.0
102
RTVSPost2010PropOp56
 70
     1
102
RTVSPost2010Prop57
140
1.0
102
RTVSPost2010PropOp57
 70
     1
102
RTVSPropertyOp0
 70
     1
102
RTVSPropertyOp1
 70
     1
102
RTVSPropertyOp2
 70
     1
102
RTVSPropertyOp3
 70
     1
102
RTVSPropertyOp4
 70
     1
102
RTVSPropertyOp5
 70
     1
102
RTVSPropertyOp6
 70
     1
102
RTVSPropertyOp7
 70
     1
102
RTVSPropertyOp8
 70
     1
102
RTVSPropertyOp9
 70
     1
102
RTVSPropertyOp10
 70
     1
102
RTVSPropertyOp11
 70
     1
102
RTVSPropertyOp12
 70
     1
102
RTVSPropertyOp13
 70
     1
102
RTVSPropertyOp14
 70
     1
102
RTVSPropertyOp15
 70
     1
102
RTVSPropertyOp16
 70
     1
102
RTVSPropertyOp17
 70
     1
102
RTVSPropertyOp18
 70
     1
102
RTVSPropertyOp19
 70
     1
102
RTVSPropertyOp20
 70
     1
102
RTVSPropertyOp21
 70
     1
102
RTVSPropertyOp22
 70
     1
102
RTVSPropertyOp23
 70
     1
102
RTVSPropertyOp24
 70
     1
102
RTVSPropertyOp25
 70
     1
102
RTVSPropertyOp26
 70
     1
102
RTVSPropertyOp27
 70
     1
102
RTVSPropertyOp28
 70
     1
102
RTVSPropertyOp29
 70
     1
102
RTVSPropertyOp30
 70
     1
102
RTVSPropertyOp31
 70
     1
102
RTVSPropertyOp32
 70
     1
102
RTVSPropertyOp33
 70
     1
102
RTVSPropertyOp34
 70
     1
102
RTVSPropertyOp35
 70
     1
102
RTVSPropertyOp36
 70
     1
102
RTVSPropertyOp37
 70
     1
102
RTVSPropertyOp38
 70
     1
102
RTVSPropertyOp39
 70
     1
102
RTVSPropertyOp40
 70
     1
102
RTVSPropertyOp41
 70
     1
102
RTVSPropertyOp42
 70
     1
102
RTVSPropertyOp43
 70
     1
102
RTVSPropertyOp44
 70
     1
102
RTVSPropertyOp45
 70
     1
102
RTVSPropertyOp46
 70
     1
102
RTVSPropertyOp47
 70
     1
102
RTVSPropertyOp48
 70
     1
102
RTVSPropertyOp49
 70
     1
102
RTVSPropertyOp50
 70
     1
102
RTVSPropertyOp51
 70
     0
102
RTVSPropertyOp52
 70
     0
102
RTVSPropertyOp53
 70
     1
102
RTVSPropertyOp54
 70
     1
102
RTVSPropertyOp55
 70
     1
102
RTVSPropertyOp56
 70
     1
102
RTVSPropertyOp57
 70
     1
102
RTVSPropertyOp58
 70
     1
102
RTVSPropertyOp59
 70
     1
102
RTVSPropertyOp60
 70
     1
102
RTVSPropertyOp61
 70
     1
102
RTVSPropertyOp62
 70
     1
  0
XRECORD
  5
96FF
102
{ACAD_REACTORS
330
96FE
102
}
330
96FE
100
AcDbXrecord
280
     1
102
RTVSPost2010Prop28
280
     0
102
RTVSPost2010PropOp28
 70
     1
102
RTVSPost2010Prop29
280
     1
102
RTVSPost2010PropOp29
 70
     1
102
RTVSPost2010Prop30
280
     1
102
RTVSPost2010PropOp30
 70
     1
102
RTVSPost2010Prop31
280
     0
102
RTVSPost2010PropOp31
 70
     1
102
RTVSPost2010Prop32
280
     0
102
RTVSPost2010PropOp32
 70
     1
102
RTVSPost2010Prop33
280
     0
102
RTVSPost2010PropOp33
 70
     1
102
RTVSPost2010Prop34
280
     0
102
RTVSPost2010PropOp34
 70
     1
102
RTVSPost2010Prop35
280
     0
102
RTVSPost2010PropOp35
 70
     1
102
RTVSPost2010Prop36
280
     0
102
RTVSPost2010PropOp36
 70
     1
102
RTVSPost2010Prop37
 90
       50
102
RTVSPost2010PropOp37
 70
     0
102
RTVSPost2010Prop38
140
0.0
102
RTVSPost2010PropOp38
 70
     0
102
RTVSPost2010Prop39
140
1.0
102
RTVSPost2010PropOp39
 70
     0
102
RTVSPost2010Prop40
 90
        0
102
RTVSPost2010PropOp40
 70
     0
102
RTVSPost2010Prop41ColorIndex
 90
       18
102
RTVSPost2010Prop41ColorRGB
 90
        0
102
RTVSPost2010PropOp41
 70
     0
102
RTVSPost2010Prop42
 90
       50
102
RTVSPost2010PropOp42
 70
     0
102
RTVSPost2010Prop43
 90
        3
102
RTVSPost2010PropOp43
 70
     0
102
RTVSPost2010Prop44ColorIndex
 90
        5
102
RTVSPost2010Prop44ColorRGB
 90
      255
102
RTVSPost2010PropOp44
 70
     0
102
RTVSPost2010Prop45
280
     0
102
RTVSPost2010PropOp45
 70
     1
102
RTVSPost2010Prop46
 90
       50
102
RTVSPost2010PropOp46
 70
     0
102
RTVSPost2010Prop47
 90
       50
102
RTVSPost2010PropOp47
 70
     0
102
RTVSPost2010Prop48
 90
       50
102
RTVSPost2010PropOp48
 70
     0
102
RTVSPost2010Prop49
280
     0
102
RTVSPost2010PropOp49
 70
     1
102
RTVSPost2010Prop50
 90
       50
102
RTVSPost2010PropOp50
 70
     0
102
RTVSPost2010Prop51ColorIndex
 90
      256
102
RTVSPost2010Prop51ColorRGB
 90
-16777216
102
RTVSPost2010PropOp51
 70
     0
102
RTVSPost2010Prop52
140
1.0
102
RTVSPost2010PropOp52
 70
     0
102
RTVSPost2010Prop53
 90
        2
102
RTVSPost2010PropOp53
 70
     0
102
RTVSPost2010Prop54
  1
strokes_ogs.tif
102
RTVSPost2010PropOp54
 70
     0
102
RTVSPost2010Prop55
280
     0
102
RTVSPost2010PropOp55
 70
     1
102
RTVSPost2010Prop56
140
1.0
102
RTVSPost2010PropOp56
 70
     0
102
RTVSPost2010Prop57
140
1.0
102
RTVSPost2010PropOp57
 70
     0
102
RTVSPropertyOp0
 70
     0
102
RTVSPropertyOp1
 70
     0
102
RTVSPropertyOp2
 70
     0
102
RTVSPropertyOp3
 70
     0
102
RTVSPropertyOp4
 70
     0
102
RTVSPropertyOp5
 70
     0
102
RTVSPropertyOp6
 70
     0
102
RTVSPropertyOp7
 70
     0
102
RTVSPropertyOp8
 70
     0
102
RTVSPropertyOp9
 70
     0
102
RTVSPropertyOp10
 70
     0
102
RTVSPropertyOp11
 70
     0
102
RTVSPropertyOp12
 70
     0
102
RTVSPropertyOp13
 70
     0
102
RTVSPropertyOp14
 70
     2
102
RTVSPropertyOp15
 70
     0
102
RTVSPropertyOp16
 70
     0
102
RTVSPropertyOp17
 70
     0
102
RTVSPropertyOp18
 70
     0
102
RTVSPropertyOp19
 70
     0
102
RTVSPropertyOp20
 70
     0
102
RTVSPropertyOp21
 70
     0
102
RTVSPropertyOp22
 70
     0
102
RTVSPropertyOp23
 70
     0
102
RTVSPropertyOp24
 70
     0
102
RTVSPropertyOp25
 70
     0
102
RTVSPropertyOp26
 70
     0
102
RTVSPropertyOp27
 70
     0
102
RTVSPropertyOp28
 70
     1
102
RTVSPropertyOp29
 70
     1
102
RTVSPropertyOp30
 70
     1
102
RTVSPropertyOp31
 70
     1
102
RTVSPropertyOp32
 70
     1
102
RTVSPropertyOp33
 70
     1
102
RTVSPropertyOp34
 70
     1
102
RTVSPropertyOp35
 70
     1
102
RTVSPropertyOp36
 70
     1
102
RTVSPropertyOp37
 70
     0
102
RTVSPropertyOp38
 70
     0
102
RTVSPropertyOp39
 70
     0
102
RTVSPropertyOp40
 70
     0
102
RTVSPropertyOp41
 70
     0
102
RTVSPropertyOp42
 70
     0
102
RTVSPropertyOp43
 70
     0
102
RTVSPropertyOp44
 70
     0
102
RTVSPropertyOp45
 70
     1
102
RTVSPropertyOp46
 70
     0
102
RTVSPropertyOp47
 70
     0
102
RTVSPropertyOp48
 70
     0
102
RTVSPropertyOp49
 70
     1
102
RTVSPropertyOp50
 70
     0
102
RTVSPropertyOp51
 70
     0
102
RTVSPropertyOp52
 70
     0
102
RTVSPropertyOp53
 70
     0
102
RTVSPropertyOp54
 70
     0
102
RTVSPropertyOp55
 70
     1
102
RTVSPropertyOp56
 70
     0
102
RTVSPropertyOp57
 70
     0
102
RTVSPropertyOp58
 70
     0
102
RTVSPropertyOp59
 70
     0
102
RTVSPropertyOp60
 70
     0
102
RTVSPropertyOp61
 70
     0
102
RTVSPropertyOp62
 70
     0
  0
XRECORD
  5
96E5
102
{ACAD_REACTORS
330
96E4
102
}
330
96E4
100
AcDbXrecord
280
     1
102
RTVSPost2010Prop28
280
     0
102
RTVSPost2010PropOp28
 70
     1
102
RTVSPost2010Prop29
280
     1
102
RTVSPost2010PropOp29
 70
     1
102
RTVSPost2010Prop30
280
     1
102
RTVSPost2010PropOp30
 70
     1
102
RTVSPost2010Prop31
280
     0
102
RTVSPost2010PropOp31
 70
     1
102
RTVSPost2010Prop32
280
     0
102
RTVSPost2010PropOp32
 70
     1
102
RTVSPost2010Prop33
280
     0
102
RTVSPost2010PropOp33
 70
     1
102
RTVSPost2010Prop34
280
     0
102
RTVSPost2010PropOp34
 70
     1
102
RTVSPost2010Prop35
280
     0
102
RTVSPost2010PropOp35
 70
     1
102
RTVSPost2010Prop36
280
     0
102
RTVSPost2010PropOp36
 70
     1
102
RTVSPost2010Prop37
 90
       50
102
RTVSPost2010PropOp37
 70
     1
102
RTVSPost2010Prop38
140
0.0
102
RTVSPost2010PropOp38
 70
     1
102
RTVSPost2010Prop39
140
1.0
102
RTVSPost2010PropOp39
 70
     1
102
RTVSPost2010Prop40
 90
        0
102
RTVSPost2010PropOp40
 70
     1
102
RTVSPost2010Prop41ColorIndex
 90
       18
102
RTVSPost2010Prop41ColorRGB
 90
        0
102
RTVSPost2010PropOp41
 70
     1
102
RTVSPost2010Prop42
 90
       50
102
RTVSPost2010PropOp42
 70
     1
102
RTVSPost2010Prop43
 90
        3
102
RTVSPost2010PropOp43
 70
     1
102
RTVSPost2010Prop44ColorIndex
 90
        5
102
RTVSPost2010Prop44ColorRGB
 90
      255
102
RTVSPost2010PropOp44
 70
     1
102
RTVSPost2010Prop45
280
     0
102
RTVSPost2010PropOp45
 70
     1
102
RTVSPost2010Prop46
 90
       50
102
RTVSPost2010PropOp46
 70
     1
102
RTVSPost2010Prop47
 90
       50
102
RTVSPost2010PropOp47
 70
     1
102
RTVSPost2010Prop48
 90
       50
102
RTVSPost2010PropOp48
 70
     1
102
RTVSPost2010Prop49
280
     0
102
RTVSPost2010PropOp49
 70
     1
102
RTVSPost2010Prop50
 90
       50
102
RTVSPost2010PropOp50
 70
     1
102
RTVSPost2010Prop51ColorIndex
 90
      256
102
RTVSPost2010Prop51ColorRGB
 90
-16777216
102
RTVSPost2010PropOp51
 70
     0
102
RTVSPost2010Prop52
140
1.0
102
RTVSPost2010PropOp52
 70
     0
102
RTVSPost2010Prop53
 90
        2
102
RTVSPost2010PropOp53
 70
     1
102
RTVSPost2010Prop54
  1
strokes_ogs.tif
102
RTVSPost2010PropOp54
 70
     1
102
RTVSPost2010Prop55
280
     0
102
RTVSPost2010PropOp55
 70
     1
102
RTVSPost2010Prop56
140
1.0
102
RTVSPost2010PropOp56
 70
     1
102
RTVSPost2010Prop57
140
1.0
102
RTVSPost2010PropOp57
 70
     1
102
RTVSPropertyOp0
 70
     1
102
RTVSPropertyOp1
 70
     1
102
RTVSPropertyOp2
 70
     1
102
RTVSPropertyOp3
 70
     1
102
RTVSPropertyOp4
 70
     1
102
RTVSPropertyOp5
 70
     1
102
RTVSPropertyOp6
 70
     1
102
RTVSPropertyOp7
 70
     1
102
RTVSPropertyOp8
 70
     1
102
RTVSPropertyOp9
 70
     1
102
RTVSPropertyOp10
 70
     1
102
RTVSPropertyOp11
 70
     1
102
RTVSPropertyOp12
 70
     1
102
RTVSPropertyOp13
 70
     1
102
RTVSPropertyOp14
 70
     1
102
RTVSPropertyOp15
 70
     1
102
RTVSPropertyOp16
 70
     1
102
RTVSPropertyOp17
 70
     1
102
RTVSPropertyOp18
 70
     1
102
RTVSPropertyOp19
 70
     1
102
RTVSPropertyOp20
 70
     1
102
RTVSPropertyOp21
 70
     1
102
RTVSPropertyOp22
 70
     1
102
RTVSPropertyOp23
 70
     1
102
RTVSPropertyOp24
 70
     1
102
RTVSPropertyOp25
 70
     1
102
RTVSPropertyOp26
 70
     1
102
RTVSPropertyOp27
 70
     1
102
RTVSPropertyOp28
 70
     1
102
RTVSPropertyOp29
 70
     1
102
RTVSPropertyOp30
 70
     1
102
RTVSPropertyOp31
 70
     1
102
RTVSPropertyOp32
 70
     1
102
RTVSPropertyOp33
 70
     1
102
RTVSPropertyOp34
 70
     1
102
RTVSPropertyOp35
 70
     1
102
RTVSPropertyOp36
 70
     1
102
RTVSPropertyOp37
 70
     1
102
RTVSPropertyOp38
 70
     1
102
RTVSPropertyOp39
 70
     1
102
RTVSPropertyOp40
 70
     1
102
RTVSPropertyOp41
 70
     1
102
RTVSPropertyOp42
 70
     1
102
RTVSPropertyOp43
 70
     1
102
RTVSPropertyOp44
 70
     1
102
RTVSPropertyOp45
 70
     1
102
RTVSPropertyOp46
 70
     1
102
RTVSPropertyOp47
 70
     1
102
RTVSPropertyOp48
 70
     1
102
RTVSPropertyOp49
 70
     1
102
RTVSPropertyOp50
 70
     1
102
RTVSPropertyOp51
 70
     0
102
RTVSPropertyOp52
 70
     0
102
RTVSPropertyOp53
 70
     1
102
RTVSPropertyOp54
 70
     1
102
RTVSPropertyOp55
 70
     1
102
RTVSPropertyOp56
 70
     1
102
RTVSPropertyOp57
 70
     1
102
RTVSPropertyOp58
 70
     1
102
RTVSPropertyOp59
 70
     1
102
RTVSPropertyOp60
 70
     1
102
RTVSPropertyOp61
 70
     1
102
RTVSPropertyOp62
 70
     1
  0
XRECORD
  5
96FB
102
{ACAD_REACTORS
330
96FA
102
}
330
96FA
100
AcDbXrecord
280
     1
102
RTVSPost2010Prop28
280
     0
102
RTVSPost2010PropOp28
 70
     1
102
RTVSPost2010Prop29
280
     1
102
RTVSPost2010PropOp29
 70
     1
102
RTVSPost2010Prop30
280
     1
102
RTVSPost2010PropOp30
 70
     1
102
RTVSPost2010Prop31
280
     0
102
RTVSPost2010PropOp31
 70
     1
102
RTVSPost2010Prop32
280
     0
102
RTVSPost2010PropOp32
 70
     1
102
RTVSPost2010Prop33
280
     0
102
RTVSPost2010PropOp33
 70
     1
102
RTVSPost2010Prop34
280
     0
102
RTVSPost2010PropOp34
 70
     1
102
RTVSPost2010Prop35
280
     0
102
RTVSPost2010PropOp35
 70
     1
102
RTVSPost2010Prop36
280
     0
102
RTVSPost2010PropOp36
 70
     1
102
RTVSPost2010Prop37
 90
       50
102
RTVSPost2010PropOp37
 70
     1
102
RTVSPost2010Prop38
140
0.0
102
RTVSPost2010PropOp38
 70
     1
102
RTVSPost2010Prop39
140
1.0
102
RTVSPost2010PropOp39
 70
     1
102
RTVSPost2010Prop40
 90
        0
102
RTVSPost2010PropOp40
 70
     1
102
RTVSPost2010Prop41ColorIndex
 90
       18
102
RTVSPost2010Prop41ColorRGB
 90
        0
102
RTVSPost2010PropOp41
 70
     1
102
RTVSPost2010Prop42
 90
       50
102
RTVSPost2010PropOp42
 70
     1
102
RTVSPost2010Prop43
 90
        3
102
RTVSPost2010PropOp43
 70
     1
102
RTVSPost2010Prop44ColorIndex
 90
        5
102
RTVSPost2010Prop44ColorRGB
 90
      255
102
RTVSPost2010PropOp44
 70
     1
102
RTVSPost2010Prop45
280
     0
102
RTVSPost2010PropOp45
 70
     1
102
RTVSPost2010Prop46
 90
       50
102
RTVSPost2010PropOp46
 70
     1
102
RTVSPost2010Prop47
 90
       50
102
RTVSPost2010PropOp47
 70
     1
102
RTVSPost2010Prop48
 90
       50
102
RTVSPost2010PropOp48
 70
     1
102
RTVSPost2010Prop49
280
     0
102
RTVSPost2010PropOp49
 70
     1
102
RTVSPost2010Prop50
 90
       50
102
RTVSPost2010PropOp50
 70
     1
102
RTVSPost2010Prop51ColorIndex
 90
      256
102
RTVSPost2010Prop51ColorRGB
 90
-16777216
102
RTVSPost2010PropOp51
 70
     0
102
RTVSPost2010Prop52
140
1.0
102
RTVSPost2010PropOp52
 70
     0
102
RTVSPost2010Prop53
 90
        2
102
RTVSPost2010PropOp53
 70
     1
102
RTVSPost2010Prop54
  1
strokes_ogs.tif
102
RTVSPost2010PropOp54
 70
     1
102
RTVSPost2010Prop55
280
     0
102
RTVSPost2010PropOp55
 70
     1
102
RTVSPost2010Prop56
140
1.0
102
RTVSPost2010PropOp56
 70
     1
102
RTVSPost2010Prop57
140
1.0
102
RTVSPost2010PropOp57
 70
     1
102
RTVSPropertyOp0
 70
     1
102
RTVSPropertyOp1
 70
     1
102
RTVSPropertyOp2
 70
     1
102
RTVSPropertyOp3
 70
     1
102
RTVSPropertyOp4
 70
     1
102
RTVSPropertyOp5
 70
     1
102
RTVSPropertyOp6
 70
     1
102
RTVSPropertyOp7
 70
     1
102
RTVSPropertyOp8
 70
     1
102
RTVSPropertyOp9
 70
     1
102
RTVSPropertyOp10
 70
     1
102
RTVSPropertyOp11
 70
     1
102
RTVSPropertyOp12
 70
     1
102
RTVSPropertyOp13
 70
     1
102
RTVSPropertyOp14
 70
     1
102
RTVSPropertyOp15
 70
     1
102
RTVSPropertyOp16
 70
     1
102
RTVSPropertyOp17
 70
     1
102
RTVSPropertyOp18
 70
     1
102
RTVSPropertyOp19
 70
     1
102
RTVSPropertyOp20
 70
     1
102
RTVSPropertyOp21
 70
     1
102
RTVSPropertyOp22
 70
     1
102
RTVSPropertyOp23
 70
     1
102
RTVSPropertyOp24
 70
     1
102
RTVSPropertyOp25
 70
     1
102
RTVSPropertyOp26
 70
     1
102
RTVSPropertyOp27
 70
     1
102
RTVSPropertyOp28
 70
     1
102
RTVSPropertyOp29
 70
     1
102
RTVSPropertyOp30
 70
     1
102
RTVSPropertyOp31
 70
     1
102
RTVSPropertyOp32
 70
     1
102
RTVSPropertyOp33
 70
     1
102
RTVSPropertyOp34
 70
     1
102
RTVSPropertyOp35
 70
     1
102
RTVSPropertyOp36
 70
     1
102
RTVSPropertyOp37
 70
     1
102
RTVSPropertyOp38
 70
     1
102
RTVSPropertyOp39
 70
     1
102
RTVSPropertyOp40
 70
     1
102
RTVSPropertyOp41
 70
     1
102
RTVSPropertyOp42
 70
     1
102
RTVSPropertyOp43
 70
     1
102
RTVSPropertyOp44
 70
     1
102
RTVSPropertyOp45
 70
     1
102
RTVSPropertyOp46
 70
     1
102
RTVSPropertyOp47
 70
     1
102
RTVSPropertyOp48
 70
     1
102
RTVSPropertyOp49
 70
     1
102
RTVSPropertyOp50
 70
     1
102
RTVSPropertyOp51
 70
     0
102
RTVSPropertyOp52
 70
     0
102
RTVSPropertyOp53
 70
     1
102
RTVSPropertyOp54
 70
     1
102
RTVSPropertyOp55
 70
     1
102
RTVSPropertyOp56
 70
     1
102
RTVSPropertyOp57
 70
     1
102
RTVSPropertyOp58
 70
     1
102
RTVSPropertyOp59
 70
     1
102
RTVSPropertyOp60
 70
     1
102
RTVSPropertyOp61
 70
     1
102
RTVSPropertyOp62
 70
     1
  0
XRECORD
  5
96F9
102
{ACAD_REACTORS
330
96F8
102
}
330
96F8
100
AcDbXrecord
280
     1
102
RTVSPost2010Prop28
280
     0
102
RTVSPost2010PropOp28
 70
     1
102
RTVSPost2010Prop29
280
     1
102
RTVSPost2010PropOp29
 70
     1
102
RTVSPost2010Prop30
280
     1
102
RTVSPost2010PropOp30
 70
     1
102
RTVSPost2010Prop31
280
     0
102
RTVSPost2010PropOp31
 70
     1
102
RTVSPost2010Prop32
280
     0
102
RTVSPost2010PropOp32
 70
     1
102
RTVSPost2010Prop33
280
     0
102
RTVSPost2010PropOp33
 70
     1
102
RTVSPost2010Prop34
280
     0
102
RTVSPost2010PropOp34
 70
     1
102
RTVSPost2010Prop35
280
     0
102
RTVSPost2010PropOp35
 70
     1
102
RTVSPost2010Prop36
280
     0
102
RTVSPost2010PropOp36
 70
     1
102
RTVSPost2010Prop37
 90
       50
102
RTVSPost2010PropOp37
 70
     1
102
RTVSPost2010Prop38
140
0.0
102
RTVSPost2010PropOp38
 70
     1
102
RTVSPost2010Prop39
140
1.0
102
RTVSPost2010PropOp39
 70
     1
102
RTVSPost2010Prop40
 90
        0
102
RTVSPost2010PropOp40
 70
     1
102
RTVSPost2010Prop41ColorIndex
 90
       18
102
RTVSPost2010Prop41ColorRGB
 90
        0
102
RTVSPost2010PropOp41
 70
     1
102
RTVSPost2010Prop42
 90
       50
102
RTVSPost2010PropOp42
 70
     1
102
RTVSPost2010Prop43
 90
        3
102
RTVSPost2010PropOp43
 70
     1
102
RTVSPost2010Prop44ColorIndex
 90
        5
102
RTVSPost2010Prop44ColorRGB
 90
      255
102
RTVSPost2010PropOp44
 70
     1
102
RTVSPost2010Prop45
280
     0
102
RTVSPost2010PropOp45
 70
     1
102
RTVSPost2010Prop46
 90
       50
102
RTVSPost2010PropOp46
 70
     1
102
RTVSPost2010Prop47
 90
       50
102
RTVSPost2010PropOp47
 70
     1
102
RTVSPost2010Prop48
 90
       50
102
RTVSPost2010PropOp48
 70
     1
102
RTVSPost2010Prop49
280
     0
102
RTVSPost2010PropOp49
 70
     1
102
RTVSPost2010Prop50
 90
       50
102
RTVSPost2010PropOp50
 70
     1
102
RTVSPost2010Prop51ColorIndex
 90
      256
102
RTVSPost2010Prop51ColorRGB
 90
-16777216
102
RTVSPost2010PropOp51
 70
     0
102
RTVSPost2010Prop52
140
1.0
102
RTVSPost2010PropOp52
 70
     0
102
RTVSPost2010Prop53
 90
        2
102
RTVSPost2010PropOp53
 70
     1
102
RTVSPost2010Prop54
  1
strokes_ogs.tif
102
RTVSPost2010PropOp54
 70
     1
102
RTVSPost2010Prop55
280
     0
102
RTVSPost2010PropOp55
 70
     1
102
RTVSPost2010Prop56
140
1.0
102
RTVSPost2010PropOp56
 70
     1
102
RTVSPost2010Prop57
140
1.0
102
RTVSPost2010PropOp57
 70
     1
102
RTVSPropertyOp0
 70
     1
102
RTVSPropertyOp1
 70
     1
102
RTVSPropertyOp2
 70
     1
102
RTVSPropertyOp3
 70
     1
102
RTVSPropertyOp4
 70
     1
102
RTVSPropertyOp5
 70
     1
102
RTVSPropertyOp6
 70
     1
102
RTVSPropertyOp7
 70
     1
102
RTVSPropertyOp8
 70
     1
102
RTVSPropertyOp9
 70
     1
102
RTVSPropertyOp10
 70
     1
102
RTVSPropertyOp11
 70
     1
102
RTVSPropertyOp12
 70
     1
102
RTVSPropertyOp13
 70
     1
102
RTVSPropertyOp14
 70
     1
102
RTVSPropertyOp15
 70
     1
102
RTVSPropertyOp16
 70
     1
102
RTVSPropertyOp17
 70
     1
102
RTVSPropertyOp18
 70
     1
102
RTVSPropertyOp19
 70
     1
102
RTVSPropertyOp20
 70
     1
102
RTVSPropertyOp21
 70
     1
102
RTVSPropertyOp22
 70
     1
102
RTVSPropertyOp23
 70
     1
102
RTVSPropertyOp24
 70
     1
102
RTVSPropertyOp25
 70
     1
102
RTVSPropertyOp26
 70
     1
102
RTVSPropertyOp27
 70
     1
102
RTVSPropertyOp28
 70
     1
102
RTVSPropertyOp29
 70
     1
102
RTVSPropertyOp30
 70
     1
102
RTVSPropertyOp31
 70
     1
102
RTVSPropertyOp32
 70
     1
102
RTVSPropertyOp33
 70
     1
102
RTVSPropertyOp34
 70
     1
102
RTVSPropertyOp35
 70
     1
102
RTVSPropertyOp36
 70
     1
102
RTVSPropertyOp37
 70
     1
102
RTVSPropertyOp38
 70
     1
102
RTVSPropertyOp39
 70
     1
102
RTVSPropertyOp40
 70
     1
102
RTVSPropertyOp41
 70
     1
102
RTVSPropertyOp42
 70
     1
102
RTVSPropertyOp43
 70
     1
102
RTVSPropertyOp44
 70
     1
102
RTVSPropertyOp45
 70
     1
102
RTVSPropertyOp46
 70
     1
102
RTVSPropertyOp47
 70
     1
102
RTVSPropertyOp48
 70
     1
102
RTVSPropertyOp49
 70
     1
102
RTVSPropertyOp50
 70
     1
102
RTVSPropertyOp51
 70
     0
102
RTVSPropertyOp52
 70
     0
102
RTVSPropertyOp53
 70
     1
102
RTVSPropertyOp54
 70
     1
102
RTVSPropertyOp55
 70
     1
102
RTVSPropertyOp56
 70
     1
102
RTVSPropertyOp57
 70
     1
102
RTVSPropertyOp58
 70
     1
102
RTVSPropertyOp59
 70
     1
102
RTVSPropertyOp60
 70
     1
102
RTVSPropertyOp61
 70
     1
102
RTVSPropertyOp62
 70
     1
  0
XRECORD
  5
96F3
102
{ACAD_REACTORS
330
96F2
102
}
330
96F2
100
AcDbXrecord
280
     1
102
RTVSPost2010Prop28
280
     0
102
RTVSPost2010PropOp28
 70
     1
102
RTVSPost2010Prop29
280
     1
102
RTVSPost2010PropOp29
 70
     1
102
RTVSPost2010Prop30
280
     1
102
RTVSPost2010PropOp30
 70
     1
102
RTVSPost2010Prop31
280
     0
102
RTVSPost2010PropOp31
 70
     1
102
RTVSPost2010Prop32
280
     0
102
RTVSPost2010PropOp32
 70
     1
102
RTVSPost2010Prop33
280
     0
102
RTVSPost2010PropOp33
 70
     1
102
RTVSPost2010Prop34
280
     0
102
RTVSPost2010PropOp34
 70
     1
102
RTVSPost2010Prop35
280
     0
102
RTVSPost2010PropOp35
 70
     1
102
RTVSPost2010Prop36
280
     0
102
RTVSPost2010PropOp36
 70
     1
102
RTVSPost2010Prop37
 90
       50
102
RTVSPost2010PropOp37
 70
     1
102
RTVSPost2010Prop38
140
0.0
102
RTVSPost2010PropOp38
 70
     1
102
RTVSPost2010Prop39
140
1.0
102
RTVSPost2010PropOp39
 70
     1
102
RTVSPost2010Prop40
 90
        0
102
RTVSPost2010PropOp40
 70
     1
102
RTVSPost2010Prop41ColorIndex
 90
       18
102
RTVSPost2010Prop41ColorRGB
 90
        0
102
RTVSPost2010PropOp41
 70
     1
102
RTVSPost2010Prop42
 90
       50
102
RTVSPost2010PropOp42
 70
     1
102
RTVSPost2010Prop43
 90
        3
102
RTVSPost2010PropOp43
 70
     1
102
RTVSPost2010Prop44ColorIndex
 90
        5
102
RTVSPost2010Prop44ColorRGB
 90
      255
102
RTVSPost2010PropOp44
 70
     1
102
RTVSPost2010Prop45
280
     0
102
RTVSPost2010PropOp45
 70
     1
102
RTVSPost2010Prop46
 90
       50
102
RTVSPost2010PropOp46
 70
     1
102
RTVSPost2010Prop47
 90
       50
102
RTVSPost2010PropOp47
 70
     1
102
RTVSPost2010Prop48
 90
       50
102
RTVSPost2010PropOp48
 70
     1
102
RTVSPost2010Prop49
280
     0
102
RTVSPost2010PropOp49
 70
     1
102
RTVSPost2010Prop50
 90
       50
102
RTVSPost2010PropOp50
 70
     1
102
RTVSPost2010Prop51ColorIndex
 90
      256
102
RTVSPost2010Prop51ColorRGB
 90
-16777216
102
RTVSPost2010PropOp51
 70
     0
102
RTVSPost2010Prop52
140
1.0
102
RTVSPost2010PropOp52
 70
     0
102
RTVSPost2010Prop53
 90
        2
102
RTVSPost2010PropOp53
 70
     1
102
RTVSPost2010Prop54
  1
strokes_ogs.tif
102
RTVSPost2010PropOp54
 70
     1
102
RTVSPost2010Prop55
280
     0
102
RTVSPost2010PropOp55
 70
     1
102
RTVSPost2010Prop56
140
1.0
102
RTVSPost2010PropOp56
 70
     1
102
RTVSPost2010Prop57
140
1.0
102
RTVSPost2010PropOp57
 70
     1
102
RTVSPropertyOp0
 70
     1
102
RTVSPropertyOp1
 70
     1
102
RTVSPropertyOp2
 70
     1
102
RTVSPropertyOp3
 70
     1
102
RTVSPropertyOp4
 70
     1
102
RTVSPropertyOp5
 70
     1
102
RTVSPropertyOp6
 70
     1
102
RTVSPropertyOp7
 70
     1
102
RTVSPropertyOp8
 70
     1
102
RTVSPropertyOp9
 70
     1
102
RTVSPropertyOp10
 70
     1
102
RTVSPropertyOp11
 70
     1
102
RTVSPropertyOp12
 70
     1
102
RTVSPropertyOp13
 70
     1
102
RTVSPropertyOp14
 70
     1
102
RTVSPropertyOp15
 70
     1
102
RTVSPropertyOp16
 70
     1
102
RTVSPropertyOp17
 70
     1
102
RTVSPropertyOp18
 70
     1
102
RTVSPropertyOp19
 70
     1
102
RTVSPropertyOp20
 70
     1
102
RTVSPropertyOp21
 70
     1
102
RTVSPropertyOp22
 70
     1
102
RTVSPropertyOp23
 70
     1
102
RTVSPropertyOp24
 70
     1
102
RTVSPropertyOp25
 70
     1
102
RTVSPropertyOp26
 70
     1
102
RTVSPropertyOp27
 70
     1
102
RTVSPropertyOp28
 70
     1
102
RTVSPropertyOp29
 70
     1
102
RTVSPropertyOp30
 70
     1
102
RTVSPropertyOp31
 70
     1
102
RTVSPropertyOp32
 70
     1
102
RTVSPropertyOp33
 70
     1
102
RTVSPropertyOp34
 70
     1
102
RTVSPropertyOp35
 70
     1
102
RTVSPropertyOp36
 70
     1
102
RTVSPropertyOp37
 70
     1
102
RTVSPropertyOp38
 70
     1
102
RTVSPropertyOp39
 70
     1
102
RTVSPropertyOp40
 70
     1
102
RTVSPropertyOp41
 70
     1
102
RTVSPropertyOp42
 70
     1
102
RTVSPropertyOp43
 70
     1
102
RTVSPropertyOp44
 70
     1
102
RTVSPropertyOp45
 70
     1
102
RTVSPropertyOp46
 70
     1
102
RTVSPropertyOp47
 70
     1
102
RTVSPropertyOp48
 70
     1
102
RTVSPropertyOp49
 70
     1
102
RTVSPropertyOp50
 70
     1
102
RTVSPropertyOp51
 70
     0
102
RTVSPropertyOp52
 70
     0
102
RTVSPropertyOp53
 70
     1
102
RTVSPropertyOp54
 70
     1
102
RTVSPropertyOp55
 70
     1
102
RTVSPropertyOp56
 70
     1
102
RTVSPropertyOp57
 70
     1
102
RTVSPropertyOp58
 70
     1
102
RTVSPropertyOp59
 70
     1
102
RTVSPropertyOp60
 70
     1
102
RTVSPropertyOp61
 70
     1
102
RTVSPropertyOp62
 70
     1
  0
XRECORD
  5
96F5
102
{ACAD_REACTORS
330
96F4
102
}
330
96F4
100
AcDbXrecord
280
     1
102
RTVSPost2010Prop28
280
     0
102
RTVSPost2010PropOp28
 70
     1
102
RTVSPost2010Prop29
280
     1
102
RTVSPost2010PropOp29
 70
     1
102
RTVSPost2010Prop30
280
     1
102
RTVSPost2010PropOp30
 70
     1
102
RTVSPost2010Prop31
280
     0
102
RTVSPost2010PropOp31
 70
     1
102
RTVSPost2010Prop32
280
     0
102
RTVSPost2010PropOp32
 70
     1
102
RTVSPost2010Prop33
280
     0
102
RTVSPost2010PropOp33
 70
     1
102
RTVSPost2010Prop34
280
     0
102
RTVSPost2010PropOp34
 70
     1
102
RTVSPost2010Prop35
280
     0
102
RTVSPost2010PropOp35
 70
     1
102
RTVSPost2010Prop36
280
     0
102
RTVSPost2010PropOp36
 70
     1
102
RTVSPost2010Prop37
 90
       50
102
RTVSPost2010PropOp37
 70
     1
102
RTVSPost2010Prop38
140
0.0
102
RTVSPost2010PropOp38
 70
     1
102
RTVSPost2010Prop39
140
1.0
102
RTVSPost2010PropOp39
 70
     1
102
RTVSPost2010Prop40
 90
        0
102
RTVSPost2010PropOp40
 70
     1
102
RTVSPost2010Prop41ColorIndex
 90
       18
102
RTVSPost2010Prop41ColorRGB
 90
        0
102
RTVSPost2010PropOp41
 70
     1
102
RTVSPost2010Prop42
 90
       50
102
RTVSPost2010PropOp42
 70
     1
102
RTVSPost2010Prop43
 90
        3
102
RTVSPost2010PropOp43
 70
     1
102
RTVSPost2010Prop44ColorIndex
 90
        5
102
RTVSPost2010Prop44ColorRGB
 90
      255
102
RTVSPost2010PropOp44
 70
     1
102
RTVSPost2010Prop45
280
     0
102
RTVSPost2010PropOp45
 70
     1
102
RTVSPost2010Prop46
 90
       50
102
RTVSPost2010PropOp46
 70
     1
102
RTVSPost2010Prop47
 90
       50
102
RTVSPost2010PropOp47
 70
     1
102
RTVSPost2010Prop48
 90
       50
102
RTVSPost2010PropOp48
 70
     1
102
RTVSPost2010Prop49
280
     0
102
RTVSPost2010PropOp49
 70
     1
102
RTVSPost2010Prop50
 90
       50
102
RTVSPost2010PropOp50
 70
     1
102
RTVSPost2010Prop51ColorIndex
 90
      256
102
RTVSPost2010Prop51ColorRGB
 90
-16777216
102
RTVSPost2010PropOp51
 70
     0
102
RTVSPost2010Prop52
140
1.0
102
RTVSPost2010PropOp52
 70
     0
102
RTVSPost2010Prop53
 90
        2
102
RTVSPost2010PropOp53
 70
     1
102
RTVSPost2010Prop54
  1
strokes_ogs.tif
102
RTVSPost2010PropOp54
 70
     1
102
RTVSPost2010Prop55
280
     0
102
RTVSPost2010PropOp55
 70
     1
102
RTVSPost2010Prop56
140
1.0
102
RTVSPost2010PropOp56
 70
     1
102
RTVSPost2010Prop57
140
1.0
102
RTVSPost2010PropOp57
 70
     1
102
RTVSPropertyOp0
 70
     1
102
RTVSPropertyOp1
 70
     1
102
RTVSPropertyOp2
 70
     1
102
RTVSPropertyOp3
 70
     1
102
RTVSPropertyOp4
 70
     1
102
RTVSPropertyOp5
 70
     1
102
RTVSPropertyOp6
 70
     1
102
RTVSPropertyOp7
 70
     1
102
RTVSPropertyOp8
 70
     1
102
RTVSPropertyOp9
 70
     1
102
RTVSPropertyOp10
 70
     1
102
RTVSPropertyOp11
 70
     1
102
RTVSPropertyOp12
 70
     1
102
RTVSPropertyOp13
 70
     1
102
RTVSPropertyOp14
 70
     1
102
RTVSPropertyOp15
 70
     1
102
RTVSPropertyOp16
 70
     1
102
RTVSPropertyOp17
 70
     1
102
RTVSPropertyOp18
 70
     1
102
RTVSPropertyOp19
 70
     1
102
RTVSPropertyOp20
 70
     1
102
RTVSPropertyOp21
 70
     1
102
RTVSPropertyOp22
 70
     1
102
RTVSPropertyOp23
 70
     1
102
RTVSPropertyOp24
 70
     1
102
RTVSPropertyOp25
 70
     1
102
RTVSPropertyOp26
 70
     1
102
RTVSPropertyOp27
 70
     1
102
RTVSPropertyOp28
 70
     1
102
RTVSPropertyOp29
 70
     1
102
RTVSPropertyOp30
 70
     1
102
RTVSPropertyOp31
 70
     1
102
RTVSPropertyOp32
 70
     1
102
RTVSPropertyOp33
 70
     1
102
RTVSPropertyOp34
 70
     1
102
RTVSPropertyOp35
 70
     1
102
RTVSPropertyOp36
 70
     1
102
RTVSPropertyOp37
 70
     1
102
RTVSPropertyOp38
 70
     1
102
RTVSPropertyOp39
 70
     1
102
RTVSPropertyOp40
 70
     1
102
RTVSPropertyOp41
 70
     1
102
RTVSPropertyOp42
 70
     1
102
RTVSPropertyOp43
 70
     1
102
RTVSPropertyOp44
 70
     1
102
RTVSPropertyOp45
 70
     1
102
RTVSPropertyOp46
 70
     1
102
RTVSPropertyOp47
 70
     1
102
RTVSPropertyOp48
 70
     1
102
RTVSPropertyOp49
 70
     1
102
RTVSPropertyOp50
 70
     1
102
RTVSPropertyOp51
 70
     0
102
RTVSPropertyOp52
 70
     0
102
RTVSPropertyOp53
 70
     1
102
RTVSPropertyOp54
 70
     1
102
RTVSPropertyOp55
 70
     1
102
RTVSPropertyOp56
 70
     1
102
RTVSPropertyOp57
 70
     1
102
RTVSPropertyOp58
 70
     1
102
RTVSPropertyOp59
 70
     1
102
RTVSPropertyOp60
 70
     1
102
RTVSPropertyOp61
 70
     1
102
RTVSPropertyOp62
 70
     1
  0
XRECORD
  5
96EB
102
{ACAD_REACTORS
330
96EA
102
}
330
96EA
100
AcDbXrecord
280
     1
102
RTVSPost2010Prop28
280
     0
102
RTVSPost2010PropOp28
 70
     1
102
RTVSPost2010Prop29
280
     1
102
RTVSPost2010PropOp29
 70
     1
102
RTVSPost2010Prop30
280
     1
102
RTVSPost2010PropOp30
 70
     1
102
RTVSPost2010Prop31
280
     0
102
RTVSPost2010PropOp31
 70
     1
102
RTVSPost2010Prop32
280
     0
102
RTVSPost2010PropOp32
 70
     1
102
RTVSPost2010Prop33
280
     0
102
RTVSPost2010PropOp33
 70
     1
102
RTVSPost2010Prop34
280
     0
102
RTVSPost2010PropOp34
 70
     1
102
RTVSPost2010Prop35
280
     0
102
RTVSPost2010PropOp35
 70
     1
102
RTVSPost2010Prop36
280
     0
102
RTVSPost2010PropOp36
 70
     1
102
RTVSPost2010Prop37
 90
       50
102
RTVSPost2010PropOp37
 70
     1
102
RTVSPost2010Prop38
140
0.0
102
RTVSPost2010PropOp38
 70
     1
102
RTVSPost2010Prop39
140
1.0
102
RTVSPost2010PropOp39
 70
     1
102
RTVSPost2010Prop40
 90
        0
102
RTVSPost2010PropOp40
 70
     1
102
RTVSPost2010Prop41ColorIndex
 90
       18
102
RTVSPost2010Prop41ColorRGB
 90
        0
102
RTVSPost2010PropOp41
 70
     1
102
RTVSPost2010Prop42
 90
       50
102
RTVSPost2010PropOp42
 70
     1
102
RTVSPost2010Prop43
 90
        3
102
RTVSPost2010PropOp43
 70
     1
102
RTVSPost2010Prop44ColorIndex
 90
        5
102
RTVSPost2010Prop44ColorRGB
 90
      255
102
RTVSPost2010PropOp44
 70
     1
102
RTVSPost2010Prop45
280
     0
102
RTVSPost2010PropOp45
 70
     1
102
RTVSPost2010Prop46
 90
       50
102
RTVSPost2010PropOp46
 70
     1
102
RTVSPost2010Prop47
 90
       50
102
RTVSPost2010PropOp47
 70
     1
102
RTVSPost2010Prop48
 90
       50
102
RTVSPost2010PropOp48
 70
     1
102
RTVSPost2010Prop49
280
     0
102
RTVSPost2010PropOp49
 70
     1
102
RTVSPost2010Prop50
 90
       50
102
RTVSPost2010PropOp50
 70
     1
102
RTVSPost2010Prop51ColorIndex
 90
      256
102
RTVSPost2010Prop51ColorRGB
 90
-16777216
102
RTVSPost2010PropOp51
 70
     0
102
RTVSPost2010Prop52
140
1.0
102
RTVSPost2010PropOp52
 70
     0
102
RTVSPost2010Prop53
 90
        2
102
RTVSPost2010PropOp53
 70
     1
102
RTVSPost2010Prop54
  1
strokes_ogs.tif
102
RTVSPost2010PropOp54
 70
     1
102
RTVSPost2010Prop55
280
     0
102
RTVSPost2010PropOp55
 70
     1
102
RTVSPost2010Prop56
140
1.0
102
RTVSPost2010PropOp56
 70
     1
102
RTVSPost2010Prop57
140
1.0
102
RTVSPost2010PropOp57
 70
     1
102
RTVSPropertyOp0
 70
     1
102
RTVSPropertyOp1
 70
     1
102
RTVSPropertyOp2
 70
     1
102
RTVSPropertyOp3
 70
     1
102
RTVSPropertyOp4
 70
     1
102
RTVSPropertyOp5
 70
     1
102
RTVSPropertyOp6
 70
     1
102
RTVSPropertyOp7
 70
     1
102
RTVSPropertyOp8
 70
     1
102
RTVSPropertyOp9
 70
     1
102
RTVSPropertyOp10
 70
     1
102
RTVSPropertyOp11
 70
     1
102
RTVSPropertyOp12
 70
     1
102
RTVSPropertyOp13
 70
     1
102
RTVSPropertyOp14
 70
     1
102
RTVSPropertyOp15
 70
     1
102
RTVSPropertyOp16
 70
     1
102
RTVSPropertyOp17
 70
     1
102
RTVSPropertyOp18
 70
     1
102
RTVSPropertyOp19
 70
     1
102
RTVSPropertyOp20
 70
     1
102
RTVSPropertyOp21
 70
     1
102
RTVSPropertyOp22
 70
     1
102
RTVSPropertyOp23
 70
     1
102
RTVSPropertyOp24
 70
     1
102
RTVSPropertyOp25
 70
     1
102
RTVSPropertyOp26
 70
     1
102
RTVSPropertyOp27
 70
     1
102
RTVSPropertyOp28
 70
     1
102
RTVSPropertyOp29
 70
     1
102
RTVSPropertyOp30
 70
     1
102
RTVSPropertyOp31
 70
     1
102
RTVSPropertyOp32
 70
     1
102
RTVSPropertyOp33
 70
     1
102
RTVSPropertyOp34
 70
     1
102
RTVSPropertyOp35
 70
     1
102
RTVSPropertyOp36
 70
     1
102
RTVSPropertyOp37
 70
     1
102
RTVSPropertyOp38
 70
     1
102
RTVSPropertyOp39
 70
     1
102
RTVSPropertyOp40
 70
     1
102
RTVSPropertyOp41
 70
     1
102
RTVSPropertyOp42
 70
     1
102
RTVSPropertyOp43
 70
     1
102
RTVSPropertyOp44
 70
     1
102
RTVSPropertyOp45
 70
     1
102
RTVSPropertyOp46
 70
     1
102
RTVSPropertyOp47
 70
     1
102
RTVSPropertyOp48
 70
     1
102
RTVSPropertyOp49
 70
     1
102
RTVSPropertyOp50
 70
     1
102
RTVSPropertyOp51
 70
     0
102
RTVSPropertyOp52
 70
     0
102
RTVSPropertyOp53
 70
     1
102
RTVSPropertyOp54
 70
     1
102
RTVSPropertyOp55
 70
     1
102
RTVSPropertyOp56
 70
     1
102
RTVSPropertyOp57
 70
     1
102
RTVSPropertyOp58
 70
     1
102
RTVSPropertyOp59
 70
     1
102
RTVSPropertyOp60
 70
     1
102
RTVSPropertyOp61
 70
     1
102
RTVSPropertyOp62
 70
     1
  0
XRECORD
  5
96DF
102
{ACAD_REACTORS
330
96DE
102
}
330
96DE
100
AcDbXrecord
280
     1
102
RTVSPost2010Prop28
280
     0
102
RTVSPost2010PropOp28
 70
     1
102
RTVSPost2010Prop29
280
     1
102
RTVSPost2010PropOp29
 70
     1
102
RTVSPost2010Prop30
280
     1
102
RTVSPost2010PropOp30
 70
     1
102
RTVSPost2010Prop31
280
     0
102
RTVSPost2010PropOp31
 70
     1
102
RTVSPost2010Prop32
280
     0
102
RTVSPost2010PropOp32
 70
     1
102
RTVSPost2010Prop33
280
     0
102
RTVSPost2010PropOp33
 70
     1
102
RTVSPost2010Prop34
280
     0
102
RTVSPost2010PropOp34
 70
     1
102
RTVSPost2010Prop35
280
     0
102
RTVSPost2010PropOp35
 70
     1
102
RTVSPost2010Prop36
280
     0
102
RTVSPost2010PropOp36
 70
     1
102
RTVSPost2010Prop37
 90
       50
102
RTVSPost2010PropOp37
 70
     1
102
RTVSPost2010Prop38
140
0.0
102
RTVSPost2010PropOp38
 70
     1
102
RTVSPost2010Prop39
140
1.0
102
RTVSPost2010PropOp39
 70
     1
102
RTVSPost2010Prop40
 90
        0
102
RTVSPost2010PropOp40
 70
     1
102
RTVSPost2010Prop41ColorIndex
 90
       18
102
RTVSPost2010Prop41ColorRGB
 90
        0
102
RTVSPost2010PropOp41
 70
     1
102
RTVSPost2010Prop42
 90
       50
102
RTVSPost2010PropOp42
 70
     1
102
RTVSPost2010Prop43
 90
        3
102
RTVSPost2010PropOp43
 70
     1
102
RTVSPost2010Prop44ColorIndex
 90
        5
102
RTVSPost2010Prop44ColorRGB
 90
      255
102
RTVSPost2010PropOp44
 70
     1
102
RTVSPost2010Prop45
280
     0
102
RTVSPost2010PropOp45
 70
     1
102
RTVSPost2010Prop46
 90
       50
102
RTVSPost2010PropOp46
 70
     1
102
RTVSPost2010Prop47
 90
       50
102
RTVSPost2010PropOp47
 70
     1
102
RTVSPost2010Prop48
 90
       50
102
RTVSPost2010PropOp48
 70
     1
102
RTVSPost2010Prop49
280
     0
102
RTVSPost2010PropOp49
 70
     1
102
RTVSPost2010Prop50
 90
       50
102
RTVSPost2010PropOp50
 70
     1
102
RTVSPost2010Prop51ColorIndex
 90
      256
102
RTVSPost2010Prop51ColorRGB
 90
-16777216
102
RTVSPost2010PropOp51
 70
     0
102
RTVSPost2010Prop52
140
1.0
102
RTVSPost2010PropOp52
 70
     0
102
RTVSPost2010Prop53
 90
        2
102
RTVSPost2010PropOp53
 70
     1
102
RTVSPost2010Prop54
  1
strokes_ogs.tif
102
RTVSPost2010PropOp54
 70
     1
102
RTVSPost2010Prop55
280
     0
102
RTVSPost2010PropOp55
 70
     1
102
RTVSPost2010Prop56
140
1.0
102
RTVSPost2010PropOp56
 70
     1
102
RTVSPost2010Prop57
140
1.0
102
RTVSPost2010PropOp57
 70
     1
102
RTVSPropertyOp0
 70
     1
102
RTVSPropertyOp1
 70
     1
102
RTVSPropertyOp2
 70
     1
102
RTVSPropertyOp3
 70
     1
102
RTVSPropertyOp4
 70
     1
102
RTVSPropertyOp5
 70
     1
102
RTVSPropertyOp6
 70
     1
102
RTVSPropertyOp7
 70
     1
102
RTVSPropertyOp8
 70
     1
102
RTVSPropertyOp9
 70
     1
102
RTVSPropertyOp10
 70
     1
102
RTVSPropertyOp11
 70
     1
102
RTVSPropertyOp12
 70
     1
102
RTVSPropertyOp13
 70
     1
102
RTVSPropertyOp14
 70
     1
102
RTVSPropertyOp15
 70
     1
102
RTVSPropertyOp16
 70
     1
102
RTVSPropertyOp17
 70
     1
102
RTVSPropertyOp18
 70
     1
102
RTVSPropertyOp19
 70
     1
102
RTVSPropertyOp20
 70
     1
102
RTVSPropertyOp21
 70
     1
102
RTVSPropertyOp22
 70
     1
102
RTVSPropertyOp23
 70
     1
102
RTVSPropertyOp24
 70
     1
102
RTVSPropertyOp25
 70
     1
102
RTVSPropertyOp26
 70
     1
102
RTVSPropertyOp27
 70
     1
102
RTVSPropertyOp28
 70
     1
102
RTVSPropertyOp29
 70
     1
102
RTVSPropertyOp30
 70
     1
102
RTVSPropertyOp31
 70
     1
102
RTVSPropertyOp32
 70
     1
102
RTVSPropertyOp33
 70
     1
102
RTVSPropertyOp34
 70
     1
102
RTVSPropertyOp35
 70
     1
102
RTVSPropertyOp36
 70
     1
102
RTVSPropertyOp37
 70
     1
102
RTVSPropertyOp38
 70
     1
102
RTVSPropertyOp39
 70
     1
102
RTVSPropertyOp40
 70
     1
102
RTVSPropertyOp41
 70
     1
102
RTVSPropertyOp42
 70
     1
102
RTVSPropertyOp43
 70
     1
102
RTVSPropertyOp44
 70
     1
102
RTVSPropertyOp45
 70
     1
102
RTVSPropertyOp46
 70
     1
102
RTVSPropertyOp47
 70
     1
102
RTVSPropertyOp48
 70
     1
102
RTVSPropertyOp49
 70
     1
102
RTVSPropertyOp50
 70
     1
102
RTVSPropertyOp51
 70
     0
102
RTVSPropertyOp52
 70
     0
102
RTVSPropertyOp53
 70
     1
102
RTVSPropertyOp54
 70
     1
102
RTVSPropertyOp55
 70
     1
102
RTVSPropertyOp56
 70
     1
102
RTVSPropertyOp57
 70
     1
102
RTVSPropertyOp58
 70
     1
102
RTVSPropertyOp59
 70
     1
102
RTVSPropertyOp60
 70
     1
102
RTVSPropertyOp61
 70
     1
102
RTVSPropertyOp62
 70
     1
  0
XRECORD
  5
96F7
102
{ACAD_REACTORS
330
96F6
102
}
330
96F6
100
AcDbXrecord
280
     1
102
RTVSPost2010Prop28
280
     0
102
RTVSPost2010PropOp28
 70
     1
102
RTVSPost2010Prop29
280
     1
102
RTVSPost2010PropOp29
 70
     1
102
RTVSPost2010Prop30
280
     1
102
RTVSPost2010PropOp30
 70
     1
102
RTVSPost2010Prop31
280
     0
102
RTVSPost2010PropOp31
 70
     1
102
RTVSPost2010Prop32
280
     0
102
RTVSPost2010PropOp32
 70
     1
102
RTVSPost2010Prop33
280
     0
102
RTVSPost2010PropOp33
 70
     1
102
RTVSPost2010Prop34
280
     0
102
RTVSPost2010PropOp34
 70
     1
102
RTVSPost2010Prop35
280
     0
102
RTVSPost2010PropOp35
 70
     1
102
RTVSPost2010Prop36
280
     0
102
RTVSPost2010PropOp36
 70
     1
102
RTVSPost2010Prop37
 90
       50
102
RTVSPost2010PropOp37
 70
     1
102
RTVSPost2010Prop38
140
0.0
102
RTVSPost2010PropOp38
 70
     1
102
RTVSPost2010Prop39
140
1.0
102
RTVSPost2010PropOp39
 70
     1
102
RTVSPost2010Prop40
 90
        0
102
RTVSPost2010PropOp40
 70
     1
102
RTVSPost2010Prop41ColorIndex
 90
       18
102
RTVSPost2010Prop41ColorRGB
 90
        0
102
RTVSPost2010PropOp41
 70
     1
102
RTVSPost2010Prop42
 90
       50
102
RTVSPost2010PropOp42
 70
     1
102
RTVSPost2010Prop43
 90
        3
102
RTVSPost2010PropOp43
 70
     1
102
RTVSPost2010Prop44ColorIndex
 90
        5
102
RTVSPost2010Prop44ColorRGB
 90
      255
102
RTVSPost2010PropOp44
 70
     1
102
RTVSPost2010Prop45
280
     0
102
RTVSPost2010PropOp45
 70
     1
102
RTVSPost2010Prop46
 90
       50
102
RTVSPost2010PropOp46
 70
     1
102
RTVSPost2010Prop47
 90
       50
102
RTVSPost2010PropOp47
 70
     1
102
RTVSPost2010Prop48
 90
       50
102
RTVSPost2010PropOp48
 70
     1
102
RTVSPost2010Prop49
280
     0
102
RTVSPost2010PropOp49
 70
     1
102
RTVSPost2010Prop50
 90
       50
102
RTVSPost2010PropOp50
 70
     1
102
RTVSPost2010Prop51ColorIndex
 90
      256
102
RTVSPost2010Prop51ColorRGB
 90
-16777216
102
RTVSPost2010PropOp51
 70
     0
102
RTVSPost2010Prop52
140
1.0
102
RTVSPost2010PropOp52
 70
     0
102
RTVSPost2010Prop53
 90
        2
102
RTVSPost2010PropOp53
 70
     1
102
RTVSPost2010Prop54
  1
strokes_ogs.tif
102
RTVSPost2010PropOp54
 70
     1
102
RTVSPost2010Prop55
280
     0
102
RTVSPost2010PropOp55
 70
     1
102
RTVSPost2010Prop56
140
1.0
102
RTVSPost2010PropOp56
 70
     1
102
RTVSPost2010Prop57
140
1.0
102
RTVSPost2010PropOp57
 70
     1
102
RTVSPropertyOp0
 70
     1
102
RTVSPropertyOp1
 70
     1
102
RTVSPropertyOp2
 70
     1
102
RTVSPropertyOp3
 70
     1
102
RTVSPropertyOp4
 70
     1
102
RTVSPropertyOp5
 70
     1
102
RTVSPropertyOp6
 70
     1
102
RTVSPropertyOp7
 70
     1
102
RTVSPropertyOp8
 70
     1
102
RTVSPropertyOp9
 70
     1
102
RTVSPropertyOp10
 70
     1
102
RTVSPropertyOp11
 70
     1
102
RTVSPropertyOp12
 70
     1
102
RTVSPropertyOp13
 70
     1
102
RTVSPropertyOp14
 70
     1
102
RTVSPropertyOp15
 70
     1
102
RTVSPropertyOp16
 70
     1
102
RTVSPropertyOp17
 70
     1
102
RTVSPropertyOp18
 70
     1
102
RTVSPropertyOp19
 70
     1
102
RTVSPropertyOp20
 70
     1
102
RTVSPropertyOp21
 70
     1
102
RTVSPropertyOp22
 70
     1
102
RTVSPropertyOp23
 70
     1
102
RTVSPropertyOp24
 70
     1
102
RTVSPropertyOp25
 70
     1
102
RTVSPropertyOp26
 70
     1
102
RTVSPropertyOp27
 70
     1
102
RTVSPropertyOp28
 70
     1
102
RTVSPropertyOp29
 70
     1
102
RTVSPropertyOp30
 70
     1
102
RTVSPropertyOp31
 70
     1
102
RTVSPropertyOp32
 70
     1
102
RTVSPropertyOp33
 70
     1
102
RTVSPropertyOp34
 70
     1
102
RTVSPropertyOp35
 70
     1
102
RTVSPropertyOp36
 70
     1
102
RTVSPropertyOp37
 70
     1
102
RTVSPropertyOp38
 70
     1
102
RTVSPropertyOp39
 70
     1
102
RTVSPropertyOp40
 70
     1
102
RTVSPropertyOp41
 70
     1
102
RTVSPropertyOp42
 70
     1
102
RTVSPropertyOp43
 70
     1
102
RTVSPropertyOp44
 70
     1
102
RTVSPropertyOp45
 70
     1
102
RTVSPropertyOp46
 70
     1
102
RTVSPropertyOp47
 70
     1
102
RTVSPropertyOp48
 70
     1
102
RTVSPropertyOp49
 70
     1
102
RTVSPropertyOp50
 70
     1
102
RTVSPropertyOp51
 70
     0
102
RTVSPropertyOp52
 70
     0
102
RTVSPropertyOp53
 70
     1
102
RTVSPropertyOp54
 70
     1
102
RTVSPropertyOp55
 70
     1
102
RTVSPropertyOp56
 70
     1
102
RTVSPropertyOp57
 70
     1
102
RTVSPropertyOp58
 70
     1
102
RTVSPropertyOp59
 70
     1
102
RTVSPropertyOp60
 70
     1
102
RTVSPropertyOp61
 70
     1
102
RTVSPropertyOp62
 70
     1
  0
ENDSEC
  0
EOF
