  0
SECTION
  2
HEADER
  9
$ACADVER
  1
AC1024
  9
$DWGCODEPAGE
  3
ANSI_932
  9
$LTSCALE
 40
20.0
  9
$FILLMODE
 70
     1
  9
$CLAYER
  8
0
  9
$PDMODE
 70
     0
  9
$SPLFRAME
 70
     0
  9
$SPLINETYPE
 70
     6
  9
$SPLINESEGS
 70
     8
  9
$DIMASZ
 40
2.000000
  9
$DIMEXE
 40
1.500000
  9
$DIMEXO
 40
0.800000
  9
$DIMTAD
 70
     1
  9
$DIMTIH
 70
     0
  9
$DIMTOH
 70
     0
  9
$DIMTVP
 40
0.500000
  9
$DIMTXT
 40
3.100000
  9
$EXTMIN
 10
0.000000
 20
0.000000
 30
0.000000
  9
$EXTMAX
 10
297.000000
 20
420.000000
 30
0.000000
  9
$MEASUREMENT
 70
  1
  9
$LIMMIN
 10
0.000000
 20
0.000000
  9
$LIMMAX
 10
297.000000
 20
420.000000
  9
$HANDSEED
  5
140
  9
$LWDISPLAY
290
     0
  9
$DIMBLK
  1
_OPEN
  9
$DIMDEC
 70
     2
  9
$DIMADEC
 70
     2
  9
$DIMAUNIT
 70
     0
  9
$DIMZIN
 70
     8
  9
$DIMAZIN
 70
     2
  9
$DIMTOFL
 70
     1
  0
ENDSEC
  0
SECTION
  2
CLASSES
  0
ENDSEC
  0
SECTION
  2
TABLES
  0
TABLE
  2
VPORT
  5
108
100
AcDbSymbolTable
 70
     1
  0
VPORT
  5
109
100
AcDbSymbolTableRecord
100
AcDbViewportTableRecord
  2
*ACTIVE
 70
     0
 12
203.530560
 22
121.642463
 40
207.284924
 41
1.867290
  0
ENDTAB
  0
TABLE
  2
LTYPE
  5
10A
100
AcDbSymbolTable
 70
     2
  0
LTYPE
  5
10B
100
AcDbSymbolTableRecord
100
AcDbLinetypeTableRecord
  2
BYBLOCK
 70
     0
  3

 72
    65
 73
     0
 40
0.0
  0
LTYPE
  5
10C
100
AcDbSymbolTableRecord
100
AcDbLinetypeTableRecord
  2
BYLAYER
 70
     0
  3

 72
    65
 73
     0
 40
0.0
  0
LTYPE
  5
10D
100
AcDbSymbolTableRecord
100
AcDbLinetypeTableRecord
  2
CONTINUOUS
 70
     0
  3
Solid line (NEC CAE2D for Win R18.0 : 2023.11.28)
 72
    65
 73
     0
 40
0.0
  0
LTYPE
  5
10E
100
AcDbSymbolTableRecord
100
AcDbLinetypeTableRecord
  2
CENTER
 70
     0
  3
____ _ ____ _ ____ _ ____ _ ____ _ ____
 72
    65
 73
     4
 40
2.0
 49
1.25
 74
     0
 49
-0.25
 74
     0
 49
0.25
 74
     0
 49
-0.25
 74
     0
  0
ENDTAB
  0
TABLE
  2
LAYER
  5
10F
100
AcDbSymbolTable
 70
    18
  0
LAYER
  5
110
100
AcDbSymbolTableRecord
100
AcDbLayerTableRecord
  2
0
 70
     0
 62
     7
  6
CONTINUOUS
370
    -3
390

  0
LAYER
  5
111
100
AcDbSymbolTableRecord
100
AcDbLayerTableRecord
  2
DXF0
 70
     0
 62
     7
  6
CONTINUOUS
370
    -3
390

  0
LAYER
  5
112
100
AcDbSymbolTableRecord
100
AcDbLayerTableRecord
  2
DXF0
 70
     0
 62
     7
  6
CONTINUOUS
370
    -3
390

  0
LAYER
  5
113
100
AcDbSymbolTableRecord
100
AcDbLayerTableRecord
  2
A0
 70
     0
 62
     9
  6
CONTINUOUS
370
    -3
390

  0
LAYER
  5
114
100
AcDbSymbolTableRecord
100
AcDbLayerTableRecord
  2
A2
 70
     0
 62
     9
  6
CONTINUOUS
370
    -3
390

  0
LAYER
  5
115
100
AcDbSymbolTableRecord
100
AcDbLayerTableRecord
  2
A4
 70
     0
 62
     9
  6
CONTINUOUS
370
    -3
390

  0
LAYER
  5
116
100
AcDbSymbolTableRecord
100
AcDbLayerTableRecord
  2
A5
 70
     0
 62
     8
  6
CONTINUOUS
370
    -3
390

  0
LAYER
  5
117
100
AcDbSymbolTableRecord
100
AcDbLayerTableRecord
  2
A6
 70
     0
 62
    12
  6
CONTINUOUS
370
    -3
390

  0
LAYER
  5
118
100
AcDbSymbolTableRecord
100
AcDbLayerTableRecord
  2
A8
 70
     0
 62
    10
  6
CONTINUOUS
370
    -3
390

  0
LAYER
  5
119
100
AcDbSymbolTableRecord
100
AcDbLayerTableRecord
  2
A9
 70
     0
 62
     9
  6
CONTINUOUS
370
    -3
390

  0
LAYER
  5
11A
100
AcDbSymbolTableRecord
100
AcDbLayerTableRecord
  2
A10
 70
     0
 62
     6
  6
CONTINUOUS
370
    -3
390

  0
LAYER
  5
11B
100
AcDbSymbolTableRecord
100
AcDbLayerTableRecord
  2
A20
 70
     0
 62
     1
  6
CONTINUOUS
370
    -3
390

  0
LAYER
  5
11C
100
AcDbSymbolTableRecord
100
AcDbLayerTableRecord
  2
A30
 70
     0
 62
     1
  6
CONTINUOUS
370
    -3
390

  0
LAYER
  5
11D
100
AcDbSymbolTableRecord
100
AcDbLayerTableRecord
  2
A40
 70
     0
 62
     9
  6
CONTINUOUS
370
    -3
390

  0
LAYER
  5
11E
100
AcDbSymbolTableRecord
100
AcDbLayerTableRecord
  2
A50
 70
     0
 62
    12
  6
CONTINUOUS
370
    -3
390

  0
LAYER
  5
11F
100
AcDbSymbolTableRecord
100
AcDbLayerTableRecord
  2
A1023
 70
     0
 62
     8
  6
CONTINUOUS
370
    -3
390

  0
LAYER
  5
120
100
AcDbSymbolTableRecord
100
AcDbLayerTableRecord
  2
DXF1023
 70
     0
 62
     8
  6
CONTINUOUS
370
    -3
390

  0
LAYER
  5
121
100
AcDbSymbolTableRecord
100
AcDbLayerTableRecord
  2
DXF1023
 70
     0
 62
    16
  6
CONTINUOUS
370
    -3
390

  0
ENDTAB
  0
TABLE
  2
STYLE
  5
122
100
AcDbSymbolTable
 70
     4
  0
STYLE
  5
123
100
AcDbSymbolTableRecord
100
AcDbTextStyleTableRecord
  2
STANDARD
 70
    64
 40
0.0
 41
1.0
 50
0.0
 71
     0
 42
3.000000000000000
  3
TXT
  4

  0
STYLE
  5
124
100
AcDbSymbolTableRecord
100
AcDbTextStyleTableRecord
  2
ANKTATE
 70
    68
 40
0.0
 41
1.0
 50
0.0
 71
     0
 42
3.000000000000000
  3
TXT
  4

  0
STYLE
  5
125
100
AcDbSymbolTableRecord
100
AcDbTextStyleTableRecord
  2
KNJYOKO
 70
    64
 40
0.0
 41
1.0
 50
0.0
 71
     0
 42
3.000000000000000
  3
TXT
  4
BIGFONT
  0
STYLE
  5
126
100
AcDbSymbolTableRecord
100
AcDbTextStyleTableRecord
  2
KNJTATE
 70
    68
 40
0.0
 41
1.0
 50
0.0
 71
     0
 42
3.000000000000000
  3
TXT
  4
BIGFONT
  0
ENDTAB
  0
TABLE
  2
VIEW
  5
127
100
AcDbSymbolTable
 70
     0
  0
ENDTAB
  0
TABLE
  2
UCS
  5
128
100
AcDbSymbolTable
 70
     0
  0
ENDTAB
  0
TABLE
  2
APPID
  5
129
100
AcDbSymbolTable
 70
     1
  0
APPID
  5
12A
100
AcDbSymbolTableRecord
100
AcDbRegAppTableRecord
  2
ACAD
 70
     0
  0
ENDTAB
  0
TABLE
  2
DIMSTYLE
  5
12B
100
AcDbSymbolTable
 70
     2
100
AcDbDimStyleTable
  0
DIMSTYLE
105
12C
100
AcDbSymbolTableRecord
100
AcDbDimStyleTableRecord
  2
STANDARD
 70
     0
 41
2.000000
 44
1.500000
 42
0.800000
145
0.661290
140
3.100000
144
1.000000
146
0.645161
340
123
  0
DIMSTYLE
105
12D
100
AcDbSymbolTableRecord
100
AcDbDimStyleTableRecord
  2
DXF001
 70
     0
 41
2.000000
 44
1.500000
 42
0.800000
145
0.661290
140
3.100000
144
1.000000
146
0.645161
 77
     1
 73
     0
 74
     0
271
     2
179
     2
275
     0
 78
     8
 79
     2
172
     1
340
123
  0
ENDTAB
  0
TABLE
  2
BLOCK_RECORD
  5
12E
100
AcDbSymbolTable
 70
    12
  0
BLOCK_RECORD
  5
12F
100
AcDbSymbolTableRecord
100
AcDbBlockTableRecord
  2
*MODEL_SPACE
  0
BLOCK_RECORD
  5
130
100
AcDbSymbolTableRecord
100
AcDbBlockTableRecord
  2
*PAPER_SPACE
  0
BLOCK_RECORD
  5
131
100
AcDbSymbolTableRecord
100
AcDbBlockTableRecord
  2
*PAPER_SPACE0
  0
BLOCK_RECORD
  5
1
100
AcDbSymbolTableRecord
100
AcDbBlockTableRecord
  2
_NONE
  0
BLOCK_RECORD
  5
4
100
AcDbSymbolTableRecord
100
AcDbBlockTableRecord
  2
_CLOSED
  0
BLOCK_RECORD
  5
B
100
AcDbSymbolTableRecord
100
AcDbBlockTableRecord
  2
_DOT
  0
BLOCK_RECORD
  5
13
100
AcDbSymbolTableRecord
100
AcDbBlockTableRecord
  2
_OPEN
  0
BLOCK_RECORD
  5
19
100
AcDbSymbolTableRecord
100
AcDbBlockTableRecord
  2
_ORIGIN
  0
BLOCK_RECORD
  5
1E
100
AcDbSymbolTableRecord
100
AcDbBlockTableRecord
  2
_OPEN30
  0
BLOCK_RECORD
  5
24
100
AcDbSymbolTableRecord
100
AcDbBlockTableRecord
  2
_BOXFILLED
  0
BLOCK_RECORD
  5
29
100
AcDbSymbolTableRecord
100
AcDbBlockTableRecord
  2
_BOXBLANK
  0
BLOCK_RECORD
  5
31
100
AcDbSymbolTableRecord
100
AcDbBlockTableRecord
  2
_OBLIQUE
  0
BLOCK_RECORD
  5
35
100
AcDbSymbolTableRecord
100
AcDbBlockTableRecord
  2
_OPEN90
  0
BLOCK_RECORD
  5
3B
100
AcDbSymbolTableRecord
100
AcDbBlockTableRecord
  2
_CLOSEDBLANK
  0
BLOCK_RECORD
  5
41
100
AcDbSymbolTableRecord
100
AcDbBlockTableRecord
  2
_DOTBLANK
  0
ENDTAB
  0
ENDSEC
  0
SECTION
  2
BLOCKS
  0
BLOCK
  5
132
100
AcDbEntity
  8
0
100
AcDbBlockBegin
  2
*MODEL_SPACE
 70
     0
 10
0.0
 20
0.0
 30
0.0
  3
*MODEL_SPACE
  1

  0
ENDBLK
  5
133
100
AcDbEntity
  8
0
100
AcDbBlockEnd
  0
BLOCK
  5
134
100
AcDbEntity
  8
0
100
AcDbBlockBegin
  2
*PAPER_SPACE
 70
     0
 10
0.0
 20
0.0
 30
0.0
  3
*PAPER_SPACE
  1

  0
ENDBLK
  5
135
100
AcDbEntity
  8
0
100
AcDbBlockEnd
  0
BLOCK
  5
136
100
AcDbEntity
  8
0
100
AcDbBlockBegin
  2
*PAPER_SPACE0
 70
     0
 10
0.0
 20
0.0
 30
0.0
  3
*PAPER_SPACE0
  1

  0
ENDBLK
  5
137
100
AcDbEntity
  8
0
100
AcDbBlockEnd
  0
BLOCK
  5
2
330
1
100
AcDbEntity
  8
0
100
AcDbBlockBegin
  2
_NONE
 70
     0
 10
0.0
 20
0.0
 30
0.0
  3
_NONE
  1

  0
ENDBLK
  5
3
330
1
100
AcDbEntity
  8
0
100
AcDbBlockEnd
  0
BLOCK
  5
5
330
4
100
AcDbEntity
  8
0
100
AcDbBlockBegin
  2
_CLOSED
 70
     0
 10
0.0
 20
0.0
 30
0.0
  3
_CLOSED
  1

  0
LINE
  5
6
330
4
100
AcDbEntity
  8
0
  6
BYBLOCK
 62
     0
370
    -2
100
AcDbLine
 10
-1.0
 20
0.166667
 30
0.0
 11
0.0
 21
0.0
 31
0.0
  0
LINE
  5
7
330
4
100
AcDbEntity
  8
0
  6
BYBLOCK
 62
     0
370
    -2
100
AcDbLine
 10
0.0
 20
0.0
 30
0.0
 11
-1.0
 21
-0.166667
 31
0.0
  0
LINE
  5
8
330
4
100
AcDbEntity
  8
0
  6
BYBLOCK
 62
     0
370
    -2
100
AcDbLine
 10
-1.0
 20
0.166667
 30
0.0
 11
-1.0
 21
-0.166667
 31
0.0
  0
LINE
  5
9
330
4
100
AcDbEntity
  8
0
  6
BYBLOCK
 62
     0
370
    -2
100
AcDbLine
 10
0.0
 20
0.0
 30
0.0
 11
-1.0
 21
0.0
 31
0.0
  0
ENDBLK
  5
A
330
4
100
AcDbEntity
  8
0
100
AcDbBlockEnd
  0
BLOCK
  5
C
330
B
100
AcDbEntity
  8
0
100
AcDbBlockBegin
  2
_DOT
 70
     0
 10
0.0
 20
0.0
 30
0.0
  3
_DOT
  1

  0
POLYLINE
  5
D
330
B
100
AcDbEntity
  8
0
  6
BYBLOCK
 62
     0
370
    -2
100
AcDb2dPolyline
 66
     1
 10
0.0
 20
0.0
 30
0.0
 70
     1
 40
0.5
 41
0.5
  0
VERTEX
  5
E
330
B
100
AcDbEntity
  8
0
  6
BYBLOCK
 62
     0
370
    -2
100
AcDbVertex
100
AcDb2dVertex
 10
-0.25
 20
0.0
 30
0.0
 42
1.0
  0
VERTEX
  5
F
330
B
100
AcDbEntity
  8
0
  6
BYBLOCK
 62
     0
370
    -2
100
AcDbVertex
100
AcDb2dVertex
 10
0.25
 20
0.0
 30
0.0
 42
1.0
  0
SEQEND
  5
10
330
B
100
AcDbEntity
  8
0
  6
BYBLOCK
 62
     0
370
    -2
  0
LINE
  5
11
330
B
100
AcDbEntity
  8
0
  6
BYBLOCK
 62
     0
370
    -2
100
AcDbLine
 10
-0.5
 20
0.0
 30
0.0
 11
-1.0
 21
0.0
 31
0.0
  0
ENDBLK
  5
12
330
B
100
AcDbEntity
  8
0
100
AcDbBlockEnd
  0
BLOCK
  5
14
330
13
100
AcDbEntity
  8
0
100
AcDbBlockBegin
  2
_OPEN
 70
     0
 10
0.0
 20
0.0
 30
0.0
  3
_OPEN
  1

  0
LINE
  5
15
330
13
100
AcDbEntity
  8
0
  6
BYBLOCK
 62
     0
370
    -2
100
AcDbLine
 10
-1.0
 20
0.166667
 30
0.0
 11
0.0
 21
0.0
 31
0.0
  0
LINE
  5
16
330
13
100
AcDbEntity
  8
0
  6
BYBLOCK
 62
     0
370
    -2
100
AcDbLine
 10
0.0
 20
0.0
 30
0.0
 11
-1.0
 21
-0.166667
 31
0.0
  0
LINE
  5
17
330
13
100
AcDbEntity
  8
0
  6
BYBLOCK
 62
     0
370
    -2
100
AcDbLine
 10
0.0
 20
0.0
 30
0.0
 11
-1.0
 21
0.0
 31
0.0
  0
ENDBLK
  5
18
330
13
100
AcDbEntity
  8
0
100
AcDbBlockEnd
  0
BLOCK
  5
1A
330
19
100
AcDbEntity
  8
0
100
AcDbBlockBegin
  2
_ORIGIN
 70
     0
 10
0.0
 20
0.0
 30
0.0
  3
_ORIGIN
  1

  0
CIRCLE
  5
1B
330
19
100
AcDbEntity
  8
0
  6
BYBLOCK
 62
     0
370
    -2
100
AcDbCircle
 10
0.0
 20
0.0
 30
0.0
 40
0.5
  0
LINE
  5
1C
330
19
100
AcDbEntity
  8
0
  6
BYBLOCK
 62
     0
370
    -2
100
AcDbLine
 10
0.0
 20
0.0
 30
0.0
 11
-1.0
 21
0.0
 31
0.0
  0
ENDBLK
  5
1D
330
19
100
AcDbEntity
  8
0
100
AcDbBlockEnd
  0
BLOCK
  5
1F
330
1E
100
AcDbEntity
  8
0
100
AcDbBlockBegin
  2
_OPEN30
 70
     0
 10
0.0
 20
0.0
 30
0.0
  3
_OPEN30
  1

  0
LINE
  5
20
330
1E
100
AcDbEntity
  8
0
  6
BYBLOCK
 62
     0
370
    -2
100
AcDbLine
 10
-1.0
 20
0.267949
 30
0.0
 11
0.0
 21
0.0
 31
0.0
  0
LINE
  5
21
330
1E
100
AcDbEntity
  8
0
  6
BYBLOCK
 62
     0
370
    -2
100
AcDbLine
 10
0.0
 20
0.0
 30
0.0
 11
-1.0
 21
-0.267949
 31
0.0
  0
LINE
  5
22
330
1E
100
AcDbEntity
  8
0
  6
BYBLOCK
 62
     0
370
    -2
100
AcDbLine
 10
0.0
 20
0.0
 30
0.0
 11
-1.0
 21
0.0
 31
0.0
  0
ENDBLK
  5
23
330
1E
100
AcDbEntity
  8
0
100
AcDbBlockEnd
  0
BLOCK
  5
25
330
24
100
AcDbEntity
  8
0
100
AcDbBlockBegin
  2
_BOXFILLED
 70
     0
 10
0.0
 20
0.0
 30
0.0
  3
_BOXFILLED
  1

  0
SOLID
  5
26
330
24
100
AcDbEntity
  8
0
  6
BYBLOCK
 62
     0
370
    -2
100
AcDbTrace
 10
-0.5
 20
0.5
 30
0.0
 11
0.5
 21
0.5
 31
0.0
 12
-0.5
 22
-0.5
 32
0.0
 13
0.5
 23
-0.5
 33
0.0
  0
LINE
  5
27
330
24
100
AcDbEntity
  8
0
  6
BYBLOCK
 62
     0
370
    -2
100
AcDbLine
 10
-0.5
 20
0.0
 30
0.0
 11
-1.0
 21
0.0
 31
0.0
  0
ENDBLK
  5
28
330
24
100
AcDbEntity
  8
0
100
AcDbBlockEnd
  0
BLOCK
  5
2A
330
29
100
AcDbEntity
  8
0
100
AcDbBlockBegin
  2
_BOXBLANK
 70
     0
 10
0.0
 20
0.0
 30
0.0
  3
_BOXBLANK
  1

  0
LINE
  5
2B
330
29
100
AcDbEntity
  8
0
  6
BYBLOCK
 62
     0
370
    -2
100
AcDbLine
 10
-0.5
 20
-0.5
 30
0.0
 11
0.5
 21
-0.5
 31
0.0
  0
LINE
  5
2C
330
29
100
AcDbEntity
  8
0
  6
BYBLOCK
 62
     0
370
    -2
100
AcDbLine
 10
0.5
 20
-0.5
 30
0.0
 11
0.5
 21
0.5
 31
0.0
  0
LINE
  5
2D
330
29
100
AcDbEntity
  8
0
  6
BYBLOCK
 62
     0
370
    -2
100
AcDbLine
 10
0.5
 20
0.5
 30
0.0
 11
-0.5
 21
0.5
 31
0.0
  0
LINE
  5
2E
330
29
100
AcDbEntity
  8
0
  6
BYBLOCK
 62
     0
370
    -2
100
AcDbLine
 10
-0.5
 20
0.5
 30
0.0
 11
-0.5
 21
-0.5
 31
0.0
  0
LINE
  5
2F
330
29
100
AcDbEntity
  8
0
  6
BYBLOCK
 62
     0
370
    -2
100
AcDbLine
 10
-0.5
 20
0.0
 30
0.0
 11
-1.0
 21
0.0
 31
0.0
  0
ENDBLK
  5
30
330
29
100
AcDbEntity
  8
0
100
AcDbBlockEnd
  0
BLOCK
  5
32
330
31
100
AcDbEntity
  8
0
100
AcDbBlockBegin
  2
_OBLIQUE
 70
     0
 10
0.0
 20
0.0
 30
0.0
  3
_OBLIQUE
  1

  0
LINE
  5
33
330
31
100
AcDbEntity
  8
0
  6
BYBLOCK
 62
     0
370
    -2
100
AcDbLine
 10
-0.5
 20
-0.5
 30
0.0
 11
0.5
 21
0.5
 31
0.0
  0
ENDBLK
  5
34
330
31
100
AcDbEntity
  8
0
100
AcDbBlockEnd
  0
BLOCK
  5
36
330
35
100
AcDbEntity
  8
0
100
AcDbBlockBegin
  2
_OPEN90
 70
     0
 10
0.0
 20
0.0
 30
0.0
  3
_OPEN90
  1

  0
LINE
  5
37
330
35
100
AcDbEntity
  8
0
  6
BYBLOCK
 62
     0
370
    -2
100
AcDbLine
 10
-0.5
 20
0.5
 30
0.0
 11
0.0
 21
0.0
 31
0.0
  0
LINE
  5
38
330
35
100
AcDbEntity
  8
0
  6
BYBLOCK
 62
     0
370
    -2
100
AcDbLine
 10
0.0
 20
0.0
 30
0.0
 11
-0.5
 21
-0.5
 31
0.0
  0
LINE
  5
39
330
35
100
AcDbEntity
  8
0
  6
BYBLOCK
 62
     0
370
    -2
100
AcDbLine
 10
0.0
 20
0.0
 30
0.0
 11
-1.0
 21
0.0
 31
0.0
  0
ENDBLK
  5
3A
330
35
100
AcDbEntity
  8
0
100
AcDbBlockEnd
  0
BLOCK
  5
3C
330
3B
100
AcDbEntity
  8
0
100
AcDbBlockBegin
  2
_CLOSEDBLANK
 70
     0
 10
0.0
 20
0.0
 30
0.0
  3
_CLOSEDBLANK
  1

  0
LINE
  5
3D
330
3B
100
AcDbEntity
  8
0
  6
BYBLOCK
 62
     0
370
    -2
100
AcDbLine
 10
-1.0
 20
0.1666666666666666
 30
0.0
 11
0.0
 21
0.0
 31
0.0
  0
LINE
  5
3E
330
3B
100
AcDbEntity
  8
0
  6
BYBLOCK
 62
     0
370
    -2
100
AcDbLine
 10
0.0
 20
0.0
 30
0.0
 11
-1.0
 21
-0.1666666666666666
 31
0.0
  0
LINE
  5
3F
330
3B
100
AcDbEntity
  8
0
  6
BYBLOCK
 62
     0
370
    -2
100
AcDbLine
 10
-1.0
 20
0.1666666666666666
 30
0.0
 11
-1.0
 21
-0.1666666666666666
 31
0.0
  0
ENDBLK
  5
40
330
3B
100
AcDbEntity
  8
0
100
AcDbBlockEnd
  0
BLOCK
  5
42
330
41
100
AcDbEntity
  8
0
100
AcDbBlockBegin
  2
_DOTBLANK
 70
     0
 10
0.0
 20
0.0
 30
0.0
  3
_DOTBLANK
  1

  0
CIRCLE
  5
43
330
41
100
AcDbEntity
  8
0
  6
BYBLOCK
 62
     0
370
    -2
100
AcDbCircle
 10
0.0
 20
0.0
 30
0.0
 40
0.5
  0
LINE
  5
44
330
41
100
AcDbEntity
  8
0
  6
BYBLOCK
 62
     0
370
    -2
100
AcDbLine
 10
-0.5
 20
0.0
 30
0.0
 11
-1.0
 21
0.0
 31
0.0
  0
ENDBLK
  5
45
330
41
100
AcDbEntity
  8
0
100
AcDbBlockEnd
  0
ENDSEC
  0
SECTION
  2
ENTITIES
  0
MTEXT
  5
46
100
AcDbEntity
  8
A8
  6
CONTINUOUS
 62
3
100
AcDbMText
 10
9.999997526638502
 20
18.00000076076889
 30
0.000000000000000
 40
3.000000000000000
 41
0.000000000000000
 44
0.6739999771118164
 71
     7
 72
     1
  1
{\H0.94x;{TYPE No.THA-241-3A-1.0}}
 11
1.000000000000000
 21
0.000000000000000
 31
0.000000000000000
  7
STANDARD
  0
POINT
  5
47
100
AcDbEntity
  8
A0
  6
CONTINUOUS
 62
3
100
AcDbPoint
 10
9.999997526638502
 20
18.00000076076889
 30
0.000000000000000
  0
POINT
  5
48
100
AcDbEntity
  8
A10
  6
CONTINUOUS
 62
3
100
AcDbPoint
 10
50.00000000000000
 20
50.00000000000000
 30
0.000000000000000
  0
LINE
  5
49
100
AcDbEntity
  8
0
  6
CONTINUOUS
 62
7
100
AcDbLine
 10
233.6004653387230
 20
133.1543074862823
 30
0.000000000000000
 11
232.1004653387230
 21
153.1543074862824
 31
0.000000000000000
  0
LINE
  5
4A
100
AcDbEntity
  8
0
  6
CONTINUOUS
 62
7
100
AcDbLine
 10
232.1004653387230
 20
153.1543074862822
 30
0.000000000000000
 11
233.6004653387230
 21
158.1543074862824
 31
0.000000000000000
  0
LINE
  5
4B
100
AcDbEntity
  8
0
  6
CONTINUOUS
 62
7
100
AcDbLine
 10
233.6004653387230
 20
158.1543074862824
 30
0.000000000000000
 11
235.1004653387230
 21
158.1543074862824
 31
0.000000000000000
  0
LINE
  5
4C
100
AcDbEntity
  8
0
  6
CONTINUOUS
 62
7
100
AcDbLine
 10
233.6004653387230
 20
133.1543074862824
 30
0.000000000000000
 11
235.1004653387230
 21
133.1543074862824
 31
0.000000000000000
  0
LINE
  5
4D
100
AcDbEntity
  8
0
  6
CONTINUOUS
 62
7
100
AcDbLine
 10
236.4504653387225
 20
161.1543074862824
 30
0.000000000000000
 11
249.7935684508760
 21
161.1543074862824
 31
0.000000000000000
  0
LINE
  5
4E
100
AcDbEntity
  8
0
  6
CONTINUOUS
 62
7
100
AcDbLine
 10
236.1004653387230
 20
134.6543074862823
 30
0.000000000000000
 11
236.4004653373127
 21
133.6543074909834
 31
0.000000000000000
  0
LINE
  5
4F
100
AcDbEntity
  8
0
  6
CONTINUOUS
 62
7
100
AcDbLine
 10
235.1004653387230
 20
134.6543074862824
 30
0.000000000000000
 11
236.1004653387230
 21
134.6543074862824
 31
0.000000000000000
  0
ARC
  5
50
100
AcDbEntity
  8
0
  6
CONTINUOUS
 62
7
100
AcDbCircle
 10
232.1004653387230
 20
154.2502254862823
 30
0.000000000000000
 40
20.00000000000000
100
AcDbArc
 50
281.5369590000026
 51
376.9844731516551
  0
ARC
  5
51
100
AcDbEntity
  8
0
  6
CONTINUOUS
 62
7
100
AcDbCircle
 10
236.3247343387229
 20
136.6533514862824
 30
0.000000000000000
 40
3.000000000000000
100
AcDbArc
 50
271.4465100000041
 51
337.7051280000044
  0
LINE
  5
52
100
AcDbEntity
  8
0
  6
CONTINUOUS
 62
7
100
AcDbLine
 10
235.1004653387230
 20
156.1543074862824
 30
0.000000000000000
 11
236.2004653387230
 21
156.1543074862824
 31
0.000000000000000
  0
ARC
  5
53
100
AcDbEntity
  8
0
  6
CONTINUOUS
 62
7
100
AcDbCircle
 10
249.7935684508760
 20
159.6543074862824
 30
0.000000000000000
 40
1.500000000000000
100
AcDbArc
 50
16.98447315165566
 51
90.00000000000000
  0
ARC
  5
54
100
AcDbEntity
  8
0
  6
CONTINUOUS
 62
7
100
AcDbCircle
 10
97.21470671664818
 20
159.1543074862824
 30
0.000000000000000
 40
2.000000000000000
100
AcDbArc
 50
90.00000000000000
 51
147.6525569999937
  0
LINE
  5
55
100
AcDbEntity
  8
0
  6
CONTINUOUS
 62
7
100
AcDbLine
 10
135.6140027166482
 20
161.1543074862824
 30
0.000000000000000
 11
97.21470671664818
 21
161.1543074862824
 31
0.000000000000000
  0
LINE
  5
56
100
AcDbEntity
  8
0
  6
CONTINUOUS
 62
7
100
AcDbLine
 10
135.6140027166482
 20
161.1543074862824
 30
0.000000000000000
 11
174.0132987166481
 21
161.1543074862824
 31
0.000000000000000
  0
ARC
  5
57
100
AcDbEntity
  8
0
  6
CONTINUOUS
 62
7
100
AcDbCircle
 10
174.0132987166481
 20
159.1543074862824
 30
0.000000000000000
 40
2.000000000000000
100
AcDbArc
 50
32.34744300000651
 51
90.00000000000000
  0
LINE
  5
58
100
AcDbEntity
  8
0
  6
CONTINUOUS
 62
7
100
AcDbLine
 10
183.6140027166482
 20
158.1543074862824
 30
0.000000000000000
 11
87.61400271664823
 21
158.1543074862824
 31
0.000000000000000
  0
ARC
  5
59
100
AcDbEntity
  8
0
  6
CONTINUOUS
 62
7
100
AcDbCircle
 10
183.6140027166482
 20
156.1543074862824
 30
0.000000000000000
 40
2.000000000000000
100
AcDbArc
 50
0.000000000000000
 51
90.00000000000000
  0
LINE
  5
5A
100
AcDbEntity
  8
0
  6
CONTINUOUS
 62
7
100
AcDbLine
 10
185.6140027166482
 20
135.1543074862824
 30
0.000000000000000
 11
185.6140027166482
 21
156.1543074862824
 31
0.000000000000000
  0
LINE
  5
5B
100
AcDbEntity
  8
0
  6
CONTINUOUS
 62
7
100
AcDbLine
 10
182.3640027166482
 20
152.1543074862824
 30
0.000000000000000
 11
182.3640027166482
 21
137.1543074862824
 31
0.000000000000000
  0
ARC
  5
5C
100
AcDbEntity
  8
0
  6
CONTINUOUS
 62
7
100
AcDbCircle
 10
181.3640027166482
 20
152.1543074862824
 30
0.000000000000000
 40
1.000000000000000
100
AcDbArc
 50
0.000000000000000
 51
90.00000000000000
  0
LINE
  5
5D
100
AcDbEntity
  8
0
  6
CONTINUOUS
 62
7
100
AcDbLine
 10
89.86400271664823
 20
153.1543074862824
 30
0.000000000000000
 11
181.3640027166482
 21
153.1543074862824
 31
0.000000000000000
  0
ARC
  5
5E
100
AcDbEntity
  8
0
  6
CONTINUOUS
 62
7
100
AcDbCircle
 10
183.6140027166482
 20
135.1543074862824
 30
0.000000000000000
 40
2.000000000000000
100
AcDbArc
 50
270.0000000000000
 51
360.0000000000000
  0
ARC
  5
5F
100
AcDbEntity
  8
0
  6
CONTINUOUS
 62
7
100
AcDbCircle
 10
181.3640027166482
 20
137.1543074862824
 30
0.000000000000000
 40
1.000000000000000
100
AcDbArc
 50
270.0000000000000
 51
360.0000000000000
  0
LINE
  5
60
100
AcDbEntity
  8
0
  6
CONTINUOUS
 62
7
100
AcDbLine
 10
181.3640027166482
 20
136.1543074862824
 30
0.000000000000000
 11
89.86400271664823
 21
136.1543074862824
 31
0.000000000000000
  0
LINE
  5
61
100
AcDbEntity
  8
0
  6
CONTINUOUS
 62
7
100
AcDbLine
 10
87.61400271664823
 20
133.1543074862824
 30
0.000000000000000
 11
183.6140027166482
 21
133.1543074862824
 31
0.000000000000000
  0
LINE
  5
62
100
AcDbEntity
  8
0
  6
CONTINUOUS
 62
7
100
AcDbLine
 10
160.7140027166481
 20
161.1543074862824
 30
0.000000000000000
 11
160.7140027166481
 21
158.1543074862824
 31
0.000000000000000
  0
LINE
  5
63
100
AcDbEntity
  8
0
  6
CONTINUOUS
 62
7
100
AcDbLine
 10
160.6140027166481
 20
161.1543074862824
 30
0.000000000000000
 11
160.6140027166481
 21
158.1543074862824
 31
0.000000000000000
  0
LINE
  5
64
100
AcDbEntity
  8
0
  6
CONTINUOUS
 62
7
100
AcDbLine
 10
160.5140027166483
 20
161.1543074862824
 30
0.000000000000000
 11
160.5140027166483
 21
158.1543074862824
 31
0.000000000000000
  0
LINE
  5
65
100
AcDbEntity
  8
0
  6
CONTINUOUS
 62
7
100
AcDbLine
 10
110.5140027166483
 20
161.1543074862824
 30
0.000000000000000
 11
110.5140027166483
 21
158.1543074862824
 31
0.000000000000000
  0
LINE
  5
66
100
AcDbEntity
  8
0
  6
CONTINUOUS
 62
7
100
AcDbLine
 10
110.7140027166480
 20
161.1543074862824
 30
0.000000000000000
 11
110.7140027166480
 21
158.1543074862824
 31
0.000000000000000
  0
LINE
  5
67
100
AcDbEntity
  8
0
  6
CONTINUOUS
 62
7
100
AcDbLine
 10
110.6140027166482
 20
161.1543074862824
 30
0.000000000000000
 11
110.6140027166482
 21
158.1543074862824
 31
0.000000000000000
  0
ARC
  5
68
100
AcDbEntity
  8
0
  6
CONTINUOUS
 62
7
100
AcDbCircle
 10
87.61400271664823
 20
156.1543074862824
 30
0.000000000000000
 40
2.000000000000000
100
AcDbArc
 50
90.00000000000000
 51
180.0000000000000
  0
ARC
  5
69
100
AcDbEntity
  8
0
  6
CONTINUOUS
 62
7
100
AcDbCircle
 10
89.86400271664823
 20
152.1543074862824
 30
0.000000000000000
 40
1.000000000000000
100
AcDbArc
 50
90.00000000000000
 51
180.0000000000000
  0
LINE
  5
6A
100
AcDbEntity
  8
0
  6
CONTINUOUS
 62
7
100
AcDbLine
 10
85.61400271664823
 20
135.1543074862824
 30
0.000000000000000
 11
85.61400271664823
 21
156.1543074862824
 31
0.000000000000000
  0
LINE
  5
6B
100
AcDbEntity
  8
0
  6
CONTINUOUS
 62
7
100
AcDbLine
 10
88.86400271664823
 20
152.1543074862824
 30
0.000000000000000
 11
88.86400271664823
 21
137.1543074862824
 31
0.000000000000000
  0
ARC
  5
6C
100
AcDbEntity
  8
0
  6
CONTINUOUS
 62
7
100
AcDbCircle
 10
87.61400271664823
 20
135.1543074862824
 30
0.000000000000000
 40
2.000000000000000
100
AcDbArc
 50
180.0000000000000
 51
270.0000000000000
  0
ARC
  5
6D
100
AcDbEntity
  8
0
  6
CONTINUOUS
 62
7
100
AcDbCircle
 10
89.86400271664823
 20
137.1543074862824
 30
0.000000000000000
 40
1.000000000000000
100
AcDbArc
 50
180.0000000000000
 51
270.0000000000000
  0
LINE
  5
6E
100
AcDbEntity
  8
A4
  6
CENTER
 62
1
100
AcDbLine
 10
135.6140027166482
 20
131.6543074862824
 30
0.000000000000000
 11
135.6140027166482
 21
162.6543074862824
 31
0.000000000000000
  0
LINE
  5
6F
100
AcDbEntity
  8
A4
  6
CENTER
 62
1
100
AcDbLine
 10
84.11400271664823
 20
145.4043074862824
 30
0.000000000000000
 11
187.1140027166482
 21
145.4043074862824
 31
0.000000000000000
  0
LINE
  5
70
100
AcDbEntity
  8
A4
  6
CENTER
 62
1
100
AcDbLine
 10
228.5337781510004
 20
145.4043074862824
 30
0.000000000000000
 11
253.8779609914851
 21
145.4043074862824
 31
0.000000000000000
  0
LINE
  5
71
100
AcDbEntity
  8
0
  6
CONTINUOUS
 62
7
100
AcDbLine
 10
94.21400271664811
 20
158.1543074862823
 30
0.000000000000000
 11
95.52506871664808
 21
160.2244114862824
 31
0.000000000000000
  0
LINE
  5
72
100
AcDbEntity
  8
0
  6
CONTINUOUS
 62
7
100
AcDbLine
 10
177.0140027166483
 20
158.1543074862824
 30
0.000000000000000
 11
175.7029367166484
 21
160.2244114862824
 31
0.000000000000000
  0
LINE
  5
73
100
AcDbEntity
  8
0
  6
CONTINUOUS
 62
7
100
AcDbLine
 10
235.1004653387230
 20
133.1543074862824
 30
0.000000000000000
 11
235.1004653387230
 21
158.1543074862824
 31
0.000000000000000
  0
LINE
  5
74
100
AcDbEntity
  8
0
  6
CONTINUOUS
 62
7
100
AcDbLine
 10
236.2004653387231
 20
156.1543074862824
 30
0.000000000000000
 11
236.4504653387225
 21
161.1543074862818
 31
0.000000000000000
  0
LINE
  5
75
100
AcDbEntity
  8
0
  6
CONTINUOUS
 62
7
100
AcDbLine
 10
43.97670278563521
 20
133.1543074862824
 30
0.000000000000000
 11
45.47670278563526
 21
153.1543074862824
 31
0.000000000000000
  0
LINE
  5
76
100
AcDbEntity
  8
0
  6
CONTINUOUS
 62
7
100
AcDbLine
 10
45.47670278563534
 20
153.1543074862823
 30
0.000000000000000
 11
43.97670278563535
 21
158.1543074862824
 31
0.000000000000000
  0
LINE
  5
77
100
AcDbEntity
  8
0
  6
CONTINUOUS
 62
7
100
AcDbLine
 10
43.97670278563532
 20
158.1543074862824
 30
0.000000000000000
 11
42.47670278563532
 21
158.1543074862824
 31
0.000000000000000
  0
LINE
  5
78
100
AcDbEntity
  8
0
  6
CONTINUOUS
 62
7
100
AcDbLine
 10
43.97670278563526
 20
133.1543074862824
 30
0.000000000000000
 11
42.47670278563526
 21
133.1543074862824
 31
0.000000000000000
  0
LINE
  5
79
100
AcDbEntity
  8
0
  6
CONTINUOUS
 62
7
100
AcDbLine
 10
41.12670278563587
 20
161.1543074862824
 30
0.000000000000000
 11
27.78359967348240
 21
161.1543074862824
 31
0.000000000000000
  0
LINE
  5
7A
100
AcDbEntity
  8
0
  6
CONTINUOUS
 62
7
100
AcDbLine
 10
41.47670278563515
 20
134.6543074862823
 30
0.000000000000000
 11
41.17670278704551
 21
133.6543074909834
 31
0.000000000000000
  0
LINE
  5
7B
100
AcDbEntity
  8
0
  6
CONTINUOUS
 62
7
100
AcDbLine
 10
42.47670278563526
 20
134.6543074862824
 30
0.000000000000000
 11
41.47670278563526
 21
134.6543074862824
 31
0.000000000000000
  0
ARC
  5
7C
100
AcDbEntity
  8
0
  6
CONTINUOUS
 62
7
100
AcDbCircle
 10
45.47670278563530
 20
154.2502254862823
 30
0.000000000000000
 40
20.00000000000000
100
AcDbArc
 50
163.0155268483448
 51
258.4630409999972
  0
ARC
  5
7D
100
AcDbEntity
  8
0
  6
CONTINUOUS
 62
7
100
AcDbCircle
 10
41.25243378563545
 20
136.6533514862824
 30
0.000000000000000
 40
3.000000000000000
100
AcDbArc
 50
202.2948719999956
 51
268.5534899999958
  0
LINE
  5
7E
100
AcDbEntity
  8
0
  6
CONTINUOUS
 62
7
100
AcDbLine
 10
42.47670278563531
 20
156.1543074862824
 30
0.000000000000000
 11
41.37670278563532
 21
156.1543074862824
 31
0.000000000000000
  0
ARC
  5
7F
100
AcDbEntity
  8
0
  6
CONTINUOUS
 62
7
100
AcDbCircle
 10
27.78359967348237
 20
159.6543074862824
 30
0.000000000000000
 40
1.500000000000000
100
AcDbArc
 50
89.99999999999990
 51
163.0155268483442
  0
LINE
  5
80
100
AcDbEntity
  8
A4
  6
CENTER
 62
1
100
AcDbLine
 10
49.04338997335790
 20
145.4043074862824
 30
0.000000000000000
 11
23.69920713287327
 21
145.4043074862824
 31
0.000000000000000
  0
LINE
  5
81
100
AcDbEntity
  8
0
  6
CONTINUOUS
 62
7
100
AcDbLine
 10
42.47670278563528
 20
133.1543074862823
 30
0.000000000000000
 11
42.47670278563530
 21
158.1543074862824
 31
0.000000000000000
  0
LINE
  5
82
100
AcDbEntity
  8
0
  6
CONTINUOUS
 62
7
100
AcDbLine
 10
41.37670278563525
 20
156.1543074862824
 30
0.000000000000000
 11
41.12670278563583
 21
161.1543074862818
 31
0.000000000000000
  0
LINE
  5
83
100
AcDbEntity
  8
0
  6
CONTINUOUS
 62
7
100
AcDbLine
 10
185.6140027166483
 20
206.7849248307525
 30
0.000000000000000
 11
185.6140027166483
 21
203.7849248307525
 31
0.000000000000000
  0
LINE
  5
84
100
AcDbEntity
  8
0
  6
CONTINUOUS
 62
7
100
AcDbLine
 10
177.1140027166483
 20
222.2849248307525
 30
0.000000000000000
 11
177.1140027166483
 21
207.8849248307525
 31
0.000000000000000
  0
LINE
  5
85
100
AcDbEntity
  8
0
  6
CONTINUOUS
 62
7
100
AcDbLine
 10
175.1140027166483
 20
220.7849248307525
 30
0.000000000000000
 11
175.1140027166483
 21
207.8849248307525
 31
0.000000000000000
  0
LINE
  5
86
100
AcDbEntity
  8
0
  6
CONTINUOUS
 62
7
100
AcDbLine
 10
184.1140027166483
 20
223.2849248307525
 30
0.000000000000000
 11
184.1140027166483
 21
206.7849248307525
 31
0.000000000000000
  0
LINE
  5
87
100
AcDbEntity
  8
A4
  6
CENTER
 62
1
100
AcDbLine
 10
135.6140027166482
 20
225.2849248307525
 30
0.000000000000000
 11
135.6140027166482
 21
202.2849248307525
 31
0.000000000000000
  0
LINE
  5
88
100
AcDbEntity
  8
0
  6
CONTINUOUS
 62
7
100
AcDbLine
 10
85.61400271664826
 20
206.7849248307525
 30
0.000000000000000
 11
85.61400271664826
 21
203.7849248307525
 31
0.000000000000000
  0
ARC
  5
89
100
AcDbEntity
  8
0
  6
CONTINUOUS
 62
7
100
AcDbCircle
 10
175.6140027166483
 20
222.2849248307525
 30
0.000000000000000
 40
1.500000000000000
100
AcDbArc
 50
0.000000000000000
 51
90.00000000000000
  0
ARC
  5
8A
100
AcDbEntity
  8
0
  6
CONTINUOUS
 62
7
100
AcDbCircle
 10
173.6140027166483
 20
220.7849248307525
 30
0.000000000000000
 40
1.500000000000000
100
AcDbArc
 50
0.000000000000000
 51
90.00000000000000
  0
LINE
  5
8B
100
AcDbEntity
  8
0
  6
CONTINUOUS
 62
7
100
AcDbLine
 10
94.11400271664826
 20
222.2849248307525
 30
0.000000000000000
 11
94.11400271664826
 21
207.8849248307525
 31
0.000000000000000
  0
LINE
  5
8C
100
AcDbEntity
  8
0
  6
CONTINUOUS
 62
7
100
AcDbLine
 10
96.11400271664826
 20
220.7849248307525
 30
0.000000000000000
 11
96.11400271664826
 21
207.8849248307525
 31
0.000000000000000
  0
LINE
  5
8D
100
AcDbEntity
  8
0
  6
CONTINUOUS
 62
7
100
AcDbLine
 10
87.11400271664826
 20
223.2849248307525
 30
0.000000000000000
 11
87.11400271664826
 21
206.7849248307525
 31
0.000000000000000
  0
ARC
  5
8E
100
AcDbEntity
  8
0
  6
CONTINUOUS
 62
7
100
AcDbCircle
 10
95.61400271664826
 20
222.2849248307525
 30
0.000000000000000
 40
1.500000000000000
100
AcDbArc
 50
90.00000000000000
 51
180.0000000000000
  0
ARC
  5
8F
100
AcDbEntity
  8
0
  6
CONTINUOUS
 62
7
100
AcDbCircle
 10
97.61400271664826
 20
220.7849248307525
 30
0.000000000000000
 40
1.500000000000000
100
AcDbArc
 50
90.00000000000000
 51
180.0000000000000
  0
LINE
  5
90
100
AcDbEntity
  8
0
  6
CONTINUOUS
 62
7
100
AcDbLine
 10
160.6140027166483
 20
207.7849248307526
 30
0.000000000000000
 11
160.7140027166482
 21
207.8849248307525
 31
0.000000000000000
  0
LINE
  5
91
100
AcDbEntity
  8
0
  6
CONTINUOUS
 62
7
100
AcDbLine
 10
160.6140027166484
 20
207.7849248307527
 30
0.000000000000000
 11
160.5140027166484
 21
207.8849248307526
 31
0.000000000000000
  0
LINE
  5
92
100
AcDbEntity
  8
0
  6
CONTINUOUS
 62
7
100
AcDbLine
 10
110.6140027166482
 20
207.7849248307526
 30
0.000000000000000
 11
110.5140027166483
 21
207.8849248307525
 31
0.000000000000000
  0
LINE
  5
93
100
AcDbEntity
  8
0
  6
CONTINUOUS
 62
7
100
AcDbLine
 10
110.6140027166482
 20
207.7849248307525
 30
0.000000000000000
 11
110.7140027166481
 21
207.8849248307524
 31
0.000000000000000
  0
ARC
  5
94
100
AcDbEntity
  8
0
  6
CONTINUOUS
 62
7
100
AcDbCircle
 10
183.6140027166483
 20
223.2849248307525
 30
0.000000000000000
 40
0.5000000000000000
100
AcDbArc
 50
0.000000000000000
 51
90.00000000000000
  0
ARC
  5
95
100
AcDbEntity
  8
0
  6
CONTINUOUS
 62
7
100
AcDbCircle
 10
87.61400271664826
 20
223.2849248307525
 30
0.000000000000000
 40
0.5000000000000000
100
AcDbArc
 50
90.00000000000000
 51
180.0000000000000
  0
LINE
  5
96
100
AcDbEntity
  8
0
  6
CONTINUOUS
 62
7
100
AcDbLine
 10
87.61400271664826
 20
223.7849248307525
 30
0.000000000000000
 11
183.6140027166483
 21
223.7849248307525
 31
0.000000000000000
  0
LINE
  5
97
100
AcDbEntity
  8
0
  6
CONTINUOUS
 62
7
100
AcDbLine
 10
97.61400271664826
 20
222.2849248307525
 30
0.000000000000000
 11
173.6140027166483
 21
222.2849248307525
 31
0.000000000000000
  0
LINE
  5
98
100
AcDbEntity
  8
0
  6
CONTINUOUS
 62
7
100
AcDbLine
 10
85.61400271664826
 20
206.7849248307525
 30
0.000000000000000
 11
185.6140027166483
 21
206.7849248307525
 31
0.000000000000000
  0
LINE
  5
99
100
AcDbEntity
  8
0
  6
CONTINUOUS
 62
7
100
AcDbLine
 10
85.61400271664826
 20
203.7849248307525
 30
0.000000000000000
 11
185.6140027166483
 21
203.7849248307525
 31
0.000000000000000
  0
LINE
  5
9A
100
AcDbEntity
  8
0
  6
CONTINUOUS
 62
7
100
AcDbLine
 10
85.61400271664826
 20
205.2849248307525
 30
0.000000000000000
 11
185.6140027166483
 21
205.2849248307525
 31
0.000000000000000
  0
LINE
  5
9B
100
AcDbEntity
  8
0
  6
CONTINUOUS
 62
7
100
AcDbLine
 10
87.11400271664826
 20
207.8849248307525
 30
0.000000000000000
 11
184.1140027166483
 21
207.8849248307525
 31
0.000000000000000
  0
LINE
  5
9C
100
AcDbEntity
  8
0
  6
CONTINUOUS
 62
7
100
AcDbLine
 10
345.5611233460357
 20
134.6543074862823
 30
0.000000000000000
 11
340.5611233460357
 21
134.6543074862823
 31
0.000000000000000
  0
LINE
  5
9D
100
AcDbEntity
  8
0
  6
CONTINUOUS
 62
7
100
AcDbLine
 10
340.5611233460357
 20
134.1543074862823
 30
0.000000000000000
 11
335.5611233460357
 21
134.1543074862823
 31
0.000000000000000
  0
LINE
  5
9E
100
AcDbEntity
  8
0
  6
CONTINUOUS
 62
7
100
AcDbLine
 10
335.5611233460357
 20
134.1543074862823
 30
0.000000000000000
 11
335.5611233460357
 21
137.1543074862823
 31
0.000000000000000
  0
LINE
  5
9F
100
AcDbEntity
  8
0
  6
CONTINUOUS
 62
7
100
AcDbLine
 10
335.5611233460357
 20
137.1543074862823
 30
0.000000000000000
 11
340.5611233460357
 21
137.1543074862823
 31
0.000000000000000
  0
LINE
  5
A0
100
AcDbEntity
  8
0
  6
CONTINUOUS
 62
7
100
AcDbLine
 10
335.5611233460357
 20
134.6543074862823
 30
0.000000000000000
 11
297.5611233460357
 21
134.6543074862823
 31
0.000000000000000
  0
LINE
  5
A1
100
AcDbEntity
  8
0
  6
CONTINUOUS
 62
7
100
AcDbLine
 10
295.5611233460357
 20
135.1543074862823
 30
0.000000000000000
 11
295.5611233460357
 21
154.6543074862823
 31
0.000000000000000
  0
ARC
  5
A2
100
AcDbEntity
  8
0
  6
CONTINUOUS
 62
7
100
AcDbCircle
 10
297.5611233460357
 20
135.1543074862823
 30
0.000000000000000
 40
2.000000000000000
100
AcDbArc
 50
180.0000000000000
 51
270.0000000000000
  0
LINE
  5
A3
100
AcDbEntity
  8
0
  6
CONTINUOUS
 62
7
100
AcDbLine
 10
297.0611233460357
 20
135.1543074862823
 30
0.000000000000000
 11
297.0611233460357
 21
154.6543074862823
 31
0.000000000000000
  0
ARC
  5
A4
100
AcDbEntity
  8
0
  6
CONTINUOUS
 62
7
100
AcDbCircle
 10
299.0611233460357
 20
152.6543074862823
 30
0.000000000000000
 40
2.000000000000000
100
AcDbArc
 50
90.00000000000000
 51
180.0000000000000
  0
LINE
  5
A5
100
AcDbEntity
  8
0
  6
CONTINUOUS
 62
7
100
AcDbLine
 10
297.5611233460357
 20
158.1543074862823
 30
0.000000000000000
 11
305.1380463460358
 21
158.1543074862823
 31
0.000000000000000
  0
LINE
  5
A6
100
AcDbEntity
  8
0
  6
CONTINUOUS
 62
7
100
AcDbLine
 10
295.5611233460357
 20
154.6543074862823
 30
0.000000000000000
 11
295.5611233460357
 21
156.1543074862823
 31
0.000000000000000
  0
ARC
  5
A7
100
AcDbEntity
  8
0
  6
CONTINUOUS
 62
7
100
AcDbCircle
 10
297.5611233460357
 20
156.1543074862823
 30
0.000000000000000
 40
2.000000000000000
100
AcDbArc
 50
90.00000000000000
 51
180.0000000000000
  0
LINE
  5
A8
100
AcDbEntity
  8
0
  6
CONTINUOUS
 62
7
100
AcDbLine
 10
299.0611233460357
 20
154.6543074862823
 30
0.000000000000000
 11
302.5839743460359
 21
154.6543074862823
 31
0.000000000000000
  0
ARC
  5
A9
100
AcDbEntity
  8
0
  6
CONTINUOUS
 62
7
100
AcDbCircle
 10
302.5839743460359
 20
156.6543074862823
 30
0.000000000000000
 40
2.000000000000000
100
AcDbArc
 50
270.0000000000000
 51
342.8972710000057
  0
LINE
  5
AA
100
AcDbEntity
  8
0
  6
CONTINUOUS
 62
7
100
AcDbLine
 10
304.4955325449461
 20
156.0661361327421
 30
0.000000000000000
 11
305.6267141471250
 21
159.7424788398228
 31
0.000000000000000
  0
ARC
  5
AB
100
AcDbEntity
  8
0
  6
CONTINUOUS
 62
7
100
AcDbCircle
 10
307.5382723460358
 20
159.1543074862823
 30
0.000000000000000
 40
2.000000000000000
100
AcDbArc
 50
90.00000000000000
 51
162.8972710000058
  0
LINE
  5
AC
100
AcDbEntity
  8
0
  6
CONTINUOUS
 62
7
100
AcDbLine
 10
345.5611233460357
 20
134.6543074862823
 30
0.000000000000000
 11
350.5611233460357
 21
134.6543074862823
 31
0.000000000000000
  0
LINE
  5
AD
100
AcDbEntity
  8
0
  6
CONTINUOUS
 62
7
100
AcDbLine
 10
350.5611233460357
 20
134.1543074862823
 30
0.000000000000000
 11
355.5611233460357
 21
134.1543074862823
 31
0.000000000000000
  0
LINE
  5
AE
100
AcDbEntity
  8
0
  6
CONTINUOUS
 62
7
100
AcDbLine
 10
355.5611233460357
 20
134.1543074862823
 30
0.000000000000000
 11
355.5611233460357
 21
137.1543074862823
 31
0.000000000000000
  0
LINE
  5
AF
100
AcDbEntity
  8
0
  6
CONTINUOUS
 62
7
100
AcDbLine
 10
355.5611233460357
 20
137.1543074862823
 30
0.000000000000000
 11
350.5611233460357
 21
137.1543074862823
 31
0.000000000000000
  0
LINE
  5
B0
100
AcDbEntity
  8
0
  6
CONTINUOUS
 62
7
100
AcDbLine
 10
355.5611233460357
 20
134.6543074862823
 30
0.000000000000000
 11
393.5611233460357
 21
134.6543074862823
 31
0.000000000000000
  0
LINE
  5
B1
100
AcDbEntity
  8
0
  6
CONTINUOUS
 62
7
100
AcDbLine
 10
395.5611233460357
 20
135.1543074862823
 30
0.000000000000000
 11
395.5611233460357
 21
154.6543074862823
 31
0.000000000000000
  0
ARC
  5
B2
100
AcDbEntity
  8
0
  6
CONTINUOUS
 62
7
100
AcDbCircle
 10
393.5611233460357
 20
135.1543074862823
 30
0.000000000000000
 40
2.000000000000000
100
AcDbArc
 50
270.0000000000000
 51
360.0000000000000
  0
LINE
  5
B3
100
AcDbEntity
  8
0
  6
CONTINUOUS
 62
7
100
AcDbLine
 10
394.0611233460357
 20
135.1543074862823
 30
0.000000000000000
 11
394.0611233460357
 21
154.6543074862823
 31
0.000000000000000
  0
ARC
  5
B4
100
AcDbEntity
  8
0
  6
CONTINUOUS
 62
7
100
AcDbCircle
 10
392.0611233460357
 20
152.6543074862823
 30
0.000000000000000
 40
2.000000000000000
100
AcDbArc
 50
0.000000000000000
 51
90.00000000000000
  0
LINE
  5
B5
100
AcDbEntity
  8
0
  6
CONTINUOUS
 62
7
100
AcDbLine
 10
393.5611233460357
 20
158.1543074862823
 30
0.000000000000000
 11
385.9842003460359
 21
158.1543074862823
 31
0.000000000000000
  0
LINE
  5
B6
100
AcDbEntity
  8
0
  6
CONTINUOUS
 62
7
100
AcDbLine
 10
395.5611233460357
 20
154.6543074862823
 30
0.000000000000000
 11
395.5611233460357
 21
156.1543074862823
 31
0.000000000000000
  0
ARC
  5
B7
100
AcDbEntity
  8
0
  6
CONTINUOUS
 62
7
100
AcDbCircle
 10
393.5611233460357
 20
156.1543074862823
 30
0.000000000000000
 40
2.000000000000000
100
AcDbArc
 50
0.000000000000000
 51
90.00000000000000
  0
LINE
  5
B8
100
AcDbEntity
  8
0
  6
CONTINUOUS
 62
7
100
AcDbLine
 10
392.0611233460357
 20
154.6543074862823
 30
0.000000000000000
 11
388.5382723460358
 21
154.6543074862823
 31
0.000000000000000
  0
ARC
  5
B9
100
AcDbEntity
  8
0
  6
CONTINUOUS
 62
7
100
AcDbCircle
 10
388.5382723460358
 20
156.6543074862823
 30
0.000000000000000
 40
2.000000000000000
100
AcDbArc
 50
197.1027289999942
 51
270.0000000000000
  0
LINE
  5
BA
100
AcDbEntity
  8
0
  6
CONTINUOUS
 62
7
100
AcDbLine
 10
386.6267143460358
 20
156.0661354862823
 30
0.000000000000000
 11
385.4955323460359
 21
159.7424794862823
 31
0.000000000000000
  0
ARC
  5
BB
100
AcDbEntity
  8
0
  6
CONTINUOUS
 62
7
100
AcDbCircle
 10
383.5839743460359
 20
159.1543074862823
 30
0.000000000000000
 40
2.000000000000000
100
AcDbArc
 50
17.10272899999413
 51
90.00000000000000
  0
LINE
  5
BC
100
AcDbEntity
  8
0
  6
CONTINUOUS
 62
7
100
AcDbLine
 10
304.5226621737409
 20
156.1543074862823
 30
0.000000000000000
 11
298.5611233460357
 21
156.1543074862823
 31
0.000000000000000
  0
LINE
  5
BD
100
AcDbEntity
  8
0
  6
CONTINUOUS
 62
7
100
AcDbLine
 10
386.5995845183307
 20
156.1543074862823
 30
0.000000000000000
 11
392.5611233460357
 21
156.1543074862823
 31
0.000000000000000
  0
ARC
  5
BE
100
AcDbEntity
  8
0
  6
CONTINUOUS
 62
7
100
AcDbCircle
 10
297.5611233460357
 20
135.1543074862823
 30
0.000000000000000
 40
0.5000000000000000
100
AcDbArc
 50
180.0000000000000
 51
270.0000000000000
  0
ARC
  5
BF
100
AcDbEntity
  8
0
  6
CONTINUOUS
 62
7
100
AcDbCircle
 10
393.5611233460357
 20
135.1543074862823
 30
0.000000000000000
 40
0.5000000000000000
100
AcDbArc
 50
270.0000000000000
 51
360.0000000000000
  0
LINE
  5
C0
100
AcDbEntity
  8
0
  6
CONTINUOUS
 62
7
100
AcDbLine
 10
307.5382723460358
 20
161.1543074862823
 30
0.000000000000000
 11
383.5839743460359
 21
161.1543074862823
 31
0.000000000000000
  0
LINE
  5
C1
100
AcDbEntity
  8
0
  6
CONTINUOUS
 62
7
100
AcDbLine
 10
297.5611233460357
 20
133.1543074862821
 30
0.000000000000000
 11
393.5611233460357
 21
133.1543074862821
 31
0.000000000000000
  0
CIRCLE
  5
C2
100
AcDbEntity
  8
0
  6
CONTINUOUS
 62
7
100
AcDbCircle
 10
345.5611233460357
 20
153.6562029197218
 30
0.000000000000000
 40
3.000000000000000
  0
CIRCLE
  5
C3
100
AcDbEntity
  8
0
  6
CONTINUOUS
 62
7
100
AcDbCircle
 10
345.5611233460358
 20
153.6562029197218
 30
0.000000000000000
 40
1.500000000000000
  0
LINE
  5
C4
100
AcDbEntity
  8
0
  6
CONTINUOUS
 62
7
100
AcDbLine
 10
344.8558490025907
 20
154.3614772631647
 30
0.000000000000000
 11
345.5611233460356
 21
155.1562029197216
 31
0.000000000000000
  0
LINE
  5
C5
100
AcDbEntity
  8
0
  6
CONTINUOUS
 62
7
100
AcDbLine
 10
345.5611233460352
 20
155.1562029197216
 30
0.000000000000000
 11
346.2663976894785
 21
154.3614772631647
 31
0.000000000000000
  0
LINE
  5
C6
100
AcDbEntity
  8
0
  6
CONTINUOUS
 62
7
100
AcDbLine
 10
345.3111233460357
 20
154.3614772631649
 30
0.000000000000000
 11
345.3111233460357
 21
152.1771829739466
 31
0.000000000000000
  0
LINE
  5
C7
100
AcDbEntity
  8
0
  6
CONTINUOUS
 62
7
100
AcDbLine
 10
345.8111233460357
 20
154.3614772631649
 30
0.000000000000000
 11
345.8111233460357
 21
152.1771829739466
 31
0.000000000000000
  0
LINE
  5
C8
100
AcDbEntity
  8
0
  6
CONTINUOUS
 62
7
100
AcDbLine
 10
345.3111233460357
 20
154.3614772631649
 30
0.000000000000000
 11
344.8558490025907
 21
154.3614772631649
 31
0.000000000000000
  0
LINE
  5
C9
100
AcDbEntity
  8
0
  6
CONTINUOUS
 62
7
100
AcDbLine
 10
346.2663976894789
 20
154.3614772631649
 30
0.000000000000000
 11
345.8111233460357
 21
154.3614772631649
 31
0.000000000000000
  0
LINE
  5
CA
100
AcDbEntity
  8
A20
  6
CENTER
 62
1
100
AcDbLine
 10
345.5611233460357
 20
158.1562029197218
 30
0.000000000000000
 11
345.5611233460357
 21
162.6543074862823
 31
0.000000000000000
  0
LINE
  5
CB
100
AcDbEntity
  8
A4
  6
CENTER
 62
1
100
AcDbLine
 10
345.5611233460357
 20
131.6543074862821
 30
0.000000000000000
 11
345.5611233460357
 21
149.1562029197218
 31
0.000000000000000
  0
LINE
  5
CC
100
AcDbEntity
  8
A4
  6
CENTER
 62
1
100
AcDbLine
 10
294.0611233460357
 20
145.4043074862824
 30
0.000000000000000
 11
397.0611233460357
 21
145.4043074862824
 31
0.000000000000000
  0
LINE
  5
CD
100
AcDbEntity
  8
0
  6
CONTINUOUS
 62
7
100
AcDbLine
 10
340.5611233460357
 20
134.1543074862823
 30
0.000000000000000
 11
340.5611233460357
 21
137.1543074862823
 31
0.000000000000000
  0
LINE
  5
CE
100
AcDbEntity
  8
0
  6
CONTINUOUS
 62
7
100
AcDbLine
 10
350.5611233460357
 20
134.1543074862823
 30
0.000000000000000
 11
350.5611233460357
 21
137.1543074862823
 31
0.000000000000000
  0
ARC
  5
CF
100
AcDbEntity
  8
0
  6
CONTINUOUS
 62
7
100
AcDbCircle
 10
392.5611233460357
 20
154.6543074862823
 30
0.000000000000000
 40
1.500000000000000
100
AcDbArc
 50
0.000000000000000
 51
90.00000000000000
  0
ARC
  5
D0
100
AcDbEntity
  8
0
  6
CONTINUOUS
 62
7
100
AcDbCircle
 10
298.5611233460357
 20
154.6543074862823
 30
0.000000000000000
 40
1.500000000000000
100
AcDbArc
 50
90.00000000000000
 51
180.0000000000000
  0
SPLINE
  5
D1
100
AcDbEntity
  8
0
  6
CONTINUOUS
 62
7
100
AcDbSpline
210
0.000000000000000
220
0.000000000000000
230
1.000000000000000
 70
     8
 71
     3
 72
    18
 73
    14
 74
     0
 42
1.000000000000000e-07
 43
1.000000000000000e-07
 12
0.9999954706452172
 22
-0.003009765530123332
 32
0.000000000000000
 13
0.9999623676940246
 23
-0.008675436391058611
 33
0.000000000000000
 40
0.000000000000000
 40
0.000000000000000
 40
0.000000000000000
 40
0.000000000000000
 40
0.1769016843524899
 40
0.4253246484653701
 40
0.6732112762997927
 40
0.9186885383869232
 40
1.159891875426661
 40
1.394908363280588
 40
1.622058271797426
 40
1.839898929680622
 40
2.047203120823291
 40
2.251457000318734
 40
2.288767283720154
 40
2.288767283720154
 40
2.288767283720154
 40
2.288767283720154
 10
92.63678253541646
 20
77.52235891261147
 30
0.000000000000000
 10
92.69574949645047
 20
77.52218143508087
 30
0.000000000000000
 10
92.83752336013109
 20
77.52161564318185
 30
0.000000000000000
 10
93.06192272306319
 20
77.52016728196746
 30
0.000000000000000
 10
93.30917545810628
 20
77.51797117286584
 30
0.000000000000000
 10
93.55401657640255
 20
77.51528083834107
 30
0.000000000000000
 10
93.79456279709810
 20
77.51221223739576
 30
0.000000000000000
 10
94.02899588374456
 20
77.50888812221676
 30
0.000000000000000
 10
94.25563830864074
 20
77.50541633565065
 30
0.000000000000000
 10
94.47304249235015
 20
77.50195711976535
 30
0.000000000000000
 10
94.68281196625273
 20
77.49842158979935
 30
0.000000000000000
 10
94.83241959553972
 20
77.49621693186735
 30
0.000000000000000
 10
94.91293765125931
 20
77.49547789595967
 30
0.000000000000000
 10
94.92537394436911
 20
77.49537000162955
 30
0.000000000000000
  0
SPLINE
  5
D2
100
AcDbEntity
  8
0
  6
CONTINUOUS
 62
7
100
AcDbSpline
210
0.000000000000000
220
0.000000000000000
230
1.000000000000000
 70
     8
 71
     3
 72
    16
 73
    12
 74
     0
 42
1.000000000000000e-07
 43
1.000000000000000e-07
 12
-0.9999975143027768
 22
0.002229660890407104
 32
0.000000000000000
 13
-0.9999999644386435
 23
0.0002666880154151841
 33
0.000000000000000
 40
0.000000000000000
 40
0.000000000000000
 40
0.000000000000000
 40
0.000000000000000
 40
0.06586879450217380
 40
0.2868924574817732
 40
0.5255634706767820
 40
0.7682389167526895
 40
1.024116939767187
 40
1.300161714935344
 40
1.586382781205925
 40
2.040794616065208
 40
2.514806999708889
 40
2.514806999708889
 40
2.514806999708889
 40
2.514806999708889
 10
95.15136825835593
 20
77.49360478385766
 30
0.000000000000000
 10
95.12941204809850
 20
77.49365373888266
 30
0.000000000000000
 10
95.03378163079911
 20
77.49399689477177
 30
0.000000000000000
 10
94.85860210475538
 20
77.49597224599556
 30
0.000000000000000
 10
94.62451450245516
 20
77.50008914262405
 30
0.000000000000000
 10
94.37882604312091
 20
77.50520431241854
 30
0.000000000000000
 10
94.12068676313206
 20
77.51077379431156
 30
0.000000000000000
 10
93.84802840099178
 20
77.51632343534185
 30
0.000000000000000
 10
93.50918795576500
 20
77.52229396480926
 30
0.000000000000000
 10
93.10433424202168
 20
77.52735976602436
 30
0.000000000000000
 10
92.79485791448971
 20
77.52865866360305
 30
0.000000000000000
 10
92.63685379222731
 20
77.52870080141035
 30
0.000000000000000
  0
SPLINE
  5
D3
100
AcDbEntity
  8
0
  6
CONTINUOUS
 62
7
100
AcDbSpline
210
0.000000000000000
220
0.000000000000000
230
1.000000000000000
 70
     8
 71
     3
 72
    18
 73
    14
 74
     0
 42
1.000000000000000e-07
 43
1.000000000000000e-07
 12
0.9999311250921892
 22
0.01173648467374733
 32
0.000000000000000
 13
0.9999956679257593
 23
0.002943489877907268
 33
0.000000000000000
 40
0.000000000000000
 40
0.000000000000000
 40
0.000000000000000
 40
0.000000000000000
 40
0.09232470807748670
 40
0.3058972477086713
 40
0.5068928847134750
 40
0.7267294259456059
 40
0.9554051703242236
 40
1.191728479265452
 40
1.434257365187355
 40
1.681368790493557
 40
1.931136185345878
 40
2.181645938700189
 40
2.221714386513069
 40
2.221714386513069
 40
2.221714386513069
 40
2.221714386513069
 10
176.3696592370435
 20
77.49603280616726
 30
0.000000000000000
 10
176.4004320201174
 20
77.49639399534105
 30
0.000000000000000
 10
176.5023900329375
 20
77.49766462111417
 30
0.000000000000000
 10
176.6713291450955
 20
77.50061023242417
 30
0.000000000000000
 10
176.8827703079539
 20
77.50398735329794
 30
0.000000000000000
 10
177.0992462553038
 20
77.50738998590687
 30
0.000000000000000
 10
177.3275001829251
 20
77.51074434812266
 30
0.000000000000000
 10
177.5633215750682
 20
77.51391649357727
 30
0.000000000000000
 10
177.8052926067288
 20
77.51678211270224
 30
0.000000000000000
 10
178.0517499466384
 20
77.51922234690166
 30
0.000000000000000
 10
178.3008724888870
 20
77.52111959873675
 30
0.000000000000000
 10
178.4809857793034
 20
77.52200804885736
 30
0.000000000000000
 10
178.5778446800668
 20
77.52231953407586
 30
0.000000000000000
 10
178.5912007714779
 20
77.52235884776606
 30
0.000000000000000
  0
SPLINE
  5
D4
100
AcDbEntity
  8
0
  6
CONTINUOUS
 62
7
100
AcDbSpline
210
0.000000000000000
220
0.000000000000000
230
1.000000000000000
 70
     8
 71
     3
 72
    16
 73
    12
 74
     0
 42
1.000000000000000e-07
 43
1.000000000000000e-07
 12
0.9999975581267790
 22
0.002209917970958486
 32
0.000000000000000
 13
0.9999999644389845
 23
0.0002666880154151841
 33
0.000000000000000
 40
0.000000000000000
 40
0.000000000000000
 40
0.000000000000000
 40
0.000000000000000
 40
0.06624063088605360
 40
0.2872642938825559
 40
0.5259353070792071
 40
0.7686107531562102
 40
1.024488776171657
 40
1.300533551340690
 40
1.586754617612216
 40
2.041166452473362
 40
2.515178836131325
 40
2.515178836131325
 40
2.515178836131325
 40
2.515178836131325
 10
176.0762653384774
 20
77.49360410344615
 30
0.000000000000000
 10
176.0983454948557
 20
77.49365289889967
 30
0.000000000000000
 10
176.1940998635443
 20
77.49399541929655
 30
0.000000000000000
 10
176.3694033282373
 20
77.49597227817075
 30
0.000000000000000
 10
176.6034909308989
 20
77.50008913357617
 30
0.000000000000000
 10
176.8491793901343
 20
77.50520431500125
 30
0.000000000000000
 10
177.1073186701530
 20
77.51077379354315
 30
0.000000000000000
 10
177.3799770322857
 20
77.51632343555936
 30
0.000000000000000
 10
177.7188174775164
 20
77.52229396470985
 30
0.000000000000000
 10
178.1236711912643
 20
77.52735976605926
 30
0.000000000000000
 10
178.4331475188019
 20
77.52865866360305
 30
0.000000000000000
 10
178.5911516410691
 20
77.52870080141035
 30
0.000000000000000
  0
SPLINE
  5
D5
100
AcDbEntity
  8
0
  6
CONTINUOUS
 62
7
100
AcDbSpline
210
0.000000000000000
220
0.000000000000000
230
1.000000000000000
 70
     8
 71
     3
 72
    25
 73
    21
 74
     0
 42
1.000000000000000e-07
 43
1.000000000000000e-07
 12
0.9999999973133527
 22
-7.336362023124821e-05
 32
0.000000000000000
 13
0.4454877192165441
 23
0.8952880497463411
 33
0.000000000000000
 40
0.000000000000000
 40
0.000000000000000
 40
0.000000000000000
 40
0.000000000000000
 40
0.05862752677288910
 40
0.1695197484870460
 40
0.2800496093891212
 40
0.3913703981893655
 40
0.5160615876392440
 40
0.6402414776489218
 40
0.7417386195396755
 40
0.8417303690459139
 40
0.9537435269813643
 40
1.083414485316186
 40
1.220360578981386
 40
1.362886205957156
 40
1.509637379193064
 40
1.659380551436718
 40
1.811180877510362
 40
1.964384599447069
 40
2.118568050646174
 40
2.166716382790024
 40
2.166716382790024
 40
2.166716382790024
 40
2.166716382790024
 10
182.1140054243907
 20
77.52606656080646
 30
0.000000000000000
 10
182.1335479332625
 20
77.52606512709725
 30
0.000000000000000
 10
182.1900545490043
 20
77.52623909791815
 30
0.000000000000000
 10
182.2834005185252
 20
77.52731254597255
 30
0.000000000000000
 10
182.3942853591626
 20
77.53002301853637
 30
0.000000000000000
 10
182.5097103382701
 20
77.53472213169907
 30
0.000000000000000
 10
182.6295370891647
 20
77.54255998493007
 30
0.000000000000000
 10
182.7457305797950
 20
77.55481576204936
 30
0.000000000000000
 10
182.8529909776694
 20
77.57185186279786
 30
0.000000000000000
 10
182.9551953101978
 20
77.59391058836256
 30
0.000000000000000
 10
183.0648607123644
 20
77.62498032471954
 30
0.000000000000000
 10
183.1834628109424
 20
77.66856263507775
 30
0.000000000000000
 10
183.3071227740474
 20
77.72650328559375
 30
0.000000000000000
 10
183.4299200362438
 20
77.79837103180476
 30
0.000000000000000
 10
183.5488063669004
 20
77.88409469366805
 30
0.000000000000000
 10
183.6610671281329
 20
77.98309172321704
 30
0.000000000000000
 10
183.7643679299655
 20
78.09437791176747
 30
0.000000000000000
 10
183.8567904760852
 20
78.21670733698134
 30
0.000000000000000
 10
183.9183406551187
 20
78.31825506049667
 30
0.000000000000000
 10
183.9493500355959
 20
78.37815600759915
 30
0.000000000000000
 10
183.9564998658195
 20
78.39252488306035
 30
0.000000000000000
  0
SPLINE
  5
D6
100
AcDbEntity
  8
0
  6
CONTINUOUS
 62
7
100
AcDbSpline
210
0.000000000000000
220
0.000000000000000
230
1.000000000000000
 70
     8
 71
     3
 72
    28
 73
    24
 74
     0
 42
1.000000000000000e-07
 43
1.000000000000000e-07
 12
0.2358669582436050
 22
-0.9717853559295691
 32
0.000000000000000
 13
0.9999999469014256
 23
0.0003258782435295871
 33
0.000000000000000
 40
0.000000000000000
 40
0.000000000000000
 40
0.000000000000000
 40
0.000000000000000
 40
0.04635641783506490
 40
0.2025773859017949
 40
0.3554330988145966
 40
0.5049767309248177
 40
0.6511936882595822
 40
0.7940052769855122
 40
0.9332646149527187
 40
1.068729717021188
 40
1.200045986678715
 40
1.326662439369734
 40
1.447691611220072
 40
1.561727237402836
 40
1.664106294401942
 40
1.755681915053382
 40
1.844250109269126
 40
1.938138940028798
 40
2.058141831448039
 40
2.173502325856532
 40
2.280723790256953
 40
2.397233547230198
 40
2.502979129541989
 40
2.502979129541989
 40
2.502979129541989
 40
2.502979129541989
 10
87.15642652675363
 20
78.70787540086927
 30
0.000000000000000
 10
87.16007117584358
 20
78.69285923820077
 30
0.000000000000000
 10
87.17700784738850
 20
78.62748514868007
 30
0.000000000000000
 10
87.21444883555196
 20
78.51482497689405
 30
0.000000000000000
 10
87.27739849034349
 20
78.37523498673185
 30
0.000000000000000
 10
87.35236222454901
 20
78.24555568772097
 30
0.000000000000000
 10
87.43772101147786
 20
78.12659056205435
 30
0.000000000000000
 10
87.53181428828861
 20
78.01893959301457
 30
0.000000000000000
 10
87.63293414820657
 20
77.92302043815427
 30
0.000000000000000
 10
87.73932102573674
 20
77.83905842174697
 30
0.000000000000000
 10
87.84913554284365
 20
77.76709011298284
 30
0.000000000000000
 10
87.96039342070949
 20
77.70696382279986
 30
0.000000000000000
 10
88.07084280528349
 20
77.65832691298515
 30
0.000000000000000
 10
88.17700549508801
 20
77.62085901504115
 30
0.000000000000000
 10
88.27597488569221
 20
77.59331410013196
 30
0.000000000000000
 10
88.36805350347879
 20
77.57335244588937
 30
0.000000000000000
 10
88.45820434870609
 20
77.55843761399986
 30
0.000000000000000
 10
88.55832597597210
 20
77.54635844355924
 30
0.000000000000000
 10
88.66775536253175
 20
77.53762115389175
 30
0.000000000000000
 10
88.78181486241083
 20
77.53187690257614
 30
0.000000000000000
 10
88.89479429535163
 20
77.52832584523675
 30
0.000000000000000
 10
89.00460727228175
 20
77.52646926922075
 30
0.000000000000000
 10
89.07869291002989
 20
77.52605507426965
 30
0.000000000000000
 10
89.11394143559551
 20
77.52606656099785
 30
0.000000000000000
  0
SPLINE
  5
D7
100
AcDbEntity
  8
0
  6
CONTINUOUS
 62
7
100
AcDbSpline
210
0.000000000000000
220
0.000000000000000
230
1.000000000000000
 70
     8
 71
     3
 72
    12
 73
     8
 74
     0
 42
1.000000000000000e-07
 43
1.000000000000000e-07
 12
0.9999953136584736
 22
-0.003061480291762564
 32
0.000000000000000
 13
0.7209407312693656
 23
0.6929967258383840
 33
0.000000000000000
 40
0.000000000000000
 40
0.000000000000000
 40
0.000000000000000
 40
0.000000000000000
 40
0.1652676737731107
 40
0.3119969717913438
 40
0.4239554387126985
 40
0.4892841664004706
 40
0.5052907497208018
 40
0.5052907497208018
 40
0.5052907497208018
 40
0.5052907497208018
 10
182.1140027166482
 20
77.52870080141035
 30
0.000000000000000
 10
182.1690916830723
 20
77.52853214683496
 30
0.000000000000000
 10
182.2727610174616
 20
77.53041609589324
 30
0.000000000000000
 10
182.4152753065588
 20
77.53296534146405
 30
0.000000000000000
 10
182.5199967314893
 20
77.54613055207706
 30
0.000000000000000
 10
182.5890069791876
 20
77.54662172503136
 30
0.000000000000000
 10
182.6101561173535
 20
77.56443700619865
 30
0.000000000000000
 10
182.6140027166482
 20
77.56813450947625
 30
0.000000000000000
  0
SPLINE
  5
D8
100
AcDbEntity
  8
0
  6
CONTINUOUS
 62
7
100
AcDbSpline
210
0.000000000000000
220
0.000000000000000
230
1.000000000000000
 70
     8
 71
     3
 72
    12
 73
     8
 74
     0
 42
1.000000000000000e-07
 43
1.000000000000000e-07
 12
-0.9999953136580189
 22
-0.003061480291989938
 32
0.000000000000000
 13
-0.7209407312693656
 23
0.6929967258383840
 33
0.000000000000000
 40
0.000000000000000
 40
0.000000000000000
 40
0.000000000000000
 40
0.000000000000000
 40
0.1652676737731231
 40
0.3119969717913527
 40
0.4239554387127074
 40
0.4892841664004812
 40
0.5052907497208041
 40
0.5052907497208041
 40
0.5052907497208041
 40
0.5052907497208041
 10
89.11400271664820
 20
77.52870080141035
 30
0.000000000000000
 10
89.05891375022411
 20
77.52853214683496
 30
0.000000000000000
 10
88.95524441583480
 20
77.53041609589336
 30
0.000000000000000
 10
88.81273012673753
 20
77.53296534146396
 30
0.000000000000000
 10
88.70800870180716
 20
77.54613055207706
 30
0.000000000000000
 10
88.63899845410880
 20
77.54662172503136
 30
0.000000000000000
 10
88.61784931594289
 20
77.56443700619865
 30
0.000000000000000
 10
88.61400271664820
 20
77.56813450947625
 30
0.000000000000000
  0
ELLIPSE
  5
D9
100
AcDbEntity
  8
0
  6
CONTINUOUS
 62
7
100
AcDbEllipse
 10
88.61400271664820
 20
79.06254274076706
 30
0.000000000000000
 11
1.500000000000000
 21
0.000000000000000
 31
0.000000000000000
210
0.000000000000000
220
0.000000000000000
230
1.000000000000000
 40
0.9962721541938867
 41
3.141592653589793
 42
4.712388980384690
  0
ELLIPSE
  5
DA
100
AcDbEntity
  8
0
  6
CONTINUOUS
 62
7
100
AcDbEllipse
 10
182.6140027166482
 20
79.06254274076706
 30
0.000000000000000
 11
-1.500000000000000
 21
0.000000000000000
 31
0.000000000000000
210
0.000000000000000
220
0.000000000000000
230
1.000000000000000
 40
0.9962721541938867
 41
1.570796326794897
 42
3.141592653589793
  0
ELLIPSE
  5
DB
100
AcDbEntity
  8
0
  6
CONTINUOUS
 62
7
100
AcDbEllipse
 10
183.6140027166354
 20
96.14357759335407
 30
0.000000000000000
 11
-2.000000000000000
 21
0.000000000000000
 31
0.000000000000000
210
0.000000000000000
220
0.000000000000000
230
1.000000000000000
 40
0.07499999999999971
 41
1.570796326794897
 42
3.141592653589793
  0
ELLIPSE
  5
DC
100
AcDbEntity
  8
0
  6
CONTINUOUS
 62
7
100
AcDbEllipse
 10
87.61400271666103
 20
96.14357759335407
 30
0.000000000000000
 11
-2.000000000000000
 21
0.000000000000000
 31
0.000000000000000
210
0.000000000000000
220
0.000000000000000
230
1.000000000000000
 40
0.07499999999999971
 41
0.000000000000000
 42
1.570796326794897
  0
ARC
  5
DD
100
AcDbEntity
  8
0
  6
CONTINUOUS
 62
7
100
AcDbCircle
 10
182.6099711040709
 20
79.06257924827496
 30
0.000000000000000
 40
1.504032100242288
100
AcDbArc
 50
333.5443237900080
 51
359.1812963682469
  0
ARC
  5
DE
100
AcDbEntity
  8
0
  6
CONTINUOUS
 62
7
100
AcDbCircle
 10
88.61778084963753
 20
79.06254751548055
 30
0.000000000000000
 40
1.503778163790894
100
AcDbArc
 50
180.3908149009729
 51
193.6419692542777
  0
LINE
  5
DF
100
AcDbEntity
  8
0
  6
CONTINUOUS
 62
7
100
AcDbLine
 10
182.3640027166354
 20
97.49357759335408
 30
0.000000000000000
 11
88.86400271666102
 21
97.49357759335406
 31
0.000000000000000
  0
LINE
  5
E0
100
AcDbEntity
  8
0
  6
CONTINUOUS
 62
7
100
AcDbLine
 10
89.11400271664822
 20
77.52606656080614
 30
0.000000000000000
 11
92.63685379222737
 21
77.52606656080614
 31
0.000000000000000
  0
LINE
  5
E1
100
AcDbEntity
  8
0
  6
CONTINUOUS
 62
7
100
AcDbLine
 10
178.5911516410691
 20
77.52606656080616
 30
0.000000000000000
 11
182.1140027166482
 21
77.52606656080616
 31
0.000000000000000
  0
LINE
  5
E2
100
AcDbEntity
  8
0
  6
CONTINUOUS
 62
7
100
AcDbLine
 10
92.63685379222733
 20
77.52606656080614
 30
0.000000000000000
 11
92.63685379222733
 21
77.52870080141035
 31
0.000000000000000
  0
LINE
  5
E3
100
AcDbEntity
  8
0
  6
CONTINUOUS
 62
7
100
AcDbLine
 10
178.5911516410691
 20
77.52606656080616
 30
0.000000000000000
 11
178.5911516410691
 21
77.52870080141037
 31
0.000000000000000
  0
LINE
  5
E4
100
AcDbEntity
  8
0
  6
CONTINUOUS
 62
7
100
AcDbLine
 10
184.1138496620671
 20
79.04108875366855
 30
0.000000000000000
 11
184.1140027027061
 21
79.06233797429978
 31
0.000000000000000
  0
LINE
  5
E5
100
AcDbEntity
  8
0
  6
CONTINUOUS
 62
7
100
AcDbLine
 10
182.1140027166482
 20
77.52606853980788
 30
0.000000000000000
 11
182.1140027166482
 21
77.52870080141037
 31
0.000000000000000
  0
LINE
  5
E6
100
AcDbEntity
  8
0
  6
CONTINUOUS
 62
7
100
AcDbLine
 10
89.11400271664822
 20
77.52606675138254
 30
0.000000000000000
 11
89.11400271664822
 21
77.52870080141035
 31
0.000000000000000
  0
LINE
  5
E7
100
AcDbEntity
  8
0
  6
CONTINUOUS
 62
7
100
AcDbLine
 10
87.11400271664822
 20
94.49357759335395
 30
0.000000000000000
 11
87.11400271664822
 21
79.06254274076694
 31
0.000000000000000
  0
LINE
  5
E8
100
AcDbEntity
  8
0
  6
CONTINUOUS
 62
7
100
AcDbLine
 10
184.1140027166482
 20
94.49357759335396
 30
0.000000000000000
 11
184.1140027166482
 21
79.06254274076696
 31
0.000000000000000
  0
LINE
  5
E9
100
AcDbEntity
  8
0
  6
CONTINUOUS
 62
7
100
AcDbLine
 10
92.63685379222733
 20
77.52870080141035
 30
0.000000000000000
 11
89.11400271664822
 21
77.52870080141035
 31
0.000000000000000
  0
LINE
  5
EA
100
AcDbEntity
  8
0
  6
CONTINUOUS
 62
7
100
AcDbLine
 10
178.5911516410691
 20
77.52870080141037
 30
0.000000000000000
 11
182.1140027166482
 21
77.52870080141037
 31
0.000000000000000
  0
LINE
  5
EB
100
AcDbEntity
  8
0
  6
CONTINUOUS
 62
7
100
AcDbLine
 10
95.17650628149872
 20
77.49357759335395
 30
0.000000000000000
 11
176.0514991517976
 21
77.49357759335396
 31
0.000000000000000
  0
LINE
  5
EC
100
AcDbEntity
  8
0
  6
CONTINUOUS
 62
7
100
AcDbLine
 10
95.17879594250137
 20
77.49357769383342
 30
0.000000000000000
 11
95.15136825835589
 21
77.49360478385763
 31
0.000000000000000
  0
LINE
  5
ED
100
AcDbEntity
  8
0
  6
CONTINUOUS
 62
7
100
AcDbLine
 10
176.0492094907950
 20
77.49357769383352
 30
0.000000000000000
 11
176.0762653384774
 21
77.49360410344622
 31
0.000000000000000
  0
LINE
  5
EE
100
AcDbEntity
  8
0
  6
CONTINUOUS
 62
7
100
AcDbLine
 10
125.6140027166482
 20
93.19357755235646
 30
0.000000000000000
 11
125.6140027166482
 21
90.49357753120216
 31
0.000000000000000
  0
LINE
  5
EF
100
AcDbEntity
  8
0
  6
CONTINUOUS
 62
7
100
AcDbLine
 10
130.6140027166482
 20
93.19357755235646
 30
0.000000000000000
 11
130.6140027166482
 21
90.49357753120228
 31
0.000000000000000
  0
LINE
  5
F0
100
AcDbEntity
  8
0
  6
CONTINUOUS
 62
7
100
AcDbLine
 10
130.6140027166482
 20
90.49357753120216
 30
0.000000000000000
 11
125.6140027166482
 21
90.49357753120216
 31
0.000000000000000
  0
LINE
  5
F1
100
AcDbEntity
  8
0
  6
CONTINUOUS
 62
7
100
AcDbLine
 10
145.6140027166482
 20
93.19357755235646
 30
0.000000000000000
 11
145.6140027166482
 21
90.49357753120216
 31
0.000000000000000
  0
LINE
  5
F2
100
AcDbEntity
  8
0
  6
CONTINUOUS
 62
7
100
AcDbLine
 10
140.6140027166482
 20
93.19357755235646
 30
0.000000000000000
 11
140.6140027166482
 21
90.49357753120228
 31
0.000000000000000
  0
LINE
  5
F3
100
AcDbEntity
  8
0
  6
CONTINUOUS
 62
7
100
AcDbLine
 10
140.6140027166482
 20
90.49357753120216
 30
0.000000000000000
 11
145.6140027166482
 21
90.49357753120216
 31
0.000000000000000
  0
LINE
  5
F4
100
AcDbEntity
  8
0
  6
CONTINUOUS
 62
7
100
AcDbLine
 10
145.6140027166481
 20
93.49357759335398
 30
0.000000000000000
 11
145.6140027166482
 21
93.19357755235647
 31
0.000000000000000
  0
LINE
  5
F5
100
AcDbEntity
  8
0
  6
CONTINUOUS
 62
7
100
AcDbLine
 10
140.6140027166482
 20
93.49357760457634
 30
0.000000000000000
 11
145.6140027166481
 21
93.49357759335395
 31
0.000000000000000
  0
LINE
  5
F6
100
AcDbEntity
  8
0
  6
CONTINUOUS
 62
7
100
AcDbLine
 10
140.6140027166482
 20
93.49357760457636
 30
0.000000000000000
 11
140.6140027166482
 21
93.19357755235646
 31
0.000000000000000
  0
LINE
  5
F7
100
AcDbEntity
  8
0
  6
CONTINUOUS
 62
7
100
AcDbLine
 10
125.6140027166483
 20
93.49357759335399
 30
0.000000000000000
 11
125.6140027166482
 21
93.19357755235649
 31
0.000000000000000
  0
LINE
  5
F8
100
AcDbEntity
  8
0
  6
CONTINUOUS
 62
7
100
AcDbLine
 10
130.6140027166482
 20
93.49357760457636
 30
0.000000000000000
 11
130.6140027166482
 21
93.19357755235646
 31
0.000000000000000
  0
LINE
  5
F9
100
AcDbEntity
  8
0
  6
CONTINUOUS
 62
7
100
AcDbLine
 10
130.6140027166482
 20
93.49357760457636
 30
0.000000000000000
 11
125.6140027166483
 21
93.49357759335396
 31
0.000000000000000
  0
LINE
  5
FA
100
AcDbEntity
  8
0
  6
CONTINUOUS
 62
7
100
AcDbLine
 10
85.61400271666103
 20
96.14357759335407
 30
0.000000000000000
 11
85.61400271666103
 21
94.49357759335395
 31
0.000000000000000
  0
LINE
  5
FB
100
AcDbEntity
  8
0
  6
CONTINUOUS
 62
7
100
AcDbLine
 10
85.61400271666103
 20
94.49357759335395
 30
0.000000000000000
 11
87.61400271666103
 21
94.49357759335395
 31
0.000000000000000
  0
LINE
  5
FC
100
AcDbEntity
  8
0
  6
CONTINUOUS
 62
7
100
AcDbLine
 10
185.6140027166354
 20
94.49357759335396
 30
0.000000000000000
 11
183.6140027166354
 21
94.49357759335396
 31
0.000000000000000
  0
LINE
  5
FD
100
AcDbEntity
  8
0
  6
CONTINUOUS
 62
7
100
AcDbLine
 10
185.6140027166354
 20
96.14357759335408
 30
0.000000000000000
 11
185.6140027166354
 21
94.49357759335396
 31
0.000000000000000
  0
LINE
  5
FE
100
AcDbEntity
  8
0
  6
CONTINUOUS
 62
7
100
AcDbLine
 10
183.6140027166354
 20
94.49357759335396
 30
0.000000000000000
 11
87.61400271666103
 21
94.49357759335395
 31
0.000000000000000
  0
LINE
  5
FF
100
AcDbEntity
  8
0
  6
CONTINUOUS
 62
7
100
AcDbLine
 10
183.6140027166354
 20
95.99357759335408
 30
0.000000000000000
 11
87.61400271666103
 21
95.99357759335406
 31
0.000000000000000
  0
LINE
  5
100
100
AcDbEntity
  8
0
  6
CONTINUOUS
 62
7
100
AcDbLine
 10
185.6140027166354
 20
97.49357759335396
 30
0.000000000000000
 11
185.6140027166354
 21
96.14357759335408
 31
0.000000000000000
  0
LINE
  5
101
100
AcDbEntity
  8
0
  6
CONTINUOUS
 62
7
100
AcDbLine
 10
185.6140027166354
 20
97.49357759335395
 30
0.000000000000000
 11
182.3640027166354
 21
97.49357759335406
 31
0.000000000000000
  0
LINE
  5
102
100
AcDbEntity
  8
0
  6
CONTINUOUS
 62
7
100
AcDbLine
 10
182.3640027166354
 20
96.21165316904188
 30
0.000000000000000
 11
182.3640027166354
 21
97.49357759335408
 31
0.000000000000000
  0
LINE
  5
103
100
AcDbEntity
  8
0
  6
CONTINUOUS
 62
7
100
AcDbLine
 10
182.3640027166354
 20
96.21165316904188
 30
0.000000000000000
 11
88.86400271666102
 21
96.21165316904187
 31
0.000000000000000
  0
LINE
  5
104
100
AcDbEntity
  8
0
  6
CONTINUOUS
 62
7
100
AcDbLine
 10
88.86400271666102
 20
96.21165316904187
 30
0.000000000000000
 11
88.86400271666102
 21
97.49357759335406
 31
0.000000000000000
  0
LINE
  5
105
100
AcDbEntity
  8
0
  6
CONTINUOUS
 62
7
100
AcDbLine
 10
85.61400271666103
 20
97.49357759335396
 30
0.000000000000000
 11
88.86400271666102
 21
97.49357759335408
 31
0.000000000000000
  0
LINE
  5
106
100
AcDbEntity
  8
0
  6
CONTINUOUS
 62
7
100
AcDbLine
 10
85.61400271666103
 20
97.49357759335395
 30
0.000000000000000
 11
85.61400271666103
 21
96.14357759335407
 31
0.000000000000000
  0
LINE
  5
107
100
AcDbEntity
  8
A4
  6
CENTER
 62
1
100
AcDbLine
 10
135.6140027166482
 20
98.99357759335396
 30
0.000000000000000
 11
135.6140027166482
 21
75.99357759335396
 31
0.000000000000000
  0
ENDSEC
  0
SECTION
  2
OBJECTS
  0
DICTIONARY
  5
138
100
AcDbDictionary
  3
ACAD_GROUP
350
139
  3
ACAD_LAYOUT
350
13A
  3
ACAD_MLINESTYLE
350
13B
  0
DICTIONARY
  5
139
102
{ACAD_REACTORS
330
138
102
}
330
138
100
AcDbDictionary
  0
DICTIONARY
  5
13A
102
{ACAD_REACTORS
330
138
102
}
330
138
100
AcDbDictionary
  3
Model
350
13C
  3
ﾚｲｱｳﾄ1
350
13D
  3
ﾚｲｱｳﾄ2
350
13E
  0
DICTIONARY
  5
13B
102
{ACAD_REACTORS
330
138
102
}
330
138
100
AcDbDictionary
  3
STANDARD
350
13F
  0
LAYOUT
  5
13C
102
{ACAD_REACTORS
330
13A
102
}
330
13A
100
AcDbPlotSettings
 70
11952
  4
A3
 44
297.000000
 45
420.000000
 73
  1
 72
  1
100
AcDbLayout
  1
Model
 71
0
330
12F
  0
LAYOUT
  5
13D
102
{ACAD_REACTORS
330
13A
102
}
330
13A
100
AcDbPlotSettings
100
AcDbLayout
  1
ﾚｲｱｳﾄ1
 71
1
330
130
  0
LAYOUT
  5
13E
102
{ACAD_REACTORS
330
13A
102
}
330
13A
100
AcDbPlotSettings
100
AcDbLayout
  1
ﾚｲｱｳﾄ2
 71
2
330
131
  0
MLINESTYLE
  5
13F
102
{ACAD_REACTORS
330
13B
102
}
330
13B
100
AcDbMlineStyle
  2
STANDARD
 70
     0
  3

 62
   256
 51
90.00
 52
90.00
 71
     2
 49
0.50
 62
   256
  6
BYLAYER
 49
-0.50
 62
   256
  6
BYLAYER
  0
ENDSEC
  0
EOF
