  0
SECTION
  2
HEADER
  9
$ACADVER
  1
AC1015
  9
$ACADMAINTVER
 70
    20
  9
$DWGCODEPAGE
  3
ANSI_932
  9
$INSBASE
 10
0.0
 20
0.0
 30
0.0
  9
$EXTMIN
 10
10.0
 20
9.999999999999998
 30
0.0
  9
$EXTMAX
 10
488.6919999999998
 20
286.39
 30
0.0
  9
$LIMMIN
 10
0.0
 20
0.0
  9
$LIMMAX
 10
495.0
 20
341.25
  9
$ORTHOMODE
 70
     1
  9
$REGENMODE
 70
     1
  9
$FILLMODE
 70
     1
  9
$QTEXTMODE
 70
     0
  9
$MIRRTEXT
 70
     1
  9
$LTSCALE
 40
20.0
  9
$ATTMODE
 70
     1
  9
$TEXTSIZE
 40
5.0
  9
$TRACEWID
 40
1.0
  9
$TEXTSTYLE
  7
STANDARD
  9
$CLAYER
  8
0
  9
$CELTYPE
  6
BYLAYER
  9
$CECOLOR
 62
   256
  9
$CELTSCALE
 40
1.0
  9
$DISPSILH
 70
     0
  9
$DIMSCALE
 40
1.0
  9
$DIMASZ
 40
3.0
  9
$DIMEXO
 40
1.0
  9
$DIMDLI
 40
10.0
  9
$DIMRND
 40
0.0
  9
$DIMDLE
 40
0.0
  9
$DIMEXE
 40
1.0
  9
$DIMTP
 40
0.0
  9
$DIMTM
 40
0.0
  9
$DIMTXT
 40
3.2
  9
$DIMCEN
 40
0.0
  9
$DIMTSZ
 40
0.0
  9
$DIMTOL
 70
     0
  9
$DIMLIM
 70
     0
  9
$DIMTIH
 70
     0
  9
$DIMTOH
 70
     0
  9
$DIMSE1
 70
     0
  9
$DIMSE2
 70
     0
  9
$DIMTAD
 70
     3
  9
$DIMZIN
 70
     8
  9
$DIMBLK
  1

  9
$DIMASO
 70
     1
  9
$DIMSHO
 70
     1
  9
$DIMPOST
  1

  9
$DIMAPOST
  1

  9
$DIMALT
 70
     0
  9
$DIMALTD
 70
     2
  9
$DIMALTF
 40
25.4
  9
$DIMLFAC
 40
1.0
  9
$DIMTOFL
 70
     1
  9
$DIMTVP
 40
0.0
  9
$DIMTIX
 70
     0
  9
$DIMSOXD
 70
     0
  9
$DIMSAH
 70
     1
  9
$DIMBLK1
  1

  9
$DIMBLK2
  1

  9
$DIMSTYLE
  2
STANDARD
  9
$DIMCLRD
 70
     0
  9
$DIMCLRE
 70
     0
  9
$DIMCLRT
 70
     0
  9
$DIMTFAC
 40
1.0
  9
$DIMGAP
 40
1.0
  9
$DIMJUST
 70
     0
  9
$DIMSD1
 70
     0
  9
$DIMSD2
 70
     0
  9
$DIMTOLJ
 70
     1
  9
$DIMTZIN
 70
     0
  9
$DIMALTZ
 70
     0
  9
$DIMALTTZ
 70
     0
  9
$DIMUPT
 70
     0
  9
$DIMDEC
 70
     4
  9
$DIMTDEC
 70
     4
  9
$DIMALTU
 70
     2
  9
$DIMALTTD
 70
     2
  9
$DIMTXSTY
  7
STANDARD
  9
$DIMAUNIT
 70
     0
  9
$DIMADEC
 70
     0
  9
$DIMALTRND
 40
0.0
  9
$DIMAZIN
 70
     0
  9
$DIMDSEP
 70
    46
  9
$DIMATFIT
 70
     3
  9
$DIMFRAC
 70
     0
  9
$DIMLDRBLK
  1

  9
$DIMLUNIT
 70
     2
  9
$DIMLWD
 70
    -2
  9
$DIMLWE
 70
    -2
  9
$DIMTMOVE
 70
     0
  9
$LUNITS
 70
     2
  9
$LUPREC
 70
     4
  9
$SKETCHINC
 40
1.0
  9
$FILLETRAD
 40
0.0
  9
$AUNITS
 70
     0
  9
$AUPREC
 70
     2
  9
$MENU
  1
.
  9
$ELEVATION
 40
0.0
  9
$PELEVATION
 40
0.0
  9
$THICKNESS
 40
0.0
  9
$LIMCHECK
 70
     0
  9
$CHAMFERA
 40
10.0
  9
$CHAMFERB
 40
10.0
  9
$CHAMFERC
 40
0.0
  9
$CHAMFERD
 40
0.0
  9
$SKPOLY
 70
     0
  9
$TDCREATE
 40
2450737.661849537
  9
$TDUCREATE
 40
2450737.286849537
  9
$TDUPDATE
 40
2457192.640137153
  9
$TDUUPDATE
 40
2457192.265137153
  9
$TDINDWG
 40
0.0000143519
  9
$TDUSRTIMER
 40
0.0000138657
  9
$USRTIMER
 70
     1
  9
$ANGBASE
 50
0.0
  9
$ANGDIR
 70
     0
  9
$PDMODE
 70
     0
  9
$PDSIZE
 40
0.0
  9
$PLINEWID
 40
0.0
  9
$SPLFRAME
 70
     0
  9
$SPLINETYPE
 70
     6
  9
$SPLINESEGS
 70
     8
  9
$HANDSEED
  5
9791
  9
$SURFTAB1
 70
     6
  9
$SURFTAB2
 70
     6
  9
$SURFTYPE
 70
     6
  9
$SURFU
 70
     6
  9
$SURFV
 70
     6
  9
$UCSBASE
  2

  9
$UCSNAME
  2

  9
$UCSORG
 10
0.0
 20
0.0
 30
0.0
  9
$UCSXDIR
 10
1.0
 20
0.0
 30
0.0
  9
$UCSYDIR
 10
0.0
 20
1.0
 30
0.0
  9
$UCSORTHOREF
  2

  9
$UCSORTHOVIEW
 70
     0
  9
$UCSORGTOP
 10
0.0
 20
0.0
 30
0.0
  9
$UCSORGBOTTOM
 10
0.0
 20
0.0
 30
0.0
  9
$UCSORGLEFT
 10
0.0
 20
0.0
 30
0.0
  9
$UCSORGRIGHT
 10
0.0
 20
0.0
 30
0.0
  9
$UCSORGFRONT
 10
0.0
 20
0.0
 30
0.0
  9
$UCSORGBACK
 10
0.0
 20
0.0
 30
0.0
  9
$PUCSBASE
  2

  9
$PUCSNAME
  2

  9
$PUCSORG
 10
0.0
 20
0.0
 30
0.0
  9
$PUCSXDIR
 10
1.0
 20
0.0
 30
0.0
  9
$PUCSYDIR
 10
0.0
 20
1.0
 30
0.0
  9
$PUCSORTHOREF
  2

  9
$PUCSORTHOVIEW
 70
     0
  9
$PUCSORGTOP
 10
0.0
 20
0.0
 30
0.0
  9
$PUCSORGBOTTOM
 10
0.0
 20
0.0
 30
0.0
  9
$PUCSORGLEFT
 10
0.0
 20
0.0
 30
0.0
  9
$PUCSORGRIGHT
 10
0.0
 20
0.0
 30
0.0
  9
$PUCSORGFRONT
 10
0.0
 20
0.0
 30
0.0
  9
$PUCSORGBACK
 10
0.0
 20
0.0
 30
0.0
  9
$USERI1
 70
     0
  9
$USERI2
 70
     0
  9
$USERI3
 70
     0
  9
$USERI4
 70
     0
  9
$USERI5
 70
     0
  9
$USERR1
 40
0.0
  9
$USERR2
 40
0.0
  9
$USERR3
 40
0.0
  9
$USERR4
 40
0.0
  9
$USERR5
 40
0.0
  9
$WORLDVIEW
 70
     1
  9
$SHADEDGE
 70
     3
  9
$SHADEDIF
 70
    70
  9
$TILEMODE
 70
     1
  9
$MAXACTVP
 70
    16
  9
$PINSBASE
 10
0.0
 20
0.0
 30
0.0
  9
$PLIMCHECK
 70
     0
  9
$PEXTMIN
 10
1.000000000000000E+20
 20
1.000000000000000E+20
 30
1.000000000000000E+20
  9
$PEXTMAX
 10
-1.000000000000000E+20
 20
-1.000000000000000E+20
 30
-1.000000000000000E+20
  9
$PLIMMIN
 10
0.0
 20
0.0
  9
$PLIMMAX
 10
420.0
 20
297.0
  9
$UNITMODE
 70
     0
  9
$VISRETAIN
 70
     0
  9
$PLINEGEN
 70
     0
  9
$PSLTSCALE
 70
     0
  9
$TREEDEPTH
 70
  3020
  9
$CMLSTYLE
  2
STANDARD
  9
$CMLJUST
 70
     0
  9
$CMLSCALE
 40
1.0
  9
$PROXYGRAPHICS
 70
     1
  9
$MEASUREMENT
 70
     0
  9
$CELWEIGHT
370
    -1
  9
$ENDCAPS
280
     0
  9
$JOINSTYLE
280
     0
  9
$LWDISPLAY
290
     0
  9
$INSUNITS
 70
     0
  9
$HYPERLINKBASE
  1

  9
$STYLESHEET
  1

  9
$XEDIT
290
     1
  9
$CEPSNTYPE
380
     0
  9
$PSTYLEMODE
290
     1
  9
$FINGERPRINTGUID
  2
{C8535DE4-5E03-49ED-BF57-D12AC64B7001}
  9
$VERSIONGUID
  2
{8AD17F83-F5C7-4242-AA31-65C823A71FE2}
  9
$EXTNAMES
290
     1
  9
$PSVPSCALE
 40
0.0
  9
$OLESTARTUP
290
     0
  0
ENDSEC
  0
SECTION
  2
CLASSES
  0
CLASS
  1
ACDBDICTIONARYWDFLT
  2
AcDbDictionaryWithDefault
  3
ObjectDBX Classes
 90
        0
280
     0
281
     0
  0
CLASS
  1
ACDBPLACEHOLDER
  2
AcDbPlaceHolder
  3
ObjectDBX Classes
 90
        0
280
     0
281
     0
  0
CLASS
  1
LAYOUT
  2
AcDbLayout
  3
ObjectDBX Classes
 90
        0
280
     0
281
     0
  0
CLASS
  1
DICTIONARYVAR
  2
AcDbDictionaryVar
  3
ObjectDBX Classes
 90
        0
280
     0
281
     0
  0
CLASS
  1
MATERIAL
  2
AcDbMaterial
  3
ObjectDBX Classes
 90
     1153
280
     0
281
     0
  0
CLASS
  1
VISUALSTYLE
  2
AcDbVisualStyle
  3
ObjectDBX Classes
 90
     4095
280
     0
281
     0
  0
CLASS
  1
TABLESTYLE
  2
AcDbTableStyle
  3
ObjectDBX Classes
 90
     4095
280
     0
281
     0
  0
CLASS
  1
SCALE
  2
AcDbScale
  3
ObjectDBX Classes
 90
     1153
280
     0
281
     0
  0
CLASS
  1
MLEADERSTYLE
  2
AcDbMLeaderStyle
  3
ACDB_MLEADERSTYLE_CLASS
 90
     4095
280
     0
281
     0
  0
CLASS
  1
ACDBSECTIONVIEWSTYLE
  2
AcDbSectionViewStyle
  3
ObjectDBX Classes
 90
     1025
280
     0
281
     0
  0
CLASS
  1
ACDBDETAILVIEWSTYLE
  2
AcDbDetailViewStyle
  3
ObjectDBX Classes
 90
     1025
280
     0
281
     0
  0
CLASS
  1
CELLSTYLEMAP
  2
AcDbCellStyleMap
  3
ObjectDBX Classes
 90
     1152
280
     0
281
     0
  0
ENDSEC
  0
SECTION
  2
TABLES
  0
TABLE
  2
VPORT
  5
94E3
330
0
100
AcDbSymbolTable
 70
     1
  0
VPORT
  5
96DA
330
94E3
100
AcDbSymbolTableRecord
100
AcDbViewportTableRecord
  2
*ACTIVE
 70
     0
 10
0.0
 20
0.0
 11
1.0
 21
1.0
 12
333.0721941668032
 22
148.1955822045804
 13
0.0
 23
0.0
 14
10.0
 24
10.0
 15
10.0
 25
10.0
 16
0.0
 26
0.0
 36
1.0
 17
0.0
 27
0.0
 37
0.0
 40
279.5084356276882
 41
1.899603698811096
 42
50.0
 43
0.0
 44
0.0
 50
0.0
 51
0.0
 71
     0
 72
   100
 73
     1
 74
     0
 75
     0
 76
     0
 77
     0
 78
     0
281
     0
 65
     1
110
0.0
120
0.0
130
0.0
111
1.0
121
0.0
131
0.0
112
0.0
122
1.0
132
0.0
 79
     0
146
0.0
1001
ACAD_NAV_VCDISPLAY
1070
     3
  0
ENDTAB
  0
TABLE
  2
LTYPE
  5
94E0
330
0
100
AcDbSymbolTable
 70
     4
  0
LTYPE
  5
94EE
330
94E0
100
AcDbSymbolTableRecord
100
AcDbLinetypeTableRecord
  2
BYBLOCK
 70
     0
  3

 72
    65
 73
     0
 40
0.0
  0
LTYPE
  5
94EF
330
94E0
100
AcDbSymbolTableRecord
100
AcDbLinetypeTableRecord
  2
BYLAYER
 70
     0
  3

 72
    65
 73
     0
 40
0.0
  0
LTYPE
  5
94F0
330
94E0
100
AcDbSymbolTableRecord
100
AcDbLinetypeTableRecord
  2
CONTINUOUS
 70
     0
  3
Solid line
 72
    65
 73
     0
 40
0.0
  0
LTYPE
  5
94FE
330
94E0
100
AcDbSymbolTableRecord
100
AcDbLinetypeTableRecord
  2
DASHED
 70
     0
  3
__ __ __ __ __ __ __ __ __ __ __ __ __ __ __ __
 72
    65
 73
     2
 40
0.75
 49
0.5
 74
     0
 49
-0.25
 74
     0
  0
LTYPE
  5
94FF
330
94E0
100
AcDbSymbolTableRecord
100
AcDbLinetypeTableRecord
  2
CENTER
 70
     0
  3
____ _ ____ _ ____ _ ____ _ ____ _ ____ _ ____ 
 72
    65
 73
     4
 40
2.0
 49
1.25
 74
     0
 49
-0.25
 74
     0
 49
0.25
 74
     0
 49
-0.25
 74
     0
  0
LTYPE
  5
9500
330
94E0
100
AcDbSymbolTableRecord
100
AcDbLinetypeTableRecord
  2
PHANTOM
 70
     0
  3
______  __  __  ______  __  __  ______  __  __ 
 72
    65
 73
     6
 40
2.5
 49
1.25
 74
     0
 49
-0.25
 74
     0
 49
0.25
 74
     0
 49
-0.25
 74
     0
 49
0.25
 74
     0
 49
-0.25
 74
     0
  0
ENDTAB
  0
TABLE
  2
LAYER
  5
94DD
330
0
100
AcDbSymbolTable
 70
     8
  0
LAYER
  5
94EB
102
{ACAD_XDICTIONARY
360
9735
102
}
330
94DD
100
AcDbSymbolTableRecord
100
AcDbLayerTableRecord
  2
0
 70
     0
 62
     7
  6
CONTINUOUS
370
    -3
390
96E3
  0
LAYER
  5
9501
102
{ACAD_XDICTIONARY
360
9737
102
}
330
94DD
100
AcDbSymbolTableRecord
100
AcDbLayerTableRecord
  2
4
 70
     0
 62
     1
  6
CENTER
370
    -3
390
96E3
  0
LAYER
  5
9502
102
{ACAD_XDICTIONARY
360
9739
102
}
330
94DD
100
AcDbSymbolTableRecord
100
AcDbLayerTableRecord
  2
5
 70
     0
 62
     6
  6
PHANTOM
370
    -3
390
96E3
  0
LAYER
  5
9503
102
{ACAD_XDICTIONARY
360
973B
102
}
330
94DD
100
AcDbSymbolTableRecord
100
AcDbLayerTableRecord
  2
1
 70
     0
 62
     7
  6
CONTINUOUS
370
    -3
390
96E3
  0
LAYER
  5
9504
102
{ACAD_XDICTIONARY
360
973D
102
}
330
94DD
100
AcDbSymbolTableRecord
100
AcDbLayerTableRecord
  2
2
 70
     0
 62
     4
  6
CONTINUOUS
370
    -3
390
96E3
  0
LAYER
  5
9505
102
{ACAD_XDICTIONARY
360
973F
102
}
330
94DD
100
AcDbSymbolTableRecord
100
AcDbLayerTableRecord
  2
3
 70
     0
 62
     2
  6
DASHED
370
    -3
390
96E3
  0
LAYER
  5
9506
102
{ACAD_XDICTIONARY
360
9741
102
}
330
94DD
100
AcDbSymbolTableRecord
100
AcDbLayerTableRecord
  2
6
 70
     0
 62
     5
  6
CONTINUOUS
370
    -3
390
96E3
  0
LAYER
  5
9507
102
{ACAD_XDICTIONARY
360
9743
102
}
330
94DD
100
AcDbSymbolTableRecord
100
AcDbLayerTableRecord
  2
7
 70
     0
 62
     3
  6
CONTINUOUS
370
    -3
390
96E3
  0
ENDTAB
  0
TABLE
  2
STYLE
  5
94DE
330
0
100
AcDbSymbolTable
 70
     1
  0
STYLE
  5
94EC
330
94DE
100
AcDbSymbolTableRecord
100
AcDbTextStyleTableRecord
  2
STANDARD
 70
     0
 40
0.0
 41
1.0
 50
0.0
 71
     0
 42
5.0
  3
txt
  4

  0
ENDTAB
  0
TABLE
  2
VIEW
  5
94E1
330
0
100
AcDbSymbolTable
 70
     0
  0
ENDTAB
  0
TABLE
  2
UCS
  5
94E2
330
0
100
AcDbSymbolTable
 70
     0
  0
ENDTAB
  0
TABLE
  2
APPID
  5
94E4
330
0
100
AcDbSymbolTable
 70
     3
  0
APPID
  5
94ED
330
94E4
100
AcDbSymbolTableRecord
100
AcDbRegAppTableRecord
  2
ACAD
 70
     0
  0
APPID
  5
974F
330
94E4
100
AcDbSymbolTableRecord
100
AcDbRegAppTableRecord
  2
ACAD_NAV_VCDISPLAY
 70
     0
  0
APPID
  5
9788
330
94E4
100
AcDbSymbolTableRecord
100
AcDbRegAppTableRecord
  2
ACAD_MLEADERVER
 70
     0
  0
ENDTAB
  0
TABLE
  2
DIMSTYLE
  5
94E5
330
0
100
AcDbSymbolTable
 70
     1
100
AcDbDimStyleTable
 71
     0
  0
DIMSTYLE
105
9509
330
94E5
100
AcDbSymbolTableRecord
100
AcDbDimStyleTableRecord
  2
STANDARD
 70
     0
 41
3.0
 42
1.0
 43
10.0
 44
1.0
 73
     0
 74
     0
 77
     3
 78
     8
140
3.2
141
0.0
147
1.0
172
     1
173
     1
284
     8
285
     8
286
     8
340
94EC
  0
ENDTAB
  0
TABLE
  2
BLOCK_RECORD
  5
94DC
330
0
100
AcDbSymbolTable
 70
     0
  0
BLOCK_RECORD
  5
94F9
102
{ACAD_XDICTIONARY
360
96DD
102
}
330
94DC
100
AcDbSymbolTableRecord
100
AcDbBlockTableRecord
  2
*MODEL_SPACE
340
9731
  0
BLOCK_RECORD
  5
94F5
102
{ACAD_XDICTIONARY
360
96DB
102
}
330
94DC
100
AcDbSymbolTableRecord
100
AcDbBlockTableRecord
  2
*PAPER_SPACE
340
9732
  0
ENDTAB
  0
ENDSEC
  0
SECTION
  2
BLOCKS
  0
BLOCK
  5
94FA
330
94F9
100
AcDbEntity
  8
0
100
AcDbBlockBegin
  2
*MODEL_SPACE
 70
     0
 10
0.0
 20
0.0
 30
0.0
  3
*MODEL_SPACE
  1

  0
ENDBLK
  5
94FB
330
94F9
100
AcDbEntity
  8
0
100
AcDbBlockEnd
  0
BLOCK
  5
94F6
330
94F5
100
AcDbEntity
 67
     1
  8
0
100
AcDbBlockBegin
  2
*PAPER_SPACE
 70
     0
 10
0.0
 20
0.0
 30
0.0
  3
*PAPER_SPACE
  1

  0
ENDBLK
  5
94F7
330
94F5
100
AcDbEntity
 67
     1
  8
0
100
AcDbBlockEnd
  0
ENDSEC
  0
SECTION
  2
ENTITIES
  0
TEXT
  5
9511
330
94F9
100
AcDbEntity
  8
7
  6
Continuous
100
AcDbText
 10
10.0
 20
18.0
 30
0.0
 40
3.0
  1
TYPE No.THA-281-2
100
AcDbText
  0
TEXT
  5
9512
330
94F9
100
AcDbEntity
  8
7
  6
Continuous
100
AcDbText
 10
10.0
 20
26.0
 30
0.0
 40
3.0
  1
CODE No.3221
100
AcDbText
  0
TEXT
  5
9513
330
94F9
100
AcDbEntity
  8
1
  6
Continuous
100
AcDbText
 10
10.0
 20
10.0
 30
0.0
 40
1.399999999999999
  1
LAYER
100
AcDbText
  0
TEXT
  5
9514
330
94F9
100
AcDbEntity
  8
1
  6
Continuous
100
AcDbText
 10
17.97951099999998
 20
10.04873699999998
 30
0.0
 40
1.399999999999999
  1
1
100
AcDbText
  0
TEXT
  5
9515
330
94F9
100
AcDbEntity
  8
7
  6
Continuous
100
AcDbText
 10
29.97951099999999
 20
10.04873699999998
 30
0.0
 40
1.399999999999999
  1
7
100
AcDbText
  0
TEXT
  5
9516
330
94F9
100
AcDbEntity
  8
4
  6
CENTER
100
AcDbText
 10
23.97951099999999
 20
10.04873699999998
 30
0.0
 40
1.399999999999999
  1
4
100
AcDbText
  0
TEXT
  5
9517
330
94F9
100
AcDbEntity
  8
3
  6
DASHED
100
AcDbText
 10
21.979511
 20
10.04873699999998
 30
0.0
 40
1.399999999999999
  1
3
100
AcDbText
  0
TEXT
  5
9518
330
94F9
100
AcDbEntity
  8
2
  6
Continuous
100
AcDbText
 10
19.97951099999999
 20
10.04873699999998
 30
0.0
 40
1.399999999999999
  1
2
100
AcDbText
  0
TEXT
  5
9519
330
94F9
100
AcDbEntity
  8
6
  6
Continuous
100
AcDbText
 10
27.979511
 20
10.04873699999998
 30
0.0
 40
1.399999999999999
  1
6
100
AcDbText
  0
TEXT
  5
951A
330
94F9
100
AcDbEntity
  8
5
  6
PHANTOM
100
AcDbText
 10
25.97951099999999
 20
10.04873699999998
 30
0.0
 40
1.399999999999999
  1
5
100
AcDbText
  0
LINE
  5
951B
330
94F9
100
AcDbEntity
  8
4
  6
CENTER
100
AcDbLine
 10
104.384
 20
94.14480000000001
 30
0.0
 11
219.122
 21
94.14480000000001
 31
0.0
  0
LINE
  5
951C
330
94F9
100
AcDbEntity
  8
4
  6
CENTER
100
AcDbLine
 10
169.335
 20
152.0149999999999
 30
0.0
 11
169.335
 21
35.5647
 31
0.0
  0
LINE
  5
951D
330
94F9
100
AcDbEntity
  8
4
  6
CENTER
100
AcDbLine
 10
151.835
 20
146.9509999999999
 30
0.0
 11
151.835
 21
41.8977
 31
0.0
  0
LINE
  5
951E
330
94F9
100
AcDbEntity
  8
1
  6
Continuous
100
AcDbLine
 10
141.335
 20
132.145
 30
0.0
 11
141.335
 21
56.1448
 31
0.0
  0
LINE
  5
951F
330
94F9
100
AcDbEntity
  8
1
  6
Continuous
100
AcDbLine
 10
141.335
 20
56.1448
 30
0.0
 11
193.102
 21
56.1448
 31
0.0
  0
LINE
  5
9520
330
94F9
100
AcDbEntity
  8
1
  6
Continuous
100
AcDbLine
 10
141.335
 20
132.145
 30
0.0
 11
193.102
 21
132.145
 31
0.0
  0
LINE
  5
9521
330
94F9
100
AcDbEntity
  8
1
  6
Continuous
100
AcDbLine
 10
141.335
 20
98.6448
 30
0.0
 11
141.835
 21
98.6448
 31
0.0
  0
LINE
  5
9522
330
94F9
100
AcDbEntity
  8
1
  6
Continuous
100
AcDbLine
 10
141.335
 20
89.6448
 30
0.0
 11
141.835
 21
89.6448
 31
0.0
  0
LINE
  5
9523
330
94F9
100
AcDbEntity
  8
1
  6
Continuous
100
AcDbLine
 10
143.335
 20
132.145
 30
0.0
 11
143.335
 21
131.645
 31
0.0
  0
LINE
  5
9524
330
94F9
100
AcDbEntity
  8
1
  6
Continuous
100
AcDbLine
 10
143.335
 20
56.6448
 30
0.0
 11
143.335
 21
56.1448
 31
0.0
  0
LINE
  5
9525
330
94F9
100
AcDbEntity
  8
1
  6
Continuous
100
AcDbLine
 10
146.835
 20
132.145
 30
0.0
 11
146.835
 21
131.645
 31
0.0
  0
LINE
  5
9526
330
94F9
100
AcDbEntity
  8
1
  6
Continuous
100
AcDbLine
 10
160.835
 20
132.145
 30
0.0
 11
160.835
 21
131.645
 31
0.0
  0
LINE
  5
9527
330
94F9
100
AcDbEntity
  8
1
  6
Continuous
100
AcDbLine
 10
156.835
 20
132.145
 30
0.0
 11
156.835
 21
131.645
 31
0.0
  0
LINE
  5
9528
330
94F9
100
AcDbEntity
  8
1
  6
Continuous
100
AcDbLine
 10
146.835
 20
56.6448
 30
0.0
 11
146.835
 21
56.1448
 31
0.0
  0
LINE
  5
9529
330
94F9
100
AcDbEntity
  8
1
  6
Continuous
100
AcDbLine
 10
156.835
 20
56.6448
 30
0.0
 11
156.835
 21
56.1448
 31
0.0
  0
LINE
  5
952A
330
94F9
100
AcDbEntity
  8
1
  6
Continuous
100
AcDbLine
 10
160.835
 20
56.6448
 30
0.0
 11
160.835
 21
56.1448
 31
0.0
  0
LINE
  5
952B
330
94F9
100
AcDbEntity
  8
4
  6
CENTER
100
AcDbLine
 10
255.6579999999999
 20
94.14480000000001
 30
0.0
 11
303.6129999999999
 21
94.14480000000001
 31
0.0
  0
LINE
  5
952C
330
94F9
100
AcDbEntity
  8
1
  6
Continuous
100
AcDbLine
 10
267.538
 20
140.145
 30
0.0
 11
267.538
 21
48.14479999999999
 31
0.0
  0
LINE
  5
952D
330
94F9
100
AcDbEntity
  8
1
  6
Continuous
100
AcDbLine
 10
265.4879999999999
 20
48.14479999999999
 30
0.0
 11
267.538
 21
48.14479999999999
 31
0.0
  0
LINE
  5
952E
330
94F9
100
AcDbEntity
  8
1
  6
Continuous
100
AcDbLine
 10
265.4879999999999
 20
140.145
 30
0.0
 11
267.538
 21
140.145
 31
0.0
  0
LINE
  5
952F
330
94F9
100
AcDbEntity
  8
1
  6
Continuous
100
AcDbLine
 10
267.538
 20
134.645
 30
0.0
 11
276.3379999999999
 21
134.645
 31
0.0
  0
LINE
  5
9530
330
94F9
100
AcDbEntity
  8
1
  6
Continuous
100
AcDbLine
 10
267.538
 20
53.6448
 30
0.0
 11
276.3379999999999
 21
53.6448
 31
0.0
  0
LINE
  5
9531
330
94F9
100
AcDbEntity
  8
1
  6
Continuous
100
AcDbLine
 10
284.3379999999999
 20
126.645
 30
0.0
 11
284.3379999999999
 21
119.1449999999999
 31
0.0
  0
LINE
  5
9532
330
94F9
100
AcDbEntity
  8
1
  6
Continuous
100
AcDbLine
 10
290.538
 20
103.7449999999999
 30
0.0
 11
294.538
 21
103.7449999999999
 31
0.0
  0
LINE
  5
9533
330
94F9
100
AcDbEntity
  8
1
  6
Continuous
100
AcDbLine
 10
290.538
 20
84.54479999999998
 30
0.0
 11
294.538
 21
84.54479999999998
 31
0.0
  0
LINE
  5
9534
330
94F9
100
AcDbEntity
  8
4
  6
CENTER
100
AcDbLine
 10
281.0249999999999
 20
124.1449999999999
 30
0.0
 11
299.923
 21
124.1449999999999
 31
0.0
  0
LINE
  5
9535
330
94F9
100
AcDbEntity
  8
4
  6
CENTER
100
AcDbLine
 10
281.0249999999999
 20
64.14480000000001
 30
0.0
 11
298.8459999999999
 21
64.14480000000001
 31
0.0
  0
LINE
  5
9536
330
94F9
100
AcDbEntity
  8
1
  6
Continuous
100
AcDbLine
 10
283.937
 20
59.1448
 30
0.0
 11
294.538
 21
59.1448
 31
0.0
  0
LINE
  5
9537
330
94F9
100
AcDbEntity
  8
1
  6
Continuous
100
AcDbLine
 10
283.937
 20
129.145
 30
0.0
 11
294.538
 21
129.145
 31
0.0
  0
LINE
  5
9538
330
94F9
100
AcDbEntity
  8
4
  6
CENTER
100
AcDbLine
 10
56.7771
 20
94.14480000000001
 30
0.0
 11
12.13287
 21
94.14480000000001
 31
0.0
  0
LINE
  5
9539
330
94F9
100
AcDbEntity
  8
1
  6
Continuous
100
AcDbLine
 10
46.1329
 20
140.145
 30
0.0
 11
46.1329
 21
48.14479999999999
 31
0.0
  0
LINE
  5
953A
330
94F9
100
AcDbEntity
  8
1
  6
Continuous
100
AcDbLine
 10
48.1829
 20
48.14479999999999
 30
0.0
 11
46.1329
 21
48.14479999999999
 31
0.0
  0
LINE
  5
953B
330
94F9
100
AcDbEntity
  8
1
  6
Continuous
100
AcDbLine
 10
48.1829
 20
140.145
 30
0.0
 11
46.1329
 21
140.145
 31
0.0
  0
LINE
  5
953C
330
94F9
100
AcDbEntity
  8
1
  6
Continuous
100
AcDbLine
 10
38.1329
 20
132.145
 30
0.0
 11
38.1329
 21
98.6448
 31
0.0
  0
LINE
  5
953D
330
94F9
100
AcDbEntity
  8
1
  6
Continuous
100
AcDbLine
 10
38.1329
 20
89.6448
 30
0.0
 11
34.13289999999999
 21
89.6448
 31
0.0
  0
LINE
  5
953E
330
94F9
100
AcDbEntity
  8
1
  6
Continuous
100
AcDbLine
 10
38.1329
 20
98.6448
 30
0.0
 11
34.13289999999999
 21
98.6448
 31
0.0
  0
LINE
  5
953F
330
94F9
100
AcDbEntity
  8
1
  6
Continuous
100
AcDbLine
 10
46.1329
 20
56.1448
 30
0.0
 11
38.1329
 21
56.1448
 31
0.0
  0
LINE
  5
9540
330
94F9
100
AcDbEntity
  8
1
  6
Continuous
100
AcDbLine
 10
46.1329
 20
134.645
 30
0.0
 11
37.3329
 21
134.645
 31
0.0
  0
LINE
  5
9541
330
94F9
100
AcDbEntity
  8
1
  6
Continuous
100
AcDbLine
 10
46.1329
 20
53.6448
 30
0.0
 11
37.3329
 21
53.6448
 31
0.0
  0
LINE
  5
9542
330
94F9
100
AcDbEntity
  8
1
  6
Continuous
100
AcDbLine
 10
45.1329
 20
59.1448
 30
0.0
 11
38.1329
 21
59.1448
 31
0.0
  0
LINE
  5
9543
330
94F9
100
AcDbEntity
  8
1
  6
Continuous
100
AcDbLine
 10
45.1329
 20
129.145
 30
0.0
 11
38.1329
 21
129.145
 31
0.0
  0
LINE
  5
9544
330
94F9
100
AcDbEntity
  8
1
  6
Continuous
100
AcDbLine
 10
38.1329
 20
89.6448
 30
0.0
 11
38.1329
 21
56.1448
 31
0.0
  0
LINE
  5
9545
330
94F9
100
AcDbEntity
  8
1
  6
Continuous
100
AcDbLine
 10
45.1329
 20
58.14479999999999
 30
0.0
 11
45.1329
 21
56.1448
 31
0.0
  0
LINE
  5
9546
330
94F9
100
AcDbEntity
  8
1
  6
Continuous
100
AcDbLine
 10
45.1329
 20
132.145
 30
0.0
 11
45.1329
 21
130.145
 31
0.0
  0
LINE
  5
9547
330
94F9
100
AcDbEntity
  8
1
  6
Continuous
100
AcDbLine
 10
29.33289999999999
 20
101.245
 30
0.0
 11
19.13287
 21
101.245
 31
0.0
  0
LINE
  5
9548
330
94F9
100
AcDbEntity
  8
1
  6
Continuous
100
AcDbLine
 10
29.33289999999999
 20
87.04479999999998
 30
0.0
 11
19.13287
 21
87.04479999999998
 31
0.0
  0
LINE
  5
9549
330
94F9
100
AcDbEntity
  8
1
  6
Continuous
100
AcDbLine
 10
290.538
 20
119.1449999999999
 30
0.0
 11
290.538
 21
69.14480000000001
 31
0.0
  0
LINE
  5
954A
330
94F9
100
AcDbEntity
  8
4
  6
CENTER
100
AcDbLine
 10
275.5009999999999
 20
114.145
 30
0.0
 11
293.3609999999998
 21
114.145
 31
0.0
  0
LINE
  5
954B
330
94F9
100
AcDbEntity
  8
4
  6
CENTER
100
AcDbLine
 10
275.7039999999999
 20
74.14480000000001
 30
0.0
 11
293.3609999999998
 21
74.14480000000001
 31
0.0
  0
LINE
  5
954C
330
94F9
100
AcDbEntity
  8
1
  6
Continuous
100
AcDbLine
 10
205.8349999999999
 20
216.3969999999999
 30
0.0
 11
205.8349999999999
 21
218.995
 31
0.0
  0
LINE
  5
954D
330
94F9
100
AcDbEntity
  8
1
  6
Continuous
100
AcDbLine
 10
132.835
 20
216.3969999999999
 30
0.0
 11
132.835
 21
218.995
 31
0.0
  0
LINE
  5
954E
330
94F9
100
AcDbEntity
  8
4
  6
CENTER
100
AcDbLine
 10
169.335
 20
205.391
 30
0.0
 11
169.335
 21
254.5529999999998
 31
0.0
  0
LINE
  5
954F
330
94F9
100
AcDbEntity
  8
1
  6
Continuous
100
AcDbLine
 10
132.835
 20
218.995
 30
0.0
 11
205.8349999999999
 21
218.995
 31
0.0
  0
LINE
  5
9550
330
94F9
100
AcDbEntity
  8
1
  6
Continuous
100
AcDbLine
 10
117.835
 20
245.995
 30
0.0
 11
188.335
 21
245.995
 31
0.0
  0
LINE
  5
9551
330
94F9
100
AcDbEntity
  8
1
  6
Continuous
100
AcDbLine
 10
141.6289999999999
 20
235.7949999999999
 30
0.0
 11
182.3369999999999
 21
235.7949999999999
 31
0.0
  0
LINE
  5
9552
330
94F9
100
AcDbEntity
  8
4
  6
CENTER
100
AcDbLine
 10
151.835
 20
219.995
 30
0.0
 11
151.835
 21
229.9949999999999
 31
0.0
  0
LINE
  5
9553
330
94F9
100
AcDbEntity
  8
4
  6
CENTER
100
AcDbLine
 10
146.835
 20
224.995
 30
0.0
 11
156.835
 21
224.995
 31
0.0
  0
LINE
  5
9554
330
94F9
100
AcDbEntity
  8
1
  6
Continuous
100
AcDbLine
 10
141.8069999999999
 20
245.995
 30
0.0
 11
141.335
 21
218.995
 31
0.0
  0
LINE
  5
9555
330
94F9
100
AcDbEntity
  8
1
  6
Continuous
100
AcDbLine
 10
151.335
 20
235.7949999999999
 30
0.0
 11
151.335
 21
245.995
 31
0.0
  0
LINE
  5
9556
330
94F9
100
AcDbEntity
  8
1
  6
Continuous
100
AcDbLine
 10
178.835
 20
235.7949999999999
 30
0.0
 11
178.835
 21
245.995
 31
0.0
  0
LINE
  5
9557
330
94F9
100
AcDbEntity
  8
1
  6
Continuous
100
AcDbLine
 10
186.335
 20
241.995
 30
0.0
 11
186.335
 21
245.995
 31
0.0
  0
LINE
  5
9558
330
94F9
100
AcDbEntity
  8
4
  6
CENTER
100
AcDbLine
 10
146.335
 20
233.247
 30
0.0
 11
146.335
 21
251.2199999999999
 31
0.0
  0
LINE
  5
9559
330
94F9
100
AcDbEntity
  8
4
  6
CENTER
100
AcDbLine
 10
181.3349999999998
 20
232.697
 30
0.0
 11
181.3349999999998
 21
251.105
 31
0.0
  0
LINE
  5
955A
330
94F9
100
AcDbEntity
  8
4
  6
CENTER
100
AcDbLine
 10
190.335
 20
271.1399999999998
 30
0.0
 11
190.335
 21
286.39
 31
0.0
  0
LINE
  5
955B
330
94F9
100
AcDbEntity
  8
1
  6
Continuous
100
AcDbLine
 10
185.3369999999999
 20
241.995
 30
0.0
 11
193.337
 21
241.995
 31
0.0
  0
LINE
  5
955C
330
94F9
100
AcDbEntity
  8
1
  6
Continuous
100
AcDbLine
 10
141.835
 20
131.645
 30
0.0
 11
162.835
 21
131.645
 31
0.0
  0
LINE
  5
955D
330
94F9
100
AcDbEntity
  8
1
  6
Continuous
100
AcDbLine
 10
141.835
 20
131.645
 30
0.0
 11
141.835
 21
56.6448
 31
0.0
  0
LINE
  5
955E
330
94F9
100
AcDbEntity
  8
1
  6
Continuous
100
AcDbLine
 10
165.835
 20
128.645
 30
0.0
 11
165.835
 21
118.151
 31
0.0
  0
LINE
  5
955F
330
94F9
100
AcDbEntity
  8
1
  6
Continuous
100
AcDbLine
 10
141.835
 20
56.6448
 30
0.0
 11
191.6319999999998
 21
56.6448
 31
0.0
  0
LINE
  5
9560
330
94F9
100
AcDbEntity
  8
1
  6
Continuous
100
AcDbLine
 10
34.13289999999999
 20
98.14480000000001
 30
0.0
 11
46.1328
 21
98.14480000000001
 31
0.0
  0
LINE
  5
9561
330
94F9
100
AcDbEntity
  8
1
  6
Continuous
100
AcDbLine
 10
34.13289999999999
 20
90.1448
 30
0.0
 11
46.1328
 21
90.1448
 31
0.0
  0
LINE
  5
9562
330
94F9
100
AcDbEntity
  8
1
  6
Continuous
100
AcDbLine
 10
37.13280000000001
 20
98.6448
 30
0.0
 11
37.13280000000001
 21
98.14480000000001
 31
0.0
  0
LINE
  5
9563
330
94F9
100
AcDbEntity
  8
1
  6
Continuous
100
AcDbLine
 10
37.13280000000001
 20
90.1448
 30
0.0
 11
37.13280000000001
 21
89.6448
 31
0.0
  0
LINE
  5
9564
330
94F9
100
AcDbEntity
  8
5
  6
PHANTOM
100
AcDbLine
 10
139.315
 20
225.5009999999999
 30
0.0
 11
141.495
 21
228.1579999999999
 31
0.0
  0
LINE
  5
9565
330
94F9
100
AcDbEntity
  8
5
  6
PHANTOM
100
AcDbLine
 10
140.299
 20
226.6999999999999
 30
0.0
 11
141.453
 21
225.753
 31
0.0
  0
LINE
  5
9566
330
94F9
100
AcDbEntity
  8
5
  6
PHANTOM
100
AcDbLine
 10
165.8079999999999
 20
205.7649999999999
 30
0.0
 11
172.1519999999999
 21
213.4949999999999
 31
0.0
  0
LINE
  5
9567
330
94F9
100
AcDbEntity
  8
1
  6
Continuous
100
AcDbLine
 10
32.1329
 20
134.145
 30
0.0
 11
17.13287
 21
134.145
 31
0.0
  0
LINE
  5
9568
330
94F9
100
AcDbEntity
  8
1
  6
Continuous
100
AcDbLine
 10
115.8349999999998
 20
134.145
 30
0.0
 11
115.8349999999998
 21
54.1448
 31
0.0
  0
LINE
  5
9569
330
94F9
100
AcDbEntity
  8
1
  6
Continuous
100
AcDbLine
 10
32.1329
 20
54.1448
 30
0.0
 11
17.13287
 21
54.1448
 31
0.0
  0
LINE
  5
956A
330
94F9
100
AcDbEntity
  8
1
  6
Continuous
100
AcDbLine
 10
34.13289999999999
 20
132.145
 30
0.0
 11
34.13289999999999
 21
56.1448
 31
0.0
  0
LINE
  5
956B
330
94F9
100
AcDbEntity
  8
1
  6
Continuous
100
AcDbLine
 10
17.13287
 20
134.145
 30
0.0
 11
17.13287
 21
54.1448
 31
0.0
  0
LINE
  5
956C
330
94F9
100
AcDbEntity
  8
1
  6
Continuous
100
AcDbLine
 10
115.8349999999998
 20
54.1448
 30
0.0
 11
134.423
 21
54.1448
 31
0.0
  0
LINE
  5
956D
330
94F9
100
AcDbEntity
  8
1
  6
Continuous
100
AcDbLine
 10
115.8349999999998
 20
134.145
 30
0.0
 11
134.423
 21
134.145
 31
0.0
  0
LINE
  5
956E
330
94F9
100
AcDbEntity
  8
1
  6
Continuous
100
AcDbLine
 10
117.835
 20
134.145
 30
0.0
 11
117.835
 21
54.1448
 31
0.0
  0
LINE
  5
956F
330
94F9
100
AcDbEntity
  8
1
  6
Continuous
100
AcDbLine
 10
119.835
 20
127.645
 30
0.0
 11
119.835
 21
120.645
 31
0.0
  0
LINE
  5
9570
330
94F9
100
AcDbEntity
  8
4
  6
CENTER
100
AcDbLine
 10
112.559
 20
64.14480000000001
 30
0.0
 11
124.1229999999999
 21
64.14480000000001
 31
0.0
  0
LINE
  5
9571
330
94F9
100
AcDbEntity
  8
4
  6
CENTER
100
AcDbLine
 10
112.559
 20
124.1449999999999
 30
0.0
 11
124.2979999999999
 21
124.1449999999999
 31
0.0
  0
LINE
  5
9572
330
94F9
100
AcDbEntity
  8
1
  6
Continuous
100
AcDbLine
 10
119.835
 20
67.6448
 30
0.0
 11
119.835
 21
60.64479999999999
 31
0.0
  0
LINE
  5
9573
330
94F9
100
AcDbEntity
  8
1
  6
Continuous
100
AcDbLine
 10
29.33289999999999
 20
101.3449999999999
 30
0.0
 11
17.13287
 21
101.3449999999999
 31
0.0
  0
LINE
  5
9574
330
94F9
100
AcDbEntity
  8
1
  6
Continuous
100
AcDbLine
 10
29.33289999999999
 20
86.9448
 30
0.0
 11
17.13287
 21
86.9448
 31
0.0
  0
LINE
  5
9575
330
94F9
100
AcDbEntity
  8
1
  6
Continuous
100
AcDbLine
 10
19.13287
 20
101.3449999999999
 30
0.0
 11
19.13287
 21
86.9448
 31
0.0
  0
LINE
  5
9576
330
94F9
100
AcDbEntity
  8
1
  6
Continuous
100
AcDbLine
 10
29.33289999999999
 20
101.3449999999999
 30
0.0
 11
29.33289999999999
 21
86.9448
 31
0.0
  0
LINE
  5
9577
330
94F9
100
AcDbEntity
  8
4
  6
CENTER
100
AcDbLine
 10
27.1329
 20
68.1448
 30
0.0
 11
27.1329
 21
60.14479999999998
 31
0.0
  0
LINE
  5
9578
330
94F9
100
AcDbEntity
  8
4
  6
CENTER
100
AcDbLine
 10
13.845
 20
64.14480000000001
 30
0.0
 11
32.066
 21
64.14480000000001
 31
0.0
  0
LINE
  5
9579
330
94F9
100
AcDbEntity
  8
4
  6
CENTER
100
AcDbLine
 10
27.1329
 20
128.145
 30
0.0
 11
27.1329
 21
120.1449999999999
 31
0.0
  0
LINE
  5
957A
330
94F9
100
AcDbEntity
  8
4
  6
CENTER
100
AcDbLine
 10
13.65088
 20
124.1449999999999
 30
0.0
 11
32.20280000000001
 21
124.1449999999999
 31
0.0
  0
LINE
  5
957B
330
94F9
100
AcDbEntity
  8
1
  6
Continuous
100
AcDbLine
 10
115.8349999999998
 20
230.995
 30
0.0
 11
115.8349999999998
 21
245.995
 31
0.0
  0
LINE
  5
957C
330
94F9
100
AcDbEntity
  8
1
  6
Continuous
100
AcDbLine
 10
151.235
 20
245.995
 30
0.0
 11
151.235
 21
247.995
 31
0.0
  0
LINE
  5
957D
330
94F9
100
AcDbEntity
  8
1
  6
Continuous
100
AcDbLine
 10
115.8349999999998
 20
230.995
 30
0.0
 11
117.835
 21
230.995
 31
0.0
  0
LINE
  5
957E
330
94F9
100
AcDbEntity
  8
1
  6
Continuous
100
AcDbLine
 10
117.835
 20
247.995
 30
0.0
 11
188.335
 21
247.995
 31
0.0
  0
LINE
  5
957F
330
94F9
100
AcDbEntity
  8
1
  6
Continuous
100
AcDbLine
 10
117.835
 20
230.995
 30
0.0
 11
117.835
 21
245.995
 31
0.0
  0
LINE
  5
9580
330
94F9
100
AcDbEntity
  8
1
  6
Continuous
100
AcDbLine
 10
188.335
 20
245.995
 30
0.0
 11
188.335
 21
247.995
 31
0.0
  0
LINE
  5
9581
330
94F9
100
AcDbEntity
  8
1
  6
Continuous
100
AcDbLine
 10
119.835
 20
234.495
 30
0.0
 11
119.835
 21
241.495
 31
0.0
  0
LINE
  5
9582
330
94F9
100
AcDbEntity
  8
4
  6
CENTER
100
AcDbLine
 10
112.955
 20
237.995
 30
0.0
 11
123.687
 21
237.995
 31
0.0
  0
LINE
  5
9583
330
94F9
100
AcDbEntity
  8
1
  6
Continuous
100
AcDbLine
 10
118.835
 20
127.645
 30
0.0
 11
119.835
 21
127.645
 31
0.0
  0
LINE
  5
9584
330
94F9
100
AcDbEntity
  8
1
  6
Continuous
100
AcDbLine
 10
118.835
 20
120.645
 30
0.0
 11
119.835
 21
120.645
 31
0.0
  0
LINE
  5
9585
330
94F9
100
AcDbEntity
  8
1
  6
Continuous
100
AcDbLine
 10
281.538
 20
134.145
 30
0.0
 11
296.538
 21
134.145
 31
0.0
  0
LINE
  5
9586
330
94F9
100
AcDbEntity
  8
1
  6
Continuous
100
AcDbLine
 10
281.538
 20
54.1448
 30
0.0
 11
296.538
 21
54.1448
 31
0.0
  0
LINE
  5
9587
330
94F9
100
AcDbEntity
  8
1
  6
Continuous
100
AcDbLine
 10
296.538
 20
134.145
 30
0.0
 11
296.538
 21
54.1448
 31
0.0
  0
LINE
  5
9588
330
94F9
100
AcDbEntity
  8
1
  6
Continuous
100
AcDbLine
 10
294.538
 20
134.145
 30
0.0
 11
294.538
 21
54.1448
 31
0.0
  0
LINE
  5
9589
330
94F9
100
AcDbEntity
  8
1
  6
Continuous
100
AcDbLine
 10
105.8349999999998
 20
100.1449999999999
 30
0.0
 11
105.8349999999998
 21
88.14480000000001
 31
0.0
  0
LINE
  5
958A
330
94F9
100
AcDbEntity
  8
5
  6
PHANTOM
100
AcDbLine
 10
116.741
 20
235.9949999999999
 30
0.0
 11
119.835
 21
235.9949999999999
 31
0.0
  0
LINE
  5
958B
330
94F9
100
AcDbEntity
  8
1
  6
Continuous
100
AcDbLine
 10
106.8349999999998
 20
101.1449999999999
 30
0.0
 11
115.8349999999998
 21
101.1449999999999
 31
0.0
  0
LINE
  5
958C
330
94F9
100
AcDbEntity
  8
1
  6
Continuous
100
AcDbLine
 10
106.8349999999998
 20
87.1448
 30
0.0
 11
115.8349999999998
 21
87.1448
 31
0.0
  0
LINE
  5
958D
330
94F9
100
AcDbEntity
  8
1
  6
Continuous
100
AcDbLine
 10
20.1329
 20
101.1449999999999
 30
0.0
 11
28.1329
 21
101.1449999999999
 31
0.0
  0
LINE
  5
958E
330
94F9
100
AcDbEntity
  8
1
  6
Continuous
100
AcDbLine
 10
20.1329
 20
87.1448
 30
0.0
 11
28.1329
 21
87.1448
 31
0.0
  0
LINE
  5
958F
330
94F9
100
AcDbEntity
  8
1
  6
Continuous
100
AcDbLine
 10
29.13289999999999
 20
100.1449999999999
 30
0.0
 11
29.13289999999999
 21
88.14480000000001
 31
0.0
  0
LINE
  5
9590
330
94F9
100
AcDbEntity
  8
1
  6
Continuous
100
AcDbLine
 10
205.2209999999998
 20
119.1449999999999
 30
0.0
 11
206.8989999999998
 21
119.1449999999999
 31
0.0
  0
LINE
  5
9591
330
94F9
100
AcDbEntity
  8
1
  6
Continuous
100
AcDbLine
 10
205.2209999999998
 20
69.14480000000001
 30
0.0
 11
206.8989999999998
 21
69.14480000000001
 31
0.0
  0
LINE
  5
9592
330
94F9
100
AcDbEntity
  8
1
  6
Continuous
100
AcDbLine
 10
202.8989999999998
 20
252.9949999999999
 30
0.0
 11
208.8989999999999
 21
252.9949999999999
 31
0.0
  0
LINE
  5
9593
330
94F9
100
AcDbEntity
  8
1
  6
Continuous
100
AcDbLine
 10
183.335
 20
275.495
 30
0.0
 11
195.335
 21
275.495
 31
0.0
  0
LINE
  5
9594
330
94F9
100
AcDbEntity
  8
1
  6
Continuous
100
AcDbLine
 10
183.335
 20
277.495
 30
0.0
 11
195.335
 21
277.495
 31
0.0
  0
LINE
  5
9595
330
94F9
100
AcDbEntity
  8
1
  6
Continuous
100
AcDbLine
 10
202.8989999999998
 20
254.9949999999999
 30
0.0
 11
208.8989999999999
 21
254.9949999999999
 31
0.0
  0
LINE
  5
9596
330
94F9
100
AcDbEntity
  8
1
  6
Continuous
100
AcDbLine
 10
183.335
 20
275.495
 30
0.0
 11
183.335
 21
277.495
 31
0.0
  0
LINE
  5
9597
330
94F9
100
AcDbEntity
  8
1
  6
Continuous
100
AcDbLine
 10
195.335
 20
275.495
 30
0.0
 11
200.967
 21
254.477
 31
0.0
  0
LINE
  5
9598
330
94F9
100
AcDbEntity
  8
1
  6
Continuous
100
AcDbLine
 10
197.2669999999999
 20
276.012
 30
0.0
 11
202.8989999999998
 21
254.9949999999999
 31
0.0
  0
LINE
  5
9599
330
94F9
100
AcDbEntity
  8
1
  6
Continuous
100
AcDbLine
 10
208.8989999999999
 20
252.9949999999999
 30
0.0
 11
208.8989999999999
 21
254.9949999999999
 31
0.0
  0
LINE
  5
959A
330
94F9
100
AcDbEntity
  8
1
  6
Continuous
100
AcDbLine
 10
407.7409999999998
 20
119.1449999999999
 30
0.0
 11
386.1769999999999
 21
119.1449999999999
 31
0.0
  0
LINE
  5
959B
330
94F9
100
AcDbEntity
  8
1
  6
Continuous
100
AcDbLine
 10
409.7409999999999
 20
117.1449999999999
 30
0.0
 11
409.7409999999999
 21
102.044
 31
0.0
  0
LINE
  5
959C
330
94F9
100
AcDbEntity
  8
1
  6
Continuous
100
AcDbLine
 10
407.7409999999998
 20
69.14480000000001
 30
0.0
 11
386.1769999999999
 21
69.14480000000001
 31
0.0
  0
LINE
  5
959D
330
94F9
100
AcDbEntity
  8
1
  6
Continuous
100
AcDbLine
 10
384.1769999999998
 20
117.1449999999999
 30
0.0
 11
384.1769999999998
 21
71.1448
 31
0.0
  0
LINE
  5
959E
330
94F9
100
AcDbEntity
  8
1
  6
Continuous
100
AcDbLine
 10
409.7409999999999
 20
86.2453
 30
0.0
 11
409.7409999999999
 21
71.1448
 31
0.0
  0
LINE
  5
959F
330
94F9
100
AcDbEntity
  8
1
  6
Continuous
100
AcDbLine
 10
390.1769999999999
 20
119.1449999999999
 30
0.0
 11
390.1769999999999
 21
69.14480000000001
 31
0.0
  0
LINE
  5
95A0
330
94F9
100
AcDbEntity
  8
1
  6
Continuous
100
AcDbLine
 10
396.2059999999998
 20
71.14870000000002
 30
0.0
 11
396.2059999999998
 21
117.382
 31
0.0
  0
LINE
  5
95A1
330
94F9
100
AcDbEntity
  8
1
  6
Continuous
100
AcDbLine
 10
282.3389999999998
 20
69.14480000000001
 30
0.0
 11
294.538
 21
69.14480000000001
 31
0.0
  0
LINE
  5
95A2
330
94F9
100
AcDbEntity
  8
1
  6
Continuous
100
AcDbLine
 10
282.3389999999998
 20
119.1449999999999
 30
0.0
 11
294.538
 21
119.1449999999999
 31
0.0
  0
LINE
  5
95A3
330
94F9
100
AcDbEntity
  8
1
  6
Continuous
100
AcDbLine
 10
282.3389999999998
 20
109.145
 30
0.0
 11
290.538
 21
109.145
 31
0.0
  0
LINE
  5
95A4
330
94F9
100
AcDbEntity
  8
1
  6
Continuous
100
AcDbLine
 10
282.3389999999998
 20
79.14480000000001
 30
0.0
 11
290.538
 21
79.14480000000001
 31
0.0
  0
LINE
  5
95A5
330
94F9
100
AcDbEntity
  8
1
  6
Continuous
100
AcDbLine
 10
118.835
 20
241.495
 30
0.0
 11
119.835
 21
241.495
 31
0.0
  0
LINE
  5
95A6
330
94F9
100
AcDbEntity
  8
1
  6
Continuous
100
AcDbLine
 10
118.835
 20
234.495
 30
0.0
 11
119.835
 21
234.495
 31
0.0
  0
LINE
  5
95A7
330
94F9
100
AcDbEntity
  8
1
  6
Continuous
100
AcDbLine
 10
118.835
 20
60.64479999999999
 30
0.0
 11
119.835
 21
60.64479999999999
 31
0.0
  0
LINE
  5
95A8
330
94F9
100
AcDbEntity
  8
1
  6
Continuous
100
AcDbLine
 10
118.835
 20
67.6448
 30
0.0
 11
119.835
 21
67.6448
 31
0.0
  0
LINE
  5
95A9
330
94F9
100
AcDbEntity
  8
1
  6
Continuous
100
AcDbLine
 10
46.1329
 20
132.145
 30
0.0
 11
38.1329
 21
132.145
 31
0.0
  0
LINE
  5
95AA
330
94F9
100
AcDbEntity
  8
1
  6
Continuous
100
AcDbLine
 10
117.835
 20
87.1448
 30
0.0
 11
132.8839999999999
 21
87.1448
 31
0.0
  0
LINE
  5
95AB
330
94F9
100
AcDbEntity
  8
1
  6
Continuous
100
AcDbLine
 10
117.835
 20
101.1449999999999
 30
0.0
 11
132.8839999999999
 21
101.1449999999999
 31
0.0
  0
LINE
  5
95AC
330
94F9
100
AcDbEntity
  8
1
  6
Continuous
100
AcDbLine
 10
119.835
 20
235.9949999999999
 30
0.0
 11
141.6319999999998
 21
235.9949999999999
 31
0.0
  0
LINE
  5
95AD
330
94F9
100
AcDbEntity
  8
1
  6
Continuous
100
AcDbLine
 10
311.538
 20
69.14480000000001
 30
0.0
 11
336.038
 21
69.14480000000001
 31
0.0
  0
LINE
  5
95AE
330
94F9
100
AcDbEntity
  8
1
  6
Continuous
100
AcDbLine
 10
311.538
 20
119.1449999999999
 30
0.0
 11
336.038
 21
119.1449999999999
 31
0.0
  0
LINE
  5
95AF
330
94F9
100
AcDbEntity
  8
1
  6
Continuous
100
AcDbLine
 10
311.538
 20
119.1449999999999
 30
0.0
 11
311.538
 21
69.14480000000001
 31
0.0
  0
LINE
  5
95B0
330
94F9
100
AcDbEntity
  8
4
  6
CENTER
100
AcDbLine
 10
306.3929999999999
 20
94.14480000000001
 30
0.0
 11
342.185
 21
94.14480000000001
 31
0.0
  0
LINE
  5
95B1
330
94F9
100
AcDbEntity
  8
1
  6
Continuous
100
AcDbLine
 10
313.538
 20
119.1449999999999
 30
0.0
 11
313.538
 21
69.14480000000001
 31
0.0
  0
LINE
  5
95B2
330
94F9
100
AcDbEntity
  8
1
  6
Continuous
100
AcDbLine
 10
336.038
 20
119.1449999999999
 30
0.0
 11
336.038
 21
69.14480000000001
 31
0.0
  0
LINE
  5
95B3
330
94F9
100
AcDbEntity
  8
4
  6
CENTER
100
AcDbLine
 10
333.966
 20
114.145
 30
0.0
 11
343.0419999999998
 21
114.145
 31
0.0
  0
LINE
  5
95B4
330
94F9
100
AcDbEntity
  8
4
  6
CENTER
100
AcDbLine
 10
333.279
 20
74.14480000000001
 30
0.0
 11
343.1789999999999
 21
74.14480000000001
 31
0.0
  0
LINE
  5
95B5
330
94F9
100
AcDbEntity
  8
4
  6
CENTER
100
AcDbLine
 10
488.6919999999998
 20
94.14480000000001
 30
0.0
 11
373.954
 21
94.14480000000001
 31
0.0
  0
LINE
  5
95B6
330
94F9
100
AcDbEntity
  8
4
  6
CENTER
100
AcDbLine
 10
423.7409999999998
 20
152.0149999999999
 30
0.0
 11
423.7409999999998
 21
35.5647
 31
0.0
  0
LINE
  5
95B7
330
94F9
100
AcDbEntity
  8
4
  6
CENTER
100
AcDbLine
 10
441.241
 20
146.9509999999999
 30
0.0
 11
441.241
 21
41.8977
 31
0.0
  0
LINE
  5
95B8
330
94F9
100
AcDbEntity
  8
1
  6
Continuous
100
AcDbLine
 10
487.241
 20
100.1448
 30
0.0
 11
487.241
 21
88.14480000000001
 31
0.0
  0
LINE
  5
95B9
330
94F9
100
AcDbEntity
  8
1
  6
Continuous
100
AcDbLine
 10
477.2409999999998
 20
134.145
 30
0.0
 11
477.2409999999998
 21
101.1448
 31
0.0
  0
LINE
  5
95BA
330
94F9
100
AcDbEntity
  8
1
  6
Continuous
100
AcDbLine
 10
441.841
 20
134.145
 30
0.0
 11
406.791
 21
99.09460000000001
 31
0.0
  0
LINE
  5
95BB
330
94F9
100
AcDbEntity
  8
1
  6
Continuous
100
AcDbLine
 10
477.2409999999998
 20
54.1448
 30
0.0
 11
441.841
 21
54.1448
 31
0.0
  0
LINE
  5
95BC
330
94F9
100
AcDbEntity
  8
1
  6
Continuous
100
AcDbLine
 10
477.2409999999998
 20
134.145
 30
0.0
 11
441.841
 21
134.145
 31
0.0
  0
LINE
  5
95BD
330
94F9
100
AcDbEntity
  8
1
  6
Continuous
100
AcDbLine
 10
441.841
 20
54.1448
 30
0.0
 11
406.791
 21
89.19509999999998
 31
0.0
  0
LINE
  5
95BE
330
94F9
100
AcDbEntity
  8
4
  6
CENTER
100
AcDbLine
 10
411.7409999999998
 20
100.1449999999999
 30
0.0
 11
411.7409999999998
 21
88.14480000000001
 31
0.0
  0
LINE
  5
95BF
330
94F9
100
AcDbEntity
  8
4
  6
CENTER
100
AcDbLine
 10
440.7409999999998
 20
124.1449999999999
 30
0.0
 11
452.7409999999998
 21
124.1449999999999
 31
0.0
  0
LINE
  5
95C0
330
94F9
100
AcDbEntity
  8
4
  6
CENTER
100
AcDbLine
 10
446.741
 20
130.145
 30
0.0
 11
446.741
 21
118.1449999999999
 31
0.0
  0
LINE
  5
95C1
330
94F9
100
AcDbEntity
  8
4
  6
CENTER
100
AcDbLine
 10
440.7409999999998
 20
64.14480000000001
 30
0.0
 11
452.7409999999998
 21
64.14480000000001
 31
0.0
  0
LINE
  5
95C2
330
94F9
100
AcDbEntity
  8
4
  6
CENTER
100
AcDbLine
 10
446.741
 20
70.1448
 30
0.0
 11
446.741
 21
58.14479999999999
 31
0.0
  0
LINE
  5
95C3
330
94F9
100
AcDbEntity
  8
4
  6
CENTER
100
AcDbLine
 10
480.517
 20
64.14480000000001
 30
0.0
 11
468.9529999999998
 21
64.14480000000001
 31
0.0
  0
LINE
  5
95C4
330
94F9
100
AcDbEntity
  8
4
  6
CENTER
100
AcDbLine
 10
480.517
 20
124.1449999999999
 30
0.0
 11
468.778
 21
124.1449999999999
 31
0.0
  0
LINE
  5
95C5
330
94F9
100
AcDbEntity
  8
1
  6
Continuous
100
AcDbLine
 10
450.24
 20
134.645
 30
0.0
 11
450.24
 21
134.145
 31
0.0
  0
LINE
  5
95C6
330
94F9
100
AcDbEntity
  8
1
  6
Continuous
100
AcDbLine
 10
399.7409999999999
 20
134.645
 30
0.0
 11
450.24
 21
134.645
 31
0.0
  0
LINE
  5
95C7
330
94F9
100
AcDbEntity
  8
1
  6
Continuous
100
AcDbLine
 10
399.7409999999999
 20
53.6448
 30
0.0
 11
450.24
 21
53.6448
 31
0.0
  0
LINE
  5
95C8
330
94F9
100
AcDbEntity
  8
1
  6
Continuous
100
AcDbLine
 10
450.24
 20
54.1448
 30
0.0
 11
450.24
 21
53.6448
 31
0.0
  0
LINE
  5
95C9
330
94F9
100
AcDbEntity
  8
1
  6
Continuous
100
AcDbLine
 10
403.4119999999998
 20
73.4732
 30
0.0
 11
403.9189999999998
 21
73.7095
 31
0.0
  0
LINE
  5
95CA
330
94F9
100
AcDbEntity
  8
1
  6
Continuous
100
AcDbLine
 10
403.9189999999998
 20
73.7095
 30
0.0
 11
404.7979999999998
 21
73.7248
 31
0.0
  0
LINE
  5
95CB
330
94F9
100
AcDbEntity
  8
1
  6
Continuous
100
AcDbLine
 10
403.9189999999998
 20
74.58020000000002
 30
0.0
 11
404.7979999999998
 21
74.5648
 31
0.0
  0
LINE
  5
95CC
330
94F9
100
AcDbEntity
  8
1
  6
Continuous
100
AcDbLine
 10
403.4119999999998
 20
74.8164
 30
0.0
 11
403.9189999999998
 21
74.58020000000002
 31
0.0
  0
LINE
  5
95CD
330
94F9
100
AcDbEntity
  8
1
  6
Continuous
100
AcDbLine
 10
402.069
 20
74.81650000000001
 30
0.0
 11
402.305
 21
75.3232
 31
0.0
  0
LINE
  5
95CE
330
94F9
100
AcDbEntity
  8
1
  6
Continuous
100
AcDbLine
 10
402.305
 20
75.3232
 30
0.0
 11
402.3209999999998
 21
76.20239999999999
 31
0.0
  0
LINE
  5
95CF
330
94F9
100
AcDbEntity
  8
1
  6
Continuous
100
AcDbLine
 10
403.176
 20
75.3232
 30
0.0
 11
403.1609999999998
 21
76.20239999999999
 31
0.0
  0
LINE
  5
95D0
330
94F9
100
AcDbEntity
  8
1
  6
Continuous
100
AcDbLine
 10
403.4119999999998
 20
74.8164
 30
0.0
 11
403.176
 21
75.3232
 31
0.0
  0
LINE
  5
95D1
330
94F9
100
AcDbEntity
  8
1
  6
Continuous
100
AcDbLine
 10
402.069
 20
73.4732
 30
0.0
 11
401.5619999999998
 21
73.7095
 31
0.0
  0
LINE
  5
95D2
330
94F9
100
AcDbEntity
  8
1
  6
Continuous
100
AcDbLine
 10
401.5619999999998
 20
73.7095
 30
0.0
 11
400.6829999999998
 21
73.7248
 31
0.0
  0
LINE
  5
95D3
330
94F9
100
AcDbEntity
  8
1
  6
Continuous
100
AcDbLine
 10
401.5619999999998
 20
74.58020000000002
 30
0.0
 11
400.6829999999998
 21
74.5648
 31
0.0
  0
LINE
  5
95D4
330
94F9
100
AcDbEntity
  8
1
  6
Continuous
100
AcDbLine
 10
402.069
 20
74.8164
 30
0.0
 11
401.5619999999998
 21
74.58020000000002
 31
0.0
  0
LINE
  5
95D5
330
94F9
100
AcDbEntity
  8
1
  6
Continuous
100
AcDbLine
 10
403.4119999999998
 20
73.4732
 30
0.0
 11
403.176
 21
72.96649999999998
 31
0.0
  0
LINE
  5
95D6
330
94F9
100
AcDbEntity
  8
1
  6
Continuous
100
AcDbLine
 10
403.176
 20
72.96649999999998
 30
0.0
 11
403.1609999999998
 21
72.08719999999998
 31
0.0
  0
LINE
  5
95D7
330
94F9
100
AcDbEntity
  8
1
  6
Continuous
100
AcDbLine
 10
402.305
 20
72.96649999999998
 30
0.0
 11
402.3209999999998
 21
72.0873
 31
0.0
  0
LINE
  5
95D8
330
94F9
100
AcDbEntity
  8
1
  6
Continuous
100
AcDbLine
 10
402.069
 20
73.4732
 30
0.0
 11
402.305
 21
72.96649999999998
 31
0.0
  0
LINE
  5
95D9
330
94F9
100
AcDbEntity
  8
1
  6
Continuous
100
AcDbLine
 10
106.7409999999999
 20
235.9949999999999
 30
0.0
 11
115.8349999999998
 21
235.9949999999999
 31
0.0
  0
LINE
  5
95DA
330
94F9
100
AcDbEntity
  8
1
  6
Continuous
100
AcDbLine
 10
114.331
 20
245.995
 30
0.0
 11
115.8349999999998
 21
245.995
 31
0.0
  0
LINE
  5
95DB
330
94F9
100
AcDbEntity
  8
1
  6
Continuous
100
AcDbLine
 10
403.176
 20
115.3229999999998
 30
0.0
 11
403.1609999999998
 21
116.202
 31
0.0
  0
LINE
  5
95DC
330
94F9
100
AcDbEntity
  8
1
  6
Continuous
100
AcDbLine
 10
403.4119999999998
 20
114.816
 30
0.0
 11
403.176
 21
115.3229999999998
 31
0.0
  0
LINE
  5
95DD
330
94F9
100
AcDbEntity
  8
1
  6
Continuous
100
AcDbLine
 10
403.4119999999998
 20
114.816
 30
0.0
 11
403.9189999999998
 21
114.5799999999999
 31
0.0
  0
LINE
  5
95DE
330
94F9
100
AcDbEntity
  8
1
  6
Continuous
100
AcDbLine
 10
403.9189999999998
 20
114.5799999999999
 30
0.0
 11
404.7979999999998
 21
114.565
 31
0.0
  0
LINE
  5
95DF
330
94F9
100
AcDbEntity
  8
1
  6
Continuous
100
AcDbLine
 10
403.9189999999998
 20
113.709
 30
0.0
 11
404.7979999999998
 21
113.7249999999998
 31
0.0
  0
LINE
  5
95E0
330
94F9
100
AcDbEntity
  8
1
  6
Continuous
100
AcDbLine
 10
403.4119999999998
 20
113.473
 30
0.0
 11
403.9189999999998
 21
113.709
 31
0.0
  0
LINE
  5
95E1
330
94F9
100
AcDbEntity
  8
1
  6
Continuous
100
AcDbLine
 10
403.4119999999998
 20
113.473
 30
0.0
 11
403.176
 21
112.9659999999999
 31
0.0
  0
LINE
  5
95E2
330
94F9
100
AcDbEntity
  8
1
  6
Continuous
100
AcDbLine
 10
403.176
 20
112.9659999999999
 30
0.0
 11
403.1609999999998
 21
112.087
 31
0.0
  0
LINE
  5
95E3
330
94F9
100
AcDbEntity
  8
1
  6
Continuous
100
AcDbLine
 10
402.305
 20
112.9659999999999
 30
0.0
 11
402.3209999999998
 21
112.087
 31
0.0
  0
LINE
  5
95E4
330
94F9
100
AcDbEntity
  8
1
  6
Continuous
100
AcDbLine
 10
402.069
 20
113.473
 30
0.0
 11
402.305
 21
112.9659999999999
 31
0.0
  0
LINE
  5
95E5
330
94F9
100
AcDbEntity
  8
1
  6
Continuous
100
AcDbLine
 10
402.069
 20
113.473
 30
0.0
 11
401.5619999999998
 21
113.709
 31
0.0
  0
LINE
  5
95E6
330
94F9
100
AcDbEntity
  8
1
  6
Continuous
100
AcDbLine
 10
401.5619999999998
 20
114.5799999999999
 30
0.0
 11
400.6829999999998
 21
114.565
 31
0.0
  0
LINE
  5
95E7
330
94F9
100
AcDbEntity
  8
1
  6
Continuous
100
AcDbLine
 10
401.5619999999998
 20
113.709
 30
0.0
 11
400.6829999999998
 21
113.7249999999998
 31
0.0
  0
LINE
  5
95E8
330
94F9
100
AcDbEntity
  8
1
  6
Continuous
100
AcDbLine
 10
402.069
 20
114.816
 30
0.0
 11
401.5619999999998
 21
114.5799999999999
 31
0.0
  0
LINE
  5
95E9
330
94F9
100
AcDbEntity
  8
1
  6
Continuous
100
AcDbLine
 10
402.305
 20
115.3229999999998
 30
0.0
 11
402.3209999999998
 21
116.202
 31
0.0
  0
LINE
  5
95EA
330
94F9
100
AcDbEntity
  8
1
  6
Continuous
100
AcDbLine
 10
402.069
 20
114.816
 30
0.0
 11
402.305
 21
115.3229999999998
 31
0.0
  0
LINE
  5
95EB
330
94F9
100
AcDbEntity
  8
1
  6
Continuous
100
AcDbLine
 10
412.434
 20
93.4518
 30
0.0
 11
412.983
 21
93.70789999999999
 31
0.0
  0
LINE
  5
95EC
330
94F9
100
AcDbEntity
  8
1
  6
Continuous
100
AcDbLine
 10
412.983
 20
93.70789999999999
 30
0.0
 11
413.9509999999998
 21
93.72480000000001
 31
0.0
  0
LINE
  5
95ED
330
94F9
100
AcDbEntity
  8
1
  6
Continuous
100
AcDbLine
 10
412.983
 20
94.5817
 30
0.0
 11
413.9509999999998
 21
94.5648
 31
0.0
  0
LINE
  5
95EE
330
94F9
100
AcDbEntity
  8
1
  6
Continuous
100
AcDbLine
 10
412.434
 20
94.8379
 30
0.0
 11
412.983
 21
94.5817
 31
0.0
  0
LINE
  5
95EF
330
94F9
100
AcDbEntity
  8
1
  6
Continuous
100
AcDbLine
 10
411.0469999999998
 20
94.8379
 30
0.0
 11
411.3039999999998
 21
95.38720000000001
 31
0.0
  0
LINE
  5
95F0
330
94F9
100
AcDbEntity
  8
1
  6
Continuous
100
AcDbLine
 10
411.3039999999998
 20
95.38720000000001
 30
0.0
 11
411.3209999999998
 21
96.35530000000001
 31
0.0
  0
LINE
  5
95F1
330
94F9
100
AcDbEntity
  8
1
  6
Continuous
100
AcDbLine
 10
412.1769999999998
 20
95.38720000000001
 30
0.0
 11
412.161
 21
96.35530000000001
 31
0.0
  0
LINE
  5
95F2
330
94F9
100
AcDbEntity
  8
1
  6
Continuous
100
AcDbLine
 10
412.434
 20
94.8379
 30
0.0
 11
412.1769999999998
 21
95.38720000000001
 31
0.0
  0
LINE
  5
95F3
330
94F9
100
AcDbEntity
  8
1
  6
Continuous
100
AcDbLine
 10
411.0479999999998
 20
93.4518
 30
0.0
 11
410.498
 21
93.70789999999999
 31
0.0
  0
LINE
  5
95F4
330
94F9
100
AcDbEntity
  8
1
  6
Continuous
100
AcDbLine
 10
410.498
 20
93.70789999999999
 30
0.0
 11
409.5299999999999
 21
93.72480000000001
 31
0.0
  0
LINE
  5
95F5
330
94F9
100
AcDbEntity
  8
1
  6
Continuous
100
AcDbLine
 10
410.498
 20
94.5817
 30
0.0
 11
409.5299999999999
 21
94.5648
 31
0.0
  0
LINE
  5
95F6
330
94F9
100
AcDbEntity
  8
1
  6
Continuous
100
AcDbLine
 10
411.0479999999998
 20
94.8379
 30
0.0
 11
410.498
 21
94.5817
 31
0.0
  0
LINE
  5
95F7
330
94F9
100
AcDbEntity
  8
1
  6
Continuous
100
AcDbLine
 10
412.434
 20
93.4518
 30
0.0
 11
412.1769999999998
 21
92.9024
 31
0.0
  0
LINE
  5
95F8
330
94F9
100
AcDbEntity
  8
1
  6
Continuous
100
AcDbLine
 10
412.1769999999998
 20
92.9024
 30
0.0
 11
412.161
 21
91.9344
 31
0.0
  0
LINE
  5
95F9
330
94F9
100
AcDbEntity
  8
1
  6
Continuous
100
AcDbLine
 10
411.3039999999998
 20
92.9025
 30
0.0
 11
411.3209999999998
 21
91.9344
 31
0.0
  0
LINE
  5
95FA
330
94F9
100
AcDbEntity
  8
1
  6
Continuous
100
AcDbLine
 10
411.0479999999998
 20
93.4518
 30
0.0
 11
411.3039999999998
 21
92.9025
 31
0.0
  0
LINE
  5
95FB
330
94F9
100
AcDbEntity
  8
1
  6
Continuous
100
AcDbLine
 10
447.434
 20
63.4518
 30
0.0
 11
447.9829999999998
 21
63.7079
 31
0.0
  0
LINE
  5
95FC
330
94F9
100
AcDbEntity
  8
1
  6
Continuous
100
AcDbLine
 10
447.9829999999998
 20
63.7079
 30
0.0
 11
448.951
 21
63.7248
 31
0.0
  0
LINE
  5
95FD
330
94F9
100
AcDbEntity
  8
1
  6
Continuous
100
AcDbLine
 10
447.9829999999998
 20
64.58169999999999
 30
0.0
 11
448.951
 21
64.5648
 31
0.0
  0
LINE
  5
95FE
330
94F9
100
AcDbEntity
  8
1
  6
Continuous
100
AcDbLine
 10
447.434
 20
64.8379
 30
0.0
 11
447.9829999999998
 21
64.58169999999999
 31
0.0
  0
LINE
  5
95FF
330
94F9
100
AcDbEntity
  8
1
  6
Continuous
100
AcDbLine
 10
446.0469999999999
 20
64.8379
 30
0.0
 11
446.3039999999998
 21
65.38720000000001
 31
0.0
  0
LINE
  5
9600
330
94F9
100
AcDbEntity
  8
1
  6
Continuous
100
AcDbLine
 10
446.3039999999998
 20
65.38720000000001
 30
0.0
 11
446.321
 21
66.3553
 31
0.0
  0
LINE
  5
9601
330
94F9
100
AcDbEntity
  8
1
  6
Continuous
100
AcDbLine
 10
447.1769999999998
 20
65.38720000000001
 30
0.0
 11
447.161
 21
66.3553
 31
0.0
  0
LINE
  5
9602
330
94F9
100
AcDbEntity
  8
1
  6
Continuous
100
AcDbLine
 10
447.434
 20
64.8379
 30
0.0
 11
447.1769999999998
 21
65.38720000000001
 31
0.0
  0
LINE
  5
9603
330
94F9
100
AcDbEntity
  8
1
  6
Continuous
100
AcDbLine
 10
446.0469999999999
 20
63.4518
 30
0.0
 11
445.4979999999998
 21
63.7079
 31
0.0
  0
LINE
  5
9604
330
94F9
100
AcDbEntity
  8
1
  6
Continuous
100
AcDbLine
 10
445.4979999999998
 20
63.7079
 30
0.0
 11
444.5299999999998
 21
63.7248
 31
0.0
  0
LINE
  5
9605
330
94F9
100
AcDbEntity
  8
1
  6
Continuous
100
AcDbLine
 10
445.4979999999998
 20
64.58169999999999
 30
0.0
 11
444.5299999999998
 21
64.5648
 31
0.0
  0
LINE
  5
9606
330
94F9
100
AcDbEntity
  8
1
  6
Continuous
100
AcDbLine
 10
446.0469999999999
 20
64.8379
 30
0.0
 11
445.4979999999998
 21
64.58169999999999
 31
0.0
  0
LINE
  5
9607
330
94F9
100
AcDbEntity
  8
1
  6
Continuous
100
AcDbLine
 10
447.434
 20
63.4518
 30
0.0
 11
447.1769999999998
 21
62.9025
 31
0.0
  0
LINE
  5
9608
330
94F9
100
AcDbEntity
  8
1
  6
Continuous
100
AcDbLine
 10
447.1769999999998
 20
62.9024
 30
0.0
 11
447.161
 21
61.93439999999998
 31
0.0
  0
LINE
  5
9609
330
94F9
100
AcDbEntity
  8
1
  6
Continuous
100
AcDbLine
 10
446.3039999999998
 20
62.9025
 30
0.0
 11
446.3199999999998
 21
61.93439999999998
 31
0.0
  0
LINE
  5
960A
330
94F9
100
AcDbEntity
  8
1
  6
Continuous
100
AcDbLine
 10
446.048
 20
63.4518
 30
0.0
 11
446.3039999999998
 21
62.9025
 31
0.0
  0
LINE
  5
960B
330
94F9
100
AcDbEntity
  8
1
  6
Continuous
100
AcDbLine
 10
447.434
 20
123.452
 30
0.0
 11
447.9829999999998
 21
123.7079999999999
 31
0.0
  0
LINE
  5
960C
330
94F9
100
AcDbEntity
  8
1
  6
Continuous
100
AcDbLine
 10
447.9829999999998
 20
123.7079999999999
 30
0.0
 11
448.951
 21
123.7249999999998
 31
0.0
  0
LINE
  5
960D
330
94F9
100
AcDbEntity
  8
1
  6
Continuous
100
AcDbLine
 10
447.9829999999998
 20
124.5819999999999
 30
0.0
 11
448.951
 21
124.5649999999999
 31
0.0
  0
LINE
  5
960E
330
94F9
100
AcDbEntity
  8
1
  6
Continuous
100
AcDbLine
 10
447.434
 20
124.838
 30
0.0
 11
447.9829999999998
 21
124.5819999999999
 31
0.0
  0
LINE
  5
960F
330
94F9
100
AcDbEntity
  8
1
  6
Continuous
100
AcDbLine
 10
446.0469999999999
 20
124.838
 30
0.0
 11
446.3039999999998
 21
125.387
 31
0.0
  0
LINE
  5
9610
330
94F9
100
AcDbEntity
  8
1
  6
Continuous
100
AcDbLine
 10
446.3039999999998
 20
125.387
 30
0.0
 11
446.321
 21
126.355
 31
0.0
  0
LINE
  5
9611
330
94F9
100
AcDbEntity
  8
1
  6
Continuous
100
AcDbLine
 10
447.1769999999998
 20
125.387
 30
0.0
 11
447.161
 21
126.355
 31
0.0
  0
LINE
  5
9612
330
94F9
100
AcDbEntity
  8
1
  6
Continuous
100
AcDbLine
 10
447.434
 20
124.838
 30
0.0
 11
447.1769999999998
 21
125.387
 31
0.0
  0
LINE
  5
9613
330
94F9
100
AcDbEntity
  8
1
  6
Continuous
100
AcDbLine
 10
446.0469999999999
 20
123.452
 30
0.0
 11
445.4979999999998
 21
123.7079999999999
 31
0.0
  0
LINE
  5
9614
330
94F9
100
AcDbEntity
  8
1
  6
Continuous
100
AcDbLine
 10
445.4979999999998
 20
123.7079999999999
 30
0.0
 11
444.5299999999998
 21
123.7249999999998
 31
0.0
  0
LINE
  5
9615
330
94F9
100
AcDbEntity
  8
1
  6
Continuous
100
AcDbLine
 10
445.4979999999998
 20
124.5819999999999
 30
0.0
 11
444.5299999999998
 21
124.5649999999999
 31
0.0
  0
LINE
  5
9616
330
94F9
100
AcDbEntity
  8
1
  6
Continuous
100
AcDbLine
 10
446.0469999999999
 20
124.838
 30
0.0
 11
445.4979999999998
 21
124.5819999999999
 31
0.0
  0
LINE
  5
9617
330
94F9
100
AcDbEntity
  8
1
  6
Continuous
100
AcDbLine
 10
447.434
 20
123.452
 30
0.0
 11
447.1769999999998
 21
122.902
 31
0.0
  0
LINE
  5
9618
330
94F9
100
AcDbEntity
  8
1
  6
Continuous
100
AcDbLine
 10
447.1769999999998
 20
122.902
 30
0.0
 11
447.161
 21
121.934
 31
0.0
  0
LINE
  5
9619
330
94F9
100
AcDbEntity
  8
1
  6
Continuous
100
AcDbLine
 10
446.3039999999998
 20
122.902
 30
0.0
 11
446.321
 21
121.934
 31
0.0
  0
LINE
  5
961A
330
94F9
100
AcDbEntity
  8
1
  6
Continuous
100
AcDbLine
 10
446.0469999999999
 20
123.452
 30
0.0
 11
446.3039999999998
 21
122.902
 31
0.0
  0
LINE
  5
961B
330
94F9
100
AcDbEntity
  8
5
  6
PHANTOM
100
AcDbLine
 10
154.9929999999999
 20
214.6409999999999
 30
0.0
 11
178.0209999999999
 21
195.7419999999999
 31
0.0
  0
LINE
  5
961C
330
94F9
100
AcDbEntity
  8
1
  6
Continuous
100
AcDbLine
 10
290.538
 20
96.64480000000001
 30
0.0
 11
294.538
 21
96.64480000000001
 31
0.0
  0
LINE
  5
961D
330
94F9
100
AcDbEntity
  8
1
  6
Continuous
100
AcDbLine
 10
290.538
 20
91.64480000000001
 30
0.0
 11
294.538
 21
91.64480000000001
 31
0.0
  0
LINE
  5
961E
330
94F9
100
AcDbEntity
  8
1
  6
Continuous
100
AcDbLine
 10
284.3379999999999
 20
69.14480000000001
 30
0.0
 11
284.3379999999999
 21
61.6448
 31
0.0
  0
LINE
  5
961F
330
94F9
100
AcDbEntity
  8
1
  6
Continuous
100
AcDbLine
 10
284.3379999999999
 20
109.145
 30
0.0
 11
284.3379999999999
 21
79.14480000000001
 31
0.0
  0
LINE
  5
9620
330
94F9
100
AcDbEntity
  8
4
  6
CENTER
100
AcDbLine
 10
273.538
 20
144.809
 30
0.0
 11
273.538
 21
41.8977
 31
0.0
  0
LINE
  5
9621
330
94F9
100
AcDbEntity
  8
4
  6
CENTER
100
AcDbLine
 10
40.1329
 20
147.085
 30
0.0
 11
40.1329
 21
43.95999999999999
 31
0.0
  0
LINE
  5
9622
330
94F9
100
AcDbEntity
  8
1
  6
Continuous
100
AcDbLine
 10
185.377
 20
278.2939999999999
 30
0.0
 11
185.377
 21
277.495
 31
0.0
  0
LINE
  5
9623
330
94F9
100
AcDbEntity
  8
1
  6
Continuous
100
AcDbLine
 10
195.377
 20
278.295
 30
0.0
 11
185.377
 21
278.295
 31
0.0
  0
LINE
  5
9624
330
94F9
100
AcDbEntity
  8
1
  6
Continuous
100
AcDbLine
 10
195.377
 20
278.2939999999999
 30
0.0
 11
195.377
 21
277.495
 31
0.0
  0
LINE
  5
9625
330
94F9
100
AcDbEntity
  8
1
  6
Continuous
100
AcDbLine
 10
194.1769999999999
 20
279.2939999999999
 30
0.0
 11
194.1769999999999
 21
278.2939999999999
 31
0.0
  0
LINE
  5
9626
330
94F9
100
AcDbEntity
  8
1
  6
Continuous
100
AcDbLine
 10
189.874
 20
279.295
 30
0.0
 11
190.713
 21
278.295
 31
0.0
  0
LINE
  5
9627
330
94F9
100
AcDbEntity
  8
1
  6
Continuous
100
AcDbLine
 10
194.1769999999999
 20
279.295
 30
0.0
 11
186.5769999999999
 21
279.295
 31
0.0
  0
LINE
  5
9628
330
94F9
100
AcDbEntity
  8
1
  6
Continuous
100
AcDbLine
 10
186.5769999999999
 20
279.2939999999999
 30
0.0
 11
186.5769999999999
 21
278.2939999999999
 31
0.0
  0
LINE
  5
9629
330
94F9
100
AcDbEntity
  8
1
  6
Continuous
100
AcDbLine
 10
186.8769999999999
 20
279.2939999999999
 30
0.0
 11
186.9749999999999
 21
280.4139999999998
 31
0.0
  0
LINE
  5
962A
330
94F9
100
AcDbEntity
  8
1
  6
Continuous
100
AcDbLine
 10
193.877
 20
279.295
 30
0.0
 11
193.779
 21
280.4139999999998
 31
0.0
  0
LINE
  5
962B
330
94F9
100
AcDbEntity
  8
4
  6
CENTER
100
AcDbLine
 10
402.7409999999998
 20
80.64480000000001
 30
0.0
 11
402.7409999999998
 21
67.6448
 31
0.0
  0
LINE
  5
962C
330
94F9
100
AcDbEntity
  8
4
  6
CENTER
100
AcDbLine
 10
396.2409999999999
 20
74.14480000000001
 30
0.0
 11
409.241
 21
74.14480000000001
 31
0.0
  0
LINE
  5
962D
330
94F9
100
AcDbEntity
  8
4
  6
CENTER
100
AcDbLine
 10
402.7409999999998
 20
120.645
 30
0.0
 11
402.7409999999998
 21
107.6449999999999
 31
0.0
  0
LINE
  5
962E
330
94F9
100
AcDbEntity
  8
4
  6
CENTER
100
AcDbLine
 10
396.2409999999999
 20
114.145
 30
0.0
 11
409.241
 21
114.145
 31
0.0
  0
LINE
  5
962F
330
94F9
100
AcDbEntity
  8
1
  6
Continuous
100
AcDbLine
 10
337.838
 20
74.5644
 30
0.0
 11
336.838
 21
73.72530000000002
 31
0.0
  0
LINE
  5
9630
330
94F9
100
AcDbEntity
  8
1
  6
Continuous
100
AcDbLine
 10
337.838
 20
70.6448
 30
0.0
 11
338.9569999999999
 21
70.7427
 31
0.0
  0
LINE
  5
9631
330
94F9
100
AcDbEntity
  8
1
  6
Continuous
100
AcDbLine
 10
337.838
 20
77.6448
 30
0.0
 11
338.9569999999999
 21
77.54689999999998
 31
0.0
  0
LINE
  5
9632
330
94F9
100
AcDbEntity
  8
1
  6
Continuous
100
AcDbLine
 10
336.838
 20
79.14480000000001
 30
0.0
 11
336.838
 21
69.14480000000001
 31
0.0
  0
LINE
  5
9633
330
94F9
100
AcDbEntity
  8
1
  6
Continuous
100
AcDbLine
 10
337.838
 20
77.9448
 30
0.0
 11
337.838
 21
70.34480000000001
 31
0.0
  0
LINE
  5
9634
330
94F9
100
AcDbEntity
  8
1
  6
Continuous
100
AcDbLine
 10
336.838
 20
70.34480000000001
 30
0.0
 11
337.838
 21
70.34480000000001
 31
0.0
  0
LINE
  5
9635
330
94F9
100
AcDbEntity
  8
1
  6
Continuous
100
AcDbLine
 10
336.838
 20
77.9448
 30
0.0
 11
337.838
 21
77.9448
 31
0.0
  0
LINE
  5
9636
330
94F9
100
AcDbEntity
  8
1
  6
Continuous
100
AcDbLine
 10
336.038
 20
79.14480000000001
 30
0.0
 11
336.838
 21
79.14480000000001
 31
0.0
  0
LINE
  5
9637
330
94F9
100
AcDbEntity
  8
1
  6
Continuous
100
AcDbLine
 10
336.038
 20
69.14480000000001
 30
0.0
 11
336.838
 21
69.14480000000001
 31
0.0
  0
LINE
  5
9638
330
94F9
100
AcDbEntity
  8
1
  6
Continuous
100
AcDbLine
 10
337.838
 20
114.5639999999998
 30
0.0
 11
336.838
 21
113.7249999999998
 31
0.0
  0
LINE
  5
9639
330
94F9
100
AcDbEntity
  8
1
  6
Continuous
100
AcDbLine
 10
337.838
 20
110.6449999999999
 30
0.0
 11
338.9569999999999
 21
110.7429999999999
 31
0.0
  0
LINE
  5
963A
330
94F9
100
AcDbEntity
  8
1
  6
Continuous
100
AcDbLine
 10
337.838
 20
117.6449999999999
 30
0.0
 11
338.9569999999999
 21
117.547
 31
0.0
  0
LINE
  5
963B
330
94F9
100
AcDbEntity
  8
1
  6
Continuous
100
AcDbLine
 10
336.838
 20
119.1449999999999
 30
0.0
 11
336.838
 21
109.145
 31
0.0
  0
LINE
  5
963C
330
94F9
100
AcDbEntity
  8
1
  6
Continuous
100
AcDbLine
 10
337.838
 20
117.9449999999998
 30
0.0
 11
337.838
 21
110.345
 31
0.0
  0
LINE
  5
963D
330
94F9
100
AcDbEntity
  8
1
  6
Continuous
100
AcDbLine
 10
336.838
 20
110.345
 30
0.0
 11
337.838
 21
110.345
 31
0.0
  0
LINE
  5
963E
330
94F9
100
AcDbEntity
  8
1
  6
Continuous
100
AcDbLine
 10
336.838
 20
117.9449999999998
 30
0.0
 11
337.838
 21
117.9449999999998
 31
0.0
  0
LINE
  5
963F
330
94F9
100
AcDbEntity
  8
1
  6
Continuous
100
AcDbLine
 10
336.038
 20
119.1449999999999
 30
0.0
 11
336.838
 21
119.1449999999999
 31
0.0
  0
LINE
  5
9640
330
94F9
100
AcDbEntity
  8
1
  6
Continuous
100
AcDbLine
 10
336.038
 20
109.145
 30
0.0
 11
336.838
 21
109.145
 31
0.0
  0
LINE
  5
9641
330
94F9
100
AcDbEntity
  8
4
  6
CENTER
100
AcDbLine
 10
190.335
 20
230.544
 30
0.0
 11
190.335
 21
244.8729999999999
 31
0.0
  0
LINE
  5
9642
330
94F9
100
AcDbEntity
  8
1
  6
Continuous
100
AcDbLine
 10
195.3369999999999
 20
229.749
 30
0.0
 11
195.3369999999999
 21
239.995
 31
0.0
  0
LINE
  5
9643
330
94F9
100
AcDbEntity
  8
1
  6
Continuous
100
AcDbLine
 10
183.337
 20
235.765
 30
0.0
 11
183.337
 21
239.995
 31
0.0
  0
LINE
  5
9644
330
94F9
100
AcDbEntity
  8
1
  6
Continuous
100
AcDbLine
 10
208.8989999999999
 20
117.1449999999999
 30
0.0
 11
208.8989999999999
 21
71.1448
 31
0.0
  0
LINE
  5
9645
330
94F9
100
AcDbEntity
  8
1
  6
Continuous
100
AcDbLine
 10
393.7409999999999
 20
128.645
 30
0.0
 11
393.7409999999999
 21
119.1449999999999
 31
0.0
  0
LINE
  5
9646
330
94F9
100
AcDbEntity
  8
1
  6
Continuous
100
AcDbLine
 10
393.7409999999999
 20
69.14480000000001
 30
0.0
 11
393.7409999999999
 21
59.6448
 31
0.0
  0
ARC
  5
9647
330
94F9
100
AcDbEntity
  8
1
  6
Continuous
100
AcDbCircle
 10
641.335
 20
94.14480000000001
 30
0.0
 40
508.4999999999998
100
AcDbArc
 50
175.532
 51
184.4679999999999
  0
ARC
  5
9648
330
94F9
100
AcDbEntity
  8
1
  6
Continuous
100
AcDbCircle
 10
-302.665
 20
94.14480000000001
 30
0.0
 40
508.4999999999998
100
AcDbArc
 50
355.532
 51
4.468429999999998
  0
ARC
  5
9649
330
94F9
100
AcDbEntity
  8
1
  6
Continuous
100
AcDbCircle
 10
169.335
 20
548.1449999999998
 30
0.0
 40
500.0
100
AcDbArc
 50
266.6379999999999
 51
273.362
  0
ARC
  5
964A
330
94F9
100
AcDbEntity
  8
1
  6
Continuous
100
AcDbCircle
 10
169.335
 20
-359.855
 30
0.0
 40
500.0
100
AcDbArc
 50
86.63769999999997
 51
93.3623
  0
ARC
  5
964B
330
94F9
100
AcDbEntity
  8
1
  6
Continuous
100
AcDbCircle
 10
198.3079999999999
 20
54.9952
 30
0.0
 40
6.0
100
AcDbArc
 50
273.362
 51
355.532
  0
ARC
  5
964C
330
94F9
100
AcDbEntity
  8
1
  6
Continuous
100
AcDbCircle
 10
140.3629999999998
 20
54.9952
 30
0.0
 40
6.0
100
AcDbArc
 50
184.4679999999999
 51
266.6379999999999
  0
ARC
  5
964D
330
94F9
100
AcDbEntity
  8
1
  6
Continuous
100
AcDbCircle
 10
140.3629999999998
 20
133.2939999999998
 30
0.0
 40
6.0
100
AcDbArc
 50
93.3623
 51
175.532
  0
ARC
  5
964E
330
94F9
100
AcDbEntity
  8
1
  6
Continuous
100
AcDbCircle
 10
198.3079999999999
 20
133.2939999999998
 30
0.0
 40
6.0
100
AcDbArc
 50
4.468429999999998
 51
86.63769999999997
  0
ARC
  5
964F
330
94F9
100
AcDbEntity
  8
1
  6
Continuous
100
AcDbCircle
 10
-302.665
 20
94.14480000000001
 30
0.0
 40
500.0
100
AcDbArc
 50
355.9619999999999
 51
4.03826
  0
ARC
  5
9650
330
94F9
100
AcDbEntity
  8
1
  6
Continuous
100
AcDbCircle
 10
193.102
 20
129.145
 30
0.0
 40
3.0
100
AcDbArc
 50
4.03826
 51
90.0
  0
ARC
  5
9651
330
94F9
100
AcDbEntity
  8
1
  6
Continuous
100
AcDbCircle
 10
193.102
 20
59.1448
 30
0.0
 40
3.0
100
AcDbArc
 50
270.0
 51
355.9619999999999
  0
ARC
  5
9652
330
94F9
100
AcDbEntity
  8
1
  6
Continuous
100
AcDbCircle
 10
963.038
 20
94.14480000000001
 30
0.0
 40
700.0
100
AcDbArc
 50
176.309
 51
183.6909999999998
  0
ARC
  5
9653
330
94F9
100
AcDbEntity
  8
1
  6
Continuous
100
AcDbCircle
 10
265.4879999999999
 20
49.1448
 30
0.0
 40
1.0
100
AcDbArc
 50
183.6909999999998
 51
270.0
  0
ARC
  5
9654
330
94F9
100
AcDbEntity
  8
1
  6
Continuous
100
AcDbCircle
 10
265.4879999999999
 20
139.145
 30
0.0
 40
1.0
100
AcDbArc
 50
90.0
 51
176.309
  0
ARC
  5
9655
330
94F9
100
AcDbEntity
  8
1
  6
Continuous
100
AcDbCircle
 10
276.3379999999999
 20
126.645
 30
0.0
 40
8.0
100
AcDbArc
 50
0.0
 51
90.0
  0
ARC
  5
9656
330
94F9
100
AcDbEntity
  8
1
  6
Continuous
100
AcDbCircle
 10
276.3379999999999
 20
61.6448
 30
0.0
 40
8.0
100
AcDbArc
 50
270.0
 51
0.0
  0
ARC
  5
9657
330
94F9
100
AcDbEntity
  8
1
  6
Continuous
100
AcDbCircle
 10
-649.3669999999997
 20
94.14480000000001
 30
0.0
 40
700.0
100
AcDbArc
 50
356.309
 51
3.691119999999998
  0
ARC
  5
9658
330
94F9
100
AcDbEntity
  8
1
  6
Continuous
100
AcDbCircle
 10
48.1829
 20
49.1448
 30
0.0
 40
1.0
100
AcDbArc
 50
270.0
 51
356.309
  0
ARC
  5
9659
330
94F9
100
AcDbEntity
  8
1
  6
Continuous
100
AcDbCircle
 10
48.1829
 20
139.145
 30
0.0
 40
1.0
100
AcDbArc
 50
3.691119999999998
 51
90.0
  0
ARC
  5
965A
330
94F9
100
AcDbEntity
  8
1
  6
Continuous
100
AcDbCircle
 10
37.3329
 20
126.645
 30
0.0
 40
8.0
100
AcDbArc
 50
90.0
 51
118.9759999999999
  0
ARC
  5
965B
330
94F9
100
AcDbEntity
  8
1
  6
Continuous
100
AcDbCircle
 10
37.3329
 20
61.6448
 30
0.0
 40
8.0
100
AcDbArc
 50
241.0239999999999
 51
270.0
  0
ARC
  5
965C
330
94F9
100
AcDbEntity
  8
1
  6
Continuous
100
AcDbCircle
 10
45.1329
 20
58.14479999999999
 30
0.0
 40
1.0
100
AcDbArc
 50
0.0
 51
90.0
  0
ARC
  5
965D
330
94F9
100
AcDbEntity
  8
1
  6
Continuous
100
AcDbCircle
 10
44.13289999999999
 20
58.14479999999999
 30
0.0
 40
1.0
100
AcDbArc
 50
0.0
 51
90.0
  0
ARC
  5
965E
330
94F9
100
AcDbEntity
  8
1
  6
Continuous
100
AcDbCircle
 10
44.13289999999999
 20
130.145
 30
0.0
 40
1.0
100
AcDbArc
 50
270.0
 51
0.0
  0
ARC
  5
965F
330
94F9
100
AcDbEntity
  8
1
  6
Continuous
100
AcDbCircle
 10
45.1329
 20
130.145
 30
0.0
 40
1.0
100
AcDbArc
 50
270.0
 51
0.0
  0
ARC
  5
9660
330
94F9
100
AcDbEntity
  8
1
  6
Continuous
100
AcDbCircle
 10
169.335
 20
914.4949999999999
 30
0.0
 40
700.0
100
AcDbArc
 50
267.0889999999999
 51
272.9109999999999
  0
ARC
  5
9661
330
94F9
100
AcDbEntity
  8
1
  6
Continuous
100
AcDbCircle
 10
133.835
 20
216.3969999999999
 30
0.0
 40
1.0
100
AcDbArc
 50
180.0
 51
267.0889999999999
  0
ARC
  5
9662
330
94F9
100
AcDbEntity
  8
1
  6
Continuous
100
AcDbCircle
 10
204.835
 20
216.3969999999999
 30
0.0
 40
1.0
100
AcDbArc
 50
272.9109999999999
 51
0.0
  0
ARC
  5
9663
330
94F9
100
AcDbEntity
  8
1
  6
Continuous
100
AcDbCircle
 10
-302.165
 20
94.14480000000001
 30
0.0
 40
498.0
100
AcDbArc
 50
356.0029999999999
 51
356.7699999999998
  0
ARC
  5
9664
330
94F9
100
AcDbEntity
  8
1
  6
Continuous
100
AcDbCircle
 10
191.6319999999998
 20
59.6448
 30
0.0
 40
3.0
100
AcDbArc
 50
270.0
 51
356.0029999999999
  0
ARC
  5
9665
330
94F9
100
AcDbEntity
  8
1
  6
Continuous
100
AcDbCircle
 10
185.06
 20
66.64480000000001
 30
0.0
 40
10.0
100
AcDbArc
 50
356.7699999999998
 51
59.1412
  0
ARC
  5
9666
330
94F9
100
AcDbEntity
  8
1
  6
Continuous
100
AcDbCircle
 10
215.8349999999999
 20
118.151
 30
0.0
 40
50.0
100
AcDbArc
 50
180.0
 51
239.141
  0
ARC
  5
9667
330
94F9
100
AcDbEntity
  8
1
  6
Continuous
100
AcDbCircle
 10
162.835
 20
128.645
 30
0.0
 40
3.0
100
AcDbArc
 50
0.0
 51
90.0
  0
ARC
  5
9668
330
94F9
100
AcDbEntity
  8
5
  6
PHANTOM
100
AcDbCircle
 10
602.7819999999998
 20
746.8799999999998
 30
0.0
 40
700.0
100
AcDbArc
 50
229.4709999999999
 51
232.5309999999998
  0
ARC
  5
9669
330
94F9
100
AcDbEntity
  8
5
  6
PHANTOM
100
AcDbCircle
 10
178.4729999999999
 20
193.2829999999999
 30
0.0
 40
2.5
100
AcDbArc
 50
232.5309999999998
 51
100.421
  0
ARC
  5
966A
330
94F9
100
AcDbEntity
  8
5
  6
PHANTOM
100
AcDbCircle
 10
171.3789999999999
 20
214.13
 30
0.0
 40
1.0
100
AcDbArc
 50
320.624
 51
21.7799
  0
ARC
  5
966B
330
94F9
100
AcDbEntity
  8
5
  6
PHANTOM
100
AcDbCircle
 10
141.247
 20
223.9149999999999
 30
0.0
 40
2.5
100
AcDbArc
 50
140.625
 51
228.5699999999999
  0
ARC
  5
966C
330
94F9
100
AcDbEntity
  8
1
  6
Continuous
100
AcDbCircle
 10
32.1329
 20
132.145
 30
0.0
 40
2.0
100
AcDbArc
 50
0.0
 51
90.0
  0
ARC
  5
966D
330
94F9
100
AcDbEntity
  8
1
  6
Continuous
100
AcDbCircle
 10
32.1329
 20
56.1448
 30
0.0
 40
2.0
100
AcDbArc
 50
270.0
 51
0.0
  0
CIRCLE
  5
966E
330
94F9
100
AcDbEntity
  8
2
  6
Continuous
100
AcDbCircle
 10
27.1329
 20
124.1449999999999
 30
0.0
 40
2.5
  0
CIRCLE
  5
966F
330
94F9
100
AcDbEntity
  8
2
  6
Continuous
100
AcDbCircle
 10
27.1329
 20
64.14480000000001
 30
0.0
 40
2.5
  0
CIRCLE
  5
9670
330
94F9
100
AcDbEntity
  8
1
  6
Continuous
100
AcDbCircle
 10
27.1329
 20
124.1449999999999
 30
0.0
 40
2.066999999999997
  0
CIRCLE
  5
9671
330
94F9
100
AcDbEntity
  8
1
  6
Continuous
100
AcDbCircle
 10
27.1329
 20
64.14480000000001
 30
0.0
 40
2.066999999999997
  0
ARC
  5
9672
330
94F9
100
AcDbEntity
  8
1
  6
Continuous
100
AcDbCircle
 10
117.835
 20
245.995
 30
0.0
 40
2.0
100
AcDbArc
 50
90.0
 51
180.0
  0
ARC
  5
9673
330
94F9
100
AcDbEntity
  8
1
  6
Continuous
100
AcDbCircle
 10
281.538
 20
132.145
 30
0.0
 40
2.0
100
AcDbArc
 50
90.0
 51
131.471
  0
ARC
  5
9674
330
94F9
100
AcDbEntity
  8
1
  6
Continuous
100
AcDbCircle
 10
281.538
 20
56.1448
 30
0.0
 40
2.0
100
AcDbArc
 50
228.529
 51
270.0
  0
ARC
  5
9675
330
94F9
100
AcDbEntity
  8
1
  6
Continuous
100
AcDbCircle
 10
106.8349999999998
 20
100.1449999999999
 30
0.0
 40
1.0
100
AcDbArc
 50
90.0
 51
180.0
  0
ARC
  5
9676
330
94F9
100
AcDbEntity
  8
1
  6
Continuous
100
AcDbCircle
 10
106.8349999999998
 20
88.14480000000001
 30
0.0
 40
1.0
100
AcDbArc
 50
180.0
 51
270.0
  0
ARC
  5
9677
330
94F9
100
AcDbEntity
  8
5
  6
PHANTOM
100
AcDbCircle
 10
116.741
 20
236.995
 30
0.0
 40
1.0
100
AcDbArc
 50
148.9819999999999
 51
270.0
  0
ARC
  5
9678
330
94F9
100
AcDbEntity
  8
5
  6
PHANTOM
100
AcDbCircle
 10
137.3089999999999
 20
224.6269999999999
 30
0.0
 40
25.0
100
AcDbArc
 50
121.273
 51
148.9819999999999
  0
ARC
  5
9679
330
94F9
100
AcDbEntity
  8
1
  6
Continuous
100
AcDbCircle
 10
28.1329
 20
100.1449999999999
 30
0.0
 40
1.0
100
AcDbArc
 50
0.0
 51
90.0
  0
ARC
  5
967A
330
94F9
100
AcDbEntity
  8
1
  6
Continuous
100
AcDbCircle
 10
28.1329
 20
88.14480000000001
 30
0.0
 40
1.0
100
AcDbArc
 50
270.0
 51
0.0
  0
ARC
  5
967B
330
94F9
100
AcDbEntity
  8
1
  6
Continuous
100
AcDbCircle
 10
20.1329
 20
88.14480000000001
 30
0.0
 40
1.0
100
AcDbArc
 50
180.0
 51
270.0
  0
ARC
  5
967C
330
94F9
100
AcDbEntity
  8
1
  6
Continuous
100
AcDbCircle
 10
20.1329
 20
100.1449999999999
 30
0.0
 40
1.0
100
AcDbArc
 50
90.0
 51
180.0
  0
ARC
  5
967D
330
94F9
100
AcDbEntity
  8
1
  6
Continuous
100
AcDbCircle
 10
195.335
 20
275.495
 30
0.0
 40
2.0
100
AcDbArc
 50
15.0
 51
90.0
  0
ARC
  5
967E
330
94F9
100
AcDbEntity
  8
1
  6
Continuous
100
AcDbCircle
 10
202.8989999999998
 20
254.9949999999999
 30
0.0
 40
2.0
100
AcDbArc
 50
195.0
 51
270.0
  0
ARC
  5
967F
330
94F9
100
AcDbEntity
  8
1
  6
Continuous
100
AcDbCircle
 10
407.7409999999998
 20
117.1449999999999
 30
0.0
 40
2.0
100
AcDbArc
 50
0.0
 51
90.0
  0
ARC
  5
9680
330
94F9
100
AcDbEntity
  8
1
  6
Continuous
100
AcDbCircle
 10
407.7409999999998
 20
71.1448
 30
0.0
 40
2.0
100
AcDbArc
 50
270.0
 51
0.000005
  0
ARC
  5
9681
330
94F9
100
AcDbEntity
  8
1
  6
Continuous
100
AcDbCircle
 10
386.1769999999999
 20
117.1449999999999
 30
0.0
 40
2.0
100
AcDbArc
 50
90.0
 51
180.0
  0
ARC
  5
9682
330
94F9
100
AcDbEntity
  8
1
  6
Continuous
100
AcDbCircle
 10
386.1769999999999
 20
71.1448
 30
0.0
 40
2.0
100
AcDbArc
 50
180.0
 51
270.0
  0
ARC
  5
9683
330
94F9
100
AcDbEntity
  8
1
  6
Continuous
100
AcDbCircle
 10
409.7409999999999
 20
94.14480000000001
 30
0.0
 40
6.0
100
AcDbArc
 50
113.586
 51
246.4139999999999
  0
ARC
  5
9684
330
94F9
100
AcDbEntity
  8
1
  6
Continuous
100
AcDbCircle
 10
118.835
 20
119.645
 30
0.0
 40
1.0
100
AcDbArc
 50
90.0
 51
180.0
  0
ARC
  5
9685
330
94F9
100
AcDbEntity
  8
1
  6
Continuous
100
AcDbCircle
 10
118.835
 20
128.645
 30
0.0
 40
1.0
100
AcDbArc
 50
180.0
 51
270.0
  0
ARC
  5
9686
330
94F9
100
AcDbEntity
  8
1
  6
Continuous
100
AcDbCircle
 10
118.835
 20
242.4949999999999
 30
0.0
 40
1.0
100
AcDbArc
 50
180.0
 51
270.0
  0
ARC
  5
9687
330
94F9
100
AcDbEntity
  8
1
  6
Continuous
100
AcDbCircle
 10
118.835
 20
233.495
 30
0.0
 40
1.0
100
AcDbArc
 50
90.0
 51
180.0
  0
ARC
  5
9688
330
94F9
100
AcDbEntity
  8
1
  6
Continuous
100
AcDbCircle
 10
118.835
 20
59.6448
 30
0.0
 40
1.0
100
AcDbArc
 50
90.0
 51
180.0
  0
ARC
  5
9689
330
94F9
100
AcDbEntity
  8
1
  6
Continuous
100
AcDbCircle
 10
118.835
 20
68.6448
 30
0.0
 40
1.0
100
AcDbArc
 50
180.0
 51
270.0
  0
CIRCLE
  5
968A
330
94F9
100
AcDbEntity
  8
1
  6
Continuous
100
AcDbCircle
 10
151.835
 20
224.995
 30
0.0
 40
4.0
  0
ARC
  5
968B
330
94F9
100
AcDbEntity
  8
1
  6
Continuous
100
AcDbCircle
 10
895.7410000000001
 20
94.14480000000001
 30
0.0
 40
508.4999999999998
100
AcDbArc
 50
175.532
 51
177.1819999999999
  0
ARC
  5
968C
330
94F9
100
AcDbEntity
  8
1
  6
Continuous
100
AcDbCircle
 10
423.7409999999998
 20
548.1449999999998
 30
0.0
 40
500.0
100
AcDbArc
 50
266.6379999999999
 51
273.362
  0
ARC
  5
968D
330
94F9
100
AcDbEntity
  8
1
  6
Continuous
100
AcDbCircle
 10
423.7409999999998
 20
-359.855
 30
0.0
 40
500.0
100
AcDbArc
 50
86.63769999999997
 51
93.3623
  0
ARC
  5
968E
330
94F9
100
AcDbEntity
  8
1
  6
Continuous
100
AcDbCircle
 10
394.7679999999999
 20
54.9952
 30
0.0
 40
6.0
100
AcDbArc
 50
184.4679999999999
 51
266.6379999999999
  0
ARC
  5
968F
330
94F9
100
AcDbEntity
  8
1
  6
Continuous
100
AcDbCircle
 10
452.713
 20
54.9952
 30
0.0
 40
6.0
100
AcDbArc
 50
273.362
 51
351.8519999999999
  0
ARC
  5
9690
330
94F9
100
AcDbEntity
  8
1
  6
Continuous
100
AcDbCircle
 10
452.713
 20
133.2939999999998
 30
0.0
 40
6.0
100
AcDbArc
 50
8.147600000000002
 51
86.63769999999997
  0
ARC
  5
9691
330
94F9
100
AcDbEntity
  8
1
  6
Continuous
100
AcDbCircle
 10
394.7679999999999
 20
133.2939999999998
 30
0.0
 40
6.0
100
AcDbArc
 50
93.3623
 51
175.532
  0
ARC
  5
9692
330
94F9
100
AcDbEntity
  8
1
  6
Continuous
100
AcDbCircle
 10
411.7409999999998
 20
94.14480000000001
 30
0.0
 40
7.0
100
AcDbArc
 50
135.0
 51
225.0
  0
ARC
  5
9693
330
94F9
100
AcDbEntity
  8
1
  6
Continuous
100
AcDbCircle
 10
895.7410000000001
 20
94.14480000000001
 30
0.0
 40
508.4999999999998
100
AcDbArc
 50
182.818
 51
184.4679999999999
  0
ARC
  5
9694
330
94F9
100
AcDbEntity
  8
1
  6
Continuous
100
AcDbCircle
 10
402.7409999999998
 20
74.14480000000001
 30
0.0
 40
2.1
100
AcDbArc
 50
348.463
 51
11.537
  0
ARC
  5
9695
330
94F9
100
AcDbEntity
  8
1
  6
Continuous
100
AcDbCircle
 10
402.7409999999998
 20
74.14480000000001
 30
0.0
 40
2.1
100
AcDbArc
 50
78.46299999999998
 51
101.537
  0
ARC
  5
9696
330
94F9
100
AcDbEntity
  8
1
  6
Continuous
100
AcDbCircle
 10
402.7409999999998
 20
74.14480000000001
 30
0.0
 40
2.1
100
AcDbArc
 50
168.463
 51
191.5369999999998
  0
ARC
  5
9697
330
94F9
100
AcDbEntity
  8
1
  6
Continuous
100
AcDbCircle
 10
402.7409999999998
 20
74.14480000000001
 30
0.0
 40
2.1
100
AcDbArc
 50
258.4629999999999
 51
281.5369999999999
  0
CIRCLE
  5
9698
330
94F9
100
AcDbEntity
  8
1
  6
Continuous
100
AcDbCircle
 10
402.7409999999998
 20
74.14480000000001
 30
0.0
 40
3.5
  0
ARC
  5
9699
330
94F9
100
AcDbEntity
  8
1
  6
Continuous
100
AcDbCircle
 10
106.7409999999999
 20
236.995
 30
0.0
 40
1.0
100
AcDbArc
 50
148.9819999999999
 51
270.0
  0
ARC
  5
969A
330
94F9
100
AcDbEntity
  8
1
  6
Continuous
100
AcDbCircle
 10
127.309
 20
224.6269999999999
 30
0.0
 40
25.0
100
AcDbArc
 50
121.273
 51
148.9819999999999
  0
ARC
  5
969B
330
94F9
100
AcDbEntity
  8
1
  6
Continuous
100
AcDbCircle
 10
402.7409999999998
 20
114.145
 30
0.0
 40
2.1
100
AcDbArc
 50
78.46299999999998
 51
101.537
  0
ARC
  5
969C
330
94F9
100
AcDbEntity
  8
1
  6
Continuous
100
AcDbCircle
 10
402.7409999999998
 20
114.145
 30
0.0
 40
2.1
100
AcDbArc
 50
348.463
 51
11.537
  0
ARC
  5
969D
330
94F9
100
AcDbEntity
  8
1
  6
Continuous
100
AcDbCircle
 10
402.7409999999998
 20
114.145
 30
0.0
 40
2.1
100
AcDbArc
 50
258.4629999999999
 51
281.5369999999999
  0
ARC
  5
969E
330
94F9
100
AcDbEntity
  8
1
  6
Continuous
100
AcDbCircle
 10
402.7409999999998
 20
114.145
 30
0.0
 40
2.1
100
AcDbArc
 50
168.463
 51
191.5369999999998
  0
CIRCLE
  5
969F
330
94F9
100
AcDbEntity
  8
1
  6
Continuous
100
AcDbCircle
 10
402.7409999999998
 20
114.145
 30
0.0
 40
3.5
  0
ARC
  5
96A0
330
94F9
100
AcDbEntity
  8
1
  6
Continuous
100
AcDbCircle
 10
411.7409999999998
 20
94.14480000000001
 30
0.0
 40
2.25
100
AcDbArc
 50
349.2419999999999
 51
10.7583
  0
ARC
  5
96A1
330
94F9
100
AcDbEntity
  8
1
  6
Continuous
100
AcDbCircle
 10
411.7409999999998
 20
94.14480000000001
 30
0.0
 40
2.25
100
AcDbArc
 50
79.24169999999998
 51
100.7579999999999
  0
ARC
  5
96A2
330
94F9
100
AcDbEntity
  8
1
  6
Continuous
100
AcDbCircle
 10
411.7409999999998
 20
94.14480000000001
 30
0.0
 40
2.25
100
AcDbArc
 50
169.242
 51
190.758
  0
ARC
  5
96A3
330
94F9
100
AcDbEntity
  8
1
  6
Continuous
100
AcDbCircle
 10
411.7409999999998
 20
94.14480000000001
 30
0.0
 40
2.25
100
AcDbArc
 50
259.242
 51
280.7579999999999
  0
CIRCLE
  5
96A4
330
94F9
100
AcDbEntity
  8
1
  6
Continuous
100
AcDbCircle
 10
411.7409999999998
 20
94.14480000000001
 30
0.0
 40
4.0
  0
ARC
  5
96A5
330
94F9
100
AcDbEntity
  8
1
  6
Continuous
100
AcDbCircle
 10
446.741
 20
64.14480000000001
 30
0.0
 40
2.25
100
AcDbArc
 50
349.2419999999999
 51
10.7583
  0
ARC
  5
96A6
330
94F9
100
AcDbEntity
  8
1
  6
Continuous
100
AcDbCircle
 10
446.741
 20
64.14480000000001
 30
0.0
 40
2.25
100
AcDbArc
 50
79.24169999999998
 51
100.7579999999999
  0
ARC
  5
96A7
330
94F9
100
AcDbEntity
  8
1
  6
Continuous
100
AcDbCircle
 10
446.741
 20
64.14480000000001
 30
0.0
 40
2.25
100
AcDbArc
 50
169.242
 51
190.758
  0
ARC
  5
96A8
330
94F9
100
AcDbEntity
  8
1
  6
Continuous
100
AcDbCircle
 10
446.741
 20
64.14480000000001
 30
0.0
 40
2.25
100
AcDbArc
 50
259.242
 51
280.7579999999999
  0
CIRCLE
  5
96A9
330
94F9
100
AcDbEntity
  8
1
  6
Continuous
100
AcDbCircle
 10
446.741
 20
64.14480000000001
 30
0.0
 40
4.0
  0
ARC
  5
96AA
330
94F9
100
AcDbEntity
  8
1
  6
Continuous
100
AcDbCircle
 10
446.741
 20
124.1449999999999
 30
0.0
 40
2.25
100
AcDbArc
 50
349.2419999999999
 51
10.7583
  0
ARC
  5
96AB
330
94F9
100
AcDbEntity
  8
1
  6
Continuous
100
AcDbCircle
 10
446.741
 20
124.1449999999999
 30
0.0
 40
2.25
100
AcDbArc
 50
79.24169999999998
 51
100.7579999999999
  0
ARC
  5
96AC
330
94F9
100
AcDbEntity
  8
1
  6
Continuous
100
AcDbCircle
 10
446.741
 20
124.1449999999999
 30
0.0
 40
2.25
100
AcDbArc
 50
169.242
 51
190.758
  0
ARC
  5
96AD
330
94F9
100
AcDbEntity
  8
1
  6
Continuous
100
AcDbCircle
 10
446.741
 20
124.1449999999999
 30
0.0
 40
2.25
100
AcDbArc
 50
259.242
 51
280.7579999999999
  0
CIRCLE
  5
96AE
330
94F9
100
AcDbEntity
  8
1
  6
Continuous
100
AcDbCircle
 10
446.741
 20
124.1449999999999
 30
0.0
 40
4.0
  0
ARC
  5
96AF
330
94F9
100
AcDbEntity
  8
5
  6
PHANTOM
100
AcDbCircle
 10
602.7819999999998
 20
746.8799999999998
 30
0.0
 40
700.0
100
AcDbArc
 50
228.5699999999999
 51
228.763
  0
ARC
  5
96B0
330
94F9
100
AcDbEntity
  8
1
  6
Continuous
100
AcDbCircle
 10
188.2699999999999
 20
280.301
 30
0.0
 40
1.3
100
AcDbArc
 50
105.881
 51
175.0
  0
ARC
  5
96B1
330
94F9
100
AcDbEntity
  8
1
  6
Continuous
100
AcDbCircle
 10
190.377
 20
272.8949999999999
 30
0.0
 40
9.0
100
AcDbArc
 50
74.1191
 51
105.881
  0
ARC
  5
96B2
330
94F9
100
AcDbEntity
  8
1
  6
Continuous
100
AcDbCircle
 10
192.484
 20
280.301
 30
0.0
 40
1.3
100
AcDbArc
 50
5.00004
 51
74.1191
  0
CIRCLE
  5
96B3
330
94F9
100
AcDbEntity
  8
1
  6
Continuous
100
AcDbCircle
 10
402.7409999999998
 20
114.145
 30
0.0
 40
3.799999999999998
  0
CIRCLE
  5
96B4
330
94F9
100
AcDbEntity
  8
1
  6
Continuous
100
AcDbCircle
 10
402.7409999999998
 20
114.145
 30
0.0
 40
5.0
  0
CIRCLE
  5
96B5
330
94F9
100
AcDbEntity
  8
1
  6
Continuous
100
AcDbCircle
 10
402.7409999999998
 20
74.14480000000001
 30
0.0
 40
5.0
  0
CIRCLE
  5
96B6
330
94F9
100
AcDbEntity
  8
1
  6
Continuous
100
AcDbCircle
 10
402.7409999999998
 20
74.14480000000001
 30
0.0
 40
3.799999999999998
  0
ARC
  5
96B7
330
94F9
100
AcDbEntity
  8
1
  6
Continuous
100
AcDbCircle
 10
338.844
 20
72.0378
 30
0.0
 40
1.3
100
AcDbArc
 50
275.0
 51
344.1190000000001
  0
ARC
  5
96B8
330
94F9
100
AcDbEntity
  8
1
  6
Continuous
100
AcDbCircle
 10
331.4379999999999
 20
74.1449
 30
0.0
 40
9.0
100
AcDbArc
 50
344.1190000000001
 51
15.8809
  0
ARC
  5
96B9
330
94F9
100
AcDbEntity
  8
1
  6
Continuous
100
AcDbCircle
 10
338.844
 20
76.2518
 30
0.0
 40
1.3
100
AcDbArc
 50
15.8809
 51
85.0
  0
ARC
  5
96BA
330
94F9
100
AcDbEntity
  8
1
  6
Continuous
100
AcDbCircle
 10
338.844
 20
112.0379999999999
 30
0.0
 40
1.3
100
AcDbArc
 50
275.0
 51
344.1190000000001
  0
ARC
  5
96BB
330
94F9
100
AcDbEntity
  8
1
  6
Continuous
100
AcDbCircle
 10
331.4379999999999
 20
114.145
 30
0.0
 40
9.0
100
AcDbArc
 50
344.1190000000001
 51
15.8809
  0
ARC
  5
96BC
330
94F9
100
AcDbEntity
  8
1
  6
Continuous
100
AcDbCircle
 10
338.844
 20
116.252
 30
0.0
 40
1.3
100
AcDbArc
 50
15.8809
 51
85.0
  0
ARC
  5
96BD
330
94F9
100
AcDbEntity
  8
1
  6
Continuous
100
AcDbCircle
 10
182.3369999999999
 20
218.7949999999999
 30
0.0
 40
17.0
100
AcDbArc
 50
0.674125
 51
90.0
  0
ARC
  5
96BE
330
94F9
100
AcDbEntity
  8
1
  6
Continuous
100
AcDbCircle
 10
282.684
 20
114.145
 30
0.0
 40
5.011899999999998
100
AcDbArc
 50
93.9492
 51
266.0509999999998
  0
ARC
  5
96BF
330
94F9
100
AcDbEntity
  8
1
  6
Continuous
100
AcDbCircle
 10
282.684
 20
74.14480000000001
 30
0.0
 40
5.011899999999998
100
AcDbArc
 50
93.9492
 51
266.0509999999998
  0
ARC
  5
96C0
330
94F9
100
AcDbEntity
  8
1
  6
Continuous
100
AcDbCircle
 10
193.337
 20
239.995
 30
0.0
 40
2.0
100
AcDbArc
 50
0.0
 51
90.0
  0
ARC
  5
96C1
330
94F9
100
AcDbEntity
  8
1
  6
Continuous
100
AcDbCircle
 10
185.3369999999999
 20
239.995
 30
0.0
 40
2.0
100
AcDbArc
 50
90.0
 51
180.0
  0
ARC
  5
96C2
330
94F9
100
AcDbEntity
  8
1
  6
Continuous
100
AcDbCircle
 10
206.8989999999998
 20
117.1449999999999
 30
0.0
 40
2.0
100
AcDbArc
 50
0.0
 51
90.0
  0
ARC
  5
96C3
330
94F9
100
AcDbEntity
  8
1
  6
Continuous
100
AcDbCircle
 10
206.8989999999998
 20
71.1448
 30
0.0
 40
2.0
100
AcDbArc
 50
270.0
 51
0.0
  0
ARC
  5
96C4
330
94F9
100
AcDbEntity
  8
1
  6
Continuous
100
AcDbCircle
 10
399.7409999999999
 20
128.645
 30
0.0
 40
6.0
100
AcDbArc
 50
90.0
 51
180.0
  0
ARC
  5
96C5
330
94F9
100
AcDbEntity
  8
1
  6
Continuous
100
AcDbCircle
 10
399.7409999999999
 20
59.6448
 30
0.0
 40
6.0
100
AcDbArc
 50
180.0
 51
270.0
  0
LINE
  5
96C6
330
94F9
100
AcDbEntity
  8
1
  6
Continuous
100
AcDbLine
 10
475.241
 20
101.3448
 30
0.0
 11
475.241
 21
86.9448
 31
0.0
  0
LINE
  5
96C7
330
94F9
100
AcDbEntity
  8
1
  6
Continuous
100
AcDbLine
 10
477.2409999999998
 20
87.1448
 30
0.0
 11
477.2409999999998
 21
54.1448
 31
0.0
  0
LINE
  5
96C8
330
94F9
100
AcDbEntity
  8
1
  6
Continuous
100
AcDbLine
 10
478.741
 20
101.1449999999999
 30
0.0
 11
478.741
 21
87.1448
 31
0.0
  0
LINE
  5
96C9
330
94F9
100
AcDbEntity
  8
1
  6
Continuous
100
AcDbLine
 10
486.2409999999998
 20
101.1448
 30
0.0
 11
475.241
 21
101.1448
 31
0.0
  0
LINE
  5
96CA
330
94F9
100
AcDbEntity
  8
1
  6
Continuous
100
AcDbLine
 10
486.2409999999998
 20
87.1448
 30
0.0
 11
475.241
 21
87.1448
 31
0.0
  0
LINE
  5
96CB
330
94F9
100
AcDbEntity
  8
1
  6
Continuous
100
AcDbLine
 10
477.2409999999998
 20
101.3448
 30
0.0
 11
475.241
 21
101.3448
 31
0.0
  0
LINE
  5
96CC
330
94F9
100
AcDbEntity
  8
1
  6
Continuous
100
AcDbLine
 10
477.2409999999998
 20
86.9448
 30
0.0
 11
475.241
 21
86.9448
 31
0.0
  0
ARC
  5
96CD
330
94F9
100
AcDbEntity
  8
1
  6
Continuous
100
AcDbCircle
 10
486.2409999999998
 20
100.1448
 30
0.0
 40
1.0
100
AcDbArc
 50
0.0
 51
90.0
  0
ARC
  5
96CE
330
94F9
100
AcDbEntity
  8
1
  6
Continuous
100
AcDbCircle
 10
486.2409999999998
 20
88.14480000000001
 30
0.0
 40
1.0
100
AcDbArc
 50
270.0
 51
0.0
  0
ENDSEC
  0
SECTION
  2
OBJECTS
  0
DICTIONARY
  5
94E7
330
0
100
AcDbDictionary
281
     1
  3
ACAD_CIP_PREVIOUS_PRODUCT_INFO
350
9734
  3
ACAD_COLOR
350
9716
  3
ACAD_DETAILVIEWSTYLE
350
972F
  3
ACAD_GROUP
350
94E8
  3
ACAD_LAYOUT
350
94F4
  3
ACAD_MATERIAL
350
96E4
  3
ACAD_MLEADERSTYLE
350
972B
  3
ACAD_MLINESTYLE
350
94F1
  3
ACAD_PLOTSETTINGS
350
94F3
  3
ACAD_PLOTSTYLENAME
350
96E2
  3
ACAD_SCALELIST
350
9719
  3
ACAD_SECTIONVIEWSTYLE
350
972D
  3
ACAD_TABLESTYLE
350
9717
  3
ACAD_VISUALSTYLE
350
96FD
  3
ACDB_RECOMPOSE_DATA
350
9752
  3
AcDbVariableDictionary
350
9745
  3
DWGPROPS
350
9753
  0
DICTIONARY
  5
9735
330
94EB
100
AcDbDictionary
280
     1
281
     1
  3
ADSK_XREC_LAYER_RECONCILED
360
9736
  0
DICTIONARY
  5
9737
330
9501
100
AcDbDictionary
280
     1
281
     1
  3
ADSK_XREC_LAYER_RECONCILED
360
9738
  0
DICTIONARY
  5
9739
330
9502
100
AcDbDictionary
280
     1
281
     1
  3
ADSK_XREC_LAYER_RECONCILED
360
973A
  0
DICTIONARY
  5
973B
330
9503
100
AcDbDictionary
280
     1
281
     1
  3
ADSK_XREC_LAYER_RECONCILED
360
973C
  0
DICTIONARY
  5
973D
330
9504
100
AcDbDictionary
280
     1
281
     1
  3
ADSK_XREC_LAYER_RECONCILED
360
973E
  0
DICTIONARY
  5
973F
330
9505
100
AcDbDictionary
280
     1
281
     1
  3
ADSK_XREC_LAYER_RECONCILED
360
9740
  0
DICTIONARY
  5
9741
330
9506
100
AcDbDictionary
280
     1
281
     1
  3
ADSK_XREC_LAYER_RECONCILED
360
9742
  0
DICTIONARY
  5
9743
330
9507
100
AcDbDictionary
280
     1
281
     1
  3
ADSK_XREC_LAYER_RECONCILED
360
9744
  0
DICTIONARY
  5
96DD
330
94F9
100
AcDbDictionary
281
     1
  3
ACAD_LAYOUTSELFREF
350
96DE
  0
DICTIONARY
  5
96DB
330
94F5
100
AcDbDictionary
281
     1
  3
ACAD_LAYOUTSELFREF
350
96DC
  0
XRECORD
  5
9734
102
{ACAD_REACTORS
330
94E7
102
}
330
94E7
100
AcDbXrecord
280
     1
300
ACDLT
300
2014
300
ACDLT_F_S
  0
DICTIONARY
  5
9716
102
{ACAD_REACTORS
330
94E7
102
}
330
94E7
100
AcDbDictionary
281
     1
  0
DICTIONARY
  5
972F
102
{ACAD_REACTORS
330
94E7
102
}
330
94E7
100
AcDbDictionary
281
     1
  3
Imperial24
350
9730
  0
DICTIONARY
  5
94E8
102
{ACAD_REACTORS
330
94E7
102
}
330
94E7
100
AcDbDictionary
281
     1
  0
DICTIONARY
  5
94F4
102
{ACAD_REACTORS
330
94E7
102
}
330
94E7
100
AcDbDictionary
281
     1
  3
Model
350
9731
  3
レイアウト1
350
9732
  0
DICTIONARY
  5
96E4
102
{ACAD_REACTORS
330
94E7
102
}
330
94E7
100
AcDbDictionary
281
     1
  3
ByBlock
350
96ED
  3
ByLayer
350
96E5
  3
Global
350
96F5
  0
DICTIONARY
  5
972B
102
{ACAD_REACTORS
330
94E7
102
}
330
94E7
100
AcDbDictionary
281
     1
  3
Standard
350
972C
  0
DICTIONARY
  5
94F1
102
{ACAD_REACTORS
330
94E7
102
}
330
94E7
100
AcDbDictionary
281
     1
  3
STANDARD
350
94F2
  0
DICTIONARY
  5
94F3
102
{ACAD_REACTORS
330
94E7
102
}
330
94E7
100
AcDbDictionary
281
     1
  0
ACDBDICTIONARYWDFLT
  5
96E2
102
{ACAD_REACTORS
330
94E7
102
}
330
94E7
100
AcDbDictionary
281
     1
  3
Normal
350
96E3
100
AcDbDictionaryWithDefault
340
96E3
  0
DICTIONARY
  5
9719
102
{ACAD_REACTORS
330
94E7
102
}
330
94E7
100
AcDbDictionary
281
     1
  3
A0
350
971A
  3
A1
350
971B
  3
A2
350
971C
  3
A3
350
971D
  3
A4
350
971E
  3
A5
350
971F
  3
A6
350
9720
  3
A7
350
9721
  3
A8
350
9722
  3
A9
350
9723
  3
B0
350
9724
  3
B1
350
9725
  3
B2
350
9726
  3
B3
350
9727
  3
B4
350
9728
  3
B5
350
9729
  3
B6
350
972A
  0
DICTIONARY
  5
972D
102
{ACAD_REACTORS
330
94E7
102
}
330
94E7
100
AcDbDictionary
281
     1
  3
Imperial24
350
972E
  0
DICTIONARY
  5
9717
102
{ACAD_REACTORS
330
94E7
102
}
330
94E7
100
AcDbDictionary
281
     1
  3
Standard
350
9718
  0
DICTIONARY
  5
96FD
102
{ACAD_REACTORS
330
94E7
102
}
330
94E7
100
AcDbDictionary
281
     1
  3
2dWireframe
350
9703
  3
Basic
350
9702
  3
Brighten
350
9709
  3
ColorChange
350
970D
  3
Conceptual
350
9706
  3
Dim
350
9708
  3
EdgeColorOff
350
9715
  3
Facepattern
350
970C
  3
Flat
350
96FE
  3
FlatWithEdges
350
96FF
  3
Gouraud
350
9700
  3
GouraudWithEdges
350
9701
  3
Hidden
350
9705
  3
JitterOff
350
9713
  3
Linepattern
350
970B
  3
OverhangOff
350
9714
  3
Realistic
350
9707
  3
Shaded
350
9712
  3
Shaded with edges
350
9711
  3
Shades of Gray
350
970E
  3
Sketchy
350
970F
  3
Thicken
350
970A
  3
Wireframe
350
9704
  3
X-Ray
350
9710
  0
XRECORD
  5
9752
102
{ACAD_REACTORS
330
94E7
102
}
330
94E7
100
AcDbXrecord
280
     1
 90
        1
330
9718
  0
DICTIONARY
  5
9745
102
{ACAD_REACTORS
330
94E7
102
}
330
94E7
100
AcDbDictionary
281
     1
  3
CANNOSCALE
350
974A
  3
CMLEADERSTYLE
350
9747
  3
CTABLESTYLE
350
9746
  3
CVIEWDETAILSTYLE
350
9748
  3
CVIEWSECTIONSTYLE
350
9749
  3
DIMASSOC
350
974D
  3
INDEXCTL
350
974C
  3
SORTENTS
350
974B
  3
XCLIPFRAME
350
974E
  0
XRECORD
  5
9753
102
{ACAD_REACTORS
330
94E7
102
}
330
94E7
100
AcDbXrecord
280
     1
  1
DWGPROPS COOKIE
  2

  3

  4

  6

  7

  8
Yoshitsune
  9

300
=
301
=
302
=
303
=
304
=
305
=
306
=
307
=
308
=
309
=
 40
0.0000136574074074
 41
2450737.661849537
 42
2457192.640137153
  1

 90
        0
  0
XRECORD
  5
9736
102
{ACAD_REACTORS
330
9735
102
}
330
9735
100
AcDbXrecord
280
     1
290
     1
  0
XRECORD
  5
9738
102
{ACAD_REACTORS
330
9737
102
}
330
9737
100
AcDbXrecord
280
     1
290
     1
  0
XRECORD
  5
973A
102
{ACAD_REACTORS
330
9739
102
}
330
9739
100
AcDbXrecord
280
     1
290
     1
  0
XRECORD
  5
973C
102
{ACAD_REACTORS
330
973B
102
}
330
973B
100
AcDbXrecord
280
     1
290
     1
  0
XRECORD
  5
973E
102
{ACAD_REACTORS
330
973D
102
}
330
973D
100
AcDbXrecord
280
     1
290
     1
  0
XRECORD
  5
9740
102
{ACAD_REACTORS
330
973F
102
}
330
973F
100
AcDbXrecord
280
     1
290
     1
  0
XRECORD
  5
9742
102
{ACAD_REACTORS
330
9741
102
}
330
9741
100
AcDbXrecord
280
     1
290
     1
  0
XRECORD
  5
9744
102
{ACAD_REACTORS
330
9743
102
}
330
9743
100
AcDbXrecord
280
     1
290
     1
  0
XRECORD
  5
96DE
102
{ACAD_REACTORS
330
96DD
102
}
330
96DD
100
AcDbXrecord
280
     1
340
94F9
  0
XRECORD
  5
96DC
102
{ACAD_REACTORS
330
96DB
102
}
330
96DB
100
AcDbXrecord
280
     1
340
94F5
  0
ACDBDETAILVIEWSTYLE
  5
9730
102
{ACAD_XDICTIONARY
360
978B
102
}
102
{ACAD_REACTORS
330
972F
102
}
330
972F
100
AcDbModelDocViewStyle
 70
     0
  3
Imperial24
290
     0
100
AcDbDetailViewStyle
 70
     0
 71
     0
 90
        3
 71
     1
340
94EC
 40
0.24
340
0
 40
0.24
300

 40
0.36
280
     3
 71
     2
340
94F0
 90
       25
 71
     3
340
94EC
 40
0.24
 90
        1
 40
0.75
 90
        1
300
%<\AcVar ViewType \f "%tc1">% %<\AcVar ViewDetailId>%\PSCALE %<\AcVar ViewScale \f "%sn">%
 71
     4
340
94F0
 90
       25
340
94F0
 90
       25
280
     0
  0
LAYOUT
  5
9731
102
{ACAD_XDICTIONARY
360
978D
102
}
102
{ACAD_REACTORS
330
94F4
102
}
330
94F4
100
AcDbPlotSettings
  1

  2
Canon LBP9100C
  4

  6

 40
0.0
 41
0.0
 42
0.0
 43
0.0
 44
0.0
 45
0.0
 46
0.0
 47
0.0
 48
0.0
 49
0.0
140
0.0
141
0.0
142
1.0
143
1.0
 70
  1712
 72
     0
 73
     0
 74
     0
  7

 75
     0
147
1.0
148
0.0
149
0.0
100
AcDbLayout
  1
Model
 70
     1
 71
     0
 10
0.0
 20
0.0
 11
12.0
 21
9.0
 12
0.0
 22
0.0
 32
0.0
 14
0.0
 24
0.0
 34
0.0
 15
0.0
 25
0.0
 35
0.0
146
0.0
 13
0.0
 23
0.0
 33
0.0
 16
1.0
 26
0.0
 36
0.0
 17
0.0
 27
1.0
 37
0.0
 76
     0
330
94F9
331
96DA
  0
LAYOUT
  5
9732
102
{ACAD_XDICTIONARY
360
978F
102
}
102
{ACAD_REACTORS
330
94F4
102
}
330
94F4
100
AcDbPlotSettings
  1

  2
Canon LBP9100C
  4

  6

 40
0.0
 41
0.0
 42
0.0
 43
0.0
 44
0.0
 45
0.0
 46
0.0
 47
0.0
 48
0.0
 49
0.0
140
0.0
141
0.0
142
1.0
143
1.0
 70
   688
 72
     0
 73
     0
 74
     5
  7

 75
    16
147
1.0
148
0.0
149
0.0
100
AcDbLayout
  1
レイアウト1
 70
     0
 71
     1
 10
0.0
 20
0.0
 11
420.0
 21
297.0
 12
0.0
 22
0.0
 32
0.0
 14
1.000000000000000E+20
 24
1.000000000000000E+20
 34
1.000000000000000E+20
 15
-1.000000000000000E+20
 25
-1.000000000000000E+20
 35
-1.000000000000000E+20
146
0.0
 13
0.0
 23
0.0
 33
0.0
 16
1.0
 26
0.0
 36
0.0
 17
0.0
 27
1.0
 37
0.0
 76
     0
330
94F5
  0
MATERIAL
  5
96ED
102
{ACAD_XDICTIONARY
360
96EE
102
}
102
{ACAD_REACTORS
330
96E4
102
}
330
96E4
100
AcDbMaterial
  1
ByBlock
 72
     0
 43
0.0208333333333333
 43
0.0
 43
0.0
 43
0.0
 43
0.0
 43
0.0208333333333333
 43
0.0
 43
0.0
 43
0.0
 43
0.0
 43
1.0
 43
0.0
 43
0.0
 43
0.0
 43
0.0
 43
1.0
 77
     0
 47
0.0208333333333333
 47
0.0
 47
0.0
 47
0.0
 47
0.0
 47
0.0208333333333333
 47
0.0
 47
0.0
 47
0.0
 47
0.0
 47
1.0
 47
0.0
 47
0.0
 47
0.0
 47
0.0
 47
1.0
171
     0
 49
0.0208333333333333
 49
0.0
 49
0.0
 49
0.0
 49
0.0
 49
0.0208333333333333
 49
0.0
 49
0.0
 49
0.0
 49
0.0
 49
1.0
 49
0.0
 49
0.0
 49
0.0
 49
0.0
 49
1.0
175
     0
142
0.0208333333333333
142
0.0
142
0.0
142
0.0
142
0.0
142
0.0208333333333333
142
0.0
142
0.0
142
0.0
142
0.0
142
1.0
142
0.0
142
0.0
142
0.0
142
0.0
142
1.0
179
     0
144
0.0208333333333333
144
0.0
144
0.0
144
0.0
144
0.0
144
0.0208333333333333
144
0.0
144
0.0
144
0.0
144
0.0
144
1.0
144
0.0
144
0.0
144
0.0
144
0.0
144
1.0
147
0.0208333333333333
147
0.0
147
0.0
147
0.0
147
0.0
147
0.0208333333333333
147
0.0
147
0.0
147
0.0
147
0.0
147
1.0
147
0.0
147
0.0
147
0.0
147
0.0
147
1.0
  0
MATERIAL
  5
96E5
102
{ACAD_XDICTIONARY
360
96E6
102
}
102
{ACAD_REACTORS
330
96E4
102
}
330
96E4
100
AcDbMaterial
  1
ByLayer
 72
     0
 43
0.0208333333333333
 43
0.0
 43
0.0
 43
0.0
 43
0.0
 43
0.0208333333333333
 43
0.0
 43
0.0
 43
0.0
 43
0.0
 43
1.0
 43
0.0
 43
0.0
 43
0.0
 43
0.0
 43
1.0
 77
     0
 47
0.0208333333333333
 47
0.0
 47
0.0
 47
0.0
 47
0.0
 47
0.0208333333333333
 47
0.0
 47
0.0
 47
0.0
 47
0.0
 47
1.0
 47
0.0
 47
0.0
 47
0.0
 47
0.0
 47
1.0
171
     0
 49
0.0208333333333333
 49
0.0
 49
0.0
 49
0.0
 49
0.0
 49
0.0208333333333333
 49
0.0
 49
0.0
 49
0.0
 49
0.0
 49
1.0
 49
0.0
 49
0.0
 49
0.0
 49
0.0
 49
1.0
175
     0
142
0.0208333333333333
142
0.0
142
0.0
142
0.0
142
0.0
142
0.0208333333333333
142
0.0
142
0.0
142
0.0
142
0.0
142
1.0
142
0.0
142
0.0
142
0.0
142
0.0
142
1.0
179
     0
144
0.0208333333333333
144
0.0
144
0.0
144
0.0
144
0.0
144
0.0208333333333333
144
0.0
144
0.0
144
0.0
144
0.0
144
1.0
144
0.0
144
0.0
144
0.0
144
0.0
144
1.0
147
0.0208333333333333
147
0.0
147
0.0
147
0.0
147
0.0
147
0.0208333333333333
147
0.0
147
0.0
147
0.0
147
0.0
147
1.0
147
0.0
147
0.0
147
0.0
147
0.0
147
1.0
  0
MATERIAL
  5
96F5
102
{ACAD_XDICTIONARY
360
96F6
102
}
102
{ACAD_REACTORS
330
96E4
102
}
330
96E4
100
AcDbMaterial
  1
Global
 72
     0
 43
0.0208333333333333
 43
0.0
 43
0.0
 43
0.0
 43
0.0
 43
0.0208333333333333
 43
0.0
 43
0.0
 43
0.0
 43
0.0
 43
1.0
 43
0.0
 43
0.0
 43
0.0
 43
0.0
 43
1.0
 77
     0
 47
0.0208333333333333
 47
0.0
 47
0.0
 47
0.0
 47
0.0
 47
0.0208333333333333
 47
0.0
 47
0.0
 47
0.0
 47
0.0
 47
1.0
 47
0.0
 47
0.0
 47
0.0
 47
0.0
 47
1.0
171
     0
 49
0.0208333333333333
 49
0.0
 49
0.0
 49
0.0
 49
0.0
 49
0.0208333333333333
 49
0.0
 49
0.0
 49
0.0
 49
0.0
 49
1.0
 49
0.0
 49
0.0
 49
0.0
 49
0.0
 49
1.0
175
     0
142
0.0208333333333333
142
0.0
142
0.0
142
0.0
142
0.0
142
0.0208333333333333
142
0.0
142
0.0
142
0.0
142
0.0
142
1.0
142
0.0
142
0.0
142
0.0
142
0.0
142
1.0
179
     0
144
0.0208333333333333
144
0.0
144
0.0
144
0.0
144
0.0
144
0.0208333333333333
144
0.0
144
0.0
144
0.0
144
0.0
144
1.0
144
0.0
144
0.0
144
0.0
144
0.0
144
1.0
147
0.0208333333333333
147
0.0
147
0.0
147
0.0
147
0.0
147
0.0208333333333333
147
0.0
147
0.0
147
0.0
147
0.0
147
1.0
147
0.0
147
0.0
147
0.0
147
0.0
147
1.0
  0
MLEADERSTYLE
  5
972C
102
{ACAD_REACTORS
330
972B
102
}
330
972B
100
AcDbMLeaderStyle
170
     2
171
     1
172
     0
 90
        2
 40
0.0
 41
0.0
173
     1
 91
-1056964608
340
94EE
 92
       -2
290
     1
 42
0.09
291
     1
 43
0.36
  3
Standard
 44
0.18
300

342
94EC
174
     1
178
     6
175
     1
176
     0
 93
-1056964608
 45
0.18
292
     0
297
     0
 46
0.18
 94
-1056964608
 47
1.0
 49
1.0
140
1.0
293
     1
141
0.0
294
     1
177
     0
142
1.0
295
     0
296
     0
143
0.125
1001
ACAD_MLEADERVER
1070
     2
  0
MLINESTYLE
  5
94F2
102
{ACAD_REACTORS
330
94F1
102
}
330
94F1
100
AcDbMlineStyle
  2
STANDARD
 70
     0
  3

 62
   256
 51
90.0
 52
90.0
 71
     2
 49
0.5
 62
   256
  6
BYLAYER
 49
-0.5
 62
   256
  6
BYLAYER
  0
ACDBPLACEHOLDER
  5
96E3
102
{ACAD_REACTORS
330
96E2
102
}
330
96E2
  0
SCALE
  5
971A
102
{ACAD_REACTORS
330
9719
102
}
330
9719
100
AcDbScale
 70
     0
300
1:1
140
1.0
141
1.0
290
     1
  0
SCALE
  5
971B
102
{ACAD_REACTORS
330
9719
102
}
330
9719
100
AcDbScale
 70
     0
300
1/128" = 1'-0"
140
0.0078125
141
12.0
290
     0
  0
SCALE
  5
971C
102
{ACAD_REACTORS
330
9719
102
}
330
9719
100
AcDbScale
 70
     0
300
1/64" = 1'-0"
140
0.015625
141
12.0
290
     0
  0
SCALE
  5
971D
102
{ACAD_REACTORS
330
9719
102
}
330
9719
100
AcDbScale
 70
     0
300
1/32" = 1'-0"
140
0.03125
141
12.0
290
     0
  0
SCALE
  5
971E
102
{ACAD_REACTORS
330
9719
102
}
330
9719
100
AcDbScale
 70
     0
300
1/16" = 1'-0"
140
0.0625
141
12.0
290
     0
  0
SCALE
  5
971F
102
{ACAD_REACTORS
330
9719
102
}
330
9719
100
AcDbScale
 70
     0
300
3/32" = 1'-0"
140
0.09375
141
12.0
290
     0
  0
SCALE
  5
9720
102
{ACAD_REACTORS
330
9719
102
}
330
9719
100
AcDbScale
 70
     0
300
1/8" = 1'-0"
140
0.125
141
12.0
290
     0
  0
SCALE
  5
9721
102
{ACAD_REACTORS
330
9719
102
}
330
9719
100
AcDbScale
 70
     0
300
3/16" = 1'-0"
140
0.1875
141
12.0
290
     0
  0
SCALE
  5
9722
102
{ACAD_REACTORS
330
9719
102
}
330
9719
100
AcDbScale
 70
     0
300
1/4" = 1'-0"
140
0.25
141
12.0
290
     0
  0
SCALE
  5
9723
102
{ACAD_REACTORS
330
9719
102
}
330
9719
100
AcDbScale
 70
     0
300
3/8" = 1'-0"
140
0.375
141
12.0
290
     0
  0
SCALE
  5
9724
102
{ACAD_REACTORS
330
9719
102
}
330
9719
100
AcDbScale
 70
     0
300
1/2" = 1'-0"
140
0.5
141
12.0
290
     0
  0
SCALE
  5
9725
102
{ACAD_REACTORS
330
9719
102
}
330
9719
100
AcDbScale
 70
     0
300
3/4" = 1'-0"
140
0.75
141
12.0
290
     0
  0
SCALE
  5
9726
102
{ACAD_REACTORS
330
9719
102
}
330
9719
100
AcDbScale
 70
     0
300
1" = 1'-0"
140
1.0
141
12.0
290
     0
  0
SCALE
  5
9727
102
{ACAD_REACTORS
330
9719
102
}
330
9719
100
AcDbScale
 70
     0
300
1-1/2" = 1'-0"
140
1.5
141
12.0
290
     0
  0
SCALE
  5
9728
102
{ACAD_REACTORS
330
9719
102
}
330
9719
100
AcDbScale
 70
     0
300
3" = 1'-0"
140
3.0
141
12.0
290
     0
  0
SCALE
  5
9729
102
{ACAD_REACTORS
330
9719
102
}
330
9719
100
AcDbScale
 70
     0
300
6" = 1'-0"
140
6.0
141
12.0
290
     0
  0
SCALE
  5
972A
102
{ACAD_REACTORS
330
9719
102
}
330
9719
100
AcDbScale
 70
     0
300
1'-0" = 1'-0"
140
12.0
141
12.0
290
     0
  0
ACDBSECTIONVIEWSTYLE
  5
972E
102
{ACAD_XDICTIONARY
360
9789
102
}
102
{ACAD_REACTORS
330
972D
102
}
330
972D
100
AcDbModelDocViewStyle
 70
     0
  3
Imperial24
290
     0
100
AcDbSectionViewStyle
 70
     0
 71
     0
 90
       78
 71
     1
340
94EC
 40
0.24
340
0
340
0
 40
0.24
300
I, O, Q, S, X, Z
 40
0.48
 90
        3
 40
0.18
 90
        1
 71
     2
340
94F0
 90
       25
340
94F0
 90
       50
 40
0.24
 40
0.0
 40
0.24
 71
     3
340
94EC
 40
0.24
 90
        1
 40
0.75
 90
        1
300
%<\AcVar ViewType \f "%tc1">% %<\AcVar ViewSectionStartId>%-%<\AcVar ViewSectionEndId>%\PSCALE %<\AcVar ViewScale \f "%sn">%
 71
     4
300
ANSI31
 40
1.0
 90
        0
290
     0
290
     0
 90
        6
 40
0.0
 40
1.570796326794896
 40
0.2617993877991494
 40
1.308996938995747
 40
-0.2617993877991494
 40
1.832595714594046
  0
TABLESTYLE
  5
9718
102
{ACAD_XDICTIONARY
360
9750
102
}
102
{ACAD_REACTORS
330
9717
102
}
330
9717
100
AcDbTableStyle
  3
Standard
 70
     0
 71
     0
 40
0.06
 41
0.06
280
     0
281
     0
  7
STANDARD
140
0.18
170
     2
 62
     0
 63
     7
283
     0
274
    -2
284
     1
 64
     0
275
    -2
285
     1
 65
     0
276
    -2
286
     1
 66
     0
277
    -2
287
     1
 67
     0
278
    -2
288
     1
 68
     0
279
    -2
289
     1
 69
     0
  7
STANDARD
140
0.25
170
     5
 62
     0
 63
     7
283
     0
274
    -2
284
     1
 64
     0
275
    -2
285
     1
 65
     0
276
    -2
286
     1
 66
     0
277
    -2
287
     1
 67
     0
278
    -2
288
     1
 68
     0
279
    -2
289
     1
 69
     0
  7
STANDARD
140
0.18
170
     5
 62
     0
 63
     7
283
     0
274
    -2
284
     1
 64
     0
275
    -2
285
     1
 65
     0
276
    -2
286
     1
 66
     0
277
    -2
287
     1
 67
     0
278
    -2
288
     1
 68
     0
279
    -2
289
     1
 69
     0
  0
VISUALSTYLE
  5
9703
102
{ACAD_XDICTIONARY
360
9761
102
}
102
{ACAD_REACTORS
330
96FD
102
}
330
96FD
100
AcDbVisualStyle
  2
2dWireframe
 70
     4
 71
     0
 72
     2
 73
     0
 90
        0
 40
-0.6
 41
-30.0
 62
     5
 63
     7
 74
     1
 91
        4
 64
     7
 65
   257
 75
     1
175
     1
 42
1.0
 92
        0
 66
   257
 43
1.0
 76
     1
 77
     6
 78
     2
 67
     7
 79
     5
170
     0
171
     0
290
     0
174
     0
 93
        1
 44
0.0
173
     0
291
     0
 45
0.0
1001
ACAD
1000
AcDbSavedByObjectVersion
1070
     0
  0
VISUALSTYLE
  5
9702
102
{ACAD_XDICTIONARY
360
975F
102
}
102
{ACAD_REACTORS
330
96FD
102
}
330
96FD
100
AcDbVisualStyle
  2
Basic
 70
     7
 71
     1
 72
     0
 73
     1
 90
        0
 40
-0.6
 41
-30.0
 62
     5
 63
     7
 74
     0
 91
        4
 64
     7
 65
   257
 75
     1
175
     1
 42
1.0
 92
        8
 66
     7
 43
1.0
 76
     1
 77
     6
 78
     2
 67
     7
 79
     5
170
     0
171
     0
290
     0
174
     0
 93
        1
 44
0.0
173
     0
291
     1
 45
0.0
1001
ACAD
1000
AcDbSavedByObjectVersion
1070
     0
  0
VISUALSTYLE
  5
9709
102
{ACAD_XDICTIONARY
360
976D
102
}
102
{ACAD_REACTORS
330
96FD
102
}
330
96FD
100
AcDbVisualStyle
  2
Brighten
 70
    12
 71
     2
 72
     2
 73
     0
 90
        0
 40
-0.6
 41
-30.0
 62
     5
 63
     7
 74
     1
 91
        4
 64
     7
 65
   257
 75
     1
175
     1
 42
1.0
 92
        8
 66
     7
 43
1.0
 76
     1
 77
     6
 78
     2
 67
     7
 79
     5
170
     0
171
     0
290
     0
174
     0
 93
        1
 44
50.0
173
     0
291
     1
 45
0.0
1001
ACAD
1000
AcDbSavedByObjectVersion
1070
     0
  0
VISUALSTYLE
  5
970D
102
{ACAD_XDICTIONARY
360
9775
102
}
102
{ACAD_REACTORS
330
96FD
102
}
330
96FD
100
AcDbVisualStyle
  2
ColorChange
 70
    16
 71
     2
 72
     2
 73
     3
 90
        0
 40
-0.6
 41
-30.0
 62
     5
 63
     8
 74
     1
 91
        4
 64
     7
 65
   257
 75
     1
175
     1
 42
1.0
 92
        8
 66
     8
 43
1.0
 76
     1
 77
     6
 78
     2
 67
     7
 79
     5
170
     0
171
     0
290
     0
174
     0
 93
        1
 44
0.0
173
     0
291
     1
 45
0.0
1001
ACAD
1000
AcDbSavedByObjectVersion
1070
     0
  0
VISUALSTYLE
  5
9706
102
{ACAD_XDICTIONARY
360
9767
102
}
102
{ACAD_REACTORS
330
96FD
102
}
330
96FD
100
AcDbVisualStyle
  2
Conceptual
 70
     9
 71
     3
 72
     2
 73
     0
 90
        0
 40
-0.6
 41
-30.0
 62
     5
 63
     7
 74
     2
 91
        2
 64
     7
 65
   257
 75
     1
175
     1
 42
179.0
 92
        8
 66
     7
 43
1.0
 76
     1
 77
     6
 78
     2
 67
     7
 79
     3
170
     0
171
     0
290
     0
174
     0
 93
        1
 44
0.0
173
     0
291
     0
 45
0.0
1001
ACAD
1000
AcDbSavedByObjectVersion
1070
     0
  0
VISUALSTYLE
  5
9708
102
{ACAD_XDICTIONARY
360
976B
102
}
102
{ACAD_REACTORS
330
96FD
102
}
330
96FD
100
AcDbVisualStyle
  2
Dim
 70
    11
 71
     2
 72
     2
 73
     0
 90
        0
 40
-0.6
 41
-30.0
 62
     5
 63
     7
 74
     1
 91
        4
 64
     7
 65
   257
 75
     1
175
     1
 42
1.0
 92
        8
 66
     7
 43
1.0
 76
     1
 77
     6
 78
     2
 67
     7
 79
     5
170
     0
171
     0
290
     0
174
     0
 93
        1
 44
-50.0
173
     0
291
     1
 45
0.0
1001
ACAD
1000
AcDbSavedByObjectVersion
1070
     0
  0
VISUALSTYLE
  5
9715
102
{ACAD_XDICTIONARY
360
9785
102
}
102
{ACAD_REACTORS
330
96FD
102
}
330
96FD
100
AcDbVisualStyle
  2
EdgeColorOff
 70
    22
 71
     2
 72
     2
 73
     0
 90
        0
 40
-0.6
 41
-30.0
 62
     5
 63
     7
 74
     1
 91
        4
 64
     7
 65
   257
 75
     1
175
     1
 42
1.0
 92
        8
 66
     7
 43
1.0
 76
     1
 77
     6
 78
     2
 67
     7
 79
     5
170
     0
171
     0
290
     0
174
     0
 93
        1
 44
0.0
173
     0
291
     1
 45
0.0
1001
ACAD
1000
AcDbSavedByObjectVersion
1070
     0
  0
VISUALSTYLE
  5
970C
102
{ACAD_XDICTIONARY
360
9773
102
}
102
{ACAD_REACTORS
330
96FD
102
}
330
96FD
100
AcDbVisualStyle
  2
Facepattern
 70
    15
 71
     2
 72
     2
 73
     0
 90
        0
 40
-0.6
 41
-30.0
 62
     5
 63
     7
 74
     1
 91
        4
 64
     7
 65
   257
 75
     1
175
     1
 42
1.0
 92
        8
 66
     7
 43
1.0
 76
     1
 77
     6
 78
     2
 67
     7
 79
     5
170
     0
171
     0
290
     0
174
     0
 93
        1
 44
0.0
173
     0
291
     1
 45
0.0
1001
ACAD
1000
AcDbSavedByObjectVersion
1070
     0
  0
VISUALSTYLE
  5
96FE
102
{ACAD_XDICTIONARY
360
9757
102
}
102
{ACAD_REACTORS
330
96FD
102
}
330
96FD
100
AcDbVisualStyle
  2
Flat
 70
     0
 71
     2
 72
     1
 73
     1
 90
        2
 40
-0.6
 41
30.0
 62
     5
 63
     7
 74
     0
 91
        0
 64
     7
 65
   257
 75
     1
175
     1
 42
1.0
 92
        8
 66
     7
 43
1.0
 76
     1
 77
     6
 78
     2
 67
     7
 79
     5
170
     0
171
     0
290
     0
174
     0
 93
       13
 44
0.0
173
     0
291
     1
 45
0.0
1001
ACAD
1000
AcDbSavedByObjectVersion
1070
     0
  0
VISUALSTYLE
  5
96FF
102
{ACAD_XDICTIONARY
360
9759
102
}
102
{ACAD_REACTORS
330
96FD
102
}
330
96FD
100
AcDbVisualStyle
  2
FlatWithEdges
 70
     1
 71
     2
 72
     1
 73
     1
 90
        2
 40
-0.6
 41
30.0
 62
     5
 63
     7
 74
     1
 91
        0
 64
     7
 65
   257
 75
     1
175
     1
 42
1.0
 92
        0
 66
   257
 43
1.0
 76
     1
 77
     6
 78
     2
 67
     7
 79
     5
170
     0
171
     0
290
     0
174
     0
 93
       13
 44
0.0
173
     0
291
     1
 45
0.0
1001
ACAD
1000
AcDbSavedByObjectVersion
1070
     0
  0
VISUALSTYLE
  5
9700
102
{ACAD_XDICTIONARY
360
975B
102
}
102
{ACAD_REACTORS
330
96FD
102
}
330
96FD
100
AcDbVisualStyle
  2
Gouraud
 70
     2
 71
     2
 72
     2
 73
     1
 90
        2
 40
-0.6
 41
30.0
 62
     5
 63
     7
 74
     0
 91
        0
 64
     7
 65
   257
 75
     1
175
     1
 42
1.0
 92
        0
 66
     7
 43
1.0
 76
     1
 77
     6
 78
     2
 67
     7
 79
     5
170
     0
171
     0
290
     0
174
     0
 93
       13
 44
0.0
173
     0
291
     1
 45
0.0
1001
ACAD
1000
AcDbSavedByObjectVersion
1070
     0
  0
VISUALSTYLE
  5
9701
102
{ACAD_XDICTIONARY
360
975D
102
}
102
{ACAD_REACTORS
330
96FD
102
}
330
96FD
100
AcDbVisualStyle
  2
GouraudWithEdges
 70
     3
 71
     2
 72
     2
 73
     1
 90
        2
 40
-0.6
 41
30.0
 62
     5
 63
     7
 74
     1
 91
        0
 64
     7
 65
   257
 75
     1
175
     1
 42
1.0
 92
        0
 66
   257
 43
1.0
 76
     1
 77
     6
 78
     2
 67
     7
 79
     5
170
     0
171
     0
290
     0
174
     0
 93
       13
 44
0.0
173
     0
291
     1
 45
0.0
1001
ACAD
1000
AcDbSavedByObjectVersion
1070
     0
  0
VISUALSTYLE
  5
9705
102
{ACAD_XDICTIONARY
360
9765
102
}
102
{ACAD_REACTORS
330
96FD
102
}
330
96FD
100
AcDbVisualStyle
  2
Hidden
 70
     6
 71
     1
 72
     2
 73
     2
 90
        0
 40
-0.6
 41
-30.0
 62
     5
 63
     7
 74
     2
 91
        2
 64
     7
 65
   257
 75
     2
175
     1
 42
40.0
 92
        0
 66
   257
 43
1.0
 76
     1
 77
     6
 78
     2
 67
     7
 79
     3
170
     0
171
     0
290
     0
174
     0
 93
        1
 44
0.0
173
     0
291
     0
 45
0.0
1001
ACAD
1000
AcDbSavedByObjectVersion
1070
     0
  0
VISUALSTYLE
  5
9713
102
{ACAD_XDICTIONARY
360
9781
102
}
102
{ACAD_REACTORS
330
96FD
102
}
330
96FD
100
AcDbVisualStyle
  2
JitterOff
 70
    20
 71
     2
 72
     2
 73
     0
 90
        0
 40
-0.6
 41
-30.0
 62
     5
 63
     7
 74
     1
 91
        4
 64
     7
 65
   257
 75
     1
175
     1
 42
1.0
 92
       10
 66
     7
 43
1.0
 76
     1
 77
     6
 78
     2
 67
     7
 79
     5
170
     0
171
     0
290
     0
174
     0
 93
        1
 44
0.0
173
     0
291
     1
 45
0.0
1001
ACAD
1000
AcDbSavedByObjectVersion
1070
     0
  0
VISUALSTYLE
  5
970B
102
{ACAD_XDICTIONARY
360
9771
102
}
102
{ACAD_REACTORS
330
96FD
102
}
330
96FD
100
AcDbVisualStyle
  2
Linepattern
 70
    14
 71
     2
 72
     2
 73
     0
 90
        0
 40
-0.6
 41
-30.0
 62
     5
 63
     7
 74
     1
 91
        4
 64
     7
 65
   257
 75
     7
175
     7
 42
1.0
 92
        8
 66
     7
 43
1.0
 76
     1
 77
     6
 78
     2
 67
     7
 79
     5
170
     0
171
     0
290
     0
174
     0
 93
        1
 44
0.0
173
     0
291
     1
 45
0.0
1001
ACAD
1000
AcDbSavedByObjectVersion
1070
     0
  0
VISUALSTYLE
  5
9714
102
{ACAD_XDICTIONARY
360
9783
102
}
102
{ACAD_REACTORS
330
96FD
102
}
330
96FD
100
AcDbVisualStyle
  2
OverhangOff
 70
    21
 71
     2
 72
     2
 73
     0
 90
        0
 40
-0.6
 41
-30.0
 62
     5
 63
     7
 74
     1
 91
        4
 64
     7
 65
   257
 75
     1
175
     1
 42
1.0
 92
        9
 66
     7
 43
1.0
 76
     1
 77
     6
 78
     2
 67
     7
 79
     5
170
     0
171
     0
290
     0
174
     0
 93
        1
 44
0.0
173
     0
291
     1
 45
0.0
1001
ACAD
1000
AcDbSavedByObjectVersion
1070
     0
  0
VISUALSTYLE
  5
9707
102
{ACAD_XDICTIONARY
360
9769
102
}
102
{ACAD_REACTORS
330
96FD
102
}
330
96FD
100
AcDbVisualStyle
  2
Realistic
 70
     8
 71
     2
 72
     3
 73
     0
 90
        2
 40
-0.6
 41
30.0
 62
     5
 63
     7
 74
     0
 91
        0
 64
     7
 65
   257
 75
     1
175
     1
 42
1.0
 92
        8
 66
   257
 43
1.0
 76
     1
 77
     6
 78
     2
 67
     7
 79
     3
170
     0
171
     0
290
     0
174
     0
 93
       13
 44
0.0
173
     0
291
     0
 45
0.0
1001
ACAD
1000
AcDbSavedByObjectVersion
1070
     0
  0
VISUALSTYLE
  5
9712
102
{ACAD_XDICTIONARY
360
977F
102
}
102
{ACAD_REACTORS
330
96FD
102
}
330
96FD
100
AcDbVisualStyle
  2
Shaded
 70
    27
 71
     2
 72
     2
 73
     1
 90
        2
 40
-0.6
 41
30.0
 62
     5
 63
     7
 74
     0
 91
        4
 64
     7
 65
   257
 75
     1
175
     1
 42
1.0
 92
        8
 66
   257
 43
1.0
 76
     1
 77
     6
 78
     2
 67
     8
 79
     3
170
     0
171
     0
290
     0
174
     0
 93
        5
 44
0.0
173
     0
291
     0
 45
0.0
1001
ACAD
1000
AcDbSavedByObjectVersion
1070
     0
  0
VISUALSTYLE
  5
9711
102
{ACAD_XDICTIONARY
360
977D
102
}
102
{ACAD_REACTORS
330
96FD
102
}
330
96FD
100
AcDbVisualStyle
  2
Shaded with edges
 70
    26
 71
     2
 72
     2
 73
     1
 90
        2
 40
-0.6
 41
30.0
 62
     5
 63
     7
 74
     1
 91
       10
 64
     7
 65
   257
 75
     2
175
     1
 42
1.0
 92
        8
 66
   257
 43
1.0
 76
     1
 77
     6
 78
     2
 67
     7
 79
     3
170
     0
171
     0
290
     0
174
     0
 93
        5
 44
0.0
173
     0
291
     0
 45
0.0
1001
ACAD
1000
AcDbSavedByObjectVersion
1070
     0
  0
VISUALSTYLE
  5
970E
102
{ACAD_XDICTIONARY
360
9777
102
}
102
{ACAD_REACTORS
330
96FD
102
}
330
96FD
100
AcDbVisualStyle
  2
Shades of Gray
 70
    23
 71
     2
 72
     2
 73
     3
 90
        0
 40
-0.6
 41
-30.0
 62
     5
 63
     7
 74
     2
 91
        2
 64
     7
 65
     7
 75
     1
175
     1
 42
40.0
 92
        8
 66
     7
 43
1.0
 76
     1
 77
     6
 78
     2
 67
     7
 79
     3
170
     0
171
     0
290
     0
174
     0
 93
        1
 44
0.0
173
     0
291
     0
 45
0.0
1001
ACAD
1000
AcDbSavedByObjectVersion
1070
     0
  0
VISUALSTYLE
  5
970F
102
{ACAD_XDICTIONARY
360
9779
102
}
102
{ACAD_REACTORS
330
96FD
102
}
330
96FD
100
AcDbVisualStyle
  2
Sketchy
 70
    24
 71
     1
 72
     2
 73
     2
 90
        0
 40
-0.6
 41
-30.0
 62
     5
 63
     7
 74
     2
 91
        2
 64
     7
 65
     7
 75
     1
175
     1
 42
40.0
 92
       11
 66
     7
 43
1.0
 76
     1
 77
     6
 78
     2
 67
     7
 79
     6
170
     0
171
     0
290
     0
174
     0
 93
        1
 44
0.0
173
     0
291
     0
 45
0.0
1001
ACAD
1000
AcDbSavedByObjectVersion
1070
     0
  0
VISUALSTYLE
  5
970A
102
{ACAD_XDICTIONARY
360
976F
102
}
102
{ACAD_REACTORS
330
96FD
102
}
330
96FD
100
AcDbVisualStyle
  2
Thicken
 70
    13
 71
     2
 72
     2
 73
     0
 90
        0
 40
-0.6
 41
-30.0
 62
     5
 63
     7
 74
     1
 91
        4
 64
     7
 65
   257
 75
     1
175
     1
 42
1.0
 92
       12
 66
     7
 43
1.0
 76
     1
 77
     6
 78
     2
 67
     7
 79
     5
170
     0
171
     0
290
     0
174
     0
 93
        1
 44
0.0
173
     0
291
     1
 45
0.0
1001
ACAD
1000
AcDbSavedByObjectVersion
1070
     0
  0
VISUALSTYLE
  5
9704
102
{ACAD_XDICTIONARY
360
9763
102
}
102
{ACAD_REACTORS
330
96FD
102
}
330
96FD
100
AcDbVisualStyle
  2
Wireframe
 70
     5
 71
     0
 72
     2
 73
     0
 90
        0
 40
-0.6
 41
-30.0
 62
     5
 63
     7
 74
     1
 91
        4
 64
     7
 65
   257
 75
     1
175
     1
 42
1.0
 92
        0
 66
   257
 43
1.0
 76
     1
 77
     6
 78
     2
 67
     7
 79
     3
170
     0
171
     0
290
     0
174
     0
 93
        1
 44
0.0
173
     0
291
     0
 45
0.0
1001
ACAD
1000
AcDbSavedByObjectVersion
1070
     0
  0
VISUALSTYLE
  5
9710
102
{ACAD_XDICTIONARY
360
977B
102
}
102
{ACAD_REACTORS
330
96FD
102
}
330
96FD
100
AcDbVisualStyle
  2
X-Ray
 70
    25
 71
     2
 72
     2
 73
     1
 90
        1
 40
0.5
 41
-30.0
 62
     5
 63
     7
 74
     1
 91
        0
 64
     7
 65
   257
 75
     1
175
     1
 42
1.0
 92
        8
 66
     7
 43
1.0
 76
     1
 77
     6
 78
     2
 67
     7
 79
     3
170
     0
171
     0
290
     0
174
     0
 93
       13
 44
0.0
173
     0
291
     0
 45
0.0
1001
ACAD
1000
AcDbSavedByObjectVersion
1070
     0
  0
DICTIONARYVAR
  5
974A
102
{ACAD_REACTORS
330
9745
102
}
330
9745
100
DictionaryVariables
280
     0
  1
1:1
  0
DICTIONARYVAR
  5
9747
102
{ACAD_REACTORS
330
9745
102
}
330
9745
100
DictionaryVariables
280
     0
  1
STANDARD
  0
DICTIONARYVAR
  5
9746
102
{ACAD_REACTORS
330
9745
102
}
330
9745
100
DictionaryVariables
280
     0
  1
STANDARD
  0
DICTIONARYVAR
  5
9748
102
{ACAD_REACTORS
330
9745
102
}
330
9745
100
DictionaryVariables
280
     0
  1
Imperial24
  0
DICTIONARYVAR
  5
9749
102
{ACAD_REACTORS
330
9745
102
}
330
9745
100
DictionaryVariables
280
     0
  1
Imperial24
  0
DICTIONARYVAR
  5
974D
102
{ACAD_REACTORS
330
9745
102
}
330
9745
100
DictionaryVariables
280
     0
  1
1
  0
DICTIONARYVAR
  5
974C
102
{ACAD_REACTORS
330
9745
102
}
330
9745
100
DictionaryVariables
280
     0
  1
0
  0
DICTIONARYVAR
  5
974B
102
{ACAD_REACTORS
330
9745
102
}
330
9745
100
DictionaryVariables
280
     0
  1
127
  0
DICTIONARYVAR
  5
974E
102
{ACAD_REACTORS
330
9745
102
}
330
9745
100
DictionaryVariables
280
     0
  1
2
  0
DICTIONARY
  5
978B
330
9730
100
AcDbDictionary
280
     1
281
     1
  3
ACAD_XREC_ROUNDTRIP
360
978C
  0
DICTIONARY
  5
978D
330
9731
100
AcDbDictionary
280
     1
281
     1
  3
ACAD_XREC_ROUNDTRIP
360
978E
  0
DICTIONARY
  5
978F
330
9732
100
AcDbDictionary
280
     1
281
     1
  3
ACAD_XREC_ROUNDTRIP
360
9790
  0
DICTIONARY
  5
96EE
330
96ED
100
AcDbDictionary
280
     1
281
     1
  3
ACAD_XREC_ROUNDTRIP
360
9755
  3
BUMPTILE
360
96F0
  3
DIFFUSETILE
360
96EF
  3
OPACITYTILE
360
96F3
  3
REFLECTIONTILE
360
96F2
  3
REFRACTIONTILE
360
96F4
  3
SPECULARTILE
360
96F1
  0
DICTIONARY
  5
96E6
330
96E5
100
AcDbDictionary
280
     1
281
     1
  3
ACAD_XREC_ROUNDTRIP
360
9754
  3
BUMPTILE
360
96E8
  3
DIFFUSETILE
360
96E7
  3
OPACITYTILE
360
96EB
  3
REFLECTIONTILE
360
96EA
  3
REFRACTIONTILE
360
96EC
  3
SPECULARTILE
360
96E9
  0
DICTIONARY
  5
96F6
330
96F5
100
AcDbDictionary
280
     1
281
     1
  3
ACAD_XREC_ROUNDTRIP
360
9756
  3
BUMPTILE
360
96F8
  3
DIFFUSETILE
360
96F7
  3
OPACITYTILE
360
96FB
  3
REFLECTIONTILE
360
96FA
  3
REFRACTIONTILE
360
96FC
  3
SPECULARTILE
360
96F9
  0
DICTIONARY
  5
9789
330
972E
100
AcDbDictionary
280
     1
281
     1
  3
ACAD_XREC_ROUNDTRIP
360
978A
  0
DICTIONARY
  5
9750
330
9718
100
AcDbDictionary
280
     1
281
     1
  3
ACAD_ROUNDTRIP_2008_TABLESTYLE_CELLSTYLEMAP
360
9751
  3
ACAD_XREC_ROUNDTRIP
360
9787
  0
DICTIONARY
  5
9761
330
9703
100
AcDbDictionary
280
     1
281
     1
  3
ACAD_XREC_ROUNDTRIP
360
9762
  0
DICTIONARY
  5
975F
330
9702
100
AcDbDictionary
280
     1
281
     1
  3
ACAD_XREC_ROUNDTRIP
360
9760
  0
DICTIONARY
  5
976D
330
9709
100
AcDbDictionary
280
     1
281
     1
  3
ACAD_XREC_ROUNDTRIP
360
976E
  0
DICTIONARY
  5
9775
330
970D
100
AcDbDictionary
280
     1
281
     1
  3
ACAD_XREC_ROUNDTRIP
360
9776
  0
DICTIONARY
  5
9767
330
9706
100
AcDbDictionary
280
     1
281
     1
  3
ACAD_XREC_ROUNDTRIP
360
9768
  0
DICTIONARY
  5
976B
330
9708
100
AcDbDictionary
280
     1
281
     1
  3
ACAD_XREC_ROUNDTRIP
360
976C
  0
DICTIONARY
  5
9785
330
9715
100
AcDbDictionary
280
     1
281
     1
  3
ACAD_XREC_ROUNDTRIP
360
9786
  0
DICTIONARY
  5
9773
330
970C
100
AcDbDictionary
280
     1
281
     1
  3
ACAD_XREC_ROUNDTRIP
360
9774
  0
DICTIONARY
  5
9757
330
96FE
100
AcDbDictionary
280
     1
281
     1
  3
ACAD_XREC_ROUNDTRIP
360
9758
  0
DICTIONARY
  5
9759
330
96FF
100
AcDbDictionary
280
     1
281
     1
  3
ACAD_XREC_ROUNDTRIP
360
975A
  0
DICTIONARY
  5
975B
330
9700
100
AcDbDictionary
280
     1
281
     1
  3
ACAD_XREC_ROUNDTRIP
360
975C
  0
DICTIONARY
  5
975D
330
9701
100
AcDbDictionary
280
     1
281
     1
  3
ACAD_XREC_ROUNDTRIP
360
975E
  0
DICTIONARY
  5
9765
330
9705
100
AcDbDictionary
280
     1
281
     1
  3
ACAD_XREC_ROUNDTRIP
360
9766
  0
DICTIONARY
  5
9781
330
9713
100
AcDbDictionary
280
     1
281
     1
  3
ACAD_XREC_ROUNDTRIP
360
9782
  0
DICTIONARY
  5
9771
330
970B
100
AcDbDictionary
280
     1
281
     1
  3
ACAD_XREC_ROUNDTRIP
360
9772
  0
DICTIONARY
  5
9783
330
9714
100
AcDbDictionary
280
     1
281
     1
  3
ACAD_XREC_ROUNDTRIP
360
9784
  0
DICTIONARY
  5
9769
330
9707
100
AcDbDictionary
280
     1
281
     1
  3
ACAD_XREC_ROUNDTRIP
360
976A
  0
DICTIONARY
  5
977F
330
9712
100
AcDbDictionary
280
     1
281
     1
  3
ACAD_XREC_ROUNDTRIP
360
9780
  0
DICTIONARY
  5
977D
330
9711
100
AcDbDictionary
280
     1
281
     1
  3
ACAD_XREC_ROUNDTRIP
360
977E
  0
DICTIONARY
  5
9777
330
970E
100
AcDbDictionary
280
     1
281
     1
  3
ACAD_XREC_ROUNDTRIP
360
9778
  0
DICTIONARY
  5
9779
330
970F
100
AcDbDictionary
280
     1
281
     1
  3
ACAD_XREC_ROUNDTRIP
360
977A
  0
DICTIONARY
  5
976F
330
970A
100
AcDbDictionary
280
     1
281
     1
  3
ACAD_XREC_ROUNDTRIP
360
9770
  0
DICTIONARY
  5
9763
330
9704
100
AcDbDictionary
280
     1
281
     1
  3
ACAD_XREC_ROUNDTRIP
360
9764
  0
DICTIONARY
  5
977B
330
9710
100
AcDbDictionary
280
     1
281
     1
  3
ACAD_XREC_ROUNDTRIP
360
977C
  0
XRECORD
  5
978C
102
{ACAD_REACTORS
330
978B
102
}
330
978B
100
AcDbXrecord
280
     1
102
DISPLAYNAME
  1
Imperial24
102
FLAGS
 90
        0
  0
XRECORD
  5
978E
102
{ACAD_REACTORS
330
978D
102
}
330
978D
100
AcDbXrecord
280
     1
102
SHADEPLOT
 70
     0
102
SHADEPLOTRESLEVEL
 70
     2
102
SHADEPLOTCUSTOMDPI
 70
   300
  0
XRECORD
  5
9790
102
{ACAD_REACTORS
330
978F
102
}
330
978F
100
AcDbXrecord
280
     1
102
SHADEPLOT
 70
     0
102
SHADEPLOTRESLEVEL
 70
     2
102
SHADEPLOTCUSTOMDPI
 70
   300
  0
XRECORD
  5
9755
102
{ACAD_REACTORS
330
96EE
102
}
330
96EE
100
AcDbXrecord
280
     1
102
MATERIAL
148
0.0
149
0.0
149
0.0
 93
        0
 94
      127
282
     0
 72
     0
 77
     0
171
     0
175
     0
179
     0
273
     0
  0
XRECORD
  5
96F0
102
{ACAD_REACTORS
330
96EE
102
}
330
96EE
100
AcDbXrecord
280
     1
270
     1
271
     1
  0
XRECORD
  5
96EF
102
{ACAD_REACTORS
330
96EE
102
}
330
96EE
100
AcDbXrecord
280
     1
270
     1
271
     1
  0
XRECORD
  5
96F3
102
{ACAD_REACTORS
330
96EE
102
}
330
96EE
100
AcDbXrecord
280
     1
270
     1
271
     1
  0
XRECORD
  5
96F2
102
{ACAD_REACTORS
330
96EE
102
}
330
96EE
100
AcDbXrecord
280
     1
270
     1
271
     1
  0
XRECORD
  5
96F4
102
{ACAD_REACTORS
330
96EE
102
}
330
96EE
100
AcDbXrecord
280
     1
270
     1
271
     1
  0
XRECORD
  5
96F1
102
{ACAD_REACTORS
330
96EE
102
}
330
96EE
100
AcDbXrecord
280
     1
270
     1
271
     1
  0
XRECORD
  5
9754
102
{ACAD_REACTORS
330
96E6
102
}
330
96E6
100
AcDbXrecord
280
     1
102
MATERIAL
148
0.0
149
0.0
149
0.0
 93
        0
 94
      127
282
     0
 72
     0
 77
     0
171
     0
175
     0
179
     0
273
     0
  0
XRECORD
  5
96E8
102
{ACAD_REACTORS
330
96E6
102
}
330
96E6
100
AcDbXrecord
280
     1
270
     1
271
     1
  0
XRECORD
  5
96E7
102
{ACAD_REACTORS
330
96E6
102
}
330
96E6
100
AcDbXrecord
280
     1
270
     1
271
     1
  0
XRECORD
  5
96EB
102
{ACAD_REACTORS
330
96E6
102
}
330
96E6
100
AcDbXrecord
280
     1
270
     1
271
     1
  0
XRECORD
  5
96EA
102
{ACAD_REACTORS
330
96E6
102
}
330
96E6
100
AcDbXrecord
280
     1
270
     1
271
     1
  0
XRECORD
  5
96EC
102
{ACAD_REACTORS
330
96E6
102
}
330
96E6
100
AcDbXrecord
280
     1
270
     1
271
     1
  0
XRECORD
  5
96E9
102
{ACAD_REACTORS
330
96E6
102
}
330
96E6
100
AcDbXrecord
280
     1
270
     1
271
     1
  0
XRECORD
  5
9756
102
{ACAD_REACTORS
330
96F6
102
}
330
96F6
100
AcDbXrecord
280
     1
102
MATERIAL
148
0.0
149
0.0
149
0.0
 93
        0
 94
      127
282
     0
 72
     0
 77
     0
171
     0
175
     0
179
     0
273
     0
  0
XRECORD
  5
96F8
102
{ACAD_REACTORS
330
96F6
102
}
330
96F6
100
AcDbXrecord
280
     1
270
     1
271
     1
  0
XRECORD
  5
96F7
102
{ACAD_REACTORS
330
96F6
102
}
330
96F6
100
AcDbXrecord
280
     1
270
     1
271
     1
  0
XRECORD
  5
96FB
102
{ACAD_REACTORS
330
96F6
102
}
330
96F6
100
AcDbXrecord
280
     1
270
     1
271
     1
  0
XRECORD
  5
96FA
102
{ACAD_REACTORS
330
96F6
102
}
330
96F6
100
AcDbXrecord
280
     1
270
     1
271
     1
  0
XRECORD
  5
96FC
102
{ACAD_REACTORS
330
96F6
102
}
330
96F6
100
AcDbXrecord
280
     1
270
     1
271
     1
  0
XRECORD
  5
96F9
102
{ACAD_REACTORS
330
96F6
102
}
330
96F6
100
AcDbXrecord
280
     1
270
     1
271
     1
  0
XRECORD
  5
978A
102
{ACAD_REACTORS
330
9789
102
}
330
9789
100
AcDbXrecord
280
     1
102
DISPLAYNAME
  1
Imperial24
102
FLAGS
 90
        0
  0
CELLSTYLEMAP
  5
9751
102
{ACAD_REACTORS
330
9750
102
}
330
9750
100
AcDbCellStyleMap
 90
        3
300
CELLSTYLE
  1
TABLEFORMAT_BEGIN
 90
        5
170
     1
 91
        0
 92
    32768
 62
   257
 93
        1
300
CONTENTFORMAT
  1
CONTENTFORMAT_BEGIN
 90
        0
 91
        0
 92
      512
 93
        0
300

 40
0.0
140
1.0
 94
        5
 62
     0
340
94EC
144
0.25
309
CONTENTFORMAT_END
171
     0
 94
        0
309
TABLEFORMAT_END
  1
CELLSTYLE_BEGIN
 90
        1
 91
        1
300
_TITLE
309
CELLSTYLE_END
300
CELLSTYLE
  1
TABLEFORMAT_BEGIN
 90
        5
170
     1
 91
        0
 92
        0
 62
   257
 93
        1
300
CONTENTFORMAT
  1
CONTENTFORMAT_BEGIN
 90
        0
 91
        0
 92
      512
 93
        0
300

 40
0.0
140
1.0
 94
        5
 62
     0
340
94EC
144
0.18
309
CONTENTFORMAT_END
171
     0
 94
        0
309
TABLEFORMAT_END
  1
CELLSTYLE_BEGIN
 90
        2
 91
        1
300
_HEADER
309
CELLSTYLE_END
300
CELLSTYLE
  1
TABLEFORMAT_BEGIN
 90
        5
170
     1
 91
        0
 92
        0
 62
   257
 93
        1
300
CONTENTFORMAT
  1
CONTENTFORMAT_BEGIN
 90
        0
 91
        0
 92
      512
 93
        0
300

 40
0.0
140
1.0
 94
        2
 62
     0
340
94EC
144
0.18
309
CONTENTFORMAT_END
171
     0
 94
        0
309
TABLEFORMAT_END
  1
CELLSTYLE_BEGIN
 90
        3
 91
        2
300
_DATA
309
CELLSTYLE_END
  0
XRECORD
  5
9787
102
{ACAD_REACTORS
330
9750
102
}
330
9750
100
AcDbXrecord
280
     1
102
ACAD_ROUNDTRIP_PRE2007_TABLESTYLE
 90
      512
 91
        0
  1

 92
      512
 93
        0
  2

 94
      512
 95
        0
  3

  0
XRECORD
  5
9762
102
{ACAD_REACTORS
330
9761
102
}
330
9761
100
AcDbXrecord
280
     1
102
RTVSPost2010Prop28
280
     1
102
RTVSPost2010PropOp28
 70
     1
102
RTVSPost2010Prop29
280
     1
102
RTVSPost2010PropOp29
 70
     1
102
RTVSPost2010Prop30
280
     0
102
RTVSPost2010PropOp30
 70
     1
102
RTVSPost2010Prop31
280
     0
102
RTVSPost2010PropOp31
 70
     1
102
RTVSPost2010Prop32
280
     0
102
RTVSPost2010PropOp32
 70
     1
102
RTVSPost2010Prop33
280
     0
102
RTVSPost2010PropOp33
 70
     1
102
RTVSPost2010Prop34
280
     0
102
RTVSPost2010PropOp34
 70
     1
102
RTVSPost2010Prop35
280
     0
102
RTVSPost2010PropOp35
 70
     1
102
RTVSPost2010Prop36
280
     0
102
RTVSPost2010PropOp36
 70
     1
102
RTVSPost2010Prop37
 90
       50
102
RTVSPost2010PropOp37
 70
     1
102
RTVSPost2010Prop38
140
0.0
102
RTVSPost2010PropOp38
 70
     1
102
RTVSPost2010Prop39
140
1.0
102
RTVSPost2010PropOp39
 70
     1
102
RTVSPost2010Prop40
 90
        0
102
RTVSPost2010PropOp40
 70
     1
102
RTVSPost2010Prop41ColorIndex
 90
       18
102
RTVSPost2010Prop41ColorRGB
 90
        0
102
RTVSPost2010PropOp41
 70
     1
102
RTVSPost2010Prop42
 90
       50
102
RTVSPost2010PropOp42
 70
     1
102
RTVSPost2010Prop43
 90
        3
102
RTVSPost2010PropOp43
 70
     1
102
RTVSPost2010Prop44ColorIndex
 90
        5
102
RTVSPost2010Prop44ColorRGB
 90
      255
102
RTVSPost2010PropOp44
 70
     1
102
RTVSPost2010Prop45
280
     0
102
RTVSPost2010PropOp45
 70
     1
102
RTVSPost2010Prop46
 90
       50
102
RTVSPost2010PropOp46
 70
     1
102
RTVSPost2010Prop47
 90
       50
102
RTVSPost2010PropOp47
 70
     1
102
RTVSPost2010Prop48
 90
       50
102
RTVSPost2010PropOp48
 70
     1
102
RTVSPost2010Prop49
280
     0
102
RTVSPost2010PropOp49
 70
     1
102
RTVSPost2010Prop50
 90
       50
102
RTVSPost2010PropOp50
 70
     1
102
RTVSPost2010Prop51ColorIndex
 90
      256
102
RTVSPost2010Prop51ColorRGB
 90
-16777216
102
RTVSPost2010PropOp51
 70
     0
102
RTVSPost2010Prop52
140
1.0
102
RTVSPost2010PropOp52
 70
     0
102
RTVSPost2010Prop53
 90
        2
102
RTVSPost2010PropOp53
 70
     1
102
RTVSPost2010Prop54
  1
strokes_ogs.tif
102
RTVSPost2010PropOp54
 70
     1
102
RTVSPost2010Prop55
280
     0
102
RTVSPost2010PropOp55
 70
     1
102
RTVSPost2010Prop56
140
1.0
102
RTVSPost2010PropOp56
 70
     1
102
RTVSPost2010Prop57
140
1.0
102
RTVSPost2010PropOp57
 70
     1
102
RTVSPropertyOp0
 70
     1
102
RTVSPropertyOp1
 70
     1
102
RTVSPropertyOp2
 70
     1
102
RTVSPropertyOp3
 70
     1
102
RTVSPropertyOp4
 70
     1
102
RTVSPropertyOp5
 70
     1
102
RTVSPropertyOp6
 70
     1
102
RTVSPropertyOp7
 70
     1
102
RTVSPropertyOp8
 70
     1
102
RTVSPropertyOp9
 70
     1
102
RTVSPropertyOp10
 70
     1
102
RTVSPropertyOp11
 70
     1
102
RTVSPropertyOp12
 70
     1
102
RTVSPropertyOp13
 70
     1
102
RTVSPropertyOp14
 70
     1
102
RTVSPropertyOp15
 70
     1
102
RTVSPropertyOp16
 70
     1
102
RTVSPropertyOp17
 70
     1
102
RTVSPropertyOp18
 70
     1
102
RTVSPropertyOp19
 70
     1
102
RTVSPropertyOp20
 70
     1
102
RTVSPropertyOp21
 70
     1
102
RTVSPropertyOp22
 70
     1
102
RTVSPropertyOp23
 70
     1
102
RTVSPropertyOp24
 70
     1
102
RTVSPropertyOp25
 70
     1
102
RTVSPropertyOp26
 70
     1
102
RTVSPropertyOp27
 70
     1
102
RTVSPropertyOp28
 70
     1
102
RTVSPropertyOp29
 70
     1
102
RTVSPropertyOp30
 70
     1
102
RTVSPropertyOp31
 70
     1
102
RTVSPropertyOp32
 70
     1
102
RTVSPropertyOp33
 70
     1
102
RTVSPropertyOp34
 70
     1
102
RTVSPropertyOp35
 70
     1
102
RTVSPropertyOp36
 70
     1
102
RTVSPropertyOp37
 70
     1
102
RTVSPropertyOp38
 70
     1
102
RTVSPropertyOp39
 70
     1
102
RTVSPropertyOp40
 70
     1
102
RTVSPropertyOp41
 70
     1
102
RTVSPropertyOp42
 70
     1
102
RTVSPropertyOp43
 70
     1
102
RTVSPropertyOp44
 70
     1
102
RTVSPropertyOp45
 70
     1
102
RTVSPropertyOp46
 70
     1
102
RTVSPropertyOp47
 70
     1
102
RTVSPropertyOp48
 70
     1
102
RTVSPropertyOp49
 70
     1
102
RTVSPropertyOp50
 70
     1
102
RTVSPropertyOp51
 70
     0
102
RTVSPropertyOp52
 70
     0
102
RTVSPropertyOp53
 70
     1
102
RTVSPropertyOp54
 70
     1
102
RTVSPropertyOp55
 70
     1
102
RTVSPropertyOp56
 70
     1
102
RTVSPropertyOp57
 70
     1
102
RTVSPropertyOp58
 70
     1
102
RTVSPropertyOp59
 70
     1
102
RTVSPropertyOp60
 70
     1
102
RTVSPropertyOp61
 70
     1
102
RTVSPropertyOp62
 70
     1
  0
XRECORD
  5
9760
102
{ACAD_REACTORS
330
975F
102
}
330
975F
100
AcDbXrecord
280
     1
102
RTVSPost2010Prop28
280
     0
102
RTVSPost2010PropOp28
 70
     1
102
RTVSPost2010Prop29
280
     1
102
RTVSPost2010PropOp29
 70
     1
102
RTVSPost2010Prop30
280
     1
102
RTVSPost2010PropOp30
 70
     1
102
RTVSPost2010Prop31
280
     0
102
RTVSPost2010PropOp31
 70
     1
102
RTVSPost2010Prop32
280
     0
102
RTVSPost2010PropOp32
 70
     1
102
RTVSPost2010Prop33
280
     0
102
RTVSPost2010PropOp33
 70
     1
102
RTVSPost2010Prop34
280
     0
102
RTVSPost2010PropOp34
 70
     1
102
RTVSPost2010Prop35
280
     0
102
RTVSPost2010PropOp35
 70
     1
102
RTVSPost2010Prop36
280
     0
102
RTVSPost2010PropOp36
 70
     1
102
RTVSPost2010Prop37
 90
       50
102
RTVSPost2010PropOp37
 70
     1
102
RTVSPost2010Prop38
140
0.0
102
RTVSPost2010PropOp38
 70
     1
102
RTVSPost2010Prop39
140
1.0
102
RTVSPost2010PropOp39
 70
     1
102
RTVSPost2010Prop40
 90
        0
102
RTVSPost2010PropOp40
 70
     1
102
RTVSPost2010Prop41ColorIndex
 90
       18
102
RTVSPost2010Prop41ColorRGB
 90
        0
102
RTVSPost2010PropOp41
 70
     1
102
RTVSPost2010Prop42
 90
       50
102
RTVSPost2010PropOp42
 70
     1
102
RTVSPost2010Prop43
 90
        3
102
RTVSPost2010PropOp43
 70
     1
102
RTVSPost2010Prop44ColorIndex
 90
        5
102
RTVSPost2010Prop44ColorRGB
 90
      255
102
RTVSPost2010PropOp44
 70
     1
102
RTVSPost2010Prop45
280
     0
102
RTVSPost2010PropOp45
 70
     1
102
RTVSPost2010Prop46
 90
       50
102
RTVSPost2010PropOp46
 70
     1
102
RTVSPost2010Prop47
 90
       50
102
RTVSPost2010PropOp47
 70
     1
102
RTVSPost2010Prop48
 90
       50
102
RTVSPost2010PropOp48
 70
     1
102
RTVSPost2010Prop49
280
     0
102
RTVSPost2010PropOp49
 70
     1
102
RTVSPost2010Prop50
 90
       50
102
RTVSPost2010PropOp50
 70
     1
102
RTVSPost2010Prop51ColorIndex
 90
      256
102
RTVSPost2010Prop51ColorRGB
 90
-16777216
102
RTVSPost2010PropOp51
 70
     0
102
RTVSPost2010Prop52
140
1.0
102
RTVSPost2010PropOp52
 70
     0
102
RTVSPost2010Prop53
 90
        2
102
RTVSPost2010PropOp53
 70
     1
102
RTVSPost2010Prop54
  1
strokes_ogs.tif
102
RTVSPost2010PropOp54
 70
     1
102
RTVSPost2010Prop55
280
     0
102
RTVSPost2010PropOp55
 70
     1
102
RTVSPost2010Prop56
140
1.0
102
RTVSPost2010PropOp56
 70
     1
102
RTVSPost2010Prop57
140
1.0
102
RTVSPost2010PropOp57
 70
     1
102
RTVSPropertyOp0
 70
     1
102
RTVSPropertyOp1
 70
     1
102
RTVSPropertyOp2
 70
     1
102
RTVSPropertyOp3
 70
     1
102
RTVSPropertyOp4
 70
     1
102
RTVSPropertyOp5
 70
     1
102
RTVSPropertyOp6
 70
     1
102
RTVSPropertyOp7
 70
     1
102
RTVSPropertyOp8
 70
     1
102
RTVSPropertyOp9
 70
     1
102
RTVSPropertyOp10
 70
     1
102
RTVSPropertyOp11
 70
     1
102
RTVSPropertyOp12
 70
     1
102
RTVSPropertyOp13
 70
     1
102
RTVSPropertyOp14
 70
     1
102
RTVSPropertyOp15
 70
     1
102
RTVSPropertyOp16
 70
     1
102
RTVSPropertyOp17
 70
     1
102
RTVSPropertyOp18
 70
     1
102
RTVSPropertyOp19
 70
     1
102
RTVSPropertyOp20
 70
     1
102
RTVSPropertyOp21
 70
     1
102
RTVSPropertyOp22
 70
     1
102
RTVSPropertyOp23
 70
     1
102
RTVSPropertyOp24
 70
     1
102
RTVSPropertyOp25
 70
     1
102
RTVSPropertyOp26
 70
     1
102
RTVSPropertyOp27
 70
     1
102
RTVSPropertyOp28
 70
     1
102
RTVSPropertyOp29
 70
     1
102
RTVSPropertyOp30
 70
     1
102
RTVSPropertyOp31
 70
     1
102
RTVSPropertyOp32
 70
     1
102
RTVSPropertyOp33
 70
     1
102
RTVSPropertyOp34
 70
     1
102
RTVSPropertyOp35
 70
     1
102
RTVSPropertyOp36
 70
     1
102
RTVSPropertyOp37
 70
     1
102
RTVSPropertyOp38
 70
     1
102
RTVSPropertyOp39
 70
     1
102
RTVSPropertyOp40
 70
     1
102
RTVSPropertyOp41
 70
     1
102
RTVSPropertyOp42
 70
     1
102
RTVSPropertyOp43
 70
     1
102
RTVSPropertyOp44
 70
     1
102
RTVSPropertyOp45
 70
     1
102
RTVSPropertyOp46
 70
     1
102
RTVSPropertyOp47
 70
     1
102
RTVSPropertyOp48
 70
     1
102
RTVSPropertyOp49
 70
     1
102
RTVSPropertyOp50
 70
     1
102
RTVSPropertyOp51
 70
     0
102
RTVSPropertyOp52
 70
     0
102
RTVSPropertyOp53
 70
     1
102
RTVSPropertyOp54
 70
     1
102
RTVSPropertyOp55
 70
     1
102
RTVSPropertyOp56
 70
     1
102
RTVSPropertyOp57
 70
     1
102
RTVSPropertyOp58
 70
     1
102
RTVSPropertyOp59
 70
     1
102
RTVSPropertyOp60
 70
     1
102
RTVSPropertyOp61
 70
     1
102
RTVSPropertyOp62
 70
     1
  0
XRECORD
  5
976E
102
{ACAD_REACTORS
330
976D
102
}
330
976D
100
AcDbXrecord
280
     1
102
RTVSPost2010Prop28
280
     0
102
RTVSPost2010PropOp28
 70
     1
102
RTVSPost2010Prop29
280
     1
102
RTVSPost2010PropOp29
 70
     1
102
RTVSPost2010Prop30
280
     1
102
RTVSPost2010PropOp30
 70
     1
102
RTVSPost2010Prop31
280
     0
102
RTVSPost2010PropOp31
 70
     1
102
RTVSPost2010Prop32
280
     0
102
RTVSPost2010PropOp32
 70
     1
102
RTVSPost2010Prop33
280
     0
102
RTVSPost2010PropOp33
 70
     1
102
RTVSPost2010Prop34
280
     0
102
RTVSPost2010PropOp34
 70
     1
102
RTVSPost2010Prop35
280
     0
102
RTVSPost2010PropOp35
 70
     1
102
RTVSPost2010Prop36
280
     0
102
RTVSPost2010PropOp36
 70
     1
102
RTVSPost2010Prop37
 90
       50
102
RTVSPost2010PropOp37
 70
     1
102
RTVSPost2010Prop38
140
0.0
102
RTVSPost2010PropOp38
 70
     1
102
RTVSPost2010Prop39
140
1.0
102
RTVSPost2010PropOp39
 70
     1
102
RTVSPost2010Prop40
 90
        0
102
RTVSPost2010PropOp40
 70
     1
102
RTVSPost2010Prop41ColorIndex
 90
       18
102
RTVSPost2010Prop41ColorRGB
 90
        0
102
RTVSPost2010PropOp41
 70
     1
102
RTVSPost2010Prop42
 90
       50
102
RTVSPost2010PropOp42
 70
     1
102
RTVSPost2010Prop43
 90
        3
102
RTVSPost2010PropOp43
 70
     1
102
RTVSPost2010Prop44ColorIndex
 90
        5
102
RTVSPost2010Prop44ColorRGB
 90
      255
102
RTVSPost2010PropOp44
 70
     1
102
RTVSPost2010Prop45
280
     0
102
RTVSPost2010PropOp45
 70
     1
102
RTVSPost2010Prop46
 90
       50
102
RTVSPost2010PropOp46
 70
     1
102
RTVSPost2010Prop47
 90
       50
102
RTVSPost2010PropOp47
 70
     1
102
RTVSPost2010Prop48
 90
       50
102
RTVSPost2010PropOp48
 70
     1
102
RTVSPost2010Prop49
280
     0
102
RTVSPost2010PropOp49
 70
     1
102
RTVSPost2010Prop50
 90
       50
102
RTVSPost2010PropOp50
 70
     1
102
RTVSPost2010Prop51ColorIndex
 90
      256
102
RTVSPost2010Prop51ColorRGB
 90
-16777216
102
RTVSPost2010PropOp51
 70
     0
102
RTVSPost2010Prop52
140
1.0
102
RTVSPost2010PropOp52
 70
     0
102
RTVSPost2010Prop53
 90
        2
102
RTVSPost2010PropOp53
 70
     1
102
RTVSPost2010Prop54
  1
strokes_ogs.tif
102
RTVSPost2010PropOp54
 70
     1
102
RTVSPost2010Prop55
280
     0
102
RTVSPost2010PropOp55
 70
     1
102
RTVSPost2010Prop56
140
1.0
102
RTVSPost2010PropOp56
 70
     1
102
RTVSPost2010Prop57
140
1.0
102
RTVSPost2010PropOp57
 70
     1
102
RTVSPropertyOp0
 70
     1
102
RTVSPropertyOp1
 70
     1
102
RTVSPropertyOp2
 70
     1
102
RTVSPropertyOp3
 70
     1
102
RTVSPropertyOp4
 70
     1
102
RTVSPropertyOp5
 70
     1
102
RTVSPropertyOp6
 70
     1
102
RTVSPropertyOp7
 70
     1
102
RTVSPropertyOp8
 70
     1
102
RTVSPropertyOp9
 70
     1
102
RTVSPropertyOp10
 70
     1
102
RTVSPropertyOp11
 70
     1
102
RTVSPropertyOp12
 70
     1
102
RTVSPropertyOp13
 70
     1
102
RTVSPropertyOp14
 70
     1
102
RTVSPropertyOp15
 70
     1
102
RTVSPropertyOp16
 70
     1
102
RTVSPropertyOp17
 70
     1
102
RTVSPropertyOp18
 70
     1
102
RTVSPropertyOp19
 70
     1
102
RTVSPropertyOp20
 70
     1
102
RTVSPropertyOp21
 70
     1
102
RTVSPropertyOp22
 70
     1
102
RTVSPropertyOp23
 70
     1
102
RTVSPropertyOp24
 70
     1
102
RTVSPropertyOp25
 70
     1
102
RTVSPropertyOp26
 70
     1
102
RTVSPropertyOp27
 70
     1
102
RTVSPropertyOp28
 70
     1
102
RTVSPropertyOp29
 70
     1
102
RTVSPropertyOp30
 70
     1
102
RTVSPropertyOp31
 70
     1
102
RTVSPropertyOp32
 70
     1
102
RTVSPropertyOp33
 70
     1
102
RTVSPropertyOp34
 70
     1
102
RTVSPropertyOp35
 70
     1
102
RTVSPropertyOp36
 70
     1
102
RTVSPropertyOp37
 70
     1
102
RTVSPropertyOp38
 70
     1
102
RTVSPropertyOp39
 70
     1
102
RTVSPropertyOp40
 70
     1
102
RTVSPropertyOp41
 70
     1
102
RTVSPropertyOp42
 70
     1
102
RTVSPropertyOp43
 70
     1
102
RTVSPropertyOp44
 70
     1
102
RTVSPropertyOp45
 70
     1
102
RTVSPropertyOp46
 70
     1
102
RTVSPropertyOp47
 70
     1
102
RTVSPropertyOp48
 70
     1
102
RTVSPropertyOp49
 70
     1
102
RTVSPropertyOp50
 70
     1
102
RTVSPropertyOp51
 70
     0
102
RTVSPropertyOp52
 70
     0
102
RTVSPropertyOp53
 70
     1
102
RTVSPropertyOp54
 70
     1
102
RTVSPropertyOp55
 70
     1
102
RTVSPropertyOp56
 70
     1
102
RTVSPropertyOp57
 70
     1
102
RTVSPropertyOp58
 70
     1
102
RTVSPropertyOp59
 70
     1
102
RTVSPropertyOp60
 70
     1
102
RTVSPropertyOp61
 70
     1
102
RTVSPropertyOp62
 70
     1
  0
XRECORD
  5
9776
102
{ACAD_REACTORS
330
9775
102
}
330
9775
100
AcDbXrecord
280
     1
102
RTVSPost2010Prop28
280
     0
102
RTVSPost2010PropOp28
 70
     1
102
RTVSPost2010Prop29
280
     1
102
RTVSPost2010PropOp29
 70
     1
102
RTVSPost2010Prop30
280
     1
102
RTVSPost2010PropOp30
 70
     1
102
RTVSPost2010Prop31
280
     0
102
RTVSPost2010PropOp31
 70
     1
102
RTVSPost2010Prop32
280
     0
102
RTVSPost2010PropOp32
 70
     1
102
RTVSPost2010Prop33
280
     0
102
RTVSPost2010PropOp33
 70
     1
102
RTVSPost2010Prop34
280
     0
102
RTVSPost2010PropOp34
 70
     1
102
RTVSPost2010Prop35
280
     0
102
RTVSPost2010PropOp35
 70
     1
102
RTVSPost2010Prop36
280
     0
102
RTVSPost2010PropOp36
 70
     1
102
RTVSPost2010Prop37
 90
       50
102
RTVSPost2010PropOp37
 70
     1
102
RTVSPost2010Prop38
140
0.0
102
RTVSPost2010PropOp38
 70
     1
102
RTVSPost2010Prop39
140
1.0
102
RTVSPost2010PropOp39
 70
     1
102
RTVSPost2010Prop40
 90
        0
102
RTVSPost2010PropOp40
 70
     1
102
RTVSPost2010Prop41ColorIndex
 90
       18
102
RTVSPost2010Prop41ColorRGB
 90
        0
102
RTVSPost2010PropOp41
 70
     1
102
RTVSPost2010Prop42
 90
       50
102
RTVSPost2010PropOp42
 70
     1
102
RTVSPost2010Prop43
 90
        3
102
RTVSPost2010PropOp43
 70
     1
102
RTVSPost2010Prop44ColorIndex
 90
        5
102
RTVSPost2010Prop44ColorRGB
 90
      255
102
RTVSPost2010PropOp44
 70
     1
102
RTVSPost2010Prop45
280
     0
102
RTVSPost2010PropOp45
 70
     1
102
RTVSPost2010Prop46
 90
       50
102
RTVSPost2010PropOp46
 70
     1
102
RTVSPost2010Prop47
 90
       50
102
RTVSPost2010PropOp47
 70
     1
102
RTVSPost2010Prop48
 90
       50
102
RTVSPost2010PropOp48
 70
     1
102
RTVSPost2010Prop49
280
     0
102
RTVSPost2010PropOp49
 70
     1
102
RTVSPost2010Prop50
 90
       50
102
RTVSPost2010PropOp50
 70
     1
102
RTVSPost2010Prop51ColorIndex
 90
      256
102
RTVSPost2010Prop51ColorRGB
 90
-16777216
102
RTVSPost2010PropOp51
 70
     0
102
RTVSPost2010Prop52
140
1.0
102
RTVSPost2010PropOp52
 70
     0
102
RTVSPost2010Prop53
 90
        2
102
RTVSPost2010PropOp53
 70
     1
102
RTVSPost2010Prop54
  1
strokes_ogs.tif
102
RTVSPost2010PropOp54
 70
     1
102
RTVSPost2010Prop55
280
     0
102
RTVSPost2010PropOp55
 70
     1
102
RTVSPost2010Prop56
140
1.0
102
RTVSPost2010PropOp56
 70
     1
102
RTVSPost2010Prop57
140
1.0
102
RTVSPost2010PropOp57
 70
     1
102
RTVSPropertyOp0
 70
     1
102
RTVSPropertyOp1
 70
     1
102
RTVSPropertyOp2
 70
     1
102
RTVSPropertyOp3
 70
     1
102
RTVSPropertyOp4
 70
     1
102
RTVSPropertyOp5
 70
     1
102
RTVSPropertyOp6
 70
     1
102
RTVSPropertyOp7
 70
     1
102
RTVSPropertyOp8
 70
     1
102
RTVSPropertyOp9
 70
     1
102
RTVSPropertyOp10
 70
     1
102
RTVSPropertyOp11
 70
     1
102
RTVSPropertyOp12
 70
     1
102
RTVSPropertyOp13
 70
     1
102
RTVSPropertyOp14
 70
     1
102
RTVSPropertyOp15
 70
     1
102
RTVSPropertyOp16
 70
     1
102
RTVSPropertyOp17
 70
     1
102
RTVSPropertyOp18
 70
     1
102
RTVSPropertyOp19
 70
     1
102
RTVSPropertyOp20
 70
     1
102
RTVSPropertyOp21
 70
     1
102
RTVSPropertyOp22
 70
     1
102
RTVSPropertyOp23
 70
     1
102
RTVSPropertyOp24
 70
     1
102
RTVSPropertyOp25
 70
     1
102
RTVSPropertyOp26
 70
     1
102
RTVSPropertyOp27
 70
     1
102
RTVSPropertyOp28
 70
     1
102
RTVSPropertyOp29
 70
     1
102
RTVSPropertyOp30
 70
     1
102
RTVSPropertyOp31
 70
     1
102
RTVSPropertyOp32
 70
     1
102
RTVSPropertyOp33
 70
     1
102
RTVSPropertyOp34
 70
     1
102
RTVSPropertyOp35
 70
     1
102
RTVSPropertyOp36
 70
     1
102
RTVSPropertyOp37
 70
     1
102
RTVSPropertyOp38
 70
     1
102
RTVSPropertyOp39
 70
     1
102
RTVSPropertyOp40
 70
     1
102
RTVSPropertyOp41
 70
     1
102
RTVSPropertyOp42
 70
     1
102
RTVSPropertyOp43
 70
     1
102
RTVSPropertyOp44
 70
     1
102
RTVSPropertyOp45
 70
     1
102
RTVSPropertyOp46
 70
     1
102
RTVSPropertyOp47
 70
     1
102
RTVSPropertyOp48
 70
     1
102
RTVSPropertyOp49
 70
     1
102
RTVSPropertyOp50
 70
     1
102
RTVSPropertyOp51
 70
     0
102
RTVSPropertyOp52
 70
     0
102
RTVSPropertyOp53
 70
     1
102
RTVSPropertyOp54
 70
     1
102
RTVSPropertyOp55
 70
     1
102
RTVSPropertyOp56
 70
     1
102
RTVSPropertyOp57
 70
     1
102
RTVSPropertyOp58
 70
     1
102
RTVSPropertyOp59
 70
     1
102
RTVSPropertyOp60
 70
     1
102
RTVSPropertyOp61
 70
     1
102
RTVSPropertyOp62
 70
     1
  0
XRECORD
  5
9768
102
{ACAD_REACTORS
330
9767
102
}
330
9767
100
AcDbXrecord
280
     1
102
RTVSPost2010Prop28
280
     0
102
RTVSPost2010PropOp28
 70
     1
102
RTVSPost2010Prop29
280
     1
102
RTVSPost2010PropOp29
 70
     1
102
RTVSPost2010Prop30
280
     1
102
RTVSPost2010PropOp30
 70
     1
102
RTVSPost2010Prop31
280
     0
102
RTVSPost2010PropOp31
 70
     1
102
RTVSPost2010Prop32
280
     0
102
RTVSPost2010PropOp32
 70
     1
102
RTVSPost2010Prop33
280
     0
102
RTVSPost2010PropOp33
 70
     1
102
RTVSPost2010Prop34
280
     0
102
RTVSPost2010PropOp34
 70
     1
102
RTVSPost2010Prop35
280
     0
102
RTVSPost2010PropOp35
 70
     1
102
RTVSPost2010Prop36
280
     0
102
RTVSPost2010PropOp36
 70
     1
102
RTVSPost2010Prop37
 90
       50
102
RTVSPost2010PropOp37
 70
     1
102
RTVSPost2010Prop38
140
0.0
102
RTVSPost2010PropOp38
 70
     1
102
RTVSPost2010Prop39
140
1.0
102
RTVSPost2010PropOp39
 70
     1
102
RTVSPost2010Prop40
 90
        0
102
RTVSPost2010PropOp40
 70
     1
102
RTVSPost2010Prop41ColorIndex
 90
       18
102
RTVSPost2010Prop41ColorRGB
 90
        0
102
RTVSPost2010PropOp41
 70
     1
102
RTVSPost2010Prop42
 90
       50
102
RTVSPost2010PropOp42
 70
     1
102
RTVSPost2010Prop43
 90
        3
102
RTVSPost2010PropOp43
 70
     1
102
RTVSPost2010Prop44ColorIndex
 90
        5
102
RTVSPost2010Prop44ColorRGB
 90
      255
102
RTVSPost2010PropOp44
 70
     1
102
RTVSPost2010Prop45
280
     0
102
RTVSPost2010PropOp45
 70
     1
102
RTVSPost2010Prop46
 90
       50
102
RTVSPost2010PropOp46
 70
     1
102
RTVSPost2010Prop47
 90
       50
102
RTVSPost2010PropOp47
 70
     1
102
RTVSPost2010Prop48
 90
       50
102
RTVSPost2010PropOp48
 70
     1
102
RTVSPost2010Prop49
280
     0
102
RTVSPost2010PropOp49
 70
     1
102
RTVSPost2010Prop50
 90
       50
102
RTVSPost2010PropOp50
 70
     1
102
RTVSPost2010Prop51ColorIndex
 90
      256
102
RTVSPost2010Prop51ColorRGB
 90
-16777216
102
RTVSPost2010PropOp51
 70
     0
102
RTVSPost2010Prop52
140
1.0
102
RTVSPost2010PropOp52
 70
     0
102
RTVSPost2010Prop53
 90
        2
102
RTVSPost2010PropOp53
 70
     1
102
RTVSPost2010Prop54
  1
strokes_ogs.tif
102
RTVSPost2010PropOp54
 70
     1
102
RTVSPost2010Prop55
280
     0
102
RTVSPost2010PropOp55
 70
     1
102
RTVSPost2010Prop56
140
1.0
102
RTVSPost2010PropOp56
 70
     1
102
RTVSPost2010Prop57
140
1.0
102
RTVSPost2010PropOp57
 70
     1
102
RTVSPropertyOp0
 70
     1
102
RTVSPropertyOp1
 70
     1
102
RTVSPropertyOp2
 70
     1
102
RTVSPropertyOp3
 70
     1
102
RTVSPropertyOp4
 70
     1
102
RTVSPropertyOp5
 70
     1
102
RTVSPropertyOp6
 70
     1
102
RTVSPropertyOp7
 70
     1
102
RTVSPropertyOp8
 70
     1
102
RTVSPropertyOp9
 70
     1
102
RTVSPropertyOp10
 70
     1
102
RTVSPropertyOp11
 70
     1
102
RTVSPropertyOp12
 70
     1
102
RTVSPropertyOp13
 70
     1
102
RTVSPropertyOp14
 70
     1
102
RTVSPropertyOp15
 70
     1
102
RTVSPropertyOp16
 70
     1
102
RTVSPropertyOp17
 70
     1
102
RTVSPropertyOp18
 70
     1
102
RTVSPropertyOp19
 70
     1
102
RTVSPropertyOp20
 70
     1
102
RTVSPropertyOp21
 70
     1
102
RTVSPropertyOp22
 70
     1
102
RTVSPropertyOp23
 70
     1
102
RTVSPropertyOp24
 70
     1
102
RTVSPropertyOp25
 70
     1
102
RTVSPropertyOp26
 70
     1
102
RTVSPropertyOp27
 70
     1
102
RTVSPropertyOp28
 70
     1
102
RTVSPropertyOp29
 70
     1
102
RTVSPropertyOp30
 70
     1
102
RTVSPropertyOp31
 70
     1
102
RTVSPropertyOp32
 70
     1
102
RTVSPropertyOp33
 70
     1
102
RTVSPropertyOp34
 70
     1
102
RTVSPropertyOp35
 70
     1
102
RTVSPropertyOp36
 70
     1
102
RTVSPropertyOp37
 70
     1
102
RTVSPropertyOp38
 70
     1
102
RTVSPropertyOp39
 70
     1
102
RTVSPropertyOp40
 70
     1
102
RTVSPropertyOp41
 70
     1
102
RTVSPropertyOp42
 70
     1
102
RTVSPropertyOp43
 70
     1
102
RTVSPropertyOp44
 70
     1
102
RTVSPropertyOp45
 70
     1
102
RTVSPropertyOp46
 70
     1
102
RTVSPropertyOp47
 70
     1
102
RTVSPropertyOp48
 70
     1
102
RTVSPropertyOp49
 70
     1
102
RTVSPropertyOp50
 70
     1
102
RTVSPropertyOp51
 70
     0
102
RTVSPropertyOp52
 70
     0
102
RTVSPropertyOp53
 70
     1
102
RTVSPropertyOp54
 70
     1
102
RTVSPropertyOp55
 70
     1
102
RTVSPropertyOp56
 70
     1
102
RTVSPropertyOp57
 70
     1
102
RTVSPropertyOp58
 70
     1
102
RTVSPropertyOp59
 70
     1
102
RTVSPropertyOp60
 70
     1
102
RTVSPropertyOp61
 70
     1
102
RTVSPropertyOp62
 70
     1
  0
XRECORD
  5
976C
102
{ACAD_REACTORS
330
976B
102
}
330
976B
100
AcDbXrecord
280
     1
102
RTVSPost2010Prop28
280
     0
102
RTVSPost2010PropOp28
 70
     1
102
RTVSPost2010Prop29
280
     1
102
RTVSPost2010PropOp29
 70
     1
102
RTVSPost2010Prop30
280
     1
102
RTVSPost2010PropOp30
 70
     1
102
RTVSPost2010Prop31
280
     0
102
RTVSPost2010PropOp31
 70
     1
102
RTVSPost2010Prop32
280
     0
102
RTVSPost2010PropOp32
 70
     1
102
RTVSPost2010Prop33
280
     0
102
RTVSPost2010PropOp33
 70
     1
102
RTVSPost2010Prop34
280
     0
102
RTVSPost2010PropOp34
 70
     1
102
RTVSPost2010Prop35
280
     0
102
RTVSPost2010PropOp35
 70
     1
102
RTVSPost2010Prop36
280
     0
102
RTVSPost2010PropOp36
 70
     1
102
RTVSPost2010Prop37
 90
       50
102
RTVSPost2010PropOp37
 70
     1
102
RTVSPost2010Prop38
140
0.0
102
RTVSPost2010PropOp38
 70
     1
102
RTVSPost2010Prop39
140
1.0
102
RTVSPost2010PropOp39
 70
     1
102
RTVSPost2010Prop40
 90
        0
102
RTVSPost2010PropOp40
 70
     1
102
RTVSPost2010Prop41ColorIndex
 90
       18
102
RTVSPost2010Prop41ColorRGB
 90
        0
102
RTVSPost2010PropOp41
 70
     1
102
RTVSPost2010Prop42
 90
       50
102
RTVSPost2010PropOp42
 70
     1
102
RTVSPost2010Prop43
 90
        3
102
RTVSPost2010PropOp43
 70
     1
102
RTVSPost2010Prop44ColorIndex
 90
        5
102
RTVSPost2010Prop44ColorRGB
 90
      255
102
RTVSPost2010PropOp44
 70
     1
102
RTVSPost2010Prop45
280
     0
102
RTVSPost2010PropOp45
 70
     1
102
RTVSPost2010Prop46
 90
       50
102
RTVSPost2010PropOp46
 70
     1
102
RTVSPost2010Prop47
 90
       50
102
RTVSPost2010PropOp47
 70
     1
102
RTVSPost2010Prop48
 90
       50
102
RTVSPost2010PropOp48
 70
     1
102
RTVSPost2010Prop49
280
     0
102
RTVSPost2010PropOp49
 70
     1
102
RTVSPost2010Prop50
 90
       50
102
RTVSPost2010PropOp50
 70
     1
102
RTVSPost2010Prop51ColorIndex
 90
      256
102
RTVSPost2010Prop51ColorRGB
 90
-16777216
102
RTVSPost2010PropOp51
 70
     0
102
RTVSPost2010Prop52
140
1.0
102
RTVSPost2010PropOp52
 70
     0
102
RTVSPost2010Prop53
 90
        2
102
RTVSPost2010PropOp53
 70
     1
102
RTVSPost2010Prop54
  1
strokes_ogs.tif
102
RTVSPost2010PropOp54
 70
     1
102
RTVSPost2010Prop55
280
     0
102
RTVSPost2010PropOp55
 70
     1
102
RTVSPost2010Prop56
140
1.0
102
RTVSPost2010PropOp56
 70
     1
102
RTVSPost2010Prop57
140
1.0
102
RTVSPost2010PropOp57
 70
     1
102
RTVSPropertyOp0
 70
     1
102
RTVSPropertyOp1
 70
     1
102
RTVSPropertyOp2
 70
     1
102
RTVSPropertyOp3
 70
     1
102
RTVSPropertyOp4
 70
     1
102
RTVSPropertyOp5
 70
     1
102
RTVSPropertyOp6
 70
     1
102
RTVSPropertyOp7
 70
     1
102
RTVSPropertyOp8
 70
     1
102
RTVSPropertyOp9
 70
     1
102
RTVSPropertyOp10
 70
     1
102
RTVSPropertyOp11
 70
     1
102
RTVSPropertyOp12
 70
     1
102
RTVSPropertyOp13
 70
     1
102
RTVSPropertyOp14
 70
     1
102
RTVSPropertyOp15
 70
     1
102
RTVSPropertyOp16
 70
     1
102
RTVSPropertyOp17
 70
     1
102
RTVSPropertyOp18
 70
     1
102
RTVSPropertyOp19
 70
     1
102
RTVSPropertyOp20
 70
     1
102
RTVSPropertyOp21
 70
     1
102
RTVSPropertyOp22
 70
     1
102
RTVSPropertyOp23
 70
     1
102
RTVSPropertyOp24
 70
     1
102
RTVSPropertyOp25
 70
     1
102
RTVSPropertyOp26
 70
     1
102
RTVSPropertyOp27
 70
     1
102
RTVSPropertyOp28
 70
     1
102
RTVSPropertyOp29
 70
     1
102
RTVSPropertyOp30
 70
     1
102
RTVSPropertyOp31
 70
     1
102
RTVSPropertyOp32
 70
     1
102
RTVSPropertyOp33
 70
     1
102
RTVSPropertyOp34
 70
     1
102
RTVSPropertyOp35
 70
     1
102
RTVSPropertyOp36
 70
     1
102
RTVSPropertyOp37
 70
     1
102
RTVSPropertyOp38
 70
     1
102
RTVSPropertyOp39
 70
     1
102
RTVSPropertyOp40
 70
     1
102
RTVSPropertyOp41
 70
     1
102
RTVSPropertyOp42
 70
     1
102
RTVSPropertyOp43
 70
     1
102
RTVSPropertyOp44
 70
     1
102
RTVSPropertyOp45
 70
     1
102
RTVSPropertyOp46
 70
     1
102
RTVSPropertyOp47
 70
     1
102
RTVSPropertyOp48
 70
     1
102
RTVSPropertyOp49
 70
     1
102
RTVSPropertyOp50
 70
     1
102
RTVSPropertyOp51
 70
     0
102
RTVSPropertyOp52
 70
     0
102
RTVSPropertyOp53
 70
     1
102
RTVSPropertyOp54
 70
     1
102
RTVSPropertyOp55
 70
     1
102
RTVSPropertyOp56
 70
     1
102
RTVSPropertyOp57
 70
     1
102
RTVSPropertyOp58
 70
     1
102
RTVSPropertyOp59
 70
     1
102
RTVSPropertyOp60
 70
     1
102
RTVSPropertyOp61
 70
     1
102
RTVSPropertyOp62
 70
     1
  0
XRECORD
  5
9786
102
{ACAD_REACTORS
330
9785
102
}
330
9785
100
AcDbXrecord
280
     1
102
RTVSPost2010Prop28
280
     0
102
RTVSPost2010PropOp28
 70
     1
102
RTVSPost2010Prop29
280
     1
102
RTVSPost2010PropOp29
 70
     1
102
RTVSPost2010Prop30
280
     1
102
RTVSPost2010PropOp30
 70
     1
102
RTVSPost2010Prop31
280
     0
102
RTVSPost2010PropOp31
 70
     1
102
RTVSPost2010Prop32
280
     0
102
RTVSPost2010PropOp32
 70
     1
102
RTVSPost2010Prop33
280
     0
102
RTVSPost2010PropOp33
 70
     1
102
RTVSPost2010Prop34
280
     0
102
RTVSPost2010PropOp34
 70
     1
102
RTVSPost2010Prop35
280
     0
102
RTVSPost2010PropOp35
 70
     1
102
RTVSPost2010Prop36
280
     0
102
RTVSPost2010PropOp36
 70
     1
102
RTVSPost2010Prop37
 90
       50
102
RTVSPost2010PropOp37
 70
     0
102
RTVSPost2010Prop38
140
0.0
102
RTVSPost2010PropOp38
 70
     0
102
RTVSPost2010Prop39
140
1.0
102
RTVSPost2010PropOp39
 70
     0
102
RTVSPost2010Prop40
 90
        0
102
RTVSPost2010PropOp40
 70
     0
102
RTVSPost2010Prop41ColorIndex
 90
       18
102
RTVSPost2010Prop41ColorRGB
 90
        0
102
RTVSPost2010PropOp41
 70
     0
102
RTVSPost2010Prop42
 90
       50
102
RTVSPost2010PropOp42
 70
     0
102
RTVSPost2010Prop43
 90
        3
102
RTVSPost2010PropOp43
 70
     0
102
RTVSPost2010Prop44ColorIndex
 90
        5
102
RTVSPost2010Prop44ColorRGB
 90
      255
102
RTVSPost2010PropOp44
 70
     0
102
RTVSPost2010Prop45
280
     0
102
RTVSPost2010PropOp45
 70
     1
102
RTVSPost2010Prop46
 90
       50
102
RTVSPost2010PropOp46
 70
     0
102
RTVSPost2010Prop47
 90
       50
102
RTVSPost2010PropOp47
 70
     0
102
RTVSPost2010Prop48
 90
       50
102
RTVSPost2010PropOp48
 70
     0
102
RTVSPost2010Prop49
280
     0
102
RTVSPost2010PropOp49
 70
     1
102
RTVSPost2010Prop50
 90
       50
102
RTVSPost2010PropOp50
 70
     0
102
RTVSPost2010Prop51ColorIndex
 90
      256
102
RTVSPost2010Prop51ColorRGB
 90
-16777216
102
RTVSPost2010PropOp51
 70
     0
102
RTVSPost2010Prop52
140
1.0
102
RTVSPost2010PropOp52
 70
     0
102
RTVSPost2010Prop53
 90
        2
102
RTVSPost2010PropOp53
 70
     0
102
RTVSPost2010Prop54
  1
strokes_ogs.tif
102
RTVSPost2010PropOp54
 70
     0
102
RTVSPost2010Prop55
280
     0
102
RTVSPost2010PropOp55
 70
     1
102
RTVSPost2010Prop56
140
1.0
102
RTVSPost2010PropOp56
 70
     0
102
RTVSPost2010Prop57
140
1.0
102
RTVSPost2010PropOp57
 70
     0
102
RTVSPropertyOp0
 70
     0
102
RTVSPropertyOp1
 70
     0
102
RTVSPropertyOp2
 70
     0
102
RTVSPropertyOp3
 70
     0
102
RTVSPropertyOp4
 70
     0
102
RTVSPropertyOp5
 70
     0
102
RTVSPropertyOp6
 70
     0
102
RTVSPropertyOp7
 70
     0
102
RTVSPropertyOp8
 70
     0
102
RTVSPropertyOp9
 70
     0
102
RTVSPropertyOp10
 70
     0
102
RTVSPropertyOp11
 70
     0
102
RTVSPropertyOp12
 70
     0
102
RTVSPropertyOp13
 70
     0
102
RTVSPropertyOp14
 70
     2
102
RTVSPropertyOp15
 70
     0
102
RTVSPropertyOp16
 70
     0
102
RTVSPropertyOp17
 70
     0
102
RTVSPropertyOp18
 70
     0
102
RTVSPropertyOp19
 70
     0
102
RTVSPropertyOp20
 70
     0
102
RTVSPropertyOp21
 70
     0
102
RTVSPropertyOp22
 70
     0
102
RTVSPropertyOp23
 70
     0
102
RTVSPropertyOp24
 70
     0
102
RTVSPropertyOp25
 70
     0
102
RTVSPropertyOp26
 70
     0
102
RTVSPropertyOp27
 70
     0
102
RTVSPropertyOp28
 70
     1
102
RTVSPropertyOp29
 70
     1
102
RTVSPropertyOp30
 70
     1
102
RTVSPropertyOp31
 70
     1
102
RTVSPropertyOp32
 70
     1
102
RTVSPropertyOp33
 70
     1
102
RTVSPropertyOp34
 70
     1
102
RTVSPropertyOp35
 70
     1
102
RTVSPropertyOp36
 70
     1
102
RTVSPropertyOp37
 70
     0
102
RTVSPropertyOp38
 70
     0
102
RTVSPropertyOp39
 70
     0
102
RTVSPropertyOp40
 70
     0
102
RTVSPropertyOp41
 70
     0
102
RTVSPropertyOp42
 70
     0
102
RTVSPropertyOp43
 70
     0
102
RTVSPropertyOp44
 70
     0
102
RTVSPropertyOp45
 70
     1
102
RTVSPropertyOp46
 70
     0
102
RTVSPropertyOp47
 70
     0
102
RTVSPropertyOp48
 70
     0
102
RTVSPropertyOp49
 70
     1
102
RTVSPropertyOp50
 70
     0
102
RTVSPropertyOp51
 70
     0
102
RTVSPropertyOp52
 70
     0
102
RTVSPropertyOp53
 70
     0
102
RTVSPropertyOp54
 70
     0
102
RTVSPropertyOp55
 70
     1
102
RTVSPropertyOp56
 70
     0
102
RTVSPropertyOp57
 70
     0
102
RTVSPropertyOp58
 70
     0
102
RTVSPropertyOp59
 70
     0
102
RTVSPropertyOp60
 70
     0
102
RTVSPropertyOp61
 70
     0
102
RTVSPropertyOp62
 70
     0
  0
XRECORD
  5
9774
102
{ACAD_REACTORS
330
9773
102
}
330
9773
100
AcDbXrecord
280
     1
102
RTVSPost2010Prop28
280
     0
102
RTVSPost2010PropOp28
 70
     1
102
RTVSPost2010Prop29
280
     1
102
RTVSPost2010PropOp29
 70
     1
102
RTVSPost2010Prop30
280
     1
102
RTVSPost2010PropOp30
 70
     1
102
RTVSPost2010Prop31
280
     0
102
RTVSPost2010PropOp31
 70
     1
102
RTVSPost2010Prop32
280
     0
102
RTVSPost2010PropOp32
 70
     1
102
RTVSPost2010Prop33
280
     0
102
RTVSPost2010PropOp33
 70
     1
102
RTVSPost2010Prop34
280
     0
102
RTVSPost2010PropOp34
 70
     1
102
RTVSPost2010Prop35
280
     0
102
RTVSPost2010PropOp35
 70
     1
102
RTVSPost2010Prop36
280
     0
102
RTVSPost2010PropOp36
 70
     1
102
RTVSPost2010Prop37
 90
       50
102
RTVSPost2010PropOp37
 70
     1
102
RTVSPost2010Prop38
140
0.0
102
RTVSPost2010PropOp38
 70
     1
102
RTVSPost2010Prop39
140
1.0
102
RTVSPost2010PropOp39
 70
     1
102
RTVSPost2010Prop40
 90
        0
102
RTVSPost2010PropOp40
 70
     1
102
RTVSPost2010Prop41ColorIndex
 90
       18
102
RTVSPost2010Prop41ColorRGB
 90
        0
102
RTVSPost2010PropOp41
 70
     1
102
RTVSPost2010Prop42
 90
       50
102
RTVSPost2010PropOp42
 70
     1
102
RTVSPost2010Prop43
 90
        3
102
RTVSPost2010PropOp43
 70
     1
102
RTVSPost2010Prop44ColorIndex
 90
        5
102
RTVSPost2010Prop44ColorRGB
 90
      255
102
RTVSPost2010PropOp44
 70
     1
102
RTVSPost2010Prop45
280
     0
102
RTVSPost2010PropOp45
 70
     1
102
RTVSPost2010Prop46
 90
       50
102
RTVSPost2010PropOp46
 70
     1
102
RTVSPost2010Prop47
 90
       50
102
RTVSPost2010PropOp47
 70
     1
102
RTVSPost2010Prop48
 90
       50
102
RTVSPost2010PropOp48
 70
     1
102
RTVSPost2010Prop49
280
     0
102
RTVSPost2010PropOp49
 70
     1
102
RTVSPost2010Prop50
 90
       50
102
RTVSPost2010PropOp50
 70
     1
102
RTVSPost2010Prop51ColorIndex
 90
      256
102
RTVSPost2010Prop51ColorRGB
 90
-16777216
102
RTVSPost2010PropOp51
 70
     0
102
RTVSPost2010Prop52
140
1.0
102
RTVSPost2010PropOp52
 70
     0
102
RTVSPost2010Prop53
 90
        2
102
RTVSPost2010PropOp53
 70
     1
102
RTVSPost2010Prop54
  1
strokes_ogs.tif
102
RTVSPost2010PropOp54
 70
     1
102
RTVSPost2010Prop55
280
     0
102
RTVSPost2010PropOp55
 70
     1
102
RTVSPost2010Prop56
140
1.0
102
RTVSPost2010PropOp56
 70
     1
102
RTVSPost2010Prop57
140
1.0
102
RTVSPost2010PropOp57
 70
     1
102
RTVSPropertyOp0
 70
     1
102
RTVSPropertyOp1
 70
     1
102
RTVSPropertyOp2
 70
     1
102
RTVSPropertyOp3
 70
     1
102
RTVSPropertyOp4
 70
     1
102
RTVSPropertyOp5
 70
     1
102
RTVSPropertyOp6
 70
     1
102
RTVSPropertyOp7
 70
     1
102
RTVSPropertyOp8
 70
     1
102
RTVSPropertyOp9
 70
     1
102
RTVSPropertyOp10
 70
     1
102
RTVSPropertyOp11
 70
     1
102
RTVSPropertyOp12
 70
     1
102
RTVSPropertyOp13
 70
     1
102
RTVSPropertyOp14
 70
     1
102
RTVSPropertyOp15
 70
     1
102
RTVSPropertyOp16
 70
     1
102
RTVSPropertyOp17
 70
     1
102
RTVSPropertyOp18
 70
     1
102
RTVSPropertyOp19
 70
     1
102
RTVSPropertyOp20
 70
     1
102
RTVSPropertyOp21
 70
     1
102
RTVSPropertyOp22
 70
     1
102
RTVSPropertyOp23
 70
     1
102
RTVSPropertyOp24
 70
     1
102
RTVSPropertyOp25
 70
     1
102
RTVSPropertyOp26
 70
     1
102
RTVSPropertyOp27
 70
     1
102
RTVSPropertyOp28
 70
     1
102
RTVSPropertyOp29
 70
     1
102
RTVSPropertyOp30
 70
     1
102
RTVSPropertyOp31
 70
     1
102
RTVSPropertyOp32
 70
     1
102
RTVSPropertyOp33
 70
     1
102
RTVSPropertyOp34
 70
     1
102
RTVSPropertyOp35
 70
     1
102
RTVSPropertyOp36
 70
     1
102
RTVSPropertyOp37
 70
     1
102
RTVSPropertyOp38
 70
     1
102
RTVSPropertyOp39
 70
     1
102
RTVSPropertyOp40
 70
     1
102
RTVSPropertyOp41
 70
     1
102
RTVSPropertyOp42
 70
     1
102
RTVSPropertyOp43
 70
     1
102
RTVSPropertyOp44
 70
     1
102
RTVSPropertyOp45
 70
     1
102
RTVSPropertyOp46
 70
     1
102
RTVSPropertyOp47
 70
     1
102
RTVSPropertyOp48
 70
     1
102
RTVSPropertyOp49
 70
     1
102
RTVSPropertyOp50
 70
     1
102
RTVSPropertyOp51
 70
     0
102
RTVSPropertyOp52
 70
     0
102
RTVSPropertyOp53
 70
     1
102
RTVSPropertyOp54
 70
     1
102
RTVSPropertyOp55
 70
     1
102
RTVSPropertyOp56
 70
     1
102
RTVSPropertyOp57
 70
     1
102
RTVSPropertyOp58
 70
     1
102
RTVSPropertyOp59
 70
     1
102
RTVSPropertyOp60
 70
     1
102
RTVSPropertyOp61
 70
     1
102
RTVSPropertyOp62
 70
     1
  0
XRECORD
  5
9758
102
{ACAD_REACTORS
330
9757
102
}
330
9757
100
AcDbXrecord
280
     1
102
RTVSPost2010Prop28
280
     0
102
RTVSPost2010PropOp28
 70
     1
102
RTVSPost2010Prop29
280
     1
102
RTVSPost2010PropOp29
 70
     1
102
RTVSPost2010Prop30
280
     1
102
RTVSPost2010PropOp30
 70
     1
102
RTVSPost2010Prop31
280
     0
102
RTVSPost2010PropOp31
 70
     1
102
RTVSPost2010Prop32
280
     0
102
RTVSPost2010PropOp32
 70
     1
102
RTVSPost2010Prop33
280
     0
102
RTVSPost2010PropOp33
 70
     1
102
RTVSPost2010Prop34
280
     0
102
RTVSPost2010PropOp34
 70
     1
102
RTVSPost2010Prop35
280
     0
102
RTVSPost2010PropOp35
 70
     1
102
RTVSPost2010Prop36
280
     0
102
RTVSPost2010PropOp36
 70
     1
102
RTVSPost2010Prop37
 90
       50
102
RTVSPost2010PropOp37
 70
     1
102
RTVSPost2010Prop38
140
0.0
102
RTVSPost2010PropOp38
 70
     1
102
RTVSPost2010Prop39
140
1.0
102
RTVSPost2010PropOp39
 70
     1
102
RTVSPost2010Prop40
 90
        0
102
RTVSPost2010PropOp40
 70
     1
102
RTVSPost2010Prop41ColorIndex
 90
       18
102
RTVSPost2010Prop41ColorRGB
 90
        0
102
RTVSPost2010PropOp41
 70
     1
102
RTVSPost2010Prop42
 90
       50
102
RTVSPost2010PropOp42
 70
     1
102
RTVSPost2010Prop43
 90
        3
102
RTVSPost2010PropOp43
 70
     1
102
RTVSPost2010Prop44ColorIndex
 90
        5
102
RTVSPost2010Prop44ColorRGB
 90
      255
102
RTVSPost2010PropOp44
 70
     1
102
RTVSPost2010Prop45
280
     0
102
RTVSPost2010PropOp45
 70
     1
102
RTVSPost2010Prop46
 90
       50
102
RTVSPost2010PropOp46
 70
     1
102
RTVSPost2010Prop47
 90
       50
102
RTVSPost2010PropOp47
 70
     1
102
RTVSPost2010Prop48
 90
       50
102
RTVSPost2010PropOp48
 70
     1
102
RTVSPost2010Prop49
280
     0
102
RTVSPost2010PropOp49
 70
     1
102
RTVSPost2010Prop50
 90
       50
102
RTVSPost2010PropOp50
 70
     1
102
RTVSPost2010Prop51ColorIndex
 90
      256
102
RTVSPost2010Prop51ColorRGB
 90
-16777216
102
RTVSPost2010PropOp51
 70
     0
102
RTVSPost2010Prop52
140
1.0
102
RTVSPost2010PropOp52
 70
     0
102
RTVSPost2010Prop53
 90
        2
102
RTVSPost2010PropOp53
 70
     1
102
RTVSPost2010Prop54
  1
strokes_ogs.tif
102
RTVSPost2010PropOp54
 70
     1
102
RTVSPost2010Prop55
280
     0
102
RTVSPost2010PropOp55
 70
     1
102
RTVSPost2010Prop56
140
1.0
102
RTVSPost2010PropOp56
 70
     1
102
RTVSPost2010Prop57
140
1.0
102
RTVSPost2010PropOp57
 70
     1
102
RTVSPropertyOp0
 70
     1
102
RTVSPropertyOp1
 70
     1
102
RTVSPropertyOp2
 70
     1
102
RTVSPropertyOp3
 70
     1
102
RTVSPropertyOp4
 70
     1
102
RTVSPropertyOp5
 70
     1
102
RTVSPropertyOp6
 70
     1
102
RTVSPropertyOp7
 70
     1
102
RTVSPropertyOp8
 70
     1
102
RTVSPropertyOp9
 70
     1
102
RTVSPropertyOp10
 70
     1
102
RTVSPropertyOp11
 70
     1
102
RTVSPropertyOp12
 70
     1
102
RTVSPropertyOp13
 70
     1
102
RTVSPropertyOp14
 70
     1
102
RTVSPropertyOp15
 70
     1
102
RTVSPropertyOp16
 70
     1
102
RTVSPropertyOp17
 70
     1
102
RTVSPropertyOp18
 70
     1
102
RTVSPropertyOp19
 70
     1
102
RTVSPropertyOp20
 70
     1
102
RTVSPropertyOp21
 70
     1
102
RTVSPropertyOp22
 70
     1
102
RTVSPropertyOp23
 70
     1
102
RTVSPropertyOp24
 70
     1
102
RTVSPropertyOp25
 70
     1
102
RTVSPropertyOp26
 70
     1
102
RTVSPropertyOp27
 70
     1
102
RTVSPropertyOp28
 70
     1
102
RTVSPropertyOp29
 70
     1
102
RTVSPropertyOp30
 70
     1
102
RTVSPropertyOp31
 70
     1
102
RTVSPropertyOp32
 70
     1
102
RTVSPropertyOp33
 70
     1
102
RTVSPropertyOp34
 70
     1
102
RTVSPropertyOp35
 70
     1
102
RTVSPropertyOp36
 70
     1
102
RTVSPropertyOp37
 70
     1
102
RTVSPropertyOp38
 70
     1
102
RTVSPropertyOp39
 70
     1
102
RTVSPropertyOp40
 70
     1
102
RTVSPropertyOp41
 70
     1
102
RTVSPropertyOp42
 70
     1
102
RTVSPropertyOp43
 70
     1
102
RTVSPropertyOp44
 70
     1
102
RTVSPropertyOp45
 70
     1
102
RTVSPropertyOp46
 70
     1
102
RTVSPropertyOp47
 70
     1
102
RTVSPropertyOp48
 70
     1
102
RTVSPropertyOp49
 70
     1
102
RTVSPropertyOp50
 70
     1
102
RTVSPropertyOp51
 70
     0
102
RTVSPropertyOp52
 70
     0
102
RTVSPropertyOp53
 70
     1
102
RTVSPropertyOp54
 70
     1
102
RTVSPropertyOp55
 70
     1
102
RTVSPropertyOp56
 70
     1
102
RTVSPropertyOp57
 70
     1
102
RTVSPropertyOp58
 70
     1
102
RTVSPropertyOp59
 70
     1
102
RTVSPropertyOp60
 70
     1
102
RTVSPropertyOp61
 70
     1
102
RTVSPropertyOp62
 70
     1
  0
XRECORD
  5
975A
102
{ACAD_REACTORS
330
9759
102
}
330
9759
100
AcDbXrecord
280
     1
102
RTVSPost2010Prop28
280
     0
102
RTVSPost2010PropOp28
 70
     1
102
RTVSPost2010Prop29
280
     1
102
RTVSPost2010PropOp29
 70
     1
102
RTVSPost2010Prop30
280
     1
102
RTVSPost2010PropOp30
 70
     1
102
RTVSPost2010Prop31
280
     0
102
RTVSPost2010PropOp31
 70
     1
102
RTVSPost2010Prop32
280
     0
102
RTVSPost2010PropOp32
 70
     1
102
RTVSPost2010Prop33
280
     0
102
RTVSPost2010PropOp33
 70
     1
102
RTVSPost2010Prop34
280
     0
102
RTVSPost2010PropOp34
 70
     1
102
RTVSPost2010Prop35
280
     0
102
RTVSPost2010PropOp35
 70
     1
102
RTVSPost2010Prop36
280
     0
102
RTVSPost2010PropOp36
 70
     1
102
RTVSPost2010Prop37
 90
       50
102
RTVSPost2010PropOp37
 70
     1
102
RTVSPost2010Prop38
140
0.0
102
RTVSPost2010PropOp38
 70
     1
102
RTVSPost2010Prop39
140
1.0
102
RTVSPost2010PropOp39
 70
     1
102
RTVSPost2010Prop40
 90
        0
102
RTVSPost2010PropOp40
 70
     1
102
RTVSPost2010Prop41ColorIndex
 90
       18
102
RTVSPost2010Prop41ColorRGB
 90
        0
102
RTVSPost2010PropOp41
 70
     1
102
RTVSPost2010Prop42
 90
       50
102
RTVSPost2010PropOp42
 70
     1
102
RTVSPost2010Prop43
 90
        3
102
RTVSPost2010PropOp43
 70
     1
102
RTVSPost2010Prop44ColorIndex
 90
        5
102
RTVSPost2010Prop44ColorRGB
 90
      255
102
RTVSPost2010PropOp44
 70
     1
102
RTVSPost2010Prop45
280
     0
102
RTVSPost2010PropOp45
 70
     1
102
RTVSPost2010Prop46
 90
       50
102
RTVSPost2010PropOp46
 70
     1
102
RTVSPost2010Prop47
 90
       50
102
RTVSPost2010PropOp47
 70
     1
102
RTVSPost2010Prop48
 90
       50
102
RTVSPost2010PropOp48
 70
     1
102
RTVSPost2010Prop49
280
     0
102
RTVSPost2010PropOp49
 70
     1
102
RTVSPost2010Prop50
 90
       50
102
RTVSPost2010PropOp50
 70
     1
102
RTVSPost2010Prop51ColorIndex
 90
      256
102
RTVSPost2010Prop51ColorRGB
 90
-16777216
102
RTVSPost2010PropOp51
 70
     0
102
RTVSPost2010Prop52
140
1.0
102
RTVSPost2010PropOp52
 70
     0
102
RTVSPost2010Prop53
 90
        2
102
RTVSPost2010PropOp53
 70
     1
102
RTVSPost2010Prop54
  1
strokes_ogs.tif
102
RTVSPost2010PropOp54
 70
     1
102
RTVSPost2010Prop55
280
     0
102
RTVSPost2010PropOp55
 70
     1
102
RTVSPost2010Prop56
140
1.0
102
RTVSPost2010PropOp56
 70
     1
102
RTVSPost2010Prop57
140
1.0
102
RTVSPost2010PropOp57
 70
     1
102
RTVSPropertyOp0
 70
     1
102
RTVSPropertyOp1
 70
     1
102
RTVSPropertyOp2
 70
     1
102
RTVSPropertyOp3
 70
     1
102
RTVSPropertyOp4
 70
     1
102
RTVSPropertyOp5
 70
     1
102
RTVSPropertyOp6
 70
     1
102
RTVSPropertyOp7
 70
     1
102
RTVSPropertyOp8
 70
     1
102
RTVSPropertyOp9
 70
     1
102
RTVSPropertyOp10
 70
     1
102
RTVSPropertyOp11
 70
     1
102
RTVSPropertyOp12
 70
     1
102
RTVSPropertyOp13
 70
     1
102
RTVSPropertyOp14
 70
     1
102
RTVSPropertyOp15
 70
     1
102
RTVSPropertyOp16
 70
     1
102
RTVSPropertyOp17
 70
     1
102
RTVSPropertyOp18
 70
     1
102
RTVSPropertyOp19
 70
     1
102
RTVSPropertyOp20
 70
     1
102
RTVSPropertyOp21
 70
     1
102
RTVSPropertyOp22
 70
     1
102
RTVSPropertyOp23
 70
     1
102
RTVSPropertyOp24
 70
     1
102
RTVSPropertyOp25
 70
     1
102
RTVSPropertyOp26
 70
     1
102
RTVSPropertyOp27
 70
     1
102
RTVSPropertyOp28
 70
     1
102
RTVSPropertyOp29
 70
     1
102
RTVSPropertyOp30
 70
     1
102
RTVSPropertyOp31
 70
     1
102
RTVSPropertyOp32
 70
     1
102
RTVSPropertyOp33
 70
     1
102
RTVSPropertyOp34
 70
     1
102
RTVSPropertyOp35
 70
     1
102
RTVSPropertyOp36
 70
     1
102
RTVSPropertyOp37
 70
     1
102
RTVSPropertyOp38
 70
     1
102
RTVSPropertyOp39
 70
     1
102
RTVSPropertyOp40
 70
     1
102
RTVSPropertyOp41
 70
     1
102
RTVSPropertyOp42
 70
     1
102
RTVSPropertyOp43
 70
     1
102
RTVSPropertyOp44
 70
     1
102
RTVSPropertyOp45
 70
     1
102
RTVSPropertyOp46
 70
     1
102
RTVSPropertyOp47
 70
     1
102
RTVSPropertyOp48
 70
     1
102
RTVSPropertyOp49
 70
     1
102
RTVSPropertyOp50
 70
     1
102
RTVSPropertyOp51
 70
     0
102
RTVSPropertyOp52
 70
     0
102
RTVSPropertyOp53
 70
     1
102
RTVSPropertyOp54
 70
     1
102
RTVSPropertyOp55
 70
     1
102
RTVSPropertyOp56
 70
     1
102
RTVSPropertyOp57
 70
     1
102
RTVSPropertyOp58
 70
     1
102
RTVSPropertyOp59
 70
     1
102
RTVSPropertyOp60
 70
     1
102
RTVSPropertyOp61
 70
     1
102
RTVSPropertyOp62
 70
     1
  0
XRECORD
  5
975C
102
{ACAD_REACTORS
330
975B
102
}
330
975B
100
AcDbXrecord
280
     1
102
RTVSPost2010Prop28
280
     0
102
RTVSPost2010PropOp28
 70
     1
102
RTVSPost2010Prop29
280
     1
102
RTVSPost2010PropOp29
 70
     1
102
RTVSPost2010Prop30
280
     1
102
RTVSPost2010PropOp30
 70
     1
102
RTVSPost2010Prop31
280
     0
102
RTVSPost2010PropOp31
 70
     1
102
RTVSPost2010Prop32
280
     0
102
RTVSPost2010PropOp32
 70
     1
102
RTVSPost2010Prop33
280
     0
102
RTVSPost2010PropOp33
 70
     1
102
RTVSPost2010Prop34
280
     0
102
RTVSPost2010PropOp34
 70
     1
102
RTVSPost2010Prop35
280
     0
102
RTVSPost2010PropOp35
 70
     1
102
RTVSPost2010Prop36
280
     0
102
RTVSPost2010PropOp36
 70
     1
102
RTVSPost2010Prop37
 90
       50
102
RTVSPost2010PropOp37
 70
     1
102
RTVSPost2010Prop38
140
0.0
102
RTVSPost2010PropOp38
 70
     1
102
RTVSPost2010Prop39
140
1.0
102
RTVSPost2010PropOp39
 70
     1
102
RTVSPost2010Prop40
 90
        0
102
RTVSPost2010PropOp40
 70
     1
102
RTVSPost2010Prop41ColorIndex
 90
       18
102
RTVSPost2010Prop41ColorRGB
 90
        0
102
RTVSPost2010PropOp41
 70
     1
102
RTVSPost2010Prop42
 90
       50
102
RTVSPost2010PropOp42
 70
     1
102
RTVSPost2010Prop43
 90
        3
102
RTVSPost2010PropOp43
 70
     1
102
RTVSPost2010Prop44ColorIndex
 90
        5
102
RTVSPost2010Prop44ColorRGB
 90
      255
102
RTVSPost2010PropOp44
 70
     1
102
RTVSPost2010Prop45
280
     0
102
RTVSPost2010PropOp45
 70
     1
102
RTVSPost2010Prop46
 90
       50
102
RTVSPost2010PropOp46
 70
     1
102
RTVSPost2010Prop47
 90
       50
102
RTVSPost2010PropOp47
 70
     1
102
RTVSPost2010Prop48
 90
       50
102
RTVSPost2010PropOp48
 70
     1
102
RTVSPost2010Prop49
280
     0
102
RTVSPost2010PropOp49
 70
     1
102
RTVSPost2010Prop50
 90
       50
102
RTVSPost2010PropOp50
 70
     1
102
RTVSPost2010Prop51ColorIndex
 90
      256
102
RTVSPost2010Prop51ColorRGB
 90
-16777216
102
RTVSPost2010PropOp51
 70
     0
102
RTVSPost2010Prop52
140
1.0
102
RTVSPost2010PropOp52
 70
     0
102
RTVSPost2010Prop53
 90
        2
102
RTVSPost2010PropOp53
 70
     1
102
RTVSPost2010Prop54
  1
strokes_ogs.tif
102
RTVSPost2010PropOp54
 70
     1
102
RTVSPost2010Prop55
280
     0
102
RTVSPost2010PropOp55
 70
     1
102
RTVSPost2010Prop56
140
1.0
102
RTVSPost2010PropOp56
 70
     1
102
RTVSPost2010Prop57
140
1.0
102
RTVSPost2010PropOp57
 70
     1
102
RTVSPropertyOp0
 70
     1
102
RTVSPropertyOp1
 70
     1
102
RTVSPropertyOp2
 70
     1
102
RTVSPropertyOp3
 70
     1
102
RTVSPropertyOp4
 70
     1
102
RTVSPropertyOp5
 70
     1
102
RTVSPropertyOp6
 70
     1
102
RTVSPropertyOp7
 70
     1
102
RTVSPropertyOp8
 70
     1
102
RTVSPropertyOp9
 70
     1
102
RTVSPropertyOp10
 70
     1
102
RTVSPropertyOp11
 70
     1
102
RTVSPropertyOp12
 70
     1
102
RTVSPropertyOp13
 70
     1
102
RTVSPropertyOp14
 70
     1
102
RTVSPropertyOp15
 70
     1
102
RTVSPropertyOp16
 70
     1
102
RTVSPropertyOp17
 70
     1
102
RTVSPropertyOp18
 70
     1
102
RTVSPropertyOp19
 70
     1
102
RTVSPropertyOp20
 70
     1
102
RTVSPropertyOp21
 70
     1
102
RTVSPropertyOp22
 70
     1
102
RTVSPropertyOp23
 70
     1
102
RTVSPropertyOp24
 70
     1
102
RTVSPropertyOp25
 70
     1
102
RTVSPropertyOp26
 70
     1
102
RTVSPropertyOp27
 70
     1
102
RTVSPropertyOp28
 70
     1
102
RTVSPropertyOp29
 70
     1
102
RTVSPropertyOp30
 70
     1
102
RTVSPropertyOp31
 70
     1
102
RTVSPropertyOp32
 70
     1
102
RTVSPropertyOp33
 70
     1
102
RTVSPropertyOp34
 70
     1
102
RTVSPropertyOp35
 70
     1
102
RTVSPropertyOp36
 70
     1
102
RTVSPropertyOp37
 70
     1
102
RTVSPropertyOp38
 70
     1
102
RTVSPropertyOp39
 70
     1
102
RTVSPropertyOp40
 70
     1
102
RTVSPropertyOp41
 70
     1
102
RTVSPropertyOp42
 70
     1
102
RTVSPropertyOp43
 70
     1
102
RTVSPropertyOp44
 70
     1
102
RTVSPropertyOp45
 70
     1
102
RTVSPropertyOp46
 70
     1
102
RTVSPropertyOp47
 70
     1
102
RTVSPropertyOp48
 70
     1
102
RTVSPropertyOp49
 70
     1
102
RTVSPropertyOp50
 70
     1
102
RTVSPropertyOp51
 70
     0
102
RTVSPropertyOp52
 70
     0
102
RTVSPropertyOp53
 70
     1
102
RTVSPropertyOp54
 70
     1
102
RTVSPropertyOp55
 70
     1
102
RTVSPropertyOp56
 70
     1
102
RTVSPropertyOp57
 70
     1
102
RTVSPropertyOp58
 70
     1
102
RTVSPropertyOp59
 70
     1
102
RTVSPropertyOp60
 70
     1
102
RTVSPropertyOp61
 70
     1
102
RTVSPropertyOp62
 70
     1
  0
XRECORD
  5
975E
102
{ACAD_REACTORS
330
975D
102
}
330
975D
100
AcDbXrecord
280
     1
102
RTVSPost2010Prop28
280
     0
102
RTVSPost2010PropOp28
 70
     1
102
RTVSPost2010Prop29
280
     1
102
RTVSPost2010PropOp29
 70
     1
102
RTVSPost2010Prop30
280
     1
102
RTVSPost2010PropOp30
 70
     1
102
RTVSPost2010Prop31
280
     0
102
RTVSPost2010PropOp31
 70
     1
102
RTVSPost2010Prop32
280
     0
102
RTVSPost2010PropOp32
 70
     1
102
RTVSPost2010Prop33
280
     0
102
RTVSPost2010PropOp33
 70
     1
102
RTVSPost2010Prop34
280
     0
102
RTVSPost2010PropOp34
 70
     1
102
RTVSPost2010Prop35
280
     0
102
RTVSPost2010PropOp35
 70
     1
102
RTVSPost2010Prop36
280
     0
102
RTVSPost2010PropOp36
 70
     1
102
RTVSPost2010Prop37
 90
       50
102
RTVSPost2010PropOp37
 70
     1
102
RTVSPost2010Prop38
140
0.0
102
RTVSPost2010PropOp38
 70
     1
102
RTVSPost2010Prop39
140
1.0
102
RTVSPost2010PropOp39
 70
     1
102
RTVSPost2010Prop40
 90
        0
102
RTVSPost2010PropOp40
 70
     1
102
RTVSPost2010Prop41ColorIndex
 90
       18
102
RTVSPost2010Prop41ColorRGB
 90
        0
102
RTVSPost2010PropOp41
 70
     1
102
RTVSPost2010Prop42
 90
       50
102
RTVSPost2010PropOp42
 70
     1
102
RTVSPost2010Prop43
 90
        3
102
RTVSPost2010PropOp43
 70
     1
102
RTVSPost2010Prop44ColorIndex
 90
        5
102
RTVSPost2010Prop44ColorRGB
 90
      255
102
RTVSPost2010PropOp44
 70
     1
102
RTVSPost2010Prop45
280
     0
102
RTVSPost2010PropOp45
 70
     1
102
RTVSPost2010Prop46
 90
       50
102
RTVSPost2010PropOp46
 70
     1
102
RTVSPost2010Prop47
 90
       50
102
RTVSPost2010PropOp47
 70
     1
102
RTVSPost2010Prop48
 90
       50
102
RTVSPost2010PropOp48
 70
     1
102
RTVSPost2010Prop49
280
     0
102
RTVSPost2010PropOp49
 70
     1
102
RTVSPost2010Prop50
 90
       50
102
RTVSPost2010PropOp50
 70
     1
102
RTVSPost2010Prop51ColorIndex
 90
      256
102
RTVSPost2010Prop51ColorRGB
 90
-16777216
102
RTVSPost2010PropOp51
 70
     0
102
RTVSPost2010Prop52
140
1.0
102
RTVSPost2010PropOp52
 70
     0
102
RTVSPost2010Prop53
 90
        2
102
RTVSPost2010PropOp53
 70
     1
102
RTVSPost2010Prop54
  1
strokes_ogs.tif
102
RTVSPost2010PropOp54
 70
     1
102
RTVSPost2010Prop55
280
     0
102
RTVSPost2010PropOp55
 70
     1
102
RTVSPost2010Prop56
140
1.0
102
RTVSPost2010PropOp56
 70
     1
102
RTVSPost2010Prop57
140
1.0
102
RTVSPost2010PropOp57
 70
     1
102
RTVSPropertyOp0
 70
     1
102
RTVSPropertyOp1
 70
     1
102
RTVSPropertyOp2
 70
     1
102
RTVSPropertyOp3
 70
     1
102
RTVSPropertyOp4
 70
     1
102
RTVSPropertyOp5
 70
     1
102
RTVSPropertyOp6
 70
     1
102
RTVSPropertyOp7
 70
     1
102
RTVSPropertyOp8
 70
     1
102
RTVSPropertyOp9
 70
     1
102
RTVSPropertyOp10
 70
     1
102
RTVSPropertyOp11
 70
     1
102
RTVSPropertyOp12
 70
     1
102
RTVSPropertyOp13
 70
     1
102
RTVSPropertyOp14
 70
     1
102
RTVSPropertyOp15
 70
     1
102
RTVSPropertyOp16
 70
     1
102
RTVSPropertyOp17
 70
     1
102
RTVSPropertyOp18
 70
     1
102
RTVSPropertyOp19
 70
     1
102
RTVSPropertyOp20
 70
     1
102
RTVSPropertyOp21
 70
     1
102
RTVSPropertyOp22
 70
     1
102
RTVSPropertyOp23
 70
     1
102
RTVSPropertyOp24
 70
     1
102
RTVSPropertyOp25
 70
     1
102
RTVSPropertyOp26
 70
     1
102
RTVSPropertyOp27
 70
     1
102
RTVSPropertyOp28
 70
     1
102
RTVSPropertyOp29
 70
     1
102
RTVSPropertyOp30
 70
     1
102
RTVSPropertyOp31
 70
     1
102
RTVSPropertyOp32
 70
     1
102
RTVSPropertyOp33
 70
     1
102
RTVSPropertyOp34
 70
     1
102
RTVSPropertyOp35
 70
     1
102
RTVSPropertyOp36
 70
     1
102
RTVSPropertyOp37
 70
     1
102
RTVSPropertyOp38
 70
     1
102
RTVSPropertyOp39
 70
     1
102
RTVSPropertyOp40
 70
     1
102
RTVSPropertyOp41
 70
     1
102
RTVSPropertyOp42
 70
     1
102
RTVSPropertyOp43
 70
     1
102
RTVSPropertyOp44
 70
     1
102
RTVSPropertyOp45
 70
     1
102
RTVSPropertyOp46
 70
     1
102
RTVSPropertyOp47
 70
     1
102
RTVSPropertyOp48
 70
     1
102
RTVSPropertyOp49
 70
     1
102
RTVSPropertyOp50
 70
     1
102
RTVSPropertyOp51
 70
     0
102
RTVSPropertyOp52
 70
     0
102
RTVSPropertyOp53
 70
     1
102
RTVSPropertyOp54
 70
     1
102
RTVSPropertyOp55
 70
     1
102
RTVSPropertyOp56
 70
     1
102
RTVSPropertyOp57
 70
     1
102
RTVSPropertyOp58
 70
     1
102
RTVSPropertyOp59
 70
     1
102
RTVSPropertyOp60
 70
     1
102
RTVSPropertyOp61
 70
     1
102
RTVSPropertyOp62
 70
     1
  0
XRECORD
  5
9766
102
{ACAD_REACTORS
330
9765
102
}
330
9765
100
AcDbXrecord
280
     1
102
RTVSPost2010Prop28
280
     0
102
RTVSPost2010PropOp28
 70
     1
102
RTVSPost2010Prop29
280
     1
102
RTVSPost2010PropOp29
 70
     1
102
RTVSPost2010Prop30
280
     1
102
RTVSPost2010PropOp30
 70
     1
102
RTVSPost2010Prop31
280
     0
102
RTVSPost2010PropOp31
 70
     1
102
RTVSPost2010Prop32
280
     0
102
RTVSPost2010PropOp32
 70
     1
102
RTVSPost2010Prop33
280
     0
102
RTVSPost2010PropOp33
 70
     1
102
RTVSPost2010Prop34
280
     0
102
RTVSPost2010PropOp34
 70
     1
102
RTVSPost2010Prop35
280
     0
102
RTVSPost2010PropOp35
 70
     1
102
RTVSPost2010Prop36
280
     0
102
RTVSPost2010PropOp36
 70
     1
102
RTVSPost2010Prop37
 90
       50
102
RTVSPost2010PropOp37
 70
     1
102
RTVSPost2010Prop38
140
0.0
102
RTVSPost2010PropOp38
 70
     1
102
RTVSPost2010Prop39
140
1.0
102
RTVSPost2010PropOp39
 70
     1
102
RTVSPost2010Prop40
 90
        0
102
RTVSPost2010PropOp40
 70
     1
102
RTVSPost2010Prop41ColorIndex
 90
       18
102
RTVSPost2010Prop41ColorRGB
 90
        0
102
RTVSPost2010PropOp41
 70
     1
102
RTVSPost2010Prop42
 90
       50
102
RTVSPost2010PropOp42
 70
     1
102
RTVSPost2010Prop43
 90
        3
102
RTVSPost2010PropOp43
 70
     1
102
RTVSPost2010Prop44ColorIndex
 90
        5
102
RTVSPost2010Prop44ColorRGB
 90
      255
102
RTVSPost2010PropOp44
 70
     1
102
RTVSPost2010Prop45
280
     0
102
RTVSPost2010PropOp45
 70
     1
102
RTVSPost2010Prop46
 90
       50
102
RTVSPost2010PropOp46
 70
     1
102
RTVSPost2010Prop47
 90
       50
102
RTVSPost2010PropOp47
 70
     1
102
RTVSPost2010Prop48
 90
       50
102
RTVSPost2010PropOp48
 70
     1
102
RTVSPost2010Prop49
280
     0
102
RTVSPost2010PropOp49
 70
     1
102
RTVSPost2010Prop50
 90
       50
102
RTVSPost2010PropOp50
 70
     1
102
RTVSPost2010Prop51ColorIndex
 90
      256
102
RTVSPost2010Prop51ColorRGB
 90
-16777216
102
RTVSPost2010PropOp51
 70
     0
102
RTVSPost2010Prop52
140
1.0
102
RTVSPost2010PropOp52
 70
     0
102
RTVSPost2010Prop53
 90
        2
102
RTVSPost2010PropOp53
 70
     1
102
RTVSPost2010Prop54
  1
strokes_ogs.tif
102
RTVSPost2010PropOp54
 70
     1
102
RTVSPost2010Prop55
280
     0
102
RTVSPost2010PropOp55
 70
     1
102
RTVSPost2010Prop56
140
1.0
102
RTVSPost2010PropOp56
 70
     1
102
RTVSPost2010Prop57
140
1.0
102
RTVSPost2010PropOp57
 70
     1
102
RTVSPropertyOp0
 70
     1
102
RTVSPropertyOp1
 70
     1
102
RTVSPropertyOp2
 70
     1
102
RTVSPropertyOp3
 70
     1
102
RTVSPropertyOp4
 70
     1
102
RTVSPropertyOp5
 70
     1
102
RTVSPropertyOp6
 70
     1
102
RTVSPropertyOp7
 70
     1
102
RTVSPropertyOp8
 70
     1
102
RTVSPropertyOp9
 70
     1
102
RTVSPropertyOp10
 70
     1
102
RTVSPropertyOp11
 70
     1
102
RTVSPropertyOp12
 70
     1
102
RTVSPropertyOp13
 70
     1
102
RTVSPropertyOp14
 70
     1
102
RTVSPropertyOp15
 70
     1
102
RTVSPropertyOp16
 70
     1
102
RTVSPropertyOp17
 70
     1
102
RTVSPropertyOp18
 70
     1
102
RTVSPropertyOp19
 70
     1
102
RTVSPropertyOp20
 70
     1
102
RTVSPropertyOp21
 70
     1
102
RTVSPropertyOp22
 70
     1
102
RTVSPropertyOp23
 70
     1
102
RTVSPropertyOp24
 70
     1
102
RTVSPropertyOp25
 70
     1
102
RTVSPropertyOp26
 70
     1
102
RTVSPropertyOp27
 70
     1
102
RTVSPropertyOp28
 70
     1
102
RTVSPropertyOp29
 70
     1
102
RTVSPropertyOp30
 70
     1
102
RTVSPropertyOp31
 70
     1
102
RTVSPropertyOp32
 70
     1
102
RTVSPropertyOp33
 70
     1
102
RTVSPropertyOp34
 70
     1
102
RTVSPropertyOp35
 70
     1
102
RTVSPropertyOp36
 70
     1
102
RTVSPropertyOp37
 70
     1
102
RTVSPropertyOp38
 70
     1
102
RTVSPropertyOp39
 70
     1
102
RTVSPropertyOp40
 70
     1
102
RTVSPropertyOp41
 70
     1
102
RTVSPropertyOp42
 70
     1
102
RTVSPropertyOp43
 70
     1
102
RTVSPropertyOp44
 70
     1
102
RTVSPropertyOp45
 70
     1
102
RTVSPropertyOp46
 70
     1
102
RTVSPropertyOp47
 70
     1
102
RTVSPropertyOp48
 70
     1
102
RTVSPropertyOp49
 70
     1
102
RTVSPropertyOp50
 70
     1
102
RTVSPropertyOp51
 70
     0
102
RTVSPropertyOp52
 70
     0
102
RTVSPropertyOp53
 70
     1
102
RTVSPropertyOp54
 70
     1
102
RTVSPropertyOp55
 70
     1
102
RTVSPropertyOp56
 70
     1
102
RTVSPropertyOp57
 70
     1
102
RTVSPropertyOp58
 70
     1
102
RTVSPropertyOp59
 70
     1
102
RTVSPropertyOp60
 70
     1
102
RTVSPropertyOp61
 70
     1
102
RTVSPropertyOp62
 70
     1
  0
XRECORD
  5
9782
102
{ACAD_REACTORS
330
9781
102
}
330
9781
100
AcDbXrecord
280
     1
102
RTVSPost2010Prop28
280
     0
102
RTVSPost2010PropOp28
 70
     1
102
RTVSPost2010Prop29
280
     1
102
RTVSPost2010PropOp29
 70
     1
102
RTVSPost2010Prop30
280
     1
102
RTVSPost2010PropOp30
 70
     1
102
RTVSPost2010Prop31
280
     0
102
RTVSPost2010PropOp31
 70
     1
102
RTVSPost2010Prop32
280
     0
102
RTVSPost2010PropOp32
 70
     1
102
RTVSPost2010Prop33
280
     0
102
RTVSPost2010PropOp33
 70
     1
102
RTVSPost2010Prop34
280
     0
102
RTVSPost2010PropOp34
 70
     1
102
RTVSPost2010Prop35
280
     0
102
RTVSPost2010PropOp35
 70
     1
102
RTVSPost2010Prop36
280
     0
102
RTVSPost2010PropOp36
 70
     1
102
RTVSPost2010Prop37
 90
       50
102
RTVSPost2010PropOp37
 70
     0
102
RTVSPost2010Prop38
140
0.0
102
RTVSPost2010PropOp38
 70
     0
102
RTVSPost2010Prop39
140
1.0
102
RTVSPost2010PropOp39
 70
     0
102
RTVSPost2010Prop40
 90
        0
102
RTVSPost2010PropOp40
 70
     0
102
RTVSPost2010Prop41ColorIndex
 90
       18
102
RTVSPost2010Prop41ColorRGB
 90
        0
102
RTVSPost2010PropOp41
 70
     0
102
RTVSPost2010Prop42
 90
       50
102
RTVSPost2010PropOp42
 70
     0
102
RTVSPost2010Prop43
 90
        3
102
RTVSPost2010PropOp43
 70
     0
102
RTVSPost2010Prop44ColorIndex
 90
        5
102
RTVSPost2010Prop44ColorRGB
 90
      255
102
RTVSPost2010PropOp44
 70
     0
102
RTVSPost2010Prop45
280
     0
102
RTVSPost2010PropOp45
 70
     1
102
RTVSPost2010Prop46
 90
       50
102
RTVSPost2010PropOp46
 70
     0
102
RTVSPost2010Prop47
 90
       50
102
RTVSPost2010PropOp47
 70
     0
102
RTVSPost2010Prop48
 90
       50
102
RTVSPost2010PropOp48
 70
     0
102
RTVSPost2010Prop49
280
     0
102
RTVSPost2010PropOp49
 70
     1
102
RTVSPost2010Prop50
 90
       50
102
RTVSPost2010PropOp50
 70
     0
102
RTVSPost2010Prop51ColorIndex
 90
      256
102
RTVSPost2010Prop51ColorRGB
 90
-16777216
102
RTVSPost2010PropOp51
 70
     0
102
RTVSPost2010Prop52
140
1.0
102
RTVSPost2010PropOp52
 70
     0
102
RTVSPost2010Prop53
 90
        2
102
RTVSPost2010PropOp53
 70
     0
102
RTVSPost2010Prop54
  1
strokes_ogs.tif
102
RTVSPost2010PropOp54
 70
     0
102
RTVSPost2010Prop55
280
     0
102
RTVSPost2010PropOp55
 70
     1
102
RTVSPost2010Prop56
140
1.0
102
RTVSPost2010PropOp56
 70
     0
102
RTVSPost2010Prop57
140
1.0
102
RTVSPost2010PropOp57
 70
     0
102
RTVSPropertyOp0
 70
     0
102
RTVSPropertyOp1
 70
     0
102
RTVSPropertyOp2
 70
     0
102
RTVSPropertyOp3
 70
     0
102
RTVSPropertyOp4
 70
     0
102
RTVSPropertyOp5
 70
     0
102
RTVSPropertyOp6
 70
     0
102
RTVSPropertyOp7
 70
     0
102
RTVSPropertyOp8
 70
     0
102
RTVSPropertyOp9
 70
     0
102
RTVSPropertyOp10
 70
     0
102
RTVSPropertyOp11
 70
     0
102
RTVSPropertyOp12
 70
     0
102
RTVSPropertyOp13
 70
     0
102
RTVSPropertyOp14
 70
     2
102
RTVSPropertyOp15
 70
     0
102
RTVSPropertyOp16
 70
     0
102
RTVSPropertyOp17
 70
     0
102
RTVSPropertyOp18
 70
     0
102
RTVSPropertyOp19
 70
     0
102
RTVSPropertyOp20
 70
     0
102
RTVSPropertyOp21
 70
     0
102
RTVSPropertyOp22
 70
     0
102
RTVSPropertyOp23
 70
     0
102
RTVSPropertyOp24
 70
     0
102
RTVSPropertyOp25
 70
     0
102
RTVSPropertyOp26
 70
     0
102
RTVSPropertyOp27
 70
     0
102
RTVSPropertyOp28
 70
     1
102
RTVSPropertyOp29
 70
     1
102
RTVSPropertyOp30
 70
     1
102
RTVSPropertyOp31
 70
     1
102
RTVSPropertyOp32
 70
     1
102
RTVSPropertyOp33
 70
     1
102
RTVSPropertyOp34
 70
     1
102
RTVSPropertyOp35
 70
     1
102
RTVSPropertyOp36
 70
     1
102
RTVSPropertyOp37
 70
     0
102
RTVSPropertyOp38
 70
     0
102
RTVSPropertyOp39
 70
     0
102
RTVSPropertyOp40
 70
     0
102
RTVSPropertyOp41
 70
     0
102
RTVSPropertyOp42
 70
     0
102
RTVSPropertyOp43
 70
     0
102
RTVSPropertyOp44
 70
     0
102
RTVSPropertyOp45
 70
     1
102
RTVSPropertyOp46
 70
     0
102
RTVSPropertyOp47
 70
     0
102
RTVSPropertyOp48
 70
     0
102
RTVSPropertyOp49
 70
     1
102
RTVSPropertyOp50
 70
     0
102
RTVSPropertyOp51
 70
     0
102
RTVSPropertyOp52
 70
     0
102
RTVSPropertyOp53
 70
     0
102
RTVSPropertyOp54
 70
     0
102
RTVSPropertyOp55
 70
     1
102
RTVSPropertyOp56
 70
     0
102
RTVSPropertyOp57
 70
     0
102
RTVSPropertyOp58
 70
     0
102
RTVSPropertyOp59
 70
     0
102
RTVSPropertyOp60
 70
     0
102
RTVSPropertyOp61
 70
     0
102
RTVSPropertyOp62
 70
     0
  0
XRECORD
  5
9772
102
{ACAD_REACTORS
330
9771
102
}
330
9771
100
AcDbXrecord
280
     1
102
RTVSPost2010Prop28
280
     0
102
RTVSPost2010PropOp28
 70
     1
102
RTVSPost2010Prop29
280
     1
102
RTVSPost2010PropOp29
 70
     1
102
RTVSPost2010Prop30
280
     1
102
RTVSPost2010PropOp30
 70
     1
102
RTVSPost2010Prop31
280
     0
102
RTVSPost2010PropOp31
 70
     1
102
RTVSPost2010Prop32
280
     0
102
RTVSPost2010PropOp32
 70
     1
102
RTVSPost2010Prop33
280
     0
102
RTVSPost2010PropOp33
 70
     1
102
RTVSPost2010Prop34
280
     0
102
RTVSPost2010PropOp34
 70
     1
102
RTVSPost2010Prop35
280
     0
102
RTVSPost2010PropOp35
 70
     1
102
RTVSPost2010Prop36
280
     0
102
RTVSPost2010PropOp36
 70
     1
102
RTVSPost2010Prop37
 90
       50
102
RTVSPost2010PropOp37
 70
     1
102
RTVSPost2010Prop38
140
0.0
102
RTVSPost2010PropOp38
 70
     1
102
RTVSPost2010Prop39
140
1.0
102
RTVSPost2010PropOp39
 70
     1
102
RTVSPost2010Prop40
 90
        0
102
RTVSPost2010PropOp40
 70
     1
102
RTVSPost2010Prop41ColorIndex
 90
       18
102
RTVSPost2010Prop41ColorRGB
 90
        0
102
RTVSPost2010PropOp41
 70
     1
102
RTVSPost2010Prop42
 90
       50
102
RTVSPost2010PropOp42
 70
     1
102
RTVSPost2010Prop43
 90
        3
102
RTVSPost2010PropOp43
 70
     1
102
RTVSPost2010Prop44ColorIndex
 90
        5
102
RTVSPost2010Prop44ColorRGB
 90
      255
102
RTVSPost2010PropOp44
 70
     1
102
RTVSPost2010Prop45
280
     0
102
RTVSPost2010PropOp45
 70
     1
102
RTVSPost2010Prop46
 90
       50
102
RTVSPost2010PropOp46
 70
     1
102
RTVSPost2010Prop47
 90
       50
102
RTVSPost2010PropOp47
 70
     1
102
RTVSPost2010Prop48
 90
       50
102
RTVSPost2010PropOp48
 70
     1
102
RTVSPost2010Prop49
280
     0
102
RTVSPost2010PropOp49
 70
     1
102
RTVSPost2010Prop50
 90
       50
102
RTVSPost2010PropOp50
 70
     1
102
RTVSPost2010Prop51ColorIndex
 90
      256
102
RTVSPost2010Prop51ColorRGB
 90
-16777216
102
RTVSPost2010PropOp51
 70
     0
102
RTVSPost2010Prop52
140
1.0
102
RTVSPost2010PropOp52
 70
     0
102
RTVSPost2010Prop53
 90
        2
102
RTVSPost2010PropOp53
 70
     1
102
RTVSPost2010Prop54
  1
strokes_ogs.tif
102
RTVSPost2010PropOp54
 70
     1
102
RTVSPost2010Prop55
280
     0
102
RTVSPost2010PropOp55
 70
     1
102
RTVSPost2010Prop56
140
1.0
102
RTVSPost2010PropOp56
 70
     1
102
RTVSPost2010Prop57
140
1.0
102
RTVSPost2010PropOp57
 70
     1
102
RTVSPropertyOp0
 70
     1
102
RTVSPropertyOp1
 70
     1
102
RTVSPropertyOp2
 70
     1
102
RTVSPropertyOp3
 70
     1
102
RTVSPropertyOp4
 70
     1
102
RTVSPropertyOp5
 70
     1
102
RTVSPropertyOp6
 70
     1
102
RTVSPropertyOp7
 70
     1
102
RTVSPropertyOp8
 70
     1
102
RTVSPropertyOp9
 70
     1
102
RTVSPropertyOp10
 70
     1
102
RTVSPropertyOp11
 70
     1
102
RTVSPropertyOp12
 70
     1
102
RTVSPropertyOp13
 70
     1
102
RTVSPropertyOp14
 70
     1
102
RTVSPropertyOp15
 70
     1
102
RTVSPropertyOp16
 70
     1
102
RTVSPropertyOp17
 70
     1
102
RTVSPropertyOp18
 70
     1
102
RTVSPropertyOp19
 70
     1
102
RTVSPropertyOp20
 70
     1
102
RTVSPropertyOp21
 70
     1
102
RTVSPropertyOp22
 70
     1
102
RTVSPropertyOp23
 70
     1
102
RTVSPropertyOp24
 70
     1
102
RTVSPropertyOp25
 70
     1
102
RTVSPropertyOp26
 70
     1
102
RTVSPropertyOp27
 70
     1
102
RTVSPropertyOp28
 70
     1
102
RTVSPropertyOp29
 70
     1
102
RTVSPropertyOp30
 70
     1
102
RTVSPropertyOp31
 70
     1
102
RTVSPropertyOp32
 70
     1
102
RTVSPropertyOp33
 70
     1
102
RTVSPropertyOp34
 70
     1
102
RTVSPropertyOp35
 70
     1
102
RTVSPropertyOp36
 70
     1
102
RTVSPropertyOp37
 70
     1
102
RTVSPropertyOp38
 70
     1
102
RTVSPropertyOp39
 70
     1
102
RTVSPropertyOp40
 70
     1
102
RTVSPropertyOp41
 70
     1
102
RTVSPropertyOp42
 70
     1
102
RTVSPropertyOp43
 70
     1
102
RTVSPropertyOp44
 70
     1
102
RTVSPropertyOp45
 70
     1
102
RTVSPropertyOp46
 70
     1
102
RTVSPropertyOp47
 70
     1
102
RTVSPropertyOp48
 70
     1
102
RTVSPropertyOp49
 70
     1
102
RTVSPropertyOp50
 70
     1
102
RTVSPropertyOp51
 70
     0
102
RTVSPropertyOp52
 70
     0
102
RTVSPropertyOp53
 70
     1
102
RTVSPropertyOp54
 70
     1
102
RTVSPropertyOp55
 70
     1
102
RTVSPropertyOp56
 70
     1
102
RTVSPropertyOp57
 70
     1
102
RTVSPropertyOp58
 70
     1
102
RTVSPropertyOp59
 70
     1
102
RTVSPropertyOp60
 70
     1
102
RTVSPropertyOp61
 70
     1
102
RTVSPropertyOp62
 70
     1
  0
XRECORD
  5
9784
102
{ACAD_REACTORS
330
9783
102
}
330
9783
100
AcDbXrecord
280
     1
102
RTVSPost2010Prop28
280
     0
102
RTVSPost2010PropOp28
 70
     1
102
RTVSPost2010Prop29
280
     1
102
RTVSPost2010PropOp29
 70
     1
102
RTVSPost2010Prop30
280
     1
102
RTVSPost2010PropOp30
 70
     1
102
RTVSPost2010Prop31
280
     0
102
RTVSPost2010PropOp31
 70
     1
102
RTVSPost2010Prop32
280
     0
102
RTVSPost2010PropOp32
 70
     1
102
RTVSPost2010Prop33
280
     0
102
RTVSPost2010PropOp33
 70
     1
102
RTVSPost2010Prop34
280
     0
102
RTVSPost2010PropOp34
 70
     1
102
RTVSPost2010Prop35
280
     0
102
RTVSPost2010PropOp35
 70
     1
102
RTVSPost2010Prop36
280
     0
102
RTVSPost2010PropOp36
 70
     1
102
RTVSPost2010Prop37
 90
       50
102
RTVSPost2010PropOp37
 70
     0
102
RTVSPost2010Prop38
140
0.0
102
RTVSPost2010PropOp38
 70
     0
102
RTVSPost2010Prop39
140
1.0
102
RTVSPost2010PropOp39
 70
     0
102
RTVSPost2010Prop40
 90
        0
102
RTVSPost2010PropOp40
 70
     0
102
RTVSPost2010Prop41ColorIndex
 90
       18
102
RTVSPost2010Prop41ColorRGB
 90
        0
102
RTVSPost2010PropOp41
 70
     0
102
RTVSPost2010Prop42
 90
       50
102
RTVSPost2010PropOp42
 70
     0
102
RTVSPost2010Prop43
 90
        3
102
RTVSPost2010PropOp43
 70
     0
102
RTVSPost2010Prop44ColorIndex
 90
        5
102
RTVSPost2010Prop44ColorRGB
 90
      255
102
RTVSPost2010PropOp44
 70
     0
102
RTVSPost2010Prop45
280
     0
102
RTVSPost2010PropOp45
 70
     1
102
RTVSPost2010Prop46
 90
       50
102
RTVSPost2010PropOp46
 70
     0
102
RTVSPost2010Prop47
 90
       50
102
RTVSPost2010PropOp47
 70
     0
102
RTVSPost2010Prop48
 90
       50
102
RTVSPost2010PropOp48
 70
     0
102
RTVSPost2010Prop49
280
     0
102
RTVSPost2010PropOp49
 70
     1
102
RTVSPost2010Prop50
 90
       50
102
RTVSPost2010PropOp50
 70
     0
102
RTVSPost2010Prop51ColorIndex
 90
      256
102
RTVSPost2010Prop51ColorRGB
 90
-16777216
102
RTVSPost2010PropOp51
 70
     0
102
RTVSPost2010Prop52
140
1.0
102
RTVSPost2010PropOp52
 70
     0
102
RTVSPost2010Prop53
 90
        2
102
RTVSPost2010PropOp53
 70
     0
102
RTVSPost2010Prop54
  1
strokes_ogs.tif
102
RTVSPost2010PropOp54
 70
     0
102
RTVSPost2010Prop55
280
     0
102
RTVSPost2010PropOp55
 70
     1
102
RTVSPost2010Prop56
140
1.0
102
RTVSPost2010PropOp56
 70
     0
102
RTVSPost2010Prop57
140
1.0
102
RTVSPost2010PropOp57
 70
     0
102
RTVSPropertyOp0
 70
     0
102
RTVSPropertyOp1
 70
     0
102
RTVSPropertyOp2
 70
     0
102
RTVSPropertyOp3
 70
     0
102
RTVSPropertyOp4
 70
     0
102
RTVSPropertyOp5
 70
     0
102
RTVSPropertyOp6
 70
     0
102
RTVSPropertyOp7
 70
     0
102
RTVSPropertyOp8
 70
     0
102
RTVSPropertyOp9
 70
     0
102
RTVSPropertyOp10
 70
     0
102
RTVSPropertyOp11
 70
     0
102
RTVSPropertyOp12
 70
     0
102
RTVSPropertyOp13
 70
     0
102
RTVSPropertyOp14
 70
     2
102
RTVSPropertyOp15
 70
     0
102
RTVSPropertyOp16
 70
     0
102
RTVSPropertyOp17
 70
     0
102
RTVSPropertyOp18
 70
     0
102
RTVSPropertyOp19
 70
     0
102
RTVSPropertyOp20
 70
     0
102
RTVSPropertyOp21
 70
     0
102
RTVSPropertyOp22
 70
     0
102
RTVSPropertyOp23
 70
     0
102
RTVSPropertyOp24
 70
     0
102
RTVSPropertyOp25
 70
     0
102
RTVSPropertyOp26
 70
     0
102
RTVSPropertyOp27
 70
     0
102
RTVSPropertyOp28
 70
     1
102
RTVSPropertyOp29
 70
     1
102
RTVSPropertyOp30
 70
     1
102
RTVSPropertyOp31
 70
     1
102
RTVSPropertyOp32
 70
     1
102
RTVSPropertyOp33
 70
     1
102
RTVSPropertyOp34
 70
     1
102
RTVSPropertyOp35
 70
     1
102
RTVSPropertyOp36
 70
     1
102
RTVSPropertyOp37
 70
     0
102
RTVSPropertyOp38
 70
     0
102
RTVSPropertyOp39
 70
     0
102
RTVSPropertyOp40
 70
     0
102
RTVSPropertyOp41
 70
     0
102
RTVSPropertyOp42
 70
     0
102
RTVSPropertyOp43
 70
     0
102
RTVSPropertyOp44
 70
     0
102
RTVSPropertyOp45
 70
     1
102
RTVSPropertyOp46
 70
     0
102
RTVSPropertyOp47
 70
     0
102
RTVSPropertyOp48
 70
     0
102
RTVSPropertyOp49
 70
     1
102
RTVSPropertyOp50
 70
     0
102
RTVSPropertyOp51
 70
     0
102
RTVSPropertyOp52
 70
     0
102
RTVSPropertyOp53
 70
     0
102
RTVSPropertyOp54
 70
     0
102
RTVSPropertyOp55
 70
     1
102
RTVSPropertyOp56
 70
     0
102
RTVSPropertyOp57
 70
     0
102
RTVSPropertyOp58
 70
     0
102
RTVSPropertyOp59
 70
     0
102
RTVSPropertyOp60
 70
     0
102
RTVSPropertyOp61
 70
     0
102
RTVSPropertyOp62
 70
     0
  0
XRECORD
  5
976A
102
{ACAD_REACTORS
330
9769
102
}
330
9769
100
AcDbXrecord
280
     1
102
RTVSPost2010Prop28
280
     0
102
RTVSPost2010PropOp28
 70
     1
102
RTVSPost2010Prop29
280
     1
102
RTVSPost2010PropOp29
 70
     1
102
RTVSPost2010Prop30
280
     1
102
RTVSPost2010PropOp30
 70
     1
102
RTVSPost2010Prop31
280
     0
102
RTVSPost2010PropOp31
 70
     1
102
RTVSPost2010Prop32
280
     0
102
RTVSPost2010PropOp32
 70
     1
102
RTVSPost2010Prop33
280
     0
102
RTVSPost2010PropOp33
 70
     1
102
RTVSPost2010Prop34
280
     0
102
RTVSPost2010PropOp34
 70
     1
102
RTVSPost2010Prop35
280
     0
102
RTVSPost2010PropOp35
 70
     1
102
RTVSPost2010Prop36
280
     0
102
RTVSPost2010PropOp36
 70
     1
102
RTVSPost2010Prop37
 90
       50
102
RTVSPost2010PropOp37
 70
     1
102
RTVSPost2010Prop38
140
0.0
102
RTVSPost2010PropOp38
 70
     1
102
RTVSPost2010Prop39
140
1.0
102
RTVSPost2010PropOp39
 70
     1
102
RTVSPost2010Prop40
 90
        0
102
RTVSPost2010PropOp40
 70
     1
102
RTVSPost2010Prop41ColorIndex
 90
       18
102
RTVSPost2010Prop41ColorRGB
 90
        0
102
RTVSPost2010PropOp41
 70
     1
102
RTVSPost2010Prop42
 90
       50
102
RTVSPost2010PropOp42
 70
     1
102
RTVSPost2010Prop43
 90
        3
102
RTVSPost2010PropOp43
 70
     1
102
RTVSPost2010Prop44ColorIndex
 90
        5
102
RTVSPost2010Prop44ColorRGB
 90
      255
102
RTVSPost2010PropOp44
 70
     1
102
RTVSPost2010Prop45
280
     0
102
RTVSPost2010PropOp45
 70
     1
102
RTVSPost2010Prop46
 90
       50
102
RTVSPost2010PropOp46
 70
     1
102
RTVSPost2010Prop47
 90
       50
102
RTVSPost2010PropOp47
 70
     1
102
RTVSPost2010Prop48
 90
       50
102
RTVSPost2010PropOp48
 70
     1
102
RTVSPost2010Prop49
280
     0
102
RTVSPost2010PropOp49
 70
     1
102
RTVSPost2010Prop50
 90
       50
102
RTVSPost2010PropOp50
 70
     1
102
RTVSPost2010Prop51ColorIndex
 90
      256
102
RTVSPost2010Prop51ColorRGB
 90
-16777216
102
RTVSPost2010PropOp51
 70
     0
102
RTVSPost2010Prop52
140
1.0
102
RTVSPost2010PropOp52
 70
     0
102
RTVSPost2010Prop53
 90
        2
102
RTVSPost2010PropOp53
 70
     1
102
RTVSPost2010Prop54
  1
strokes_ogs.tif
102
RTVSPost2010PropOp54
 70
     1
102
RTVSPost2010Prop55
280
     0
102
RTVSPost2010PropOp55
 70
     1
102
RTVSPost2010Prop56
140
1.0
102
RTVSPost2010PropOp56
 70
     1
102
RTVSPost2010Prop57
140
1.0
102
RTVSPost2010PropOp57
 70
     1
102
RTVSPropertyOp0
 70
     1
102
RTVSPropertyOp1
 70
     1
102
RTVSPropertyOp2
 70
     1
102
RTVSPropertyOp3
 70
     1
102
RTVSPropertyOp4
 70
     1
102
RTVSPropertyOp5
 70
     1
102
RTVSPropertyOp6
 70
     1
102
RTVSPropertyOp7
 70
     1
102
RTVSPropertyOp8
 70
     1
102
RTVSPropertyOp9
 70
     1
102
RTVSPropertyOp10
 70
     1
102
RTVSPropertyOp11
 70
     1
102
RTVSPropertyOp12
 70
     1
102
RTVSPropertyOp13
 70
     1
102
RTVSPropertyOp14
 70
     1
102
RTVSPropertyOp15
 70
     1
102
RTVSPropertyOp16
 70
     1
102
RTVSPropertyOp17
 70
     1
102
RTVSPropertyOp18
 70
     1
102
RTVSPropertyOp19
 70
     1
102
RTVSPropertyOp20
 70
     1
102
RTVSPropertyOp21
 70
     1
102
RTVSPropertyOp22
 70
     1
102
RTVSPropertyOp23
 70
     1
102
RTVSPropertyOp24
 70
     1
102
RTVSPropertyOp25
 70
     1
102
RTVSPropertyOp26
 70
     1
102
RTVSPropertyOp27
 70
     1
102
RTVSPropertyOp28
 70
     1
102
RTVSPropertyOp29
 70
     1
102
RTVSPropertyOp30
 70
     1
102
RTVSPropertyOp31
 70
     1
102
RTVSPropertyOp32
 70
     1
102
RTVSPropertyOp33
 70
     1
102
RTVSPropertyOp34
 70
     1
102
RTVSPropertyOp35
 70
     1
102
RTVSPropertyOp36
 70
     1
102
RTVSPropertyOp37
 70
     1
102
RTVSPropertyOp38
 70
     1
102
RTVSPropertyOp39
 70
     1
102
RTVSPropertyOp40
 70
     1
102
RTVSPropertyOp41
 70
     1
102
RTVSPropertyOp42
 70
     1
102
RTVSPropertyOp43
 70
     1
102
RTVSPropertyOp44
 70
     1
102
RTVSPropertyOp45
 70
     1
102
RTVSPropertyOp46
 70
     1
102
RTVSPropertyOp47
 70
     1
102
RTVSPropertyOp48
 70
     1
102
RTVSPropertyOp49
 70
     1
102
RTVSPropertyOp50
 70
     1
102
RTVSPropertyOp51
 70
     0
102
RTVSPropertyOp52
 70
     0
102
RTVSPropertyOp53
 70
     1
102
RTVSPropertyOp54
 70
     1
102
RTVSPropertyOp55
 70
     1
102
RTVSPropertyOp56
 70
     1
102
RTVSPropertyOp57
 70
     1
102
RTVSPropertyOp58
 70
     1
102
RTVSPropertyOp59
 70
     1
102
RTVSPropertyOp60
 70
     1
102
RTVSPropertyOp61
 70
     1
102
RTVSPropertyOp62
 70
     1
  0
XRECORD
  5
9780
102
{ACAD_REACTORS
330
977F
102
}
330
977F
100
AcDbXrecord
280
     1
102
RTVSPost2010Prop28
280
     0
102
RTVSPost2010PropOp28
 70
     1
102
RTVSPost2010Prop29
280
     1
102
RTVSPost2010PropOp29
 70
     1
102
RTVSPost2010Prop30
280
     1
102
RTVSPost2010PropOp30
 70
     1
102
RTVSPost2010Prop31
280
     0
102
RTVSPost2010PropOp31
 70
     1
102
RTVSPost2010Prop32
280
     0
102
RTVSPost2010PropOp32
 70
     1
102
RTVSPost2010Prop33
280
     0
102
RTVSPost2010PropOp33
 70
     1
102
RTVSPost2010Prop34
280
     0
102
RTVSPost2010PropOp34
 70
     1
102
RTVSPost2010Prop35
280
     0
102
RTVSPost2010PropOp35
 70
     1
102
RTVSPost2010Prop36
280
     0
102
RTVSPost2010PropOp36
 70
     1
102
RTVSPost2010Prop37
 90
       50
102
RTVSPost2010PropOp37
 70
     1
102
RTVSPost2010Prop38
140
0.0
102
RTVSPost2010PropOp38
 70
     1
102
RTVSPost2010Prop39
140
1.0
102
RTVSPost2010PropOp39
 70
     1
102
RTVSPost2010Prop40
 90
        0
102
RTVSPost2010PropOp40
 70
     1
102
RTVSPost2010Prop41ColorIndex
 90
       18
102
RTVSPost2010Prop41ColorRGB
 90
        0
102
RTVSPost2010PropOp41
 70
     1
102
RTVSPost2010Prop42
 90
       50
102
RTVSPost2010PropOp42
 70
     1
102
RTVSPost2010Prop43
 90
        3
102
RTVSPost2010PropOp43
 70
     1
102
RTVSPost2010Prop44ColorIndex
 90
        5
102
RTVSPost2010Prop44ColorRGB
 90
      255
102
RTVSPost2010PropOp44
 70
     1
102
RTVSPost2010Prop45
280
     0
102
RTVSPost2010PropOp45
 70
     1
102
RTVSPost2010Prop46
 90
       50
102
RTVSPost2010PropOp46
 70
     1
102
RTVSPost2010Prop47
 90
       50
102
RTVSPost2010PropOp47
 70
     1
102
RTVSPost2010Prop48
 90
       50
102
RTVSPost2010PropOp48
 70
     1
102
RTVSPost2010Prop49
280
     0
102
RTVSPost2010PropOp49
 70
     1
102
RTVSPost2010Prop50
 90
       50
102
RTVSPost2010PropOp50
 70
     1
102
RTVSPost2010Prop51ColorIndex
 90
      256
102
RTVSPost2010Prop51ColorRGB
 90
-16777216
102
RTVSPost2010PropOp51
 70
     0
102
RTVSPost2010Prop52
140
1.0
102
RTVSPost2010PropOp52
 70
     0
102
RTVSPost2010Prop53
 90
        2
102
RTVSPost2010PropOp53
 70
     1
102
RTVSPost2010Prop54
  1
strokes_ogs.tif
102
RTVSPost2010PropOp54
 70
     1
102
RTVSPost2010Prop55
280
     0
102
RTVSPost2010PropOp55
 70
     1
102
RTVSPost2010Prop56
140
1.0
102
RTVSPost2010PropOp56
 70
     1
102
RTVSPost2010Prop57
140
1.0
102
RTVSPost2010PropOp57
 70
     1
102
RTVSPropertyOp0
 70
     1
102
RTVSPropertyOp1
 70
     1
102
RTVSPropertyOp2
 70
     1
102
RTVSPropertyOp3
 70
     1
102
RTVSPropertyOp4
 70
     1
102
RTVSPropertyOp5
 70
     1
102
RTVSPropertyOp6
 70
     1
102
RTVSPropertyOp7
 70
     1
102
RTVSPropertyOp8
 70
     1
102
RTVSPropertyOp9
 70
     1
102
RTVSPropertyOp10
 70
     1
102
RTVSPropertyOp11
 70
     1
102
RTVSPropertyOp12
 70
     1
102
RTVSPropertyOp13
 70
     1
102
RTVSPropertyOp14
 70
     1
102
RTVSPropertyOp15
 70
     1
102
RTVSPropertyOp16
 70
     1
102
RTVSPropertyOp17
 70
     1
102
RTVSPropertyOp18
 70
     1
102
RTVSPropertyOp19
 70
     1
102
RTVSPropertyOp20
 70
     1
102
RTVSPropertyOp21
 70
     1
102
RTVSPropertyOp22
 70
     1
102
RTVSPropertyOp23
 70
     1
102
RTVSPropertyOp24
 70
     1
102
RTVSPropertyOp25
 70
     1
102
RTVSPropertyOp26
 70
     1
102
RTVSPropertyOp27
 70
     1
102
RTVSPropertyOp28
 70
     1
102
RTVSPropertyOp29
 70
     1
102
RTVSPropertyOp30
 70
     1
102
RTVSPropertyOp31
 70
     1
102
RTVSPropertyOp32
 70
     1
102
RTVSPropertyOp33
 70
     1
102
RTVSPropertyOp34
 70
     1
102
RTVSPropertyOp35
 70
     1
102
RTVSPropertyOp36
 70
     1
102
RTVSPropertyOp37
 70
     1
102
RTVSPropertyOp38
 70
     1
102
RTVSPropertyOp39
 70
     1
102
RTVSPropertyOp40
 70
     1
102
RTVSPropertyOp41
 70
     1
102
RTVSPropertyOp42
 70
     1
102
RTVSPropertyOp43
 70
     1
102
RTVSPropertyOp44
 70
     1
102
RTVSPropertyOp45
 70
     1
102
RTVSPropertyOp46
 70
     1
102
RTVSPropertyOp47
 70
     1
102
RTVSPropertyOp48
 70
     1
102
RTVSPropertyOp49
 70
     1
102
RTVSPropertyOp50
 70
     1
102
RTVSPropertyOp51
 70
     0
102
RTVSPropertyOp52
 70
     0
102
RTVSPropertyOp53
 70
     1
102
RTVSPropertyOp54
 70
     1
102
RTVSPropertyOp55
 70
     1
102
RTVSPropertyOp56
 70
     1
102
RTVSPropertyOp57
 70
     1
102
RTVSPropertyOp58
 70
     1
102
RTVSPropertyOp59
 70
     1
102
RTVSPropertyOp60
 70
     1
102
RTVSPropertyOp61
 70
     1
102
RTVSPropertyOp62
 70
     1
  0
XRECORD
  5
977E
102
{ACAD_REACTORS
330
977D
102
}
330
977D
100
AcDbXrecord
280
     1
102
RTVSPost2010Prop28
280
     0
102
RTVSPost2010PropOp28
 70
     1
102
RTVSPost2010Prop29
280
     1
102
RTVSPost2010PropOp29
 70
     1
102
RTVSPost2010Prop30
280
     1
102
RTVSPost2010PropOp30
 70
     1
102
RTVSPost2010Prop31
280
     0
102
RTVSPost2010PropOp31
 70
     1
102
RTVSPost2010Prop32
280
     0
102
RTVSPost2010PropOp32
 70
     1
102
RTVSPost2010Prop33
280
     0
102
RTVSPost2010PropOp33
 70
     1
102
RTVSPost2010Prop34
280
     0
102
RTVSPost2010PropOp34
 70
     1
102
RTVSPost2010Prop35
280
     0
102
RTVSPost2010PropOp35
 70
     1
102
RTVSPost2010Prop36
280
     0
102
RTVSPost2010PropOp36
 70
     1
102
RTVSPost2010Prop37
 90
       50
102
RTVSPost2010PropOp37
 70
     1
102
RTVSPost2010Prop38
140
0.0
102
RTVSPost2010PropOp38
 70
     1
102
RTVSPost2010Prop39
140
1.0
102
RTVSPost2010PropOp39
 70
     1
102
RTVSPost2010Prop40
 90
        0
102
RTVSPost2010PropOp40
 70
     1
102
RTVSPost2010Prop41ColorIndex
 90
       18
102
RTVSPost2010Prop41ColorRGB
 90
        0
102
RTVSPost2010PropOp41
 70
     1
102
RTVSPost2010Prop42
 90
       50
102
RTVSPost2010PropOp42
 70
     1
102
RTVSPost2010Prop43
 90
        3
102
RTVSPost2010PropOp43
 70
     1
102
RTVSPost2010Prop44ColorIndex
 90
        5
102
RTVSPost2010Prop44ColorRGB
 90
      255
102
RTVSPost2010PropOp44
 70
     1
102
RTVSPost2010Prop45
280
     0
102
RTVSPost2010PropOp45
 70
     1
102
RTVSPost2010Prop46
 90
       50
102
RTVSPost2010PropOp46
 70
     1
102
RTVSPost2010Prop47
 90
       50
102
RTVSPost2010PropOp47
 70
     1
102
RTVSPost2010Prop48
 90
       50
102
RTVSPost2010PropOp48
 70
     1
102
RTVSPost2010Prop49
280
     0
102
RTVSPost2010PropOp49
 70
     1
102
RTVSPost2010Prop50
 90
       50
102
RTVSPost2010PropOp50
 70
     1
102
RTVSPost2010Prop51ColorIndex
 90
      256
102
RTVSPost2010Prop51ColorRGB
 90
-16777216
102
RTVSPost2010PropOp51
 70
     0
102
RTVSPost2010Prop52
140
1.0
102
RTVSPost2010PropOp52
 70
     0
102
RTVSPost2010Prop53
 90
        2
102
RTVSPost2010PropOp53
 70
     1
102
RTVSPost2010Prop54
  1
strokes_ogs.tif
102
RTVSPost2010PropOp54
 70
     1
102
RTVSPost2010Prop55
280
     0
102
RTVSPost2010PropOp55
 70
     1
102
RTVSPost2010Prop56
140
1.0
102
RTVSPost2010PropOp56
 70
     1
102
RTVSPost2010Prop57
140
1.0
102
RTVSPost2010PropOp57
 70
     1
102
RTVSPropertyOp0
 70
     1
102
RTVSPropertyOp1
 70
     1
102
RTVSPropertyOp2
 70
     1
102
RTVSPropertyOp3
 70
     1
102
RTVSPropertyOp4
 70
     1
102
RTVSPropertyOp5
 70
     1
102
RTVSPropertyOp6
 70
     1
102
RTVSPropertyOp7
 70
     1
102
RTVSPropertyOp8
 70
     1
102
RTVSPropertyOp9
 70
     1
102
RTVSPropertyOp10
 70
     1
102
RTVSPropertyOp11
 70
     1
102
RTVSPropertyOp12
 70
     1
102
RTVSPropertyOp13
 70
     1
102
RTVSPropertyOp14
 70
     1
102
RTVSPropertyOp15
 70
     1
102
RTVSPropertyOp16
 70
     1
102
RTVSPropertyOp17
 70
     1
102
RTVSPropertyOp18
 70
     1
102
RTVSPropertyOp19
 70
     1
102
RTVSPropertyOp20
 70
     1
102
RTVSPropertyOp21
 70
     1
102
RTVSPropertyOp22
 70
     1
102
RTVSPropertyOp23
 70
     1
102
RTVSPropertyOp24
 70
     1
102
RTVSPropertyOp25
 70
     1
102
RTVSPropertyOp26
 70
     1
102
RTVSPropertyOp27
 70
     1
102
RTVSPropertyOp28
 70
     1
102
RTVSPropertyOp29
 70
     1
102
RTVSPropertyOp30
 70
     1
102
RTVSPropertyOp31
 70
     1
102
RTVSPropertyOp32
 70
     1
102
RTVSPropertyOp33
 70
     1
102
RTVSPropertyOp34
 70
     1
102
RTVSPropertyOp35
 70
     1
102
RTVSPropertyOp36
 70
     1
102
RTVSPropertyOp37
 70
     1
102
RTVSPropertyOp38
 70
     1
102
RTVSPropertyOp39
 70
     1
102
RTVSPropertyOp40
 70
     1
102
RTVSPropertyOp41
 70
     1
102
RTVSPropertyOp42
 70
     1
102
RTVSPropertyOp43
 70
     1
102
RTVSPropertyOp44
 70
     1
102
RTVSPropertyOp45
 70
     1
102
RTVSPropertyOp46
 70
     1
102
RTVSPropertyOp47
 70
     1
102
RTVSPropertyOp48
 70
     1
102
RTVSPropertyOp49
 70
     1
102
RTVSPropertyOp50
 70
     1
102
RTVSPropertyOp51
 70
     0
102
RTVSPropertyOp52
 70
     0
102
RTVSPropertyOp53
 70
     1
102
RTVSPropertyOp54
 70
     1
102
RTVSPropertyOp55
 70
     1
102
RTVSPropertyOp56
 70
     1
102
RTVSPropertyOp57
 70
     1
102
RTVSPropertyOp58
 70
     1
102
RTVSPropertyOp59
 70
     1
102
RTVSPropertyOp60
 70
     1
102
RTVSPropertyOp61
 70
     1
102
RTVSPropertyOp62
 70
     1
  0
XRECORD
  5
9778
102
{ACAD_REACTORS
330
9777
102
}
330
9777
100
AcDbXrecord
280
     1
102
RTVSPost2010Prop28
280
     0
102
RTVSPost2010PropOp28
 70
     1
102
RTVSPost2010Prop29
280
     1
102
RTVSPost2010PropOp29
 70
     1
102
RTVSPost2010Prop30
280
     1
102
RTVSPost2010PropOp30
 70
     1
102
RTVSPost2010Prop31
280
     0
102
RTVSPost2010PropOp31
 70
     1
102
RTVSPost2010Prop32
280
     0
102
RTVSPost2010PropOp32
 70
     1
102
RTVSPost2010Prop33
280
     0
102
RTVSPost2010PropOp33
 70
     1
102
RTVSPost2010Prop34
280
     0
102
RTVSPost2010PropOp34
 70
     1
102
RTVSPost2010Prop35
280
     0
102
RTVSPost2010PropOp35
 70
     1
102
RTVSPost2010Prop36
280
     0
102
RTVSPost2010PropOp36
 70
     1
102
RTVSPost2010Prop37
 90
       50
102
RTVSPost2010PropOp37
 70
     1
102
RTVSPost2010Prop38
140
0.0
102
RTVSPost2010PropOp38
 70
     1
102
RTVSPost2010Prop39
140
1.0
102
RTVSPost2010PropOp39
 70
     1
102
RTVSPost2010Prop40
 90
        0
102
RTVSPost2010PropOp40
 70
     1
102
RTVSPost2010Prop41ColorIndex
 90
       18
102
RTVSPost2010Prop41ColorRGB
 90
        0
102
RTVSPost2010PropOp41
 70
     1
102
RTVSPost2010Prop42
 90
       50
102
RTVSPost2010PropOp42
 70
     1
102
RTVSPost2010Prop43
 90
        3
102
RTVSPost2010PropOp43
 70
     1
102
RTVSPost2010Prop44ColorIndex
 90
        5
102
RTVSPost2010Prop44ColorRGB
 90
      255
102
RTVSPost2010PropOp44
 70
     1
102
RTVSPost2010Prop45
280
     0
102
RTVSPost2010PropOp45
 70
     1
102
RTVSPost2010Prop46
 90
       50
102
RTVSPost2010PropOp46
 70
     1
102
RTVSPost2010Prop47
 90
       50
102
RTVSPost2010PropOp47
 70
     1
102
RTVSPost2010Prop48
 90
       50
102
RTVSPost2010PropOp48
 70
     1
102
RTVSPost2010Prop49
280
     0
102
RTVSPost2010PropOp49
 70
     1
102
RTVSPost2010Prop50
 90
       50
102
RTVSPost2010PropOp50
 70
     1
102
RTVSPost2010Prop51ColorIndex
 90
      256
102
RTVSPost2010Prop51ColorRGB
 90
-16777216
102
RTVSPost2010PropOp51
 70
     0
102
RTVSPost2010Prop52
140
1.0
102
RTVSPost2010PropOp52
 70
     0
102
RTVSPost2010Prop53
 90
        2
102
RTVSPost2010PropOp53
 70
     1
102
RTVSPost2010Prop54
  1
strokes_ogs.tif
102
RTVSPost2010PropOp54
 70
     1
102
RTVSPost2010Prop55
280
     0
102
RTVSPost2010PropOp55
 70
     1
102
RTVSPost2010Prop56
140
1.0
102
RTVSPost2010PropOp56
 70
     1
102
RTVSPost2010Prop57
140
1.0
102
RTVSPost2010PropOp57
 70
     1
102
RTVSPropertyOp0
 70
     1
102
RTVSPropertyOp1
 70
     1
102
RTVSPropertyOp2
 70
     1
102
RTVSPropertyOp3
 70
     1
102
RTVSPropertyOp4
 70
     1
102
RTVSPropertyOp5
 70
     1
102
RTVSPropertyOp6
 70
     1
102
RTVSPropertyOp7
 70
     1
102
RTVSPropertyOp8
 70
     1
102
RTVSPropertyOp9
 70
     1
102
RTVSPropertyOp10
 70
     1
102
RTVSPropertyOp11
 70
     1
102
RTVSPropertyOp12
 70
     1
102
RTVSPropertyOp13
 70
     1
102
RTVSPropertyOp14
 70
     1
102
RTVSPropertyOp15
 70
     1
102
RTVSPropertyOp16
 70
     1
102
RTVSPropertyOp17
 70
     1
102
RTVSPropertyOp18
 70
     1
102
RTVSPropertyOp19
 70
     1
102
RTVSPropertyOp20
 70
     1
102
RTVSPropertyOp21
 70
     1
102
RTVSPropertyOp22
 70
     1
102
RTVSPropertyOp23
 70
     1
102
RTVSPropertyOp24
 70
     1
102
RTVSPropertyOp25
 70
     1
102
RTVSPropertyOp26
 70
     1
102
RTVSPropertyOp27
 70
     1
102
RTVSPropertyOp28
 70
     1
102
RTVSPropertyOp29
 70
     1
102
RTVSPropertyOp30
 70
     1
102
RTVSPropertyOp31
 70
     1
102
RTVSPropertyOp32
 70
     1
102
RTVSPropertyOp33
 70
     1
102
RTVSPropertyOp34
 70
     1
102
RTVSPropertyOp35
 70
     1
102
RTVSPropertyOp36
 70
     1
102
RTVSPropertyOp37
 70
     1
102
RTVSPropertyOp38
 70
     1
102
RTVSPropertyOp39
 70
     1
102
RTVSPropertyOp40
 70
     1
102
RTVSPropertyOp41
 70
     1
102
RTVSPropertyOp42
 70
     1
102
RTVSPropertyOp43
 70
     1
102
RTVSPropertyOp44
 70
     1
102
RTVSPropertyOp45
 70
     1
102
RTVSPropertyOp46
 70
     1
102
RTVSPropertyOp47
 70
     1
102
RTVSPropertyOp48
 70
     1
102
RTVSPropertyOp49
 70
     1
102
RTVSPropertyOp50
 70
     1
102
RTVSPropertyOp51
 70
     0
102
RTVSPropertyOp52
 70
     0
102
RTVSPropertyOp53
 70
     1
102
RTVSPropertyOp54
 70
     1
102
RTVSPropertyOp55
 70
     1
102
RTVSPropertyOp56
 70
     1
102
RTVSPropertyOp57
 70
     1
102
RTVSPropertyOp58
 70
     1
102
RTVSPropertyOp59
 70
     1
102
RTVSPropertyOp60
 70
     1
102
RTVSPropertyOp61
 70
     1
102
RTVSPropertyOp62
 70
     1
  0
XRECORD
  5
977A
102
{ACAD_REACTORS
330
9779
102
}
330
9779
100
AcDbXrecord
280
     1
102
RTVSPost2010Prop28
280
     0
102
RTVSPost2010PropOp28
 70
     1
102
RTVSPost2010Prop29
280
     1
102
RTVSPost2010PropOp29
 70
     1
102
RTVSPost2010Prop30
280
     1
102
RTVSPost2010PropOp30
 70
     1
102
RTVSPost2010Prop31
280
     0
102
RTVSPost2010PropOp31
 70
     1
102
RTVSPost2010Prop32
280
     0
102
RTVSPost2010PropOp32
 70
     1
102
RTVSPost2010Prop33
280
     0
102
RTVSPost2010PropOp33
 70
     1
102
RTVSPost2010Prop34
280
     0
102
RTVSPost2010PropOp34
 70
     1
102
RTVSPost2010Prop35
280
     0
102
RTVSPost2010PropOp35
 70
     1
102
RTVSPost2010Prop36
280
     0
102
RTVSPost2010PropOp36
 70
     1
102
RTVSPost2010Prop37
 90
       50
102
RTVSPost2010PropOp37
 70
     1
102
RTVSPost2010Prop38
140
0.0
102
RTVSPost2010PropOp38
 70
     1
102
RTVSPost2010Prop39
140
1.0
102
RTVSPost2010PropOp39
 70
     1
102
RTVSPost2010Prop40
 90
        0
102
RTVSPost2010PropOp40
 70
     1
102
RTVSPost2010Prop41ColorIndex
 90
       18
102
RTVSPost2010Prop41ColorRGB
 90
        0
102
RTVSPost2010PropOp41
 70
     1
102
RTVSPost2010Prop42
 90
       50
102
RTVSPost2010PropOp42
 70
     1
102
RTVSPost2010Prop43
 90
        3
102
RTVSPost2010PropOp43
 70
     1
102
RTVSPost2010Prop44ColorIndex
 90
        5
102
RTVSPost2010Prop44ColorRGB
 90
      255
102
RTVSPost2010PropOp44
 70
     1
102
RTVSPost2010Prop45
280
     0
102
RTVSPost2010PropOp45
 70
     1
102
RTVSPost2010Prop46
 90
       50
102
RTVSPost2010PropOp46
 70
     1
102
RTVSPost2010Prop47
 90
       50
102
RTVSPost2010PropOp47
 70
     1
102
RTVSPost2010Prop48
 90
       50
102
RTVSPost2010PropOp48
 70
     1
102
RTVSPost2010Prop49
280
     0
102
RTVSPost2010PropOp49
 70
     1
102
RTVSPost2010Prop50
 90
       50
102
RTVSPost2010PropOp50
 70
     1
102
RTVSPost2010Prop51ColorIndex
 90
      256
102
RTVSPost2010Prop51ColorRGB
 90
-16777216
102
RTVSPost2010PropOp51
 70
     0
102
RTVSPost2010Prop52
140
1.0
102
RTVSPost2010PropOp52
 70
     0
102
RTVSPost2010Prop53
 90
        2
102
RTVSPost2010PropOp53
 70
     1
102
RTVSPost2010Prop54
  1
strokes_ogs.tif
102
RTVSPost2010PropOp54
 70
     1
102
RTVSPost2010Prop55
280
     0
102
RTVSPost2010PropOp55
 70
     1
102
RTVSPost2010Prop56
140
1.0
102
RTVSPost2010PropOp56
 70
     1
102
RTVSPost2010Prop57
140
1.0
102
RTVSPost2010PropOp57
 70
     1
102
RTVSPropertyOp0
 70
     1
102
RTVSPropertyOp1
 70
     1
102
RTVSPropertyOp2
 70
     1
102
RTVSPropertyOp3
 70
     1
102
RTVSPropertyOp4
 70
     1
102
RTVSPropertyOp5
 70
     1
102
RTVSPropertyOp6
 70
     1
102
RTVSPropertyOp7
 70
     1
102
RTVSPropertyOp8
 70
     1
102
RTVSPropertyOp9
 70
     1
102
RTVSPropertyOp10
 70
     1
102
RTVSPropertyOp11
 70
     1
102
RTVSPropertyOp12
 70
     1
102
RTVSPropertyOp13
 70
     1
102
RTVSPropertyOp14
 70
     1
102
RTVSPropertyOp15
 70
     1
102
RTVSPropertyOp16
 70
     1
102
RTVSPropertyOp17
 70
     1
102
RTVSPropertyOp18
 70
     1
102
RTVSPropertyOp19
 70
     1
102
RTVSPropertyOp20
 70
     1
102
RTVSPropertyOp21
 70
     1
102
RTVSPropertyOp22
 70
     1
102
RTVSPropertyOp23
 70
     1
102
RTVSPropertyOp24
 70
     1
102
RTVSPropertyOp25
 70
     1
102
RTVSPropertyOp26
 70
     1
102
RTVSPropertyOp27
 70
     1
102
RTVSPropertyOp28
 70
     1
102
RTVSPropertyOp29
 70
     1
102
RTVSPropertyOp30
 70
     1
102
RTVSPropertyOp31
 70
     1
102
RTVSPropertyOp32
 70
     1
102
RTVSPropertyOp33
 70
     1
102
RTVSPropertyOp34
 70
     1
102
RTVSPropertyOp35
 70
     1
102
RTVSPropertyOp36
 70
     1
102
RTVSPropertyOp37
 70
     1
102
RTVSPropertyOp38
 70
     1
102
RTVSPropertyOp39
 70
     1
102
RTVSPropertyOp40
 70
     1
102
RTVSPropertyOp41
 70
     1
102
RTVSPropertyOp42
 70
     1
102
RTVSPropertyOp43
 70
     1
102
RTVSPropertyOp44
 70
     1
102
RTVSPropertyOp45
 70
     1
102
RTVSPropertyOp46
 70
     1
102
RTVSPropertyOp47
 70
     1
102
RTVSPropertyOp48
 70
     1
102
RTVSPropertyOp49
 70
     1
102
RTVSPropertyOp50
 70
     1
102
RTVSPropertyOp51
 70
     0
102
RTVSPropertyOp52
 70
     0
102
RTVSPropertyOp53
 70
     1
102
RTVSPropertyOp54
 70
     1
102
RTVSPropertyOp55
 70
     1
102
RTVSPropertyOp56
 70
     1
102
RTVSPropertyOp57
 70
     1
102
RTVSPropertyOp58
 70
     1
102
RTVSPropertyOp59
 70
     1
102
RTVSPropertyOp60
 70
     1
102
RTVSPropertyOp61
 70
     1
102
RTVSPropertyOp62
 70
     1
  0
XRECORD
  5
9770
102
{ACAD_REACTORS
330
976F
102
}
330
976F
100
AcDbXrecord
280
     1
102
RTVSPost2010Prop28
280
     0
102
RTVSPost2010PropOp28
 70
     1
102
RTVSPost2010Prop29
280
     1
102
RTVSPost2010PropOp29
 70
     1
102
RTVSPost2010Prop30
280
     1
102
RTVSPost2010PropOp30
 70
     1
102
RTVSPost2010Prop31
280
     0
102
RTVSPost2010PropOp31
 70
     1
102
RTVSPost2010Prop32
280
     0
102
RTVSPost2010PropOp32
 70
     1
102
RTVSPost2010Prop33
280
     0
102
RTVSPost2010PropOp33
 70
     1
102
RTVSPost2010Prop34
280
     0
102
RTVSPost2010PropOp34
 70
     1
102
RTVSPost2010Prop35
280
     0
102
RTVSPost2010PropOp35
 70
     1
102
RTVSPost2010Prop36
280
     0
102
RTVSPost2010PropOp36
 70
     1
102
RTVSPost2010Prop37
 90
       50
102
RTVSPost2010PropOp37
 70
     1
102
RTVSPost2010Prop38
140
0.0
102
RTVSPost2010PropOp38
 70
     1
102
RTVSPost2010Prop39
140
1.0
102
RTVSPost2010PropOp39
 70
     1
102
RTVSPost2010Prop40
 90
        0
102
RTVSPost2010PropOp40
 70
     1
102
RTVSPost2010Prop41ColorIndex
 90
       18
102
RTVSPost2010Prop41ColorRGB
 90
        0
102
RTVSPost2010PropOp41
 70
     1
102
RTVSPost2010Prop42
 90
       50
102
RTVSPost2010PropOp42
 70
     1
102
RTVSPost2010Prop43
 90
        3
102
RTVSPost2010PropOp43
 70
     1
102
RTVSPost2010Prop44ColorIndex
 90
        5
102
RTVSPost2010Prop44ColorRGB
 90
      255
102
RTVSPost2010PropOp44
 70
     1
102
RTVSPost2010Prop45
280
     0
102
RTVSPost2010PropOp45
 70
     1
102
RTVSPost2010Prop46
 90
       50
102
RTVSPost2010PropOp46
 70
     1
102
RTVSPost2010Prop47
 90
       50
102
RTVSPost2010PropOp47
 70
     1
102
RTVSPost2010Prop48
 90
       50
102
RTVSPost2010PropOp48
 70
     1
102
RTVSPost2010Prop49
280
     0
102
RTVSPost2010PropOp49
 70
     1
102
RTVSPost2010Prop50
 90
       50
102
RTVSPost2010PropOp50
 70
     1
102
RTVSPost2010Prop51ColorIndex
 90
      256
102
RTVSPost2010Prop51ColorRGB
 90
-16777216
102
RTVSPost2010PropOp51
 70
     0
102
RTVSPost2010Prop52
140
1.0
102
RTVSPost2010PropOp52
 70
     0
102
RTVSPost2010Prop53
 90
        2
102
RTVSPost2010PropOp53
 70
     1
102
RTVSPost2010Prop54
  1
strokes_ogs.tif
102
RTVSPost2010PropOp54
 70
     1
102
RTVSPost2010Prop55
280
     0
102
RTVSPost2010PropOp55
 70
     1
102
RTVSPost2010Prop56
140
1.0
102
RTVSPost2010PropOp56
 70
     1
102
RTVSPost2010Prop57
140
1.0
102
RTVSPost2010PropOp57
 70
     1
102
RTVSPropertyOp0
 70
     1
102
RTVSPropertyOp1
 70
     1
102
RTVSPropertyOp2
 70
     1
102
RTVSPropertyOp3
 70
     1
102
RTVSPropertyOp4
 70
     1
102
RTVSPropertyOp5
 70
     1
102
RTVSPropertyOp6
 70
     1
102
RTVSPropertyOp7
 70
     1
102
RTVSPropertyOp8
 70
     1
102
RTVSPropertyOp9
 70
     1
102
RTVSPropertyOp10
 70
     1
102
RTVSPropertyOp11
 70
     1
102
RTVSPropertyOp12
 70
     1
102
RTVSPropertyOp13
 70
     1
102
RTVSPropertyOp14
 70
     1
102
RTVSPropertyOp15
 70
     1
102
RTVSPropertyOp16
 70
     1
102
RTVSPropertyOp17
 70
     1
102
RTVSPropertyOp18
 70
     1
102
RTVSPropertyOp19
 70
     1
102
RTVSPropertyOp20
 70
     1
102
RTVSPropertyOp21
 70
     1
102
RTVSPropertyOp22
 70
     1
102
RTVSPropertyOp23
 70
     1
102
RTVSPropertyOp24
 70
     1
102
RTVSPropertyOp25
 70
     1
102
RTVSPropertyOp26
 70
     1
102
RTVSPropertyOp27
 70
     1
102
RTVSPropertyOp28
 70
     1
102
RTVSPropertyOp29
 70
     1
102
RTVSPropertyOp30
 70
     1
102
RTVSPropertyOp31
 70
     1
102
RTVSPropertyOp32
 70
     1
102
RTVSPropertyOp33
 70
     1
102
RTVSPropertyOp34
 70
     1
102
RTVSPropertyOp35
 70
     1
102
RTVSPropertyOp36
 70
     1
102
RTVSPropertyOp37
 70
     1
102
RTVSPropertyOp38
 70
     1
102
RTVSPropertyOp39
 70
     1
102
RTVSPropertyOp40
 70
     1
102
RTVSPropertyOp41
 70
     1
102
RTVSPropertyOp42
 70
     1
102
RTVSPropertyOp43
 70
     1
102
RTVSPropertyOp44
 70
     1
102
RTVSPropertyOp45
 70
     1
102
RTVSPropertyOp46
 70
     1
102
RTVSPropertyOp47
 70
     1
102
RTVSPropertyOp48
 70
     1
102
RTVSPropertyOp49
 70
     1
102
RTVSPropertyOp50
 70
     1
102
RTVSPropertyOp51
 70
     0
102
RTVSPropertyOp52
 70
     0
102
RTVSPropertyOp53
 70
     1
102
RTVSPropertyOp54
 70
     1
102
RTVSPropertyOp55
 70
     1
102
RTVSPropertyOp56
 70
     1
102
RTVSPropertyOp57
 70
     1
102
RTVSPropertyOp58
 70
     1
102
RTVSPropertyOp59
 70
     1
102
RTVSPropertyOp60
 70
     1
102
RTVSPropertyOp61
 70
     1
102
RTVSPropertyOp62
 70
     1
  0
XRECORD
  5
9764
102
{ACAD_REACTORS
330
9763
102
}
330
9763
100
AcDbXrecord
280
     1
102
RTVSPost2010Prop28
280
     0
102
RTVSPost2010PropOp28
 70
     1
102
RTVSPost2010Prop29
280
     1
102
RTVSPost2010PropOp29
 70
     1
102
RTVSPost2010Prop30
280
     1
102
RTVSPost2010PropOp30
 70
     1
102
RTVSPost2010Prop31
280
     0
102
RTVSPost2010PropOp31
 70
     1
102
RTVSPost2010Prop32
280
     0
102
RTVSPost2010PropOp32
 70
     1
102
RTVSPost2010Prop33
280
     0
102
RTVSPost2010PropOp33
 70
     1
102
RTVSPost2010Prop34
280
     0
102
RTVSPost2010PropOp34
 70
     1
102
RTVSPost2010Prop35
280
     0
102
RTVSPost2010PropOp35
 70
     1
102
RTVSPost2010Prop36
280
     0
102
RTVSPost2010PropOp36
 70
     1
102
RTVSPost2010Prop37
 90
       50
102
RTVSPost2010PropOp37
 70
     1
102
RTVSPost2010Prop38
140
0.0
102
RTVSPost2010PropOp38
 70
     1
102
RTVSPost2010Prop39
140
1.0
102
RTVSPost2010PropOp39
 70
     1
102
RTVSPost2010Prop40
 90
        0
102
RTVSPost2010PropOp40
 70
     1
102
RTVSPost2010Prop41ColorIndex
 90
       18
102
RTVSPost2010Prop41ColorRGB
 90
        0
102
RTVSPost2010PropOp41
 70
     1
102
RTVSPost2010Prop42
 90
       50
102
RTVSPost2010PropOp42
 70
     1
102
RTVSPost2010Prop43
 90
        3
102
RTVSPost2010PropOp43
 70
     1
102
RTVSPost2010Prop44ColorIndex
 90
        5
102
RTVSPost2010Prop44ColorRGB
 90
      255
102
RTVSPost2010PropOp44
 70
     1
102
RTVSPost2010Prop45
280
     0
102
RTVSPost2010PropOp45
 70
     1
102
RTVSPost2010Prop46
 90
       50
102
RTVSPost2010PropOp46
 70
     1
102
RTVSPost2010Prop47
 90
       50
102
RTVSPost2010PropOp47
 70
     1
102
RTVSPost2010Prop48
 90
       50
102
RTVSPost2010PropOp48
 70
     1
102
RTVSPost2010Prop49
280
     0
102
RTVSPost2010PropOp49
 70
     1
102
RTVSPost2010Prop50
 90
       50
102
RTVSPost2010PropOp50
 70
     1
102
RTVSPost2010Prop51ColorIndex
 90
      256
102
RTVSPost2010Prop51ColorRGB
 90
-16777216
102
RTVSPost2010PropOp51
 70
     0
102
RTVSPost2010Prop52
140
1.0
102
RTVSPost2010PropOp52
 70
     0
102
RTVSPost2010Prop53
 90
        2
102
RTVSPost2010PropOp53
 70
     1
102
RTVSPost2010Prop54
  1
strokes_ogs.tif
102
RTVSPost2010PropOp54
 70
     1
102
RTVSPost2010Prop55
280
     0
102
RTVSPost2010PropOp55
 70
     1
102
RTVSPost2010Prop56
140
1.0
102
RTVSPost2010PropOp56
 70
     1
102
RTVSPost2010Prop57
140
1.0
102
RTVSPost2010PropOp57
 70
     1
102
RTVSPropertyOp0
 70
     1
102
RTVSPropertyOp1
 70
     1
102
RTVSPropertyOp2
 70
     1
102
RTVSPropertyOp3
 70
     1
102
RTVSPropertyOp4
 70
     1
102
RTVSPropertyOp5
 70
     1
102
RTVSPropertyOp6
 70
     1
102
RTVSPropertyOp7
 70
     1
102
RTVSPropertyOp8
 70
     1
102
RTVSPropertyOp9
 70
     1
102
RTVSPropertyOp10
 70
     1
102
RTVSPropertyOp11
 70
     1
102
RTVSPropertyOp12
 70
     1
102
RTVSPropertyOp13
 70
     1
102
RTVSPropertyOp14
 70
     1
102
RTVSPropertyOp15
 70
     1
102
RTVSPropertyOp16
 70
     1
102
RTVSPropertyOp17
 70
     1
102
RTVSPropertyOp18
 70
     1
102
RTVSPropertyOp19
 70
     1
102
RTVSPropertyOp20
 70
     1
102
RTVSPropertyOp21
 70
     1
102
RTVSPropertyOp22
 70
     1
102
RTVSPropertyOp23
 70
     1
102
RTVSPropertyOp24
 70
     1
102
RTVSPropertyOp25
 70
     1
102
RTVSPropertyOp26
 70
     1
102
RTVSPropertyOp27
 70
     1
102
RTVSPropertyOp28
 70
     1
102
RTVSPropertyOp29
 70
     1
102
RTVSPropertyOp30
 70
     1
102
RTVSPropertyOp31
 70
     1
102
RTVSPropertyOp32
 70
     1
102
RTVSPropertyOp33
 70
     1
102
RTVSPropertyOp34
 70
     1
102
RTVSPropertyOp35
 70
     1
102
RTVSPropertyOp36
 70
     1
102
RTVSPropertyOp37
 70
     1
102
RTVSPropertyOp38
 70
     1
102
RTVSPropertyOp39
 70
     1
102
RTVSPropertyOp40
 70
     1
102
RTVSPropertyOp41
 70
     1
102
RTVSPropertyOp42
 70
     1
102
RTVSPropertyOp43
 70
     1
102
RTVSPropertyOp44
 70
     1
102
RTVSPropertyOp45
 70
     1
102
RTVSPropertyOp46
 70
     1
102
RTVSPropertyOp47
 70
     1
102
RTVSPropertyOp48
 70
     1
102
RTVSPropertyOp49
 70
     1
102
RTVSPropertyOp50
 70
     1
102
RTVSPropertyOp51
 70
     0
102
RTVSPropertyOp52
 70
     0
102
RTVSPropertyOp53
 70
     1
102
RTVSPropertyOp54
 70
     1
102
RTVSPropertyOp55
 70
     1
102
RTVSPropertyOp56
 70
     1
102
RTVSPropertyOp57
 70
     1
102
RTVSPropertyOp58
 70
     1
102
RTVSPropertyOp59
 70
     1
102
RTVSPropertyOp60
 70
     1
102
RTVSPropertyOp61
 70
     1
102
RTVSPropertyOp62
 70
     1
  0
XRECORD
  5
977C
102
{ACAD_REACTORS
330
977B
102
}
330
977B
100
AcDbXrecord
280
     1
102
RTVSPost2010Prop28
280
     0
102
RTVSPost2010PropOp28
 70
     1
102
RTVSPost2010Prop29
280
     1
102
RTVSPost2010PropOp29
 70
     1
102
RTVSPost2010Prop30
280
     1
102
RTVSPost2010PropOp30
 70
     1
102
RTVSPost2010Prop31
280
     0
102
RTVSPost2010PropOp31
 70
     1
102
RTVSPost2010Prop32
280
     0
102
RTVSPost2010PropOp32
 70
     1
102
RTVSPost2010Prop33
280
     0
102
RTVSPost2010PropOp33
 70
     1
102
RTVSPost2010Prop34
280
     0
102
RTVSPost2010PropOp34
 70
     1
102
RTVSPost2010Prop35
280
     0
102
RTVSPost2010PropOp35
 70
     1
102
RTVSPost2010Prop36
280
     0
102
RTVSPost2010PropOp36
 70
     1
102
RTVSPost2010Prop37
 90
       50
102
RTVSPost2010PropOp37
 70
     1
102
RTVSPost2010Prop38
140
0.0
102
RTVSPost2010PropOp38
 70
     1
102
RTVSPost2010Prop39
140
1.0
102
RTVSPost2010PropOp39
 70
     1
102
RTVSPost2010Prop40
 90
        0
102
RTVSPost2010PropOp40
 70
     1
102
RTVSPost2010Prop41ColorIndex
 90
       18
102
RTVSPost2010Prop41ColorRGB
 90
        0
102
RTVSPost2010PropOp41
 70
     1
102
RTVSPost2010Prop42
 90
       50
102
RTVSPost2010PropOp42
 70
     1
102
RTVSPost2010Prop43
 90
        3
102
RTVSPost2010PropOp43
 70
     1
102
RTVSPost2010Prop44ColorIndex
 90
        5
102
RTVSPost2010Prop44ColorRGB
 90
      255
102
RTVSPost2010PropOp44
 70
     1
102
RTVSPost2010Prop45
280
     0
102
RTVSPost2010PropOp45
 70
     1
102
RTVSPost2010Prop46
 90
       50
102
RTVSPost2010PropOp46
 70
     1
102
RTVSPost2010Prop47
 90
       50
102
RTVSPost2010PropOp47
 70
     1
102
RTVSPost2010Prop48
 90
       50
102
RTVSPost2010PropOp48
 70
     1
102
RTVSPost2010Prop49
280
     0
102
RTVSPost2010PropOp49
 70
     1
102
RTVSPost2010Prop50
 90
       50
102
RTVSPost2010PropOp50
 70
     1
102
RTVSPost2010Prop51ColorIndex
 90
      256
102
RTVSPost2010Prop51ColorRGB
 90
-16777216
102
RTVSPost2010PropOp51
 70
     0
102
RTVSPost2010Prop52
140
1.0
102
RTVSPost2010PropOp52
 70
     0
102
RTVSPost2010Prop53
 90
        2
102
RTVSPost2010PropOp53
 70
     1
102
RTVSPost2010Prop54
  1
strokes_ogs.tif
102
RTVSPost2010PropOp54
 70
     1
102
RTVSPost2010Prop55
280
     0
102
RTVSPost2010PropOp55
 70
     1
102
RTVSPost2010Prop56
140
1.0
102
RTVSPost2010PropOp56
 70
     1
102
RTVSPost2010Prop57
140
1.0
102
RTVSPost2010PropOp57
 70
     1
102
RTVSPropertyOp0
 70
     1
102
RTVSPropertyOp1
 70
     1
102
RTVSPropertyOp2
 70
     1
102
RTVSPropertyOp3
 70
     1
102
RTVSPropertyOp4
 70
     1
102
RTVSPropertyOp5
 70
     1
102
RTVSPropertyOp6
 70
     1
102
RTVSPropertyOp7
 70
     1
102
RTVSPropertyOp8
 70
     1
102
RTVSPropertyOp9
 70
     1
102
RTVSPropertyOp10
 70
     1
102
RTVSPropertyOp11
 70
     1
102
RTVSPropertyOp12
 70
     1
102
RTVSPropertyOp13
 70
     1
102
RTVSPropertyOp14
 70
     1
102
RTVSPropertyOp15
 70
     1
102
RTVSPropertyOp16
 70
     1
102
RTVSPropertyOp17
 70
     1
102
RTVSPropertyOp18
 70
     1
102
RTVSPropertyOp19
 70
     1
102
RTVSPropertyOp20
 70
     1
102
RTVSPropertyOp21
 70
     1
102
RTVSPropertyOp22
 70
     1
102
RTVSPropertyOp23
 70
     1
102
RTVSPropertyOp24
 70
     1
102
RTVSPropertyOp25
 70
     1
102
RTVSPropertyOp26
 70
     1
102
RTVSPropertyOp27
 70
     1
102
RTVSPropertyOp28
 70
     1
102
RTVSPropertyOp29
 70
     1
102
RTVSPropertyOp30
 70
     1
102
RTVSPropertyOp31
 70
     1
102
RTVSPropertyOp32
 70
     1
102
RTVSPropertyOp33
 70
     1
102
RTVSPropertyOp34
 70
     1
102
RTVSPropertyOp35
 70
     1
102
RTVSPropertyOp36
 70
     1
102
RTVSPropertyOp37
 70
     1
102
RTVSPropertyOp38
 70
     1
102
RTVSPropertyOp39
 70
     1
102
RTVSPropertyOp40
 70
     1
102
RTVSPropertyOp41
 70
     1
102
RTVSPropertyOp42
 70
     1
102
RTVSPropertyOp43
 70
     1
102
RTVSPropertyOp44
 70
     1
102
RTVSPropertyOp45
 70
     1
102
RTVSPropertyOp46
 70
     1
102
RTVSPropertyOp47
 70
     1
102
RTVSPropertyOp48
 70
     1
102
RTVSPropertyOp49
 70
     1
102
RTVSPropertyOp50
 70
     1
102
RTVSPropertyOp51
 70
     0
102
RTVSPropertyOp52
 70
     0
102
RTVSPropertyOp53
 70
     1
102
RTVSPropertyOp54
 70
     1
102
RTVSPropertyOp55
 70
     1
102
RTVSPropertyOp56
 70
     1
102
RTVSPropertyOp57
 70
     1
102
RTVSPropertyOp58
 70
     1
102
RTVSPropertyOp59
 70
     1
102
RTVSPropertyOp60
 70
     1
102
RTVSPropertyOp61
 70
     1
102
RTVSPropertyOp62
 70
     1
  0
ENDSEC
  0
EOF
