  0
SECTION
  2
HEADER
  9
$ACADVER
  1
AC1015
  9
$ACADMAINTVER
 70
    20
  9
$DWGCODEPAGE
  3
ANSI_932
  9
$INSBASE
 10
0.0
 20
0.0
 30
0.0
  9
$EXTMIN
 10
10.0
 20
9.999999999999998
 30
0.0
  9
$EXTMAX
 10
485.5339999999998
 20
297.658
 30
0.0
  9
$LIMMIN
 10
0.0
 20
0.0
  9
$LIMMAX
 10
495.0
 20
341.25
  9
$ORTHOMODE
 70
     1
  9
$REGENMODE
 70
     1
  9
$FILLMODE
 70
     1
  9
$QTEXTMODE
 70
     0
  9
$MIRRTEXT
 70
     1
  9
$LTSCALE
 40
20.0
  9
$ATTMODE
 70
     1
  9
$TEXTSIZE
 40
5.0
  9
$TRACEWID
 40
1.0
  9
$TEXTSTYLE
  7
STANDARD
  9
$CLAYER
  8
0
  9
$CELTYPE
  6
BYLAYER
  9
$CECOLOR
 62
   256
  9
$CELTSCALE
 40
1.0
  9
$DISPSILH
 70
     0
  9
$DIMSCALE
 40
1.0
  9
$DIMASZ
 40
3.0
  9
$DIMEXO
 40
1.0
  9
$DIMDLI
 40
10.0
  9
$DIMRND
 40
0.0
  9
$DIMDLE
 40
0.0
  9
$DIMEXE
 40
1.0
  9
$DIMTP
 40
0.0
  9
$DIMTM
 40
0.0
  9
$DIMTXT
 40
3.2
  9
$DIMCEN
 40
0.0
  9
$DIMTSZ
 40
0.0
  9
$DIMTOL
 70
     0
  9
$DIMLIM
 70
     0
  9
$DIMTIH
 70
     0
  9
$DIMTOH
 70
     0
  9
$DIMSE1
 70
     0
  9
$DIMSE2
 70
     0
  9
$DIMTAD
 70
     3
  9
$DIMZIN
 70
     8
  9
$DIMBLK
  1

  9
$DIMASO
 70
     1
  9
$DIMSHO
 70
     1
  9
$DIMPOST
  1

  9
$DIMAPOST
  1

  9
$DIMALT
 70
     0
  9
$DIMALTD
 70
     2
  9
$DIMALTF
 40
25.4
  9
$DIMLFAC
 40
1.0
  9
$DIMTOFL
 70
     1
  9
$DIMTVP
 40
0.0
  9
$DIMTIX
 70
     0
  9
$DIMSOXD
 70
     0
  9
$DIMSAH
 70
     1
  9
$DIMBLK1
  1

  9
$DIMBLK2
  1

  9
$DIMSTYLE
  2
STANDARD
  9
$DIMCLRD
 70
     0
  9
$DIMCLRE
 70
     0
  9
$DIMCLRT
 70
     0
  9
$DIMTFAC
 40
1.0
  9
$DIMGAP
 40
1.0
  9
$DIMJUST
 70
     0
  9
$DIMSD1
 70
     0
  9
$DIMSD2
 70
     0
  9
$DIMTOLJ
 70
     1
  9
$DIMTZIN
 70
     0
  9
$DIMALTZ
 70
     0
  9
$DIMALTTZ
 70
     0
  9
$DIMUPT
 70
     0
  9
$DIMDEC
 70
     4
  9
$DIMTDEC
 70
     4
  9
$DIMALTU
 70
     2
  9
$DIMALTTD
 70
     2
  9
$DIMTXSTY
  7
STANDARD
  9
$DIMAUNIT
 70
     0
  9
$DIMADEC
 70
     0
  9
$DIMALTRND
 40
0.0
  9
$DIMAZIN
 70
     0
  9
$DIMDSEP
 70
    46
  9
$DIMATFIT
 70
     3
  9
$DIMFRAC
 70
     0
  9
$DIMLDRBLK
  1

  9
$DIMLUNIT
 70
     2
  9
$DIMLWD
 70
    -2
  9
$DIMLWE
 70
    -2
  9
$DIMTMOVE
 70
     0
  9
$LUNITS
 70
     2
  9
$LUPREC
 70
     4
  9
$SKETCHINC
 40
1.0
  9
$FILLETRAD
 40
0.0
  9
$AUNITS
 70
     0
  9
$AUPREC
 70
     2
  9
$MENU
  1
.
  9
$ELEVATION
 40
0.0
  9
$PELEVATION
 40
0.0
  9
$THICKNESS
 40
0.0
  9
$LIMCHECK
 70
     0
  9
$CHAMFERA
 40
10.0
  9
$CHAMFERB
 40
10.0
  9
$CHAMFERC
 40
0.0
  9
$CHAMFERD
 40
0.0
  9
$SKPOLY
 70
     0
  9
$TDCREATE
 40
2450737.662879398
  9
$TDUCREATE
 40
2450737.287879398
  9
$TDUPDATE
 40
2457192.640159537
  9
$TDUUPDATE
 40
2457192.265159537
  9
$TDINDWG
 40
0.0000148727
  9
$TDUSRTIMER
 40
0.0000145602
  9
$USRTIMER
 70
     1
  9
$ANGBASE
 50
0.0
  9
$ANGDIR
 70
     0
  9
$PDMODE
 70
     0
  9
$PDSIZE
 40
0.0
  9
$PLINEWID
 40
0.0
  9
$SPLFRAME
 70
     0
  9
$SPLINETYPE
 70
     6
  9
$SPLINESEGS
 70
     8
  9
$HANDSEED
  5
9705
  9
$SURFTAB1
 70
     6
  9
$SURFTAB2
 70
     6
  9
$SURFTYPE
 70
     6
  9
$SURFU
 70
     6
  9
$SURFV
 70
     6
  9
$UCSBASE
  2

  9
$UCSNAME
  2

  9
$UCSORG
 10
0.0
 20
0.0
 30
0.0
  9
$UCSXDIR
 10
1.0
 20
0.0
 30
0.0
  9
$UCSYDIR
 10
0.0
 20
1.0
 30
0.0
  9
$UCSORTHOREF
  2

  9
$UCSORTHOVIEW
 70
     0
  9
$UCSORGTOP
 10
0.0
 20
0.0
 30
0.0
  9
$UCSORGBOTTOM
 10
0.0
 20
0.0
 30
0.0
  9
$UCSORGLEFT
 10
0.0
 20
0.0
 30
0.0
  9
$UCSORGRIGHT
 10
0.0
 20
0.0
 30
0.0
  9
$UCSORGFRONT
 10
0.0
 20
0.0
 30
0.0
  9
$UCSORGBACK
 10
0.0
 20
0.0
 30
0.0
  9
$PUCSBASE
  2

  9
$PUCSNAME
  2

  9
$PUCSORG
 10
0.0
 20
0.0
 30
0.0
  9
$PUCSXDIR
 10
1.0
 20
0.0
 30
0.0
  9
$PUCSYDIR
 10
0.0
 20
1.0
 30
0.0
  9
$PUCSORTHOREF
  2

  9
$PUCSORTHOVIEW
 70
     0
  9
$PUCSORGTOP
 10
0.0
 20
0.0
 30
0.0
  9
$PUCSORGBOTTOM
 10
0.0
 20
0.0
 30
0.0
  9
$PUCSORGLEFT
 10
0.0
 20
0.0
 30
0.0
  9
$PUCSORGRIGHT
 10
0.0
 20
0.0
 30
0.0
  9
$PUCSORGFRONT
 10
0.0
 20
0.0
 30
0.0
  9
$PUCSORGBACK
 10
0.0
 20
0.0
 30
0.0
  9
$USERI1
 70
     0
  9
$USERI2
 70
     0
  9
$USERI3
 70
     0
  9
$USERI4
 70
     0
  9
$USERI5
 70
     0
  9
$USERR1
 40
0.0
  9
$USERR2
 40
0.0
  9
$USERR3
 40
0.0
  9
$USERR4
 40
0.0
  9
$USERR5
 40
0.0
  9
$WORLDVIEW
 70
     1
  9
$SHADEDGE
 70
     3
  9
$SHADEDIF
 70
    70
  9
$TILEMODE
 70
     1
  9
$MAXACTVP
 70
    16
  9
$PINSBASE
 10
0.0
 20
0.0
 30
0.0
  9
$PLIMCHECK
 70
     0
  9
$PEXTMIN
 10
1.000000000000000E+20
 20
1.000000000000000E+20
 30
1.000000000000000E+20
  9
$PEXTMAX
 10
-1.000000000000000E+20
 20
-1.000000000000000E+20
 30
-1.000000000000000E+20
  9
$PLIMMIN
 10
0.0
 20
0.0
  9
$PLIMMAX
 10
420.0
 20
297.0
  9
$UNITMODE
 70
     0
  9
$VISRETAIN
 70
     0
  9
$PLINEGEN
 70
     0
  9
$PSLTSCALE
 70
     0
  9
$TREEDEPTH
 70
  3020
  9
$CMLSTYLE
  2
STANDARD
  9
$CMLJUST
 70
     0
  9
$CMLSCALE
 40
1.0
  9
$PROXYGRAPHICS
 70
     1
  9
$MEASUREMENT
 70
     0
  9
$CELWEIGHT
370
    -1
  9
$ENDCAPS
280
     0
  9
$JOINSTYLE
280
     0
  9
$LWDISPLAY
290
     0
  9
$INSUNITS
 70
     0
  9
$HYPERLINKBASE
  1

  9
$STYLESHEET
  1

  9
$XEDIT
290
     1
  9
$CEPSNTYPE
380
     0
  9
$PSTYLEMODE
290
     1
  9
$FINGERPRINTGUID
  2
{092A15DE-B8A0-445F-838A-0BF4B7BAAEF0}
  9
$VERSIONGUID
  2
{75977C3A-ACFB-4CED-9975-C2010F3F380E}
  9
$EXTNAMES
290
     1
  9
$PSVPSCALE
 40
0.0
  9
$OLESTARTUP
290
     0
  0
ENDSEC
  0
SECTION
  2
CLASSES
  0
CLASS
  1
ACDBDICTIONARYWDFLT
  2
AcDbDictionaryWithDefault
  3
ObjectDBX Classes
 90
        0
280
     0
281
     0
  0
CLASS
  1
ACDBPLACEHOLDER
  2
AcDbPlaceHolder
  3
ObjectDBX Classes
 90
        0
280
     0
281
     0
  0
CLASS
  1
LAYOUT
  2
AcDbLayout
  3
ObjectDBX Classes
 90
        0
280
     0
281
     0
  0
CLASS
  1
DICTIONARYVAR
  2
AcDbDictionaryVar
  3
ObjectDBX Classes
 90
        0
280
     0
281
     0
  0
CLASS
  1
MATERIAL
  2
AcDbMaterial
  3
ObjectDBX Classes
 90
     1153
280
     0
281
     0
  0
CLASS
  1
VISUALSTYLE
  2
AcDbVisualStyle
  3
ObjectDBX Classes
 90
     4095
280
     0
281
     0
  0
CLASS
  1
TABLESTYLE
  2
AcDbTableStyle
  3
ObjectDBX Classes
 90
     4095
280
     0
281
     0
  0
CLASS
  1
SCALE
  2
AcDbScale
  3
ObjectDBX Classes
 90
     1153
280
     0
281
     0
  0
CLASS
  1
MLEADERSTYLE
  2
AcDbMLeaderStyle
  3
ACDB_MLEADERSTYLE_CLASS
 90
     4095
280
     0
281
     0
  0
CLASS
  1
ACDBSECTIONVIEWSTYLE
  2
AcDbSectionViewStyle
  3
ObjectDBX Classes
 90
     1025
280
     0
281
     0
  0
CLASS
  1
ACDBDETAILVIEWSTYLE
  2
AcDbDetailViewStyle
  3
ObjectDBX Classes
 90
     1025
280
     0
281
     0
  0
CLASS
  1
CELLSTYLEMAP
  2
AcDbCellStyleMap
  3
ObjectDBX Classes
 90
     1152
280
     0
281
     0
  0
ENDSEC
  0
SECTION
  2
TABLES
  0
TABLE
  2
VPORT
  5
9457
330
0
100
AcDbSymbolTable
 70
     1
  0
VPORT
  5
964E
330
9457
100
AcDbSymbolTableRecord
100
AcDbViewportTableRecord
  2
*ACTIVE
 70
     0
 10
0.0
 20
0.0
 11
1.0
 21
1.0
 12
334.9005187837104
 22
153.8322265745456
 13
0.0
 23
0.0
 14
10.0
 24
10.0
 15
10.0
 25
10.0
 16
0.0
 26
0.0
 36
1.0
 17
0.0
 27
0.0
 37
0.0
 40
290.9078095375242
 41
1.899603698811096
 42
50.0
 43
0.0
 44
0.0
 50
0.0
 51
0.0
 71
     0
 72
   100
 73
     1
 74
     0
 75
     0
 76
     0
 77
     0
 78
     0
281
     0
 65
     1
110
0.0
120
0.0
130
0.0
111
1.0
121
0.0
131
0.0
112
0.0
122
1.0
132
0.0
 79
     0
146
0.0
1001
ACAD_NAV_VCDISPLAY
1070
     3
  0
ENDTAB
  0
TABLE
  2
LTYPE
  5
9454
330
0
100
AcDbSymbolTable
 70
     4
  0
LTYPE
  5
9462
330
9454
100
AcDbSymbolTableRecord
100
AcDbLinetypeTableRecord
  2
BYBLOCK
 70
     0
  3

 72
    65
 73
     0
 40
0.0
  0
LTYPE
  5
9463
330
9454
100
AcDbSymbolTableRecord
100
AcDbLinetypeTableRecord
  2
BYLAYER
 70
     0
  3

 72
    65
 73
     0
 40
0.0
  0
LTYPE
  5
9464
330
9454
100
AcDbSymbolTableRecord
100
AcDbLinetypeTableRecord
  2
CONTINUOUS
 70
     0
  3
Solid line
 72
    65
 73
     0
 40
0.0
  0
LTYPE
  5
9472
330
9454
100
AcDbSymbolTableRecord
100
AcDbLinetypeTableRecord
  2
DASHED
 70
     0
  3
__ __ __ __ __ __ __ __ __ __ __ __ __ __ __ __
 72
    65
 73
     2
 40
0.75
 49
0.5
 74
     0
 49
-0.25
 74
     0
  0
LTYPE
  5
9473
330
9454
100
AcDbSymbolTableRecord
100
AcDbLinetypeTableRecord
  2
CENTER
 70
     0
  3
____ _ ____ _ ____ _ ____ _ ____ _ ____ _ ____ 
 72
    65
 73
     4
 40
2.0
 49
1.25
 74
     0
 49
-0.25
 74
     0
 49
0.25
 74
     0
 49
-0.25
 74
     0
  0
LTYPE
  5
9474
330
9454
100
AcDbSymbolTableRecord
100
AcDbLinetypeTableRecord
  2
PHANTOM
 70
     0
  3
______  __  __  ______  __  __  ______  __  __ 
 72
    65
 73
     6
 40
2.5
 49
1.25
 74
     0
 49
-0.25
 74
     0
 49
0.25
 74
     0
 49
-0.25
 74
     0
 49
0.25
 74
     0
 49
-0.25
 74
     0
  0
ENDTAB
  0
TABLE
  2
LAYER
  5
9451
330
0
100
AcDbSymbolTable
 70
     8
  0
LAYER
  5
945F
102
{ACAD_XDICTIONARY
360
96A9
102
}
330
9451
100
AcDbSymbolTableRecord
100
AcDbLayerTableRecord
  2
0
 70
     0
 62
     7
  6
CONTINUOUS
370
    -3
390
9657
  0
LAYER
  5
9475
102
{ACAD_XDICTIONARY
360
96AB
102
}
330
9451
100
AcDbSymbolTableRecord
100
AcDbLayerTableRecord
  2
4
 70
     0
 62
     1
  6
CENTER
370
    -3
390
9657
  0
LAYER
  5
9476
102
{ACAD_XDICTIONARY
360
96AD
102
}
330
9451
100
AcDbSymbolTableRecord
100
AcDbLayerTableRecord
  2
5
 70
     0
 62
     6
  6
PHANTOM
370
    -3
390
9657
  0
LAYER
  5
9477
102
{ACAD_XDICTIONARY
360
96AF
102
}
330
9451
100
AcDbSymbolTableRecord
100
AcDbLayerTableRecord
  2
1
 70
     0
 62
     7
  6
CONTINUOUS
370
    -3
390
9657
  0
LAYER
  5
9478
102
{ACAD_XDICTIONARY
360
96B1
102
}
330
9451
100
AcDbSymbolTableRecord
100
AcDbLayerTableRecord
  2
2
 70
     0
 62
     4
  6
CONTINUOUS
370
    -3
390
9657
  0
LAYER
  5
9479
102
{ACAD_XDICTIONARY
360
96B3
102
}
330
9451
100
AcDbSymbolTableRecord
100
AcDbLayerTableRecord
  2
3
 70
     0
 62
     2
  6
DASHED
370
    -3
390
9657
  0
LAYER
  5
947A
102
{ACAD_XDICTIONARY
360
96B5
102
}
330
9451
100
AcDbSymbolTableRecord
100
AcDbLayerTableRecord
  2
6
 70
     0
 62
     5
  6
CONTINUOUS
370
    -3
390
9657
  0
LAYER
  5
947B
102
{ACAD_XDICTIONARY
360
96B7
102
}
330
9451
100
AcDbSymbolTableRecord
100
AcDbLayerTableRecord
  2
7
 70
     0
 62
     3
  6
CONTINUOUS
370
    -3
390
9657
  0
ENDTAB
  0
TABLE
  2
STYLE
  5
9452
330
0
100
AcDbSymbolTable
 70
     1
  0
STYLE
  5
9460
330
9452
100
AcDbSymbolTableRecord
100
AcDbTextStyleTableRecord
  2
STANDARD
 70
     0
 40
0.0
 41
1.0
 50
0.0
 71
     0
 42
5.0
  3
txt
  4

  0
ENDTAB
  0
TABLE
  2
VIEW
  5
9455
330
0
100
AcDbSymbolTable
 70
     0
  0
ENDTAB
  0
TABLE
  2
UCS
  5
9456
330
0
100
AcDbSymbolTable
 70
     0
  0
ENDTAB
  0
TABLE
  2
APPID
  5
9458
330
0
100
AcDbSymbolTable
 70
     3
  0
APPID
  5
9461
330
9458
100
AcDbSymbolTableRecord
100
AcDbRegAppTableRecord
  2
ACAD
 70
     0
  0
APPID
  5
96C3
330
9458
100
AcDbSymbolTableRecord
100
AcDbRegAppTableRecord
  2
ACAD_NAV_VCDISPLAY
 70
     0
  0
APPID
  5
96FC
330
9458
100
AcDbSymbolTableRecord
100
AcDbRegAppTableRecord
  2
ACAD_MLEADERVER
 70
     0
  0
ENDTAB
  0
TABLE
  2
DIMSTYLE
  5
9459
330
0
100
AcDbSymbolTable
 70
     1
100
AcDbDimStyleTable
 71
     0
  0
DIMSTYLE
105
947D
330
9459
100
AcDbSymbolTableRecord
100
AcDbDimStyleTableRecord
  2
STANDARD
 70
     0
 41
3.0
 42
1.0
 43
10.0
 44
1.0
 73
     0
 74
     0
 77
     3
 78
     8
140
3.2
141
0.0
147
1.0
172
     1
173
     1
284
     8
285
     8
286
     8
340
9460
  0
ENDTAB
  0
TABLE
  2
BLOCK_RECORD
  5
9450
330
0
100
AcDbSymbolTable
 70
     0
  0
BLOCK_RECORD
  5
946D
102
{ACAD_XDICTIONARY
360
9651
102
}
330
9450
100
AcDbSymbolTableRecord
100
AcDbBlockTableRecord
  2
*MODEL_SPACE
340
96A5
  0
BLOCK_RECORD
  5
9469
102
{ACAD_XDICTIONARY
360
964F
102
}
330
9450
100
AcDbSymbolTableRecord
100
AcDbBlockTableRecord
  2
*PAPER_SPACE
340
96A6
  0
ENDTAB
  0
ENDSEC
  0
SECTION
  2
BLOCKS
  0
BLOCK
  5
946E
330
946D
100
AcDbEntity
  8
0
100
AcDbBlockBegin
  2
*MODEL_SPACE
 70
     0
 10
0.0
 20
0.0
 30
0.0
  3
*MODEL_SPACE
  1

  0
ENDBLK
  5
946F
330
946D
100
AcDbEntity
  8
0
100
AcDbBlockEnd
  0
BLOCK
  5
946A
330
9469
100
AcDbEntity
 67
     1
  8
0
100
AcDbBlockBegin
  2
*PAPER_SPACE
 70
     0
 10
0.0
 20
0.0
 30
0.0
  3
*PAPER_SPACE
  1

  0
ENDBLK
  5
946B
330
9469
100
AcDbEntity
 67
     1
  8
0
100
AcDbBlockEnd
  0
ENDSEC
  0
SECTION
  2
ENTITIES
  0
TEXT
  5
9485
330
946D
100
AcDbEntity
  8
7
  6
Continuous
100
AcDbText
 10
10.0
 20
18.0
 30
0.0
 40
3.0
  1
TYPE No.THA-281-4
100
AcDbText
  0
TEXT
  5
9486
330
946D
100
AcDbEntity
  8
7
  6
Continuous
100
AcDbText
 10
10.0
 20
26.0
 30
0.0
 40
3.0
  1
CODE No.3223
100
AcDbText
  0
TEXT
  5
9487
330
946D
100
AcDbEntity
  8
1
  6
Continuous
100
AcDbText
 10
10.0
 20
10.0
 30
0.0
 40
1.399999999999999
  1
LAYER
100
AcDbText
  0
TEXT
  5
9488
330
946D
100
AcDbEntity
  8
1
  6
Continuous
100
AcDbText
 10
17.97951099999998
 20
10.04873699999998
 30
0.0
 40
1.399999999999999
  1
1
100
AcDbText
  0
TEXT
  5
9489
330
946D
100
AcDbEntity
  8
7
  6
Continuous
100
AcDbText
 10
29.97951099999999
 20
10.04873699999998
 30
0.0
 40
1.399999999999999
  1
7
100
AcDbText
  0
TEXT
  5
948A
330
946D
100
AcDbEntity
  8
4
  6
CENTER
100
AcDbText
 10
23.97951099999999
 20
10.04873699999998
 30
0.0
 40
1.399999999999999
  1
4
100
AcDbText
  0
TEXT
  5
948B
330
946D
100
AcDbEntity
  8
3
  6
DASHED
100
AcDbText
 10
21.979511
 20
10.04873699999998
 30
0.0
 40
1.399999999999999
  1
3
100
AcDbText
  0
TEXT
  5
948C
330
946D
100
AcDbEntity
  8
2
  6
Continuous
100
AcDbText
 10
19.97951099999999
 20
10.04873699999998
 30
0.0
 40
1.399999999999999
  1
2
100
AcDbText
  0
TEXT
  5
948D
330
946D
100
AcDbEntity
  8
6
  6
Continuous
100
AcDbText
 10
27.979511
 20
10.04873699999998
 30
0.0
 40
1.399999999999999
  1
6
100
AcDbText
  0
TEXT
  5
948E
330
946D
100
AcDbEntity
  8
5
  6
PHANTOM
100
AcDbText
 10
25.97951099999999
 20
10.04873699999998
 30
0.0
 40
1.399999999999999
  1
5
100
AcDbText
  0
LINE
  5
948F
330
946D
100
AcDbEntity
  8
4
  6
CENTER
100
AcDbLine
 10
398.283
 20
105.413
 30
0.0
 11
283.5439999999999
 21
105.413
 31
0.0
  0
LINE
  5
9490
330
946D
100
AcDbEntity
  8
4
  6
CENTER
100
AcDbLine
 10
333.3309999999999
 20
47.54249999999998
 30
0.0
 11
333.3309999999999
 21
163.9929999999999
 31
0.0
  0
LINE
  5
9491
330
946D
100
AcDbEntity
  8
4
  6
CENTER
100
AcDbLine
 10
350.8309999999998
 20
52.6072
 30
0.0
 11
350.8309999999998
 21
157.66
 31
0.0
  0
LINE
  5
9492
330
946D
100
AcDbEntity
  8
1
  6
Continuous
100
AcDbLine
 10
361.3309999999998
 20
67.4131
 30
0.0
 11
361.3309999999998
 21
143.4129999999998
 31
0.0
  0
LINE
  5
9493
330
946D
100
AcDbEntity
  8
1
  6
Continuous
100
AcDbLine
 10
361.3309999999998
 20
143.4129999999998
 30
0.0
 11
309.565
 21
143.4129999999998
 31
0.0
  0
LINE
  5
9494
330
946D
100
AcDbEntity
  8
1
  6
Continuous
100
AcDbLine
 10
361.3309999999998
 20
67.4131
 30
0.0
 11
309.565
 21
67.4131
 31
0.0
  0
LINE
  5
9495
330
946D
100
AcDbEntity
  8
1
  6
Continuous
100
AcDbLine
 10
361.3309999999998
 20
100.913
 30
0.0
 11
360.8309999999999
 21
100.913
 31
0.0
  0
LINE
  5
9496
330
946D
100
AcDbEntity
  8
1
  6
Continuous
100
AcDbLine
 10
361.3309999999998
 20
109.9129999999999
 30
0.0
 11
360.8309999999999
 21
109.9129999999999
 31
0.0
  0
LINE
  5
9497
330
946D
100
AcDbEntity
  8
1
  6
Continuous
100
AcDbLine
 10
359.3309999999998
 20
67.4131
 30
0.0
 11
359.3309999999998
 21
67.9131
 31
0.0
  0
LINE
  5
9498
330
946D
100
AcDbEntity
  8
1
  6
Continuous
100
AcDbLine
 10
359.3309999999998
 20
142.9129999999998
 30
0.0
 11
359.3309999999998
 21
143.4129999999998
 31
0.0
  0
LINE
  5
9499
330
946D
100
AcDbEntity
  8
1
  6
Continuous
100
AcDbLine
 10
355.8309999999999
 20
67.4131
 30
0.0
 11
355.8309999999999
 21
67.9131
 31
0.0
  0
LINE
  5
949A
330
946D
100
AcDbEntity
  8
1
  6
Continuous
100
AcDbLine
 10
341.8309999999999
 20
67.4131
 30
0.0
 11
341.8309999999999
 21
67.9131
 31
0.0
  0
LINE
  5
949B
330
946D
100
AcDbEntity
  8
1
  6
Continuous
100
AcDbLine
 10
345.8309999999999
 20
67.4131
 30
0.0
 11
345.8309999999999
 21
67.9131
 31
0.0
  0
LINE
  5
949C
330
946D
100
AcDbEntity
  8
1
  6
Continuous
100
AcDbLine
 10
355.8309999999999
 20
142.9129999999998
 30
0.0
 11
355.8309999999999
 21
143.4129999999998
 31
0.0
  0
LINE
  5
949D
330
946D
100
AcDbEntity
  8
1
  6
Continuous
100
AcDbLine
 10
345.8309999999999
 20
142.9129999999998
 30
0.0
 11
345.8309999999999
 21
143.4129999999998
 31
0.0
  0
LINE
  5
949E
330
946D
100
AcDbEntity
  8
1
  6
Continuous
100
AcDbLine
 10
341.8309999999999
 20
142.9129999999998
 30
0.0
 11
341.8309999999999
 21
143.4129999999998
 31
0.0
  0
LINE
  5
949F
330
946D
100
AcDbEntity
  8
4
  6
CENTER
100
AcDbLine
 10
247.0089999999999
 20
105.413
 30
0.0
 11
199.054
 21
105.413
 31
0.0
  0
LINE
  5
94A0
330
946D
100
AcDbEntity
  8
1
  6
Continuous
100
AcDbLine
 10
235.129
 20
59.4131
 30
0.0
 11
235.129
 21
151.4129999999999
 31
0.0
  0
LINE
  5
94A1
330
946D
100
AcDbEntity
  8
1
  6
Continuous
100
AcDbLine
 10
237.179
 20
151.4129999999999
 30
0.0
 11
235.129
 21
151.4129999999999
 31
0.0
  0
LINE
  5
94A2
330
946D
100
AcDbEntity
  8
1
  6
Continuous
100
AcDbLine
 10
237.179
 20
59.4131
 30
0.0
 11
235.129
 21
59.4131
 31
0.0
  0
LINE
  5
94A3
330
946D
100
AcDbEntity
  8
1
  6
Continuous
100
AcDbLine
 10
235.129
 20
64.9131
 30
0.0
 11
226.329
 21
64.9131
 31
0.0
  0
LINE
  5
94A4
330
946D
100
AcDbEntity
  8
1
  6
Continuous
100
AcDbLine
 10
235.129
 20
145.9129999999998
 30
0.0
 11
226.329
 21
145.9129999999998
 31
0.0
  0
LINE
  5
94A5
330
946D
100
AcDbEntity
  8
1
  6
Continuous
100
AcDbLine
 10
218.3289999999999
 20
72.9131
 30
0.0
 11
218.3289999999999
 21
80.41310000000001
 31
0.0
  0
LINE
  5
94A6
330
946D
100
AcDbEntity
  8
1
  6
Continuous
100
AcDbLine
 10
212.129
 20
95.8131
 30
0.0
 11
208.129
 21
95.8131
 31
0.0
  0
LINE
  5
94A7
330
946D
100
AcDbEntity
  8
1
  6
Continuous
100
AcDbLine
 10
212.129
 20
115.0129999999999
 30
0.0
 11
208.129
 21
115.0129999999999
 31
0.0
  0
LINE
  5
94A8
330
946D
100
AcDbEntity
  8
4
  6
CENTER
100
AcDbLine
 10
221.6409999999999
 20
75.4131
 30
0.0
 11
202.7429999999998
 21
75.4131
 31
0.0
  0
LINE
  5
94A9
330
946D
100
AcDbEntity
  8
4
  6
CENTER
100
AcDbLine
 10
221.6409999999999
 20
135.4129999999998
 30
0.0
 11
203.8209999999998
 21
135.4129999999998
 31
0.0
  0
LINE
  5
94AA
330
946D
100
AcDbEntity
  8
1
  6
Continuous
100
AcDbLine
 10
218.729
 20
140.4129999999998
 30
0.0
 11
208.129
 21
140.4129999999998
 31
0.0
  0
LINE
  5
94AB
330
946D
100
AcDbEntity
  8
1
  6
Continuous
100
AcDbLine
 10
218.729
 20
70.4131
 30
0.0
 11
208.129
 21
70.4131
 31
0.0
  0
LINE
  5
94AC
330
946D
100
AcDbEntity
  8
4
  6
CENTER
100
AcDbLine
 10
440.889
 20
105.413
 30
0.0
 11
485.5339999999998
 21
105.413
 31
0.0
  0
LINE
  5
94AD
330
946D
100
AcDbEntity
  8
1
  6
Continuous
100
AcDbLine
 10
451.534
 20
59.4131
 30
0.0
 11
451.534
 21
151.4129999999999
 31
0.0
  0
LINE
  5
94AE
330
946D
100
AcDbEntity
  8
1
  6
Continuous
100
AcDbLine
 10
449.4839999999999
 20
151.4129999999999
 30
0.0
 11
451.534
 21
151.4129999999999
 31
0.0
  0
LINE
  5
94AF
330
946D
100
AcDbEntity
  8
1
  6
Continuous
100
AcDbLine
 10
449.4839999999999
 20
59.4131
 30
0.0
 11
451.534
 21
59.4131
 31
0.0
  0
LINE
  5
94B0
330
946D
100
AcDbEntity
  8
1
  6
Continuous
100
AcDbLine
 10
459.534
 20
67.4131
 30
0.0
 11
459.534
 21
100.913
 31
0.0
  0
LINE
  5
94B1
330
946D
100
AcDbEntity
  8
1
  6
Continuous
100
AcDbLine
 10
459.534
 20
109.9129999999999
 30
0.0
 11
463.534
 21
109.9129999999999
 31
0.0
  0
LINE
  5
94B2
330
946D
100
AcDbEntity
  8
1
  6
Continuous
100
AcDbLine
 10
459.534
 20
100.913
 30
0.0
 11
463.534
 21
100.913
 31
0.0
  0
LINE
  5
94B3
330
946D
100
AcDbEntity
  8
1
  6
Continuous
100
AcDbLine
 10
451.534
 20
143.4129999999998
 30
0.0
 11
459.534
 21
143.4129999999998
 31
0.0
  0
LINE
  5
94B4
330
946D
100
AcDbEntity
  8
1
  6
Continuous
100
AcDbLine
 10
451.534
 20
64.9131
 30
0.0
 11
460.334
 21
64.9131
 31
0.0
  0
LINE
  5
94B5
330
946D
100
AcDbEntity
  8
1
  6
Continuous
100
AcDbLine
 10
451.534
 20
145.9129999999998
 30
0.0
 11
460.334
 21
145.9129999999998
 31
0.0
  0
LINE
  5
94B6
330
946D
100
AcDbEntity
  8
1
  6
Continuous
100
AcDbLine
 10
452.5339999999998
 20
140.4129999999998
 30
0.0
 11
459.534
 21
140.4129999999998
 31
0.0
  0
LINE
  5
94B7
330
946D
100
AcDbEntity
  8
1
  6
Continuous
100
AcDbLine
 10
452.5339999999998
 20
70.4131
 30
0.0
 11
459.534
 21
70.4131
 31
0.0
  0
LINE
  5
94B8
330
946D
100
AcDbEntity
  8
1
  6
Continuous
100
AcDbLine
 10
459.534
 20
109.9129999999999
 30
0.0
 11
459.534
 21
143.4129999999998
 31
0.0
  0
LINE
  5
94B9
330
946D
100
AcDbEntity
  8
1
  6
Continuous
100
AcDbLine
 10
452.5339999999998
 20
141.4129999999999
 30
0.0
 11
452.5339999999998
 21
143.4129999999998
 31
0.0
  0
LINE
  5
94BA
330
946D
100
AcDbEntity
  8
1
  6
Continuous
100
AcDbLine
 10
452.5339999999998
 20
67.4131
 30
0.0
 11
452.5339999999998
 21
69.4131
 31
0.0
  0
LINE
  5
94BB
330
946D
100
AcDbEntity
  8
1
  6
Continuous
100
AcDbLine
 10
468.334
 20
98.31310000000001
 30
0.0
 11
478.5339999999997
 21
98.31310000000001
 31
0.0
  0
LINE
  5
94BC
330
946D
100
AcDbEntity
  8
1
  6
Continuous
100
AcDbLine
 10
468.334
 20
112.5129999999999
 30
0.0
 11
478.5339999999997
 21
112.5129999999999
 31
0.0
  0
LINE
  5
94BD
330
946D
100
AcDbEntity
  8
1
  6
Continuous
100
AcDbLine
 10
212.129
 20
80.41310000000001
 30
0.0
 11
212.129
 21
130.4129999999998
 31
0.0
  0
LINE
  5
94BE
330
946D
100
AcDbEntity
  8
4
  6
CENTER
100
AcDbLine
 10
227.166
 20
85.41310000000001
 30
0.0
 11
209.305
 21
85.41310000000001
 31
0.0
  0
LINE
  5
94BF
330
946D
100
AcDbEntity
  8
4
  6
CENTER
100
AcDbLine
 10
226.9619999999999
 20
125.4129999999999
 30
0.0
 11
209.305
 21
125.4129999999999
 31
0.0
  0
LINE
  5
94C0
330
946D
100
AcDbEntity
  8
1
  6
Continuous
100
AcDbLine
 10
296.8309999999998
 20
227.665
 30
0.0
 11
296.8309999999998
 21
230.263
 31
0.0
  0
LINE
  5
94C1
330
946D
100
AcDbEntity
  8
1
  6
Continuous
100
AcDbLine
 10
369.8309999999998
 20
227.665
 30
0.0
 11
369.8309999999998
 21
230.263
 31
0.0
  0
LINE
  5
94C2
330
946D
100
AcDbEntity
  8
4
  6
CENTER
100
AcDbLine
 10
333.3309999999999
 20
216.6589999999999
 30
0.0
 11
333.3309999999999
 21
265.8209999999999
 31
0.0
  0
LINE
  5
94C3
330
946D
100
AcDbEntity
  8
1
  6
Continuous
100
AcDbLine
 10
369.8309999999998
 20
230.263
 30
0.0
 11
296.8309999999998
 21
230.263
 31
0.0
  0
LINE
  5
94C4
330
946D
100
AcDbEntity
  8
1
  6
Continuous
100
AcDbLine
 10
384.8309999999998
 20
257.2629999999999
 30
0.0
 11
314.3309999999999
 21
257.2629999999999
 31
0.0
  0
LINE
  5
94C5
330
946D
100
AcDbEntity
  8
1
  6
Continuous
100
AcDbLine
 10
361.038
 20
247.0629999999999
 30
0.0
 11
320.33
 21
247.0629999999999
 31
0.0
  0
LINE
  5
94C6
330
946D
100
AcDbEntity
  8
4
  6
CENTER
100
AcDbLine
 10
350.8309999999998
 20
231.2629999999999
 30
0.0
 11
350.8309999999998
 21
241.263
 31
0.0
  0
LINE
  5
94C7
330
946D
100
AcDbEntity
  8
4
  6
CENTER
100
AcDbLine
 10
355.8309999999999
 20
236.263
 30
0.0
 11
345.8309999999999
 21
236.263
 31
0.0
  0
LINE
  5
94C8
330
946D
100
AcDbEntity
  8
1
  6
Continuous
100
AcDbLine
 10
360.86
 20
257.2629999999999
 30
0.0
 11
361.3309999999998
 21
230.263
 31
0.0
  0
LINE
  5
94C9
330
946D
100
AcDbEntity
  8
1
  6
Continuous
100
AcDbLine
 10
351.3309999999998
 20
247.0629999999999
 30
0.0
 11
351.3309999999998
 21
257.2629999999999
 31
0.0
  0
LINE
  5
94CA
330
946D
100
AcDbEntity
  8
1
  6
Continuous
100
AcDbLine
 10
323.8309999999998
 20
247.0629999999999
 30
0.0
 11
323.8309999999998
 21
257.2629999999999
 31
0.0
  0
LINE
  5
94CB
330
946D
100
AcDbEntity
  8
1
  6
Continuous
100
AcDbLine
 10
316.3309999999999
 20
253.263
 30
0.0
 11
316.3309999999999
 21
257.2629999999999
 31
0.0
  0
LINE
  5
94CC
330
946D
100
AcDbEntity
  8
4
  6
CENTER
100
AcDbLine
 10
356.3309999999999
 20
244.5149999999999
 30
0.0
 11
356.3309999999999
 21
262.488
 31
0.0
  0
LINE
  5
94CD
330
946D
100
AcDbEntity
  8
4
  6
CENTER
100
AcDbLine
 10
321.3309999999999
 20
243.9649999999998
 30
0.0
 11
321.3309999999999
 21
262.373
 31
0.0
  0
LINE
  5
94CE
330
946D
100
AcDbEntity
  8
4
  6
CENTER
100
AcDbLine
 10
312.3309999999999
 20
282.408
 30
0.0
 11
312.3309999999999
 21
297.658
 31
0.0
  0
LINE
  5
94CF
330
946D
100
AcDbEntity
  8
1
  6
Continuous
100
AcDbLine
 10
317.3299999999999
 20
253.263
 30
0.0
 11
309.3299999999999
 21
253.263
 31
0.0
  0
LINE
  5
94D0
330
946D
100
AcDbEntity
  8
1
  6
Continuous
100
AcDbLine
 10
463.534
 20
101.4129999999999
 30
0.0
 11
451.534
 21
101.4129999999999
 31
0.0
  0
LINE
  5
94D1
330
946D
100
AcDbEntity
  8
1
  6
Continuous
100
AcDbLine
 10
463.534
 20
109.413
 30
0.0
 11
451.534
 21
109.413
 31
0.0
  0
LINE
  5
94D2
330
946D
100
AcDbEntity
  8
1
  6
Continuous
100
AcDbLine
 10
460.5339999999998
 20
100.913
 30
0.0
 11
460.5339999999998
 21
101.4129999999999
 31
0.0
  0
LINE
  5
94D3
330
946D
100
AcDbEntity
  8
1
  6
Continuous
100
AcDbLine
 10
460.5339999999998
 20
109.413
 30
0.0
 11
460.5339999999998
 21
109.9129999999999
 31
0.0
  0
LINE
  5
94D4
330
946D
100
AcDbEntity
  8
5
  6
PHANTOM
100
AcDbLine
 10
363.3519999999998
 20
236.769
 30
0.0
 11
361.1709999999998
 21
239.427
 31
0.0
  0
LINE
  5
94D5
330
946D
100
AcDbEntity
  8
5
  6
PHANTOM
100
AcDbLine
 10
362.3680000000001
 20
237.969
 30
0.0
 11
361.213
 21
237.0209999999999
 31
0.0
  0
LINE
  5
94D6
330
946D
100
AcDbEntity
  8
5
  6
PHANTOM
100
AcDbLine
 10
336.858
 20
217.0339999999999
 30
0.0
 11
330.514
 21
224.764
 31
0.0
  0
LINE
  5
94D7
330
946D
100
AcDbEntity
  8
1
  6
Continuous
100
AcDbLine
 10
465.5339999999998
 20
65.4131
 30
0.0
 11
480.534
 21
65.4131
 31
0.0
  0
LINE
  5
94D8
330
946D
100
AcDbEntity
  8
1
  6
Continuous
100
AcDbLine
 10
386.8309999999998
 20
65.4131
 30
0.0
 11
386.8309999999998
 21
145.4129999999999
 31
0.0
  0
LINE
  5
94D9
330
946D
100
AcDbEntity
  8
1
  6
Continuous
100
AcDbLine
 10
465.5339999999998
 20
145.4129999999999
 30
0.0
 11
480.534
 21
145.4129999999999
 31
0.0
  0
LINE
  5
94DA
330
946D
100
AcDbEntity
  8
1
  6
Continuous
100
AcDbLine
 10
463.534
 20
67.4131
 30
0.0
 11
463.534
 21
143.4129999999998
 31
0.0
  0
LINE
  5
94DB
330
946D
100
AcDbEntity
  8
1
  6
Continuous
100
AcDbLine
 10
480.534
 20
65.4131
 30
0.0
 11
480.534
 21
145.4129999999999
 31
0.0
  0
LINE
  5
94DC
330
946D
100
AcDbEntity
  8
1
  6
Continuous
100
AcDbLine
 10
386.8309999999998
 20
145.4129999999999
 30
0.0
 11
368.243
 21
145.4129999999999
 31
0.0
  0
LINE
  5
94DD
330
946D
100
AcDbEntity
  8
1
  6
Continuous
100
AcDbLine
 10
386.8309999999998
 20
65.4131
 30
0.0
 11
368.243
 21
65.4131
 31
0.0
  0
LINE
  5
94DE
330
946D
100
AcDbEntity
  8
1
  6
Continuous
100
AcDbLine
 10
384.8309999999998
 20
65.4131
 30
0.0
 11
384.8309999999998
 21
145.4129999999999
 31
0.0
  0
LINE
  5
94DF
330
946D
100
AcDbEntity
  8
1
  6
Continuous
100
AcDbLine
 10
382.8309999999998
 20
71.9131
 30
0.0
 11
382.8309999999998
 21
78.9131
 31
0.0
  0
LINE
  5
94E0
330
946D
100
AcDbEntity
  8
4
  6
CENTER
100
AcDbLine
 10
390.1069999999998
 20
135.4129999999998
 30
0.0
 11
378.5439999999999
 21
135.4129999999998
 31
0.0
  0
LINE
  5
94E1
330
946D
100
AcDbEntity
  8
4
  6
CENTER
100
AcDbLine
 10
390.1069999999998
 20
75.4131
 30
0.0
 11
378.369
 21
75.4131
 31
0.0
  0
LINE
  5
94E2
330
946D
100
AcDbEntity
  8
1
  6
Continuous
100
AcDbLine
 10
382.8309999999998
 20
131.9129999999999
 30
0.0
 11
382.8309999999998
 21
138.9129999999999
 31
0.0
  0
LINE
  5
94E3
330
946D
100
AcDbEntity
  8
1
  6
Continuous
100
AcDbLine
 10
468.334
 20
98.2131
 30
0.0
 11
480.534
 21
98.2131
 31
0.0
  0
LINE
  5
94E4
330
946D
100
AcDbEntity
  8
1
  6
Continuous
100
AcDbLine
 10
468.334
 20
112.613
 30
0.0
 11
480.534
 21
112.613
 31
0.0
  0
LINE
  5
94E5
330
946D
100
AcDbEntity
  8
1
  6
Continuous
100
AcDbLine
 10
478.5339999999997
 20
98.2131
 30
0.0
 11
478.5339999999997
 21
112.613
 31
0.0
  0
LINE
  5
94E6
330
946D
100
AcDbEntity
  8
1
  6
Continuous
100
AcDbLine
 10
468.334
 20
98.2131
 30
0.0
 11
468.334
 21
112.613
 31
0.0
  0
LINE
  5
94E7
330
946D
100
AcDbEntity
  8
4
  6
CENTER
100
AcDbLine
 10
470.5339999999998
 20
131.4129999999998
 30
0.0
 11
470.5339999999998
 21
139.4129999999998
 31
0.0
  0
LINE
  5
94E8
330
946D
100
AcDbEntity
  8
4
  6
CENTER
100
AcDbLine
 10
483.8219999999998
 20
135.4129999999998
 30
0.0
 11
465.601
 21
135.4129999999998
 31
0.0
  0
LINE
  5
94E9
330
946D
100
AcDbEntity
  8
4
  6
CENTER
100
AcDbLine
 10
470.5339999999998
 20
71.4131
 30
0.0
 11
470.5339999999998
 21
79.4131
 31
0.0
  0
LINE
  5
94EA
330
946D
100
AcDbEntity
  8
4
  6
CENTER
100
AcDbLine
 10
484.016
 20
75.4131
 30
0.0
 11
465.4639999999998
 21
75.4131
 31
0.0
  0
LINE
  5
94EB
330
946D
100
AcDbEntity
  8
1
  6
Continuous
100
AcDbLine
 10
386.8309999999998
 20
242.263
 30
0.0
 11
386.8309999999998
 21
257.2629999999999
 31
0.0
  0
LINE
  5
94EC
330
946D
100
AcDbEntity
  8
1
  6
Continuous
100
AcDbLine
 10
351.4319999999998
 20
257.2629999999999
 30
0.0
 11
351.4319999999998
 21
259.2629999999999
 31
0.0
  0
LINE
  5
94ED
330
946D
100
AcDbEntity
  8
1
  6
Continuous
100
AcDbLine
 10
386.8309999999998
 20
242.263
 30
0.0
 11
384.8309999999998
 21
242.263
 31
0.0
  0
LINE
  5
94EE
330
946D
100
AcDbEntity
  8
1
  6
Continuous
100
AcDbLine
 10
384.8309999999998
 20
259.2629999999999
 30
0.0
 11
314.3309999999999
 21
259.2629999999999
 31
0.0
  0
LINE
  5
94EF
330
946D
100
AcDbEntity
  8
1
  6
Continuous
100
AcDbLine
 10
384.8309999999998
 20
242.263
 30
0.0
 11
384.8309999999998
 21
257.2629999999999
 31
0.0
  0
LINE
  5
94F0
330
946D
100
AcDbEntity
  8
1
  6
Continuous
100
AcDbLine
 10
314.3309999999999
 20
257.2629999999999
 30
0.0
 11
314.3309999999999
 21
259.2629999999999
 31
0.0
  0
LINE
  5
94F1
330
946D
100
AcDbEntity
  8
1
  6
Continuous
100
AcDbLine
 10
382.8309999999998
 20
245.7629999999999
 30
0.0
 11
382.8309999999998
 21
252.763
 31
0.0
  0
LINE
  5
94F2
330
946D
100
AcDbEntity
  8
4
  6
CENTER
100
AcDbLine
 10
389.7109999999998
 20
249.263
 30
0.0
 11
378.98
 21
249.263
 31
0.0
  0
LINE
  5
94F3
330
946D
100
AcDbEntity
  8
1
  6
Continuous
100
AcDbLine
 10
383.8309999999999
 20
71.9131
 30
0.0
 11
382.8309999999998
 21
71.9131
 31
0.0
  0
LINE
  5
94F4
330
946D
100
AcDbEntity
  8
1
  6
Continuous
100
AcDbLine
 10
383.8309999999999
 20
78.9131
 30
0.0
 11
382.8309999999998
 21
78.9131
 31
0.0
  0
LINE
  5
94F5
330
946D
100
AcDbEntity
  8
1
  6
Continuous
100
AcDbLine
 10
221.1289999999999
 20
65.4131
 30
0.0
 11
206.129
 21
65.4131
 31
0.0
  0
LINE
  5
94F6
330
946D
100
AcDbEntity
  8
1
  6
Continuous
100
AcDbLine
 10
221.1289999999999
 20
145.4129999999999
 30
0.0
 11
206.129
 21
145.4129999999999
 31
0.0
  0
LINE
  5
94F7
330
946D
100
AcDbEntity
  8
1
  6
Continuous
100
AcDbLine
 10
206.129
 20
65.4131
 30
0.0
 11
206.129
 21
145.4129999999999
 31
0.0
  0
LINE
  5
94F8
330
946D
100
AcDbEntity
  8
1
  6
Continuous
100
AcDbLine
 10
208.129
 20
65.4131
 30
0.0
 11
208.129
 21
145.4129999999999
 31
0.0
  0
LINE
  5
94F9
330
946D
100
AcDbEntity
  8
1
  6
Continuous
100
AcDbLine
 10
396.8309999999998
 20
99.41310000000001
 30
0.0
 11
396.8309999999998
 21
111.413
 31
0.0
  0
LINE
  5
94FA
330
946D
100
AcDbEntity
  8
5
  6
PHANTOM
100
AcDbLine
 10
385.9259999999999
 20
247.263
 30
0.0
 11
382.8309999999998
 21
247.263
 31
0.0
  0
LINE
  5
94FB
330
946D
100
AcDbEntity
  8
1
  6
Continuous
100
AcDbLine
 10
395.8309999999999
 20
98.4131
 30
0.0
 11
386.8309999999998
 21
98.4131
 31
0.0
  0
LINE
  5
94FC
330
946D
100
AcDbEntity
  8
1
  6
Continuous
100
AcDbLine
 10
395.8309999999999
 20
112.413
 30
0.0
 11
386.8309999999998
 21
112.413
 31
0.0
  0
LINE
  5
94FD
330
946D
100
AcDbEntity
  8
1
  6
Continuous
100
AcDbLine
 10
477.5339999999998
 20
98.4131
 30
0.0
 11
469.5339999999998
 21
98.4131
 31
0.0
  0
LINE
  5
94FE
330
946D
100
AcDbEntity
  8
1
  6
Continuous
100
AcDbLine
 10
477.5339999999998
 20
112.413
 30
0.0
 11
469.5339999999998
 21
112.413
 31
0.0
  0
LINE
  5
94FF
330
946D
100
AcDbEntity
  8
1
  6
Continuous
100
AcDbLine
 10
468.534
 20
99.41310000000001
 30
0.0
 11
468.534
 21
111.413
 31
0.0
  0
LINE
  5
9500
330
946D
100
AcDbEntity
  8
1
  6
Continuous
100
AcDbLine
 10
297.4459999999999
 20
80.41310000000001
 30
0.0
 11
295.7679999999998
 21
80.41310000000001
 31
0.0
  0
LINE
  5
9501
330
946D
100
AcDbEntity
  8
1
  6
Continuous
100
AcDbLine
 10
297.4459999999999
 20
130.4129999999998
 30
0.0
 11
295.7679999999998
 21
130.4129999999998
 31
0.0
  0
LINE
  5
9502
330
946D
100
AcDbEntity
  8
1
  6
Continuous
100
AcDbLine
 10
299.7679999999999
 20
264.263
 30
0.0
 11
293.7679999999998
 21
264.263
 31
0.0
  0
LINE
  5
9503
330
946D
100
AcDbEntity
  8
1
  6
Continuous
100
AcDbLine
 10
319.3309999999998
 20
286.7629999999999
 30
0.0
 11
307.3309999999999
 21
286.7629999999999
 31
0.0
  0
LINE
  5
9504
330
946D
100
AcDbEntity
  8
1
  6
Continuous
100
AcDbLine
 10
319.3309999999998
 20
288.7629999999999
 30
0.0
 11
307.3309999999999
 21
288.7629999999999
 31
0.0
  0
LINE
  5
9505
330
946D
100
AcDbEntity
  8
1
  6
Continuous
100
AcDbLine
 10
299.7679999999999
 20
266.2629999999999
 30
0.0
 11
293.7679999999998
 21
266.2629999999999
 31
0.0
  0
LINE
  5
9506
330
946D
100
AcDbEntity
  8
1
  6
Continuous
100
AcDbLine
 10
319.3309999999998
 20
286.7629999999999
 30
0.0
 11
319.3309999999998
 21
288.7629999999999
 31
0.0
  0
LINE
  5
9507
330
946D
100
AcDbEntity
  8
1
  6
Continuous
100
AcDbLine
 10
307.3309999999999
 20
286.7629999999999
 30
0.0
 11
301.699
 21
265.745
 31
0.0
  0
LINE
  5
9508
330
946D
100
AcDbEntity
  8
1
  6
Continuous
100
AcDbLine
 10
305.399
 20
287.2799999999998
 30
0.0
 11
299.7679999999999
 21
266.2629999999999
 31
0.0
  0
LINE
  5
9509
330
946D
100
AcDbEntity
  8
1
  6
Continuous
100
AcDbLine
 10
293.7679999999998
 20
264.263
 30
0.0
 11
293.7679999999998
 21
266.2629999999999
 31
0.0
  0
LINE
  5
950A
330
946D
100
AcDbEntity
  8
1
  6
Continuous
100
AcDbLine
 10
94.92600000000001
 20
80.41310000000001
 30
0.0
 11
116.49
 21
80.41310000000001
 31
0.0
  0
LINE
  5
950B
330
946D
100
AcDbEntity
  8
1
  6
Continuous
100
AcDbLine
 10
92.926
 20
82.4131
 30
0.0
 11
92.926
 21
97.5136
 31
0.0
  0
LINE
  5
950C
330
946D
100
AcDbEntity
  8
1
  6
Continuous
100
AcDbLine
 10
94.92600000000001
 20
130.4129999999998
 30
0.0
 11
116.49
 21
130.4129999999998
 31
0.0
  0
LINE
  5
950D
330
946D
100
AcDbEntity
  8
1
  6
Continuous
100
AcDbLine
 10
118.49
 20
82.4131
 30
0.0
 11
118.49
 21
128.4129999999999
 31
0.0
  0
LINE
  5
950E
330
946D
100
AcDbEntity
  8
1
  6
Continuous
100
AcDbLine
 10
92.926
 20
113.3129999999999
 30
0.0
 11
92.926
 21
128.4129999999999
 31
0.0
  0
LINE
  5
950F
330
946D
100
AcDbEntity
  8
1
  6
Continuous
100
AcDbLine
 10
112.4895
 20
80.41310000000001
 30
0.0
 11
112.4895
 21
130.4129999999998
 31
0.0
  0
LINE
  5
9510
330
946D
100
AcDbEntity
  8
1
  6
Continuous
100
AcDbLine
 10
106.4605999999999
 20
128.4089999999999
 30
0.0
 11
106.4605999999999
 21
82.17629999999997
 31
0.0
  0
LINE
  5
9511
330
946D
100
AcDbEntity
  8
1
  6
Continuous
100
AcDbLine
 10
220.3279999999999
 20
130.4129999999998
 30
0.0
 11
208.129
 21
130.4129999999998
 31
0.0
  0
LINE
  5
9512
330
946D
100
AcDbEntity
  8
1
  6
Continuous
100
AcDbLine
 10
220.3279999999999
 20
80.41310000000001
 30
0.0
 11
208.129
 21
80.41310000000001
 31
0.0
  0
LINE
  5
9513
330
946D
100
AcDbEntity
  8
1
  6
Continuous
100
AcDbLine
 10
220.3279999999999
 20
90.41310000000001
 30
0.0
 11
212.129
 21
90.41310000000001
 31
0.0
  0
LINE
  5
9514
330
946D
100
AcDbEntity
  8
1
  6
Continuous
100
AcDbLine
 10
220.3279999999999
 20
120.4129999999999
 30
0.0
 11
212.129
 21
120.4129999999999
 31
0.0
  0
LINE
  5
9515
330
946D
100
AcDbEntity
  8
1
  6
Continuous
100
AcDbLine
 10
383.8309999999999
 20
252.763
 30
0.0
 11
382.8309999999998
 21
252.763
 31
0.0
  0
LINE
  5
9516
330
946D
100
AcDbEntity
  8
1
  6
Continuous
100
AcDbLine
 10
383.8309999999999
 20
245.7629999999999
 30
0.0
 11
382.8309999999998
 21
245.7629999999999
 31
0.0
  0
LINE
  5
9517
330
946D
100
AcDbEntity
  8
1
  6
Continuous
100
AcDbLine
 10
383.8309999999999
 20
138.9129999999999
 30
0.0
 11
382.8309999999998
 21
138.9129999999999
 31
0.0
  0
LINE
  5
9518
330
946D
100
AcDbEntity
  8
1
  6
Continuous
100
AcDbLine
 10
383.8309999999999
 20
131.9129999999999
 30
0.0
 11
382.8309999999998
 21
131.9129999999999
 31
0.0
  0
LINE
  5
9519
330
946D
100
AcDbEntity
  8
1
  6
Continuous
100
AcDbLine
 10
451.534
 20
67.4131
 30
0.0
 11
459.534
 21
67.4131
 31
0.0
  0
LINE
  5
951A
330
946D
100
AcDbEntity
  8
1
  6
Continuous
100
AcDbLine
 10
384.8309999999998
 20
112.413
 30
0.0
 11
369.783
 21
112.413
 31
0.0
  0
LINE
  5
951B
330
946D
100
AcDbEntity
  8
1
  6
Continuous
100
AcDbLine
 10
384.8309999999998
 20
98.4131
 30
0.0
 11
369.783
 21
98.4131
 31
0.0
  0
LINE
  5
951C
330
946D
100
AcDbEntity
  8
1
  6
Continuous
100
AcDbLine
 10
382.8309999999998
 20
247.263
 30
0.0
 11
361.0339999999998
 21
247.263
 31
0.0
  0
LINE
  5
951D
330
946D
100
AcDbEntity
  8
1
  6
Continuous
100
AcDbLine
 10
191.1289999999999
 20
130.4129999999998
 30
0.0
 11
166.629
 21
130.4129999999998
 31
0.0
  0
LINE
  5
951E
330
946D
100
AcDbEntity
  8
1
  6
Continuous
100
AcDbLine
 10
191.1289999999999
 20
80.41310000000001
 30
0.0
 11
166.629
 21
80.41310000000001
 31
0.0
  0
LINE
  5
951F
330
946D
100
AcDbEntity
  8
1
  6
Continuous
100
AcDbLine
 10
191.1289999999999
 20
80.41310000000001
 30
0.0
 11
191.1289999999999
 21
130.4129999999998
 31
0.0
  0
LINE
  5
9520
330
946D
100
AcDbEntity
  8
4
  6
CENTER
100
AcDbLine
 10
196.274
 20
105.413
 30
0.0
 11
160.481
 21
105.413
 31
0.0
  0
LINE
  5
9521
330
946D
100
AcDbEntity
  8
1
  6
Continuous
100
AcDbLine
 10
189.1289999999999
 20
80.41310000000001
 30
0.0
 11
189.1289999999999
 21
130.4129999999998
 31
0.0
  0
LINE
  5
9522
330
946D
100
AcDbEntity
  8
1
  6
Continuous
100
AcDbLine
 10
166.629
 20
80.41310000000001
 30
0.0
 11
166.629
 21
130.4129999999998
 31
0.0
  0
LINE
  5
9523
330
946D
100
AcDbEntity
  8
4
  6
CENTER
100
AcDbLine
 10
168.6999999999999
 20
85.41310000000001
 30
0.0
 11
159.6249999999998
 21
85.41310000000001
 31
0.0
  0
LINE
  5
9524
330
946D
100
AcDbEntity
  8
4
  6
CENTER
100
AcDbLine
 10
169.388
 20
125.4129999999999
 30
0.0
 11
159.487
 21
125.4129999999999
 31
0.0
  0
LINE
  5
9525
330
946D
100
AcDbEntity
  8
4
  6
CENTER
100
AcDbLine
 10
10.425966
 20
105.413
 30
0.0
 11
128.7129999999999
 21
105.413
 31
0.0
  0
LINE
  5
9526
330
946D
100
AcDbEntity
  8
4
  6
CENTER
100
AcDbLine
 10
78.926
 20
47.54249999999998
 30
0.0
 11
78.926
 21
163.9929999999999
 31
0.0
  0
LINE
  5
9527
330
946D
100
AcDbEntity
  8
4
  6
CENTER
100
AcDbLine
 10
61.426
 20
52.6072
 30
0.0
 11
61.426
 21
157.66
 31
0.0
  0
LINE
  5
9528
330
946D
100
AcDbEntity
  8
1
  6
Continuous
100
AcDbLine
 10
15.425966
 20
99.413
 30
0.0
 11
15.425966
 21
111.413
 31
0.0
  0
LINE
  5
9529
330
946D
100
AcDbEntity
  8
1
  6
Continuous
100
AcDbLine
 10
25.426
 20
65.4131
 30
0.0
 11
25.426
 21
98.4131
 31
0.0
  0
LINE
  5
952A
330
946D
100
AcDbEntity
  8
1
  6
Continuous
100
AcDbLine
 10
60.8255
 20
65.4131
 30
0.0
 11
95.87569999999999
 21
100.4629999999998
 31
0.0
  0
LINE
  5
952B
330
946D
100
AcDbEntity
  8
1
  6
Continuous
100
AcDbLine
 10
25.426
 20
145.4129999999999
 30
0.0
 11
60.8255
 21
145.4129999999999
 31
0.0
  0
LINE
  5
952C
330
946D
100
AcDbEntity
  8
1
  6
Continuous
100
AcDbLine
 10
25.426
 20
65.4131
 30
0.0
 11
60.8255
 21
65.4131
 31
0.0
  0
LINE
  5
952D
330
946D
100
AcDbEntity
  8
1
  6
Continuous
100
AcDbLine
 10
60.8255
 20
145.4129999999999
 30
0.0
 11
95.87569999999999
 21
110.363
 31
0.0
  0
LINE
  5
952E
330
946D
100
AcDbEntity
  8
4
  6
CENTER
100
AcDbLine
 10
90.926
 20
99.41310000000001
 30
0.0
 11
90.926
 21
111.413
 31
0.0
  0
LINE
  5
952F
330
946D
100
AcDbEntity
  8
4
  6
CENTER
100
AcDbLine
 10
61.926
 20
75.4131
 30
0.0
 11
49.926
 21
75.4131
 31
0.0
  0
LINE
  5
9530
330
946D
100
AcDbEntity
  8
4
  6
CENTER
100
AcDbLine
 10
55.926
 20
69.4131
 30
0.0
 11
55.926
 21
81.4131
 31
0.0
  0
LINE
  5
9531
330
946D
100
AcDbEntity
  8
4
  6
CENTER
100
AcDbLine
 10
61.926
 20
135.4129999999998
 30
0.0
 11
49.926
 21
135.4129999999998
 31
0.0
  0
LINE
  5
9532
330
946D
100
AcDbEntity
  8
4
  6
CENTER
100
AcDbLine
 10
55.926
 20
129.4129999999998
 30
0.0
 11
55.926
 21
141.4129999999999
 31
0.0
  0
LINE
  5
9533
330
946D
100
AcDbEntity
  8
4
  6
CENTER
100
AcDbLine
 10
22.14971999999999
 20
135.4129999999998
 30
0.0
 11
33.71309999999999
 21
135.4129999999998
 31
0.0
  0
LINE
  5
9534
330
946D
100
AcDbEntity
  8
4
  6
CENTER
100
AcDbLine
 10
22.14971999999999
 20
75.4131
 30
0.0
 11
33.88819999999999
 21
75.4131
 31
0.0
  0
LINE
  5
9535
330
946D
100
AcDbEntity
  8
1
  6
Continuous
100
AcDbLine
 10
52.4263
 20
64.9131
 30
0.0
 11
52.4263
 21
65.4131
 31
0.0
  0
LINE
  5
9536
330
946D
100
AcDbEntity
  8
1
  6
Continuous
100
AcDbLine
 10
102.926
 20
64.9131
 30
0.0
 11
52.4263
 21
64.9131
 31
0.0
  0
LINE
  5
9537
330
946D
100
AcDbEntity
  8
1
  6
Continuous
100
AcDbLine
 10
102.926
 20
145.9129999999998
 30
0.0
 11
52.4263
 21
145.9129999999998
 31
0.0
  0
LINE
  5
9538
330
946D
100
AcDbEntity
  8
1
  6
Continuous
100
AcDbLine
 10
52.4263
 20
145.4129999999999
 30
0.0
 11
52.4263
 21
145.9129999999998
 31
0.0
  0
LINE
  5
9539
330
946D
100
AcDbEntity
  8
1
  6
Continuous
100
AcDbLine
 10
99.25440000000001
 20
126.085
 30
0.0
 11
98.74760000000001
 21
125.848
 31
0.0
  0
LINE
  5
953A
330
946D
100
AcDbEntity
  8
1
  6
Continuous
100
AcDbLine
 10
98.74760000000001
 20
125.848
 30
0.0
 11
97.86839999999999
 21
125.8329999999999
 31
0.0
  0
LINE
  5
953B
330
946D
100
AcDbEntity
  8
1
  6
Continuous
100
AcDbLine
 10
98.74760000000001
 20
124.9779999999998
 30
0.0
 11
97.86839999999999
 21
124.9929999999999
 31
0.0
  0
LINE
  5
953C
330
946D
100
AcDbEntity
  8
1
  6
Continuous
100
AcDbLine
 10
99.2543
 20
124.741
 30
0.0
 11
98.74760000000001
 21
124.9779999999998
 31
0.0
  0
LINE
  5
953D
330
946D
100
AcDbEntity
  8
1
  6
Continuous
100
AcDbLine
 10
100.5975999999999
 20
124.741
 30
0.0
 11
100.3613
 21
124.235
 31
0.0
  0
LINE
  5
953E
330
946D
100
AcDbEntity
  8
1
  6
Continuous
100
AcDbLine
 10
100.3613
 20
124.235
 30
0.0
 11
100.3459
 21
123.3559999999999
 31
0.0
  0
LINE
  5
953F
330
946D
100
AcDbEntity
  8
1
  6
Continuous
100
AcDbLine
 10
99.49060000000001
 20
124.235
 30
0.0
 11
99.5059
 21
123.355
 31
0.0
  0
LINE
  5
9540
330
946D
100
AcDbEntity
  8
1
  6
Continuous
100
AcDbLine
 10
99.2543
 20
124.741
 30
0.0
 11
99.49060000000001
 21
124.235
 31
0.0
  0
LINE
  5
9541
330
946D
100
AcDbEntity
  8
1
  6
Continuous
100
AcDbLine
 10
100.5975999999999
 20
126.085
 30
0.0
 11
101.1042999999999
 21
125.848
 31
0.0
  0
LINE
  5
9542
330
946D
100
AcDbEntity
  8
1
  6
Continuous
100
AcDbLine
 10
101.1042999999999
 20
125.848
 30
0.0
 11
101.9835
 21
125.8329999999999
 31
0.0
  0
LINE
  5
9543
330
946D
100
AcDbEntity
  8
1
  6
Continuous
100
AcDbLine
 10
101.1042999999999
 20
124.9779999999998
 30
0.0
 11
101.9835
 21
124.9929999999999
 31
0.0
  0
LINE
  5
9544
330
946D
100
AcDbEntity
  8
1
  6
Continuous
100
AcDbLine
 10
100.5975999999999
 20
124.741
 30
0.0
 11
101.1042999999999
 21
124.9779999999998
 31
0.0
  0
LINE
  5
9545
330
946D
100
AcDbEntity
  8
1
  6
Continuous
100
AcDbLine
 10
99.2543
 20
126.085
 30
0.0
 11
99.49060000000001
 21
126.5909999999999
 31
0.0
  0
LINE
  5
9546
330
946D
100
AcDbEntity
  8
1
  6
Continuous
100
AcDbLine
 10
99.49060000000001
 20
126.5909999999999
 30
0.0
 11
99.5059
 21
127.471
 31
0.0
  0
LINE
  5
9547
330
946D
100
AcDbEntity
  8
1
  6
Continuous
100
AcDbLine
 10
100.3613
 20
126.5909999999999
 30
0.0
 11
100.3459
 21
127.471
 31
0.0
  0
LINE
  5
9548
330
946D
100
AcDbEntity
  8
1
  6
Continuous
100
AcDbLine
 10
100.5975999999999
 20
126.085
 30
0.0
 11
100.3613
 21
126.5909999999999
 31
0.0
  0
LINE
  5
9549
330
946D
100
AcDbEntity
  8
1
  6
Continuous
100
AcDbLine
 10
395.926
 20
247.263
 30
0.0
 11
386.8309999999998
 21
247.263
 31
0.0
  0
LINE
  5
954A
330
946D
100
AcDbEntity
  8
1
  6
Continuous
100
AcDbLine
 10
388.336
 20
257.2629999999999
 30
0.0
 11
386.8309999999998
 21
257.2629999999999
 31
0.0
  0
LINE
  5
954B
330
946D
100
AcDbEntity
  8
1
  6
Continuous
100
AcDbLine
 10
99.49060000000001
 20
84.2347
 30
0.0
 11
99.50600000000001
 21
83.35550000000003
 31
0.0
  0
LINE
  5
954C
330
946D
100
AcDbEntity
  8
1
  6
Continuous
100
AcDbLine
 10
99.2543
 20
84.74149999999999
 30
0.0
 11
99.49060000000001
 21
84.2347
 31
0.0
  0
LINE
  5
954D
330
946D
100
AcDbEntity
  8
1
  6
Continuous
100
AcDbLine
 10
99.2543
 20
84.74149999999999
 30
0.0
 11
98.74760000000001
 21
84.9777
 31
0.0
  0
LINE
  5
954E
330
946D
100
AcDbEntity
  8
1
  6
Continuous
100
AcDbLine
 10
98.74760000000001
 20
84.9777
 30
0.0
 11
97.86839999999999
 21
84.99309999999999
 31
0.0
  0
LINE
  5
954F
330
946D
100
AcDbEntity
  8
1
  6
Continuous
100
AcDbLine
 10
98.74760000000001
 20
85.84839999999998
 30
0.0
 11
97.86839999999999
 21
85.8331
 31
0.0
  0
LINE
  5
9550
330
946D
100
AcDbEntity
  8
1
  6
Continuous
100
AcDbLine
 10
99.2543
 20
86.0847
 30
0.0
 11
98.74760000000001
 21
85.84839999999998
 31
0.0
  0
LINE
  5
9551
330
946D
100
AcDbEntity
  8
1
  6
Continuous
100
AcDbLine
 10
99.2543
 20
86.0847
 30
0.0
 11
99.49060000000001
 21
86.59139999999998
 31
0.0
  0
LINE
  5
9552
330
946D
100
AcDbEntity
  8
1
  6
Continuous
100
AcDbLine
 10
99.49060000000001
 20
86.59139999999998
 30
0.0
 11
99.5059
 21
87.47060000000002
 31
0.0
  0
LINE
  5
9553
330
946D
100
AcDbEntity
  8
1
  6
Continuous
100
AcDbLine
 10
100.3613
 20
86.59139999999998
 30
0.0
 11
100.3459
 21
87.47060000000002
 31
0.0
  0
LINE
  5
9554
330
946D
100
AcDbEntity
  8
1
  6
Continuous
100
AcDbLine
 10
100.5975999999999
 20
86.0847
 30
0.0
 11
100.3613
 21
86.59139999999998
 31
0.0
  0
LINE
  5
9555
330
946D
100
AcDbEntity
  8
1
  6
Continuous
100
AcDbLine
 10
100.5975999999999
 20
86.0847
 30
0.0
 11
101.1042999999999
 21
85.84839999999998
 31
0.0
  0
LINE
  5
9556
330
946D
100
AcDbEntity
  8
1
  6
Continuous
100
AcDbLine
 10
101.1042999999999
 20
84.9777
 30
0.0
 11
101.9835
 21
84.99309999999999
 31
0.0
  0
LINE
  5
9557
330
946D
100
AcDbEntity
  8
1
  6
Continuous
100
AcDbLine
 10
101.1042999999999
 20
85.84839999999998
 30
0.0
 11
101.9835
 21
85.8331
 31
0.0
  0
LINE
  5
9558
330
946D
100
AcDbEntity
  8
1
  6
Continuous
100
AcDbLine
 10
100.5975999999999
 20
84.7414
 30
0.0
 11
101.1042999999999
 21
84.9777
 31
0.0
  0
LINE
  5
9559
330
946D
100
AcDbEntity
  8
1
  6
Continuous
100
AcDbLine
 10
100.3613
 20
84.2347
 30
0.0
 11
100.346
 21
83.35550000000003
 31
0.0
  0
LINE
  5
955A
330
946D
100
AcDbEntity
  8
1
  6
Continuous
100
AcDbLine
 10
100.5975999999999
 20
84.7414
 30
0.0
 11
100.3613
 21
84.2347
 31
0.0
  0
LINE
  5
955B
330
946D
100
AcDbEntity
  8
1
  6
Continuous
100
AcDbLine
 10
90.23290000000001
 20
106.1059999999999
 30
0.0
 11
89.6836
 21
105.8499999999998
 31
0.0
  0
LINE
  5
955C
330
946D
100
AcDbEntity
  8
1
  6
Continuous
100
AcDbLine
 10
89.6836
 20
105.8499999999998
 30
0.0
 11
88.7155
 21
105.8329999999999
 31
0.0
  0
LINE
  5
955D
330
946D
100
AcDbEntity
  8
1
  6
Continuous
100
AcDbLine
 10
89.6836
 20
104.976
 30
0.0
 11
88.7155
 21
104.993
 31
0.0
  0
LINE
  5
955E
330
946D
100
AcDbEntity
  8
1
  6
Continuous
100
AcDbLine
 10
90.23290000000001
 20
104.7199999999999
 30
0.0
 11
89.6836
 21
104.976
 31
0.0
  0
LINE
  5
955F
330
946D
100
AcDbEntity
  8
1
  6
Continuous
100
AcDbLine
 10
91.61900000000001
 20
104.7199999999999
 30
0.0
 11
91.3629
 21
104.171
 31
0.0
  0
LINE
  5
9560
330
946D
100
AcDbEntity
  8
1
  6
Continuous
100
AcDbLine
 10
91.36279999999999
 20
104.171
 30
0.0
 11
91.34590000000001
 21
103.203
 31
0.0
  0
LINE
  5
9561
330
946D
100
AcDbEntity
  8
1
  6
Continuous
100
AcDbLine
 10
90.48909999999999
 20
104.171
 30
0.0
 11
90.50600000000001
 21
103.203
 31
0.0
  0
LINE
  5
9562
330
946D
100
AcDbEntity
  8
1
  6
Continuous
100
AcDbLine
 10
90.23290000000001
 20
104.7199999999999
 30
0.0
 11
90.48900000000001
 21
104.171
 31
0.0
  0
LINE
  5
9563
330
946D
100
AcDbEntity
  8
1
  6
Continuous
100
AcDbLine
 10
91.61900000000001
 20
106.1059999999999
 30
0.0
 11
92.16829999999999
 21
105.8499999999998
 31
0.0
  0
LINE
  5
9564
330
946D
100
AcDbEntity
  8
1
  6
Continuous
100
AcDbLine
 10
92.16829999999999
 20
105.8499999999998
 30
0.0
 11
93.13639999999999
 21
105.8329999999999
 31
0.0
  0
LINE
  5
9565
330
946D
100
AcDbEntity
  8
1
  6
Continuous
100
AcDbLine
 10
92.16829999999999
 20
104.976
 30
0.0
 11
93.13639999999999
 21
104.993
 31
0.0
  0
LINE
  5
9566
330
946D
100
AcDbEntity
  8
1
  6
Continuous
100
AcDbLine
 10
91.61900000000001
 20
104.7199999999999
 30
0.0
 11
92.16829999999999
 21
104.976
 31
0.0
  0
LINE
  5
9567
330
946D
100
AcDbEntity
  8
1
  6
Continuous
100
AcDbLine
 10
90.23290000000001
 20
106.1059999999999
 30
0.0
 11
90.48909999999999
 21
106.655
 31
0.0
  0
LINE
  5
9568
330
946D
100
AcDbEntity
  8
1
  6
Continuous
100
AcDbLine
 10
90.48900000000001
 20
106.655
 30
0.0
 11
90.50589999999999
 21
107.624
 31
0.0
  0
LINE
  5
9569
330
946D
100
AcDbEntity
  8
1
  6
Continuous
100
AcDbLine
 10
91.36279999999999
 20
106.655
 30
0.0
 11
91.34590000000001
 21
107.624
 31
0.0
  0
LINE
  5
956A
330
946D
100
AcDbEntity
  8
1
  6
Continuous
100
AcDbLine
 10
91.61900000000001
 20
106.1059999999999
 30
0.0
 11
91.3629
 21
106.655
 31
0.0
  0
LINE
  5
956B
330
946D
100
AcDbEntity
  8
1
  6
Continuous
100
AcDbLine
 10
55.2329
 20
136.1059999999999
 30
0.0
 11
54.6836
 21
135.85
 31
0.0
  0
LINE
  5
956C
330
946D
100
AcDbEntity
  8
1
  6
Continuous
100
AcDbLine
 10
54.6836
 20
135.85
 30
0.0
 11
53.7155
 21
135.833
 31
0.0
  0
LINE
  5
956D
330
946D
100
AcDbEntity
  8
1
  6
Continuous
100
AcDbLine
 10
54.6836
 20
134.976
 30
0.0
 11
53.7156
 21
134.993
 31
0.0
  0
LINE
  5
956E
330
946D
100
AcDbEntity
  8
1
  6
Continuous
100
AcDbLine
 10
55.2329
 20
134.7199999999999
 30
0.0
 11
54.6836
 21
134.976
 31
0.0
  0
LINE
  5
956F
330
946D
100
AcDbEntity
  8
1
  6
Continuous
100
AcDbLine
 10
56.619
 20
134.7199999999999
 30
0.0
 11
56.3629
 21
134.1709999999999
 31
0.0
  0
LINE
  5
9570
330
946D
100
AcDbEntity
  8
1
  6
Continuous
100
AcDbLine
 10
56.3629
 20
134.1709999999999
 30
0.0
 11
56.34599999999998
 21
133.203
 31
0.0
  0
LINE
  5
9571
330
946D
100
AcDbEntity
  8
1
  6
Continuous
100
AcDbLine
 10
55.4891
 20
134.1709999999999
 30
0.0
 11
55.506
 21
133.203
 31
0.0
  0
LINE
  5
9572
330
946D
100
AcDbEntity
  8
1
  6
Continuous
100
AcDbLine
 10
55.2329
 20
134.7199999999999
 30
0.0
 11
55.4891
 21
134.1709999999999
 31
0.0
  0
LINE
  5
9573
330
946D
100
AcDbEntity
  8
1
  6
Continuous
100
AcDbLine
 10
56.619
 20
136.1059999999999
 30
0.0
 11
57.1683
 21
135.85
 31
0.0
  0
LINE
  5
9574
330
946D
100
AcDbEntity
  8
1
  6
Continuous
100
AcDbLine
 10
57.1684
 20
135.85
 30
0.0
 11
58.1364
 21
135.833
 31
0.0
  0
LINE
  5
9575
330
946D
100
AcDbEntity
  8
1
  6
Continuous
100
AcDbLine
 10
57.1683
 20
134.976
 30
0.0
 11
58.1364
 21
134.993
 31
0.0
  0
LINE
  5
9576
330
946D
100
AcDbEntity
  8
1
  6
Continuous
100
AcDbLine
 10
56.619
 20
134.7199999999999
 30
0.0
 11
57.1683
 21
134.976
 31
0.0
  0
LINE
  5
9577
330
946D
100
AcDbEntity
  8
1
  6
Continuous
100
AcDbLine
 10
55.2329
 20
136.1059999999999
 30
0.0
 11
55.4891
 21
136.6549999999998
 31
0.0
  0
LINE
  5
9578
330
946D
100
AcDbEntity
  8
1
  6
Continuous
100
AcDbLine
 10
55.4891
 20
136.6549999999998
 30
0.0
 11
55.506
 21
137.6239999999999
 31
0.0
  0
LINE
  5
9579
330
946D
100
AcDbEntity
  8
1
  6
Continuous
100
AcDbLine
 10
56.3629
 20
136.6549999999998
 30
0.0
 11
56.34599999999998
 21
137.6239999999999
 31
0.0
  0
LINE
  5
957A
330
946D
100
AcDbEntity
  8
1
  6
Continuous
100
AcDbLine
 10
56.619
 20
136.1059999999999
 30
0.0
 11
56.3628
 21
136.6549999999998
 31
0.0
  0
LINE
  5
957B
330
946D
100
AcDbEntity
  8
1
  6
Continuous
100
AcDbLine
 10
55.2329
 20
76.1061
 30
0.0
 11
54.6836
 21
75.84999999999998
 31
0.0
  0
LINE
  5
957C
330
946D
100
AcDbEntity
  8
1
  6
Continuous
100
AcDbLine
 10
54.6836
 20
75.84999999999998
 30
0.0
 11
53.7155
 21
75.8331
 31
0.0
  0
LINE
  5
957D
330
946D
100
AcDbEntity
  8
1
  6
Continuous
100
AcDbLine
 10
54.6836
 20
74.97620000000002
 30
0.0
 11
53.7155
 21
74.9931
 31
0.0
  0
LINE
  5
957E
330
946D
100
AcDbEntity
  8
1
  6
Continuous
100
AcDbLine
 10
55.2329
 20
74.72
 30
0.0
 11
54.6836
 21
74.97620000000002
 31
0.0
  0
LINE
  5
957F
330
946D
100
AcDbEntity
  8
1
  6
Continuous
100
AcDbLine
 10
56.619
 20
74.72
 30
0.0
 11
56.3629
 21
74.17069999999998
 31
0.0
  0
LINE
  5
9580
330
946D
100
AcDbEntity
  8
1
  6
Continuous
100
AcDbLine
 10
56.3629
 20
74.17069999999998
 30
0.0
 11
56.34599999999998
 21
73.20260000000001
 31
0.0
  0
LINE
  5
9581
330
946D
100
AcDbEntity
  8
1
  6
Continuous
100
AcDbLine
 10
55.4891
 20
74.17069999999998
 30
0.0
 11
55.506
 21
73.20260000000001
 31
0.0
  0
LINE
  5
9582
330
946D
100
AcDbEntity
  8
1
  6
Continuous
100
AcDbLine
 10
55.2329
 20
74.72
 30
0.0
 11
55.4891
 21
74.17069999999998
 31
0.0
  0
LINE
  5
9583
330
946D
100
AcDbEntity
  8
1
  6
Continuous
100
AcDbLine
 10
56.619
 20
76.1061
 30
0.0
 11
57.1684
 21
75.84999999999998
 31
0.0
  0
LINE
  5
9584
330
946D
100
AcDbEntity
  8
1
  6
Continuous
100
AcDbLine
 10
57.1684
 20
75.84999999999998
 30
0.0
 11
58.1364
 21
75.8331
 31
0.0
  0
LINE
  5
9585
330
946D
100
AcDbEntity
  8
1
  6
Continuous
100
AcDbLine
 10
57.1684
 20
74.97620000000002
 30
0.0
 11
58.1364
 21
74.9931
 31
0.0
  0
LINE
  5
9586
330
946D
100
AcDbEntity
  8
1
  6
Continuous
100
AcDbLine
 10
56.619
 20
74.72
 30
0.0
 11
57.1684
 21
74.97620000000002
 31
0.0
  0
LINE
  5
9587
330
946D
100
AcDbEntity
  8
1
  6
Continuous
100
AcDbLine
 10
55.2329
 20
76.1061
 30
0.0
 11
55.4891
 21
76.6555
 31
0.0
  0
LINE
  5
9588
330
946D
100
AcDbEntity
  8
1
  6
Continuous
100
AcDbLine
 10
55.4891
 20
76.6554
 30
0.0
 11
55.506
 21
77.62350000000002
 31
0.0
  0
LINE
  5
9589
330
946D
100
AcDbEntity
  8
1
  6
Continuous
100
AcDbLine
 10
56.3629
 20
76.6554
 30
0.0
 11
56.34599999999998
 21
77.62350000000002
 31
0.0
  0
LINE
  5
958A
330
946D
100
AcDbEntity
  8
1
  6
Continuous
100
AcDbLine
 10
56.619
 20
76.1061
 30
0.0
 11
56.3629
 21
76.6554
 31
0.0
  0
LINE
  5
958B
330
946D
100
AcDbEntity
  8
5
  6
PHANTOM
100
AcDbLine
 10
347.6739999999999
 20
225.91
 30
0.0
 11
324.6449999999999
 21
207.01
 31
0.0
  0
LINE
  5
958C
330
946D
100
AcDbEntity
  8
1
  6
Continuous
100
AcDbLine
 10
212.129
 20
102.9129999999999
 30
0.0
 11
208.129
 21
102.9129999999999
 31
0.0
  0
LINE
  5
958D
330
946D
100
AcDbEntity
  8
1
  6
Continuous
100
AcDbLine
 10
212.129
 20
107.9129999999999
 30
0.0
 11
208.129
 21
107.9129999999999
 31
0.0
  0
LINE
  5
958E
330
946D
100
AcDbEntity
  8
1
  6
Continuous
100
AcDbLine
 10
218.3289999999999
 20
130.4129999999998
 30
0.0
 11
218.3289999999999
 21
137.9129999999999
 31
0.0
  0
LINE
  5
958F
330
946D
100
AcDbEntity
  8
1
  6
Continuous
100
AcDbLine
 10
218.3289999999999
 20
90.41310000000001
 30
0.0
 11
218.3289999999999
 21
120.4129999999999
 31
0.0
  0
LINE
  5
9590
330
946D
100
AcDbEntity
  8
4
  6
CENTER
100
AcDbLine
 10
229.129
 20
54.7492
 30
0.0
 11
229.129
 21
157.66
 31
0.0
  0
LINE
  5
9591
330
946D
100
AcDbEntity
  8
4
  6
CENTER
100
AcDbLine
 10
457.5339999999997
 20
52.4732
 30
0.0
 11
457.5339999999997
 21
155.5979999999999
 31
0.0
  0
LINE
  5
9592
330
946D
100
AcDbEntity
  8
1
  6
Continuous
100
AcDbLine
 10
317.2889999999998
 20
289.563
 30
0.0
 11
317.2889999999998
 21
288.7629999999999
 31
0.0
  0
LINE
  5
9593
330
946D
100
AcDbEntity
  8
1
  6
Continuous
100
AcDbLine
 10
307.289
 20
289.563
 30
0.0
 11
317.2889999999998
 21
289.563
 31
0.0
  0
LINE
  5
9594
330
946D
100
AcDbEntity
  8
1
  6
Continuous
100
AcDbLine
 10
307.289
 20
289.563
 30
0.0
 11
307.289
 21
288.7629999999999
 31
0.0
  0
LINE
  5
9595
330
946D
100
AcDbEntity
  8
1
  6
Continuous
100
AcDbLine
 10
308.4889999999999
 20
290.563
 30
0.0
 11
308.4889999999999
 21
289.563
 31
0.0
  0
LINE
  5
9596
330
946D
100
AcDbEntity
  8
1
  6
Continuous
100
AcDbLine
 10
311.87
 20
290.563
 30
0.0
 11
312.7089999999999
 21
289.563
 31
0.0
  0
LINE
  5
9597
330
946D
100
AcDbEntity
  8
1
  6
Continuous
100
AcDbLine
 10
308.4889999999999
 20
290.563
 30
0.0
 11
316.089
 21
290.563
 31
0.0
  0
LINE
  5
9598
330
946D
100
AcDbEntity
  8
1
  6
Continuous
100
AcDbLine
 10
316.089
 20
290.563
 30
0.0
 11
316.089
 21
289.563
 31
0.0
  0
LINE
  5
9599
330
946D
100
AcDbEntity
  8
1
  6
Continuous
100
AcDbLine
 10
315.789
 20
290.563
 30
0.0
 11
315.6909999999998
 21
291.682
 31
0.0
  0
LINE
  5
959A
330
946D
100
AcDbEntity
  8
1
  6
Continuous
100
AcDbLine
 10
308.7889999999998
 20
290.563
 30
0.0
 11
308.887
 21
291.682
 31
0.0
  0
LINE
  5
959B
330
946D
100
AcDbEntity
  8
4
  6
CENTER
100
AcDbLine
 10
99.92600000000001
 20
118.913
 30
0.0
 11
99.92600000000001
 21
131.9129999999999
 31
0.0
  0
LINE
  5
959C
330
946D
100
AcDbEntity
  8
4
  6
CENTER
100
AcDbLine
 10
106.4259999999999
 20
125.4129999999999
 30
0.0
 11
93.426
 21
125.4129999999999
 31
0.0
  0
LINE
  5
959D
330
946D
100
AcDbEntity
  8
4
  6
CENTER
100
AcDbLine
 10
99.92600000000001
 20
78.9131
 30
0.0
 11
99.92600000000001
 21
91.91309999999999
 31
0.0
  0
LINE
  5
959E
330
946D
100
AcDbEntity
  8
4
  6
CENTER
100
AcDbLine
 10
106.4259999999999
 20
85.41310000000001
 30
0.0
 11
93.426
 21
85.41310000000001
 31
0.0
  0
LINE
  5
959F
330
946D
100
AcDbEntity
  8
1
  6
Continuous
100
AcDbLine
 10
164.829
 20
124.994
 30
0.0
 11
165.829
 21
125.8329999999999
 31
0.0
  0
LINE
  5
95A0
330
946D
100
AcDbEntity
  8
1
  6
Continuous
100
AcDbLine
 10
164.829
 20
128.9129999999999
 30
0.0
 11
163.709
 21
128.8149999999999
 31
0.0
  0
LINE
  5
95A1
330
946D
100
AcDbEntity
  8
1
  6
Continuous
100
AcDbLine
 10
164.829
 20
121.913
 30
0.0
 11
163.709
 21
122.011
 31
0.0
  0
LINE
  5
95A2
330
946D
100
AcDbEntity
  8
1
  6
Continuous
100
AcDbLine
 10
165.829
 20
120.4129999999999
 30
0.0
 11
165.829
 21
130.4129999999998
 31
0.0
  0
LINE
  5
95A3
330
946D
100
AcDbEntity
  8
1
  6
Continuous
100
AcDbLine
 10
164.829
 20
121.6129999999999
 30
0.0
 11
164.829
 21
129.213
 31
0.0
  0
LINE
  5
95A4
330
946D
100
AcDbEntity
  8
1
  6
Continuous
100
AcDbLine
 10
165.829
 20
129.213
 30
0.0
 11
164.829
 21
129.213
 31
0.0
  0
LINE
  5
95A5
330
946D
100
AcDbEntity
  8
1
  6
Continuous
100
AcDbLine
 10
165.829
 20
121.6129999999999
 30
0.0
 11
164.829
 21
121.6129999999999
 31
0.0
  0
LINE
  5
95A6
330
946D
100
AcDbEntity
  8
1
  6
Continuous
100
AcDbLine
 10
166.629
 20
120.4129999999999
 30
0.0
 11
165.829
 21
120.4129999999999
 31
0.0
  0
LINE
  5
95A7
330
946D
100
AcDbEntity
  8
1
  6
Continuous
100
AcDbLine
 10
166.629
 20
130.4129999999998
 30
0.0
 11
165.829
 21
130.4129999999998
 31
0.0
  0
LINE
  5
95A8
330
946D
100
AcDbEntity
  8
1
  6
Continuous
100
AcDbLine
 10
164.829
 20
84.99349999999997
 30
0.0
 11
165.829
 21
85.8326
 31
0.0
  0
LINE
  5
95A9
330
946D
100
AcDbEntity
  8
1
  6
Continuous
100
AcDbLine
 10
164.829
 20
88.9131
 30
0.0
 11
163.709
 21
88.8152
 31
0.0
  0
LINE
  5
95AA
330
946D
100
AcDbEntity
  8
1
  6
Continuous
100
AcDbLine
 10
164.829
 20
81.91309999999999
 30
0.0
 11
163.709
 21
82.01100000000002
 31
0.0
  0
LINE
  5
95AB
330
946D
100
AcDbEntity
  8
1
  6
Continuous
100
AcDbLine
 10
165.829
 20
80.41310000000001
 30
0.0
 11
165.829
 21
90.41310000000001
 31
0.0
  0
LINE
  5
95AC
330
946D
100
AcDbEntity
  8
1
  6
Continuous
100
AcDbLine
 10
164.829
 20
81.6131
 30
0.0
 11
164.829
 21
89.21309999999998
 31
0.0
  0
LINE
  5
95AD
330
946D
100
AcDbEntity
  8
1
  6
Continuous
100
AcDbLine
 10
165.829
 20
89.21309999999998
 30
0.0
 11
164.829
 21
89.21309999999998
 31
0.0
  0
LINE
  5
95AE
330
946D
100
AcDbEntity
  8
1
  6
Continuous
100
AcDbLine
 10
165.829
 20
81.6131
 30
0.0
 11
164.829
 21
81.6131
 31
0.0
  0
LINE
  5
95AF
330
946D
100
AcDbEntity
  8
1
  6
Continuous
100
AcDbLine
 10
166.629
 20
80.41310000000001
 30
0.0
 11
165.829
 21
80.41310000000001
 31
0.0
  0
LINE
  5
95B0
330
946D
100
AcDbEntity
  8
1
  6
Continuous
100
AcDbLine
 10
166.629
 20
90.41310000000001
 30
0.0
 11
165.829
 21
90.41310000000001
 31
0.0
  0
LINE
  5
95B1
330
946D
100
AcDbEntity
  8
4
  6
CENTER
100
AcDbLine
 10
312.3309999999999
 20
241.812
 30
0.0
 11
312.3309999999999
 21
256.142
 31
0.0
  0
LINE
  5
95B2
330
946D
100
AcDbEntity
  8
1
  6
Continuous
100
AcDbLine
 10
307.3299999999999
 20
241.0169999999999
 30
0.0
 11
307.3299999999999
 21
251.263
 31
0.0
  0
LINE
  5
95B3
330
946D
100
AcDbEntity
  8
1
  6
Continuous
100
AcDbLine
 10
319.3299999999999
 20
247.033
 30
0.0
 11
319.3299999999999
 21
251.263
 31
0.0
  0
LINE
  5
95B4
330
946D
100
AcDbEntity
  8
1
  6
Continuous
100
AcDbLine
 10
293.7679999999998
 20
82.4131
 30
0.0
 11
293.7679999999998
 21
128.4129999999999
 31
0.0
  0
LINE
  5
95B5
330
946D
100
AcDbEntity
  8
1
  6
Continuous
100
AcDbLine
 10
108.926
 20
70.9131
 30
0.0
 11
108.926
 21
80.41310000000001
 31
0.0
  0
LINE
  5
95B6
330
946D
100
AcDbEntity
  8
1
  6
Continuous
100
AcDbLine
 10
108.926
 20
130.4129999999998
 30
0.0
 11
108.926
 21
139.9129999999999
 31
0.0
  0
LINE
  5
95B7
330
946D
100
AcDbEntity
  8
1
  6
Continuous
100
AcDbLine
 10
360.8309999999999
 20
142.9129999999998
 30
0.0
 11
339.8309999999999
 21
142.9129999999998
 31
0.0
  0
LINE
  5
95B8
330
946D
100
AcDbEntity
  8
1
  6
Continuous
100
AcDbLine
 10
360.8309999999999
 20
142.9129999999998
 30
0.0
 11
360.8309999999999
 21
67.9131
 31
0.0
  0
LINE
  5
95B9
330
946D
100
AcDbEntity
  8
1
  6
Continuous
100
AcDbLine
 10
336.8309999999999
 20
139.9129999999999
 30
0.0
 11
336.8309999999999
 21
129.4189999999999
 31
0.0
  0
LINE
  5
95BA
330
946D
100
AcDbEntity
  8
1
  6
Continuous
100
AcDbLine
 10
360.8309999999999
 20
67.9131
 30
0.0
 11
311.035
 21
67.9131
 31
0.0
  0
ARC
  5
95BB
330
946D
100
AcDbEntity
  8
1
  6
Continuous
100
AcDbCircle
 10
-138.6689999999999
 20
105.413
 30
0.0
 40
508.4999999999998
100
AcDbArc
 50
355.532
 51
4.46842
  0
ARC
  5
95BC
330
946D
100
AcDbEntity
  8
1
  6
Continuous
100
AcDbCircle
 10
805.3309999999999
 20
105.413
 30
0.0
 40
508.4999999999998
100
AcDbArc
 50
175.532
 51
184.4679999999999
  0
ARC
  5
95BD
330
946D
100
AcDbEntity
  8
1
  6
Continuous
100
AcDbCircle
 10
333.3309999999999
 20
-348.5869999999999
 30
0.0
 40
500.0
100
AcDbArc
 50
86.63769999999997
 51
93.3623
  0
ARC
  5
95BE
330
946D
100
AcDbEntity
  8
1
  6
Continuous
100
AcDbCircle
 10
333.3309999999999
 20
559.4129999999998
 30
0.0
 40
500.0
100
AcDbArc
 50
266.6379999999999
 51
273.362
  0
ARC
  5
95BF
330
946D
100
AcDbEntity
  8
1
  6
Continuous
100
AcDbCircle
 10
304.3579999999999
 20
144.5629999999999
 30
0.0
 40
6.0
100
AcDbArc
 50
93.3623
 51
175.532
  0
ARC
  5
95C0
330
946D
100
AcDbEntity
  8
1
  6
Continuous
100
AcDbCircle
 10
362.3039999999999
 20
144.5629999999999
 30
0.0
 40
6.0
100
AcDbArc
 50
4.468429999999998
 51
86.63769999999997
  0
ARC
  5
95C1
330
946D
100
AcDbEntity
  8
1
  6
Continuous
100
AcDbCircle
 10
362.3039999999999
 20
66.2634
 30
0.0
 40
6.0
100
AcDbArc
 50
273.362
 51
355.532
  0
ARC
  5
95C2
330
946D
100
AcDbEntity
  8
1
  6
Continuous
100
AcDbCircle
 10
304.3579999999999
 20
66.2634
 30
0.0
 40
6.0
100
AcDbArc
 50
184.4679999999999
 51
266.6379999999999
  0
ARC
  5
95C3
330
946D
100
AcDbEntity
  8
1
  6
Continuous
100
AcDbCircle
 10
805.3309999999999
 20
105.413
 30
0.0
 40
500.0
100
AcDbArc
 50
175.9619999999999
 51
184.0379999999998
  0
ARC
  5
95C4
330
946D
100
AcDbEntity
  8
1
  6
Continuous
100
AcDbCircle
 10
309.565
 20
70.4131
 30
0.0
 40
3.0
100
AcDbArc
 50
184.0379999999998
 51
270.0
  0
ARC
  5
95C5
330
946D
100
AcDbEntity
  8
1
  6
Continuous
100
AcDbCircle
 10
309.565
 20
140.4129999999998
 30
0.0
 40
3.0
100
AcDbArc
 50
90.0
 51
175.9619999999999
  0
ARC
  5
95C6
330
946D
100
AcDbEntity
  8
1
  6
Continuous
100
AcDbCircle
 10
-460.3709999999998
 20
105.413
 30
0.0
 40
700.0
100
AcDbArc
 50
356.309
 51
3.691119999999998
  0
ARC
  5
95C7
330
946D
100
AcDbEntity
  8
1
  6
Continuous
100
AcDbCircle
 10
237.179
 20
150.4129999999999
 30
0.0
 40
1.0
100
AcDbArc
 50
3.691119999999998
 51
90.0
  0
ARC
  5
95C8
330
946D
100
AcDbEntity
  8
1
  6
Continuous
100
AcDbCircle
 10
237.179
 20
60.4131
 30
0.0
 40
1.0
100
AcDbArc
 50
270.0
 51
356.309
  0
ARC
  5
95C9
330
946D
100
AcDbEntity
  8
1
  6
Continuous
100
AcDbCircle
 10
226.329
 20
72.9131
 30
0.0
 40
8.0
100
AcDbArc
 50
180.0
 51
270.0
  0
ARC
  5
95CA
330
946D
100
AcDbEntity
  8
1
  6
Continuous
100
AcDbCircle
 10
226.329
 20
137.9129999999999
 30
0.0
 40
8.0
100
AcDbArc
 50
90.0
 51
180.0
  0
ARC
  5
95CB
330
946D
100
AcDbEntity
  8
1
  6
Continuous
100
AcDbCircle
 10
1147.029999999999
 20
105.413
 30
0.0
 40
700.0
100
AcDbArc
 50
176.309
 51
183.6909999999998
  0
ARC
  5
95CC
330
946D
100
AcDbEntity
  8
1
  6
Continuous
100
AcDbCircle
 10
449.4839999999999
 20
150.4129999999999
 30
0.0
 40
1.0
100
AcDbArc
 50
90.0
 51
176.309
  0
ARC
  5
95CD
330
946D
100
AcDbEntity
  8
1
  6
Continuous
100
AcDbCircle
 10
449.4839999999999
 20
60.4131
 30
0.0
 40
1.0
100
AcDbArc
 50
183.6909999999998
 51
270.0
  0
ARC
  5
95CE
330
946D
100
AcDbEntity
  8
1
  6
Continuous
100
AcDbCircle
 10
460.334
 20
72.9131
 30
0.0
 40
8.0
100
AcDbArc
 50
270.0
 51
298.976
  0
ARC
  5
95CF
330
946D
100
AcDbEntity
  8
1
  6
Continuous
100
AcDbCircle
 10
460.334
 20
137.9129999999999
 30
0.0
 40
8.0
100
AcDbArc
 50
61.02409999999999
 51
90.0
  0
ARC
  5
95D0
330
946D
100
AcDbEntity
  8
1
  6
Continuous
100
AcDbCircle
 10
452.5339999999998
 20
141.4129999999999
 30
0.0
 40
1.0
100
AcDbArc
 50
180.0
 51
270.0
  0
ARC
  5
95D1
330
946D
100
AcDbEntity
  8
1
  6
Continuous
100
AcDbCircle
 10
453.5339999999997
 20
141.4129999999999
 30
0.0
 40
1.0
100
AcDbArc
 50
180.0
 51
270.0
  0
ARC
  5
95D2
330
946D
100
AcDbEntity
  8
1
  6
Continuous
100
AcDbCircle
 10
453.5339999999997
 20
69.4131
 30
0.0
 40
1.0
100
AcDbArc
 50
90.0
 51
180.0
  0
ARC
  5
95D3
330
946D
100
AcDbEntity
  8
1
  6
Continuous
100
AcDbCircle
 10
452.5339999999998
 20
69.4131
 30
0.0
 40
1.0
100
AcDbArc
 50
90.0
 51
180.0
  0
ARC
  5
95D4
330
946D
100
AcDbEntity
  8
1
  6
Continuous
100
AcDbCircle
 10
333.3309999999999
 20
925.763
 30
0.0
 40
700.0
100
AcDbArc
 50
267.0889999999999
 51
272.9109999999999
  0
ARC
  5
95D5
330
946D
100
AcDbEntity
  8
1
  6
Continuous
100
AcDbCircle
 10
368.8309999999999
 20
227.665
 30
0.0
 40
1.0
100
AcDbArc
 50
272.9109999999999
 51
0.000009
  0
ARC
  5
95D6
330
946D
100
AcDbEntity
  8
1
  6
Continuous
100
AcDbCircle
 10
297.8309999999999
 20
227.665
 30
0.0
 40
1.0
100
AcDbArc
 50
180.0
 51
267.0889999999999
  0
ARC
  5
95D7
330
946D
100
AcDbEntity
  8
5
  6
PHANTOM
100
AcDbCircle
 10
-100.1149999999999
 20
758.1479999999997
 30
0.0
 40
700.0
100
AcDbArc
 50
307.469
 51
310.529
  0
ARC
  5
95D8
330
946D
100
AcDbEntity
  8
5
  6
PHANTOM
100
AcDbCircle
 10
324.1929999999999
 20
204.5519999999999
 30
0.0
 40
2.5
100
AcDbArc
 50
79.57930000000001
 51
307.469
  0
ARC
  5
95D9
330
946D
100
AcDbEntity
  8
5
  6
PHANTOM
100
AcDbCircle
 10
331.2869999999999
 20
225.3979999999998
 30
0.0
 40
1.0
100
AcDbArc
 50
158.22
 51
219.375
  0
ARC
  5
95DA
330
946D
100
AcDbEntity
  8
5
  6
PHANTOM
100
AcDbCircle
 10
361.4189999999999
 20
235.183
 30
0.0
 40
2.5
100
AcDbArc
 50
311.43
 51
39.3755
  0
ARC
  5
95DB
330
946D
100
AcDbEntity
  8
1
  6
Continuous
100
AcDbCircle
 10
465.5339999999998
 20
67.4131
 30
0.0
 40
2.0
100
AcDbArc
 50
180.0
 51
270.0
  0
ARC
  5
95DC
330
946D
100
AcDbEntity
  8
1
  6
Continuous
100
AcDbCircle
 10
465.5339999999998
 20
143.4129999999998
 30
0.0
 40
2.0
100
AcDbArc
 50
90.0
 51
180.0
  0
CIRCLE
  5
95DD
330
946D
100
AcDbEntity
  8
2
  6
Continuous
100
AcDbCircle
 10
470.5339999999998
 20
75.4131
 30
0.0
 40
2.5
  0
CIRCLE
  5
95DE
330
946D
100
AcDbEntity
  8
2
  6
Continuous
100
AcDbCircle
 10
470.5339999999998
 20
135.4129999999998
 30
0.0
 40
2.5
  0
CIRCLE
  5
95DF
330
946D
100
AcDbEntity
  8
1
  6
Continuous
100
AcDbCircle
 10
470.5339999999998
 20
75.4131
 30
0.0
 40
2.066999999999997
  0
CIRCLE
  5
95E0
330
946D
100
AcDbEntity
  8
1
  6
Continuous
100
AcDbCircle
 10
470.5339999999998
 20
135.4129999999998
 30
0.0
 40
2.066999999999997
  0
ARC
  5
95E1
330
946D
100
AcDbEntity
  8
1
  6
Continuous
100
AcDbCircle
 10
384.8309999999998
 20
257.2629999999999
 30
0.0
 40
2.0
100
AcDbArc
 50
0.0
 51
90.0
  0
ARC
  5
95E2
330
946D
100
AcDbEntity
  8
1
  6
Continuous
100
AcDbCircle
 10
221.1289999999999
 20
67.4131
 30
0.0
 40
2.0
100
AcDbArc
 50
270.0
 51
311.471
  0
ARC
  5
95E3
330
946D
100
AcDbEntity
  8
1
  6
Continuous
100
AcDbCircle
 10
221.1289999999999
 20
143.4129999999998
 30
0.0
 40
2.0
100
AcDbArc
 50
48.52920000000001
 51
90.0
  0
ARC
  5
95E4
330
946D
100
AcDbEntity
  8
1
  6
Continuous
100
AcDbCircle
 10
395.8309999999999
 20
99.41310000000001
 30
0.0
 40
1.0
100
AcDbArc
 50
270.0
 51
0.000005
  0
ARC
  5
95E5
330
946D
100
AcDbEntity
  8
1
  6
Continuous
100
AcDbCircle
 10
395.8309999999999
 20
111.413
 30
0.0
 40
1.0
100
AcDbArc
 50
0.0
 51
90.0
  0
ARC
  5
95E6
330
946D
100
AcDbEntity
  8
5
  6
PHANTOM
100
AcDbCircle
 10
385.9259999999999
 20
248.2629999999999
 30
0.0
 40
1.0
100
AcDbArc
 50
270.0
 51
31.0183
  0
ARC
  5
95E7
330
946D
100
AcDbEntity
  8
5
  6
PHANTOM
100
AcDbCircle
 10
365.3569999999998
 20
235.895
 30
0.0
 40
25.0
100
AcDbArc
 50
31.0183
 51
58.7266
  0
ARC
  5
95E8
330
946D
100
AcDbEntity
  8
1
  6
Continuous
100
AcDbCircle
 10
469.5339999999998
 20
99.41310000000001
 30
0.0
 40
1.0
100
AcDbArc
 50
180.0
 51
270.0
  0
ARC
  5
95E9
330
946D
100
AcDbEntity
  8
1
  6
Continuous
100
AcDbCircle
 10
469.5339999999998
 20
111.413
 30
0.0
 40
1.0
100
AcDbArc
 50
90.0
 51
180.0
  0
ARC
  5
95EA
330
946D
100
AcDbEntity
  8
1
  6
Continuous
100
AcDbCircle
 10
477.5339999999998
 20
111.413
 30
0.0
 40
1.0
100
AcDbArc
 50
0.0
 51
90.0
  0
ARC
  5
95EB
330
946D
100
AcDbEntity
  8
1
  6
Continuous
100
AcDbCircle
 10
477.5339999999998
 20
99.41310000000001
 30
0.0
 40
1.0
100
AcDbArc
 50
270.0
 51
0.000005
  0
ARC
  5
95EC
330
946D
100
AcDbEntity
  8
1
  6
Continuous
100
AcDbCircle
 10
307.3309999999999
 20
286.7629999999999
 30
0.0
 40
2.0
100
AcDbArc
 50
90.0
 51
165.0
  0
ARC
  5
95ED
330
946D
100
AcDbEntity
  8
1
  6
Continuous
100
AcDbCircle
 10
299.7679999999999
 20
266.2629999999999
 30
0.0
 40
2.0
100
AcDbArc
 50
270.0
 51
345.0
  0
ARC
  5
95EE
330
946D
100
AcDbEntity
  8
1
  6
Continuous
100
AcDbCircle
 10
94.92600000000001
 20
82.4131
 30
0.0
 40
2.0
100
AcDbArc
 50
180.0
 51
270.0
  0
ARC
  5
95EF
330
946D
100
AcDbEntity
  8
1
  6
Continuous
100
AcDbCircle
 10
94.92600000000001
 20
128.4129999999999
 30
0.0
 40
2.0
100
AcDbArc
 50
90.0
 51
180.0
  0
ARC
  5
95F0
330
946D
100
AcDbEntity
  8
1
  6
Continuous
100
AcDbCircle
 10
116.49
 20
82.4131
 30
0.0
 40
2.0
100
AcDbArc
 50
270.0
 51
0.000005
  0
ARC
  5
95F1
330
946D
100
AcDbEntity
  8
1
  6
Continuous
100
AcDbCircle
 10
116.49
 20
128.4129999999999
 30
0.0
 40
2.0
100
AcDbArc
 50
0.0
 51
90.0
  0
ARC
  5
95F2
330
946D
100
AcDbEntity
  8
1
  6
Continuous
100
AcDbCircle
 10
92.926
 20
105.413
 30
0.0
 40
6.0
100
AcDbArc
 50
293.586
 51
66.4141
  0
ARC
  5
95F3
330
946D
100
AcDbEntity
  8
1
  6
Continuous
100
AcDbCircle
 10
383.8309999999999
 20
79.9131
 30
0.0
 40
1.0
100
AcDbArc
 50
270.0
 51
0.000005
  0
ARC
  5
95F4
330
946D
100
AcDbEntity
  8
1
  6
Continuous
100
AcDbCircle
 10
383.8309999999999
 20
70.9131
 30
0.0
 40
1.0
100
AcDbArc
 50
0.0
 51
90.0
  0
ARC
  5
95F5
330
946D
100
AcDbEntity
  8
1
  6
Continuous
100
AcDbCircle
 10
383.8309999999999
 20
253.763
 30
0.0
 40
1.0
100
AcDbArc
 50
270.0
 51
0.000009
  0
ARC
  5
95F6
330
946D
100
AcDbEntity
  8
1
  6
Continuous
100
AcDbCircle
 10
383.8309999999999
 20
244.763
 30
0.0
 40
1.0
100
AcDbArc
 50
0.0
 51
90.0
  0
ARC
  5
95F7
330
946D
100
AcDbEntity
  8
1
  6
Continuous
100
AcDbCircle
 10
383.8309999999999
 20
139.9129999999999
 30
0.0
 40
1.0
100
AcDbArc
 50
270.0
 51
0.000005
  0
ARC
  5
95F8
330
946D
100
AcDbEntity
  8
1
  6
Continuous
100
AcDbCircle
 10
383.8309999999999
 20
130.9129999999999
 30
0.0
 40
1.0
100
AcDbArc
 50
0.0
 51
90.0
  0
CIRCLE
  5
95F9
330
946D
100
AcDbEntity
  8
1
  6
Continuous
100
AcDbCircle
 10
350.8309999999998
 20
236.263
 30
0.0
 40
4.0
  0
ARC
  5
95FA
330
946D
100
AcDbEntity
  8
1
  6
Continuous
100
AcDbCircle
 10
-393.074
 20
105.413
 30
0.0
 40
508.4999999999998
100
AcDbArc
 50
355.532
 51
357.182
  0
ARC
  5
95FB
330
946D
100
AcDbEntity
  8
1
  6
Continuous
100
AcDbCircle
 10
78.926
 20
-348.5869999999999
 30
0.0
 40
500.0
100
AcDbArc
 50
86.63769999999997
 51
93.3623
  0
ARC
  5
95FC
330
946D
100
AcDbEntity
  8
1
  6
Continuous
100
AcDbCircle
 10
78.926
 20
559.4129999999998
 30
0.0
 40
500.0
100
AcDbArc
 50
266.6379999999999
 51
273.362
  0
ARC
  5
95FD
330
946D
100
AcDbEntity
  8
1
  6
Continuous
100
AcDbCircle
 10
107.8986
 20
144.5629999999999
 30
0.0
 40
6.0
100
AcDbArc
 50
4.468429999999998
 51
86.63769999999997
  0
ARC
  5
95FE
330
946D
100
AcDbEntity
  8
1
  6
Continuous
100
AcDbCircle
 10
49.9534
 20
144.5629999999999
 30
0.0
 40
6.0
100
AcDbArc
 50
93.3623
 51
171.852
  0
ARC
  5
95FF
330
946D
100
AcDbEntity
  8
1
  6
Continuous
100
AcDbCircle
 10
49.9534
 20
66.2634
 30
0.0
 40
6.0
100
AcDbArc
 50
188.148
 51
266.6379999999999
  0
ARC
  5
9600
330
946D
100
AcDbEntity
  8
1
  6
Continuous
100
AcDbCircle
 10
107.8986
 20
66.2634
 30
0.0
 40
6.0
100
AcDbArc
 50
273.362
 51
355.532
  0
ARC
  5
9601
330
946D
100
AcDbEntity
  8
1
  6
Continuous
100
AcDbCircle
 10
90.926
 20
105.413
 30
0.0
 40
7.0
100
AcDbArc
 50
315.0
 51
45.0
  0
ARC
  5
9602
330
946D
100
AcDbEntity
  8
1
  6
Continuous
100
AcDbCircle
 10
-393.074
 20
105.413
 30
0.0
 40
508.4999999999998
100
AcDbArc
 50
2.81804
 51
4.468429999999998
  0
ARC
  5
9603
330
946D
100
AcDbEntity
  8
1
  6
Continuous
100
AcDbCircle
 10
99.92600000000001
 20
125.4129999999999
 30
0.0
 40
2.1
100
AcDbArc
 50
168.463
 51
191.5369999999998
  0
ARC
  5
9604
330
946D
100
AcDbEntity
  8
1
  6
Continuous
100
AcDbCircle
 10
99.92600000000001
 20
125.4129999999999
 30
0.0
 40
2.1
100
AcDbArc
 50
258.4629999999999
 51
281.5369999999999
  0
ARC
  5
9605
330
946D
100
AcDbEntity
  8
1
  6
Continuous
100
AcDbCircle
 10
99.92600000000001
 20
125.4129999999999
 30
0.0
 40
2.1
100
AcDbArc
 50
348.463
 51
11.537
  0
ARC
  5
9606
330
946D
100
AcDbEntity
  8
1
  6
Continuous
100
AcDbCircle
 10
99.92600000000001
 20
125.4129999999999
 30
0.0
 40
2.1
100
AcDbArc
 50
78.46299999999998
 51
101.537
  0
CIRCLE
  5
9607
330
946D
100
AcDbEntity
  8
1
  6
Continuous
100
AcDbCircle
 10
99.92589999999999
 20
125.4129999999999
 30
0.0
 40
3.5
  0
ARC
  5
9608
330
946D
100
AcDbEntity
  8
1
  6
Continuous
100
AcDbCircle
 10
395.926
 20
248.2629999999999
 30
0.0
 40
1.0
100
AcDbArc
 50
270.0
 51
31.0183
  0
ARC
  5
9609
330
946D
100
AcDbEntity
  8
1
  6
Continuous
100
AcDbCircle
 10
375.3569999999998
 20
235.895
 30
0.0
 40
25.0
100
AcDbArc
 50
31.0183
 51
58.7266
  0
ARC
  5
960A
330
946D
100
AcDbEntity
  8
1
  6
Continuous
100
AcDbCircle
 10
99.92600000000001
 20
85.41310000000001
 30
0.0
 40
2.1
100
AcDbArc
 50
258.4629999999999
 51
281.5369999999999
  0
ARC
  5
960B
330
946D
100
AcDbEntity
  8
1
  6
Continuous
100
AcDbCircle
 10
99.92600000000001
 20
85.41310000000001
 30
0.0
 40
2.1
100
AcDbArc
 50
168.463
 51
191.5369999999998
  0
ARC
  5
960C
330
946D
100
AcDbEntity
  8
1
  6
Continuous
100
AcDbCircle
 10
99.92600000000001
 20
85.41310000000001
 30
0.0
 40
2.1
100
AcDbArc
 50
78.46299999999998
 51
101.537
  0
ARC
  5
960D
330
946D
100
AcDbEntity
  8
1
  6
Continuous
100
AcDbCircle
 10
99.92600000000001
 20
85.41310000000001
 30
0.0
 40
2.1
100
AcDbArc
 50
348.463
 51
11.537
  0
CIRCLE
  5
960E
330
946D
100
AcDbEntity
  8
1
  6
Continuous
100
AcDbCircle
 10
99.92589999999999
 20
85.41310000000001
 30
0.0
 40
3.5
  0
ARC
  5
960F
330
946D
100
AcDbEntity
  8
1
  6
Continuous
100
AcDbCircle
 10
90.926
 20
105.413
 30
0.0
 40
2.25
100
AcDbArc
 50
169.242
 51
190.758
  0
ARC
  5
9610
330
946D
100
AcDbEntity
  8
1
  6
Continuous
100
AcDbCircle
 10
90.926
 20
105.413
 30
0.0
 40
2.25
100
AcDbArc
 50
259.242
 51
280.7579999999999
  0
ARC
  5
9611
330
946D
100
AcDbEntity
  8
1
  6
Continuous
100
AcDbCircle
 10
90.926
 20
105.413
 30
0.0
 40
2.25
100
AcDbArc
 50
349.2419999999999
 51
10.7583
  0
ARC
  5
9612
330
946D
100
AcDbEntity
  8
1
  6
Continuous
100
AcDbCircle
 10
90.926
 20
105.413
 30
0.0
 40
2.25
100
AcDbArc
 50
79.24169999999998
 51
100.7579999999999
  0
CIRCLE
  5
9613
330
946D
100
AcDbEntity
  8
1
  6
Continuous
100
AcDbCircle
 10
90.926
 20
105.413
 30
0.0
 40
4.0
  0
ARC
  5
9614
330
946D
100
AcDbEntity
  8
1
  6
Continuous
100
AcDbCircle
 10
55.926
 20
135.4129999999998
 30
0.0
 40
2.25
100
AcDbArc
 50
169.242
 51
190.758
  0
ARC
  5
9615
330
946D
100
AcDbEntity
  8
1
  6
Continuous
100
AcDbCircle
 10
55.926
 20
135.4129999999998
 30
0.0
 40
2.25
100
AcDbArc
 50
259.242
 51
280.7579999999999
  0
ARC
  5
9616
330
946D
100
AcDbEntity
  8
1
  6
Continuous
100
AcDbCircle
 10
55.926
 20
135.4129999999998
 30
0.0
 40
2.25
100
AcDbArc
 50
349.2419999999999
 51
10.7583
  0
ARC
  5
9617
330
946D
100
AcDbEntity
  8
1
  6
Continuous
100
AcDbCircle
 10
55.926
 20
135.4129999999998
 30
0.0
 40
2.25
100
AcDbArc
 50
79.24169999999998
 51
100.7579999999999
  0
CIRCLE
  5
9618
330
946D
100
AcDbEntity
  8
1
  6
Continuous
100
AcDbCircle
 10
55.926
 20
135.4129999999998
 30
0.0
 40
4.0
  0
ARC
  5
9619
330
946D
100
AcDbEntity
  8
1
  6
Continuous
100
AcDbCircle
 10
55.926
 20
75.4131
 30
0.0
 40
2.25
100
AcDbArc
 50
169.242
 51
190.758
  0
ARC
  5
961A
330
946D
100
AcDbEntity
  8
1
  6
Continuous
100
AcDbCircle
 10
55.926
 20
75.4131
 30
0.0
 40
2.25
100
AcDbArc
 50
259.242
 51
280.7579999999999
  0
ARC
  5
961B
330
946D
100
AcDbEntity
  8
1
  6
Continuous
100
AcDbCircle
 10
55.926
 20
75.4131
 30
0.0
 40
2.25
100
AcDbArc
 50
349.2419999999999
 51
10.7583
  0
ARC
  5
961C
330
946D
100
AcDbEntity
  8
1
  6
Continuous
100
AcDbCircle
 10
55.926
 20
75.4131
 30
0.0
 40
2.25
100
AcDbArc
 50
79.24169999999998
 51
100.7579999999999
  0
CIRCLE
  5
961D
330
946D
100
AcDbEntity
  8
1
  6
Continuous
100
AcDbCircle
 10
55.926
 20
75.4131
 30
0.0
 40
4.0
  0
ARC
  5
961E
330
946D
100
AcDbEntity
  8
5
  6
PHANTOM
100
AcDbCircle
 10
-100.1149999999999
 20
758.1479999999997
 30
0.0
 40
700.0
100
AcDbArc
 50
311.237
 51
311.43
  0
ARC
  5
961F
330
946D
100
AcDbEntity
  8
1
  6
Continuous
100
AcDbCircle
 10
314.3959999999998
 20
291.569
 30
0.0
 40
1.3
100
AcDbArc
 50
4.999979999999999
 51
74.1191
  0
ARC
  5
9620
330
946D
100
AcDbEntity
  8
1
  6
Continuous
100
AcDbCircle
 10
312.2889999999998
 20
284.163
 30
0.0
 40
9.0
100
AcDbArc
 50
74.1191
 51
105.881
  0
ARC
  5
9621
330
946D
100
AcDbEntity
  8
1
  6
Continuous
100
AcDbCircle
 10
310.182
 20
291.569
 30
0.0
 40
1.3
100
AcDbArc
 50
105.881
 51
175.0
  0
CIRCLE
  5
9622
330
946D
100
AcDbEntity
  8
1
  6
Continuous
100
AcDbCircle
 10
99.92600000000001
 20
85.41310000000001
 30
0.0
 40
3.799999999999998
  0
CIRCLE
  5
9623
330
946D
100
AcDbEntity
  8
1
  6
Continuous
100
AcDbCircle
 10
99.92600000000001
 20
85.41310000000001
 30
0.0
 40
5.0
  0
CIRCLE
  5
9624
330
946D
100
AcDbEntity
  8
1
  6
Continuous
100
AcDbCircle
 10
99.92600000000001
 20
125.4129999999999
 30
0.0
 40
5.0
  0
CIRCLE
  5
9625
330
946D
100
AcDbEntity
  8
1
  6
Continuous
100
AcDbCircle
 10
99.92600000000001
 20
125.4129999999999
 30
0.0
 40
3.799999999999998
  0
ARC
  5
9626
330
946D
100
AcDbEntity
  8
1
  6
Continuous
100
AcDbCircle
 10
163.822
 20
127.5199999999999
 30
0.0
 40
1.3
100
AcDbArc
 50
95.0
 51
164.119
  0
ARC
  5
9627
330
946D
100
AcDbEntity
  8
1
  6
Continuous
100
AcDbCircle
 10
171.229
 20
125.4129999999999
 30
0.0
 40
9.0
100
AcDbArc
 50
164.119
 51
195.8809999999998
  0
ARC
  5
9628
330
946D
100
AcDbEntity
  8
1
  6
Continuous
100
AcDbCircle
 10
163.822
 20
123.306
 30
0.0
 40
1.3
100
AcDbArc
 50
195.8809999999998
 51
265.0
  0
ARC
  5
9629
330
946D
100
AcDbEntity
  8
1
  6
Continuous
100
AcDbCircle
 10
163.822
 20
87.5201
 30
0.0
 40
1.3
100
AcDbArc
 50
95.0
 51
164.119
  0
ARC
  5
962A
330
946D
100
AcDbEntity
  8
1
  6
Continuous
100
AcDbCircle
 10
171.229
 20
85.41299999999997
 30
0.0
 40
9.0
100
AcDbArc
 50
164.119
 51
195.8809999999998
  0
ARC
  5
962B
330
946D
100
AcDbEntity
  8
1
  6
Continuous
100
AcDbCircle
 10
163.822
 20
83.30599999999998
 30
0.0
 40
1.3
100
AcDbArc
 50
195.8809999999998
 51
265.0
  0
ARC
  5
962C
330
946D
100
AcDbEntity
  8
1
  6
Continuous
100
AcDbCircle
 10
320.33
 20
230.0629999999999
 30
0.0
 40
17.0
100
AcDbArc
 50
90.0
 51
179.326
  0
ARC
  5
962D
330
946D
100
AcDbEntity
  8
1
  6
Continuous
100
AcDbCircle
 10
219.9829999999999
 20
85.41310000000001
 30
0.0
 40
5.011899999999998
100
AcDbArc
 50
273.9489999999999
 51
86.05079999999999
  0
ARC
  5
962E
330
946D
100
AcDbEntity
  8
1
  6
Continuous
100
AcDbCircle
 10
219.9829999999999
 20
125.4129999999999
 30
0.0
 40
5.011899999999998
100
AcDbArc
 50
273.9489999999999
 51
86.05079999999999
  0
ARC
  5
962F
330
946D
100
AcDbEntity
  8
1
  6
Continuous
100
AcDbCircle
 10
309.3299999999999
 20
251.263
 30
0.0
 40
2.0
100
AcDbArc
 50
90.0
 51
180.0
  0
ARC
  5
9630
330
946D
100
AcDbEntity
  8
1
  6
Continuous
100
AcDbCircle
 10
317.3299999999999
 20
251.263
 30
0.0
 40
2.0
100
AcDbArc
 50
0.0
 51
90.0
  0
ARC
  5
9631
330
946D
100
AcDbEntity
  8
1
  6
Continuous
100
AcDbCircle
 10
295.7679999999998
 20
82.4131
 30
0.0
 40
2.0
100
AcDbArc
 50
180.0
 51
270.0
  0
ARC
  5
9632
330
946D
100
AcDbEntity
  8
1
  6
Continuous
100
AcDbCircle
 10
295.7679999999998
 20
128.4129999999999
 30
0.0
 40
2.0
100
AcDbArc
 50
90.0
 51
180.0
  0
ARC
  5
9633
330
946D
100
AcDbEntity
  8
1
  6
Continuous
100
AcDbCircle
 10
102.926
 20
70.9131
 30
0.0
 40
6.0
100
AcDbArc
 50
270.0
 51
0.000005
  0
ARC
  5
9634
330
946D
100
AcDbEntity
  8
1
  6
Continuous
100
AcDbCircle
 10
102.926
 20
139.9129999999999
 30
0.0
 40
6.0
100
AcDbArc
 50
0.0
 51
90.0
  0
ARC
  5
9635
330
946D
100
AcDbEntity
  8
1
  6
Continuous
100
AcDbCircle
 10
804.831
 20
105.413
 30
0.0
 40
498.0
100
AcDbArc
 50
183.23
 51
183.997
  0
ARC
  5
9636
330
946D
100
AcDbEntity
  8
1
  6
Continuous
100
AcDbCircle
 10
311.035
 20
70.9131
 30
0.0
 40
3.0
100
AcDbArc
 50
183.997
 51
270.0
  0
ARC
  5
9637
330
946D
100
AcDbEntity
  8
1
  6
Continuous
100
AcDbCircle
 10
317.6070000000001
 20
77.9131
 30
0.0
 40
10.0
100
AcDbArc
 50
120.859
 51
183.23
  0
ARC
  5
9638
330
946D
100
AcDbEntity
  8
1
  6
Continuous
100
AcDbCircle
 10
286.8309999999999
 20
129.4189999999999
 30
0.0
 40
50.0
100
AcDbArc
 50
300.8589999999998
 51
0.000005
  0
ARC
  5
9639
330
946D
100
AcDbEntity
  8
1
  6
Continuous
100
AcDbCircle
 10
339.8309999999999
 20
139.9129999999999
 30
0.0
 40
3.0
100
AcDbArc
 50
90.0
 51
180.0
  0
LINE
  5
963A
330
946D
100
AcDbEntity
  8
1
  6
Continuous
100
AcDbLine
 10
27.42599999999999
 20
98.213
 30
0.0
 11
27.42599999999999
 21
112.613
 31
0.0
  0
LINE
  5
963B
330
946D
100
AcDbEntity
  8
1
  6
Continuous
100
AcDbLine
 10
23.92599999999999
 20
98.4131
 30
0.0
 11
23.92599999999999
 21
112.413
 31
0.0
  0
LINE
  5
963C
330
946D
100
AcDbEntity
  8
1
  6
Continuous
100
AcDbLine
 10
25.426
 20
112.413
 30
0.0
 11
25.426
 21
145.4129999999999
 31
0.0
  0
LINE
  5
963D
330
946D
100
AcDbEntity
  8
1
  6
Continuous
100
AcDbLine
 10
16.425966
 20
112.413
 30
0.0
 11
27.42599999999999
 21
112.413
 31
0.0
  0
LINE
  5
963E
330
946D
100
AcDbEntity
  8
1
  6
Continuous
100
AcDbLine
 10
16.425966
 20
98.413
 30
0.0
 11
27.42599999999999
 21
98.413
 31
0.0
  0
LINE
  5
963F
330
946D
100
AcDbEntity
  8
1
  6
Continuous
100
AcDbLine
 10
25.426
 20
112.613
 30
0.0
 11
27.42599999999999
 21
112.613
 31
0.0
  0
LINE
  5
9640
330
946D
100
AcDbEntity
  8
1
  6
Continuous
100
AcDbLine
 10
25.426
 20
98.213
 30
0.0
 11
27.42599999999999
 21
98.213
 31
0.0
  0
ARC
  5
9641
330
946D
100
AcDbEntity
  8
1
  6
Continuous
100
AcDbCircle
 10
16.425966
 20
111.413
 30
0.0
 40
1.0
100
AcDbArc
 50
90.0
 51
180.0
  0
ARC
  5
9642
330
946D
100
AcDbEntity
  8
1
  6
Continuous
100
AcDbCircle
 10
16.425966
 20
99.413
 30
0.0
 40
1.0
100
AcDbArc
 50
180.0
 51
270.0
  0
ENDSEC
  0
SECTION
  2
OBJECTS
  0
DICTIONARY
  5
945B
330
0
100
AcDbDictionary
281
     1
  3
ACAD_CIP_PREVIOUS_PRODUCT_INFO
350
96A8
  3
ACAD_COLOR
350
968A
  3
ACAD_DETAILVIEWSTYLE
350
96A3
  3
ACAD_GROUP
350
945C
  3
ACAD_LAYOUT
350
9468
  3
ACAD_MATERIAL
350
9658
  3
ACAD_MLEADERSTYLE
350
969F
  3
ACAD_MLINESTYLE
350
9465
  3
ACAD_PLOTSETTINGS
350
9467
  3
ACAD_PLOTSTYLENAME
350
9656
  3
ACAD_SCALELIST
350
968D
  3
ACAD_SECTIONVIEWSTYLE
350
96A1
  3
ACAD_TABLESTYLE
350
968B
  3
ACAD_VISUALSTYLE
350
9671
  3
ACDB_RECOMPOSE_DATA
350
96C6
  3
AcDbVariableDictionary
350
96B9
  3
DWGPROPS
350
96C7
  0
DICTIONARY
  5
96A9
330
945F
100
AcDbDictionary
280
     1
281
     1
  3
ADSK_XREC_LAYER_RECONCILED
360
96AA
  0
DICTIONARY
  5
96AB
330
9475
100
AcDbDictionary
280
     1
281
     1
  3
ADSK_XREC_LAYER_RECONCILED
360
96AC
  0
DICTIONARY
  5
96AD
330
9476
100
AcDbDictionary
280
     1
281
     1
  3
ADSK_XREC_LAYER_RECONCILED
360
96AE
  0
DICTIONARY
  5
96AF
330
9477
100
AcDbDictionary
280
     1
281
     1
  3
ADSK_XREC_LAYER_RECONCILED
360
96B0
  0
DICTIONARY
  5
96B1
330
9478
100
AcDbDictionary
280
     1
281
     1
  3
ADSK_XREC_LAYER_RECONCILED
360
96B2
  0
DICTIONARY
  5
96B3
330
9479
100
AcDbDictionary
280
     1
281
     1
  3
ADSK_XREC_LAYER_RECONCILED
360
96B4
  0
DICTIONARY
  5
96B5
330
947A
100
AcDbDictionary
280
     1
281
     1
  3
ADSK_XREC_LAYER_RECONCILED
360
96B6
  0
DICTIONARY
  5
96B7
330
947B
100
AcDbDictionary
280
     1
281
     1
  3
ADSK_XREC_LAYER_RECONCILED
360
96B8
  0
DICTIONARY
  5
9651
330
946D
100
AcDbDictionary
281
     1
  3
ACAD_LAYOUTSELFREF
350
9652
  0
DICTIONARY
  5
964F
330
9469
100
AcDbDictionary
281
     1
  3
ACAD_LAYOUTSELFREF
350
9650
  0
XRECORD
  5
96A8
102
{ACAD_REACTORS
330
945B
102
}
330
945B
100
AcDbXrecord
280
     1
300
ACDLT
300
2014
300
ACDLT_F_S
  0
DICTIONARY
  5
968A
102
{ACAD_REACTORS
330
945B
102
}
330
945B
100
AcDbDictionary
281
     1
  0
DICTIONARY
  5
96A3
102
{ACAD_REACTORS
330
945B
102
}
330
945B
100
AcDbDictionary
281
     1
  3
Imperial24
350
96A4
  0
DICTIONARY
  5
945C
102
{ACAD_REACTORS
330
945B
102
}
330
945B
100
AcDbDictionary
281
     1
  0
DICTIONARY
  5
9468
102
{ACAD_REACTORS
330
945B
102
}
330
945B
100
AcDbDictionary
281
     1
  3
Model
350
96A5
  3
レイアウト1
350
96A6
  0
DICTIONARY
  5
9658
102
{ACAD_REACTORS
330
945B
102
}
330
945B
100
AcDbDictionary
281
     1
  3
ByBlock
350
9661
  3
ByLayer
350
9659
  3
Global
350
9669
  0
DICTIONARY
  5
969F
102
{ACAD_REACTORS
330
945B
102
}
330
945B
100
AcDbDictionary
281
     1
  3
Standard
350
96A0
  0
DICTIONARY
  5
9465
102
{ACAD_REACTORS
330
945B
102
}
330
945B
100
AcDbDictionary
281
     1
  3
STANDARD
350
9466
  0
DICTIONARY
  5
9467
102
{ACAD_REACTORS
330
945B
102
}
330
945B
100
AcDbDictionary
281
     1
  0
ACDBDICTIONARYWDFLT
  5
9656
102
{ACAD_REACTORS
330
945B
102
}
330
945B
100
AcDbDictionary
281
     1
  3
Normal
350
9657
100
AcDbDictionaryWithDefault
340
9657
  0
DICTIONARY
  5
968D
102
{ACAD_REACTORS
330
945B
102
}
330
945B
100
AcDbDictionary
281
     1
  3
A0
350
968E
  3
A1
350
968F
  3
A2
350
9690
  3
A3
350
9691
  3
A4
350
9692
  3
A5
350
9693
  3
A6
350
9694
  3
A7
350
9695
  3
A8
350
9696
  3
A9
350
9697
  3
B0
350
9698
  3
B1
350
9699
  3
B2
350
969A
  3
B3
350
969B
  3
B4
350
969C
  3
B5
350
969D
  3
B6
350
969E
  0
DICTIONARY
  5
96A1
102
{ACAD_REACTORS
330
945B
102
}
330
945B
100
AcDbDictionary
281
     1
  3
Imperial24
350
96A2
  0
DICTIONARY
  5
968B
102
{ACAD_REACTORS
330
945B
102
}
330
945B
100
AcDbDictionary
281
     1
  3
Standard
350
968C
  0
DICTIONARY
  5
9671
102
{ACAD_REACTORS
330
945B
102
}
330
945B
100
AcDbDictionary
281
     1
  3
2dWireframe
350
9677
  3
Basic
350
9676
  3
Brighten
350
967D
  3
ColorChange
350
9681
  3
Conceptual
350
967A
  3
Dim
350
967C
  3
EdgeColorOff
350
9689
  3
Facepattern
350
9680
  3
Flat
350
9672
  3
FlatWithEdges
350
9673
  3
Gouraud
350
9674
  3
GouraudWithEdges
350
9675
  3
Hidden
350
9679
  3
JitterOff
350
9687
  3
Linepattern
350
967F
  3
OverhangOff
350
9688
  3
Realistic
350
967B
  3
Shaded
350
9686
  3
Shaded with edges
350
9685
  3
Shades of Gray
350
9682
  3
Sketchy
350
9683
  3
Thicken
350
967E
  3
Wireframe
350
9678
  3
X-Ray
350
9684
  0
XRECORD
  5
96C6
102
{ACAD_REACTORS
330
945B
102
}
330
945B
100
AcDbXrecord
280
     1
 90
        1
330
968C
  0
DICTIONARY
  5
96B9
102
{ACAD_REACTORS
330
945B
102
}
330
945B
100
AcDbDictionary
281
     1
  3
CANNOSCALE
350
96BE
  3
CMLEADERSTYLE
350
96BB
  3
CTABLESTYLE
350
96BA
  3
CVIEWDETAILSTYLE
350
96BC
  3
CVIEWSECTIONSTYLE
350
96BD
  3
DIMASSOC
350
96C1
  3
INDEXCTL
350
96C0
  3
SORTENTS
350
96BF
  3
XCLIPFRAME
350
96C2
  0
XRECORD
  5
96C7
102
{ACAD_REACTORS
330
945B
102
}
330
945B
100
AcDbXrecord
280
     1
  1
DWGPROPS COOKIE
  2

  3

  4

  6

  7

  8
Yoshitsune
  9

300
=
301
=
302
=
303
=
304
=
305
=
306
=
307
=
308
=
309
=
 40
0.000014212962963
 41
2450737.662879398
 42
2457192.640159537
  1

 90
        0
  0
XRECORD
  5
96AA
102
{ACAD_REACTORS
330
96A9
102
}
330
96A9
100
AcDbXrecord
280
     1
290
     1
  0
XRECORD
  5
96AC
102
{ACAD_REACTORS
330
96AB
102
}
330
96AB
100
AcDbXrecord
280
     1
290
     1
  0
XRECORD
  5
96AE
102
{ACAD_REACTORS
330
96AD
102
}
330
96AD
100
AcDbXrecord
280
     1
290
     1
  0
XRECORD
  5
96B0
102
{ACAD_REACTORS
330
96AF
102
}
330
96AF
100
AcDbXrecord
280
     1
290
     1
  0
XRECORD
  5
96B2
102
{ACAD_REACTORS
330
96B1
102
}
330
96B1
100
AcDbXrecord
280
     1
290
     1
  0
XRECORD
  5
96B4
102
{ACAD_REACTORS
330
96B3
102
}
330
96B3
100
AcDbXrecord
280
     1
290
     1
  0
XRECORD
  5
96B6
102
{ACAD_REACTORS
330
96B5
102
}
330
96B5
100
AcDbXrecord
280
     1
290
     1
  0
XRECORD
  5
96B8
102
{ACAD_REACTORS
330
96B7
102
}
330
96B7
100
AcDbXrecord
280
     1
290
     1
  0
XRECORD
  5
9652
102
{ACAD_REACTORS
330
9651
102
}
330
9651
100
AcDbXrecord
280
     1
340
946D
  0
XRECORD
  5
9650
102
{ACAD_REACTORS
330
964F
102
}
330
964F
100
AcDbXrecord
280
     1
340
9469
  0
ACDBDETAILVIEWSTYLE
  5
96A4
102
{ACAD_XDICTIONARY
360
96FF
102
}
102
{ACAD_REACTORS
330
96A3
102
}
330
96A3
100
AcDbModelDocViewStyle
 70
     0
  3
Imperial24
290
     0
100
AcDbDetailViewStyle
 70
     0
 71
     0
 90
        3
 71
     1
340
9460
 40
0.24
340
0
 40
0.24
300

 40
0.36
280
     3
 71
     2
340
9464
 90
       25
 71
     3
340
9460
 40
0.24
 90
        1
 40
0.75
 90
        1
300
%<\AcVar ViewType \f "%tc1">% %<\AcVar ViewDetailId>%\PSCALE %<\AcVar ViewScale \f "%sn">%
 71
     4
340
9464
 90
       25
340
9464
 90
       25
280
     0
  0
LAYOUT
  5
96A5
102
{ACAD_XDICTIONARY
360
9701
102
}
102
{ACAD_REACTORS
330
9468
102
}
330
9468
100
AcDbPlotSettings
  1

  2
Canon LBP9100C
  4

  6

 40
0.0
 41
0.0
 42
0.0
 43
0.0
 44
0.0
 45
0.0
 46
0.0
 47
0.0
 48
0.0
 49
0.0
140
0.0
141
0.0
142
1.0
143
1.0
 70
  1712
 72
     0
 73
     0
 74
     0
  7

 75
     0
147
1.0
148
0.0
149
0.0
100
AcDbLayout
  1
Model
 70
     1
 71
     0
 10
0.0
 20
0.0
 11
12.0
 21
9.0
 12
0.0
 22
0.0
 32
0.0
 14
0.0
 24
0.0
 34
0.0
 15
0.0
 25
0.0
 35
0.0
146
0.0
 13
0.0
 23
0.0
 33
0.0
 16
1.0
 26
0.0
 36
0.0
 17
0.0
 27
1.0
 37
0.0
 76
     0
330
946D
331
964E
  0
LAYOUT
  5
96A6
102
{ACAD_XDICTIONARY
360
9703
102
}
102
{ACAD_REACTORS
330
9468
102
}
330
9468
100
AcDbPlotSettings
  1

  2
Canon LBP9100C
  4

  6

 40
0.0
 41
0.0
 42
0.0
 43
0.0
 44
0.0
 45
0.0
 46
0.0
 47
0.0
 48
0.0
 49
0.0
140
0.0
141
0.0
142
1.0
143
1.0
 70
   688
 72
     0
 73
     0
 74
     5
  7

 75
    16
147
1.0
148
0.0
149
0.0
100
AcDbLayout
  1
レイアウト1
 70
     0
 71
     1
 10
0.0
 20
0.0
 11
420.0
 21
297.0
 12
0.0
 22
0.0
 32
0.0
 14
1.000000000000000E+20
 24
1.000000000000000E+20
 34
1.000000000000000E+20
 15
-1.000000000000000E+20
 25
-1.000000000000000E+20
 35
-1.000000000000000E+20
146
0.0
 13
0.0
 23
0.0
 33
0.0
 16
1.0
 26
0.0
 36
0.0
 17
0.0
 27
1.0
 37
0.0
 76
     0
330
9469
  0
MATERIAL
  5
9661
102
{ACAD_XDICTIONARY
360
9662
102
}
102
{ACAD_REACTORS
330
9658
102
}
330
9658
100
AcDbMaterial
  1
ByBlock
 72
     0
 43
0.0208333333333333
 43
0.0
 43
0.0
 43
0.0
 43
0.0
 43
0.0208333333333333
 43
0.0
 43
0.0
 43
0.0
 43
0.0
 43
1.0
 43
0.0
 43
0.0
 43
0.0
 43
0.0
 43
1.0
 77
     0
 47
0.0208333333333333
 47
0.0
 47
0.0
 47
0.0
 47
0.0
 47
0.0208333333333333
 47
0.0
 47
0.0
 47
0.0
 47
0.0
 47
1.0
 47
0.0
 47
0.0
 47
0.0
 47
0.0
 47
1.0
171
     0
 49
0.0208333333333333
 49
0.0
 49
0.0
 49
0.0
 49
0.0
 49
0.0208333333333333
 49
0.0
 49
0.0
 49
0.0
 49
0.0
 49
1.0
 49
0.0
 49
0.0
 49
0.0
 49
0.0
 49
1.0
175
     0
142
0.0208333333333333
142
0.0
142
0.0
142
0.0
142
0.0
142
0.0208333333333333
142
0.0
142
0.0
142
0.0
142
0.0
142
1.0
142
0.0
142
0.0
142
0.0
142
0.0
142
1.0
179
     0
144
0.0208333333333333
144
0.0
144
0.0
144
0.0
144
0.0
144
0.0208333333333333
144
0.0
144
0.0
144
0.0
144
0.0
144
1.0
144
0.0
144
0.0
144
0.0
144
0.0
144
1.0
147
0.0208333333333333
147
0.0
147
0.0
147
0.0
147
0.0
147
0.0208333333333333
147
0.0
147
0.0
147
0.0
147
0.0
147
1.0
147
0.0
147
0.0
147
0.0
147
0.0
147
1.0
  0
MATERIAL
  5
9659
102
{ACAD_XDICTIONARY
360
965A
102
}
102
{ACAD_REACTORS
330
9658
102
}
330
9658
100
AcDbMaterial
  1
ByLayer
 72
     0
 43
0.0208333333333333
 43
0.0
 43
0.0
 43
0.0
 43
0.0
 43
0.0208333333333333
 43
0.0
 43
0.0
 43
0.0
 43
0.0
 43
1.0
 43
0.0
 43
0.0
 43
0.0
 43
0.0
 43
1.0
 77
     0
 47
0.0208333333333333
 47
0.0
 47
0.0
 47
0.0
 47
0.0
 47
0.0208333333333333
 47
0.0
 47
0.0
 47
0.0
 47
0.0
 47
1.0
 47
0.0
 47
0.0
 47
0.0
 47
0.0
 47
1.0
171
     0
 49
0.0208333333333333
 49
0.0
 49
0.0
 49
0.0
 49
0.0
 49
0.0208333333333333
 49
0.0
 49
0.0
 49
0.0
 49
0.0
 49
1.0
 49
0.0
 49
0.0
 49
0.0
 49
0.0
 49
1.0
175
     0
142
0.0208333333333333
142
0.0
142
0.0
142
0.0
142
0.0
142
0.0208333333333333
142
0.0
142
0.0
142
0.0
142
0.0
142
1.0
142
0.0
142
0.0
142
0.0
142
0.0
142
1.0
179
     0
144
0.0208333333333333
144
0.0
144
0.0
144
0.0
144
0.0
144
0.0208333333333333
144
0.0
144
0.0
144
0.0
144
0.0
144
1.0
144
0.0
144
0.0
144
0.0
144
0.0
144
1.0
147
0.0208333333333333
147
0.0
147
0.0
147
0.0
147
0.0
147
0.0208333333333333
147
0.0
147
0.0
147
0.0
147
0.0
147
1.0
147
0.0
147
0.0
147
0.0
147
0.0
147
1.0
  0
MATERIAL
  5
9669
102
{ACAD_XDICTIONARY
360
966A
102
}
102
{ACAD_REACTORS
330
9658
102
}
330
9658
100
AcDbMaterial
  1
Global
 72
     0
 43
0.0208333333333333
 43
0.0
 43
0.0
 43
0.0
 43
0.0
 43
0.0208333333333333
 43
0.0
 43
0.0
 43
0.0
 43
0.0
 43
1.0
 43
0.0
 43
0.0
 43
0.0
 43
0.0
 43
1.0
 77
     0
 47
0.0208333333333333
 47
0.0
 47
0.0
 47
0.0
 47
0.0
 47
0.0208333333333333
 47
0.0
 47
0.0
 47
0.0
 47
0.0
 47
1.0
 47
0.0
 47
0.0
 47
0.0
 47
0.0
 47
1.0
171
     0
 49
0.0208333333333333
 49
0.0
 49
0.0
 49
0.0
 49
0.0
 49
0.0208333333333333
 49
0.0
 49
0.0
 49
0.0
 49
0.0
 49
1.0
 49
0.0
 49
0.0
 49
0.0
 49
0.0
 49
1.0
175
     0
142
0.0208333333333333
142
0.0
142
0.0
142
0.0
142
0.0
142
0.0208333333333333
142
0.0
142
0.0
142
0.0
142
0.0
142
1.0
142
0.0
142
0.0
142
0.0
142
0.0
142
1.0
179
     0
144
0.0208333333333333
144
0.0
144
0.0
144
0.0
144
0.0
144
0.0208333333333333
144
0.0
144
0.0
144
0.0
144
0.0
144
1.0
144
0.0
144
0.0
144
0.0
144
0.0
144
1.0
147
0.0208333333333333
147
0.0
147
0.0
147
0.0
147
0.0
147
0.0208333333333333
147
0.0
147
0.0
147
0.0
147
0.0
147
1.0
147
0.0
147
0.0
147
0.0
147
0.0
147
1.0
  0
MLEADERSTYLE
  5
96A0
102
{ACAD_REACTORS
330
969F
102
}
330
969F
100
AcDbMLeaderStyle
170
     2
171
     1
172
     0
 90
        2
 40
0.0
 41
0.0
173
     1
 91
-1056964608
340
9462
 92
       -2
290
     1
 42
0.09
291
     1
 43
0.36
  3
Standard
 44
0.18
300

342
9460
174
     1
178
     6
175
     1
176
     0
 93
-1056964608
 45
0.18
292
     0
297
     0
 46
0.18
 94
-1056964608
 47
1.0
 49
1.0
140
1.0
293
     1
141
0.0
294
     1
177
     0
142
1.0
295
     0
296
     0
143
0.125
1001
ACAD_MLEADERVER
1070
     2
  0
MLINESTYLE
  5
9466
102
{ACAD_REACTORS
330
9465
102
}
330
9465
100
AcDbMlineStyle
  2
STANDARD
 70
     0
  3

 62
   256
 51
90.0
 52
90.0
 71
     2
 49
0.5
 62
   256
  6
BYLAYER
 49
-0.5
 62
   256
  6
BYLAYER
  0
ACDBPLACEHOLDER
  5
9657
102
{ACAD_REACTORS
330
9656
102
}
330
9656
  0
SCALE
  5
968E
102
{ACAD_REACTORS
330
968D
102
}
330
968D
100
AcDbScale
 70
     0
300
1:1
140
1.0
141
1.0
290
     1
  0
SCALE
  5
968F
102
{ACAD_REACTORS
330
968D
102
}
330
968D
100
AcDbScale
 70
     0
300
1/128" = 1'-0"
140
0.0078125
141
12.0
290
     0
  0
SCALE
  5
9690
102
{ACAD_REACTORS
330
968D
102
}
330
968D
100
AcDbScale
 70
     0
300
1/64" = 1'-0"
140
0.015625
141
12.0
290
     0
  0
SCALE
  5
9691
102
{ACAD_REACTORS
330
968D
102
}
330
968D
100
AcDbScale
 70
     0
300
1/32" = 1'-0"
140
0.03125
141
12.0
290
     0
  0
SCALE
  5
9692
102
{ACAD_REACTORS
330
968D
102
}
330
968D
100
AcDbScale
 70
     0
300
1/16" = 1'-0"
140
0.0625
141
12.0
290
     0
  0
SCALE
  5
9693
102
{ACAD_REACTORS
330
968D
102
}
330
968D
100
AcDbScale
 70
     0
300
3/32" = 1'-0"
140
0.09375
141
12.0
290
     0
  0
SCALE
  5
9694
102
{ACAD_REACTORS
330
968D
102
}
330
968D
100
AcDbScale
 70
     0
300
1/8" = 1'-0"
140
0.125
141
12.0
290
     0
  0
SCALE
  5
9695
102
{ACAD_REACTORS
330
968D
102
}
330
968D
100
AcDbScale
 70
     0
300
3/16" = 1'-0"
140
0.1875
141
12.0
290
     0
  0
SCALE
  5
9696
102
{ACAD_REACTORS
330
968D
102
}
330
968D
100
AcDbScale
 70
     0
300
1/4" = 1'-0"
140
0.25
141
12.0
290
     0
  0
SCALE
  5
9697
102
{ACAD_REACTORS
330
968D
102
}
330
968D
100
AcDbScale
 70
     0
300
3/8" = 1'-0"
140
0.375
141
12.0
290
     0
  0
SCALE
  5
9698
102
{ACAD_REACTORS
330
968D
102
}
330
968D
100
AcDbScale
 70
     0
300
1/2" = 1'-0"
140
0.5
141
12.0
290
     0
  0
SCALE
  5
9699
102
{ACAD_REACTORS
330
968D
102
}
330
968D
100
AcDbScale
 70
     0
300
3/4" = 1'-0"
140
0.75
141
12.0
290
     0
  0
SCALE
  5
969A
102
{ACAD_REACTORS
330
968D
102
}
330
968D
100
AcDbScale
 70
     0
300
1" = 1'-0"
140
1.0
141
12.0
290
     0
  0
SCALE
  5
969B
102
{ACAD_REACTORS
330
968D
102
}
330
968D
100
AcDbScale
 70
     0
300
1-1/2" = 1'-0"
140
1.5
141
12.0
290
     0
  0
SCALE
  5
969C
102
{ACAD_REACTORS
330
968D
102
}
330
968D
100
AcDbScale
 70
     0
300
3" = 1'-0"
140
3.0
141
12.0
290
     0
  0
SCALE
  5
969D
102
{ACAD_REACTORS
330
968D
102
}
330
968D
100
AcDbScale
 70
     0
300
6" = 1'-0"
140
6.0
141
12.0
290
     0
  0
SCALE
  5
969E
102
{ACAD_REACTORS
330
968D
102
}
330
968D
100
AcDbScale
 70
     0
300
1'-0" = 1'-0"
140
12.0
141
12.0
290
     0
  0
ACDBSECTIONVIEWSTYLE
  5
96A2
102
{ACAD_XDICTIONARY
360
96FD
102
}
102
{ACAD_REACTORS
330
96A1
102
}
330
96A1
100
AcDbModelDocViewStyle
 70
     0
  3
Imperial24
290
     0
100
AcDbSectionViewStyle
 70
     0
 71
     0
 90
       78
 71
     1
340
9460
 40
0.24
340
0
340
0
 40
0.24
300
I, O, Q, S, X, Z
 40
0.48
 90
        3
 40
0.18
 90
        1
 71
     2
340
9464
 90
       25
340
9464
 90
       50
 40
0.24
 40
0.0
 40
0.24
 71
     3
340
9460
 40
0.24
 90
        1
 40
0.75
 90
        1
300
%<\AcVar ViewType \f "%tc1">% %<\AcVar ViewSectionStartId>%-%<\AcVar ViewSectionEndId>%\PSCALE %<\AcVar ViewScale \f "%sn">%
 71
     4
300
ANSI31
 40
1.0
 90
        0
290
     0
290
     0
 90
        6
 40
0.0
 40
1.570796326794896
 40
0.2617993877991494
 40
1.308996938995747
 40
-0.2617993877991494
 40
1.832595714594046
  0
TABLESTYLE
  5
968C
102
{ACAD_XDICTIONARY
360
96C4
102
}
102
{ACAD_REACTORS
330
968B
102
}
330
968B
100
AcDbTableStyle
  3
Standard
 70
     0
 71
     0
 40
0.06
 41
0.06
280
     0
281
     0
  7
STANDARD
140
0.18
170
     2
 62
     0
 63
     7
283
     0
274
    -2
284
     1
 64
     0
275
    -2
285
     1
 65
     0
276
    -2
286
     1
 66
     0
277
    -2
287
     1
 67
     0
278
    -2
288
     1
 68
     0
279
    -2
289
     1
 69
     0
  7
STANDARD
140
0.25
170
     5
 62
     0
 63
     7
283
     0
274
    -2
284
     1
 64
     0
275
    -2
285
     1
 65
     0
276
    -2
286
     1
 66
     0
277
    -2
287
     1
 67
     0
278
    -2
288
     1
 68
     0
279
    -2
289
     1
 69
     0
  7
STANDARD
140
0.18
170
     5
 62
     0
 63
     7
283
     0
274
    -2
284
     1
 64
     0
275
    -2
285
     1
 65
     0
276
    -2
286
     1
 66
     0
277
    -2
287
     1
 67
     0
278
    -2
288
     1
 68
     0
279
    -2
289
     1
 69
     0
  0
VISUALSTYLE
  5
9677
102
{ACAD_XDICTIONARY
360
96D5
102
}
102
{ACAD_REACTORS
330
9671
102
}
330
9671
100
AcDbVisualStyle
  2
2dWireframe
 70
     4
 71
     0
 72
     2
 73
     0
 90
        0
 40
-0.6
 41
-30.0
 62
     5
 63
     7
 74
     1
 91
        4
 64
     7
 65
   257
 75
     1
175
     1
 42
1.0
 92
        0
 66
   257
 43
1.0
 76
     1
 77
     6
 78
     2
 67
     7
 79
     5
170
     0
171
     0
290
     0
174
     0
 93
        1
 44
0.0
173
     0
291
     0
 45
0.0
1001
ACAD
1000
AcDbSavedByObjectVersion
1070
     0
  0
VISUALSTYLE
  5
9676
102
{ACAD_XDICTIONARY
360
96D3
102
}
102
{ACAD_REACTORS
330
9671
102
}
330
9671
100
AcDbVisualStyle
  2
Basic
 70
     7
 71
     1
 72
     0
 73
     1
 90
        0
 40
-0.6
 41
-30.0
 62
     5
 63
     7
 74
     0
 91
        4
 64
     7
 65
   257
 75
     1
175
     1
 42
1.0
 92
        8
 66
     7
 43
1.0
 76
     1
 77
     6
 78
     2
 67
     7
 79
     5
170
     0
171
     0
290
     0
174
     0
 93
        1
 44
0.0
173
     0
291
     1
 45
0.0
1001
ACAD
1000
AcDbSavedByObjectVersion
1070
     0
  0
VISUALSTYLE
  5
967D
102
{ACAD_XDICTIONARY
360
96E1
102
}
102
{ACAD_REACTORS
330
9671
102
}
330
9671
100
AcDbVisualStyle
  2
Brighten
 70
    12
 71
     2
 72
     2
 73
     0
 90
        0
 40
-0.6
 41
-30.0
 62
     5
 63
     7
 74
     1
 91
        4
 64
     7
 65
   257
 75
     1
175
     1
 42
1.0
 92
        8
 66
     7
 43
1.0
 76
     1
 77
     6
 78
     2
 67
     7
 79
     5
170
     0
171
     0
290
     0
174
     0
 93
        1
 44
50.0
173
     0
291
     1
 45
0.0
1001
ACAD
1000
AcDbSavedByObjectVersion
1070
     0
  0
VISUALSTYLE
  5
9681
102
{ACAD_XDICTIONARY
360
96E9
102
}
102
{ACAD_REACTORS
330
9671
102
}
330
9671
100
AcDbVisualStyle
  2
ColorChange
 70
    16
 71
     2
 72
     2
 73
     3
 90
        0
 40
-0.6
 41
-30.0
 62
     5
 63
     8
 74
     1
 91
        4
 64
     7
 65
   257
 75
     1
175
     1
 42
1.0
 92
        8
 66
     8
 43
1.0
 76
     1
 77
     6
 78
     2
 67
     7
 79
     5
170
     0
171
     0
290
     0
174
     0
 93
        1
 44
0.0
173
     0
291
     1
 45
0.0
1001
ACAD
1000
AcDbSavedByObjectVersion
1070
     0
  0
VISUALSTYLE
  5
967A
102
{ACAD_XDICTIONARY
360
96DB
102
}
102
{ACAD_REACTORS
330
9671
102
}
330
9671
100
AcDbVisualStyle
  2
Conceptual
 70
     9
 71
     3
 72
     2
 73
     0
 90
        0
 40
-0.6
 41
-30.0
 62
     5
 63
     7
 74
     2
 91
        2
 64
     7
 65
   257
 75
     1
175
     1
 42
179.0
 92
        8
 66
     7
 43
1.0
 76
     1
 77
     6
 78
     2
 67
     7
 79
     3
170
     0
171
     0
290
     0
174
     0
 93
        1
 44
0.0
173
     0
291
     0
 45
0.0
1001
ACAD
1000
AcDbSavedByObjectVersion
1070
     0
  0
VISUALSTYLE
  5
967C
102
{ACAD_XDICTIONARY
360
96DF
102
}
102
{ACAD_REACTORS
330
9671
102
}
330
9671
100
AcDbVisualStyle
  2
Dim
 70
    11
 71
     2
 72
     2
 73
     0
 90
        0
 40
-0.6
 41
-30.0
 62
     5
 63
     7
 74
     1
 91
        4
 64
     7
 65
   257
 75
     1
175
     1
 42
1.0
 92
        8
 66
     7
 43
1.0
 76
     1
 77
     6
 78
     2
 67
     7
 79
     5
170
     0
171
     0
290
     0
174
     0
 93
        1
 44
-50.0
173
     0
291
     1
 45
0.0
1001
ACAD
1000
AcDbSavedByObjectVersion
1070
     0
  0
VISUALSTYLE
  5
9689
102
{ACAD_XDICTIONARY
360
96F9
102
}
102
{ACAD_REACTORS
330
9671
102
}
330
9671
100
AcDbVisualStyle
  2
EdgeColorOff
 70
    22
 71
     2
 72
     2
 73
     0
 90
        0
 40
-0.6
 41
-30.0
 62
     5
 63
     7
 74
     1
 91
        4
 64
     7
 65
   257
 75
     1
175
     1
 42
1.0
 92
        8
 66
     7
 43
1.0
 76
     1
 77
     6
 78
     2
 67
     7
 79
     5
170
     0
171
     0
290
     0
174
     0
 93
        1
 44
0.0
173
     0
291
     1
 45
0.0
1001
ACAD
1000
AcDbSavedByObjectVersion
1070
     0
  0
VISUALSTYLE
  5
9680
102
{ACAD_XDICTIONARY
360
96E7
102
}
102
{ACAD_REACTORS
330
9671
102
}
330
9671
100
AcDbVisualStyle
  2
Facepattern
 70
    15
 71
     2
 72
     2
 73
     0
 90
        0
 40
-0.6
 41
-30.0
 62
     5
 63
     7
 74
     1
 91
        4
 64
     7
 65
   257
 75
     1
175
     1
 42
1.0
 92
        8
 66
     7
 43
1.0
 76
     1
 77
     6
 78
     2
 67
     7
 79
     5
170
     0
171
     0
290
     0
174
     0
 93
        1
 44
0.0
173
     0
291
     1
 45
0.0
1001
ACAD
1000
AcDbSavedByObjectVersion
1070
     0
  0
VISUALSTYLE
  5
9672
102
{ACAD_XDICTIONARY
360
96CB
102
}
102
{ACAD_REACTORS
330
9671
102
}
330
9671
100
AcDbVisualStyle
  2
Flat
 70
     0
 71
     2
 72
     1
 73
     1
 90
        2
 40
-0.6
 41
30.0
 62
     5
 63
     7
 74
     0
 91
        0
 64
     7
 65
   257
 75
     1
175
     1
 42
1.0
 92
        8
 66
     7
 43
1.0
 76
     1
 77
     6
 78
     2
 67
     7
 79
     5
170
     0
171
     0
290
     0
174
     0
 93
       13
 44
0.0
173
     0
291
     1
 45
0.0
1001
ACAD
1000
AcDbSavedByObjectVersion
1070
     0
  0
VISUALSTYLE
  5
9673
102
{ACAD_XDICTIONARY
360
96CD
102
}
102
{ACAD_REACTORS
330
9671
102
}
330
9671
100
AcDbVisualStyle
  2
FlatWithEdges
 70
     1
 71
     2
 72
     1
 73
     1
 90
        2
 40
-0.6
 41
30.0
 62
     5
 63
     7
 74
     1
 91
        0
 64
     7
 65
   257
 75
     1
175
     1
 42
1.0
 92
        0
 66
   257
 43
1.0
 76
     1
 77
     6
 78
     2
 67
     7
 79
     5
170
     0
171
     0
290
     0
174
     0
 93
       13
 44
0.0
173
     0
291
     1
 45
0.0
1001
ACAD
1000
AcDbSavedByObjectVersion
1070
     0
  0
VISUALSTYLE
  5
9674
102
{ACAD_XDICTIONARY
360
96CF
102
}
102
{ACAD_REACTORS
330
9671
102
}
330
9671
100
AcDbVisualStyle
  2
Gouraud
 70
     2
 71
     2
 72
     2
 73
     1
 90
        2
 40
-0.6
 41
30.0
 62
     5
 63
     7
 74
     0
 91
        0
 64
     7
 65
   257
 75
     1
175
     1
 42
1.0
 92
        0
 66
     7
 43
1.0
 76
     1
 77
     6
 78
     2
 67
     7
 79
     5
170
     0
171
     0
290
     0
174
     0
 93
       13
 44
0.0
173
     0
291
     1
 45
0.0
1001
ACAD
1000
AcDbSavedByObjectVersion
1070
     0
  0
VISUALSTYLE
  5
9675
102
{ACAD_XDICTIONARY
360
96D1
102
}
102
{ACAD_REACTORS
330
9671
102
}
330
9671
100
AcDbVisualStyle
  2
GouraudWithEdges
 70
     3
 71
     2
 72
     2
 73
     1
 90
        2
 40
-0.6
 41
30.0
 62
     5
 63
     7
 74
     1
 91
        0
 64
     7
 65
   257
 75
     1
175
     1
 42
1.0
 92
        0
 66
   257
 43
1.0
 76
     1
 77
     6
 78
     2
 67
     7
 79
     5
170
     0
171
     0
290
     0
174
     0
 93
       13
 44
0.0
173
     0
291
     1
 45
0.0
1001
ACAD
1000
AcDbSavedByObjectVersion
1070
     0
  0
VISUALSTYLE
  5
9679
102
{ACAD_XDICTIONARY
360
96D9
102
}
102
{ACAD_REACTORS
330
9671
102
}
330
9671
100
AcDbVisualStyle
  2
Hidden
 70
     6
 71
     1
 72
     2
 73
     2
 90
        0
 40
-0.6
 41
-30.0
 62
     5
 63
     7
 74
     2
 91
        2
 64
     7
 65
   257
 75
     2
175
     1
 42
40.0
 92
        0
 66
   257
 43
1.0
 76
     1
 77
     6
 78
     2
 67
     7
 79
     3
170
     0
171
     0
290
     0
174
     0
 93
        1
 44
0.0
173
     0
291
     0
 45
0.0
1001
ACAD
1000
AcDbSavedByObjectVersion
1070
     0
  0
VISUALSTYLE
  5
9687
102
{ACAD_XDICTIONARY
360
96F5
102
}
102
{ACAD_REACTORS
330
9671
102
}
330
9671
100
AcDbVisualStyle
  2
JitterOff
 70
    20
 71
     2
 72
     2
 73
     0
 90
        0
 40
-0.6
 41
-30.0
 62
     5
 63
     7
 74
     1
 91
        4
 64
     7
 65
   257
 75
     1
175
     1
 42
1.0
 92
       10
 66
     7
 43
1.0
 76
     1
 77
     6
 78
     2
 67
     7
 79
     5
170
     0
171
     0
290
     0
174
     0
 93
        1
 44
0.0
173
     0
291
     1
 45
0.0
1001
ACAD
1000
AcDbSavedByObjectVersion
1070
     0
  0
VISUALSTYLE
  5
967F
102
{ACAD_XDICTIONARY
360
96E5
102
}
102
{ACAD_REACTORS
330
9671
102
}
330
9671
100
AcDbVisualStyle
  2
Linepattern
 70
    14
 71
     2
 72
     2
 73
     0
 90
        0
 40
-0.6
 41
-30.0
 62
     5
 63
     7
 74
     1
 91
        4
 64
     7
 65
   257
 75
     7
175
     7
 42
1.0
 92
        8
 66
     7
 43
1.0
 76
     1
 77
     6
 78
     2
 67
     7
 79
     5
170
     0
171
     0
290
     0
174
     0
 93
        1
 44
0.0
173
     0
291
     1
 45
0.0
1001
ACAD
1000
AcDbSavedByObjectVersion
1070
     0
  0
VISUALSTYLE
  5
9688
102
{ACAD_XDICTIONARY
360
96F7
102
}
102
{ACAD_REACTORS
330
9671
102
}
330
9671
100
AcDbVisualStyle
  2
OverhangOff
 70
    21
 71
     2
 72
     2
 73
     0
 90
        0
 40
-0.6
 41
-30.0
 62
     5
 63
     7
 74
     1
 91
        4
 64
     7
 65
   257
 75
     1
175
     1
 42
1.0
 92
        9
 66
     7
 43
1.0
 76
     1
 77
     6
 78
     2
 67
     7
 79
     5
170
     0
171
     0
290
     0
174
     0
 93
        1
 44
0.0
173
     0
291
     1
 45
0.0
1001
ACAD
1000
AcDbSavedByObjectVersion
1070
     0
  0
VISUALSTYLE
  5
967B
102
{ACAD_XDICTIONARY
360
96DD
102
}
102
{ACAD_REACTORS
330
9671
102
}
330
9671
100
AcDbVisualStyle
  2
Realistic
 70
     8
 71
     2
 72
     3
 73
     0
 90
        2
 40
-0.6
 41
30.0
 62
     5
 63
     7
 74
     0
 91
        0
 64
     7
 65
   257
 75
     1
175
     1
 42
1.0
 92
        8
 66
   257
 43
1.0
 76
     1
 77
     6
 78
     2
 67
     7
 79
     3
170
     0
171
     0
290
     0
174
     0
 93
       13
 44
0.0
173
     0
291
     0
 45
0.0
1001
ACAD
1000
AcDbSavedByObjectVersion
1070
     0
  0
VISUALSTYLE
  5
9686
102
{ACAD_XDICTIONARY
360
96F3
102
}
102
{ACAD_REACTORS
330
9671
102
}
330
9671
100
AcDbVisualStyle
  2
Shaded
 70
    27
 71
     2
 72
     2
 73
     1
 90
        2
 40
-0.6
 41
30.0
 62
     5
 63
     7
 74
     0
 91
        4
 64
     7
 65
   257
 75
     1
175
     1
 42
1.0
 92
        8
 66
   257
 43
1.0
 76
     1
 77
     6
 78
     2
 67
     8
 79
     3
170
     0
171
     0
290
     0
174
     0
 93
        5
 44
0.0
173
     0
291
     0
 45
0.0
1001
ACAD
1000
AcDbSavedByObjectVersion
1070
     0
  0
VISUALSTYLE
  5
9685
102
{ACAD_XDICTIONARY
360
96F1
102
}
102
{ACAD_REACTORS
330
9671
102
}
330
9671
100
AcDbVisualStyle
  2
Shaded with edges
 70
    26
 71
     2
 72
     2
 73
     1
 90
        2
 40
-0.6
 41
30.0
 62
     5
 63
     7
 74
     1
 91
       10
 64
     7
 65
   257
 75
     2
175
     1
 42
1.0
 92
        8
 66
   257
 43
1.0
 76
     1
 77
     6
 78
     2
 67
     7
 79
     3
170
     0
171
     0
290
     0
174
     0
 93
        5
 44
0.0
173
     0
291
     0
 45
0.0
1001
ACAD
1000
AcDbSavedByObjectVersion
1070
     0
  0
VISUALSTYLE
  5
9682
102
{ACAD_XDICTIONARY
360
96EB
102
}
102
{ACAD_REACTORS
330
9671
102
}
330
9671
100
AcDbVisualStyle
  2
Shades of Gray
 70
    23
 71
     2
 72
     2
 73
     3
 90
        0
 40
-0.6
 41
-30.0
 62
     5
 63
     7
 74
     2
 91
        2
 64
     7
 65
     7
 75
     1
175
     1
 42
40.0
 92
        8
 66
     7
 43
1.0
 76
     1
 77
     6
 78
     2
 67
     7
 79
     3
170
     0
171
     0
290
     0
174
     0
 93
        1
 44
0.0
173
     0
291
     0
 45
0.0
1001
ACAD
1000
AcDbSavedByObjectVersion
1070
     0
  0
VISUALSTYLE
  5
9683
102
{ACAD_XDICTIONARY
360
96ED
102
}
102
{ACAD_REACTORS
330
9671
102
}
330
9671
100
AcDbVisualStyle
  2
Sketchy
 70
    24
 71
     1
 72
     2
 73
     2
 90
        0
 40
-0.6
 41
-30.0
 62
     5
 63
     7
 74
     2
 91
        2
 64
     7
 65
     7
 75
     1
175
     1
 42
40.0
 92
       11
 66
     7
 43
1.0
 76
     1
 77
     6
 78
     2
 67
     7
 79
     6
170
     0
171
     0
290
     0
174
     0
 93
        1
 44
0.0
173
     0
291
     0
 45
0.0
1001
ACAD
1000
AcDbSavedByObjectVersion
1070
     0
  0
VISUALSTYLE
  5
967E
102
{ACAD_XDICTIONARY
360
96E3
102
}
102
{ACAD_REACTORS
330
9671
102
}
330
9671
100
AcDbVisualStyle
  2
Thicken
 70
    13
 71
     2
 72
     2
 73
     0
 90
        0
 40
-0.6
 41
-30.0
 62
     5
 63
     7
 74
     1
 91
        4
 64
     7
 65
   257
 75
     1
175
     1
 42
1.0
 92
       12
 66
     7
 43
1.0
 76
     1
 77
     6
 78
     2
 67
     7
 79
     5
170
     0
171
     0
290
     0
174
     0
 93
        1
 44
0.0
173
     0
291
     1
 45
0.0
1001
ACAD
1000
AcDbSavedByObjectVersion
1070
     0
  0
VISUALSTYLE
  5
9678
102
{ACAD_XDICTIONARY
360
96D7
102
}
102
{ACAD_REACTORS
330
9671
102
}
330
9671
100
AcDbVisualStyle
  2
Wireframe
 70
     5
 71
     0
 72
     2
 73
     0
 90
        0
 40
-0.6
 41
-30.0
 62
     5
 63
     7
 74
     1
 91
        4
 64
     7
 65
   257
 75
     1
175
     1
 42
1.0
 92
        0
 66
   257
 43
1.0
 76
     1
 77
     6
 78
     2
 67
     7
 79
     3
170
     0
171
     0
290
     0
174
     0
 93
        1
 44
0.0
173
     0
291
     0
 45
0.0
1001
ACAD
1000
AcDbSavedByObjectVersion
1070
     0
  0
VISUALSTYLE
  5
9684
102
{ACAD_XDICTIONARY
360
96EF
102
}
102
{ACAD_REACTORS
330
9671
102
}
330
9671
100
AcDbVisualStyle
  2
X-Ray
 70
    25
 71
     2
 72
     2
 73
     1
 90
        1
 40
0.5
 41
-30.0
 62
     5
 63
     7
 74
     1
 91
        0
 64
     7
 65
   257
 75
     1
175
     1
 42
1.0
 92
        8
 66
     7
 43
1.0
 76
     1
 77
     6
 78
     2
 67
     7
 79
     3
170
     0
171
     0
290
     0
174
     0
 93
       13
 44
0.0
173
     0
291
     0
 45
0.0
1001
ACAD
1000
AcDbSavedByObjectVersion
1070
     0
  0
DICTIONARYVAR
  5
96BE
102
{ACAD_REACTORS
330
96B9
102
}
330
96B9
100
DictionaryVariables
280
     0
  1
1:1
  0
DICTIONARYVAR
  5
96BB
102
{ACAD_REACTORS
330
96B9
102
}
330
96B9
100
DictionaryVariables
280
     0
  1
STANDARD
  0
DICTIONARYVAR
  5
96BA
102
{ACAD_REACTORS
330
96B9
102
}
330
96B9
100
DictionaryVariables
280
     0
  1
STANDARD
  0
DICTIONARYVAR
  5
96BC
102
{ACAD_REACTORS
330
96B9
102
}
330
96B9
100
DictionaryVariables
280
     0
  1
Imperial24
  0
DICTIONARYVAR
  5
96BD
102
{ACAD_REACTORS
330
96B9
102
}
330
96B9
100
DictionaryVariables
280
     0
  1
Imperial24
  0
DICTIONARYVAR
  5
96C1
102
{ACAD_REACTORS
330
96B9
102
}
330
96B9
100
DictionaryVariables
280
     0
  1
1
  0
DICTIONARYVAR
  5
96C0
102
{ACAD_REACTORS
330
96B9
102
}
330
96B9
100
DictionaryVariables
280
     0
  1
0
  0
DICTIONARYVAR
  5
96BF
102
{ACAD_REACTORS
330
96B9
102
}
330
96B9
100
DictionaryVariables
280
     0
  1
127
  0
DICTIONARYVAR
  5
96C2
102
{ACAD_REACTORS
330
96B9
102
}
330
96B9
100
DictionaryVariables
280
     0
  1
2
  0
DICTIONARY
  5
96FF
330
96A4
100
AcDbDictionary
280
     1
281
     1
  3
ACAD_XREC_ROUNDTRIP
360
9700
  0
DICTIONARY
  5
9701
330
96A5
100
AcDbDictionary
280
     1
281
     1
  3
ACAD_XREC_ROUNDTRIP
360
9702
  0
DICTIONARY
  5
9703
330
96A6
100
AcDbDictionary
280
     1
281
     1
  3
ACAD_XREC_ROUNDTRIP
360
9704
  0
DICTIONARY
  5
9662
330
9661
100
AcDbDictionary
280
     1
281
     1
  3
ACAD_XREC_ROUNDTRIP
360
96C9
  3
BUMPTILE
360
9664
  3
DIFFUSETILE
360
9663
  3
OPACITYTILE
360
9667
  3
REFLECTIONTILE
360
9666
  3
REFRACTIONTILE
360
9668
  3
SPECULARTILE
360
9665
  0
DICTIONARY
  5
965A
330
9659
100
AcDbDictionary
280
     1
281
     1
  3
ACAD_XREC_ROUNDTRIP
360
96C8
  3
BUMPTILE
360
965C
  3
DIFFUSETILE
360
965B
  3
OPACITYTILE
360
965F
  3
REFLECTIONTILE
360
965E
  3
REFRACTIONTILE
360
9660
  3
SPECULARTILE
360
965D
  0
DICTIONARY
  5
966A
330
9669
100
AcDbDictionary
280
     1
281
     1
  3
ACAD_XREC_ROUNDTRIP
360
96CA
  3
BUMPTILE
360
966C
  3
DIFFUSETILE
360
966B
  3
OPACITYTILE
360
966F
  3
REFLECTIONTILE
360
966E
  3
REFRACTIONTILE
360
9670
  3
SPECULARTILE
360
966D
  0
DICTIONARY
  5
96FD
330
96A2
100
AcDbDictionary
280
     1
281
     1
  3
ACAD_XREC_ROUNDTRIP
360
96FE
  0
DICTIONARY
  5
96C4
330
968C
100
AcDbDictionary
280
     1
281
     1
  3
ACAD_ROUNDTRIP_2008_TABLESTYLE_CELLSTYLEMAP
360
96C5
  3
ACAD_XREC_ROUNDTRIP
360
96FB
  0
DICTIONARY
  5
96D5
330
9677
100
AcDbDictionary
280
     1
281
     1
  3
ACAD_XREC_ROUNDTRIP
360
96D6
  0
DICTIONARY
  5
96D3
330
9676
100
AcDbDictionary
280
     1
281
     1
  3
ACAD_XREC_ROUNDTRIP
360
96D4
  0
DICTIONARY
  5
96E1
330
967D
100
AcDbDictionary
280
     1
281
     1
  3
ACAD_XREC_ROUNDTRIP
360
96E2
  0
DICTIONARY
  5
96E9
330
9681
100
AcDbDictionary
280
     1
281
     1
  3
ACAD_XREC_ROUNDTRIP
360
96EA
  0
DICTIONARY
  5
96DB
330
967A
100
AcDbDictionary
280
     1
281
     1
  3
ACAD_XREC_ROUNDTRIP
360
96DC
  0
DICTIONARY
  5
96DF
330
967C
100
AcDbDictionary
280
     1
281
     1
  3
ACAD_XREC_ROUNDTRIP
360
96E0
  0
DICTIONARY
  5
96F9
330
9689
100
AcDbDictionary
280
     1
281
     1
  3
ACAD_XREC_ROUNDTRIP
360
96FA
  0
DICTIONARY
  5
96E7
330
9680
100
AcDbDictionary
280
     1
281
     1
  3
ACAD_XREC_ROUNDTRIP
360
96E8
  0
DICTIONARY
  5
96CB
330
9672
100
AcDbDictionary
280
     1
281
     1
  3
ACAD_XREC_ROUNDTRIP
360
96CC
  0
DICTIONARY
  5
96CD
330
9673
100
AcDbDictionary
280
     1
281
     1
  3
ACAD_XREC_ROUNDTRIP
360
96CE
  0
DICTIONARY
  5
96CF
330
9674
100
AcDbDictionary
280
     1
281
     1
  3
ACAD_XREC_ROUNDTRIP
360
96D0
  0
DICTIONARY
  5
96D1
330
9675
100
AcDbDictionary
280
     1
281
     1
  3
ACAD_XREC_ROUNDTRIP
360
96D2
  0
DICTIONARY
  5
96D9
330
9679
100
AcDbDictionary
280
     1
281
     1
  3
ACAD_XREC_ROUNDTRIP
360
96DA
  0
DICTIONARY
  5
96F5
330
9687
100
AcDbDictionary
280
     1
281
     1
  3
ACAD_XREC_ROUNDTRIP
360
96F6
  0
DICTIONARY
  5
96E5
330
967F
100
AcDbDictionary
280
     1
281
     1
  3
ACAD_XREC_ROUNDTRIP
360
96E6
  0
DICTIONARY
  5
96F7
330
9688
100
AcDbDictionary
280
     1
281
     1
  3
ACAD_XREC_ROUNDTRIP
360
96F8
  0
DICTIONARY
  5
96DD
330
967B
100
AcDbDictionary
280
     1
281
     1
  3
ACAD_XREC_ROUNDTRIP
360
96DE
  0
DICTIONARY
  5
96F3
330
9686
100
AcDbDictionary
280
     1
281
     1
  3
ACAD_XREC_ROUNDTRIP
360
96F4
  0
DICTIONARY
  5
96F1
330
9685
100
AcDbDictionary
280
     1
281
     1
  3
ACAD_XREC_ROUNDTRIP
360
96F2
  0
DICTIONARY
  5
96EB
330
9682
100
AcDbDictionary
280
     1
281
     1
  3
ACAD_XREC_ROUNDTRIP
360
96EC
  0
DICTIONARY
  5
96ED
330
9683
100
AcDbDictionary
280
     1
281
     1
  3
ACAD_XREC_ROUNDTRIP
360
96EE
  0
DICTIONARY
  5
96E3
330
967E
100
AcDbDictionary
280
     1
281
     1
  3
ACAD_XREC_ROUNDTRIP
360
96E4
  0
DICTIONARY
  5
96D7
330
9678
100
AcDbDictionary
280
     1
281
     1
  3
ACAD_XREC_ROUNDTRIP
360
96D8
  0
DICTIONARY
  5
96EF
330
9684
100
AcDbDictionary
280
     1
281
     1
  3
ACAD_XREC_ROUNDTRIP
360
96F0
  0
XRECORD
  5
9700
102
{ACAD_REACTORS
330
96FF
102
}
330
96FF
100
AcDbXrecord
280
     1
102
DISPLAYNAME
  1
Imperial24
102
FLAGS
 90
        0
  0
XRECORD
  5
9702
102
{ACAD_REACTORS
330
9701
102
}
330
9701
100
AcDbXrecord
280
     1
102
SHADEPLOT
 70
     0
102
SHADEPLOTRESLEVEL
 70
     2
102
SHADEPLOTCUSTOMDPI
 70
   300
  0
XRECORD
  5
9704
102
{ACAD_REACTORS
330
9703
102
}
330
9703
100
AcDbXrecord
280
     1
102
SHADEPLOT
 70
     0
102
SHADEPLOTRESLEVEL
 70
     2
102
SHADEPLOTCUSTOMDPI
 70
   300
  0
XRECORD
  5
96C9
102
{ACAD_REACTORS
330
9662
102
}
330
9662
100
AcDbXrecord
280
     1
102
MATERIAL
148
0.0
149
0.0
149
0.0
 93
        0
 94
      127
282
     0
 72
     0
 77
     0
171
     0
175
     0
179
     0
273
     0
  0
XRECORD
  5
9664
102
{ACAD_REACTORS
330
9662
102
}
330
9662
100
AcDbXrecord
280
     1
270
     1
271
     1
  0
XRECORD
  5
9663
102
{ACAD_REACTORS
330
9662
102
}
330
9662
100
AcDbXrecord
280
     1
270
     1
271
     1
  0
XRECORD
  5
9667
102
{ACAD_REACTORS
330
9662
102
}
330
9662
100
AcDbXrecord
280
     1
270
     1
271
     1
  0
XRECORD
  5
9666
102
{ACAD_REACTORS
330
9662
102
}
330
9662
100
AcDbXrecord
280
     1
270
     1
271
     1
  0
XRECORD
  5
9668
102
{ACAD_REACTORS
330
9662
102
}
330
9662
100
AcDbXrecord
280
     1
270
     1
271
     1
  0
XRECORD
  5
9665
102
{ACAD_REACTORS
330
9662
102
}
330
9662
100
AcDbXrecord
280
     1
270
     1
271
     1
  0
XRECORD
  5
96C8
102
{ACAD_REACTORS
330
965A
102
}
330
965A
100
AcDbXrecord
280
     1
102
MATERIAL
148
0.0
149
0.0
149
0.0
 93
        0
 94
      127
282
     0
 72
     0
 77
     0
171
     0
175
     0
179
     0
273
     0
  0
XRECORD
  5
965C
102
{ACAD_REACTORS
330
965A
102
}
330
965A
100
AcDbXrecord
280
     1
270
     1
271
     1
  0
XRECORD
  5
965B
102
{ACAD_REACTORS
330
965A
102
}
330
965A
100
AcDbXrecord
280
     1
270
     1
271
     1
  0
XRECORD
  5
965F
102
{ACAD_REACTORS
330
965A
102
}
330
965A
100
AcDbXrecord
280
     1
270
     1
271
     1
  0
XRECORD
  5
965E
102
{ACAD_REACTORS
330
965A
102
}
330
965A
100
AcDbXrecord
280
     1
270
     1
271
     1
  0
XRECORD
  5
9660
102
{ACAD_REACTORS
330
965A
102
}
330
965A
100
AcDbXrecord
280
     1
270
     1
271
     1
  0
XRECORD
  5
965D
102
{ACAD_REACTORS
330
965A
102
}
330
965A
100
AcDbXrecord
280
     1
270
     1
271
     1
  0
XRECORD
  5
96CA
102
{ACAD_REACTORS
330
966A
102
}
330
966A
100
AcDbXrecord
280
     1
102
MATERIAL
148
0.0
149
0.0
149
0.0
 93
        0
 94
      127
282
     0
 72
     0
 77
     0
171
     0
175
     0
179
     0
273
     0
  0
XRECORD
  5
966C
102
{ACAD_REACTORS
330
966A
102
}
330
966A
100
AcDbXrecord
280
     1
270
     1
271
     1
  0
XRECORD
  5
966B
102
{ACAD_REACTORS
330
966A
102
}
330
966A
100
AcDbXrecord
280
     1
270
     1
271
     1
  0
XRECORD
  5
966F
102
{ACAD_REACTORS
330
966A
102
}
330
966A
100
AcDbXrecord
280
     1
270
     1
271
     1
  0
XRECORD
  5
966E
102
{ACAD_REACTORS
330
966A
102
}
330
966A
100
AcDbXrecord
280
     1
270
     1
271
     1
  0
XRECORD
  5
9670
102
{ACAD_REACTORS
330
966A
102
}
330
966A
100
AcDbXrecord
280
     1
270
     1
271
     1
  0
XRECORD
  5
966D
102
{ACAD_REACTORS
330
966A
102
}
330
966A
100
AcDbXrecord
280
     1
270
     1
271
     1
  0
XRECORD
  5
96FE
102
{ACAD_REACTORS
330
96FD
102
}
330
96FD
100
AcDbXrecord
280
     1
102
DISPLAYNAME
  1
Imperial24
102
FLAGS
 90
        0
  0
CELLSTYLEMAP
  5
96C5
102
{ACAD_REACTORS
330
96C4
102
}
330
96C4
100
AcDbCellStyleMap
 90
        3
300
CELLSTYLE
  1
TABLEFORMAT_BEGIN
 90
        5
170
     1
 91
        0
 92
    32768
 62
   257
 93
        1
300
CONTENTFORMAT
  1
CONTENTFORMAT_BEGIN
 90
        0
 91
        0
 92
      512
 93
        0
300

 40
0.0
140
1.0
 94
        5
 62
     0
340
9460
144
0.25
309
CONTENTFORMAT_END
171
     0
 94
        0
309
TABLEFORMAT_END
  1
CELLSTYLE_BEGIN
 90
        1
 91
        1
300
_TITLE
309
CELLSTYLE_END
300
CELLSTYLE
  1
TABLEFORMAT_BEGIN
 90
        5
170
     1
 91
        0
 92
        0
 62
   257
 93
        1
300
CONTENTFORMAT
  1
CONTENTFORMAT_BEGIN
 90
        0
 91
        0
 92
      512
 93
        0
300

 40
0.0
140
1.0
 94
        5
 62
     0
340
9460
144
0.18
309
CONTENTFORMAT_END
171
     0
 94
        0
309
TABLEFORMAT_END
  1
CELLSTYLE_BEGIN
 90
        2
 91
        1
300
_HEADER
309
CELLSTYLE_END
300
CELLSTYLE
  1
TABLEFORMAT_BEGIN
 90
        5
170
     1
 91
        0
 92
        0
 62
   257
 93
        1
300
CONTENTFORMAT
  1
CONTENTFORMAT_BEGIN
 90
        0
 91
        0
 92
      512
 93
        0
300

 40
0.0
140
1.0
 94
        2
 62
     0
340
9460
144
0.18
309
CONTENTFORMAT_END
171
     0
 94
        0
309
TABLEFORMAT_END
  1
CELLSTYLE_BEGIN
 90
        3
 91
        2
300
_DATA
309
CELLSTYLE_END
  0
XRECORD
  5
96FB
102
{ACAD_REACTORS
330
96C4
102
}
330
96C4
100
AcDbXrecord
280
     1
102
ACAD_ROUNDTRIP_PRE2007_TABLESTYLE
 90
      512
 91
        0
  1

 92
      512
 93
        0
  2

 94
      512
 95
        0
  3

  0
XRECORD
  5
96D6
102
{ACAD_REACTORS
330
96D5
102
}
330
96D5
100
AcDbXrecord
280
     1
102
RTVSPost2010Prop28
280
     1
102
RTVSPost2010PropOp28
 70
     1
102
RTVSPost2010Prop29
280
     1
102
RTVSPost2010PropOp29
 70
     1
102
RTVSPost2010Prop30
280
     0
102
RTVSPost2010PropOp30
 70
     1
102
RTVSPost2010Prop31
280
     0
102
RTVSPost2010PropOp31
 70
     1
102
RTVSPost2010Prop32
280
     0
102
RTVSPost2010PropOp32
 70
     1
102
RTVSPost2010Prop33
280
     0
102
RTVSPost2010PropOp33
 70
     1
102
RTVSPost2010Prop34
280
     0
102
RTVSPost2010PropOp34
 70
     1
102
RTVSPost2010Prop35
280
     0
102
RTVSPost2010PropOp35
 70
     1
102
RTVSPost2010Prop36
280
     0
102
RTVSPost2010PropOp36
 70
     1
102
RTVSPost2010Prop37
 90
       50
102
RTVSPost2010PropOp37
 70
     1
102
RTVSPost2010Prop38
140
0.0
102
RTVSPost2010PropOp38
 70
     1
102
RTVSPost2010Prop39
140
1.0
102
RTVSPost2010PropOp39
 70
     1
102
RTVSPost2010Prop40
 90
        0
102
RTVSPost2010PropOp40
 70
     1
102
RTVSPost2010Prop41ColorIndex
 90
       18
102
RTVSPost2010Prop41ColorRGB
 90
        0
102
RTVSPost2010PropOp41
 70
     1
102
RTVSPost2010Prop42
 90
       50
102
RTVSPost2010PropOp42
 70
     1
102
RTVSPost2010Prop43
 90
        3
102
RTVSPost2010PropOp43
 70
     1
102
RTVSPost2010Prop44ColorIndex
 90
        5
102
RTVSPost2010Prop44ColorRGB
 90
      255
102
RTVSPost2010PropOp44
 70
     1
102
RTVSPost2010Prop45
280
     0
102
RTVSPost2010PropOp45
 70
     1
102
RTVSPost2010Prop46
 90
       50
102
RTVSPost2010PropOp46
 70
     1
102
RTVSPost2010Prop47
 90
       50
102
RTVSPost2010PropOp47
 70
     1
102
RTVSPost2010Prop48
 90
       50
102
RTVSPost2010PropOp48
 70
     1
102
RTVSPost2010Prop49
280
     0
102
RTVSPost2010PropOp49
 70
     1
102
RTVSPost2010Prop50
 90
       50
102
RTVSPost2010PropOp50
 70
     1
102
RTVSPost2010Prop51ColorIndex
 90
      256
102
RTVSPost2010Prop51ColorRGB
 90
-16777216
102
RTVSPost2010PropOp51
 70
     0
102
RTVSPost2010Prop52
140
1.0
102
RTVSPost2010PropOp52
 70
     0
102
RTVSPost2010Prop53
 90
        2
102
RTVSPost2010PropOp53
 70
     1
102
RTVSPost2010Prop54
  1
strokes_ogs.tif
102
RTVSPost2010PropOp54
 70
     1
102
RTVSPost2010Prop55
280
     0
102
RTVSPost2010PropOp55
 70
     1
102
RTVSPost2010Prop56
140
1.0
102
RTVSPost2010PropOp56
 70
     1
102
RTVSPost2010Prop57
140
1.0
102
RTVSPost2010PropOp57
 70
     1
102
RTVSPropertyOp0
 70
     1
102
RTVSPropertyOp1
 70
     1
102
RTVSPropertyOp2
 70
     1
102
RTVSPropertyOp3
 70
     1
102
RTVSPropertyOp4
 70
     1
102
RTVSPropertyOp5
 70
     1
102
RTVSPropertyOp6
 70
     1
102
RTVSPropertyOp7
 70
     1
102
RTVSPropertyOp8
 70
     1
102
RTVSPropertyOp9
 70
     1
102
RTVSPropertyOp10
 70
     1
102
RTVSPropertyOp11
 70
     1
102
RTVSPropertyOp12
 70
     1
102
RTVSPropertyOp13
 70
     1
102
RTVSPropertyOp14
 70
     1
102
RTVSPropertyOp15
 70
     1
102
RTVSPropertyOp16
 70
     1
102
RTVSPropertyOp17
 70
     1
102
RTVSPropertyOp18
 70
     1
102
RTVSPropertyOp19
 70
     1
102
RTVSPropertyOp20
 70
     1
102
RTVSPropertyOp21
 70
     1
102
RTVSPropertyOp22
 70
     1
102
RTVSPropertyOp23
 70
     1
102
RTVSPropertyOp24
 70
     1
102
RTVSPropertyOp25
 70
     1
102
RTVSPropertyOp26
 70
     1
102
RTVSPropertyOp27
 70
     1
102
RTVSPropertyOp28
 70
     1
102
RTVSPropertyOp29
 70
     1
102
RTVSPropertyOp30
 70
     1
102
RTVSPropertyOp31
 70
     1
102
RTVSPropertyOp32
 70
     1
102
RTVSPropertyOp33
 70
     1
102
RTVSPropertyOp34
 70
     1
102
RTVSPropertyOp35
 70
     1
102
RTVSPropertyOp36
 70
     1
102
RTVSPropertyOp37
 70
     1
102
RTVSPropertyOp38
 70
     1
102
RTVSPropertyOp39
 70
     1
102
RTVSPropertyOp40
 70
     1
102
RTVSPropertyOp41
 70
     1
102
RTVSPropertyOp42
 70
     1
102
RTVSPropertyOp43
 70
     1
102
RTVSPropertyOp44
 70
     1
102
RTVSPropertyOp45
 70
     1
102
RTVSPropertyOp46
 70
     1
102
RTVSPropertyOp47
 70
     1
102
RTVSPropertyOp48
 70
     1
102
RTVSPropertyOp49
 70
     1
102
RTVSPropertyOp50
 70
     1
102
RTVSPropertyOp51
 70
     0
102
RTVSPropertyOp52
 70
     0
102
RTVSPropertyOp53
 70
     1
102
RTVSPropertyOp54
 70
     1
102
RTVSPropertyOp55
 70
     1
102
RTVSPropertyOp56
 70
     1
102
RTVSPropertyOp57
 70
     1
102
RTVSPropertyOp58
 70
     1
102
RTVSPropertyOp59
 70
     1
102
RTVSPropertyOp60
 70
     1
102
RTVSPropertyOp61
 70
     1
102
RTVSPropertyOp62
 70
     1
  0
XRECORD
  5
96D4
102
{ACAD_REACTORS
330
96D3
102
}
330
96D3
100
AcDbXrecord
280
     1
102
RTVSPost2010Prop28
280
     0
102
RTVSPost2010PropOp28
 70
     1
102
RTVSPost2010Prop29
280
     1
102
RTVSPost2010PropOp29
 70
     1
102
RTVSPost2010Prop30
280
     1
102
RTVSPost2010PropOp30
 70
     1
102
RTVSPost2010Prop31
280
     0
102
RTVSPost2010PropOp31
 70
     1
102
RTVSPost2010Prop32
280
     0
102
RTVSPost2010PropOp32
 70
     1
102
RTVSPost2010Prop33
280
     0
102
RTVSPost2010PropOp33
 70
     1
102
RTVSPost2010Prop34
280
     0
102
RTVSPost2010PropOp34
 70
     1
102
RTVSPost2010Prop35
280
     0
102
RTVSPost2010PropOp35
 70
     1
102
RTVSPost2010Prop36
280
     0
102
RTVSPost2010PropOp36
 70
     1
102
RTVSPost2010Prop37
 90
       50
102
RTVSPost2010PropOp37
 70
     1
102
RTVSPost2010Prop38
140
0.0
102
RTVSPost2010PropOp38
 70
     1
102
RTVSPost2010Prop39
140
1.0
102
RTVSPost2010PropOp39
 70
     1
102
RTVSPost2010Prop40
 90
        0
102
RTVSPost2010PropOp40
 70
     1
102
RTVSPost2010Prop41ColorIndex
 90
       18
102
RTVSPost2010Prop41ColorRGB
 90
        0
102
RTVSPost2010PropOp41
 70
     1
102
RTVSPost2010Prop42
 90
       50
102
RTVSPost2010PropOp42
 70
     1
102
RTVSPost2010Prop43
 90
        3
102
RTVSPost2010PropOp43
 70
     1
102
RTVSPost2010Prop44ColorIndex
 90
        5
102
RTVSPost2010Prop44ColorRGB
 90
      255
102
RTVSPost2010PropOp44
 70
     1
102
RTVSPost2010Prop45
280
     0
102
RTVSPost2010PropOp45
 70
     1
102
RTVSPost2010Prop46
 90
       50
102
RTVSPost2010PropOp46
 70
     1
102
RTVSPost2010Prop47
 90
       50
102
RTVSPost2010PropOp47
 70
     1
102
RTVSPost2010Prop48
 90
       50
102
RTVSPost2010PropOp48
 70
     1
102
RTVSPost2010Prop49
280
     0
102
RTVSPost2010PropOp49
 70
     1
102
RTVSPost2010Prop50
 90
       50
102
RTVSPost2010PropOp50
 70
     1
102
RTVSPost2010Prop51ColorIndex
 90
      256
102
RTVSPost2010Prop51ColorRGB
 90
-16777216
102
RTVSPost2010PropOp51
 70
     0
102
RTVSPost2010Prop52
140
1.0
102
RTVSPost2010PropOp52
 70
     0
102
RTVSPost2010Prop53
 90
        2
102
RTVSPost2010PropOp53
 70
     1
102
RTVSPost2010Prop54
  1
strokes_ogs.tif
102
RTVSPost2010PropOp54
 70
     1
102
RTVSPost2010Prop55
280
     0
102
RTVSPost2010PropOp55
 70
     1
102
RTVSPost2010Prop56
140
1.0
102
RTVSPost2010PropOp56
 70
     1
102
RTVSPost2010Prop57
140
1.0
102
RTVSPost2010PropOp57
 70
     1
102
RTVSPropertyOp0
 70
     1
102
RTVSPropertyOp1
 70
     1
102
RTVSPropertyOp2
 70
     1
102
RTVSPropertyOp3
 70
     1
102
RTVSPropertyOp4
 70
     1
102
RTVSPropertyOp5
 70
     1
102
RTVSPropertyOp6
 70
     1
102
RTVSPropertyOp7
 70
     1
102
RTVSPropertyOp8
 70
     1
102
RTVSPropertyOp9
 70
     1
102
RTVSPropertyOp10
 70
     1
102
RTVSPropertyOp11
 70
     1
102
RTVSPropertyOp12
 70
     1
102
RTVSPropertyOp13
 70
     1
102
RTVSPropertyOp14
 70
     1
102
RTVSPropertyOp15
 70
     1
102
RTVSPropertyOp16
 70
     1
102
RTVSPropertyOp17
 70
     1
102
RTVSPropertyOp18
 70
     1
102
RTVSPropertyOp19
 70
     1
102
RTVSPropertyOp20
 70
     1
102
RTVSPropertyOp21
 70
     1
102
RTVSPropertyOp22
 70
     1
102
RTVSPropertyOp23
 70
     1
102
RTVSPropertyOp24
 70
     1
102
RTVSPropertyOp25
 70
     1
102
RTVSPropertyOp26
 70
     1
102
RTVSPropertyOp27
 70
     1
102
RTVSPropertyOp28
 70
     1
102
RTVSPropertyOp29
 70
     1
102
RTVSPropertyOp30
 70
     1
102
RTVSPropertyOp31
 70
     1
102
RTVSPropertyOp32
 70
     1
102
RTVSPropertyOp33
 70
     1
102
RTVSPropertyOp34
 70
     1
102
RTVSPropertyOp35
 70
     1
102
RTVSPropertyOp36
 70
     1
102
RTVSPropertyOp37
 70
     1
102
RTVSPropertyOp38
 70
     1
102
RTVSPropertyOp39
 70
     1
102
RTVSPropertyOp40
 70
     1
102
RTVSPropertyOp41
 70
     1
102
RTVSPropertyOp42
 70
     1
102
RTVSPropertyOp43
 70
     1
102
RTVSPropertyOp44
 70
     1
102
RTVSPropertyOp45
 70
     1
102
RTVSPropertyOp46
 70
     1
102
RTVSPropertyOp47
 70
     1
102
RTVSPropertyOp48
 70
     1
102
RTVSPropertyOp49
 70
     1
102
RTVSPropertyOp50
 70
     1
102
RTVSPropertyOp51
 70
     0
102
RTVSPropertyOp52
 70
     0
102
RTVSPropertyOp53
 70
     1
102
RTVSPropertyOp54
 70
     1
102
RTVSPropertyOp55
 70
     1
102
RTVSPropertyOp56
 70
     1
102
RTVSPropertyOp57
 70
     1
102
RTVSPropertyOp58
 70
     1
102
RTVSPropertyOp59
 70
     1
102
RTVSPropertyOp60
 70
     1
102
RTVSPropertyOp61
 70
     1
102
RTVSPropertyOp62
 70
     1
  0
XRECORD
  5
96E2
102
{ACAD_REACTORS
330
96E1
102
}
330
96E1
100
AcDbXrecord
280
     1
102
RTVSPost2010Prop28
280
     0
102
RTVSPost2010PropOp28
 70
     1
102
RTVSPost2010Prop29
280
     1
102
RTVSPost2010PropOp29
 70
     1
102
RTVSPost2010Prop30
280
     1
102
RTVSPost2010PropOp30
 70
     1
102
RTVSPost2010Prop31
280
     0
102
RTVSPost2010PropOp31
 70
     1
102
RTVSPost2010Prop32
280
     0
102
RTVSPost2010PropOp32
 70
     1
102
RTVSPost2010Prop33
280
     0
102
RTVSPost2010PropOp33
 70
     1
102
RTVSPost2010Prop34
280
     0
102
RTVSPost2010PropOp34
 70
     1
102
RTVSPost2010Prop35
280
     0
102
RTVSPost2010PropOp35
 70
     1
102
RTVSPost2010Prop36
280
     0
102
RTVSPost2010PropOp36
 70
     1
102
RTVSPost2010Prop37
 90
       50
102
RTVSPost2010PropOp37
 70
     1
102
RTVSPost2010Prop38
140
0.0
102
RTVSPost2010PropOp38
 70
     1
102
RTVSPost2010Prop39
140
1.0
102
RTVSPost2010PropOp39
 70
     1
102
RTVSPost2010Prop40
 90
        0
102
RTVSPost2010PropOp40
 70
     1
102
RTVSPost2010Prop41ColorIndex
 90
       18
102
RTVSPost2010Prop41ColorRGB
 90
        0
102
RTVSPost2010PropOp41
 70
     1
102
RTVSPost2010Prop42
 90
       50
102
RTVSPost2010PropOp42
 70
     1
102
RTVSPost2010Prop43
 90
        3
102
RTVSPost2010PropOp43
 70
     1
102
RTVSPost2010Prop44ColorIndex
 90
        5
102
RTVSPost2010Prop44ColorRGB
 90
      255
102
RTVSPost2010PropOp44
 70
     1
102
RTVSPost2010Prop45
280
     0
102
RTVSPost2010PropOp45
 70
     1
102
RTVSPost2010Prop46
 90
       50
102
RTVSPost2010PropOp46
 70
     1
102
RTVSPost2010Prop47
 90
       50
102
RTVSPost2010PropOp47
 70
     1
102
RTVSPost2010Prop48
 90
       50
102
RTVSPost2010PropOp48
 70
     1
102
RTVSPost2010Prop49
280
     0
102
RTVSPost2010PropOp49
 70
     1
102
RTVSPost2010Prop50
 90
       50
102
RTVSPost2010PropOp50
 70
     1
102
RTVSPost2010Prop51ColorIndex
 90
      256
102
RTVSPost2010Prop51ColorRGB
 90
-16777216
102
RTVSPost2010PropOp51
 70
     0
102
RTVSPost2010Prop52
140
1.0
102
RTVSPost2010PropOp52
 70
     0
102
RTVSPost2010Prop53
 90
        2
102
RTVSPost2010PropOp53
 70
     1
102
RTVSPost2010Prop54
  1
strokes_ogs.tif
102
RTVSPost2010PropOp54
 70
     1
102
RTVSPost2010Prop55
280
     0
102
RTVSPost2010PropOp55
 70
     1
102
RTVSPost2010Prop56
140
1.0
102
RTVSPost2010PropOp56
 70
     1
102
RTVSPost2010Prop57
140
1.0
102
RTVSPost2010PropOp57
 70
     1
102
RTVSPropertyOp0
 70
     1
102
RTVSPropertyOp1
 70
     1
102
RTVSPropertyOp2
 70
     1
102
RTVSPropertyOp3
 70
     1
102
RTVSPropertyOp4
 70
     1
102
RTVSPropertyOp5
 70
     1
102
RTVSPropertyOp6
 70
     1
102
RTVSPropertyOp7
 70
     1
102
RTVSPropertyOp8
 70
     1
102
RTVSPropertyOp9
 70
     1
102
RTVSPropertyOp10
 70
     1
102
RTVSPropertyOp11
 70
     1
102
RTVSPropertyOp12
 70
     1
102
RTVSPropertyOp13
 70
     1
102
RTVSPropertyOp14
 70
     1
102
RTVSPropertyOp15
 70
     1
102
RTVSPropertyOp16
 70
     1
102
RTVSPropertyOp17
 70
     1
102
RTVSPropertyOp18
 70
     1
102
RTVSPropertyOp19
 70
     1
102
RTVSPropertyOp20
 70
     1
102
RTVSPropertyOp21
 70
     1
102
RTVSPropertyOp22
 70
     1
102
RTVSPropertyOp23
 70
     1
102
RTVSPropertyOp24
 70
     1
102
RTVSPropertyOp25
 70
     1
102
RTVSPropertyOp26
 70
     1
102
RTVSPropertyOp27
 70
     1
102
RTVSPropertyOp28
 70
     1
102
RTVSPropertyOp29
 70
     1
102
RTVSPropertyOp30
 70
     1
102
RTVSPropertyOp31
 70
     1
102
RTVSPropertyOp32
 70
     1
102
RTVSPropertyOp33
 70
     1
102
RTVSPropertyOp34
 70
     1
102
RTVSPropertyOp35
 70
     1
102
RTVSPropertyOp36
 70
     1
102
RTVSPropertyOp37
 70
     1
102
RTVSPropertyOp38
 70
     1
102
RTVSPropertyOp39
 70
     1
102
RTVSPropertyOp40
 70
     1
102
RTVSPropertyOp41
 70
     1
102
RTVSPropertyOp42
 70
     1
102
RTVSPropertyOp43
 70
     1
102
RTVSPropertyOp44
 70
     1
102
RTVSPropertyOp45
 70
     1
102
RTVSPropertyOp46
 70
     1
102
RTVSPropertyOp47
 70
     1
102
RTVSPropertyOp48
 70
     1
102
RTVSPropertyOp49
 70
     1
102
RTVSPropertyOp50
 70
     1
102
RTVSPropertyOp51
 70
     0
102
RTVSPropertyOp52
 70
     0
102
RTVSPropertyOp53
 70
     1
102
RTVSPropertyOp54
 70
     1
102
RTVSPropertyOp55
 70
     1
102
RTVSPropertyOp56
 70
     1
102
RTVSPropertyOp57
 70
     1
102
RTVSPropertyOp58
 70
     1
102
RTVSPropertyOp59
 70
     1
102
RTVSPropertyOp60
 70
     1
102
RTVSPropertyOp61
 70
     1
102
RTVSPropertyOp62
 70
     1
  0
XRECORD
  5
96EA
102
{ACAD_REACTORS
330
96E9
102
}
330
96E9
100
AcDbXrecord
280
     1
102
RTVSPost2010Prop28
280
     0
102
RTVSPost2010PropOp28
 70
     1
102
RTVSPost2010Prop29
280
     1
102
RTVSPost2010PropOp29
 70
     1
102
RTVSPost2010Prop30
280
     1
102
RTVSPost2010PropOp30
 70
     1
102
RTVSPost2010Prop31
280
     0
102
RTVSPost2010PropOp31
 70
     1
102
RTVSPost2010Prop32
280
     0
102
RTVSPost2010PropOp32
 70
     1
102
RTVSPost2010Prop33
280
     0
102
RTVSPost2010PropOp33
 70
     1
102
RTVSPost2010Prop34
280
     0
102
RTVSPost2010PropOp34
 70
     1
102
RTVSPost2010Prop35
280
     0
102
RTVSPost2010PropOp35
 70
     1
102
RTVSPost2010Prop36
280
     0
102
RTVSPost2010PropOp36
 70
     1
102
RTVSPost2010Prop37
 90
       50
102
RTVSPost2010PropOp37
 70
     1
102
RTVSPost2010Prop38
140
0.0
102
RTVSPost2010PropOp38
 70
     1
102
RTVSPost2010Prop39
140
1.0
102
RTVSPost2010PropOp39
 70
     1
102
RTVSPost2010Prop40
 90
        0
102
RTVSPost2010PropOp40
 70
     1
102
RTVSPost2010Prop41ColorIndex
 90
       18
102
RTVSPost2010Prop41ColorRGB
 90
        0
102
RTVSPost2010PropOp41
 70
     1
102
RTVSPost2010Prop42
 90
       50
102
RTVSPost2010PropOp42
 70
     1
102
RTVSPost2010Prop43
 90
        3
102
RTVSPost2010PropOp43
 70
     1
102
RTVSPost2010Prop44ColorIndex
 90
        5
102
RTVSPost2010Prop44ColorRGB
 90
      255
102
RTVSPost2010PropOp44
 70
     1
102
RTVSPost2010Prop45
280
     0
102
RTVSPost2010PropOp45
 70
     1
102
RTVSPost2010Prop46
 90
       50
102
RTVSPost2010PropOp46
 70
     1
102
RTVSPost2010Prop47
 90
       50
102
RTVSPost2010PropOp47
 70
     1
102
RTVSPost2010Prop48
 90
       50
102
RTVSPost2010PropOp48
 70
     1
102
RTVSPost2010Prop49
280
     0
102
RTVSPost2010PropOp49
 70
     1
102
RTVSPost2010Prop50
 90
       50
102
RTVSPost2010PropOp50
 70
     1
102
RTVSPost2010Prop51ColorIndex
 90
      256
102
RTVSPost2010Prop51ColorRGB
 90
-16777216
102
RTVSPost2010PropOp51
 70
     0
102
RTVSPost2010Prop52
140
1.0
102
RTVSPost2010PropOp52
 70
     0
102
RTVSPost2010Prop53
 90
        2
102
RTVSPost2010PropOp53
 70
     1
102
RTVSPost2010Prop54
  1
strokes_ogs.tif
102
RTVSPost2010PropOp54
 70
     1
102
RTVSPost2010Prop55
280
     0
102
RTVSPost2010PropOp55
 70
     1
102
RTVSPost2010Prop56
140
1.0
102
RTVSPost2010PropOp56
 70
     1
102
RTVSPost2010Prop57
140
1.0
102
RTVSPost2010PropOp57
 70
     1
102
RTVSPropertyOp0
 70
     1
102
RTVSPropertyOp1
 70
     1
102
RTVSPropertyOp2
 70
     1
102
RTVSPropertyOp3
 70
     1
102
RTVSPropertyOp4
 70
     1
102
RTVSPropertyOp5
 70
     1
102
RTVSPropertyOp6
 70
     1
102
RTVSPropertyOp7
 70
     1
102
RTVSPropertyOp8
 70
     1
102
RTVSPropertyOp9
 70
     1
102
RTVSPropertyOp10
 70
     1
102
RTVSPropertyOp11
 70
     1
102
RTVSPropertyOp12
 70
     1
102
RTVSPropertyOp13
 70
     1
102
RTVSPropertyOp14
 70
     1
102
RTVSPropertyOp15
 70
     1
102
RTVSPropertyOp16
 70
     1
102
RTVSPropertyOp17
 70
     1
102
RTVSPropertyOp18
 70
     1
102
RTVSPropertyOp19
 70
     1
102
RTVSPropertyOp20
 70
     1
102
RTVSPropertyOp21
 70
     1
102
RTVSPropertyOp22
 70
     1
102
RTVSPropertyOp23
 70
     1
102
RTVSPropertyOp24
 70
     1
102
RTVSPropertyOp25
 70
     1
102
RTVSPropertyOp26
 70
     1
102
RTVSPropertyOp27
 70
     1
102
RTVSPropertyOp28
 70
     1
102
RTVSPropertyOp29
 70
     1
102
RTVSPropertyOp30
 70
     1
102
RTVSPropertyOp31
 70
     1
102
RTVSPropertyOp32
 70
     1
102
RTVSPropertyOp33
 70
     1
102
RTVSPropertyOp34
 70
     1
102
RTVSPropertyOp35
 70
     1
102
RTVSPropertyOp36
 70
     1
102
RTVSPropertyOp37
 70
     1
102
RTVSPropertyOp38
 70
     1
102
RTVSPropertyOp39
 70
     1
102
RTVSPropertyOp40
 70
     1
102
RTVSPropertyOp41
 70
     1
102
RTVSPropertyOp42
 70
     1
102
RTVSPropertyOp43
 70
     1
102
RTVSPropertyOp44
 70
     1
102
RTVSPropertyOp45
 70
     1
102
RTVSPropertyOp46
 70
     1
102
RTVSPropertyOp47
 70
     1
102
RTVSPropertyOp48
 70
     1
102
RTVSPropertyOp49
 70
     1
102
RTVSPropertyOp50
 70
     1
102
RTVSPropertyOp51
 70
     0
102
RTVSPropertyOp52
 70
     0
102
RTVSPropertyOp53
 70
     1
102
RTVSPropertyOp54
 70
     1
102
RTVSPropertyOp55
 70
     1
102
RTVSPropertyOp56
 70
     1
102
RTVSPropertyOp57
 70
     1
102
RTVSPropertyOp58
 70
     1
102
RTVSPropertyOp59
 70
     1
102
RTVSPropertyOp60
 70
     1
102
RTVSPropertyOp61
 70
     1
102
RTVSPropertyOp62
 70
     1
  0
XRECORD
  5
96DC
102
{ACAD_REACTORS
330
96DB
102
}
330
96DB
100
AcDbXrecord
280
     1
102
RTVSPost2010Prop28
280
     0
102
RTVSPost2010PropOp28
 70
     1
102
RTVSPost2010Prop29
280
     1
102
RTVSPost2010PropOp29
 70
     1
102
RTVSPost2010Prop30
280
     1
102
RTVSPost2010PropOp30
 70
     1
102
RTVSPost2010Prop31
280
     0
102
RTVSPost2010PropOp31
 70
     1
102
RTVSPost2010Prop32
280
     0
102
RTVSPost2010PropOp32
 70
     1
102
RTVSPost2010Prop33
280
     0
102
RTVSPost2010PropOp33
 70
     1
102
RTVSPost2010Prop34
280
     0
102
RTVSPost2010PropOp34
 70
     1
102
RTVSPost2010Prop35
280
     0
102
RTVSPost2010PropOp35
 70
     1
102
RTVSPost2010Prop36
280
     0
102
RTVSPost2010PropOp36
 70
     1
102
RTVSPost2010Prop37
 90
       50
102
RTVSPost2010PropOp37
 70
     1
102
RTVSPost2010Prop38
140
0.0
102
RTVSPost2010PropOp38
 70
     1
102
RTVSPost2010Prop39
140
1.0
102
RTVSPost2010PropOp39
 70
     1
102
RTVSPost2010Prop40
 90
        0
102
RTVSPost2010PropOp40
 70
     1
102
RTVSPost2010Prop41ColorIndex
 90
       18
102
RTVSPost2010Prop41ColorRGB
 90
        0
102
RTVSPost2010PropOp41
 70
     1
102
RTVSPost2010Prop42
 90
       50
102
RTVSPost2010PropOp42
 70
     1
102
RTVSPost2010Prop43
 90
        3
102
RTVSPost2010PropOp43
 70
     1
102
RTVSPost2010Prop44ColorIndex
 90
        5
102
RTVSPost2010Prop44ColorRGB
 90
      255
102
RTVSPost2010PropOp44
 70
     1
102
RTVSPost2010Prop45
280
     0
102
RTVSPost2010PropOp45
 70
     1
102
RTVSPost2010Prop46
 90
       50
102
RTVSPost2010PropOp46
 70
     1
102
RTVSPost2010Prop47
 90
       50
102
RTVSPost2010PropOp47
 70
     1
102
RTVSPost2010Prop48
 90
       50
102
RTVSPost2010PropOp48
 70
     1
102
RTVSPost2010Prop49
280
     0
102
RTVSPost2010PropOp49
 70
     1
102
RTVSPost2010Prop50
 90
       50
102
RTVSPost2010PropOp50
 70
     1
102
RTVSPost2010Prop51ColorIndex
 90
      256
102
RTVSPost2010Prop51ColorRGB
 90
-16777216
102
RTVSPost2010PropOp51
 70
     0
102
RTVSPost2010Prop52
140
1.0
102
RTVSPost2010PropOp52
 70
     0
102
RTVSPost2010Prop53
 90
        2
102
RTVSPost2010PropOp53
 70
     1
102
RTVSPost2010Prop54
  1
strokes_ogs.tif
102
RTVSPost2010PropOp54
 70
     1
102
RTVSPost2010Prop55
280
     0
102
RTVSPost2010PropOp55
 70
     1
102
RTVSPost2010Prop56
140
1.0
102
RTVSPost2010PropOp56
 70
     1
102
RTVSPost2010Prop57
140
1.0
102
RTVSPost2010PropOp57
 70
     1
102
RTVSPropertyOp0
 70
     1
102
RTVSPropertyOp1
 70
     1
102
RTVSPropertyOp2
 70
     1
102
RTVSPropertyOp3
 70
     1
102
RTVSPropertyOp4
 70
     1
102
RTVSPropertyOp5
 70
     1
102
RTVSPropertyOp6
 70
     1
102
RTVSPropertyOp7
 70
     1
102
RTVSPropertyOp8
 70
     1
102
RTVSPropertyOp9
 70
     1
102
RTVSPropertyOp10
 70
     1
102
RTVSPropertyOp11
 70
     1
102
RTVSPropertyOp12
 70
     1
102
RTVSPropertyOp13
 70
     1
102
RTVSPropertyOp14
 70
     1
102
RTVSPropertyOp15
 70
     1
102
RTVSPropertyOp16
 70
     1
102
RTVSPropertyOp17
 70
     1
102
RTVSPropertyOp18
 70
     1
102
RTVSPropertyOp19
 70
     1
102
RTVSPropertyOp20
 70
     1
102
RTVSPropertyOp21
 70
     1
102
RTVSPropertyOp22
 70
     1
102
RTVSPropertyOp23
 70
     1
102
RTVSPropertyOp24
 70
     1
102
RTVSPropertyOp25
 70
     1
102
RTVSPropertyOp26
 70
     1
102
RTVSPropertyOp27
 70
     1
102
RTVSPropertyOp28
 70
     1
102
RTVSPropertyOp29
 70
     1
102
RTVSPropertyOp30
 70
     1
102
RTVSPropertyOp31
 70
     1
102
RTVSPropertyOp32
 70
     1
102
RTVSPropertyOp33
 70
     1
102
RTVSPropertyOp34
 70
     1
102
RTVSPropertyOp35
 70
     1
102
RTVSPropertyOp36
 70
     1
102
RTVSPropertyOp37
 70
     1
102
RTVSPropertyOp38
 70
     1
102
RTVSPropertyOp39
 70
     1
102
RTVSPropertyOp40
 70
     1
102
RTVSPropertyOp41
 70
     1
102
RTVSPropertyOp42
 70
     1
102
RTVSPropertyOp43
 70
     1
102
RTVSPropertyOp44
 70
     1
102
RTVSPropertyOp45
 70
     1
102
RTVSPropertyOp46
 70
     1
102
RTVSPropertyOp47
 70
     1
102
RTVSPropertyOp48
 70
     1
102
RTVSPropertyOp49
 70
     1
102
RTVSPropertyOp50
 70
     1
102
RTVSPropertyOp51
 70
     0
102
RTVSPropertyOp52
 70
     0
102
RTVSPropertyOp53
 70
     1
102
RTVSPropertyOp54
 70
     1
102
RTVSPropertyOp55
 70
     1
102
RTVSPropertyOp56
 70
     1
102
RTVSPropertyOp57
 70
     1
102
RTVSPropertyOp58
 70
     1
102
RTVSPropertyOp59
 70
     1
102
RTVSPropertyOp60
 70
     1
102
RTVSPropertyOp61
 70
     1
102
RTVSPropertyOp62
 70
     1
  0
XRECORD
  5
96E0
102
{ACAD_REACTORS
330
96DF
102
}
330
96DF
100
AcDbXrecord
280
     1
102
RTVSPost2010Prop28
280
     0
102
RTVSPost2010PropOp28
 70
     1
102
RTVSPost2010Prop29
280
     1
102
RTVSPost2010PropOp29
 70
     1
102
RTVSPost2010Prop30
280
     1
102
RTVSPost2010PropOp30
 70
     1
102
RTVSPost2010Prop31
280
     0
102
RTVSPost2010PropOp31
 70
     1
102
RTVSPost2010Prop32
280
     0
102
RTVSPost2010PropOp32
 70
     1
102
RTVSPost2010Prop33
280
     0
102
RTVSPost2010PropOp33
 70
     1
102
RTVSPost2010Prop34
280
     0
102
RTVSPost2010PropOp34
 70
     1
102
RTVSPost2010Prop35
280
     0
102
RTVSPost2010PropOp35
 70
     1
102
RTVSPost2010Prop36
280
     0
102
RTVSPost2010PropOp36
 70
     1
102
RTVSPost2010Prop37
 90
       50
102
RTVSPost2010PropOp37
 70
     1
102
RTVSPost2010Prop38
140
0.0
102
RTVSPost2010PropOp38
 70
     1
102
RTVSPost2010Prop39
140
1.0
102
RTVSPost2010PropOp39
 70
     1
102
RTVSPost2010Prop40
 90
        0
102
RTVSPost2010PropOp40
 70
     1
102
RTVSPost2010Prop41ColorIndex
 90
       18
102
RTVSPost2010Prop41ColorRGB
 90
        0
102
RTVSPost2010PropOp41
 70
     1
102
RTVSPost2010Prop42
 90
       50
102
RTVSPost2010PropOp42
 70
     1
102
RTVSPost2010Prop43
 90
        3
102
RTVSPost2010PropOp43
 70
     1
102
RTVSPost2010Prop44ColorIndex
 90
        5
102
RTVSPost2010Prop44ColorRGB
 90
      255
102
RTVSPost2010PropOp44
 70
     1
102
RTVSPost2010Prop45
280
     0
102
RTVSPost2010PropOp45
 70
     1
102
RTVSPost2010Prop46
 90
       50
102
RTVSPost2010PropOp46
 70
     1
102
RTVSPost2010Prop47
 90
       50
102
RTVSPost2010PropOp47
 70
     1
102
RTVSPost2010Prop48
 90
       50
102
RTVSPost2010PropOp48
 70
     1
102
RTVSPost2010Prop49
280
     0
102
RTVSPost2010PropOp49
 70
     1
102
RTVSPost2010Prop50
 90
       50
102
RTVSPost2010PropOp50
 70
     1
102
RTVSPost2010Prop51ColorIndex
 90
      256
102
RTVSPost2010Prop51ColorRGB
 90
-16777216
102
RTVSPost2010PropOp51
 70
     0
102
RTVSPost2010Prop52
140
1.0
102
RTVSPost2010PropOp52
 70
     0
102
RTVSPost2010Prop53
 90
        2
102
RTVSPost2010PropOp53
 70
     1
102
RTVSPost2010Prop54
  1
strokes_ogs.tif
102
RTVSPost2010PropOp54
 70
     1
102
RTVSPost2010Prop55
280
     0
102
RTVSPost2010PropOp55
 70
     1
102
RTVSPost2010Prop56
140
1.0
102
RTVSPost2010PropOp56
 70
     1
102
RTVSPost2010Prop57
140
1.0
102
RTVSPost2010PropOp57
 70
     1
102
RTVSPropertyOp0
 70
     1
102
RTVSPropertyOp1
 70
     1
102
RTVSPropertyOp2
 70
     1
102
RTVSPropertyOp3
 70
     1
102
RTVSPropertyOp4
 70
     1
102
RTVSPropertyOp5
 70
     1
102
RTVSPropertyOp6
 70
     1
102
RTVSPropertyOp7
 70
     1
102
RTVSPropertyOp8
 70
     1
102
RTVSPropertyOp9
 70
     1
102
RTVSPropertyOp10
 70
     1
102
RTVSPropertyOp11
 70
     1
102
RTVSPropertyOp12
 70
     1
102
RTVSPropertyOp13
 70
     1
102
RTVSPropertyOp14
 70
     1
102
RTVSPropertyOp15
 70
     1
102
RTVSPropertyOp16
 70
     1
102
RTVSPropertyOp17
 70
     1
102
RTVSPropertyOp18
 70
     1
102
RTVSPropertyOp19
 70
     1
102
RTVSPropertyOp20
 70
     1
102
RTVSPropertyOp21
 70
     1
102
RTVSPropertyOp22
 70
     1
102
RTVSPropertyOp23
 70
     1
102
RTVSPropertyOp24
 70
     1
102
RTVSPropertyOp25
 70
     1
102
RTVSPropertyOp26
 70
     1
102
RTVSPropertyOp27
 70
     1
102
RTVSPropertyOp28
 70
     1
102
RTVSPropertyOp29
 70
     1
102
RTVSPropertyOp30
 70
     1
102
RTVSPropertyOp31
 70
     1
102
RTVSPropertyOp32
 70
     1
102
RTVSPropertyOp33
 70
     1
102
RTVSPropertyOp34
 70
     1
102
RTVSPropertyOp35
 70
     1
102
RTVSPropertyOp36
 70
     1
102
RTVSPropertyOp37
 70
     1
102
RTVSPropertyOp38
 70
     1
102
RTVSPropertyOp39
 70
     1
102
RTVSPropertyOp40
 70
     1
102
RTVSPropertyOp41
 70
     1
102
RTVSPropertyOp42
 70
     1
102
RTVSPropertyOp43
 70
     1
102
RTVSPropertyOp44
 70
     1
102
RTVSPropertyOp45
 70
     1
102
RTVSPropertyOp46
 70
     1
102
RTVSPropertyOp47
 70
     1
102
RTVSPropertyOp48
 70
     1
102
RTVSPropertyOp49
 70
     1
102
RTVSPropertyOp50
 70
     1
102
RTVSPropertyOp51
 70
     0
102
RTVSPropertyOp52
 70
     0
102
RTVSPropertyOp53
 70
     1
102
RTVSPropertyOp54
 70
     1
102
RTVSPropertyOp55
 70
     1
102
RTVSPropertyOp56
 70
     1
102
RTVSPropertyOp57
 70
     1
102
RTVSPropertyOp58
 70
     1
102
RTVSPropertyOp59
 70
     1
102
RTVSPropertyOp60
 70
     1
102
RTVSPropertyOp61
 70
     1
102
RTVSPropertyOp62
 70
     1
  0
XRECORD
  5
96FA
102
{ACAD_REACTORS
330
96F9
102
}
330
96F9
100
AcDbXrecord
280
     1
102
RTVSPost2010Prop28
280
     0
102
RTVSPost2010PropOp28
 70
     1
102
RTVSPost2010Prop29
280
     1
102
RTVSPost2010PropOp29
 70
     1
102
RTVSPost2010Prop30
280
     1
102
RTVSPost2010PropOp30
 70
     1
102
RTVSPost2010Prop31
280
     0
102
RTVSPost2010PropOp31
 70
     1
102
RTVSPost2010Prop32
280
     0
102
RTVSPost2010PropOp32
 70
     1
102
RTVSPost2010Prop33
280
     0
102
RTVSPost2010PropOp33
 70
     1
102
RTVSPost2010Prop34
280
     0
102
RTVSPost2010PropOp34
 70
     1
102
RTVSPost2010Prop35
280
     0
102
RTVSPost2010PropOp35
 70
     1
102
RTVSPost2010Prop36
280
     0
102
RTVSPost2010PropOp36
 70
     1
102
RTVSPost2010Prop37
 90
       50
102
RTVSPost2010PropOp37
 70
     0
102
RTVSPost2010Prop38
140
0.0
102
RTVSPost2010PropOp38
 70
     0
102
RTVSPost2010Prop39
140
1.0
102
RTVSPost2010PropOp39
 70
     0
102
RTVSPost2010Prop40
 90
        0
102
RTVSPost2010PropOp40
 70
     0
102
RTVSPost2010Prop41ColorIndex
 90
       18
102
RTVSPost2010Prop41ColorRGB
 90
        0
102
RTVSPost2010PropOp41
 70
     0
102
RTVSPost2010Prop42
 90
       50
102
RTVSPost2010PropOp42
 70
     0
102
RTVSPost2010Prop43
 90
        3
102
RTVSPost2010PropOp43
 70
     0
102
RTVSPost2010Prop44ColorIndex
 90
        5
102
RTVSPost2010Prop44ColorRGB
 90
      255
102
RTVSPost2010PropOp44
 70
     0
102
RTVSPost2010Prop45
280
     0
102
RTVSPost2010PropOp45
 70
     1
102
RTVSPost2010Prop46
 90
       50
102
RTVSPost2010PropOp46
 70
     0
102
RTVSPost2010Prop47
 90
       50
102
RTVSPost2010PropOp47
 70
     0
102
RTVSPost2010Prop48
 90
       50
102
RTVSPost2010PropOp48
 70
     0
102
RTVSPost2010Prop49
280
     0
102
RTVSPost2010PropOp49
 70
     1
102
RTVSPost2010Prop50
 90
       50
102
RTVSPost2010PropOp50
 70
     0
102
RTVSPost2010Prop51ColorIndex
 90
      256
102
RTVSPost2010Prop51ColorRGB
 90
-16777216
102
RTVSPost2010PropOp51
 70
     0
102
RTVSPost2010Prop52
140
1.0
102
RTVSPost2010PropOp52
 70
     0
102
RTVSPost2010Prop53
 90
        2
102
RTVSPost2010PropOp53
 70
     0
102
RTVSPost2010Prop54
  1
strokes_ogs.tif
102
RTVSPost2010PropOp54
 70
     0
102
RTVSPost2010Prop55
280
     0
102
RTVSPost2010PropOp55
 70
     1
102
RTVSPost2010Prop56
140
1.0
102
RTVSPost2010PropOp56
 70
     0
102
RTVSPost2010Prop57
140
1.0
102
RTVSPost2010PropOp57
 70
     0
102
RTVSPropertyOp0
 70
     0
102
RTVSPropertyOp1
 70
     0
102
RTVSPropertyOp2
 70
     0
102
RTVSPropertyOp3
 70
     0
102
RTVSPropertyOp4
 70
     0
102
RTVSPropertyOp5
 70
     0
102
RTVSPropertyOp6
 70
     0
102
RTVSPropertyOp7
 70
     0
102
RTVSPropertyOp8
 70
     0
102
RTVSPropertyOp9
 70
     0
102
RTVSPropertyOp10
 70
     0
102
RTVSPropertyOp11
 70
     0
102
RTVSPropertyOp12
 70
     0
102
RTVSPropertyOp13
 70
     0
102
RTVSPropertyOp14
 70
     2
102
RTVSPropertyOp15
 70
     0
102
RTVSPropertyOp16
 70
     0
102
RTVSPropertyOp17
 70
     0
102
RTVSPropertyOp18
 70
     0
102
RTVSPropertyOp19
 70
     0
102
RTVSPropertyOp20
 70
     0
102
RTVSPropertyOp21
 70
     0
102
RTVSPropertyOp22
 70
     0
102
RTVSPropertyOp23
 70
     0
102
RTVSPropertyOp24
 70
     0
102
RTVSPropertyOp25
 70
     0
102
RTVSPropertyOp26
 70
     0
102
RTVSPropertyOp27
 70
     0
102
RTVSPropertyOp28
 70
     1
102
RTVSPropertyOp29
 70
     1
102
RTVSPropertyOp30
 70
     1
102
RTVSPropertyOp31
 70
     1
102
RTVSPropertyOp32
 70
     1
102
RTVSPropertyOp33
 70
     1
102
RTVSPropertyOp34
 70
     1
102
RTVSPropertyOp35
 70
     1
102
RTVSPropertyOp36
 70
     1
102
RTVSPropertyOp37
 70
     0
102
RTVSPropertyOp38
 70
     0
102
RTVSPropertyOp39
 70
     0
102
RTVSPropertyOp40
 70
     0
102
RTVSPropertyOp41
 70
     0
102
RTVSPropertyOp42
 70
     0
102
RTVSPropertyOp43
 70
     0
102
RTVSPropertyOp44
 70
     0
102
RTVSPropertyOp45
 70
     1
102
RTVSPropertyOp46
 70
     0
102
RTVSPropertyOp47
 70
     0
102
RTVSPropertyOp48
 70
     0
102
RTVSPropertyOp49
 70
     1
102
RTVSPropertyOp50
 70
     0
102
RTVSPropertyOp51
 70
     0
102
RTVSPropertyOp52
 70
     0
102
RTVSPropertyOp53
 70
     0
102
RTVSPropertyOp54
 70
     0
102
RTVSPropertyOp55
 70
     1
102
RTVSPropertyOp56
 70
     0
102
RTVSPropertyOp57
 70
     0
102
RTVSPropertyOp58
 70
     0
102
RTVSPropertyOp59
 70
     0
102
RTVSPropertyOp60
 70
     0
102
RTVSPropertyOp61
 70
     0
102
RTVSPropertyOp62
 70
     0
  0
XRECORD
  5
96E8
102
{ACAD_REACTORS
330
96E7
102
}
330
96E7
100
AcDbXrecord
280
     1
102
RTVSPost2010Prop28
280
     0
102
RTVSPost2010PropOp28
 70
     1
102
RTVSPost2010Prop29
280
     1
102
RTVSPost2010PropOp29
 70
     1
102
RTVSPost2010Prop30
280
     1
102
RTVSPost2010PropOp30
 70
     1
102
RTVSPost2010Prop31
280
     0
102
RTVSPost2010PropOp31
 70
     1
102
RTVSPost2010Prop32
280
     0
102
RTVSPost2010PropOp32
 70
     1
102
RTVSPost2010Prop33
280
     0
102
RTVSPost2010PropOp33
 70
     1
102
RTVSPost2010Prop34
280
     0
102
RTVSPost2010PropOp34
 70
     1
102
RTVSPost2010Prop35
280
     0
102
RTVSPost2010PropOp35
 70
     1
102
RTVSPost2010Prop36
280
     0
102
RTVSPost2010PropOp36
 70
     1
102
RTVSPost2010Prop37
 90
       50
102
RTVSPost2010PropOp37
 70
     1
102
RTVSPost2010Prop38
140
0.0
102
RTVSPost2010PropOp38
 70
     1
102
RTVSPost2010Prop39
140
1.0
102
RTVSPost2010PropOp39
 70
     1
102
RTVSPost2010Prop40
 90
        0
102
RTVSPost2010PropOp40
 70
     1
102
RTVSPost2010Prop41ColorIndex
 90
       18
102
RTVSPost2010Prop41ColorRGB
 90
        0
102
RTVSPost2010PropOp41
 70
     1
102
RTVSPost2010Prop42
 90
       50
102
RTVSPost2010PropOp42
 70
     1
102
RTVSPost2010Prop43
 90
        3
102
RTVSPost2010PropOp43
 70
     1
102
RTVSPost2010Prop44ColorIndex
 90
        5
102
RTVSPost2010Prop44ColorRGB
 90
      255
102
RTVSPost2010PropOp44
 70
     1
102
RTVSPost2010Prop45
280
     0
102
RTVSPost2010PropOp45
 70
     1
102
RTVSPost2010Prop46
 90
       50
102
RTVSPost2010PropOp46
 70
     1
102
RTVSPost2010Prop47
 90
       50
102
RTVSPost2010PropOp47
 70
     1
102
RTVSPost2010Prop48
 90
       50
102
RTVSPost2010PropOp48
 70
     1
102
RTVSPost2010Prop49
280
     0
102
RTVSPost2010PropOp49
 70
     1
102
RTVSPost2010Prop50
 90
       50
102
RTVSPost2010PropOp50
 70
     1
102
RTVSPost2010Prop51ColorIndex
 90
      256
102
RTVSPost2010Prop51ColorRGB
 90
-16777216
102
RTVSPost2010PropOp51
 70
     0
102
RTVSPost2010Prop52
140
1.0
102
RTVSPost2010PropOp52
 70
     0
102
RTVSPost2010Prop53
 90
        2
102
RTVSPost2010PropOp53
 70
     1
102
RTVSPost2010Prop54
  1
strokes_ogs.tif
102
RTVSPost2010PropOp54
 70
     1
102
RTVSPost2010Prop55
280
     0
102
RTVSPost2010PropOp55
 70
     1
102
RTVSPost2010Prop56
140
1.0
102
RTVSPost2010PropOp56
 70
     1
102
RTVSPost2010Prop57
140
1.0
102
RTVSPost2010PropOp57
 70
     1
102
RTVSPropertyOp0
 70
     1
102
RTVSPropertyOp1
 70
     1
102
RTVSPropertyOp2
 70
     1
102
RTVSPropertyOp3
 70
     1
102
RTVSPropertyOp4
 70
     1
102
RTVSPropertyOp5
 70
     1
102
RTVSPropertyOp6
 70
     1
102
RTVSPropertyOp7
 70
     1
102
RTVSPropertyOp8
 70
     1
102
RTVSPropertyOp9
 70
     1
102
RTVSPropertyOp10
 70
     1
102
RTVSPropertyOp11
 70
     1
102
RTVSPropertyOp12
 70
     1
102
RTVSPropertyOp13
 70
     1
102
RTVSPropertyOp14
 70
     1
102
RTVSPropertyOp15
 70
     1
102
RTVSPropertyOp16
 70
     1
102
RTVSPropertyOp17
 70
     1
102
RTVSPropertyOp18
 70
     1
102
RTVSPropertyOp19
 70
     1
102
RTVSPropertyOp20
 70
     1
102
RTVSPropertyOp21
 70
     1
102
RTVSPropertyOp22
 70
     1
102
RTVSPropertyOp23
 70
     1
102
RTVSPropertyOp24
 70
     1
102
RTVSPropertyOp25
 70
     1
102
RTVSPropertyOp26
 70
     1
102
RTVSPropertyOp27
 70
     1
102
RTVSPropertyOp28
 70
     1
102
RTVSPropertyOp29
 70
     1
102
RTVSPropertyOp30
 70
     1
102
RTVSPropertyOp31
 70
     1
102
RTVSPropertyOp32
 70
     1
102
RTVSPropertyOp33
 70
     1
102
RTVSPropertyOp34
 70
     1
102
RTVSPropertyOp35
 70
     1
102
RTVSPropertyOp36
 70
     1
102
RTVSPropertyOp37
 70
     1
102
RTVSPropertyOp38
 70
     1
102
RTVSPropertyOp39
 70
     1
102
RTVSPropertyOp40
 70
     1
102
RTVSPropertyOp41
 70
     1
102
RTVSPropertyOp42
 70
     1
102
RTVSPropertyOp43
 70
     1
102
RTVSPropertyOp44
 70
     1
102
RTVSPropertyOp45
 70
     1
102
RTVSPropertyOp46
 70
     1
102
RTVSPropertyOp47
 70
     1
102
RTVSPropertyOp48
 70
     1
102
RTVSPropertyOp49
 70
     1
102
RTVSPropertyOp50
 70
     1
102
RTVSPropertyOp51
 70
     0
102
RTVSPropertyOp52
 70
     0
102
RTVSPropertyOp53
 70
     1
102
RTVSPropertyOp54
 70
     1
102
RTVSPropertyOp55
 70
     1
102
RTVSPropertyOp56
 70
     1
102
RTVSPropertyOp57
 70
     1
102
RTVSPropertyOp58
 70
     1
102
RTVSPropertyOp59
 70
     1
102
RTVSPropertyOp60
 70
     1
102
RTVSPropertyOp61
 70
     1
102
RTVSPropertyOp62
 70
     1
  0
XRECORD
  5
96CC
102
{ACAD_REACTORS
330
96CB
102
}
330
96CB
100
AcDbXrecord
280
     1
102
RTVSPost2010Prop28
280
     0
102
RTVSPost2010PropOp28
 70
     1
102
RTVSPost2010Prop29
280
     1
102
RTVSPost2010PropOp29
 70
     1
102
RTVSPost2010Prop30
280
     1
102
RTVSPost2010PropOp30
 70
     1
102
RTVSPost2010Prop31
280
     0
102
RTVSPost2010PropOp31
 70
     1
102
RTVSPost2010Prop32
280
     0
102
RTVSPost2010PropOp32
 70
     1
102
RTVSPost2010Prop33
280
     0
102
RTVSPost2010PropOp33
 70
     1
102
RTVSPost2010Prop34
280
     0
102
RTVSPost2010PropOp34
 70
     1
102
RTVSPost2010Prop35
280
     0
102
RTVSPost2010PropOp35
 70
     1
102
RTVSPost2010Prop36
280
     0
102
RTVSPost2010PropOp36
 70
     1
102
RTVSPost2010Prop37
 90
       50
102
RTVSPost2010PropOp37
 70
     1
102
RTVSPost2010Prop38
140
0.0
102
RTVSPost2010PropOp38
 70
     1
102
RTVSPost2010Prop39
140
1.0
102
RTVSPost2010PropOp39
 70
     1
102
RTVSPost2010Prop40
 90
        0
102
RTVSPost2010PropOp40
 70
     1
102
RTVSPost2010Prop41ColorIndex
 90
       18
102
RTVSPost2010Prop41ColorRGB
 90
        0
102
RTVSPost2010PropOp41
 70
     1
102
RTVSPost2010Prop42
 90
       50
102
RTVSPost2010PropOp42
 70
     1
102
RTVSPost2010Prop43
 90
        3
102
RTVSPost2010PropOp43
 70
     1
102
RTVSPost2010Prop44ColorIndex
 90
        5
102
RTVSPost2010Prop44ColorRGB
 90
      255
102
RTVSPost2010PropOp44
 70
     1
102
RTVSPost2010Prop45
280
     0
102
RTVSPost2010PropOp45
 70
     1
102
RTVSPost2010Prop46
 90
       50
102
RTVSPost2010PropOp46
 70
     1
102
RTVSPost2010Prop47
 90
       50
102
RTVSPost2010PropOp47
 70
     1
102
RTVSPost2010Prop48
 90
       50
102
RTVSPost2010PropOp48
 70
     1
102
RTVSPost2010Prop49
280
     0
102
RTVSPost2010PropOp49
 70
     1
102
RTVSPost2010Prop50
 90
       50
102
RTVSPost2010PropOp50
 70
     1
102
RTVSPost2010Prop51ColorIndex
 90
      256
102
RTVSPost2010Prop51ColorRGB
 90
-16777216
102
RTVSPost2010PropOp51
 70
     0
102
RTVSPost2010Prop52
140
1.0
102
RTVSPost2010PropOp52
 70
     0
102
RTVSPost2010Prop53
 90
        2
102
RTVSPost2010PropOp53
 70
     1
102
RTVSPost2010Prop54
  1
strokes_ogs.tif
102
RTVSPost2010PropOp54
 70
     1
102
RTVSPost2010Prop55
280
     0
102
RTVSPost2010PropOp55
 70
     1
102
RTVSPost2010Prop56
140
1.0
102
RTVSPost2010PropOp56
 70
     1
102
RTVSPost2010Prop57
140
1.0
102
RTVSPost2010PropOp57
 70
     1
102
RTVSPropertyOp0
 70
     1
102
RTVSPropertyOp1
 70
     1
102
RTVSPropertyOp2
 70
     1
102
RTVSPropertyOp3
 70
     1
102
RTVSPropertyOp4
 70
     1
102
RTVSPropertyOp5
 70
     1
102
RTVSPropertyOp6
 70
     1
102
RTVSPropertyOp7
 70
     1
102
RTVSPropertyOp8
 70
     1
102
RTVSPropertyOp9
 70
     1
102
RTVSPropertyOp10
 70
     1
102
RTVSPropertyOp11
 70
     1
102
RTVSPropertyOp12
 70
     1
102
RTVSPropertyOp13
 70
     1
102
RTVSPropertyOp14
 70
     1
102
RTVSPropertyOp15
 70
     1
102
RTVSPropertyOp16
 70
     1
102
RTVSPropertyOp17
 70
     1
102
RTVSPropertyOp18
 70
     1
102
RTVSPropertyOp19
 70
     1
102
RTVSPropertyOp20
 70
     1
102
RTVSPropertyOp21
 70
     1
102
RTVSPropertyOp22
 70
     1
102
RTVSPropertyOp23
 70
     1
102
RTVSPropertyOp24
 70
     1
102
RTVSPropertyOp25
 70
     1
102
RTVSPropertyOp26
 70
     1
102
RTVSPropertyOp27
 70
     1
102
RTVSPropertyOp28
 70
     1
102
RTVSPropertyOp29
 70
     1
102
RTVSPropertyOp30
 70
     1
102
RTVSPropertyOp31
 70
     1
102
RTVSPropertyOp32
 70
     1
102
RTVSPropertyOp33
 70
     1
102
RTVSPropertyOp34
 70
     1
102
RTVSPropertyOp35
 70
     1
102
RTVSPropertyOp36
 70
     1
102
RTVSPropertyOp37
 70
     1
102
RTVSPropertyOp38
 70
     1
102
RTVSPropertyOp39
 70
     1
102
RTVSPropertyOp40
 70
     1
102
RTVSPropertyOp41
 70
     1
102
RTVSPropertyOp42
 70
     1
102
RTVSPropertyOp43
 70
     1
102
RTVSPropertyOp44
 70
     1
102
RTVSPropertyOp45
 70
     1
102
RTVSPropertyOp46
 70
     1
102
RTVSPropertyOp47
 70
     1
102
RTVSPropertyOp48
 70
     1
102
RTVSPropertyOp49
 70
     1
102
RTVSPropertyOp50
 70
     1
102
RTVSPropertyOp51
 70
     0
102
RTVSPropertyOp52
 70
     0
102
RTVSPropertyOp53
 70
     1
102
RTVSPropertyOp54
 70
     1
102
RTVSPropertyOp55
 70
     1
102
RTVSPropertyOp56
 70
     1
102
RTVSPropertyOp57
 70
     1
102
RTVSPropertyOp58
 70
     1
102
RTVSPropertyOp59
 70
     1
102
RTVSPropertyOp60
 70
     1
102
RTVSPropertyOp61
 70
     1
102
RTVSPropertyOp62
 70
     1
  0
XRECORD
  5
96CE
102
{ACAD_REACTORS
330
96CD
102
}
330
96CD
100
AcDbXrecord
280
     1
102
RTVSPost2010Prop28
280
     0
102
RTVSPost2010PropOp28
 70
     1
102
RTVSPost2010Prop29
280
     1
102
RTVSPost2010PropOp29
 70
     1
102
RTVSPost2010Prop30
280
     1
102
RTVSPost2010PropOp30
 70
     1
102
RTVSPost2010Prop31
280
     0
102
RTVSPost2010PropOp31
 70
     1
102
RTVSPost2010Prop32
280
     0
102
RTVSPost2010PropOp32
 70
     1
102
RTVSPost2010Prop33
280
     0
102
RTVSPost2010PropOp33
 70
     1
102
RTVSPost2010Prop34
280
     0
102
RTVSPost2010PropOp34
 70
     1
102
RTVSPost2010Prop35
280
     0
102
RTVSPost2010PropOp35
 70
     1
102
RTVSPost2010Prop36
280
     0
102
RTVSPost2010PropOp36
 70
     1
102
RTVSPost2010Prop37
 90
       50
102
RTVSPost2010PropOp37
 70
     1
102
RTVSPost2010Prop38
140
0.0
102
RTVSPost2010PropOp38
 70
     1
102
RTVSPost2010Prop39
140
1.0
102
RTVSPost2010PropOp39
 70
     1
102
RTVSPost2010Prop40
 90
        0
102
RTVSPost2010PropOp40
 70
     1
102
RTVSPost2010Prop41ColorIndex
 90
       18
102
RTVSPost2010Prop41ColorRGB
 90
        0
102
RTVSPost2010PropOp41
 70
     1
102
RTVSPost2010Prop42
 90
       50
102
RTVSPost2010PropOp42
 70
     1
102
RTVSPost2010Prop43
 90
        3
102
RTVSPost2010PropOp43
 70
     1
102
RTVSPost2010Prop44ColorIndex
 90
        5
102
RTVSPost2010Prop44ColorRGB
 90
      255
102
RTVSPost2010PropOp44
 70
     1
102
RTVSPost2010Prop45
280
     0
102
RTVSPost2010PropOp45
 70
     1
102
RTVSPost2010Prop46
 90
       50
102
RTVSPost2010PropOp46
 70
     1
102
RTVSPost2010Prop47
 90
       50
102
RTVSPost2010PropOp47
 70
     1
102
RTVSPost2010Prop48
 90
       50
102
RTVSPost2010PropOp48
 70
     1
102
RTVSPost2010Prop49
280
     0
102
RTVSPost2010PropOp49
 70
     1
102
RTVSPost2010Prop50
 90
       50
102
RTVSPost2010PropOp50
 70
     1
102
RTVSPost2010Prop51ColorIndex
 90
      256
102
RTVSPost2010Prop51ColorRGB
 90
-16777216
102
RTVSPost2010PropOp51
 70
     0
102
RTVSPost2010Prop52
140
1.0
102
RTVSPost2010PropOp52
 70
     0
102
RTVSPost2010Prop53
 90
        2
102
RTVSPost2010PropOp53
 70
     1
102
RTVSPost2010Prop54
  1
strokes_ogs.tif
102
RTVSPost2010PropOp54
 70
     1
102
RTVSPost2010Prop55
280
     0
102
RTVSPost2010PropOp55
 70
     1
102
RTVSPost2010Prop56
140
1.0
102
RTVSPost2010PropOp56
 70
     1
102
RTVSPost2010Prop57
140
1.0
102
RTVSPost2010PropOp57
 70
     1
102
RTVSPropertyOp0
 70
     1
102
RTVSPropertyOp1
 70
     1
102
RTVSPropertyOp2
 70
     1
102
RTVSPropertyOp3
 70
     1
102
RTVSPropertyOp4
 70
     1
102
RTVSPropertyOp5
 70
     1
102
RTVSPropertyOp6
 70
     1
102
RTVSPropertyOp7
 70
     1
102
RTVSPropertyOp8
 70
     1
102
RTVSPropertyOp9
 70
     1
102
RTVSPropertyOp10
 70
     1
102
RTVSPropertyOp11
 70
     1
102
RTVSPropertyOp12
 70
     1
102
RTVSPropertyOp13
 70
     1
102
RTVSPropertyOp14
 70
     1
102
RTVSPropertyOp15
 70
     1
102
RTVSPropertyOp16
 70
     1
102
RTVSPropertyOp17
 70
     1
102
RTVSPropertyOp18
 70
     1
102
RTVSPropertyOp19
 70
     1
102
RTVSPropertyOp20
 70
     1
102
RTVSPropertyOp21
 70
     1
102
RTVSPropertyOp22
 70
     1
102
RTVSPropertyOp23
 70
     1
102
RTVSPropertyOp24
 70
     1
102
RTVSPropertyOp25
 70
     1
102
RTVSPropertyOp26
 70
     1
102
RTVSPropertyOp27
 70
     1
102
RTVSPropertyOp28
 70
     1
102
RTVSPropertyOp29
 70
     1
102
RTVSPropertyOp30
 70
     1
102
RTVSPropertyOp31
 70
     1
102
RTVSPropertyOp32
 70
     1
102
RTVSPropertyOp33
 70
     1
102
RTVSPropertyOp34
 70
     1
102
RTVSPropertyOp35
 70
     1
102
RTVSPropertyOp36
 70
     1
102
RTVSPropertyOp37
 70
     1
102
RTVSPropertyOp38
 70
     1
102
RTVSPropertyOp39
 70
     1
102
RTVSPropertyOp40
 70
     1
102
RTVSPropertyOp41
 70
     1
102
RTVSPropertyOp42
 70
     1
102
RTVSPropertyOp43
 70
     1
102
RTVSPropertyOp44
 70
     1
102
RTVSPropertyOp45
 70
     1
102
RTVSPropertyOp46
 70
     1
102
RTVSPropertyOp47
 70
     1
102
RTVSPropertyOp48
 70
     1
102
RTVSPropertyOp49
 70
     1
102
RTVSPropertyOp50
 70
     1
102
RTVSPropertyOp51
 70
     0
102
RTVSPropertyOp52
 70
     0
102
RTVSPropertyOp53
 70
     1
102
RTVSPropertyOp54
 70
     1
102
RTVSPropertyOp55
 70
     1
102
RTVSPropertyOp56
 70
     1
102
RTVSPropertyOp57
 70
     1
102
RTVSPropertyOp58
 70
     1
102
RTVSPropertyOp59
 70
     1
102
RTVSPropertyOp60
 70
     1
102
RTVSPropertyOp61
 70
     1
102
RTVSPropertyOp62
 70
     1
  0
XRECORD
  5
96D0
102
{ACAD_REACTORS
330
96CF
102
}
330
96CF
100
AcDbXrecord
280
     1
102
RTVSPost2010Prop28
280
     0
102
RTVSPost2010PropOp28
 70
     1
102
RTVSPost2010Prop29
280
     1
102
RTVSPost2010PropOp29
 70
     1
102
RTVSPost2010Prop30
280
     1
102
RTVSPost2010PropOp30
 70
     1
102
RTVSPost2010Prop31
280
     0
102
RTVSPost2010PropOp31
 70
     1
102
RTVSPost2010Prop32
280
     0
102
RTVSPost2010PropOp32
 70
     1
102
RTVSPost2010Prop33
280
     0
102
RTVSPost2010PropOp33
 70
     1
102
RTVSPost2010Prop34
280
     0
102
RTVSPost2010PropOp34
 70
     1
102
RTVSPost2010Prop35
280
     0
102
RTVSPost2010PropOp35
 70
     1
102
RTVSPost2010Prop36
280
     0
102
RTVSPost2010PropOp36
 70
     1
102
RTVSPost2010Prop37
 90
       50
102
RTVSPost2010PropOp37
 70
     1
102
RTVSPost2010Prop38
140
0.0
102
RTVSPost2010PropOp38
 70
     1
102
RTVSPost2010Prop39
140
1.0
102
RTVSPost2010PropOp39
 70
     1
102
RTVSPost2010Prop40
 90
        0
102
RTVSPost2010PropOp40
 70
     1
102
RTVSPost2010Prop41ColorIndex
 90
       18
102
RTVSPost2010Prop41ColorRGB
 90
        0
102
RTVSPost2010PropOp41
 70
     1
102
RTVSPost2010Prop42
 90
       50
102
RTVSPost2010PropOp42
 70
     1
102
RTVSPost2010Prop43
 90
        3
102
RTVSPost2010PropOp43
 70
     1
102
RTVSPost2010Prop44ColorIndex
 90
        5
102
RTVSPost2010Prop44ColorRGB
 90
      255
102
RTVSPost2010PropOp44
 70
     1
102
RTVSPost2010Prop45
280
     0
102
RTVSPost2010PropOp45
 70
     1
102
RTVSPost2010Prop46
 90
       50
102
RTVSPost2010PropOp46
 70
     1
102
RTVSPost2010Prop47
 90
       50
102
RTVSPost2010PropOp47
 70
     1
102
RTVSPost2010Prop48
 90
       50
102
RTVSPost2010PropOp48
 70
     1
102
RTVSPost2010Prop49
280
     0
102
RTVSPost2010PropOp49
 70
     1
102
RTVSPost2010Prop50
 90
       50
102
RTVSPost2010PropOp50
 70
     1
102
RTVSPost2010Prop51ColorIndex
 90
      256
102
RTVSPost2010Prop51ColorRGB
 90
-16777216
102
RTVSPost2010PropOp51
 70
     0
102
RTVSPost2010Prop52
140
1.0
102
RTVSPost2010PropOp52
 70
     0
102
RTVSPost2010Prop53
 90
        2
102
RTVSPost2010PropOp53
 70
     1
102
RTVSPost2010Prop54
  1
strokes_ogs.tif
102
RTVSPost2010PropOp54
 70
     1
102
RTVSPost2010Prop55
280
     0
102
RTVSPost2010PropOp55
 70
     1
102
RTVSPost2010Prop56
140
1.0
102
RTVSPost2010PropOp56
 70
     1
102
RTVSPost2010Prop57
140
1.0
102
RTVSPost2010PropOp57
 70
     1
102
RTVSPropertyOp0
 70
     1
102
RTVSPropertyOp1
 70
     1
102
RTVSPropertyOp2
 70
     1
102
RTVSPropertyOp3
 70
     1
102
RTVSPropertyOp4
 70
     1
102
RTVSPropertyOp5
 70
     1
102
RTVSPropertyOp6
 70
     1
102
RTVSPropertyOp7
 70
     1
102
RTVSPropertyOp8
 70
     1
102
RTVSPropertyOp9
 70
     1
102
RTVSPropertyOp10
 70
     1
102
RTVSPropertyOp11
 70
     1
102
RTVSPropertyOp12
 70
     1
102
RTVSPropertyOp13
 70
     1
102
RTVSPropertyOp14
 70
     1
102
RTVSPropertyOp15
 70
     1
102
RTVSPropertyOp16
 70
     1
102
RTVSPropertyOp17
 70
     1
102
RTVSPropertyOp18
 70
     1
102
RTVSPropertyOp19
 70
     1
102
RTVSPropertyOp20
 70
     1
102
RTVSPropertyOp21
 70
     1
102
RTVSPropertyOp22
 70
     1
102
RTVSPropertyOp23
 70
     1
102
RTVSPropertyOp24
 70
     1
102
RTVSPropertyOp25
 70
     1
102
RTVSPropertyOp26
 70
     1
102
RTVSPropertyOp27
 70
     1
102
RTVSPropertyOp28
 70
     1
102
RTVSPropertyOp29
 70
     1
102
RTVSPropertyOp30
 70
     1
102
RTVSPropertyOp31
 70
     1
102
RTVSPropertyOp32
 70
     1
102
RTVSPropertyOp33
 70
     1
102
RTVSPropertyOp34
 70
     1
102
RTVSPropertyOp35
 70
     1
102
RTVSPropertyOp36
 70
     1
102
RTVSPropertyOp37
 70
     1
102
RTVSPropertyOp38
 70
     1
102
RTVSPropertyOp39
 70
     1
102
RTVSPropertyOp40
 70
     1
102
RTVSPropertyOp41
 70
     1
102
RTVSPropertyOp42
 70
     1
102
RTVSPropertyOp43
 70
     1
102
RTVSPropertyOp44
 70
     1
102
RTVSPropertyOp45
 70
     1
102
RTVSPropertyOp46
 70
     1
102
RTVSPropertyOp47
 70
     1
102
RTVSPropertyOp48
 70
     1
102
RTVSPropertyOp49
 70
     1
102
RTVSPropertyOp50
 70
     1
102
RTVSPropertyOp51
 70
     0
102
RTVSPropertyOp52
 70
     0
102
RTVSPropertyOp53
 70
     1
102
RTVSPropertyOp54
 70
     1
102
RTVSPropertyOp55
 70
     1
102
RTVSPropertyOp56
 70
     1
102
RTVSPropertyOp57
 70
     1
102
RTVSPropertyOp58
 70
     1
102
RTVSPropertyOp59
 70
     1
102
RTVSPropertyOp60
 70
     1
102
RTVSPropertyOp61
 70
     1
102
RTVSPropertyOp62
 70
     1
  0
XRECORD
  5
96D2
102
{ACAD_REACTORS
330
96D1
102
}
330
96D1
100
AcDbXrecord
280
     1
102
RTVSPost2010Prop28
280
     0
102
RTVSPost2010PropOp28
 70
     1
102
RTVSPost2010Prop29
280
     1
102
RTVSPost2010PropOp29
 70
     1
102
RTVSPost2010Prop30
280
     1
102
RTVSPost2010PropOp30
 70
     1
102
RTVSPost2010Prop31
280
     0
102
RTVSPost2010PropOp31
 70
     1
102
RTVSPost2010Prop32
280
     0
102
RTVSPost2010PropOp32
 70
     1
102
RTVSPost2010Prop33
280
     0
102
RTVSPost2010PropOp33
 70
     1
102
RTVSPost2010Prop34
280
     0
102
RTVSPost2010PropOp34
 70
     1
102
RTVSPost2010Prop35
280
     0
102
RTVSPost2010PropOp35
 70
     1
102
RTVSPost2010Prop36
280
     0
102
RTVSPost2010PropOp36
 70
     1
102
RTVSPost2010Prop37
 90
       50
102
RTVSPost2010PropOp37
 70
     1
102
RTVSPost2010Prop38
140
0.0
102
RTVSPost2010PropOp38
 70
     1
102
RTVSPost2010Prop39
140
1.0
102
RTVSPost2010PropOp39
 70
     1
102
RTVSPost2010Prop40
 90
        0
102
RTVSPost2010PropOp40
 70
     1
102
RTVSPost2010Prop41ColorIndex
 90
       18
102
RTVSPost2010Prop41ColorRGB
 90
        0
102
RTVSPost2010PropOp41
 70
     1
102
RTVSPost2010Prop42
 90
       50
102
RTVSPost2010PropOp42
 70
     1
102
RTVSPost2010Prop43
 90
        3
102
RTVSPost2010PropOp43
 70
     1
102
RTVSPost2010Prop44ColorIndex
 90
        5
102
RTVSPost2010Prop44ColorRGB
 90
      255
102
RTVSPost2010PropOp44
 70
     1
102
RTVSPost2010Prop45
280
     0
102
RTVSPost2010PropOp45
 70
     1
102
RTVSPost2010Prop46
 90
       50
102
RTVSPost2010PropOp46
 70
     1
102
RTVSPost2010Prop47
 90
       50
102
RTVSPost2010PropOp47
 70
     1
102
RTVSPost2010Prop48
 90
       50
102
RTVSPost2010PropOp48
 70
     1
102
RTVSPost2010Prop49
280
     0
102
RTVSPost2010PropOp49
 70
     1
102
RTVSPost2010Prop50
 90
       50
102
RTVSPost2010PropOp50
 70
     1
102
RTVSPost2010Prop51ColorIndex
 90
      256
102
RTVSPost2010Prop51ColorRGB
 90
-16777216
102
RTVSPost2010PropOp51
 70
     0
102
RTVSPost2010Prop52
140
1.0
102
RTVSPost2010PropOp52
 70
     0
102
RTVSPost2010Prop53
 90
        2
102
RTVSPost2010PropOp53
 70
     1
102
RTVSPost2010Prop54
  1
strokes_ogs.tif
102
RTVSPost2010PropOp54
 70
     1
102
RTVSPost2010Prop55
280
     0
102
RTVSPost2010PropOp55
 70
     1
102
RTVSPost2010Prop56
140
1.0
102
RTVSPost2010PropOp56
 70
     1
102
RTVSPost2010Prop57
140
1.0
102
RTVSPost2010PropOp57
 70
     1
102
RTVSPropertyOp0
 70
     1
102
RTVSPropertyOp1
 70
     1
102
RTVSPropertyOp2
 70
     1
102
RTVSPropertyOp3
 70
     1
102
RTVSPropertyOp4
 70
     1
102
RTVSPropertyOp5
 70
     1
102
RTVSPropertyOp6
 70
     1
102
RTVSPropertyOp7
 70
     1
102
RTVSPropertyOp8
 70
     1
102
RTVSPropertyOp9
 70
     1
102
RTVSPropertyOp10
 70
     1
102
RTVSPropertyOp11
 70
     1
102
RTVSPropertyOp12
 70
     1
102
RTVSPropertyOp13
 70
     1
102
RTVSPropertyOp14
 70
     1
102
RTVSPropertyOp15
 70
     1
102
RTVSPropertyOp16
 70
     1
102
RTVSPropertyOp17
 70
     1
102
RTVSPropertyOp18
 70
     1
102
RTVSPropertyOp19
 70
     1
102
RTVSPropertyOp20
 70
     1
102
RTVSPropertyOp21
 70
     1
102
RTVSPropertyOp22
 70
     1
102
RTVSPropertyOp23
 70
     1
102
RTVSPropertyOp24
 70
     1
102
RTVSPropertyOp25
 70
     1
102
RTVSPropertyOp26
 70
     1
102
RTVSPropertyOp27
 70
     1
102
RTVSPropertyOp28
 70
     1
102
RTVSPropertyOp29
 70
     1
102
RTVSPropertyOp30
 70
     1
102
RTVSPropertyOp31
 70
     1
102
RTVSPropertyOp32
 70
     1
102
RTVSPropertyOp33
 70
     1
102
RTVSPropertyOp34
 70
     1
102
RTVSPropertyOp35
 70
     1
102
RTVSPropertyOp36
 70
     1
102
RTVSPropertyOp37
 70
     1
102
RTVSPropertyOp38
 70
     1
102
RTVSPropertyOp39
 70
     1
102
RTVSPropertyOp40
 70
     1
102
RTVSPropertyOp41
 70
     1
102
RTVSPropertyOp42
 70
     1
102
RTVSPropertyOp43
 70
     1
102
RTVSPropertyOp44
 70
     1
102
RTVSPropertyOp45
 70
     1
102
RTVSPropertyOp46
 70
     1
102
RTVSPropertyOp47
 70
     1
102
RTVSPropertyOp48
 70
     1
102
RTVSPropertyOp49
 70
     1
102
RTVSPropertyOp50
 70
     1
102
RTVSPropertyOp51
 70
     0
102
RTVSPropertyOp52
 70
     0
102
RTVSPropertyOp53
 70
     1
102
RTVSPropertyOp54
 70
     1
102
RTVSPropertyOp55
 70
     1
102
RTVSPropertyOp56
 70
     1
102
RTVSPropertyOp57
 70
     1
102
RTVSPropertyOp58
 70
     1
102
RTVSPropertyOp59
 70
     1
102
RTVSPropertyOp60
 70
     1
102
RTVSPropertyOp61
 70
     1
102
RTVSPropertyOp62
 70
     1
  0
XRECORD
  5
96DA
102
{ACAD_REACTORS
330
96D9
102
}
330
96D9
100
AcDbXrecord
280
     1
102
RTVSPost2010Prop28
280
     0
102
RTVSPost2010PropOp28
 70
     1
102
RTVSPost2010Prop29
280
     1
102
RTVSPost2010PropOp29
 70
     1
102
RTVSPost2010Prop30
280
     1
102
RTVSPost2010PropOp30
 70
     1
102
RTVSPost2010Prop31
280
     0
102
RTVSPost2010PropOp31
 70
     1
102
RTVSPost2010Prop32
280
     0
102
RTVSPost2010PropOp32
 70
     1
102
RTVSPost2010Prop33
280
     0
102
RTVSPost2010PropOp33
 70
     1
102
RTVSPost2010Prop34
280
     0
102
RTVSPost2010PropOp34
 70
     1
102
RTVSPost2010Prop35
280
     0
102
RTVSPost2010PropOp35
 70
     1
102
RTVSPost2010Prop36
280
     0
102
RTVSPost2010PropOp36
 70
     1
102
RTVSPost2010Prop37
 90
       50
102
RTVSPost2010PropOp37
 70
     1
102
RTVSPost2010Prop38
140
0.0
102
RTVSPost2010PropOp38
 70
     1
102
RTVSPost2010Prop39
140
1.0
102
RTVSPost2010PropOp39
 70
     1
102
RTVSPost2010Prop40
 90
        0
102
RTVSPost2010PropOp40
 70
     1
102
RTVSPost2010Prop41ColorIndex
 90
       18
102
RTVSPost2010Prop41ColorRGB
 90
        0
102
RTVSPost2010PropOp41
 70
     1
102
RTVSPost2010Prop42
 90
       50
102
RTVSPost2010PropOp42
 70
     1
102
RTVSPost2010Prop43
 90
        3
102
RTVSPost2010PropOp43
 70
     1
102
RTVSPost2010Prop44ColorIndex
 90
        5
102
RTVSPost2010Prop44ColorRGB
 90
      255
102
RTVSPost2010PropOp44
 70
     1
102
RTVSPost2010Prop45
280
     0
102
RTVSPost2010PropOp45
 70
     1
102
RTVSPost2010Prop46
 90
       50
102
RTVSPost2010PropOp46
 70
     1
102
RTVSPost2010Prop47
 90
       50
102
RTVSPost2010PropOp47
 70
     1
102
RTVSPost2010Prop48
 90
       50
102
RTVSPost2010PropOp48
 70
     1
102
RTVSPost2010Prop49
280
     0
102
RTVSPost2010PropOp49
 70
     1
102
RTVSPost2010Prop50
 90
       50
102
RTVSPost2010PropOp50
 70
     1
102
RTVSPost2010Prop51ColorIndex
 90
      256
102
RTVSPost2010Prop51ColorRGB
 90
-16777216
102
RTVSPost2010PropOp51
 70
     0
102
RTVSPost2010Prop52
140
1.0
102
RTVSPost2010PropOp52
 70
     0
102
RTVSPost2010Prop53
 90
        2
102
RTVSPost2010PropOp53
 70
     1
102
RTVSPost2010Prop54
  1
strokes_ogs.tif
102
RTVSPost2010PropOp54
 70
     1
102
RTVSPost2010Prop55
280
     0
102
RTVSPost2010PropOp55
 70
     1
102
RTVSPost2010Prop56
140
1.0
102
RTVSPost2010PropOp56
 70
     1
102
RTVSPost2010Prop57
140
1.0
102
RTVSPost2010PropOp57
 70
     1
102
RTVSPropertyOp0
 70
     1
102
RTVSPropertyOp1
 70
     1
102
RTVSPropertyOp2
 70
     1
102
RTVSPropertyOp3
 70
     1
102
RTVSPropertyOp4
 70
     1
102
RTVSPropertyOp5
 70
     1
102
RTVSPropertyOp6
 70
     1
102
RTVSPropertyOp7
 70
     1
102
RTVSPropertyOp8
 70
     1
102
RTVSPropertyOp9
 70
     1
102
RTVSPropertyOp10
 70
     1
102
RTVSPropertyOp11
 70
     1
102
RTVSPropertyOp12
 70
     1
102
RTVSPropertyOp13
 70
     1
102
RTVSPropertyOp14
 70
     1
102
RTVSPropertyOp15
 70
     1
102
RTVSPropertyOp16
 70
     1
102
RTVSPropertyOp17
 70
     1
102
RTVSPropertyOp18
 70
     1
102
RTVSPropertyOp19
 70
     1
102
RTVSPropertyOp20
 70
     1
102
RTVSPropertyOp21
 70
     1
102
RTVSPropertyOp22
 70
     1
102
RTVSPropertyOp23
 70
     1
102
RTVSPropertyOp24
 70
     1
102
RTVSPropertyOp25
 70
     1
102
RTVSPropertyOp26
 70
     1
102
RTVSPropertyOp27
 70
     1
102
RTVSPropertyOp28
 70
     1
102
RTVSPropertyOp29
 70
     1
102
RTVSPropertyOp30
 70
     1
102
RTVSPropertyOp31
 70
     1
102
RTVSPropertyOp32
 70
     1
102
RTVSPropertyOp33
 70
     1
102
RTVSPropertyOp34
 70
     1
102
RTVSPropertyOp35
 70
     1
102
RTVSPropertyOp36
 70
     1
102
RTVSPropertyOp37
 70
     1
102
RTVSPropertyOp38
 70
     1
102
RTVSPropertyOp39
 70
     1
102
RTVSPropertyOp40
 70
     1
102
RTVSPropertyOp41
 70
     1
102
RTVSPropertyOp42
 70
     1
102
RTVSPropertyOp43
 70
     1
102
RTVSPropertyOp44
 70
     1
102
RTVSPropertyOp45
 70
     1
102
RTVSPropertyOp46
 70
     1
102
RTVSPropertyOp47
 70
     1
102
RTVSPropertyOp48
 70
     1
102
RTVSPropertyOp49
 70
     1
102
RTVSPropertyOp50
 70
     1
102
RTVSPropertyOp51
 70
     0
102
RTVSPropertyOp52
 70
     0
102
RTVSPropertyOp53
 70
     1
102
RTVSPropertyOp54
 70
     1
102
RTVSPropertyOp55
 70
     1
102
RTVSPropertyOp56
 70
     1
102
RTVSPropertyOp57
 70
     1
102
RTVSPropertyOp58
 70
     1
102
RTVSPropertyOp59
 70
     1
102
RTVSPropertyOp60
 70
     1
102
RTVSPropertyOp61
 70
     1
102
RTVSPropertyOp62
 70
     1
  0
XRECORD
  5
96F6
102
{ACAD_REACTORS
330
96F5
102
}
330
96F5
100
AcDbXrecord
280
     1
102
RTVSPost2010Prop28
280
     0
102
RTVSPost2010PropOp28
 70
     1
102
RTVSPost2010Prop29
280
     1
102
RTVSPost2010PropOp29
 70
     1
102
RTVSPost2010Prop30
280
     1
102
RTVSPost2010PropOp30
 70
     1
102
RTVSPost2010Prop31
280
     0
102
RTVSPost2010PropOp31
 70
     1
102
RTVSPost2010Prop32
280
     0
102
RTVSPost2010PropOp32
 70
     1
102
RTVSPost2010Prop33
280
     0
102
RTVSPost2010PropOp33
 70
     1
102
RTVSPost2010Prop34
280
     0
102
RTVSPost2010PropOp34
 70
     1
102
RTVSPost2010Prop35
280
     0
102
RTVSPost2010PropOp35
 70
     1
102
RTVSPost2010Prop36
280
     0
102
RTVSPost2010PropOp36
 70
     1
102
RTVSPost2010Prop37
 90
       50
102
RTVSPost2010PropOp37
 70
     0
102
RTVSPost2010Prop38
140
0.0
102
RTVSPost2010PropOp38
 70
     0
102
RTVSPost2010Prop39
140
1.0
102
RTVSPost2010PropOp39
 70
     0
102
RTVSPost2010Prop40
 90
        0
102
RTVSPost2010PropOp40
 70
     0
102
RTVSPost2010Prop41ColorIndex
 90
       18
102
RTVSPost2010Prop41ColorRGB
 90
        0
102
RTVSPost2010PropOp41
 70
     0
102
RTVSPost2010Prop42
 90
       50
102
RTVSPost2010PropOp42
 70
     0
102
RTVSPost2010Prop43
 90
        3
102
RTVSPost2010PropOp43
 70
     0
102
RTVSPost2010Prop44ColorIndex
 90
        5
102
RTVSPost2010Prop44ColorRGB
 90
      255
102
RTVSPost2010PropOp44
 70
     0
102
RTVSPost2010Prop45
280
     0
102
RTVSPost2010PropOp45
 70
     1
102
RTVSPost2010Prop46
 90
       50
102
RTVSPost2010PropOp46
 70
     0
102
RTVSPost2010Prop47
 90
       50
102
RTVSPost2010PropOp47
 70
     0
102
RTVSPost2010Prop48
 90
       50
102
RTVSPost2010PropOp48
 70
     0
102
RTVSPost2010Prop49
280
     0
102
RTVSPost2010PropOp49
 70
     1
102
RTVSPost2010Prop50
 90
       50
102
RTVSPost2010PropOp50
 70
     0
102
RTVSPost2010Prop51ColorIndex
 90
      256
102
RTVSPost2010Prop51ColorRGB
 90
-16777216
102
RTVSPost2010PropOp51
 70
     0
102
RTVSPost2010Prop52
140
1.0
102
RTVSPost2010PropOp52
 70
     0
102
RTVSPost2010Prop53
 90
        2
102
RTVSPost2010PropOp53
 70
     0
102
RTVSPost2010Prop54
  1
strokes_ogs.tif
102
RTVSPost2010PropOp54
 70
     0
102
RTVSPost2010Prop55
280
     0
102
RTVSPost2010PropOp55
 70
     1
102
RTVSPost2010Prop56
140
1.0
102
RTVSPost2010PropOp56
 70
     0
102
RTVSPost2010Prop57
140
1.0
102
RTVSPost2010PropOp57
 70
     0
102
RTVSPropertyOp0
 70
     0
102
RTVSPropertyOp1
 70
     0
102
RTVSPropertyOp2
 70
     0
102
RTVSPropertyOp3
 70
     0
102
RTVSPropertyOp4
 70
     0
102
RTVSPropertyOp5
 70
     0
102
RTVSPropertyOp6
 70
     0
102
RTVSPropertyOp7
 70
     0
102
RTVSPropertyOp8
 70
     0
102
RTVSPropertyOp9
 70
     0
102
RTVSPropertyOp10
 70
     0
102
RTVSPropertyOp11
 70
     0
102
RTVSPropertyOp12
 70
     0
102
RTVSPropertyOp13
 70
     0
102
RTVSPropertyOp14
 70
     2
102
RTVSPropertyOp15
 70
     0
102
RTVSPropertyOp16
 70
     0
102
RTVSPropertyOp17
 70
     0
102
RTVSPropertyOp18
 70
     0
102
RTVSPropertyOp19
 70
     0
102
RTVSPropertyOp20
 70
     0
102
RTVSPropertyOp21
 70
     0
102
RTVSPropertyOp22
 70
     0
102
RTVSPropertyOp23
 70
     0
102
RTVSPropertyOp24
 70
     0
102
RTVSPropertyOp25
 70
     0
102
RTVSPropertyOp26
 70
     0
102
RTVSPropertyOp27
 70
     0
102
RTVSPropertyOp28
 70
     1
102
RTVSPropertyOp29
 70
     1
102
RTVSPropertyOp30
 70
     1
102
RTVSPropertyOp31
 70
     1
102
RTVSPropertyOp32
 70
     1
102
RTVSPropertyOp33
 70
     1
102
RTVSPropertyOp34
 70
     1
102
RTVSPropertyOp35
 70
     1
102
RTVSPropertyOp36
 70
     1
102
RTVSPropertyOp37
 70
     0
102
RTVSPropertyOp38
 70
     0
102
RTVSPropertyOp39
 70
     0
102
RTVSPropertyOp40
 70
     0
102
RTVSPropertyOp41
 70
     0
102
RTVSPropertyOp42
 70
     0
102
RTVSPropertyOp43
 70
     0
102
RTVSPropertyOp44
 70
     0
102
RTVSPropertyOp45
 70
     1
102
RTVSPropertyOp46
 70
     0
102
RTVSPropertyOp47
 70
     0
102
RTVSPropertyOp48
 70
     0
102
RTVSPropertyOp49
 70
     1
102
RTVSPropertyOp50
 70
     0
102
RTVSPropertyOp51
 70
     0
102
RTVSPropertyOp52
 70
     0
102
RTVSPropertyOp53
 70
     0
102
RTVSPropertyOp54
 70
     0
102
RTVSPropertyOp55
 70
     1
102
RTVSPropertyOp56
 70
     0
102
RTVSPropertyOp57
 70
     0
102
RTVSPropertyOp58
 70
     0
102
RTVSPropertyOp59
 70
     0
102
RTVSPropertyOp60
 70
     0
102
RTVSPropertyOp61
 70
     0
102
RTVSPropertyOp62
 70
     0
  0
XRECORD
  5
96E6
102
{ACAD_REACTORS
330
96E5
102
}
330
96E5
100
AcDbXrecord
280
     1
102
RTVSPost2010Prop28
280
     0
102
RTVSPost2010PropOp28
 70
     1
102
RTVSPost2010Prop29
280
     1
102
RTVSPost2010PropOp29
 70
     1
102
RTVSPost2010Prop30
280
     1
102
RTVSPost2010PropOp30
 70
     1
102
RTVSPost2010Prop31
280
     0
102
RTVSPost2010PropOp31
 70
     1
102
RTVSPost2010Prop32
280
     0
102
RTVSPost2010PropOp32
 70
     1
102
RTVSPost2010Prop33
280
     0
102
RTVSPost2010PropOp33
 70
     1
102
RTVSPost2010Prop34
280
     0
102
RTVSPost2010PropOp34
 70
     1
102
RTVSPost2010Prop35
280
     0
102
RTVSPost2010PropOp35
 70
     1
102
RTVSPost2010Prop36
280
     0
102
RTVSPost2010PropOp36
 70
     1
102
RTVSPost2010Prop37
 90
       50
102
RTVSPost2010PropOp37
 70
     1
102
RTVSPost2010Prop38
140
0.0
102
RTVSPost2010PropOp38
 70
     1
102
RTVSPost2010Prop39
140
1.0
102
RTVSPost2010PropOp39
 70
     1
102
RTVSPost2010Prop40
 90
        0
102
RTVSPost2010PropOp40
 70
     1
102
RTVSPost2010Prop41ColorIndex
 90
       18
102
RTVSPost2010Prop41ColorRGB
 90
        0
102
RTVSPost2010PropOp41
 70
     1
102
RTVSPost2010Prop42
 90
       50
102
RTVSPost2010PropOp42
 70
     1
102
RTVSPost2010Prop43
 90
        3
102
RTVSPost2010PropOp43
 70
     1
102
RTVSPost2010Prop44ColorIndex
 90
        5
102
RTVSPost2010Prop44ColorRGB
 90
      255
102
RTVSPost2010PropOp44
 70
     1
102
RTVSPost2010Prop45
280
     0
102
RTVSPost2010PropOp45
 70
     1
102
RTVSPost2010Prop46
 90
       50
102
RTVSPost2010PropOp46
 70
     1
102
RTVSPost2010Prop47
 90
       50
102
RTVSPost2010PropOp47
 70
     1
102
RTVSPost2010Prop48
 90
       50
102
RTVSPost2010PropOp48
 70
     1
102
RTVSPost2010Prop49
280
     0
102
RTVSPost2010PropOp49
 70
     1
102
RTVSPost2010Prop50
 90
       50
102
RTVSPost2010PropOp50
 70
     1
102
RTVSPost2010Prop51ColorIndex
 90
      256
102
RTVSPost2010Prop51ColorRGB
 90
-16777216
102
RTVSPost2010PropOp51
 70
     0
102
RTVSPost2010Prop52
140
1.0
102
RTVSPost2010PropOp52
 70
     0
102
RTVSPost2010Prop53
 90
        2
102
RTVSPost2010PropOp53
 70
     1
102
RTVSPost2010Prop54
  1
strokes_ogs.tif
102
RTVSPost2010PropOp54
 70
     1
102
RTVSPost2010Prop55
280
     0
102
RTVSPost2010PropOp55
 70
     1
102
RTVSPost2010Prop56
140
1.0
102
RTVSPost2010PropOp56
 70
     1
102
RTVSPost2010Prop57
140
1.0
102
RTVSPost2010PropOp57
 70
     1
102
RTVSPropertyOp0
 70
     1
102
RTVSPropertyOp1
 70
     1
102
RTVSPropertyOp2
 70
     1
102
RTVSPropertyOp3
 70
     1
102
RTVSPropertyOp4
 70
     1
102
RTVSPropertyOp5
 70
     1
102
RTVSPropertyOp6
 70
     1
102
RTVSPropertyOp7
 70
     1
102
RTVSPropertyOp8
 70
     1
102
RTVSPropertyOp9
 70
     1
102
RTVSPropertyOp10
 70
     1
102
RTVSPropertyOp11
 70
     1
102
RTVSPropertyOp12
 70
     1
102
RTVSPropertyOp13
 70
     1
102
RTVSPropertyOp14
 70
     1
102
RTVSPropertyOp15
 70
     1
102
RTVSPropertyOp16
 70
     1
102
RTVSPropertyOp17
 70
     1
102
RTVSPropertyOp18
 70
     1
102
RTVSPropertyOp19
 70
     1
102
RTVSPropertyOp20
 70
     1
102
RTVSPropertyOp21
 70
     1
102
RTVSPropertyOp22
 70
     1
102
RTVSPropertyOp23
 70
     1
102
RTVSPropertyOp24
 70
     1
102
RTVSPropertyOp25
 70
     1
102
RTVSPropertyOp26
 70
     1
102
RTVSPropertyOp27
 70
     1
102
RTVSPropertyOp28
 70
     1
102
RTVSPropertyOp29
 70
     1
102
RTVSPropertyOp30
 70
     1
102
RTVSPropertyOp31
 70
     1
102
RTVSPropertyOp32
 70
     1
102
RTVSPropertyOp33
 70
     1
102
RTVSPropertyOp34
 70
     1
102
RTVSPropertyOp35
 70
     1
102
RTVSPropertyOp36
 70
     1
102
RTVSPropertyOp37
 70
     1
102
RTVSPropertyOp38
 70
     1
102
RTVSPropertyOp39
 70
     1
102
RTVSPropertyOp40
 70
     1
102
RTVSPropertyOp41
 70
     1
102
RTVSPropertyOp42
 70
     1
102
RTVSPropertyOp43
 70
     1
102
RTVSPropertyOp44
 70
     1
102
RTVSPropertyOp45
 70
     1
102
RTVSPropertyOp46
 70
     1
102
RTVSPropertyOp47
 70
     1
102
RTVSPropertyOp48
 70
     1
102
RTVSPropertyOp49
 70
     1
102
RTVSPropertyOp50
 70
     1
102
RTVSPropertyOp51
 70
     0
102
RTVSPropertyOp52
 70
     0
102
RTVSPropertyOp53
 70
     1
102
RTVSPropertyOp54
 70
     1
102
RTVSPropertyOp55
 70
     1
102
RTVSPropertyOp56
 70
     1
102
RTVSPropertyOp57
 70
     1
102
RTVSPropertyOp58
 70
     1
102
RTVSPropertyOp59
 70
     1
102
RTVSPropertyOp60
 70
     1
102
RTVSPropertyOp61
 70
     1
102
RTVSPropertyOp62
 70
     1
  0
XRECORD
  5
96F8
102
{ACAD_REACTORS
330
96F7
102
}
330
96F7
100
AcDbXrecord
280
     1
102
RTVSPost2010Prop28
280
     0
102
RTVSPost2010PropOp28
 70
     1
102
RTVSPost2010Prop29
280
     1
102
RTVSPost2010PropOp29
 70
     1
102
RTVSPost2010Prop30
280
     1
102
RTVSPost2010PropOp30
 70
     1
102
RTVSPost2010Prop31
280
     0
102
RTVSPost2010PropOp31
 70
     1
102
RTVSPost2010Prop32
280
     0
102
RTVSPost2010PropOp32
 70
     1
102
RTVSPost2010Prop33
280
     0
102
RTVSPost2010PropOp33
 70
     1
102
RTVSPost2010Prop34
280
     0
102
RTVSPost2010PropOp34
 70
     1
102
RTVSPost2010Prop35
280
     0
102
RTVSPost2010PropOp35
 70
     1
102
RTVSPost2010Prop36
280
     0
102
RTVSPost2010PropOp36
 70
     1
102
RTVSPost2010Prop37
 90
       50
102
RTVSPost2010PropOp37
 70
     0
102
RTVSPost2010Prop38
140
0.0
102
RTVSPost2010PropOp38
 70
     0
102
RTVSPost2010Prop39
140
1.0
102
RTVSPost2010PropOp39
 70
     0
102
RTVSPost2010Prop40
 90
        0
102
RTVSPost2010PropOp40
 70
     0
102
RTVSPost2010Prop41ColorIndex
 90
       18
102
RTVSPost2010Prop41ColorRGB
 90
        0
102
RTVSPost2010PropOp41
 70
     0
102
RTVSPost2010Prop42
 90
       50
102
RTVSPost2010PropOp42
 70
     0
102
RTVSPost2010Prop43
 90
        3
102
RTVSPost2010PropOp43
 70
     0
102
RTVSPost2010Prop44ColorIndex
 90
        5
102
RTVSPost2010Prop44ColorRGB
 90
      255
102
RTVSPost2010PropOp44
 70
     0
102
RTVSPost2010Prop45
280
     0
102
RTVSPost2010PropOp45
 70
     1
102
RTVSPost2010Prop46
 90
       50
102
RTVSPost2010PropOp46
 70
     0
102
RTVSPost2010Prop47
 90
       50
102
RTVSPost2010PropOp47
 70
     0
102
RTVSPost2010Prop48
 90
       50
102
RTVSPost2010PropOp48
 70
     0
102
RTVSPost2010Prop49
280
     0
102
RTVSPost2010PropOp49
 70
     1
102
RTVSPost2010Prop50
 90
       50
102
RTVSPost2010PropOp50
 70
     0
102
RTVSPost2010Prop51ColorIndex
 90
      256
102
RTVSPost2010Prop51ColorRGB
 90
-16777216
102
RTVSPost2010PropOp51
 70
     0
102
RTVSPost2010Prop52
140
1.0
102
RTVSPost2010PropOp52
 70
     0
102
RTVSPost2010Prop53
 90
        2
102
RTVSPost2010PropOp53
 70
     0
102
RTVSPost2010Prop54
  1
strokes_ogs.tif
102
RTVSPost2010PropOp54
 70
     0
102
RTVSPost2010Prop55
280
     0
102
RTVSPost2010PropOp55
 70
     1
102
RTVSPost2010Prop56
140
1.0
102
RTVSPost2010PropOp56
 70
     0
102
RTVSPost2010Prop57
140
1.0
102
RTVSPost2010PropOp57
 70
     0
102
RTVSPropertyOp0
 70
     0
102
RTVSPropertyOp1
 70
     0
102
RTVSPropertyOp2
 70
     0
102
RTVSPropertyOp3
 70
     0
102
RTVSPropertyOp4
 70
     0
102
RTVSPropertyOp5
 70
     0
102
RTVSPropertyOp6
 70
     0
102
RTVSPropertyOp7
 70
     0
102
RTVSPropertyOp8
 70
     0
102
RTVSPropertyOp9
 70
     0
102
RTVSPropertyOp10
 70
     0
102
RTVSPropertyOp11
 70
     0
102
RTVSPropertyOp12
 70
     0
102
RTVSPropertyOp13
 70
     0
102
RTVSPropertyOp14
 70
     2
102
RTVSPropertyOp15
 70
     0
102
RTVSPropertyOp16
 70
     0
102
RTVSPropertyOp17
 70
     0
102
RTVSPropertyOp18
 70
     0
102
RTVSPropertyOp19
 70
     0
102
RTVSPropertyOp20
 70
     0
102
RTVSPropertyOp21
 70
     0
102
RTVSPropertyOp22
 70
     0
102
RTVSPropertyOp23
 70
     0
102
RTVSPropertyOp24
 70
     0
102
RTVSPropertyOp25
 70
     0
102
RTVSPropertyOp26
 70
     0
102
RTVSPropertyOp27
 70
     0
102
RTVSPropertyOp28
 70
     1
102
RTVSPropertyOp29
 70
     1
102
RTVSPropertyOp30
 70
     1
102
RTVSPropertyOp31
 70
     1
102
RTVSPropertyOp32
 70
     1
102
RTVSPropertyOp33
 70
     1
102
RTVSPropertyOp34
 70
     1
102
RTVSPropertyOp35
 70
     1
102
RTVSPropertyOp36
 70
     1
102
RTVSPropertyOp37
 70
     0
102
RTVSPropertyOp38
 70
     0
102
RTVSPropertyOp39
 70
     0
102
RTVSPropertyOp40
 70
     0
102
RTVSPropertyOp41
 70
     0
102
RTVSPropertyOp42
 70
     0
102
RTVSPropertyOp43
 70
     0
102
RTVSPropertyOp44
 70
     0
102
RTVSPropertyOp45
 70
     1
102
RTVSPropertyOp46
 70
     0
102
RTVSPropertyOp47
 70
     0
102
RTVSPropertyOp48
 70
     0
102
RTVSPropertyOp49
 70
     1
102
RTVSPropertyOp50
 70
     0
102
RTVSPropertyOp51
 70
     0
102
RTVSPropertyOp52
 70
     0
102
RTVSPropertyOp53
 70
     0
102
RTVSPropertyOp54
 70
     0
102
RTVSPropertyOp55
 70
     1
102
RTVSPropertyOp56
 70
     0
102
RTVSPropertyOp57
 70
     0
102
RTVSPropertyOp58
 70
     0
102
RTVSPropertyOp59
 70
     0
102
RTVSPropertyOp60
 70
     0
102
RTVSPropertyOp61
 70
     0
102
RTVSPropertyOp62
 70
     0
  0
XRECORD
  5
96DE
102
{ACAD_REACTORS
330
96DD
102
}
330
96DD
100
AcDbXrecord
280
     1
102
RTVSPost2010Prop28
280
     0
102
RTVSPost2010PropOp28
 70
     1
102
RTVSPost2010Prop29
280
     1
102
RTVSPost2010PropOp29
 70
     1
102
RTVSPost2010Prop30
280
     1
102
RTVSPost2010PropOp30
 70
     1
102
RTVSPost2010Prop31
280
     0
102
RTVSPost2010PropOp31
 70
     1
102
RTVSPost2010Prop32
280
     0
102
RTVSPost2010PropOp32
 70
     1
102
RTVSPost2010Prop33
280
     0
102
RTVSPost2010PropOp33
 70
     1
102
RTVSPost2010Prop34
280
     0
102
RTVSPost2010PropOp34
 70
     1
102
RTVSPost2010Prop35
280
     0
102
RTVSPost2010PropOp35
 70
     1
102
RTVSPost2010Prop36
280
     0
102
RTVSPost2010PropOp36
 70
     1
102
RTVSPost2010Prop37
 90
       50
102
RTVSPost2010PropOp37
 70
     1
102
RTVSPost2010Prop38
140
0.0
102
RTVSPost2010PropOp38
 70
     1
102
RTVSPost2010Prop39
140
1.0
102
RTVSPost2010PropOp39
 70
     1
102
RTVSPost2010Prop40
 90
        0
102
RTVSPost2010PropOp40
 70
     1
102
RTVSPost2010Prop41ColorIndex
 90
       18
102
RTVSPost2010Prop41ColorRGB
 90
        0
102
RTVSPost2010PropOp41
 70
     1
102
RTVSPost2010Prop42
 90
       50
102
RTVSPost2010PropOp42
 70
     1
102
RTVSPost2010Prop43
 90
        3
102
RTVSPost2010PropOp43
 70
     1
102
RTVSPost2010Prop44ColorIndex
 90
        5
102
RTVSPost2010Prop44ColorRGB
 90
      255
102
RTVSPost2010PropOp44
 70
     1
102
RTVSPost2010Prop45
280
     0
102
RTVSPost2010PropOp45
 70
     1
102
RTVSPost2010Prop46
 90
       50
102
RTVSPost2010PropOp46
 70
     1
102
RTVSPost2010Prop47
 90
       50
102
RTVSPost2010PropOp47
 70
     1
102
RTVSPost2010Prop48
 90
       50
102
RTVSPost2010PropOp48
 70
     1
102
RTVSPost2010Prop49
280
     0
102
RTVSPost2010PropOp49
 70
     1
102
RTVSPost2010Prop50
 90
       50
102
RTVSPost2010PropOp50
 70
     1
102
RTVSPost2010Prop51ColorIndex
 90
      256
102
RTVSPost2010Prop51ColorRGB
 90
-16777216
102
RTVSPost2010PropOp51
 70
     0
102
RTVSPost2010Prop52
140
1.0
102
RTVSPost2010PropOp52
 70
     0
102
RTVSPost2010Prop53
 90
        2
102
RTVSPost2010PropOp53
 70
     1
102
RTVSPost2010Prop54
  1
strokes_ogs.tif
102
RTVSPost2010PropOp54
 70
     1
102
RTVSPost2010Prop55
280
     0
102
RTVSPost2010PropOp55
 70
     1
102
RTVSPost2010Prop56
140
1.0
102
RTVSPost2010PropOp56
 70
     1
102
RTVSPost2010Prop57
140
1.0
102
RTVSPost2010PropOp57
 70
     1
102
RTVSPropertyOp0
 70
     1
102
RTVSPropertyOp1
 70
     1
102
RTVSPropertyOp2
 70
     1
102
RTVSPropertyOp3
 70
     1
102
RTVSPropertyOp4
 70
     1
102
RTVSPropertyOp5
 70
     1
102
RTVSPropertyOp6
 70
     1
102
RTVSPropertyOp7
 70
     1
102
RTVSPropertyOp8
 70
     1
102
RTVSPropertyOp9
 70
     1
102
RTVSPropertyOp10
 70
     1
102
RTVSPropertyOp11
 70
     1
102
RTVSPropertyOp12
 70
     1
102
RTVSPropertyOp13
 70
     1
102
RTVSPropertyOp14
 70
     1
102
RTVSPropertyOp15
 70
     1
102
RTVSPropertyOp16
 70
     1
102
RTVSPropertyOp17
 70
     1
102
RTVSPropertyOp18
 70
     1
102
RTVSPropertyOp19
 70
     1
102
RTVSPropertyOp20
 70
     1
102
RTVSPropertyOp21
 70
     1
102
RTVSPropertyOp22
 70
     1
102
RTVSPropertyOp23
 70
     1
102
RTVSPropertyOp24
 70
     1
102
RTVSPropertyOp25
 70
     1
102
RTVSPropertyOp26
 70
     1
102
RTVSPropertyOp27
 70
     1
102
RTVSPropertyOp28
 70
     1
102
RTVSPropertyOp29
 70
     1
102
RTVSPropertyOp30
 70
     1
102
RTVSPropertyOp31
 70
     1
102
RTVSPropertyOp32
 70
     1
102
RTVSPropertyOp33
 70
     1
102
RTVSPropertyOp34
 70
     1
102
RTVSPropertyOp35
 70
     1
102
RTVSPropertyOp36
 70
     1
102
RTVSPropertyOp37
 70
     1
102
RTVSPropertyOp38
 70
     1
102
RTVSPropertyOp39
 70
     1
102
RTVSPropertyOp40
 70
     1
102
RTVSPropertyOp41
 70
     1
102
RTVSPropertyOp42
 70
     1
102
RTVSPropertyOp43
 70
     1
102
RTVSPropertyOp44
 70
     1
102
RTVSPropertyOp45
 70
     1
102
RTVSPropertyOp46
 70
     1
102
RTVSPropertyOp47
 70
     1
102
RTVSPropertyOp48
 70
     1
102
RTVSPropertyOp49
 70
     1
102
RTVSPropertyOp50
 70
     1
102
RTVSPropertyOp51
 70
     0
102
RTVSPropertyOp52
 70
     0
102
RTVSPropertyOp53
 70
     1
102
RTVSPropertyOp54
 70
     1
102
RTVSPropertyOp55
 70
     1
102
RTVSPropertyOp56
 70
     1
102
RTVSPropertyOp57
 70
     1
102
RTVSPropertyOp58
 70
     1
102
RTVSPropertyOp59
 70
     1
102
RTVSPropertyOp60
 70
     1
102
RTVSPropertyOp61
 70
     1
102
RTVSPropertyOp62
 70
     1
  0
XRECORD
  5
96F4
102
{ACAD_REACTORS
330
96F3
102
}
330
96F3
100
AcDbXrecord
280
     1
102
RTVSPost2010Prop28
280
     0
102
RTVSPost2010PropOp28
 70
     1
102
RTVSPost2010Prop29
280
     1
102
RTVSPost2010PropOp29
 70
     1
102
RTVSPost2010Prop30
280
     1
102
RTVSPost2010PropOp30
 70
     1
102
RTVSPost2010Prop31
280
     0
102
RTVSPost2010PropOp31
 70
     1
102
RTVSPost2010Prop32
280
     0
102
RTVSPost2010PropOp32
 70
     1
102
RTVSPost2010Prop33
280
     0
102
RTVSPost2010PropOp33
 70
     1
102
RTVSPost2010Prop34
280
     0
102
RTVSPost2010PropOp34
 70
     1
102
RTVSPost2010Prop35
280
     0
102
RTVSPost2010PropOp35
 70
     1
102
RTVSPost2010Prop36
280
     0
102
RTVSPost2010PropOp36
 70
     1
102
RTVSPost2010Prop37
 90
       50
102
RTVSPost2010PropOp37
 70
     1
102
RTVSPost2010Prop38
140
0.0
102
RTVSPost2010PropOp38
 70
     1
102
RTVSPost2010Prop39
140
1.0
102
RTVSPost2010PropOp39
 70
     1
102
RTVSPost2010Prop40
 90
        0
102
RTVSPost2010PropOp40
 70
     1
102
RTVSPost2010Prop41ColorIndex
 90
       18
102
RTVSPost2010Prop41ColorRGB
 90
        0
102
RTVSPost2010PropOp41
 70
     1
102
RTVSPost2010Prop42
 90
       50
102
RTVSPost2010PropOp42
 70
     1
102
RTVSPost2010Prop43
 90
        3
102
RTVSPost2010PropOp43
 70
     1
102
RTVSPost2010Prop44ColorIndex
 90
        5
102
RTVSPost2010Prop44ColorRGB
 90
      255
102
RTVSPost2010PropOp44
 70
     1
102
RTVSPost2010Prop45
280
     0
102
RTVSPost2010PropOp45
 70
     1
102
RTVSPost2010Prop46
 90
       50
102
RTVSPost2010PropOp46
 70
     1
102
RTVSPost2010Prop47
 90
       50
102
RTVSPost2010PropOp47
 70
     1
102
RTVSPost2010Prop48
 90
       50
102
RTVSPost2010PropOp48
 70
     1
102
RTVSPost2010Prop49
280
     0
102
RTVSPost2010PropOp49
 70
     1
102
RTVSPost2010Prop50
 90
       50
102
RTVSPost2010PropOp50
 70
     1
102
RTVSPost2010Prop51ColorIndex
 90
      256
102
RTVSPost2010Prop51ColorRGB
 90
-16777216
102
RTVSPost2010PropOp51
 70
     0
102
RTVSPost2010Prop52
140
1.0
102
RTVSPost2010PropOp52
 70
     0
102
RTVSPost2010Prop53
 90
        2
102
RTVSPost2010PropOp53
 70
     1
102
RTVSPost2010Prop54
  1
strokes_ogs.tif
102
RTVSPost2010PropOp54
 70
     1
102
RTVSPost2010Prop55
280
     0
102
RTVSPost2010PropOp55
 70
     1
102
RTVSPost2010Prop56
140
1.0
102
RTVSPost2010PropOp56
 70
     1
102
RTVSPost2010Prop57
140
1.0
102
RTVSPost2010PropOp57
 70
     1
102
RTVSPropertyOp0
 70
     1
102
RTVSPropertyOp1
 70
     1
102
RTVSPropertyOp2
 70
     1
102
RTVSPropertyOp3
 70
     1
102
RTVSPropertyOp4
 70
     1
102
RTVSPropertyOp5
 70
     1
102
RTVSPropertyOp6
 70
     1
102
RTVSPropertyOp7
 70
     1
102
RTVSPropertyOp8
 70
     1
102
RTVSPropertyOp9
 70
     1
102
RTVSPropertyOp10
 70
     1
102
RTVSPropertyOp11
 70
     1
102
RTVSPropertyOp12
 70
     1
102
RTVSPropertyOp13
 70
     1
102
RTVSPropertyOp14
 70
     1
102
RTVSPropertyOp15
 70
     1
102
RTVSPropertyOp16
 70
     1
102
RTVSPropertyOp17
 70
     1
102
RTVSPropertyOp18
 70
     1
102
RTVSPropertyOp19
 70
     1
102
RTVSPropertyOp20
 70
     1
102
RTVSPropertyOp21
 70
     1
102
RTVSPropertyOp22
 70
     1
102
RTVSPropertyOp23
 70
     1
102
RTVSPropertyOp24
 70
     1
102
RTVSPropertyOp25
 70
     1
102
RTVSPropertyOp26
 70
     1
102
RTVSPropertyOp27
 70
     1
102
RTVSPropertyOp28
 70
     1
102
RTVSPropertyOp29
 70
     1
102
RTVSPropertyOp30
 70
     1
102
RTVSPropertyOp31
 70
     1
102
RTVSPropertyOp32
 70
     1
102
RTVSPropertyOp33
 70
     1
102
RTVSPropertyOp34
 70
     1
102
RTVSPropertyOp35
 70
     1
102
RTVSPropertyOp36
 70
     1
102
RTVSPropertyOp37
 70
     1
102
RTVSPropertyOp38
 70
     1
102
RTVSPropertyOp39
 70
     1
102
RTVSPropertyOp40
 70
     1
102
RTVSPropertyOp41
 70
     1
102
RTVSPropertyOp42
 70
     1
102
RTVSPropertyOp43
 70
     1
102
RTVSPropertyOp44
 70
     1
102
RTVSPropertyOp45
 70
     1
102
RTVSPropertyOp46
 70
     1
102
RTVSPropertyOp47
 70
     1
102
RTVSPropertyOp48
 70
     1
102
RTVSPropertyOp49
 70
     1
102
RTVSPropertyOp50
 70
     1
102
RTVSPropertyOp51
 70
     0
102
RTVSPropertyOp52
 70
     0
102
RTVSPropertyOp53
 70
     1
102
RTVSPropertyOp54
 70
     1
102
RTVSPropertyOp55
 70
     1
102
RTVSPropertyOp56
 70
     1
102
RTVSPropertyOp57
 70
     1
102
RTVSPropertyOp58
 70
     1
102
RTVSPropertyOp59
 70
     1
102
RTVSPropertyOp60
 70
     1
102
RTVSPropertyOp61
 70
     1
102
RTVSPropertyOp62
 70
     1
  0
XRECORD
  5
96F2
102
{ACAD_REACTORS
330
96F1
102
}
330
96F1
100
AcDbXrecord
280
     1
102
RTVSPost2010Prop28
280
     0
102
RTVSPost2010PropOp28
 70
     1
102
RTVSPost2010Prop29
280
     1
102
RTVSPost2010PropOp29
 70
     1
102
RTVSPost2010Prop30
280
     1
102
RTVSPost2010PropOp30
 70
     1
102
RTVSPost2010Prop31
280
     0
102
RTVSPost2010PropOp31
 70
     1
102
RTVSPost2010Prop32
280
     0
102
RTVSPost2010PropOp32
 70
     1
102
RTVSPost2010Prop33
280
     0
102
RTVSPost2010PropOp33
 70
     1
102
RTVSPost2010Prop34
280
     0
102
RTVSPost2010PropOp34
 70
     1
102
RTVSPost2010Prop35
280
     0
102
RTVSPost2010PropOp35
 70
     1
102
RTVSPost2010Prop36
280
     0
102
RTVSPost2010PropOp36
 70
     1
102
RTVSPost2010Prop37
 90
       50
102
RTVSPost2010PropOp37
 70
     1
102
RTVSPost2010Prop38
140
0.0
102
RTVSPost2010PropOp38
 70
     1
102
RTVSPost2010Prop39
140
1.0
102
RTVSPost2010PropOp39
 70
     1
102
RTVSPost2010Prop40
 90
        0
102
RTVSPost2010PropOp40
 70
     1
102
RTVSPost2010Prop41ColorIndex
 90
       18
102
RTVSPost2010Prop41ColorRGB
 90
        0
102
RTVSPost2010PropOp41
 70
     1
102
RTVSPost2010Prop42
 90
       50
102
RTVSPost2010PropOp42
 70
     1
102
RTVSPost2010Prop43
 90
        3
102
RTVSPost2010PropOp43
 70
     1
102
RTVSPost2010Prop44ColorIndex
 90
        5
102
RTVSPost2010Prop44ColorRGB
 90
      255
102
RTVSPost2010PropOp44
 70
     1
102
RTVSPost2010Prop45
280
     0
102
RTVSPost2010PropOp45
 70
     1
102
RTVSPost2010Prop46
 90
       50
102
RTVSPost2010PropOp46
 70
     1
102
RTVSPost2010Prop47
 90
       50
102
RTVSPost2010PropOp47
 70
     1
102
RTVSPost2010Prop48
 90
       50
102
RTVSPost2010PropOp48
 70
     1
102
RTVSPost2010Prop49
280
     0
102
RTVSPost2010PropOp49
 70
     1
102
RTVSPost2010Prop50
 90
       50
102
RTVSPost2010PropOp50
 70
     1
102
RTVSPost2010Prop51ColorIndex
 90
      256
102
RTVSPost2010Prop51ColorRGB
 90
-16777216
102
RTVSPost2010PropOp51
 70
     0
102
RTVSPost2010Prop52
140
1.0
102
RTVSPost2010PropOp52
 70
     0
102
RTVSPost2010Prop53
 90
        2
102
RTVSPost2010PropOp53
 70
     1
102
RTVSPost2010Prop54
  1
strokes_ogs.tif
102
RTVSPost2010PropOp54
 70
     1
102
RTVSPost2010Prop55
280
     0
102
RTVSPost2010PropOp55
 70
     1
102
RTVSPost2010Prop56
140
1.0
102
RTVSPost2010PropOp56
 70
     1
102
RTVSPost2010Prop57
140
1.0
102
RTVSPost2010PropOp57
 70
     1
102
RTVSPropertyOp0
 70
     1
102
RTVSPropertyOp1
 70
     1
102
RTVSPropertyOp2
 70
     1
102
RTVSPropertyOp3
 70
     1
102
RTVSPropertyOp4
 70
     1
102
RTVSPropertyOp5
 70
     1
102
RTVSPropertyOp6
 70
     1
102
RTVSPropertyOp7
 70
     1
102
RTVSPropertyOp8
 70
     1
102
RTVSPropertyOp9
 70
     1
102
RTVSPropertyOp10
 70
     1
102
RTVSPropertyOp11
 70
     1
102
RTVSPropertyOp12
 70
     1
102
RTVSPropertyOp13
 70
     1
102
RTVSPropertyOp14
 70
     1
102
RTVSPropertyOp15
 70
     1
102
RTVSPropertyOp16
 70
     1
102
RTVSPropertyOp17
 70
     1
102
RTVSPropertyOp18
 70
     1
102
RTVSPropertyOp19
 70
     1
102
RTVSPropertyOp20
 70
     1
102
RTVSPropertyOp21
 70
     1
102
RTVSPropertyOp22
 70
     1
102
RTVSPropertyOp23
 70
     1
102
RTVSPropertyOp24
 70
     1
102
RTVSPropertyOp25
 70
     1
102
RTVSPropertyOp26
 70
     1
102
RTVSPropertyOp27
 70
     1
102
RTVSPropertyOp28
 70
     1
102
RTVSPropertyOp29
 70
     1
102
RTVSPropertyOp30
 70
     1
102
RTVSPropertyOp31
 70
     1
102
RTVSPropertyOp32
 70
     1
102
RTVSPropertyOp33
 70
     1
102
RTVSPropertyOp34
 70
     1
102
RTVSPropertyOp35
 70
     1
102
RTVSPropertyOp36
 70
     1
102
RTVSPropertyOp37
 70
     1
102
RTVSPropertyOp38
 70
     1
102
RTVSPropertyOp39
 70
     1
102
RTVSPropertyOp40
 70
     1
102
RTVSPropertyOp41
 70
     1
102
RTVSPropertyOp42
 70
     1
102
RTVSPropertyOp43
 70
     1
102
RTVSPropertyOp44
 70
     1
102
RTVSPropertyOp45
 70
     1
102
RTVSPropertyOp46
 70
     1
102
RTVSPropertyOp47
 70
     1
102
RTVSPropertyOp48
 70
     1
102
RTVSPropertyOp49
 70
     1
102
RTVSPropertyOp50
 70
     1
102
RTVSPropertyOp51
 70
     0
102
RTVSPropertyOp52
 70
     0
102
RTVSPropertyOp53
 70
     1
102
RTVSPropertyOp54
 70
     1
102
RTVSPropertyOp55
 70
     1
102
RTVSPropertyOp56
 70
     1
102
RTVSPropertyOp57
 70
     1
102
RTVSPropertyOp58
 70
     1
102
RTVSPropertyOp59
 70
     1
102
RTVSPropertyOp60
 70
     1
102
RTVSPropertyOp61
 70
     1
102
RTVSPropertyOp62
 70
     1
  0
XRECORD
  5
96EC
102
{ACAD_REACTORS
330
96EB
102
}
330
96EB
100
AcDbXrecord
280
     1
102
RTVSPost2010Prop28
280
     0
102
RTVSPost2010PropOp28
 70
     1
102
RTVSPost2010Prop29
280
     1
102
RTVSPost2010PropOp29
 70
     1
102
RTVSPost2010Prop30
280
     1
102
RTVSPost2010PropOp30
 70
     1
102
RTVSPost2010Prop31
280
     0
102
RTVSPost2010PropOp31
 70
     1
102
RTVSPost2010Prop32
280
     0
102
RTVSPost2010PropOp32
 70
     1
102
RTVSPost2010Prop33
280
     0
102
RTVSPost2010PropOp33
 70
     1
102
RTVSPost2010Prop34
280
     0
102
RTVSPost2010PropOp34
 70
     1
102
RTVSPost2010Prop35
280
     0
102
RTVSPost2010PropOp35
 70
     1
102
RTVSPost2010Prop36
280
     0
102
RTVSPost2010PropOp36
 70
     1
102
RTVSPost2010Prop37
 90
       50
102
RTVSPost2010PropOp37
 70
     1
102
RTVSPost2010Prop38
140
0.0
102
RTVSPost2010PropOp38
 70
     1
102
RTVSPost2010Prop39
140
1.0
102
RTVSPost2010PropOp39
 70
     1
102
RTVSPost2010Prop40
 90
        0
102
RTVSPost2010PropOp40
 70
     1
102
RTVSPost2010Prop41ColorIndex
 90
       18
102
RTVSPost2010Prop41ColorRGB
 90
        0
102
RTVSPost2010PropOp41
 70
     1
102
RTVSPost2010Prop42
 90
       50
102
RTVSPost2010PropOp42
 70
     1
102
RTVSPost2010Prop43
 90
        3
102
RTVSPost2010PropOp43
 70
     1
102
RTVSPost2010Prop44ColorIndex
 90
        5
102
RTVSPost2010Prop44ColorRGB
 90
      255
102
RTVSPost2010PropOp44
 70
     1
102
RTVSPost2010Prop45
280
     0
102
RTVSPost2010PropOp45
 70
     1
102
RTVSPost2010Prop46
 90
       50
102
RTVSPost2010PropOp46
 70
     1
102
RTVSPost2010Prop47
 90
       50
102
RTVSPost2010PropOp47
 70
     1
102
RTVSPost2010Prop48
 90
       50
102
RTVSPost2010PropOp48
 70
     1
102
RTVSPost2010Prop49
280
     0
102
RTVSPost2010PropOp49
 70
     1
102
RTVSPost2010Prop50
 90
       50
102
RTVSPost2010PropOp50
 70
     1
102
RTVSPost2010Prop51ColorIndex
 90
      256
102
RTVSPost2010Prop51ColorRGB
 90
-16777216
102
RTVSPost2010PropOp51
 70
     0
102
RTVSPost2010Prop52
140
1.0
102
RTVSPost2010PropOp52
 70
     0
102
RTVSPost2010Prop53
 90
        2
102
RTVSPost2010PropOp53
 70
     1
102
RTVSPost2010Prop54
  1
strokes_ogs.tif
102
RTVSPost2010PropOp54
 70
     1
102
RTVSPost2010Prop55
280
     0
102
RTVSPost2010PropOp55
 70
     1
102
RTVSPost2010Prop56
140
1.0
102
RTVSPost2010PropOp56
 70
     1
102
RTVSPost2010Prop57
140
1.0
102
RTVSPost2010PropOp57
 70
     1
102
RTVSPropertyOp0
 70
     1
102
RTVSPropertyOp1
 70
     1
102
RTVSPropertyOp2
 70
     1
102
RTVSPropertyOp3
 70
     1
102
RTVSPropertyOp4
 70
     1
102
RTVSPropertyOp5
 70
     1
102
RTVSPropertyOp6
 70
     1
102
RTVSPropertyOp7
 70
     1
102
RTVSPropertyOp8
 70
     1
102
RTVSPropertyOp9
 70
     1
102
RTVSPropertyOp10
 70
     1
102
RTVSPropertyOp11
 70
     1
102
RTVSPropertyOp12
 70
     1
102
RTVSPropertyOp13
 70
     1
102
RTVSPropertyOp14
 70
     1
102
RTVSPropertyOp15
 70
     1
102
RTVSPropertyOp16
 70
     1
102
RTVSPropertyOp17
 70
     1
102
RTVSPropertyOp18
 70
     1
102
RTVSPropertyOp19
 70
     1
102
RTVSPropertyOp20
 70
     1
102
RTVSPropertyOp21
 70
     1
102
RTVSPropertyOp22
 70
     1
102
RTVSPropertyOp23
 70
     1
102
RTVSPropertyOp24
 70
     1
102
RTVSPropertyOp25
 70
     1
102
RTVSPropertyOp26
 70
     1
102
RTVSPropertyOp27
 70
     1
102
RTVSPropertyOp28
 70
     1
102
RTVSPropertyOp29
 70
     1
102
RTVSPropertyOp30
 70
     1
102
RTVSPropertyOp31
 70
     1
102
RTVSPropertyOp32
 70
     1
102
RTVSPropertyOp33
 70
     1
102
RTVSPropertyOp34
 70
     1
102
RTVSPropertyOp35
 70
     1
102
RTVSPropertyOp36
 70
     1
102
RTVSPropertyOp37
 70
     1
102
RTVSPropertyOp38
 70
     1
102
RTVSPropertyOp39
 70
     1
102
RTVSPropertyOp40
 70
     1
102
RTVSPropertyOp41
 70
     1
102
RTVSPropertyOp42
 70
     1
102
RTVSPropertyOp43
 70
     1
102
RTVSPropertyOp44
 70
     1
102
RTVSPropertyOp45
 70
     1
102
RTVSPropertyOp46
 70
     1
102
RTVSPropertyOp47
 70
     1
102
RTVSPropertyOp48
 70
     1
102
RTVSPropertyOp49
 70
     1
102
RTVSPropertyOp50
 70
     1
102
RTVSPropertyOp51
 70
     0
102
RTVSPropertyOp52
 70
     0
102
RTVSPropertyOp53
 70
     1
102
RTVSPropertyOp54
 70
     1
102
RTVSPropertyOp55
 70
     1
102
RTVSPropertyOp56
 70
     1
102
RTVSPropertyOp57
 70
     1
102
RTVSPropertyOp58
 70
     1
102
RTVSPropertyOp59
 70
     1
102
RTVSPropertyOp60
 70
     1
102
RTVSPropertyOp61
 70
     1
102
RTVSPropertyOp62
 70
     1
  0
XRECORD
  5
96EE
102
{ACAD_REACTORS
330
96ED
102
}
330
96ED
100
AcDbXrecord
280
     1
102
RTVSPost2010Prop28
280
     0
102
RTVSPost2010PropOp28
 70
     1
102
RTVSPost2010Prop29
280
     1
102
RTVSPost2010PropOp29
 70
     1
102
RTVSPost2010Prop30
280
     1
102
RTVSPost2010PropOp30
 70
     1
102
RTVSPost2010Prop31
280
     0
102
RTVSPost2010PropOp31
 70
     1
102
RTVSPost2010Prop32
280
     0
102
RTVSPost2010PropOp32
 70
     1
102
RTVSPost2010Prop33
280
     0
102
RTVSPost2010PropOp33
 70
     1
102
RTVSPost2010Prop34
280
     0
102
RTVSPost2010PropOp34
 70
     1
102
RTVSPost2010Prop35
280
     0
102
RTVSPost2010PropOp35
 70
     1
102
RTVSPost2010Prop36
280
     0
102
RTVSPost2010PropOp36
 70
     1
102
RTVSPost2010Prop37
 90
       50
102
RTVSPost2010PropOp37
 70
     1
102
RTVSPost2010Prop38
140
0.0
102
RTVSPost2010PropOp38
 70
     1
102
RTVSPost2010Prop39
140
1.0
102
RTVSPost2010PropOp39
 70
     1
102
RTVSPost2010Prop40
 90
        0
102
RTVSPost2010PropOp40
 70
     1
102
RTVSPost2010Prop41ColorIndex
 90
       18
102
RTVSPost2010Prop41ColorRGB
 90
        0
102
RTVSPost2010PropOp41
 70
     1
102
RTVSPost2010Prop42
 90
       50
102
RTVSPost2010PropOp42
 70
     1
102
RTVSPost2010Prop43
 90
        3
102
RTVSPost2010PropOp43
 70
     1
102
RTVSPost2010Prop44ColorIndex
 90
        5
102
RTVSPost2010Prop44ColorRGB
 90
      255
102
RTVSPost2010PropOp44
 70
     1
102
RTVSPost2010Prop45
280
     0
102
RTVSPost2010PropOp45
 70
     1
102
RTVSPost2010Prop46
 90
       50
102
RTVSPost2010PropOp46
 70
     1
102
RTVSPost2010Prop47
 90
       50
102
RTVSPost2010PropOp47
 70
     1
102
RTVSPost2010Prop48
 90
       50
102
RTVSPost2010PropOp48
 70
     1
102
RTVSPost2010Prop49
280
     0
102
RTVSPost2010PropOp49
 70
     1
102
RTVSPost2010Prop50
 90
       50
102
RTVSPost2010PropOp50
 70
     1
102
RTVSPost2010Prop51ColorIndex
 90
      256
102
RTVSPost2010Prop51ColorRGB
 90
-16777216
102
RTVSPost2010PropOp51
 70
     0
102
RTVSPost2010Prop52
140
1.0
102
RTVSPost2010PropOp52
 70
     0
102
RTVSPost2010Prop53
 90
        2
102
RTVSPost2010PropOp53
 70
     1
102
RTVSPost2010Prop54
  1
strokes_ogs.tif
102
RTVSPost2010PropOp54
 70
     1
102
RTVSPost2010Prop55
280
     0
102
RTVSPost2010PropOp55
 70
     1
102
RTVSPost2010Prop56
140
1.0
102
RTVSPost2010PropOp56
 70
     1
102
RTVSPost2010Prop57
140
1.0
102
RTVSPost2010PropOp57
 70
     1
102
RTVSPropertyOp0
 70
     1
102
RTVSPropertyOp1
 70
     1
102
RTVSPropertyOp2
 70
     1
102
RTVSPropertyOp3
 70
     1
102
RTVSPropertyOp4
 70
     1
102
RTVSPropertyOp5
 70
     1
102
RTVSPropertyOp6
 70
     1
102
RTVSPropertyOp7
 70
     1
102
RTVSPropertyOp8
 70
     1
102
RTVSPropertyOp9
 70
     1
102
RTVSPropertyOp10
 70
     1
102
RTVSPropertyOp11
 70
     1
102
RTVSPropertyOp12
 70
     1
102
RTVSPropertyOp13
 70
     1
102
RTVSPropertyOp14
 70
     1
102
RTVSPropertyOp15
 70
     1
102
RTVSPropertyOp16
 70
     1
102
RTVSPropertyOp17
 70
     1
102
RTVSPropertyOp18
 70
     1
102
RTVSPropertyOp19
 70
     1
102
RTVSPropertyOp20
 70
     1
102
RTVSPropertyOp21
 70
     1
102
RTVSPropertyOp22
 70
     1
102
RTVSPropertyOp23
 70
     1
102
RTVSPropertyOp24
 70
     1
102
RTVSPropertyOp25
 70
     1
102
RTVSPropertyOp26
 70
     1
102
RTVSPropertyOp27
 70
     1
102
RTVSPropertyOp28
 70
     1
102
RTVSPropertyOp29
 70
     1
102
RTVSPropertyOp30
 70
     1
102
RTVSPropertyOp31
 70
     1
102
RTVSPropertyOp32
 70
     1
102
RTVSPropertyOp33
 70
     1
102
RTVSPropertyOp34
 70
     1
102
RTVSPropertyOp35
 70
     1
102
RTVSPropertyOp36
 70
     1
102
RTVSPropertyOp37
 70
     1
102
RTVSPropertyOp38
 70
     1
102
RTVSPropertyOp39
 70
     1
102
RTVSPropertyOp40
 70
     1
102
RTVSPropertyOp41
 70
     1
102
RTVSPropertyOp42
 70
     1
102
RTVSPropertyOp43
 70
     1
102
RTVSPropertyOp44
 70
     1
102
RTVSPropertyOp45
 70
     1
102
RTVSPropertyOp46
 70
     1
102
RTVSPropertyOp47
 70
     1
102
RTVSPropertyOp48
 70
     1
102
RTVSPropertyOp49
 70
     1
102
RTVSPropertyOp50
 70
     1
102
RTVSPropertyOp51
 70
     0
102
RTVSPropertyOp52
 70
     0
102
RTVSPropertyOp53
 70
     1
102
RTVSPropertyOp54
 70
     1
102
RTVSPropertyOp55
 70
     1
102
RTVSPropertyOp56
 70
     1
102
RTVSPropertyOp57
 70
     1
102
RTVSPropertyOp58
 70
     1
102
RTVSPropertyOp59
 70
     1
102
RTVSPropertyOp60
 70
     1
102
RTVSPropertyOp61
 70
     1
102
RTVSPropertyOp62
 70
     1
  0
XRECORD
  5
96E4
102
{ACAD_REACTORS
330
96E3
102
}
330
96E3
100
AcDbXrecord
280
     1
102
RTVSPost2010Prop28
280
     0
102
RTVSPost2010PropOp28
 70
     1
102
RTVSPost2010Prop29
280
     1
102
RTVSPost2010PropOp29
 70
     1
102
RTVSPost2010Prop30
280
     1
102
RTVSPost2010PropOp30
 70
     1
102
RTVSPost2010Prop31
280
     0
102
RTVSPost2010PropOp31
 70
     1
102
RTVSPost2010Prop32
280
     0
102
RTVSPost2010PropOp32
 70
     1
102
RTVSPost2010Prop33
280
     0
102
RTVSPost2010PropOp33
 70
     1
102
RTVSPost2010Prop34
280
     0
102
RTVSPost2010PropOp34
 70
     1
102
RTVSPost2010Prop35
280
     0
102
RTVSPost2010PropOp35
 70
     1
102
RTVSPost2010Prop36
280
     0
102
RTVSPost2010PropOp36
 70
     1
102
RTVSPost2010Prop37
 90
       50
102
RTVSPost2010PropOp37
 70
     1
102
RTVSPost2010Prop38
140
0.0
102
RTVSPost2010PropOp38
 70
     1
102
RTVSPost2010Prop39
140
1.0
102
RTVSPost2010PropOp39
 70
     1
102
RTVSPost2010Prop40
 90
        0
102
RTVSPost2010PropOp40
 70
     1
102
RTVSPost2010Prop41ColorIndex
 90
       18
102
RTVSPost2010Prop41ColorRGB
 90
        0
102
RTVSPost2010PropOp41
 70
     1
102
RTVSPost2010Prop42
 90
       50
102
RTVSPost2010PropOp42
 70
     1
102
RTVSPost2010Prop43
 90
        3
102
RTVSPost2010PropOp43
 70
     1
102
RTVSPost2010Prop44ColorIndex
 90
        5
102
RTVSPost2010Prop44ColorRGB
 90
      255
102
RTVSPost2010PropOp44
 70
     1
102
RTVSPost2010Prop45
280
     0
102
RTVSPost2010PropOp45
 70
     1
102
RTVSPost2010Prop46
 90
       50
102
RTVSPost2010PropOp46
 70
     1
102
RTVSPost2010Prop47
 90
       50
102
RTVSPost2010PropOp47
 70
     1
102
RTVSPost2010Prop48
 90
       50
102
RTVSPost2010PropOp48
 70
     1
102
RTVSPost2010Prop49
280
     0
102
RTVSPost2010PropOp49
 70
     1
102
RTVSPost2010Prop50
 90
       50
102
RTVSPost2010PropOp50
 70
     1
102
RTVSPost2010Prop51ColorIndex
 90
      256
102
RTVSPost2010Prop51ColorRGB
 90
-16777216
102
RTVSPost2010PropOp51
 70
     0
102
RTVSPost2010Prop52
140
1.0
102
RTVSPost2010PropOp52
 70
     0
102
RTVSPost2010Prop53
 90
        2
102
RTVSPost2010PropOp53
 70
     1
102
RTVSPost2010Prop54
  1
strokes_ogs.tif
102
RTVSPost2010PropOp54
 70
     1
102
RTVSPost2010Prop55
280
     0
102
RTVSPost2010PropOp55
 70
     1
102
RTVSPost2010Prop56
140
1.0
102
RTVSPost2010PropOp56
 70
     1
102
RTVSPost2010Prop57
140
1.0
102
RTVSPost2010PropOp57
 70
     1
102
RTVSPropertyOp0
 70
     1
102
RTVSPropertyOp1
 70
     1
102
RTVSPropertyOp2
 70
     1
102
RTVSPropertyOp3
 70
     1
102
RTVSPropertyOp4
 70
     1
102
RTVSPropertyOp5
 70
     1
102
RTVSPropertyOp6
 70
     1
102
RTVSPropertyOp7
 70
     1
102
RTVSPropertyOp8
 70
     1
102
RTVSPropertyOp9
 70
     1
102
RTVSPropertyOp10
 70
     1
102
RTVSPropertyOp11
 70
     1
102
RTVSPropertyOp12
 70
     1
102
RTVSPropertyOp13
 70
     1
102
RTVSPropertyOp14
 70
     1
102
RTVSPropertyOp15
 70
     1
102
RTVSPropertyOp16
 70
     1
102
RTVSPropertyOp17
 70
     1
102
RTVSPropertyOp18
 70
     1
102
RTVSPropertyOp19
 70
     1
102
RTVSPropertyOp20
 70
     1
102
RTVSPropertyOp21
 70
     1
102
RTVSPropertyOp22
 70
     1
102
RTVSPropertyOp23
 70
     1
102
RTVSPropertyOp24
 70
     1
102
RTVSPropertyOp25
 70
     1
102
RTVSPropertyOp26
 70
     1
102
RTVSPropertyOp27
 70
     1
102
RTVSPropertyOp28
 70
     1
102
RTVSPropertyOp29
 70
     1
102
RTVSPropertyOp30
 70
     1
102
RTVSPropertyOp31
 70
     1
102
RTVSPropertyOp32
 70
     1
102
RTVSPropertyOp33
 70
     1
102
RTVSPropertyOp34
 70
     1
102
RTVSPropertyOp35
 70
     1
102
RTVSPropertyOp36
 70
     1
102
RTVSPropertyOp37
 70
     1
102
RTVSPropertyOp38
 70
     1
102
RTVSPropertyOp39
 70
     1
102
RTVSPropertyOp40
 70
     1
102
RTVSPropertyOp41
 70
     1
102
RTVSPropertyOp42
 70
     1
102
RTVSPropertyOp43
 70
     1
102
RTVSPropertyOp44
 70
     1
102
RTVSPropertyOp45
 70
     1
102
RTVSPropertyOp46
 70
     1
102
RTVSPropertyOp47
 70
     1
102
RTVSPropertyOp48
 70
     1
102
RTVSPropertyOp49
 70
     1
102
RTVSPropertyOp50
 70
     1
102
RTVSPropertyOp51
 70
     0
102
RTVSPropertyOp52
 70
     0
102
RTVSPropertyOp53
 70
     1
102
RTVSPropertyOp54
 70
     1
102
RTVSPropertyOp55
 70
     1
102
RTVSPropertyOp56
 70
     1
102
RTVSPropertyOp57
 70
     1
102
RTVSPropertyOp58
 70
     1
102
RTVSPropertyOp59
 70
     1
102
RTVSPropertyOp60
 70
     1
102
RTVSPropertyOp61
 70
     1
102
RTVSPropertyOp62
 70
     1
  0
XRECORD
  5
96D8
102
{ACAD_REACTORS
330
96D7
102
}
330
96D7
100
AcDbXrecord
280
     1
102
RTVSPost2010Prop28
280
     0
102
RTVSPost2010PropOp28
 70
     1
102
RTVSPost2010Prop29
280
     1
102
RTVSPost2010PropOp29
 70
     1
102
RTVSPost2010Prop30
280
     1
102
RTVSPost2010PropOp30
 70
     1
102
RTVSPost2010Prop31
280
     0
102
RTVSPost2010PropOp31
 70
     1
102
RTVSPost2010Prop32
280
     0
102
RTVSPost2010PropOp32
 70
     1
102
RTVSPost2010Prop33
280
     0
102
RTVSPost2010PropOp33
 70
     1
102
RTVSPost2010Prop34
280
     0
102
RTVSPost2010PropOp34
 70
     1
102
RTVSPost2010Prop35
280
     0
102
RTVSPost2010PropOp35
 70
     1
102
RTVSPost2010Prop36
280
     0
102
RTVSPost2010PropOp36
 70
     1
102
RTVSPost2010Prop37
 90
       50
102
RTVSPost2010PropOp37
 70
     1
102
RTVSPost2010Prop38
140
0.0
102
RTVSPost2010PropOp38
 70
     1
102
RTVSPost2010Prop39
140
1.0
102
RTVSPost2010PropOp39
 70
     1
102
RTVSPost2010Prop40
 90
        0
102
RTVSPost2010PropOp40
 70
     1
102
RTVSPost2010Prop41ColorIndex
 90
       18
102
RTVSPost2010Prop41ColorRGB
 90
        0
102
RTVSPost2010PropOp41
 70
     1
102
RTVSPost2010Prop42
 90
       50
102
RTVSPost2010PropOp42
 70
     1
102
RTVSPost2010Prop43
 90
        3
102
RTVSPost2010PropOp43
 70
     1
102
RTVSPost2010Prop44ColorIndex
 90
        5
102
RTVSPost2010Prop44ColorRGB
 90
      255
102
RTVSPost2010PropOp44
 70
     1
102
RTVSPost2010Prop45
280
     0
102
RTVSPost2010PropOp45
 70
     1
102
RTVSPost2010Prop46
 90
       50
102
RTVSPost2010PropOp46
 70
     1
102
RTVSPost2010Prop47
 90
       50
102
RTVSPost2010PropOp47
 70
     1
102
RTVSPost2010Prop48
 90
       50
102
RTVSPost2010PropOp48
 70
     1
102
RTVSPost2010Prop49
280
     0
102
RTVSPost2010PropOp49
 70
     1
102
RTVSPost2010Prop50
 90
       50
102
RTVSPost2010PropOp50
 70
     1
102
RTVSPost2010Prop51ColorIndex
 90
      256
102
RTVSPost2010Prop51ColorRGB
 90
-16777216
102
RTVSPost2010PropOp51
 70
     0
102
RTVSPost2010Prop52
140
1.0
102
RTVSPost2010PropOp52
 70
     0
102
RTVSPost2010Prop53
 90
        2
102
RTVSPost2010PropOp53
 70
     1
102
RTVSPost2010Prop54
  1
strokes_ogs.tif
102
RTVSPost2010PropOp54
 70
     1
102
RTVSPost2010Prop55
280
     0
102
RTVSPost2010PropOp55
 70
     1
102
RTVSPost2010Prop56
140
1.0
102
RTVSPost2010PropOp56
 70
     1
102
RTVSPost2010Prop57
140
1.0
102
RTVSPost2010PropOp57
 70
     1
102
RTVSPropertyOp0
 70
     1
102
RTVSPropertyOp1
 70
     1
102
RTVSPropertyOp2
 70
     1
102
RTVSPropertyOp3
 70
     1
102
RTVSPropertyOp4
 70
     1
102
RTVSPropertyOp5
 70
     1
102
RTVSPropertyOp6
 70
     1
102
RTVSPropertyOp7
 70
     1
102
RTVSPropertyOp8
 70
     1
102
RTVSPropertyOp9
 70
     1
102
RTVSPropertyOp10
 70
     1
102
RTVSPropertyOp11
 70
     1
102
RTVSPropertyOp12
 70
     1
102
RTVSPropertyOp13
 70
     1
102
RTVSPropertyOp14
 70
     1
102
RTVSPropertyOp15
 70
     1
102
RTVSPropertyOp16
 70
     1
102
RTVSPropertyOp17
 70
     1
102
RTVSPropertyOp18
 70
     1
102
RTVSPropertyOp19
 70
     1
102
RTVSPropertyOp20
 70
     1
102
RTVSPropertyOp21
 70
     1
102
RTVSPropertyOp22
 70
     1
102
RTVSPropertyOp23
 70
     1
102
RTVSPropertyOp24
 70
     1
102
RTVSPropertyOp25
 70
     1
102
RTVSPropertyOp26
 70
     1
102
RTVSPropertyOp27
 70
     1
102
RTVSPropertyOp28
 70
     1
102
RTVSPropertyOp29
 70
     1
102
RTVSPropertyOp30
 70
     1
102
RTVSPropertyOp31
 70
     1
102
RTVSPropertyOp32
 70
     1
102
RTVSPropertyOp33
 70
     1
102
RTVSPropertyOp34
 70
     1
102
RTVSPropertyOp35
 70
     1
102
RTVSPropertyOp36
 70
     1
102
RTVSPropertyOp37
 70
     1
102
RTVSPropertyOp38
 70
     1
102
RTVSPropertyOp39
 70
     1
102
RTVSPropertyOp40
 70
     1
102
RTVSPropertyOp41
 70
     1
102
RTVSPropertyOp42
 70
     1
102
RTVSPropertyOp43
 70
     1
102
RTVSPropertyOp44
 70
     1
102
RTVSPropertyOp45
 70
     1
102
RTVSPropertyOp46
 70
     1
102
RTVSPropertyOp47
 70
     1
102
RTVSPropertyOp48
 70
     1
102
RTVSPropertyOp49
 70
     1
102
RTVSPropertyOp50
 70
     1
102
RTVSPropertyOp51
 70
     0
102
RTVSPropertyOp52
 70
     0
102
RTVSPropertyOp53
 70
     1
102
RTVSPropertyOp54
 70
     1
102
RTVSPropertyOp55
 70
     1
102
RTVSPropertyOp56
 70
     1
102
RTVSPropertyOp57
 70
     1
102
RTVSPropertyOp58
 70
     1
102
RTVSPropertyOp59
 70
     1
102
RTVSPropertyOp60
 70
     1
102
RTVSPropertyOp61
 70
     1
102
RTVSPropertyOp62
 70
     1
  0
XRECORD
  5
96F0
102
{ACAD_REACTORS
330
96EF
102
}
330
96EF
100
AcDbXrecord
280
     1
102
RTVSPost2010Prop28
280
     0
102
RTVSPost2010PropOp28
 70
     1
102
RTVSPost2010Prop29
280
     1
102
RTVSPost2010PropOp29
 70
     1
102
RTVSPost2010Prop30
280
     1
102
RTVSPost2010PropOp30
 70
     1
102
RTVSPost2010Prop31
280
     0
102
RTVSPost2010PropOp31
 70
     1
102
RTVSPost2010Prop32
280
     0
102
RTVSPost2010PropOp32
 70
     1
102
RTVSPost2010Prop33
280
     0
102
RTVSPost2010PropOp33
 70
     1
102
RTVSPost2010Prop34
280
     0
102
RTVSPost2010PropOp34
 70
     1
102
RTVSPost2010Prop35
280
     0
102
RTVSPost2010PropOp35
 70
     1
102
RTVSPost2010Prop36
280
     0
102
RTVSPost2010PropOp36
 70
     1
102
RTVSPost2010Prop37
 90
       50
102
RTVSPost2010PropOp37
 70
     1
102
RTVSPost2010Prop38
140
0.0
102
RTVSPost2010PropOp38
 70
     1
102
RTVSPost2010Prop39
140
1.0
102
RTVSPost2010PropOp39
 70
     1
102
RTVSPost2010Prop40
 90
        0
102
RTVSPost2010PropOp40
 70
     1
102
RTVSPost2010Prop41ColorIndex
 90
       18
102
RTVSPost2010Prop41ColorRGB
 90
        0
102
RTVSPost2010PropOp41
 70
     1
102
RTVSPost2010Prop42
 90
       50
102
RTVSPost2010PropOp42
 70
     1
102
RTVSPost2010Prop43
 90
        3
102
RTVSPost2010PropOp43
 70
     1
102
RTVSPost2010Prop44ColorIndex
 90
        5
102
RTVSPost2010Prop44ColorRGB
 90
      255
102
RTVSPost2010PropOp44
 70
     1
102
RTVSPost2010Prop45
280
     0
102
RTVSPost2010PropOp45
 70
     1
102
RTVSPost2010Prop46
 90
       50
102
RTVSPost2010PropOp46
 70
     1
102
RTVSPost2010Prop47
 90
       50
102
RTVSPost2010PropOp47
 70
     1
102
RTVSPost2010Prop48
 90
       50
102
RTVSPost2010PropOp48
 70
     1
102
RTVSPost2010Prop49
280
     0
102
RTVSPost2010PropOp49
 70
     1
102
RTVSPost2010Prop50
 90
       50
102
RTVSPost2010PropOp50
 70
     1
102
RTVSPost2010Prop51ColorIndex
 90
      256
102
RTVSPost2010Prop51ColorRGB
 90
-16777216
102
RTVSPost2010PropOp51
 70
     0
102
RTVSPost2010Prop52
140
1.0
102
RTVSPost2010PropOp52
 70
     0
102
RTVSPost2010Prop53
 90
        2
102
RTVSPost2010PropOp53
 70
     1
102
RTVSPost2010Prop54
  1
strokes_ogs.tif
102
RTVSPost2010PropOp54
 70
     1
102
RTVSPost2010Prop55
280
     0
102
RTVSPost2010PropOp55
 70
     1
102
RTVSPost2010Prop56
140
1.0
102
RTVSPost2010PropOp56
 70
     1
102
RTVSPost2010Prop57
140
1.0
102
RTVSPost2010PropOp57
 70
     1
102
RTVSPropertyOp0
 70
     1
102
RTVSPropertyOp1
 70
     1
102
RTVSPropertyOp2
 70
     1
102
RTVSPropertyOp3
 70
     1
102
RTVSPropertyOp4
 70
     1
102
RTVSPropertyOp5
 70
     1
102
RTVSPropertyOp6
 70
     1
102
RTVSPropertyOp7
 70
     1
102
RTVSPropertyOp8
 70
     1
102
RTVSPropertyOp9
 70
     1
102
RTVSPropertyOp10
 70
     1
102
RTVSPropertyOp11
 70
     1
102
RTVSPropertyOp12
 70
     1
102
RTVSPropertyOp13
 70
     1
102
RTVSPropertyOp14
 70
     1
102
RTVSPropertyOp15
 70
     1
102
RTVSPropertyOp16
 70
     1
102
RTVSPropertyOp17
 70
     1
102
RTVSPropertyOp18
 70
     1
102
RTVSPropertyOp19
 70
     1
102
RTVSPropertyOp20
 70
     1
102
RTVSPropertyOp21
 70
     1
102
RTVSPropertyOp22
 70
     1
102
RTVSPropertyOp23
 70
     1
102
RTVSPropertyOp24
 70
     1
102
RTVSPropertyOp25
 70
     1
102
RTVSPropertyOp26
 70
     1
102
RTVSPropertyOp27
 70
     1
102
RTVSPropertyOp28
 70
     1
102
RTVSPropertyOp29
 70
     1
102
RTVSPropertyOp30
 70
     1
102
RTVSPropertyOp31
 70
     1
102
RTVSPropertyOp32
 70
     1
102
RTVSPropertyOp33
 70
     1
102
RTVSPropertyOp34
 70
     1
102
RTVSPropertyOp35
 70
     1
102
RTVSPropertyOp36
 70
     1
102
RTVSPropertyOp37
 70
     1
102
RTVSPropertyOp38
 70
     1
102
RTVSPropertyOp39
 70
     1
102
RTVSPropertyOp40
 70
     1
102
RTVSPropertyOp41
 70
     1
102
RTVSPropertyOp42
 70
     1
102
RTVSPropertyOp43
 70
     1
102
RTVSPropertyOp44
 70
     1
102
RTVSPropertyOp45
 70
     1
102
RTVSPropertyOp46
 70
     1
102
RTVSPropertyOp47
 70
     1
102
RTVSPropertyOp48
 70
     1
102
RTVSPropertyOp49
 70
     1
102
RTVSPropertyOp50
 70
     1
102
RTVSPropertyOp51
 70
     0
102
RTVSPropertyOp52
 70
     0
102
RTVSPropertyOp53
 70
     1
102
RTVSPropertyOp54
 70
     1
102
RTVSPropertyOp55
 70
     1
102
RTVSPropertyOp56
 70
     1
102
RTVSPropertyOp57
 70
     1
102
RTVSPropertyOp58
 70
     1
102
RTVSPropertyOp59
 70
     1
102
RTVSPropertyOp60
 70
     1
102
RTVSPropertyOp61
 70
     1
102
RTVSPropertyOp62
 70
     1
  0
ENDSEC
  0
EOF
