  0
SECTION
  2
HEADER
  9
$ACADVER
  1
AC1015
  9
$ACADMAINTVER
 70
    20
  9
$DWGCODEPAGE
  3
ANSI_932
  9
$INSBASE
 10
0.0
 20
0.0
 30
0.0
  9
$EXTMIN
 10
9.0484
 20
9.999999999999998
 30
0.0
  9
$EXTMAX
 10
495.392
 20
286.855
 30
0.0
  9
$LIMMIN
 10
0.0
 20
0.0
  9
$LIMMAX
 10
495.0
 20
341.25
  9
$ORTHOMODE
 70
     1
  9
$REGENMODE
 70
     1
  9
$FILLMODE
 70
     1
  9
$QTEXTMODE
 70
     0
  9
$MIRRTEXT
 70
     1
  9
$LTSCALE
 40
20.0
  9
$ATTMODE
 70
     1
  9
$TEXTSIZE
 40
5.0
  9
$TRACEWID
 40
1.0
  9
$TEXTSTYLE
  7
STANDARD
  9
$CLAYER
  8
0
  9
$CELTYPE
  6
BYLAYER
  9
$CECOLOR
 62
   256
  9
$CELTSCALE
 40
1.0
  9
$DISPSILH
 70
     0
  9
$DIMSCALE
 40
1.0
  9
$DIMASZ
 40
3.0
  9
$DIMEXO
 40
1.0
  9
$DIMDLI
 40
10.0
  9
$DIMRND
 40
0.0
  9
$DIMDLE
 40
0.0
  9
$DIMEXE
 40
1.0
  9
$DIMTP
 40
0.0
  9
$DIMTM
 40
0.0
  9
$DIMTXT
 40
3.2
  9
$DIMCEN
 40
0.0
  9
$DIMTSZ
 40
0.0
  9
$DIMTOL
 70
     0
  9
$DIMLIM
 70
     0
  9
$DIMTIH
 70
     0
  9
$DIMTOH
 70
     0
  9
$DIMSE1
 70
     0
  9
$DIMSE2
 70
     0
  9
$DIMTAD
 70
     3
  9
$DIMZIN
 70
     8
  9
$DIMBLK
  1

  9
$DIMASO
 70
     1
  9
$DIMSHO
 70
     1
  9
$DIMPOST
  1

  9
$DIMAPOST
  1

  9
$DIMALT
 70
     0
  9
$DIMALTD
 70
     2
  9
$DIMALTF
 40
25.4
  9
$DIMLFAC
 40
1.0
  9
$DIMTOFL
 70
     1
  9
$DIMTVP
 40
0.0
  9
$DIMTIX
 70
     0
  9
$DIMSOXD
 70
     0
  9
$DIMSAH
 70
     1
  9
$DIMBLK1
  1

  9
$DIMBLK2
  1

  9
$DIMSTYLE
  2
STANDARD
  9
$DIMCLRD
 70
     0
  9
$DIMCLRE
 70
     0
  9
$DIMCLRT
 70
     0
  9
$DIMTFAC
 40
1.0
  9
$DIMGAP
 40
1.0
  9
$DIMJUST
 70
     0
  9
$DIMSD1
 70
     0
  9
$DIMSD2
 70
     0
  9
$DIMTOLJ
 70
     1
  9
$DIMTZIN
 70
     0
  9
$DIMALTZ
 70
     0
  9
$DIMALTTZ
 70
     0
  9
$DIMUPT
 70
     0
  9
$DIMDEC
 70
     4
  9
$DIMTDEC
 70
     4
  9
$DIMALTU
 70
     2
  9
$DIMALTTD
 70
     2
  9
$DIMTXSTY
  7
STANDARD
  9
$DIMAUNIT
 70
     0
  9
$DIMADEC
 70
     0
  9
$DIMALTRND
 40
0.0
  9
$DIMAZIN
 70
     0
  9
$DIMDSEP
 70
    46
  9
$DIMATFIT
 70
     3
  9
$DIMFRAC
 70
     0
  9
$DIMLDRBLK
  1

  9
$DIMLUNIT
 70
     2
  9
$DIMLWD
 70
    -2
  9
$DIMLWE
 70
    -2
  9
$DIMTMOVE
 70
     0
  9
$LUNITS
 70
     2
  9
$LUPREC
 70
     4
  9
$SKETCHINC
 40
1.0
  9
$FILLETRAD
 40
0.0
  9
$AUNITS
 70
     0
  9
$AUPREC
 70
     2
  9
$MENU
  1
.
  9
$ELEVATION
 40
0.0
  9
$PELEVATION
 40
0.0
  9
$THICKNESS
 40
0.0
  9
$LIMCHECK
 70
     0
  9
$CHAMFERA
 40
10.0
  9
$CHAMFERB
 40
10.0
  9
$CHAMFERC
 40
0.0
  9
$CHAMFERD
 40
0.0
  9
$SKPOLY
 70
     0
  9
$TDCREATE
 40
2450737.663360070
  9
$TDUCREATE
 40
2450737.288360070
  9
$TDUPDATE
 40
2457192.640169838
  9
$TDUUPDATE
 40
2457192.265169838
  9
$TDINDWG
 40
0.0000158218
  9
$TDUSRTIMER
 40
0.0000155093
  9
$USRTIMER
 70
     1
  9
$ANGBASE
 50
0.0
  9
$ANGDIR
 70
     0
  9
$PDMODE
 70
     0
  9
$PDSIZE
 40
0.0
  9
$PLINEWID
 40
0.0
  9
$SPLFRAME
 70
     0
  9
$SPLINETYPE
 70
     6
  9
$SPLINESEGS
 70
     8
  9
$HANDSEED
  5
9B8F
  9
$SURFTAB1
 70
     6
  9
$SURFTAB2
 70
     6
  9
$SURFTYPE
 70
     6
  9
$SURFU
 70
     6
  9
$SURFV
 70
     6
  9
$UCSBASE
  2

  9
$UCSNAME
  2

  9
$UCSORG
 10
0.0
 20
0.0
 30
0.0
  9
$UCSXDIR
 10
1.0
 20
0.0
 30
0.0
  9
$UCSYDIR
 10
0.0
 20
1.0
 30
0.0
  9
$UCSORTHOREF
  2

  9
$UCSORTHOVIEW
 70
     0
  9
$UCSORGTOP
 10
0.0
 20
0.0
 30
0.0
  9
$UCSORGBOTTOM
 10
0.0
 20
0.0
 30
0.0
  9
$UCSORGLEFT
 10
0.0
 20
0.0
 30
0.0
  9
$UCSORGRIGHT
 10
0.0
 20
0.0
 30
0.0
  9
$UCSORGFRONT
 10
0.0
 20
0.0
 30
0.0
  9
$UCSORGBACK
 10
0.0
 20
0.0
 30
0.0
  9
$PUCSBASE
  2

  9
$PUCSNAME
  2

  9
$PUCSORG
 10
0.0
 20
0.0
 30
0.0
  9
$PUCSXDIR
 10
1.0
 20
0.0
 30
0.0
  9
$PUCSYDIR
 10
0.0
 20
1.0
 30
0.0
  9
$PUCSORTHOREF
  2

  9
$PUCSORTHOVIEW
 70
     0
  9
$PUCSORGTOP
 10
0.0
 20
0.0
 30
0.0
  9
$PUCSORGBOTTOM
 10
0.0
 20
0.0
 30
0.0
  9
$PUCSORGLEFT
 10
0.0
 20
0.0
 30
0.0
  9
$PUCSORGRIGHT
 10
0.0
 20
0.0
 30
0.0
  9
$PUCSORGFRONT
 10
0.0
 20
0.0
 30
0.0
  9
$PUCSORGBACK
 10
0.0
 20
0.0
 30
0.0
  9
$USERI1
 70
     0
  9
$USERI2
 70
     0
  9
$USERI3
 70
     0
  9
$USERI4
 70
     0
  9
$USERI5
 70
     0
  9
$USERR1
 40
0.0
  9
$USERR2
 40
0.0
  9
$USERR3
 40
0.0
  9
$USERR4
 40
0.0
  9
$USERR5
 40
0.0
  9
$WORLDVIEW
 70
     1
  9
$SHADEDGE
 70
     3
  9
$SHADEDIF
 70
    70
  9
$TILEMODE
 70
     1
  9
$MAXACTVP
 70
    16
  9
$PINSBASE
 10
0.0
 20
0.0
 30
0.0
  9
$PLIMCHECK
 70
     0
  9
$PEXTMIN
 10
1.000000000000000E+20
 20
1.000000000000000E+20
 30
1.000000000000000E+20
  9
$PEXTMAX
 10
-1.000000000000000E+20
 20
-1.000000000000000E+20
 30
-1.000000000000000E+20
  9
$PLIMMIN
 10
0.0
 20
0.0
  9
$PLIMMAX
 10
420.0
 20
297.0
  9
$UNITMODE
 70
     0
  9
$VISRETAIN
 70
     0
  9
$PLINEGEN
 70
     0
  9
$PSLTSCALE
 70
     0
  9
$TREEDEPTH
 70
  3020
  9
$CMLSTYLE
  2
STANDARD
  9
$CMLJUST
 70
     0
  9
$CMLSCALE
 40
1.0
  9
$PROXYGRAPHICS
 70
     1
  9
$MEASUREMENT
 70
     0
  9
$CELWEIGHT
370
    -1
  9
$ENDCAPS
280
     0
  9
$JOINSTYLE
280
     0
  9
$LWDISPLAY
290
     0
  9
$INSUNITS
 70
     0
  9
$HYPERLINKBASE
  1

  9
$STYLESHEET
  1

  9
$XEDIT
290
     1
  9
$CEPSNTYPE
380
     0
  9
$PSTYLEMODE
290
     1
  9
$FINGERPRINTGUID
  2
{6BD555E0-46CD-4CE3-A451-C611A7D49B94}
  9
$VERSIONGUID
  2
{EBAC34AD-79B9-4E29-9279-D3FC6CA22124}
  9
$EXTNAMES
290
     1
  9
$PSVPSCALE
 40
0.0
  9
$OLESTARTUP
290
     0
  0
ENDSEC
  0
SECTION
  2
CLASSES
  0
CLASS
  1
ACDBDICTIONARYWDFLT
  2
AcDbDictionaryWithDefault
  3
ObjectDBX Classes
 90
        0
280
     0
281
     0
  0
CLASS
  1
ACDBPLACEHOLDER
  2
AcDbPlaceHolder
  3
ObjectDBX Classes
 90
        0
280
     0
281
     0
  0
CLASS
  1
LAYOUT
  2
AcDbLayout
  3
ObjectDBX Classes
 90
        0
280
     0
281
     0
  0
CLASS
  1
DICTIONARYVAR
  2
AcDbDictionaryVar
  3
ObjectDBX Classes
 90
        0
280
     0
281
     0
  0
CLASS
  1
MATERIAL
  2
AcDbMaterial
  3
ObjectDBX Classes
 90
     1153
280
     0
281
     0
  0
CLASS
  1
VISUALSTYLE
  2
AcDbVisualStyle
  3
ObjectDBX Classes
 90
     4095
280
     0
281
     0
  0
CLASS
  1
TABLESTYLE
  2
AcDbTableStyle
  3
ObjectDBX Classes
 90
     4095
280
     0
281
     0
  0
CLASS
  1
SCALE
  2
AcDbScale
  3
ObjectDBX Classes
 90
     1153
280
     0
281
     0
  0
CLASS
  1
MLEADERSTYLE
  2
AcDbMLeaderStyle
  3
ACDB_MLEADERSTYLE_CLASS
 90
     4095
280
     0
281
     0
  0
CLASS
  1
ACDBSECTIONVIEWSTYLE
  2
AcDbSectionViewStyle
  3
ObjectDBX Classes
 90
     1025
280
     0
281
     0
  0
CLASS
  1
ACDBDETAILVIEWSTYLE
  2
AcDbDetailViewStyle
  3
ObjectDBX Classes
 90
     1025
280
     0
281
     0
  0
CLASS
  1
CELLSTYLEMAP
  2
AcDbCellStyleMap
  3
ObjectDBX Classes
 90
     1152
280
     0
281
     0
  0
ENDSEC
  0
SECTION
  2
TABLES
  0
TABLE
  2
VPORT
  5
9860
330
0
100
AcDbSymbolTable
 70
     1
  0
VPORT
  5
9AD8
330
9860
100
AcDbSymbolTableRecord
100
AcDbViewportTableRecord
  2
*ACTIVE
 70
     0
 10
0.0
 20
0.0
 11
1.0
 21
1.0
 12
336.0684119743728
 22
148.4298999843941
 13
0.0
 23
0.0
 14
10.0
 24
10.0
 15
10.0
 25
10.0
 16
0.0
 26
0.0
 36
1.0
 17
0.0
 27
0.0
 37
0.0
 40
279.992265060769
 41
1.899603698811096
 42
50.0
 43
0.0
 44
0.0
 50
0.0
 51
0.0
 71
     0
 72
   100
 73
     1
 74
     0
 75
     0
 76
     0
 77
     0
 78
     0
281
     0
 65
     1
110
0.0
120
0.0
130
0.0
111
1.0
121
0.0
131
0.0
112
0.0
122
1.0
132
0.0
 79
     0
146
0.0
1001
ACAD_NAV_VCDISPLAY
1070
     3
  0
ENDTAB
  0
TABLE
  2
LTYPE
  5
985D
330
0
100
AcDbSymbolTable
 70
     4
  0
LTYPE
  5
986B
330
985D
100
AcDbSymbolTableRecord
100
AcDbLinetypeTableRecord
  2
BYBLOCK
 70
     0
  3

 72
    65
 73
     0
 40
0.0
  0
LTYPE
  5
986C
330
985D
100
AcDbSymbolTableRecord
100
AcDbLinetypeTableRecord
  2
BYLAYER
 70
     0
  3

 72
    65
 73
     0
 40
0.0
  0
LTYPE
  5
986D
330
985D
100
AcDbSymbolTableRecord
100
AcDbLinetypeTableRecord
  2
CONTINUOUS
 70
     0
  3
Solid line
 72
    65
 73
     0
 40
0.0
  0
LTYPE
  5
987A
330
985D
100
AcDbSymbolTableRecord
100
AcDbLinetypeTableRecord
  2
CENTER
 70
     0
  3
____ _ ____ _ ____ _ ____ _ ____ _ ____ _ ____ 
 72
    65
 73
     4
 40
2.0
 49
1.25
 74
     0
 49
-0.25
 74
     0
 49
0.25
 74
     0
 49
-0.25
 74
     0
  0
LTYPE
  5
987C
330
985D
100
AcDbSymbolTableRecord
100
AcDbLinetypeTableRecord
  2
DASHED
 70
     0
  3
__ __ __ __ __ __ __ __ __ __ __ __ __ __ __ __
 72
    65
 73
     2
 40
0.75
 49
0.5
 74
     0
 49
-0.25
 74
     0
  0
LTYPE
  5
987D
330
985D
100
AcDbSymbolTableRecord
100
AcDbLinetypeTableRecord
  2
PHANTOM
 70
     0
  3
______  __  __  ______  __  __  ______  __  __ 
 72
    65
 73
     6
 40
2.5
 49
1.25
 74
     0
 49
-0.25
 74
     0
 49
0.25
 74
     0
 49
-0.25
 74
     0
 49
0.25
 74
     0
 49
-0.25
 74
     0
  0
ENDTAB
  0
TABLE
  2
LAYER
  5
985A
330
0
100
AcDbSymbolTable
 70
     8
  0
LAYER
  5
9868
102
{ACAD_XDICTIONARY
360
9B33
102
}
330
985A
100
AcDbSymbolTableRecord
100
AcDbLayerTableRecord
  2
0
 70
     0
 62
     7
  6
CONTINUOUS
370
    -3
390
9AE1
  0
LAYER
  5
987E
102
{ACAD_XDICTIONARY
360
9B35
102
}
330
985A
100
AcDbSymbolTableRecord
100
AcDbLayerTableRecord
  2
4
 70
     0
 62
     1
  6
CENTER
370
    -3
390
9AE1
  0
LAYER
  5
987F
102
{ACAD_XDICTIONARY
360
9B37
102
}
330
985A
100
AcDbSymbolTableRecord
100
AcDbLayerTableRecord
  2
5
 70
     0
 62
     6
  6
PHANTOM
370
    -3
390
9AE1
  0
LAYER
  5
9880
102
{ACAD_XDICTIONARY
360
9B39
102
}
330
985A
100
AcDbSymbolTableRecord
100
AcDbLayerTableRecord
  2
1
 70
     0
 62
     7
  6
CONTINUOUS
370
    -3
390
9AE1
  0
LAYER
  5
9881
102
{ACAD_XDICTIONARY
360
9B3B
102
}
330
985A
100
AcDbSymbolTableRecord
100
AcDbLayerTableRecord
  2
2
 70
     0
 62
     4
  6
CONTINUOUS
370
    -3
390
9AE1
  0
LAYER
  5
9882
102
{ACAD_XDICTIONARY
360
9B3D
102
}
330
985A
100
AcDbSymbolTableRecord
100
AcDbLayerTableRecord
  2
3
 70
     0
 62
     2
  6
DASHED
370
    -3
390
9AE1
  0
LAYER
  5
9883
102
{ACAD_XDICTIONARY
360
9B3F
102
}
330
985A
100
AcDbSymbolTableRecord
100
AcDbLayerTableRecord
  2
6
 70
     0
 62
     5
  6
CONTINUOUS
370
    -3
390
9AE1
  0
LAYER
  5
9884
102
{ACAD_XDICTIONARY
360
9B41
102
}
330
985A
100
AcDbSymbolTableRecord
100
AcDbLayerTableRecord
  2
7
 70
     0
 62
     3
  6
CONTINUOUS
370
    -3
390
9AE1
  0
ENDTAB
  0
TABLE
  2
STYLE
  5
985B
330
0
100
AcDbSymbolTable
 70
     1
  0
STYLE
  5
9869
330
985B
100
AcDbSymbolTableRecord
100
AcDbTextStyleTableRecord
  2
STANDARD
 70
     0
 40
0.0
 41
1.0
 50
0.0
 71
     0
 42
5.0
  3
txt
  4

  0
ENDTAB
  0
TABLE
  2
VIEW
  5
985E
330
0
100
AcDbSymbolTable
 70
     0
  0
ENDTAB
  0
TABLE
  2
UCS
  5
985F
330
0
100
AcDbSymbolTable
 70
     0
  0
ENDTAB
  0
TABLE
  2
APPID
  5
9861
330
0
100
AcDbSymbolTable
 70
     3
  0
APPID
  5
986A
330
9861
100
AcDbSymbolTableRecord
100
AcDbRegAppTableRecord
  2
ACAD
 70
     0
  0
APPID
  5
9B4D
330
9861
100
AcDbSymbolTableRecord
100
AcDbRegAppTableRecord
  2
ACAD_NAV_VCDISPLAY
 70
     0
  0
APPID
  5
9B86
330
9861
100
AcDbSymbolTableRecord
100
AcDbRegAppTableRecord
  2
ACAD_MLEADERVER
 70
     0
  0
ENDTAB
  0
TABLE
  2
DIMSTYLE
  5
9862
330
0
100
AcDbSymbolTable
 70
     1
100
AcDbDimStyleTable
 71
     0
  0
DIMSTYLE
105
9886
330
9862
100
AcDbSymbolTableRecord
100
AcDbDimStyleTableRecord
  2
STANDARD
 70
     0
 41
3.0
 42
1.0
 43
10.0
 44
1.0
 73
     0
 74
     0
 77
     3
 78
     8
140
3.2
141
0.0
147
1.0
172
     1
173
     1
284
     8
285
     8
286
     8
340
9869
  0
ENDTAB
  0
TABLE
  2
BLOCK_RECORD
  5
9859
330
0
100
AcDbSymbolTable
 70
     0
  0
BLOCK_RECORD
  5
9876
102
{ACAD_XDICTIONARY
360
9ADB
102
}
330
9859
100
AcDbSymbolTableRecord
100
AcDbBlockTableRecord
  2
*MODEL_SPACE
340
9B2F
  0
BLOCK_RECORD
  5
9872
102
{ACAD_XDICTIONARY
360
9AD9
102
}
330
9859
100
AcDbSymbolTableRecord
100
AcDbBlockTableRecord
  2
*PAPER_SPACE
340
9B30
  0
ENDTAB
  0
ENDSEC
  0
SECTION
  2
BLOCKS
  0
BLOCK
  5
9877
330
9876
100
AcDbEntity
  8
0
100
AcDbBlockBegin
  2
*MODEL_SPACE
 70
     0
 10
0.0
 20
0.0
 30
0.0
  3
*MODEL_SPACE
  1

  0
ENDBLK
  5
9878
330
9876
100
AcDbEntity
  8
0
100
AcDbBlockEnd
  0
BLOCK
  5
9873
330
9872
100
AcDbEntity
 67
     1
  8
0
100
AcDbBlockBegin
  2
*PAPER_SPACE
 70
     0
 10
0.0
 20
0.0
 30
0.0
  3
*PAPER_SPACE
  1

  0
ENDBLK
  5
9874
330
9872
100
AcDbEntity
 67
     1
  8
0
100
AcDbBlockEnd
  0
ENDSEC
  0
SECTION
  2
ENTITIES
  0
TEXT
  5
988E
330
9876
100
AcDbEntity
  8
7
  6
Continuous
100
AcDbText
 10
10.0
 20
18.0
 30
0.0
 40
3.0
  1
TYPE No.THA-282-1
100
AcDbText
  0
TEXT
  5
988F
330
9876
100
AcDbEntity
  8
7
  6
Continuous
100
AcDbText
 10
10.0
 20
26.0
 30
0.0
 40
3.0
  1
CODE No.3224
100
AcDbText
  0
TEXT
  5
9890
330
9876
100
AcDbEntity
  8
1
  6
Continuous
100
AcDbText
 10
10.0
 20
10.0
 30
0.0
 40
1.399999999999999
  1
LAYER
100
AcDbText
  0
TEXT
  5
9891
330
9876
100
AcDbEntity
  8
1
  6
Continuous
100
AcDbText
 10
17.97951099999998
 20
10.04873699999998
 30
0.0
 40
1.399999999999999
  1
1
100
AcDbText
  0
TEXT
  5
9892
330
9876
100
AcDbEntity
  8
7
  6
Continuous
100
AcDbText
 10
29.97951099999999
 20
10.04873699999998
 30
0.0
 40
1.399999999999999
  1
7
100
AcDbText
  0
TEXT
  5
9893
330
9876
100
AcDbEntity
  8
4
  6
CENTER
100
AcDbText
 10
23.97951099999999
 20
10.04873699999998
 30
0.0
 40
1.399999999999999
  1
4
100
AcDbText
  0
TEXT
  5
9894
330
9876
100
AcDbEntity
  8
3
  6
DASHED
100
AcDbText
 10
21.979511
 20
10.04873699999998
 30
0.0
 40
1.399999999999999
  1
3
100
AcDbText
  0
TEXT
  5
9895
330
9876
100
AcDbEntity
  8
2
  6
Continuous
100
AcDbText
 10
19.97951099999999
 20
10.04873699999998
 30
0.0
 40
1.399999999999999
  1
2
100
AcDbText
  0
TEXT
  5
9896
330
9876
100
AcDbEntity
  8
6
  6
Continuous
100
AcDbText
 10
27.979511
 20
10.04873699999998
 30
0.0
 40
1.399999999999999
  1
6
100
AcDbText
  0
TEXT
  5
9897
330
9876
100
AcDbEntity
  8
5
  6
PHANTOM
100
AcDbText
 10
25.97951099999999
 20
10.04873699999998
 30
0.0
 40
1.399999999999999
  1
5
100
AcDbText
  0
LINE
  5
9898
330
9876
100
AcDbEntity
  8
1
  6
Continuous
100
AcDbLine
 10
128.1929999999998
 20
145.8189999999999
 30
0.0
 11
128.1929999999998
 21
59.8193
 31
0.0
  0
LINE
  5
9899
330
9876
100
AcDbEntity
  8
1
  6
Continuous
100
AcDbLine
 10
128.1929999999998
 20
145.8189999999999
 30
0.0
 11
189.5809999999999
 21
145.8189999999999
 31
0.0
  0
LINE
  5
989A
330
9876
100
AcDbEntity
  8
1
  6
Continuous
100
AcDbLine
 10
128.1929999999998
 20
59.8193
 30
0.0
 11
189.5809999999999
 21
59.8193
 31
0.0
  0
LINE
  5
989B
330
9876
100
AcDbEntity
  8
1
  6
Continuous
100
AcDbLine
 10
128.6929999999999
 20
145.319
 30
0.0
 11
128.6929999999999
 21
60.3193
 31
0.0
  0
LINE
  5
989C
330
9876
100
AcDbEntity
  8
1
  6
Continuous
100
AcDbLine
 10
128.6929999999999
 20
145.319
 30
0.0
 11
155.6939999999999
 21
145.319
 31
0.0
  0
LINE
  5
989D
330
9876
100
AcDbEntity
  8
1
  6
Continuous
100
AcDbLine
 10
128.6929999999999
 20
60.3193
 30
0.0
 11
188.115
 21
60.3193
 31
0.0
  0
LINE
  5
989E
330
9876
100
AcDbEntity
  8
1
  6
Continuous
100
AcDbLine
 10
158.694
 20
142.3189999999999
 30
0.0
 11
158.694
 21
123.859
 31
0.0
  0
LINE
  5
989F
330
9876
100
AcDbEntity
  8
1
  6
Continuous
100
AcDbLine
 10
128.1929999999998
 20
98.31929999999999
 30
0.0
 11
128.6929999999999
 21
98.31929999999999
 31
0.0
  0
LINE
  5
98A0
330
9876
100
AcDbEntity
  8
1
  6
Continuous
100
AcDbLine
 10
128.1929999999998
 20
107.319
 30
0.0
 11
128.6929999999999
 21
107.319
 31
0.0
  0
LINE
  5
98A1
330
9876
100
AcDbEntity
  8
1
  6
Continuous
100
AcDbLine
 10
133.6929999999999
 20
60.3193
 30
0.0
 11
133.6929999999999
 21
59.8193
 31
0.0
  0
LINE
  5
98A2
330
9876
100
AcDbEntity
  8
1
  6
Continuous
100
AcDbLine
 10
133.6929999999999
 20
145.8189999999999
 30
0.0
 11
133.6929999999999
 21
145.319
 31
0.0
  0
LINE
  5
98A3
330
9876
100
AcDbEntity
  8
1
  6
Continuous
100
AcDbLine
 10
137.6929999999999
 20
60.3193
 30
0.0
 11
137.6929999999999
 21
59.8193
 31
0.0
  0
LINE
  5
98A4
330
9876
100
AcDbEntity
  8
1
  6
Continuous
100
AcDbLine
 10
137.6929999999999
 20
145.8189999999999
 30
0.0
 11
137.6929999999999
 21
145.319
 31
0.0
  0
LINE
  5
98A5
330
9876
100
AcDbEntity
  8
1
  6
Continuous
100
AcDbLine
 10
142.6929999999998
 20
60.3193
 30
0.0
 11
142.6929999999998
 21
59.8193
 31
0.0
  0
LINE
  5
98A6
330
9876
100
AcDbEntity
  8
1
  6
Continuous
100
AcDbLine
 10
142.6929999999998
 20
145.8189999999999
 30
0.0
 11
142.6929999999998
 21
145.319
 31
0.0
  0
LINE
  5
98A7
330
9876
100
AcDbEntity
  8
1
  6
Continuous
100
AcDbLine
 10
119.693
 20
224.067
 30
0.0
 11
119.693
 21
226.6159999999999
 31
0.0
  0
LINE
  5
98A8
330
9876
100
AcDbEntity
  8
1
  6
Continuous
100
AcDbLine
 10
202.6939999999999
 20
224.36
 30
0.0
 11
202.6939999999999
 21
226.6159999999999
 31
0.0
  0
LINE
  5
98A9
330
9876
100
AcDbEntity
  8
1
  6
Continuous
100
AcDbLine
 10
119.693
 20
226.6159999999999
 30
0.0
 11
202.6939999999999
 21
226.6159999999999
 31
0.0
  0
LINE
  5
98AA
330
9876
100
AcDbEntity
  8
1
  6
Continuous
100
AcDbLine
 10
128.1929999999998
 20
226.6159999999999
 30
0.0
 11
128.1929999999998
 21
253.6159999999999
 31
0.0
  0
LINE
  5
98AB
330
9876
100
AcDbEntity
  8
1
  6
Continuous
100
AcDbLine
 10
104.6929999999999
 20
253.6159999999999
 30
0.0
 11
187.194
 21
253.6159999999999
 31
0.0
  0
LINE
  5
98AC
330
9876
100
AcDbEntity
  8
1
  6
Continuous
100
AcDbLine
 10
128.1929999999998
 20
243.4159999999998
 30
0.0
 11
179.1939999999999
 21
243.4159999999998
 31
0.0
  0
LINE
  5
98AD
330
9876
100
AcDbEntity
  8
1
  6
Continuous
100
AcDbLine
 10
196.194
 20
226.6159999999999
 30
0.0
 11
196.194
 21
244.6159999999999
 31
0.0
  0
LINE
  5
98AE
330
9876
100
AcDbEntity
  8
1
  6
Continuous
100
AcDbLine
 10
151.6939999999999
 20
245.616
 30
0.0
 11
151.6939999999999
 21
253.6159999999999
 31
0.0
  0
LINE
  5
98AF
330
9876
100
AcDbEntity
  8
1
  6
Continuous
100
AcDbLine
 10
138.1929999999998
 20
243.4159999999998
 30
0.0
 11
138.1929999999998
 21
253.6159999999999
 31
0.0
  0
LINE
  5
98B0
330
9876
100
AcDbEntity
  8
1
  6
Continuous
100
AcDbLine
 10
176.1939999999999
 20
243.4159999999998
 30
0.0
 11
176.1939999999999
 21
253.6159999999999
 31
0.0
  0
LINE
  5
98B1
330
9876
100
AcDbEntity
  8
1
  6
Continuous
100
AcDbLine
 10
186.1939999999999
 20
241.908
 30
0.0
 11
186.1939999999999
 21
253.6159999999999
 31
0.0
  0
LINE
  5
98B2
330
9876
100
AcDbEntity
  8
1
  6
Continuous
100
AcDbLine
 10
163.6939999999999
 20
243.4159999999998
 30
0.0
 11
163.6939999999999
 21
251.1159999999999
 31
0.0
  0
LINE
  5
98B3
330
9876
100
AcDbEntity
  8
1
  6
Continuous
100
AcDbLine
 10
173.6939999999999
 20
243.4159999999998
 30
0.0
 11
173.6939999999999
 21
251.1159999999999
 31
0.0
  0
LINE
  5
98B4
330
9876
100
AcDbEntity
  8
1
  6
Continuous
100
AcDbLine
 10
163.6939999999999
 20
251.1159999999999
 30
0.0
 11
173.6939999999999
 21
251.1159999999999
 31
0.0
  0
LINE
  5
98B5
330
9876
100
AcDbEntity
  8
1
  6
Continuous
100
AcDbLine
 10
165.6939999999999
 20
251.1159999999999
 30
0.0
 11
165.6939999999999
 21
253.6159999999999
 31
0.0
  0
LINE
  5
98B6
330
9876
100
AcDbEntity
  8
1
  6
Continuous
100
AcDbLine
 10
171.6939999999999
 20
251.1159999999999
 30
0.0
 11
171.6939999999999
 21
253.6159999999999
 31
0.0
  0
LINE
  5
98B7
330
9876
100
AcDbEntity
  8
1
  6
Continuous
100
AcDbLine
 10
181.1939999999999
 20
246.6159999999999
 30
0.0
 11
194.1939999999999
 21
246.6159999999999
 31
0.0
  0
LINE
  5
98B8
330
9876
100
AcDbEntity
  8
1
  6
Continuous
100
AcDbLine
 10
46.7616
 20
153.8189999999999
 30
0.0
 11
44.9337
 21
153.8189999999999
 31
0.0
  0
LINE
  5
98B9
330
9876
100
AcDbEntity
  8
1
  6
Continuous
100
AcDbLine
 10
46.7616
 20
51.8193
 30
0.0
 11
44.9337
 21
51.8193
 31
0.0
  0
LINE
  5
98BA
330
9876
100
AcDbEntity
  8
1
  6
Continuous
100
AcDbLine
 10
44.9337
 20
153.8189999999999
 30
0.0
 11
44.9337
 21
51.8193
 31
0.0
  0
LINE
  5
98BB
330
9876
100
AcDbEntity
  8
1
  6
Continuous
100
AcDbLine
 10
36.13369999999999
 20
57.3193
 30
0.0
 11
44.9337
 21
57.3193
 31
0.0
  0
LINE
  5
98BC
330
9876
100
AcDbEntity
  8
1
  6
Continuous
100
AcDbLine
 10
36.13369999999999
 20
148.319
 30
0.0
 11
44.9337
 21
148.319
 31
0.0
  0
LINE
  5
98BD
330
9876
100
AcDbEntity
  8
1
  6
Continuous
100
AcDbLine
 10
36.9337
 20
59.8193
 30
0.0
 11
44.9337
 21
59.8193
 31
0.0
  0
LINE
  5
98BE
330
9876
100
AcDbEntity
  8
1
  6
Continuous
100
AcDbLine
 10
36.9337
 20
145.8189999999999
 30
0.0
 11
44.9337
 21
145.8189999999999
 31
0.0
  0
LINE
  5
98BF
330
9876
100
AcDbEntity
  8
1
  6
Continuous
100
AcDbLine
 10
32.9337
 20
98.8193
 30
0.0
 11
44.9337
 21
98.8193
 31
0.0
  0
LINE
  5
98C0
330
9876
100
AcDbEntity
  8
1
  6
Continuous
100
AcDbLine
 10
32.9337
 20
106.8189999999999
 30
0.0
 11
44.9337
 21
106.8189999999999
 31
0.0
  0
LINE
  5
98C1
330
9876
100
AcDbEntity
  8
1
  6
Continuous
100
AcDbLine
 10
36.9337
 20
98.8193
 30
0.0
 11
36.9337
 21
59.8193
 31
0.0
  0
LINE
  5
98C2
330
9876
100
AcDbEntity
  8
1
  6
Continuous
100
AcDbLine
 10
36.9337
 20
145.8189999999999
 30
0.0
 11
36.9337
 21
106.8189999999999
 31
0.0
  0
LINE
  5
98C3
330
9876
100
AcDbEntity
  8
1
  6
Continuous
100
AcDbLine
 10
102.6929999999999
 20
57.8193
 30
0.0
 11
121.6339999999999
 21
57.8193
 31
0.0
  0
LINE
  5
98C4
330
9876
100
AcDbEntity
  8
1
  6
Continuous
100
AcDbLine
 10
102.6929999999999
 20
147.8189999999998
 30
0.0
 11
121.721
 21
147.8189999999998
 31
0.0
  0
LINE
  5
98C5
330
9876
100
AcDbEntity
  8
1
  6
Continuous
100
AcDbLine
 10
105.6929999999999
 20
69.2193
 30
0.0
 11
106.6929999999999
 21
69.2193
 31
0.0
  0
LINE
  5
98C6
330
9876
100
AcDbEntity
  8
1
  6
Continuous
100
AcDbLine
 10
105.6929999999999
 20
76.41930000000002
 30
0.0
 11
106.6929999999999
 21
76.41930000000002
 31
0.0
  0
LINE
  5
98C7
330
9876
100
AcDbEntity
  8
1
  6
Continuous
100
AcDbLine
 10
106.6929999999999
 20
76.41930000000002
 30
0.0
 11
106.6929999999999
 21
69.2193
 31
0.0
  0
LINE
  5
98C8
330
9876
100
AcDbEntity
  8
1
  6
Continuous
100
AcDbLine
 10
105.6929999999999
 20
129.2189999999999
 30
0.0
 11
106.6929999999999
 21
129.2189999999999
 31
0.0
  0
LINE
  5
98C9
330
9876
100
AcDbEntity
  8
1
  6
Continuous
100
AcDbLine
 10
105.6929999999999
 20
136.4189999999998
 30
0.0
 11
106.6929999999999
 21
136.4189999999998
 31
0.0
  0
LINE
  5
98CA
330
9876
100
AcDbEntity
  8
1
  6
Continuous
100
AcDbLine
 10
106.6929999999999
 20
136.4189999999998
 30
0.0
 11
106.6929999999999
 21
129.2189999999999
 31
0.0
  0
LINE
  5
98CB
330
9876
100
AcDbEntity
  8
1
  6
Continuous
100
AcDbLine
 10
102.6929999999999
 20
238.6159999999999
 30
0.0
 11
102.6929999999999
 21
253.6159999999999
 31
0.0
  0
LINE
  5
98CC
330
9876
100
AcDbEntity
  8
1
  6
Continuous
100
AcDbLine
 10
104.6929999999999
 20
255.6159999999999
 30
0.0
 11
187.194
 21
255.6159999999999
 31
0.0
  0
LINE
  5
98CD
330
9876
100
AcDbEntity
  8
1
  6
Continuous
100
AcDbLine
 10
104.6929999999999
 20
238.6159999999999
 30
0.0
 11
104.6929999999999
 21
253.6159999999999
 31
0.0
  0
LINE
  5
98CE
330
9876
100
AcDbEntity
  8
1
  6
Continuous
100
AcDbLine
 10
102.6929999999999
 20
238.6159999999999
 30
0.0
 11
104.6929999999999
 21
238.6159999999999
 31
0.0
  0
LINE
  5
98CF
330
9876
100
AcDbEntity
  8
1
  6
Continuous
100
AcDbLine
 10
187.194
 20
253.6159999999999
 30
0.0
 11
187.194
 21
255.6159999999999
 31
0.0
  0
LINE
  5
98D0
330
9876
100
AcDbEntity
  8
1
  6
Continuous
100
AcDbLine
 10
105.6929999999999
 20
249.2159999999998
 30
0.0
 11
106.6929999999999
 21
249.2159999999998
 31
0.0
  0
LINE
  5
98D1
330
9876
100
AcDbEntity
  8
1
  6
Continuous
100
AcDbLine
 10
105.6929999999999
 20
242.016
 30
0.0
 11
106.6929999999999
 21
242.016
 31
0.0
  0
LINE
  5
98D2
330
9876
100
AcDbEntity
  8
1
  6
Continuous
100
AcDbLine
 10
106.6929999999999
 20
242.016
 30
0.0
 11
106.6929999999999
 21
249.2159999999998
 31
0.0
  0
LINE
  5
98D3
330
9876
100
AcDbEntity
  8
1
  6
Continuous
100
AcDbLine
 10
92.69299999999999
 20
108.8189999999999
 30
0.0
 11
92.69299999999999
 21
96.81930000000001
 31
0.0
  0
LINE
  5
98D4
330
9876
100
AcDbEntity
  8
1
  6
Continuous
100
AcDbLine
 10
93.693
 20
243.616
 30
0.0
 11
102.6929999999999
 21
243.616
 31
0.0
  0
LINE
  5
98D5
330
9876
100
AcDbEntity
  8
1
  6
Continuous
100
AcDbLine
 10
101.279
 20
253.6159999999999
 30
0.0
 11
102.6929999999999
 21
253.6159999999999
 31
0.0
  0
LINE
  5
98D6
330
9876
100
AcDbEntity
  8
1
  6
Continuous
100
AcDbLine
 10
106.6929999999999
 20
243.616
 30
0.0
 11
128.1929999999998
 21
243.616
 31
0.0
  0
LINE
  5
98D7
330
9876
100
AcDbEntity
  8
1
  6
Continuous
100
AcDbLine
 10
15.9337
 20
147.8189999999998
 30
0.0
 11
15.9337
 21
57.8193
 31
0.0
  0
LINE
  5
98D8
330
9876
100
AcDbEntity
  8
1
  6
Continuous
100
AcDbLine
 10
29.9337
 20
147.8189999999998
 30
0.0
 11
15.9337
 21
147.8189999999998
 31
0.0
  0
LINE
  5
98D9
330
9876
100
AcDbEntity
  8
1
  6
Continuous
100
AcDbLine
 10
29.9337
 20
57.8193
 30
0.0
 11
15.9337
 21
57.8193
 31
0.0
  0
LINE
  5
98DA
330
9876
100
AcDbEntity
  8
1
  6
Continuous
100
AcDbLine
 10
36.9337
 20
62.8193
 30
0.0
 11
43.93369999999999
 21
62.8193
 31
0.0
  0
LINE
  5
98DB
330
9876
100
AcDbEntity
  8
1
  6
Continuous
100
AcDbLine
 10
36.9337
 20
142.8189999999998
 30
0.0
 11
43.93369999999999
 21
142.8189999999998
 31
0.0
  0
LINE
  5
98DC
330
9876
100
AcDbEntity
  8
1
  6
Continuous
100
AcDbLine
 10
43.93369999999999
 20
61.8193
 30
0.0
 11
43.93369999999999
 21
59.8193
 31
0.0
  0
LINE
  5
98DD
330
9876
100
AcDbEntity
  8
1
  6
Continuous
100
AcDbLine
 10
43.93369999999999
 20
145.8189999999999
 30
0.0
 11
43.93369999999999
 21
143.8189999999998
 31
0.0
  0
LINE
  5
98DE
330
9876
100
AcDbEntity
  8
1
  6
Continuous
100
AcDbLine
 10
27.9337
 20
95.81929999999998
 30
0.0
 11
27.9337
 21
109.8189999999999
 31
0.0
  0
LINE
  5
98DF
330
9876
100
AcDbEntity
  8
1
  6
Continuous
100
AcDbLine
 10
17.9337
 20
95.81929999999998
 30
0.0
 11
17.9337
 21
109.8189999999999
 31
0.0
  0
LINE
  5
98E0
330
9876
100
AcDbEntity
  8
1
  6
Continuous
100
AcDbLine
 10
26.2266
 20
97.76800000000001
 30
0.0
 11
26.2266
 21
107.9129999999999
 31
0.0
  0
LINE
  5
98E1
330
9876
100
AcDbEntity
  8
1
  6
Continuous
100
AcDbLine
 10
27.9337
 20
109.8189999999999
 30
0.0
 11
15.9337
 21
109.8189999999999
 31
0.0
  0
LINE
  5
98E2
330
9876
100
AcDbEntity
  8
1
  6
Continuous
100
AcDbLine
 10
27.9337
 20
95.81929999999998
 30
0.0
 11
15.9337
 21
95.81929999999998
 31
0.0
  0
LINE
  5
98E3
330
9876
100
AcDbEntity
  8
4
  6
CENTER
100
AcDbLine
 10
29.9337
 20
72.8193
 30
0.0
 11
21.9337
 21
72.8193
 31
0.0
  0
LINE
  5
98E4
330
9876
100
AcDbEntity
  8
4
  6
CENTER
100
AcDbLine
 10
25.9337
 20
76.8193
 30
0.0
 11
25.9337
 21
68.8193
 31
0.0
  0
LINE
  5
98E5
330
9876
100
AcDbEntity
  8
4
  6
CENTER
100
AcDbLine
 10
29.9337
 20
132.8189999999999
 30
0.0
 11
21.9337
 21
132.8189999999999
 31
0.0
  0
LINE
  5
98E6
330
9876
100
AcDbEntity
  8
4
  6
CENTER
100
AcDbLine
 10
25.9337
 20
136.819
 30
0.0
 11
25.9337
 21
128.8189999999999
 31
0.0
  0
LINE
  5
98E7
330
9876
100
AcDbEntity
  8
4
  6
CENTER
100
AcDbLine
 10
110.677
 20
72.8193
 30
0.0
 11
99.114
 21
72.8193
 31
0.0
  0
LINE
  5
98E8
330
9876
100
AcDbEntity
  8
4
  6
CENTER
100
AcDbLine
 10
110.8729999999999
 20
132.8189999999999
 30
0.0
 11
99.50600000000001
 21
132.8189999999999
 31
0.0
  0
LINE
  5
98E9
330
9876
100
AcDbEntity
  8
4
  6
CENTER
100
AcDbLine
 10
144.1929999999999
 20
232.6159999999999
 30
0.0
 11
133.1929999999998
 21
232.6159999999999
 31
0.0
  0
LINE
  5
98EA
330
9876
100
AcDbEntity
  8
4
  6
CENTER
100
AcDbLine
 10
138.6929999999999
 20
227.116
 30
0.0
 11
138.6929999999999
 21
238.1159999999999
 31
0.0
  0
LINE
  5
98EB
330
9876
100
AcDbEntity
  8
1
  6
Continuous
100
AcDbLine
 10
186.1509999999999
 20
277.5749999999998
 30
0.0
 11
197.1509999999999
 21
277.5749999999998
 31
0.0
  0
LINE
  5
98EC
330
9876
100
AcDbEntity
  8
1
  6
Continuous
100
AcDbLine
 10
197.1509999999999
 20
277.5749999999998
 30
0.0
 11
197.1509999999999
 21
260.075
 31
0.0
  0
LINE
  5
98ED
330
9876
100
AcDbEntity
  8
1
  6
Continuous
100
AcDbLine
 10
199.1509999999999
 20
258.077
 30
0.0
 11
206.651
 21
258.077
 31
0.0
  0
LINE
  5
98EE
330
9876
100
AcDbEntity
  8
1
  6
Continuous
100
AcDbLine
 10
199.1509999999999
 20
260.074
 30
0.0
 11
206.651
 21
260.074
 31
0.0
  0
LINE
  5
98EF
330
9876
100
AcDbEntity
  8
1
  6
Continuous
100
AcDbLine
 10
199.1509999999999
 20
277.5749999999998
 30
0.0
 11
199.1509999999999
 21
260.075
 31
0.0
  0
LINE
  5
98F0
330
9876
100
AcDbEntity
  8
1
  6
Continuous
100
AcDbLine
 10
186.1509999999999
 20
279.5749999999998
 30
0.0
 11
197.1509999999999
 21
279.5749999999998
 31
0.0
  0
LINE
  5
98F1
330
9876
100
AcDbEntity
  8
1
  6
Continuous
100
AcDbLine
 10
206.6519999999999
 20
258.075
 30
0.0
 11
206.6519999999999
 21
260.075
 31
0.0
  0
LINE
  5
98F2
330
9876
100
AcDbEntity
  8
1
  6
Continuous
100
AcDbLine
 10
186.1519999999999
 20
277.5749999999998
 30
0.0
 11
186.1519999999999
 21
279.5749999999998
 31
0.0
  0
LINE
  5
98F3
330
9876
100
AcDbEntity
  8
4
  6
CENTER
100
AcDbLine
 10
9.0484
 20
102.8189999999999
 30
0.0
 11
54.5203
 21
102.8189999999999
 31
0.0
  0
LINE
  5
98F4
330
9876
100
AcDbEntity
  8
4
  6
CENTER
100
AcDbLine
 10
84.33100000000001
 20
102.8189999999999
 30
0.0
 11
213.952
 21
102.8189999999999
 31
0.0
  0
LINE
  5
98F5
330
9876
100
AcDbEntity
  8
1
  6
Continuous
100
AcDbLine
 10
208.489
 20
64.8193
 30
0.0
 11
208.489
 21
140.8189999999999
 31
0.0
  0
LINE
  5
98F6
330
9876
100
AcDbEntity
  8
1
  6
Continuous
100
AcDbLine
 10
206.489
 20
62.8193
 30
0.0
 11
201.1179999999999
 21
62.8193
 31
0.0
  0
LINE
  5
98F7
330
9876
100
AcDbEntity
  8
1
  6
Continuous
100
AcDbLine
 10
206.489
 20
142.8189999999998
 30
0.0
 11
201.1179999999999
 21
142.8189999999998
 31
0.0
  0
LINE
  5
98F8
330
9876
100
AcDbEntity
  8
1
  6
Continuous
100
AcDbLine
 10
15.754093
 20
232.0319009999999
 30
0.0
 11
15.754093
 21
225.7119009999999
 31
0.0
  0
LINE
  5
98F9
330
9876
100
AcDbEntity
  8
1
  6
Continuous
100
AcDbLine
 10
23.98549299999999
 20
218.8719009999998
 30
0.0
 11
21.246493
 21
218.8719009999998
 31
0.0
  0
LINE
  5
98FA
330
9876
100
AcDbEntity
  8
1
  6
Continuous
100
AcDbLine
 10
23.98549299999999
 20
238.8719009999999
 30
0.0
 11
21.246493
 21
238.8719009999999
 31
0.0
  0
LINE
  5
98FB
330
9876
100
AcDbEntity
  8
1
  6
Continuous
100
AcDbLine
 10
15.96149299999999
 20
232.6419009999999
 30
0.0
 11
20.453893
 21
238.4819009999999
 31
0.0
  0
LINE
  5
98FC
330
9876
100
AcDbEntity
  8
1
  6
Continuous
100
AcDbLine
 10
24.486593
 20
238.736901
 30
0.0
 11
33.75409299999999
 21
233.3719009999998
 31
0.0
  0
LINE
  5
98FD
330
9876
100
AcDbEntity
  8
1
  6
Continuous
100
AcDbLine
 10
24.486593
 20
219.0059009999999
 30
0.0
 11
33.75409299999999
 21
224.3719009999999
 31
0.0
  0
LINE
  5
98FE
330
9876
100
AcDbEntity
  8
1
  6
Continuous
100
AcDbLine
 10
33.75409299999999
 20
233.3719009999998
 30
0.0
 11
38.254093
 21
233.3719009999998
 31
0.0
  0
LINE
  5
98FF
330
9876
100
AcDbEntity
  8
1
  6
Continuous
100
AcDbLine
 10
33.75409299999999
 20
224.3719009999999
 30
0.0
 11
38.254093
 21
224.3719009999999
 31
0.0
  0
LINE
  5
9900
330
9876
100
AcDbEntity
  8
1
  6
Continuous
100
AcDbLine
 10
38.75409299999999
 20
231.8719009999998
 30
0.0
 11
47.168393
 21
231.8719009999998
 31
0.0
  0
LINE
  5
9901
330
9876
100
AcDbEntity
  8
1
  6
Continuous
100
AcDbLine
 10
38.75409299999999
 20
225.8719009999999
 30
0.0
 11
47.168393
 21
225.8719009999999
 31
0.0
  0
LINE
  5
9902
330
9876
100
AcDbEntity
  8
1
  6
Continuous
100
AcDbLine
 10
38.75409299999999
 20
224.8719009999998
 30
0.0
 11
38.75409299999999
 21
225.8719009999999
 31
0.0
  0
LINE
  5
9903
330
9876
100
AcDbEntity
  8
1
  6
Continuous
100
AcDbLine
 10
38.75409299999999
 20
232.8719009999999
 30
0.0
 11
38.75409299999999
 21
231.8719009999998
 31
0.0
  0
LINE
  5
9904
330
9876
100
AcDbEntity
  8
1
  6
Continuous
100
AcDbLine
 10
47.168393
 20
225.8719009999999
 30
0.0
 11
49.461193
 21
228.1649009999999
 31
0.0
  0
LINE
  5
9905
330
9876
100
AcDbEntity
  8
1
  6
Continuous
100
AcDbLine
 10
47.168393
 20
231.8719009999998
 30
0.0
 11
49.461193
 21
229.5789009999999
 31
0.0
  0
LINE
  5
9906
330
9876
100
AcDbEntity
  8
1
  6
Continuous
100
AcDbLine
 10
17.754093
 20
231.3719009999998
 30
0.0
 11
17.754093
 21
226.3719009999999
 31
0.0
  0
LINE
  5
9907
330
9876
100
AcDbEntity
  8
1
  6
Continuous
100
AcDbLine
 10
20.254093
 20
231.3719009999998
 30
0.0
 11
20.254093
 21
226.3719009999999
 31
0.0
  0
LINE
  5
9908
330
9876
100
AcDbEntity
  8
1
  6
Continuous
100
AcDbLine
 10
19.754093
 20
231.8719009999998
 30
0.0
 11
18.254093
 21
231.8719009999998
 31
0.0
  0
LINE
  5
9909
330
9876
100
AcDbEntity
  8
1
  6
Continuous
100
AcDbLine
 10
23.59569299999999
 20
223.7569009999999
 30
0.0
 11
26.988093
 21
223.7569009999999
 31
0.0
  0
LINE
  5
990A
330
9876
100
AcDbEntity
  8
1
  6
Continuous
100
AcDbLine
 10
27.206093
 20
224.5439009999998
 30
0.0
 11
24.302193
 21
224.5439009999998
 31
0.0
  0
LINE
  5
990B
330
9876
100
AcDbEntity
  8
1
  6
Continuous
100
AcDbLine
 10
23.81309299999999
 20
225.3309009999999
 30
0.0
 11
27.695193
 21
225.3309009999999
 31
0.0
  0
LINE
  5
990C
330
9876
100
AcDbEntity
  8
1
  6
Continuous
100
AcDbLine
 10
24.80979299999999
 20
226.9049009999999
 30
0.0
 11
23.30669299999999
 21
226.9049009999999
 31
0.0
  0
LINE
  5
990D
330
9876
100
AcDbEntity
  8
1
  6
Continuous
100
AcDbLine
 10
23.70939299999999
 20
226.1179009999999
 30
0.0
 11
27.798793
 21
226.1179009999999
 31
0.0
  0
LINE
  5
990E
330
9876
100
AcDbEntity
  8
1
  6
Continuous
100
AcDbLine
 10
28.201593
 20
226.9049009999999
 30
0.0
 11
26.698493
 21
226.9049009999999
 31
0.0
  0
LINE
  5
990F
330
9876
100
AcDbEntity
  8
1
  6
Continuous
100
AcDbLine
 10
23.07439299999999
 20
227.6909009999999
 30
0.0
 11
28.433793
 21
227.6909009999999
 31
0.0
  0
LINE
  5
9910
330
9876
100
AcDbEntity
  8
1
  6
Continuous
100
AcDbLine
 10
23.00799299999999
 20
228.4779009999998
 30
0.0
 11
28.500293
 21
228.4779009999998
 31
0.0
  0
LINE
  5
9911
330
9876
100
AcDbEntity
  8
1
  6
Continuous
100
AcDbLine
 10
25.754093
 20
228.4779009999998
 30
0.0
 11
25.754093
 21
227.6909009999999
 31
0.0
  0
LINE
  5
9912
330
9876
100
AcDbEntity
  8
1
  6
Continuous
100
AcDbLine
 10
23.00799299999999
 20
229.2649009999999
 30
0.0
 11
28.500293
 21
229.2649009999999
 31
0.0
  0
LINE
  5
9913
330
9876
100
AcDbEntity
  8
1
  6
Continuous
100
AcDbLine
 10
24.80979299999999
 20
230.8389009999999
 30
0.0
 11
23.53239299999999
 21
230.8389009999999
 31
0.0
  0
LINE
  5
9914
330
9876
100
AcDbEntity
  8
1
  6
Continuous
100
AcDbLine
 10
23.164193
 20
230.0519009999999
 30
0.0
 11
28.344093
 21
230.0519009999999
 31
0.0
  0
LINE
  5
9915
330
9876
100
AcDbEntity
  8
1
  6
Continuous
100
AcDbLine
 10
27.975893
 20
230.8389009999999
 30
0.0
 11
25.754093
 21
230.8389009999999
 31
0.0
  0
LINE
  5
9916
330
9876
100
AcDbEntity
  8
1
  6
Continuous
100
AcDbLine
 10
25.754093
 20
230.8389009999999
 30
0.0
 11
25.754093
 21
230.4459009999999
 31
0.0
  0
LINE
  5
9917
330
9876
100
AcDbEntity
  8
1
  6
Continuous
100
AcDbLine
 10
23.167193
 20
231.6259009999999
 30
0.0
 11
28.094293
 21
231.6259009999999
 31
0.0
  0
LINE
  5
9918
330
9876
100
AcDbEntity
  8
1
  6
Continuous
100
AcDbLine
 10
23.53799299999999
 20
232.4129009999999
 30
0.0
 11
25.36069299999999
 21
232.4129009999999
 31
0.0
  0
LINE
  5
9919
330
9876
100
AcDbEntity
  8
1
  6
Continuous
100
AcDbLine
 10
25.36069299999999
 20
233.199901
 30
0.0
 11
23.679393
 21
233.199901
 31
0.0
  0
LINE
  5
991A
330
9876
100
AcDbEntity
  8
1
  6
Continuous
100
AcDbLine
 10
25.754093
 20
232.8069009999999
 30
0.0
 11
27.641793
 21
232.8069009999999
 31
0.0
  0
LINE
  5
991B
330
9876
100
AcDbEntity
  8
1
  6
Continuous
100
AcDbLine
 10
27.226793
 20
233.6009009999999
 30
0.0
 11
23.908993
 21
234.4899009999998
 31
0.0
  0
LINE
  5
991C
330
9876
100
AcDbEntity
  8
1
  6
Continuous
100
AcDbLine
 10
25.754093
 20
235.6219009999998
 30
0.0
 11
25.754093
 21
233.9959009999998
 31
0.0
  0
LINE
  5
991D
330
9876
100
AcDbEntity
  8
1
  6
Continuous
100
AcDbLine
 10
16.754093
 20
232.0319009999999
 30
0.0
 11
16.754093
 21
225.7116599999999
 31
0.0
  0
LINE
  5
991E
330
9876
100
AcDbEntity
  8
1
  6
Continuous
100
AcDbLine
 10
16.754093
 20
232.0319009999999
 30
0.0
 11
21.246493
 21
237.8719009999998
 31
0.0
  0
LINE
  5
991F
330
9876
100
AcDbEntity
  8
1
  6
Continuous
100
AcDbLine
 10
23.98549299999999
 20
219.871901
 30
0.0
 11
21.246493
 21
219.871901
 31
0.0
  0
LINE
  5
9920
330
9876
100
AcDbEntity
  8
1
  6
Continuous
100
AcDbLine
 10
23.98549299999999
 20
237.8719009999998
 30
0.0
 11
21.246493
 21
237.8719009999998
 31
0.0
  0
LINE
  5
9921
330
9876
100
AcDbEntity
  8
1
  6
Continuous
100
AcDbLine
 10
23.98549299999999
 20
237.8719009999998
 30
0.0
 11
33.75409299999999
 21
232.2159009999999
 31
0.0
  0
LINE
  5
9922
330
9876
100
AcDbEntity
  8
1
  6
Continuous
100
AcDbLine
 10
23.98549299999999
 20
219.871901
 30
0.0
 11
33.75409299999999
 21
225.5269009999999
 31
0.0
  0
LINE
  5
9923
330
9876
100
AcDbEntity
  8
1
  6
Continuous
100
AcDbLine
 10
33.75409299999999
 20
225.5269009999999
 30
0.0
 11
33.75409299999999
 21
232.2159009999999
 31
0.0
  0
LINE
  5
9924
330
9876
100
AcDbEntity
  8
1
  6
Continuous
100
AcDbLine
 10
16.754093
 20
225.7116599999999
 30
0.0
 11
21.246493
 21
219.871901
 31
0.0
  0
LINE
  5
9925
330
9876
100
AcDbEntity
  8
1
  6
Continuous
100
AcDbLine
 10
15.935793
 20
225.13711
 30
0.0
 11
20.453893
 21
219.261901
 31
0.0
  0
LINE
  5
9926
330
9876
100
AcDbEntity
  8
4
  6
CENTER
100
AcDbLine
 10
181.1939999999999
 20
250.2969999999999
 30
0.0
 11
181.1939999999999
 21
257.218
 31
0.0
  0
LINE
  5
9927
330
9876
100
AcDbEntity
  8
4
  6
CENTER
100
AcDbLine
 10
133.1929999999998
 20
250.2969999999999
 30
0.0
 11
133.1929999999998
 21
257.218
 31
0.0
  0
LINE
  5
9928
330
9876
100
AcDbEntity
  8
1
  6
Continuous
100
AcDbLine
 10
104.6929999999999
 20
57.8193
 30
0.0
 11
104.6929999999999
 21
147.8189999999998
 31
0.0
  0
LINE
  5
9929
330
9876
100
AcDbEntity
  8
1
  6
Continuous
100
AcDbLine
 10
102.6929999999999
 20
57.8193
 30
0.0
 11
102.6929999999999
 21
147.8189999999998
 31
0.0
  0
LINE
  5
992A
330
9876
100
AcDbEntity
  8
1
  6
Continuous
100
AcDbLine
 10
93.693
 20
109.8189999999999
 30
0.0
 11
102.6929999999999
 21
109.8189999999999
 31
0.0
  0
LINE
  5
992B
330
9876
100
AcDbEntity
  8
1
  6
Continuous
100
AcDbLine
 10
104.6929999999999
 20
109.8189999999999
 30
0.0
 11
119.742
 21
109.8189999999999
 31
0.0
  0
LINE
  5
992C
330
9876
100
AcDbEntity
  8
1
  6
Continuous
100
AcDbLine
 10
93.693
 20
95.81929999999998
 30
0.0
 11
102.6929999999999
 21
95.81929999999998
 31
0.0
  0
LINE
  5
992D
330
9876
100
AcDbEntity
  8
1
  6
Continuous
100
AcDbLine
 10
104.6929999999999
 20
95.81929999999998
 30
0.0
 11
119.742
 21
95.81929999999998
 31
0.0
  0
LINE
  5
992E
330
9876
100
AcDbEntity
  8
1
  6
Continuous
100
AcDbLine
 10
32.9337
 20
60.81929999999999
 30
0.0
 11
32.9337
 21
144.8189999999998
 31
0.0
  0
LINE
  5
992F
330
9876
100
AcDbEntity
  8
1
  6
Continuous
100
AcDbLine
 10
148.0939999999999
 20
68.7693
 30
0.0
 11
157.694
 21
68.7693
 31
0.0
  0
LINE
  5
9930
330
9876
100
AcDbEntity
  8
1
  6
Continuous
100
AcDbLine
 10
148.0939999999999
 20
70.86929999999998
 30
0.0
 11
157.694
 21
70.86929999999998
 31
0.0
  0
LINE
  5
9931
330
9876
100
AcDbEntity
  8
1
  6
Continuous
100
AcDbLine
 10
157.694
 20
70.86929999999998
 30
0.0
 11
157.694
 21
68.7693
 31
0.0
  0
LINE
  5
9932
330
9876
100
AcDbEntity
  8
1
  6
Continuous
100
AcDbLine
 10
148.0939999999999
 20
70.86929999999998
 30
0.0
 11
148.0939999999999
 21
68.7693
 31
0.0
  0
LINE
  5
9933
330
9876
100
AcDbEntity
  8
4
  6
CENTER
100
AcDbLine
 10
161.8439999999999
 20
69.8193
 30
0.0
 11
144.5439999999998
 21
69.8193
 31
0.0
  0
LINE
  5
9934
330
9876
100
AcDbEntity
  8
4
  6
CENTER
100
AcDbLine
 10
153.1939999999998
 20
78.4693
 30
0.0
 11
153.1939999999998
 21
61.0419
 31
0.0
  0
LINE
  5
9935
330
9876
100
AcDbEntity
  8
5
  6
PHANTOM
100
AcDbLine
 10
125.3649999999999
 20
231.043
 30
0.0
 11
128.1939999999998
 21
235.067
 31
0.0
  0
LINE
  5
9936
330
9876
100
AcDbEntity
  8
5
  6
PHANTOM
100
AcDbLine
 10
127.062
 20
233.4569999999999
 30
0.0
 11
128.1929999999998
 21
232.662
 31
0.0
  0
LINE
  5
9937
330
9876
100
AcDbEntity
  8
5
  6
PHANTOM
100
AcDbLine
 10
142.9779999999998
 20
222.2719999999999
 30
0.0
 11
174.7859999999998
 21
199.919
 31
0.0
  0
LINE
  5
9938
330
9876
100
AcDbEntity
  8
1
  6
Continuous
100
AcDbLine
 10
255.6249999999999
 20
153.8189999999999
 30
0.0
 11
257.4529999999999
 21
153.8189999999999
 31
0.0
  0
LINE
  5
9939
330
9876
100
AcDbEntity
  8
1
  6
Continuous
100
AcDbLine
 10
255.6249999999999
 20
51.8193
 30
0.0
 11
257.4529999999999
 21
51.8193
 31
0.0
  0
LINE
  5
993A
330
9876
100
AcDbEntity
  8
1
  6
Continuous
100
AcDbLine
 10
257.4529999999999
 20
153.8189999999999
 30
0.0
 11
257.4529999999999
 21
51.8193
 31
0.0
  0
LINE
  5
993B
330
9876
100
AcDbEntity
  8
1
  6
Continuous
100
AcDbLine
 10
266.2529999999998
 20
57.3193
 30
0.0
 11
257.4529999999999
 21
57.3193
 31
0.0
  0
LINE
  5
993C
330
9876
100
AcDbEntity
  8
1
  6
Continuous
100
AcDbLine
 10
266.2529999999998
 20
148.319
 30
0.0
 11
257.4529999999999
 21
148.319
 31
0.0
  0
LINE
  5
993D
330
9876
100
AcDbEntity
  8
1
  6
Continuous
100
AcDbLine
 10
286.4529999999998
 20
147.8189999999998
 30
0.0
 11
286.4529999999998
 21
57.8193
 31
0.0
  0
LINE
  5
993E
330
9876
100
AcDbEntity
  8
1
  6
Continuous
100
AcDbLine
 10
272.4529999999999
 20
147.8189999999998
 30
0.0
 11
286.4529999999998
 21
147.8189999999998
 31
0.0
  0
LINE
  5
993F
330
9876
100
AcDbEntity
  8
1
  6
Continuous
100
AcDbLine
 10
272.4529999999999
 20
57.8193
 30
0.0
 11
286.4529999999998
 21
57.8193
 31
0.0
  0
LINE
  5
9940
330
9876
100
AcDbEntity
  8
4
  6
CENTER
100
AcDbLine
 10
293.339
 20
102.8189999999999
 30
0.0
 11
247.867
 21
102.8189999999999
 31
0.0
  0
LINE
  5
9941
330
9876
100
AcDbEntity
  8
1
  6
Continuous
100
AcDbLine
 10
274.2529999999998
 20
140.3189999999999
 30
0.0
 11
274.2529999999998
 21
132.8189999999999
 31
0.0
  0
LINE
  5
9942
330
9876
100
AcDbEntity
  8
1
  6
Continuous
100
AcDbLine
 10
284.4529999999998
 20
112.419
 30
0.0
 11
277.4529999999999
 21
112.419
 31
0.0
  0
LINE
  5
9943
330
9876
100
AcDbEntity
  8
1
  6
Continuous
100
AcDbLine
 10
284.4529999999998
 20
93.2193
 30
0.0
 11
277.4529999999999
 21
93.2193
 31
0.0
  0
LINE
  5
9944
330
9876
100
AcDbEntity
  8
4
  6
CENTER
100
AcDbLine
 10
289.38
 20
72.8193
 30
0.0
 11
276.4529999999999
 21
72.8193
 31
0.0
  0
LINE
  5
9945
330
9876
100
AcDbEntity
  8
4
  6
CENTER
100
AcDbLine
 10
289.678
 20
132.8189999999999
 30
0.0
 11
276.4529999999999
 21
132.8189999999999
 31
0.0
  0
LINE
  5
9946
330
9876
100
AcDbEntity
  8
1
  6
Continuous
100
AcDbLine
 10
284.4529999999998
 20
137.8189999999999
 30
0.0
 11
274.2529999999998
 21
137.8189999999999
 31
0.0
  0
LINE
  5
9947
330
9876
100
AcDbEntity
  8
1
  6
Continuous
100
AcDbLine
 10
284.4529999999998
 20
127.819
 30
0.0
 11
277.4529999999999
 21
127.819
 31
0.0
  0
LINE
  5
9948
330
9876
100
AcDbEntity
  8
1
  6
Continuous
100
AcDbLine
 10
284.4529999999998
 20
77.8193
 30
0.0
 11
277.4529999999999
 21
77.8193
 31
0.0
  0
LINE
  5
9949
330
9876
100
AcDbEntity
  8
1
  6
Continuous
100
AcDbLine
 10
284.4529999999998
 20
67.8193
 30
0.0
 11
274.2529999999998
 21
67.8193
 31
0.0
  0
LINE
  5
994A
330
9876
100
AcDbEntity
  8
4
  6
CENTER
100
AcDbLine
 10
290.591
 20
120.3189999999999
 30
0.0
 11
274.3589999999999
 21
120.3189999999999
 31
0.0
  0
LINE
  5
994B
330
9876
100
AcDbEntity
  8
4
  6
CENTER
100
AcDbLine
 10
289.5229999999999
 20
85.3193
 30
0.0
 11
273.505
 21
85.3193
 31
0.0
  0
LINE
  5
994C
330
9876
100
AcDbEntity
  8
1
  6
Continuous
100
AcDbLine
 10
277.4529999999999
 20
131.8189999999999
 30
0.0
 11
277.4529999999999
 21
112.419
 31
0.0
  0
LINE
  5
994D
330
9876
100
AcDbEntity
  8
1
  6
Continuous
100
AcDbLine
 10
284.4529999999998
 20
147.8189999999998
 30
0.0
 11
284.4529999999998
 21
57.8193
 31
0.0
  0
LINE
  5
994E
330
9876
100
AcDbEntity
  8
1
  6
Continuous
100
AcDbLine
 10
276.4529999999999
 20
82.8193
 30
0.0
 11
257.4529999999999
 21
82.8193
 31
0.0
  0
LINE
  5
994F
330
9876
100
AcDbEntity
  8
1
  6
Continuous
100
AcDbLine
 10
276.4529999999999
 20
122.819
 30
0.0
 11
257.4529999999999
 21
122.819
 31
0.0
  0
LINE
  5
9950
330
9876
100
AcDbEntity
  8
1
  6
Continuous
100
AcDbLine
 10
276.4529999999999
 20
132.8189999999999
 30
0.0
 11
257.4529999999999
 21
132.8189999999999
 31
0.0
  0
LINE
  5
9951
330
9876
100
AcDbEntity
  8
1
  6
Continuous
100
AcDbLine
 10
276.4529999999999
 20
72.8193
 30
0.0
 11
257.4529999999999
 21
72.8193
 31
0.0
  0
LINE
  5
9952
330
9876
100
AcDbEntity
  8
1
  6
Continuous
100
AcDbLine
 10
274.2529999999998
 20
72.8193
 30
0.0
 11
274.2529999999998
 21
65.3193
 31
0.0
  0
LINE
  5
9953
330
9876
100
AcDbEntity
  8
1
  6
Continuous
100
AcDbLine
 10
277.4529999999999
 20
93.2193
 30
0.0
 11
277.4529999999999
 21
73.8193
 31
0.0
  0
LINE
  5
9954
330
9876
100
AcDbEntity
  8
1
  6
Continuous
100
AcDbLine
 10
308.362
 20
62.8193
 30
0.0
 11
308.362
 21
142.8189999999998
 31
0.0
  0
LINE
  5
9955
330
9876
100
AcDbEntity
  8
1
  6
Continuous
100
AcDbLine
 10
310.362
 20
62.8193
 30
0.0
 11
310.362
 21
142.8189999999998
 31
0.0
  0
LINE
  5
9956
330
9876
100
AcDbEntity
  8
1
  6
Continuous
100
AcDbLine
 10
329.8619999999999
 20
62.8193
 30
0.0
 11
329.8619999999999
 21
142.8189999999998
 31
0.0
  0
LINE
  5
9957
330
9876
100
AcDbEntity
  8
1
  6
Continuous
100
AcDbLine
 10
308.362
 20
62.8193
 30
0.0
 11
329.8619999999999
 21
62.8193
 31
0.0
  0
LINE
  5
9958
330
9876
100
AcDbEntity
  8
1
  6
Continuous
100
AcDbLine
 10
308.362
 20
142.8189999999998
 30
0.0
 11
329.8619999999999
 21
142.8189999999998
 31
0.0
  0
LINE
  5
9959
330
9876
100
AcDbEntity
  8
4
  6
CENTER
100
AcDbLine
 10
192.1519999999999
 20
241.4629999999999
 30
0.0
 11
192.1519999999999
 21
251.36
 31
0.0
  0
LINE
  5
995A
330
9876
100
AcDbEntity
  8
4
  6
CENTER
100
AcDbLine
 10
192.1519999999999
 20
273.7149999999999
 30
0.0
 11
192.1519999999999
 21
286.855
 31
0.0
  0
LINE
  5
995B
330
9876
100
AcDbEntity
  8
4
  6
CENTER
100
AcDbLine
 10
303.865
 20
102.8189999999999
 30
0.0
 11
335.435
 21
102.8189999999999
 31
0.0
  0
LINE
  5
995C
330
9876
100
AcDbEntity
  8
4
  6
CENTER
100
AcDbLine
 10
326.862
 20
77.8193
 30
0.0
 11
337.2619999999999
 21
77.8193
 31
0.0
  0
LINE
  5
995D
330
9876
100
AcDbEntity
  8
4
  6
CENTER
100
AcDbLine
 10
326.862
 20
127.819
 30
0.0
 11
337.2619999999999
 21
127.819
 31
0.0
  0
LINE
  5
995E
330
9876
100
AcDbEntity
  8
1
  6
Continuous
100
AcDbLine
 10
330.6619999999999
 20
132.8189999999999
 30
0.0
 11
330.6619999999999
 21
122.819
 31
0.0
  0
LINE
  5
995F
330
9876
100
AcDbEntity
  8
1
  6
Continuous
100
AcDbLine
 10
331.6619999999999
 20
131.6189999999998
 30
0.0
 11
331.6619999999999
 21
124.0189999999999
 31
0.0
  0
LINE
  5
9960
330
9876
100
AcDbEntity
  8
1
  6
Continuous
100
AcDbLine
 10
331.6619999999999
 20
128.281
 30
0.0
 11
330.6619999999999
 21
127.4419999999999
 31
0.0
  0
LINE
  5
9961
330
9876
100
AcDbEntity
  8
1
  6
Continuous
100
AcDbLine
 10
331.6619999999999
 20
131.3189999999998
 30
0.0
 11
332.7809999999999
 21
131.221
 31
0.0
  0
LINE
  5
9962
330
9876
100
AcDbEntity
  8
1
  6
Continuous
100
AcDbLine
 10
331.6619999999999
 20
124.319
 30
0.0
 11
332.7809999999999
 21
124.4169999999999
 31
0.0
  0
LINE
  5
9963
330
9876
100
AcDbEntity
  8
1
  6
Continuous
100
AcDbLine
 10
451.5299999999998
 20
148.319
 30
0.0
 11
451.5299999999998
 21
147.8189999999998
 31
0.0
  0
LINE
  5
9964
330
9876
100
AcDbEntity
  8
1
  6
Continuous
100
AcDbLine
 10
477.0299999999998
 20
57.8193
 30
0.0
 11
395.5299999999999
 21
57.8193
 31
0.0
  0
LINE
  5
9965
330
9876
100
AcDbEntity
  8
1
  6
Continuous
100
AcDbLine
 10
477.0299999999998
 20
147.8189999999998
 30
0.0
 11
395.5299999999999
 21
147.8189999999998
 31
0.0
  0
LINE
  5
9966
330
9876
100
AcDbEntity
  8
1
  6
Continuous
100
AcDbLine
 10
487.0299999999998
 20
108.8189999999999
 30
0.0
 11
487.0299999999998
 21
96.81930000000001
 31
0.0
  0
LINE
  5
9967
330
9876
100
AcDbEntity
  8
4
  6
CENTER
100
AcDbLine
 10
471.457
 20
72.8193
 30
0.0
 11
482.269
 21
72.8193
 31
0.0
  0
LINE
  5
9968
330
9876
100
AcDbEntity
  8
4
  6
CENTER
100
AcDbLine
 10
471.6979999999998
 20
132.8189999999999
 30
0.0
 11
482.0289999999998
 21
132.8189999999999
 31
0.0
  0
LINE
  5
9969
330
9876
100
AcDbEntity
  8
4
  6
CENTER
100
AcDbLine
 10
495.392
 20
102.8189999999999
 30
0.0
 11
365.7709999999998
 21
102.8189999999999
 31
0.0
  0
LINE
  5
996A
330
9876
100
AcDbEntity
  8
1
  6
Continuous
100
AcDbLine
 10
391.7339999999999
 20
140.8189999999999
 30
0.0
 11
391.7339999999999
 21
114.819
 31
0.0
  0
LINE
  5
996B
330
9876
100
AcDbEntity
  8
1
  6
Continuous
100
AcDbLine
 10
389.7339999999999
 20
142.8189999999998
 30
0.0
 11
373.2339999999999
 21
142.8189999999998
 31
0.0
  0
LINE
  5
996C
330
9876
100
AcDbEntity
  8
1
  6
Continuous
100
AcDbLine
 10
389.7339999999999
 20
62.8193
 30
0.0
 11
373.2339999999999
 21
62.8193
 31
0.0
  0
LINE
  5
996D
330
9876
100
AcDbEntity
  8
1
  6
Continuous
100
AcDbLine
 10
477.0299999999998
 20
57.8193
 30
0.0
 11
477.0299999999998
 21
95.81929999999998
 31
0.0
  0
LINE
  5
996E
330
9876
100
AcDbEntity
  8
1
  6
Continuous
100
AcDbLine
 10
486.0299999999998
 20
109.8189999999999
 30
0.0
 11
475.03
 21
109.8189999999999
 31
0.0
  0
LINE
  5
996F
330
9876
100
AcDbEntity
  8
1
  6
Continuous
100
AcDbLine
 10
486.0299999999998
 20
95.81929999999998
 30
0.0
 11
475.03
 21
95.81929999999998
 31
0.0
  0
LINE
  5
9970
330
9876
100
AcDbEntity
  8
1
  6
Continuous
100
AcDbLine
 10
371.2339999999999
 20
140.8189999999999
 30
0.0
 11
371.2339999999999
 21
64.8193
 31
0.0
  0
LINE
  5
9971
330
9876
100
AcDbEntity
  8
1
  6
Continuous
100
AcDbLine
 10
386.734
 20
112.819
 30
0.0
 11
389.7339999999999
 21
112.819
 31
0.0
  0
LINE
  5
9972
330
9876
100
AcDbEntity
  8
1
  6
Continuous
100
AcDbLine
 10
386.734
 20
92.8193
 30
0.0
 11
389.7339999999999
 21
92.8193
 31
0.0
  0
LINE
  5
9973
330
9876
100
AcDbEntity
  8
1
  6
Continuous
100
AcDbLine
 10
386.734
 20
112.819
 30
0.0
 11
386.734
 21
92.8193
 31
0.0
  0
LINE
  5
9974
330
9876
100
AcDbEntity
  8
1
  6
Continuous
100
AcDbLine
 10
391.7339999999999
 20
90.81929999999998
 30
0.0
 11
391.7339999999999
 21
64.8193
 31
0.0
  0
LINE
  5
9975
330
9876
100
AcDbEntity
  8
1
  6
Continuous
100
AcDbLine
 10
389.5299999999999
 20
57.3193
 30
0.0
 11
451.5299999999998
 21
57.3193
 31
0.0
  0
LINE
  5
9976
330
9876
100
AcDbEntity
  8
1
  6
Continuous
100
AcDbLine
 10
389.5299999999999
 20
148.319
 30
0.0
 11
451.5299999999998
 21
148.319
 31
0.0
  0
LINE
  5
9977
330
9876
100
AcDbEntity
  8
1
  6
Continuous
100
AcDbLine
 10
386.406
 20
77.1477
 30
0.0
 11
386.9119999999999
 21
77.384
 31
0.0
  0
LINE
  5
9978
330
9876
100
AcDbEntity
  8
1
  6
Continuous
100
AcDbLine
 10
386.9119999999999
 20
77.384
 30
0.0
 11
387.7909999999998
 21
77.39929999999998
 31
0.0
  0
LINE
  5
9979
330
9876
100
AcDbEntity
  8
1
  6
Continuous
100
AcDbLine
 10
386.9119999999999
 20
78.2547
 30
0.0
 11
387.7909999999998
 21
78.2393
 31
0.0
  0
LINE
  5
997A
330
9876
100
AcDbEntity
  8
1
  6
Continuous
100
AcDbLine
 10
386.406
 20
78.49089999999998
 30
0.0
 11
386.9119999999999
 21
78.25459999999998
 31
0.0
  0
LINE
  5
997B
330
9876
100
AcDbEntity
  8
1
  6
Continuous
100
AcDbLine
 10
385.0619999999998
 20
78.49089999999998
 30
0.0
 11
385.2989999999999
 21
78.99769999999998
 31
0.0
  0
LINE
  5
997C
330
9876
100
AcDbEntity
  8
1
  6
Continuous
100
AcDbLine
 10
385.2989999999999
 20
78.9976
 30
0.0
 11
385.314
 21
79.8769
 31
0.0
  0
LINE
  5
997D
330
9876
100
AcDbEntity
  8
1
  6
Continuous
100
AcDbLine
 10
386.1689999999999
 20
78.99769999999998
 30
0.0
 11
386.154
 21
79.8769
 31
0.0
  0
LINE
  5
997E
330
9876
100
AcDbEntity
  8
1
  6
Continuous
100
AcDbLine
 10
386.406
 20
78.49089999999998
 30
0.0
 11
386.1689999999999
 21
78.99769999999998
 31
0.0
  0
LINE
  5
997F
330
9876
100
AcDbEntity
  8
1
  6
Continuous
100
AcDbLine
 10
385.0619999999998
 20
77.1477
 30
0.0
 11
384.5559999999999
 21
77.384
 31
0.0
  0
LINE
  5
9980
330
9876
100
AcDbEntity
  8
1
  6
Continuous
100
AcDbLine
 10
384.5559999999999
 20
77.384
 30
0.0
 11
383.6759999999999
 21
77.39929999999998
 31
0.0
  0
LINE
  5
9981
330
9876
100
AcDbEntity
  8
1
  6
Continuous
100
AcDbLine
 10
384.5559999999999
 20
78.2547
 30
0.0
 11
383.6759999999999
 21
78.2393
 31
0.0
  0
LINE
  5
9982
330
9876
100
AcDbEntity
  8
1
  6
Continuous
100
AcDbLine
 10
385.0619999999998
 20
78.49089999999998
 30
0.0
 11
384.5559999999999
 21
78.2547
 31
0.0
  0
LINE
  5
9983
330
9876
100
AcDbEntity
  8
1
  6
Continuous
100
AcDbLine
 10
386.406
 20
77.1477
 30
0.0
 11
386.1689999999999
 21
76.64100000000002
 31
0.0
  0
LINE
  5
9984
330
9876
100
AcDbEntity
  8
1
  6
Continuous
100
AcDbLine
 10
386.1689999999999
 20
76.64100000000002
 30
0.0
 11
386.154
 21
75.76170000000002
 31
0.0
  0
LINE
  5
9985
330
9876
100
AcDbEntity
  8
1
  6
Continuous
100
AcDbLine
 10
385.2989999999999
 20
76.64100000000002
 30
0.0
 11
385.314
 21
75.76170000000002
 31
0.0
  0
LINE
  5
9986
330
9876
100
AcDbEntity
  8
1
  6
Continuous
100
AcDbLine
 10
385.0619999999998
 20
77.1477
 30
0.0
 11
385.2989999999999
 21
76.64100000000002
 31
0.0
  0
LINE
  5
9987
330
9876
100
AcDbEntity
  8
1
  6
Continuous
100
AcDbLine
 10
386.406
 20
127.1479999999999
 30
0.0
 11
386.9119999999999
 21
127.384
 31
0.0
  0
LINE
  5
9988
330
9876
100
AcDbEntity
  8
1
  6
Continuous
100
AcDbLine
 10
386.9119999999999
 20
127.384
 30
0.0
 11
387.7909999999998
 21
127.3989999999999
 31
0.0
  0
LINE
  5
9989
330
9876
100
AcDbEntity
  8
1
  6
Continuous
100
AcDbLine
 10
386.9119999999999
 20
128.255
 30
0.0
 11
387.7909999999998
 21
128.239
 31
0.0
  0
LINE
  5
998A
330
9876
100
AcDbEntity
  8
1
  6
Continuous
100
AcDbLine
 10
386.406
 20
128.491
 30
0.0
 11
386.9119999999999
 21
128.255
 31
0.0
  0
LINE
  5
998B
330
9876
100
AcDbEntity
  8
1
  6
Continuous
100
AcDbLine
 10
385.0619999999998
 20
128.491
 30
0.0
 11
385.2989999999999
 21
128.9979999999999
 31
0.0
  0
LINE
  5
998C
330
9876
100
AcDbEntity
  8
1
  6
Continuous
100
AcDbLine
 10
385.2989999999999
 20
128.9979999999999
 30
0.0
 11
385.314
 21
129.877
 31
0.0
  0
LINE
  5
998D
330
9876
100
AcDbEntity
  8
1
  6
Continuous
100
AcDbLine
 10
386.1689999999999
 20
128.9979999999999
 30
0.0
 11
386.154
 21
129.877
 31
0.0
  0
LINE
  5
998E
330
9876
100
AcDbEntity
  8
1
  6
Continuous
100
AcDbLine
 10
386.406
 20
128.491
 30
0.0
 11
386.1689999999999
 21
128.9979999999999
 31
0.0
  0
LINE
  5
998F
330
9876
100
AcDbEntity
  8
1
  6
Continuous
100
AcDbLine
 10
385.0619999999998
 20
127.1479999999999
 30
0.0
 11
384.5559999999999
 21
127.384
 31
0.0
  0
LINE
  5
9990
330
9876
100
AcDbEntity
  8
1
  6
Continuous
100
AcDbLine
 10
384.5559999999999
 20
127.384
 30
0.0
 11
383.6759999999999
 21
127.3989999999999
 31
0.0
  0
LINE
  5
9991
330
9876
100
AcDbEntity
  8
1
  6
Continuous
100
AcDbLine
 10
384.5559999999999
 20
128.255
 30
0.0
 11
383.6759999999999
 21
128.239
 31
0.0
  0
LINE
  5
9992
330
9876
100
AcDbEntity
  8
1
  6
Continuous
100
AcDbLine
 10
385.0619999999998
 20
128.491
 30
0.0
 11
384.5559999999999
 21
128.255
 31
0.0
  0
LINE
  5
9993
330
9876
100
AcDbEntity
  8
1
  6
Continuous
100
AcDbLine
 10
386.406
 20
127.1479999999999
 30
0.0
 11
386.1689999999999
 21
126.641
 31
0.0
  0
LINE
  5
9994
330
9876
100
AcDbEntity
  8
1
  6
Continuous
100
AcDbLine
 10
386.1689999999999
 20
126.641
 30
0.0
 11
386.154
 21
125.7619999999999
 31
0.0
  0
LINE
  5
9995
330
9876
100
AcDbEntity
  8
1
  6
Continuous
100
AcDbLine
 10
385.2989999999999
 20
126.641
 30
0.0
 11
385.314
 21
125.7619999999999
 31
0.0
  0
LINE
  5
9996
330
9876
100
AcDbEntity
  8
1
  6
Continuous
100
AcDbLine
 10
385.0619999999998
 20
127.1479999999999
 30
0.0
 11
385.2989999999999
 21
126.641
 31
0.0
  0
LINE
  5
9997
330
9876
100
AcDbEntity
  8
4
  6
CENTER
100
AcDbLine
 10
392.2339999999999
 20
77.8193
 30
0.0
 11
379.2339999999999
 21
77.8193
 31
0.0
  0
LINE
  5
9998
330
9876
100
AcDbEntity
  8
4
  6
CENTER
100
AcDbLine
 10
385.7339999999999
 20
84.31929999999999
 30
0.0
 11
385.7339999999999
 21
71.3193
 31
0.0
  0
LINE
  5
9999
330
9876
100
AcDbEntity
  8
4
  6
CENTER
100
AcDbLine
 10
392.2339999999999
 20
127.819
 30
0.0
 11
379.2339999999999
 21
127.819
 31
0.0
  0
LINE
  5
999A
330
9876
100
AcDbEntity
  8
4
  6
CENTER
100
AcDbLine
 10
385.7339999999999
 20
134.3189999999998
 30
0.0
 11
385.7339999999999
 21
121.3189999999999
 31
0.0
  0
LINE
  5
999B
330
9876
100
AcDbEntity
  8
1
  6
Continuous
100
AcDbLine
 10
477.0299999999998
 20
110.019
 30
0.0
 11
475.03
 21
110.019
 31
0.0
  0
LINE
  5
999C
330
9876
100
AcDbEntity
  8
1
  6
Continuous
100
AcDbLine
 10
477.0299999999998
 20
95.6193
 30
0.0
 11
475.03
 21
95.6193
 31
0.0
  0
LINE
  5
999D
330
9876
100
AcDbEntity
  8
1
  6
Continuous
100
AcDbLine
 10
475.03
 20
95.6193
 30
0.0
 11
475.03
 21
110.019
 31
0.0
  0
LINE
  5
999E
330
9876
100
AcDbEntity
  8
1
  6
Continuous
100
AcDbLine
 10
392.53
 20
60.81929999999999
 30
0.0
 11
392.53
 21
144.8189999999998
 31
0.0
  0
LINE
  5
999F
330
9876
100
AcDbEntity
  8
1
  6
Continuous
100
AcDbLine
 10
451.5299999999998
 20
57.8193
 30
0.0
 11
451.5299999999998
 21
57.3193
 31
0.0
  0
LINE
  5
99A0
330
9876
100
AcDbEntity
  8
1
  6
Continuous
100
AcDbLine
 10
447.223
 20
72.1263
 30
0.0
 11
447.7719999999997
 21
72.38240000000002
 31
0.0
  0
LINE
  5
99A1
330
9876
100
AcDbEntity
  8
1
  6
Continuous
100
AcDbLine
 10
447.7719999999997
 20
72.38240000000002
 30
0.0
 11
448.74
 21
72.39929999999998
 31
0.0
  0
LINE
  5
99A2
330
9876
100
AcDbEntity
  8
1
  6
Continuous
100
AcDbLine
 10
447.7719999999997
 20
73.2562
 30
0.0
 11
448.74
 21
73.2393
 31
0.0
  0
LINE
  5
99A3
330
9876
100
AcDbEntity
  8
1
  6
Continuous
100
AcDbLine
 10
447.223
 20
73.51229999999998
 30
0.0
 11
447.7719999999997
 21
73.2562
 31
0.0
  0
LINE
  5
99A4
330
9876
100
AcDbEntity
  8
1
  6
Continuous
100
AcDbLine
 10
445.837
 20
73.51229999999998
 30
0.0
 11
446.093
 21
74.0617
 31
0.0
  0
LINE
  5
99A5
330
9876
100
AcDbEntity
  8
1
  6
Continuous
100
AcDbLine
 10
446.093
 20
74.0617
 30
0.0
 11
446.11
 21
75.02979999999998
 31
0.0
  0
LINE
  5
99A6
330
9876
100
AcDbEntity
  8
1
  6
Continuous
100
AcDbLine
 10
446.9669999999998
 20
74.0617
 30
0.0
 11
446.95
 21
75.02979999999998
 31
0.0
  0
LINE
  5
99A7
330
9876
100
AcDbEntity
  8
1
  6
Continuous
100
AcDbLine
 10
447.223
 20
73.5124
 30
0.0
 11
446.9669999999998
 21
74.0617
 31
0.0
  0
LINE
  5
99A8
330
9876
100
AcDbEntity
  8
1
  6
Continuous
100
AcDbLine
 10
445.837
 20
72.12619999999998
 30
0.0
 11
445.2869999999998
 21
72.38240000000002
 31
0.0
  0
LINE
  5
99A9
330
9876
100
AcDbEntity
  8
1
  6
Continuous
100
AcDbLine
 10
445.2869999999998
 20
72.38240000000002
 30
0.0
 11
444.319
 21
72.39929999999998
 31
0.0
  0
LINE
  5
99AA
330
9876
100
AcDbEntity
  8
1
  6
Continuous
100
AcDbLine
 10
445.2869999999998
 20
73.2562
 30
0.0
 11
444.319
 21
73.2393
 31
0.0
  0
LINE
  5
99AB
330
9876
100
AcDbEntity
  8
1
  6
Continuous
100
AcDbLine
 10
445.837
 20
73.5124
 30
0.0
 11
445.2869999999998
 21
73.2562
 31
0.0
  0
LINE
  5
99AC
330
9876
100
AcDbEntity
  8
1
  6
Continuous
100
AcDbLine
 10
447.223
 20
72.1263
 30
0.0
 11
446.9669999999998
 21
71.57689999999998
 31
0.0
  0
LINE
  5
99AD
330
9876
100
AcDbEntity
  8
1
  6
Continuous
100
AcDbLine
 10
446.9669999999998
 20
71.57689999999998
 30
0.0
 11
446.95
 21
70.60890000000002
 31
0.0
  0
LINE
  5
99AE
330
9876
100
AcDbEntity
  8
1
  6
Continuous
100
AcDbLine
 10
446.093
 20
71.57689999999998
 30
0.0
 11
446.11
 21
70.60890000000002
 31
0.0
  0
LINE
  5
99AF
330
9876
100
AcDbEntity
  8
1
  6
Continuous
100
AcDbLine
 10
445.837
 20
72.12619999999998
 30
0.0
 11
446.093
 21
71.57689999999998
 31
0.0
  0
LINE
  5
99B0
330
9876
100
AcDbEntity
  8
1
  6
Continuous
100
AcDbLine
 10
447.223
 20
132.126
 30
0.0
 11
447.7719999999997
 21
132.3819999999997
 31
0.0
  0
LINE
  5
99B1
330
9876
100
AcDbEntity
  8
1
  6
Continuous
100
AcDbLine
 10
447.7719999999997
 20
132.3819999999997
 30
0.0
 11
448.74
 21
132.399
 31
0.0
  0
LINE
  5
99B2
330
9876
100
AcDbEntity
  8
1
  6
Continuous
100
AcDbLine
 10
447.7719999999997
 20
133.2559999999998
 30
0.0
 11
448.74
 21
133.2389999999997
 31
0.0
  0
LINE
  5
99B3
330
9876
100
AcDbEntity
  8
1
  6
Continuous
100
AcDbLine
 10
447.223
 20
133.512
 30
0.0
 11
447.7719999999997
 21
133.2559999999998
 31
0.0
  0
LINE
  5
99B4
330
9876
100
AcDbEntity
  8
1
  6
Continuous
100
AcDbLine
 10
445.837
 20
133.512
 30
0.0
 11
446.093
 21
134.062
 31
0.0
  0
LINE
  5
99B5
330
9876
100
AcDbEntity
  8
1
  6
Continuous
100
AcDbLine
 10
446.093
 20
134.062
 30
0.0
 11
446.11
 21
135.03
 31
0.0
  0
LINE
  5
99B6
330
9876
100
AcDbEntity
  8
1
  6
Continuous
100
AcDbLine
 10
446.9669999999998
 20
134.062
 30
0.0
 11
446.95
 21
135.03
 31
0.0
  0
LINE
  5
99B7
330
9876
100
AcDbEntity
  8
1
  6
Continuous
100
AcDbLine
 10
447.223
 20
133.512
 30
0.0
 11
446.9669999999998
 21
134.062
 31
0.0
  0
LINE
  5
99B8
330
9876
100
AcDbEntity
  8
1
  6
Continuous
100
AcDbLine
 10
445.837
 20
132.126
 30
0.0
 11
445.2869999999998
 21
132.3819999999997
 31
0.0
  0
LINE
  5
99B9
330
9876
100
AcDbEntity
  8
1
  6
Continuous
100
AcDbLine
 10
445.2869999999998
 20
132.3819999999997
 30
0.0
 11
444.319
 21
132.399
 31
0.0
  0
LINE
  5
99BA
330
9876
100
AcDbEntity
  8
1
  6
Continuous
100
AcDbLine
 10
445.2869999999998
 20
133.2559999999998
 30
0.0
 11
444.319
 21
133.2389999999997
 31
0.0
  0
LINE
  5
99BB
330
9876
100
AcDbEntity
  8
1
  6
Continuous
100
AcDbLine
 10
445.837
 20
133.512
 30
0.0
 11
445.2869999999998
 21
133.2559999999998
 31
0.0
  0
LINE
  5
99BC
330
9876
100
AcDbEntity
  8
1
  6
Continuous
100
AcDbLine
 10
447.223
 20
132.126
 30
0.0
 11
446.9669999999998
 21
131.577
 31
0.0
  0
LINE
  5
99BD
330
9876
100
AcDbEntity
  8
1
  6
Continuous
100
AcDbLine
 10
446.9669999999998
 20
131.577
 30
0.0
 11
446.95
 21
130.609
 31
0.0
  0
LINE
  5
99BE
330
9876
100
AcDbEntity
  8
1
  6
Continuous
100
AcDbLine
 10
446.093
 20
131.577
 30
0.0
 11
446.11
 21
130.609
 31
0.0
  0
LINE
  5
99BF
330
9876
100
AcDbEntity
  8
1
  6
Continuous
100
AcDbLine
 10
445.837
 20
132.126
 30
0.0
 11
446.093
 21
131.577
 31
0.0
  0
LINE
  5
99C0
330
9876
100
AcDbEntity
  8
1
  6
Continuous
100
AcDbLine
 10
399.223
 20
84.62619999999999
 30
0.0
 11
399.772
 21
84.88240000000002
 31
0.0
  0
LINE
  5
99C1
330
9876
100
AcDbEntity
  8
1
  6
Continuous
100
AcDbLine
 10
399.772
 20
84.88240000000002
 30
0.0
 11
400.74
 21
84.89929999999999
 31
0.0
  0
LINE
  5
99C2
330
9876
100
AcDbEntity
  8
1
  6
Continuous
100
AcDbLine
 10
399.772
 20
85.7562
 30
0.0
 11
400.74
 21
85.7393
 31
0.0
  0
LINE
  5
99C3
330
9876
100
AcDbEntity
  8
1
  6
Continuous
100
AcDbLine
 10
399.223
 20
86.01229999999999
 30
0.0
 11
399.772
 21
85.7562
 31
0.0
  0
LINE
  5
99C4
330
9876
100
AcDbEntity
  8
1
  6
Continuous
100
AcDbLine
 10
397.8369999999999
 20
86.0124
 30
0.0
 11
398.093
 21
86.56170000000001
 31
0.0
  0
LINE
  5
99C5
330
9876
100
AcDbEntity
  8
1
  6
Continuous
100
AcDbLine
 10
398.093
 20
86.56170000000001
 30
0.0
 11
398.1099999999998
 21
87.52970000000003
 31
0.0
  0
LINE
  5
99C6
330
9876
100
AcDbEntity
  8
1
  6
Continuous
100
AcDbLine
 10
398.9669999999999
 20
86.56170000000001
 30
0.0
 11
398.9499999999999
 21
87.52979999999999
 31
0.0
  0
LINE
  5
99C7
330
9876
100
AcDbEntity
  8
1
  6
Continuous
100
AcDbLine
 10
399.223
 20
86.0124
 30
0.0
 11
398.9669999999999
 21
86.56170000000001
 31
0.0
  0
LINE
  5
99C8
330
9876
100
AcDbEntity
  8
1
  6
Continuous
100
AcDbLine
 10
397.8369999999999
 20
84.62619999999999
 30
0.0
 11
397.2869999999998
 21
84.88240000000002
 31
0.0
  0
LINE
  5
99C9
330
9876
100
AcDbEntity
  8
1
  6
Continuous
100
AcDbLine
 10
397.2869999999998
 20
84.88240000000002
 30
0.0
 11
396.319
 21
84.89929999999999
 31
0.0
  0
LINE
  5
99CA
330
9876
100
AcDbEntity
  8
1
  6
Continuous
100
AcDbLine
 10
397.2869999999998
 20
85.7562
 30
0.0
 11
396.319
 21
85.7393
 31
0.0
  0
LINE
  5
99CB
330
9876
100
AcDbEntity
  8
1
  6
Continuous
100
AcDbLine
 10
397.8369999999999
 20
86.0124
 30
0.0
 11
397.2869999999998
 21
85.7562
 31
0.0
  0
LINE
  5
99CC
330
9876
100
AcDbEntity
  8
1
  6
Continuous
100
AcDbLine
 10
399.223
 20
84.6263
 30
0.0
 11
398.9669999999999
 21
84.07689999999998
 31
0.0
  0
LINE
  5
99CD
330
9876
100
AcDbEntity
  8
1
  6
Continuous
100
AcDbLine
 10
398.9669999999999
 20
84.07689999999998
 30
0.0
 11
398.9499999999999
 21
83.1089
 31
0.0
  0
LINE
  5
99CE
330
9876
100
AcDbEntity
  8
1
  6
Continuous
100
AcDbLine
 10
398.093
 20
84.07689999999998
 30
0.0
 11
398.1099999999998
 21
83.1089
 31
0.0
  0
LINE
  5
99CF
330
9876
100
AcDbEntity
  8
1
  6
Continuous
100
AcDbLine
 10
397.8369999999999
 20
84.6263
 30
0.0
 11
398.093
 21
84.07689999999998
 31
0.0
  0
LINE
  5
99D0
330
9876
100
AcDbEntity
  8
1
  6
Continuous
100
AcDbLine
 10
399.223
 20
119.626
 30
0.0
 11
399.772
 21
119.8819999999999
 31
0.0
  0
LINE
  5
99D1
330
9876
100
AcDbEntity
  8
1
  6
Continuous
100
AcDbLine
 10
399.772
 20
119.8819999999999
 30
0.0
 11
400.74
 21
119.899
 31
0.0
  0
LINE
  5
99D2
330
9876
100
AcDbEntity
  8
1
  6
Continuous
100
AcDbLine
 10
399.772
 20
120.7559999999999
 30
0.0
 11
400.74
 21
120.7389999999999
 31
0.0
  0
LINE
  5
99D3
330
9876
100
AcDbEntity
  8
1
  6
Continuous
100
AcDbLine
 10
399.223
 20
121.012
 30
0.0
 11
399.772
 21
120.7559999999999
 31
0.0
  0
LINE
  5
99D4
330
9876
100
AcDbEntity
  8
1
  6
Continuous
100
AcDbLine
 10
397.8369999999999
 20
121.012
 30
0.0
 11
398.093
 21
121.562
 31
0.0
  0
LINE
  5
99D5
330
9876
100
AcDbEntity
  8
1
  6
Continuous
100
AcDbLine
 10
398.093
 20
121.562
 30
0.0
 11
398.1099999999998
 21
122.53
 31
0.0
  0
LINE
  5
99D6
330
9876
100
AcDbEntity
  8
1
  6
Continuous
100
AcDbLine
 10
398.9669999999999
 20
121.562
 30
0.0
 11
398.9499999999999
 21
122.53
 31
0.0
  0
LINE
  5
99D7
330
9876
100
AcDbEntity
  8
1
  6
Continuous
100
AcDbLine
 10
399.223
 20
121.012
 30
0.0
 11
398.9669999999999
 21
121.562
 31
0.0
  0
LINE
  5
99D8
330
9876
100
AcDbEntity
  8
1
  6
Continuous
100
AcDbLine
 10
397.8369999999999
 20
119.626
 30
0.0
 11
397.2869999999998
 21
119.8819999999999
 31
0.0
  0
LINE
  5
99D9
330
9876
100
AcDbEntity
  8
1
  6
Continuous
100
AcDbLine
 10
397.2869999999998
 20
119.8819999999999
 30
0.0
 11
396.319
 21
119.899
 31
0.0
  0
LINE
  5
99DA
330
9876
100
AcDbEntity
  8
1
  6
Continuous
100
AcDbLine
 10
397.2869999999998
 20
120.7559999999999
 30
0.0
 11
396.319
 21
120.7389999999999
 31
0.0
  0
LINE
  5
99DB
330
9876
100
AcDbEntity
  8
1
  6
Continuous
100
AcDbLine
 10
397.8369999999999
 20
121.012
 30
0.0
 11
397.2869999999998
 21
120.7559999999999
 31
0.0
  0
LINE
  5
99DC
330
9876
100
AcDbEntity
  8
1
  6
Continuous
100
AcDbLine
 10
399.223
 20
119.626
 30
0.0
 11
398.9669999999999
 21
119.077
 31
0.0
  0
LINE
  5
99DD
330
9876
100
AcDbEntity
  8
1
  6
Continuous
100
AcDbLine
 10
398.9669999999999
 20
119.077
 30
0.0
 11
398.9499999999999
 21
118.1089999999999
 31
0.0
  0
LINE
  5
99DE
330
9876
100
AcDbEntity
  8
1
  6
Continuous
100
AcDbLine
 10
398.093
 20
119.077
 30
0.0
 11
398.1099999999998
 21
118.1089999999999
 31
0.0
  0
LINE
  5
99DF
330
9876
100
AcDbEntity
  8
1
  6
Continuous
100
AcDbLine
 10
397.8369999999999
 20
119.626
 30
0.0
 11
398.093
 21
119.077
 31
0.0
  0
LINE
  5
99E0
330
9876
100
AcDbEntity
  8
4
  6
CENTER
100
AcDbLine
 10
414.5299999999998
 20
85.3193
 30
0.0
 11
407.5299999999998
 21
85.3193
 31
0.0
  0
LINE
  5
99E1
330
9876
100
AcDbEntity
  8
4
  6
CENTER
100
AcDbLine
 10
411.0299999999998
 20
88.8193
 30
0.0
 11
411.0299999999998
 21
81.81929999999999
 31
0.0
  0
LINE
  5
99E2
330
9876
100
AcDbEntity
  8
4
  6
CENTER
100
AcDbLine
 10
414.5299999999998
 20
120.3189999999999
 30
0.0
 11
407.5299999999998
 21
120.3189999999999
 31
0.0
  0
LINE
  5
99E3
330
9876
100
AcDbEntity
  8
4
  6
CENTER
100
AcDbLine
 10
411.0299999999998
 20
123.819
 30
0.0
 11
411.0299999999998
 21
116.819
 31
0.0
  0
LINE
  5
99E4
330
9876
100
AcDbEntity
  8
4
  6
CENTER
100
AcDbLine
 10
404.03
 20
120.3189999999999
 30
0.0
 11
393.0299999999999
 21
120.3189999999999
 31
0.0
  0
LINE
  5
99E5
330
9876
100
AcDbEntity
  8
4
  6
CENTER
100
AcDbLine
 10
398.5299999999999
 20
125.819
 30
0.0
 11
398.5299999999999
 21
114.819
 31
0.0
  0
LINE
  5
99E6
330
9876
100
AcDbEntity
  8
4
  6
CENTER
100
AcDbLine
 10
404.03
 20
85.3193
 30
0.0
 11
393.0299999999999
 21
85.3193
 31
0.0
  0
LINE
  5
99E7
330
9876
100
AcDbEntity
  8
4
  6
CENTER
100
AcDbLine
 10
398.5299999999999
 20
90.81929999999998
 30
0.0
 11
398.5299999999999
 21
79.8193
 31
0.0
  0
LINE
  5
99E8
330
9876
100
AcDbEntity
  8
4
  6
CENTER
100
AcDbLine
 10
452.0299999999998
 20
72.8193
 30
0.0
 11
441.0299999999998
 21
72.8193
 31
0.0
  0
LINE
  5
99E9
330
9876
100
AcDbEntity
  8
4
  6
CENTER
100
AcDbLine
 10
446.53
 20
78.31929999999998
 30
0.0
 11
446.53
 21
67.3193
 31
0.0
  0
LINE
  5
99EA
330
9876
100
AcDbEntity
  8
4
  6
CENTER
100
AcDbLine
 10
452.0299999999998
 20
132.8189999999999
 30
0.0
 11
441.0299999999998
 21
132.8189999999999
 31
0.0
  0
LINE
  5
99EB
330
9876
100
AcDbEntity
  8
4
  6
CENTER
100
AcDbLine
 10
446.53
 20
138.3189999999999
 30
0.0
 11
446.53
 21
127.319
 31
0.0
  0
LINE
  5
99EC
330
9876
100
AcDbEntity
  8
1
  6
Continuous
100
AcDbLine
 10
390.0299999999999
 20
92.7973
 30
0.0
 11
390.0299999999999
 21
112.8409999999999
 31
0.0
  0
LINE
  5
99ED
330
9876
100
AcDbEntity
  8
1
  6
Continuous
100
AcDbLine
 10
392.53
 20
112.419
 30
0.0
 11
390.0299999999999
 21
112.419
 31
0.0
  0
LINE
  5
99EE
330
9876
100
AcDbEntity
  8
1
  6
Continuous
100
AcDbLine
 10
392.53
 20
93.2193
 30
0.0
 11
390.0299999999999
 21
93.2193
 31
0.0
  0
LINE
  5
99EF
330
9876
100
AcDbEntity
  8
1
  6
Continuous
100
AcDbLine
 10
392.53
 20
72.8193
 30
0.0
 11
391.7339999999999
 21
72.8193
 31
0.0
  0
LINE
  5
99F0
330
9876
100
AcDbEntity
  8
1
  6
Continuous
100
AcDbLine
 10
392.53
 20
132.8189999999999
 30
0.0
 11
391.7339999999999
 21
132.8189999999999
 31
0.0
  0
LINE
  5
99F1
330
9876
100
AcDbEntity
  8
1
  6
Continuous
100
AcDbLine
 10
151.6939999999999
 20
245.616
 30
0.0
 11
163.6939999999999
 21
245.616
 31
0.0
  0
LINE
  5
99F2
330
9876
100
AcDbEntity
  8
1
  6
Continuous
100
AcDbLine
 10
175.6939999999999
 20
245.616
 30
0.0
 11
175.6939999999999
 21
253.6159999999999
 31
0.0
  0
LINE
  5
99F3
330
9876
100
AcDbEntity
  8
1
  6
Continuous
100
AcDbLine
 10
173.592
 20
245.616
 30
0.0
 11
175.6939999999999
 21
245.616
 31
0.0
  0
LINE
  5
99F4
330
9876
100
AcDbEntity
  8
1
  6
Continuous
100
AcDbLine
 10
284.4529999999998
 20
90.3193
 30
0.0
 11
277.4529999999999
 21
90.3193
 31
0.0
  0
LINE
  5
99F5
330
9876
100
AcDbEntity
  8
1
  6
Continuous
100
AcDbLine
 10
284.4529999999998
 20
80.3193
 30
0.0
 11
277.4529999999999
 21
80.3193
 31
0.0
  0
LINE
  5
99F6
330
9876
100
AcDbEntity
  8
1
  6
Continuous
100
AcDbLine
 10
284.4529999999998
 20
125.319
 30
0.0
 11
277.4529999999999
 21
125.319
 31
0.0
  0
LINE
  5
99F7
330
9876
100
AcDbEntity
  8
1
  6
Continuous
100
AcDbLine
 10
284.4529999999998
 20
115.319
 30
0.0
 11
277.4529999999999
 21
115.319
 31
0.0
  0
LINE
  5
99F8
330
9876
100
AcDbEntity
  8
1
  6
Continuous
100
AcDbLine
 10
272.745
 20
122.819
 30
0.0
 11
272.745
 21
82.8193
 31
0.0
  0
LINE
  5
99F9
330
9876
100
AcDbEntity
  8
4
  6
CENTER
100
AcDbLine
 10
277.4529999999999
 20
127.819
 30
0.0
 11
251.2299999999999
 21
127.819
 31
0.0
  0
LINE
  5
99FA
330
9876
100
AcDbEntity
  8
4
  6
CENTER
100
AcDbLine
 10
277.4529999999999
 20
77.8193
 30
0.0
 11
251.88
 21
77.8193
 31
0.0
  0
LINE
  5
99FB
330
9876
100
AcDbEntity
  8
4
  6
CENTER
100
AcDbLine
 10
29.86909999999999
 20
77.8193
 30
0.0
 11
51.7175
 21
77.8193
 31
0.0
  0
LINE
  5
99FC
330
9876
100
AcDbEntity
  8
4
  6
CENTER
100
AcDbLine
 10
29.86909999999999
 20
127.819
 30
0.0
 11
51.7175
 21
127.819
 31
0.0
  0
LINE
  5
99FD
330
9876
100
AcDbEntity
  8
1
  6
Continuous
100
AcDbLine
 10
330.6619999999999
 20
124.0189999999999
 30
0.0
 11
331.6619999999999
 21
124.0189999999999
 31
0.0
  0
LINE
  5
99FE
330
9876
100
AcDbEntity
  8
1
  6
Continuous
100
AcDbLine
 10
330.6619999999999
 20
131.6189999999998
 30
0.0
 11
331.6619999999999
 21
131.6189999999998
 31
0.0
  0
LINE
  5
99FF
330
9876
100
AcDbEntity
  8
1
  6
Continuous
100
AcDbLine
 10
329.8619999999999
 20
132.8189999999999
 30
0.0
 11
330.6619999999999
 21
132.8189999999999
 31
0.0
  0
LINE
  5
9A00
330
9876
100
AcDbEntity
  8
1
  6
Continuous
100
AcDbLine
 10
329.8619999999999
 20
122.819
 30
0.0
 11
330.6619999999999
 21
122.819
 31
0.0
  0
LINE
  5
9A01
330
9876
100
AcDbEntity
  8
1
  6
Continuous
100
AcDbLine
 10
197.1519999999999
 20
280.3749999999999
 30
0.0
 11
187.1519999999999
 21
280.3749999999999
 31
0.0
  0
LINE
  5
9A02
330
9876
100
AcDbEntity
  8
1
  6
Continuous
100
AcDbLine
 10
197.1519999999999
 20
279.5749999999998
 30
0.0
 11
197.1519999999999
 21
280.3749999999999
 31
0.0
  0
LINE
  5
9A03
330
9876
100
AcDbEntity
  8
1
  6
Continuous
100
AcDbLine
 10
195.9519999999999
 20
280.3749999999999
 30
0.0
 11
195.9519999999999
 21
281.375
 31
0.0
  0
LINE
  5
9A04
330
9876
100
AcDbEntity
  8
1
  6
Continuous
100
AcDbLine
 10
195.9519999999999
 20
281.375
 30
0.0
 11
188.352
 21
281.375
 31
0.0
  0
LINE
  5
9A05
330
9876
100
AcDbEntity
  8
1
  6
Continuous
100
AcDbLine
 10
195.6519999999999
 20
281.375
 30
0.0
 11
195.554
 21
282.495
 31
0.0
  0
LINE
  5
9A06
330
9876
100
AcDbEntity
  8
1
  6
Continuous
100
AcDbLine
 10
188.6519999999999
 20
281.375
 30
0.0
 11
188.75
 21
282.4940000000001
 31
0.0
  0
LINE
  5
9A07
330
9876
100
AcDbEntity
  8
1
  6
Continuous
100
AcDbLine
 10
188.352
 20
280.3749999999999
 30
0.0
 11
188.352
 21
281.375
 31
0.0
  0
LINE
  5
9A08
330
9876
100
AcDbEntity
  8
1
  6
Continuous
100
AcDbLine
 10
187.1519999999999
 20
279.5749999999998
 30
0.0
 11
187.1519999999999
 21
280.3749999999999
 31
0.0
  0
LINE
  5
9A09
330
9876
100
AcDbEntity
  8
1
  6
Continuous
100
AcDbLine
 10
191.6909999999998
 20
281.375
 30
0.0
 11
192.53
 21
280.3749999999999
 31
0.0
  0
LINE
  5
9A0A
330
9876
100
AcDbEntity
  8
1
  6
Continuous
100
AcDbLine
 10
330.6619999999999
 20
82.8193
 30
0.0
 11
330.6619999999999
 21
72.8193
 31
0.0
  0
LINE
  5
9A0B
330
9876
100
AcDbEntity
  8
1
  6
Continuous
100
AcDbLine
 10
331.6619999999999
 20
81.61929999999998
 30
0.0
 11
331.6619999999999
 21
74.0193
 31
0.0
  0
LINE
  5
9A0C
330
9876
100
AcDbEntity
  8
1
  6
Continuous
100
AcDbLine
 10
331.6619999999999
 20
78.28069999999998
 30
0.0
 11
330.6619999999999
 21
77.44159999999998
 31
0.0
  0
LINE
  5
9A0D
330
9876
100
AcDbEntity
  8
1
  6
Continuous
100
AcDbLine
 10
331.6619999999999
 20
81.3193
 30
0.0
 11
332.7809999999999
 21
81.22139999999998
 31
0.0
  0
LINE
  5
9A0E
330
9876
100
AcDbEntity
  8
1
  6
Continuous
100
AcDbLine
 10
331.6619999999999
 20
74.3193
 30
0.0
 11
332.7809999999999
 21
74.41719999999998
 31
0.0
  0
LINE
  5
9A0F
330
9876
100
AcDbEntity
  8
1
  6
Continuous
100
AcDbLine
 10
330.6619999999999
 20
74.0193
 30
0.0
 11
331.6619999999999
 21
74.0193
 31
0.0
  0
LINE
  5
9A10
330
9876
100
AcDbEntity
  8
1
  6
Continuous
100
AcDbLine
 10
330.6619999999999
 20
81.61929999999998
 30
0.0
 11
331.6619999999999
 21
81.61929999999998
 31
0.0
  0
LINE
  5
9A11
330
9876
100
AcDbEntity
  8
1
  6
Continuous
100
AcDbLine
 10
329.8619999999999
 20
82.8193
 30
0.0
 11
330.6619999999999
 21
82.8193
 31
0.0
  0
LINE
  5
9A12
330
9876
100
AcDbEntity
  8
1
  6
Continuous
100
AcDbLine
 10
329.8619999999999
 20
72.8193
 30
0.0
 11
330.6619999999999
 21
72.8193
 31
0.0
  0
ARC
  5
9A13
330
9876
100
AcDbEntity
  8
1
  6
Continuous
100
AcDbCircle
 10
161.1939999999998
 20
-346.1809999999999
 30
0.0
 40
500.0
100
AcDbArc
 50
86.102
 51
93.89799999999999
  0
ARC
  5
9A14
330
9876
100
AcDbEntity
  8
1
  6
Continuous
100
AcDbCircle
 10
161.1939999999998
 20
551.8189999999998
 30
0.0
 40
500.0
100
AcDbArc
 50
266.1019999999999
 51
273.8979999999999
  0
ARC
  5
9A15
330
9876
100
AcDbEntity
  8
1
  6
Continuous
100
AcDbCircle
 10
-305.807
 20
102.8189999999999
 30
0.0
 40
508.4999999999998
100
AcDbArc
 50
354.9929999999998
 51
5.006999999999997
  0
ARC
  5
9A16
330
9876
100
AcDbEntity
  8
1
  6
Continuous
100
AcDbCircle
 10
-305.807
 20
102.8189999999999
 30
0.0
 40
500.0
100
AcDbArc
 50
355.384
 51
4.616299999999998
  0
ARC
  5
9A17
330
9876
100
AcDbEntity
  8
1
  6
Continuous
100
AcDbCircle
 10
127.611
 20
146.6769999999999
 30
0.0
 40
6.0
100
AcDbArc
 50
93.89799999999999
 51
174.993
  0
ARC
  5
9A18
330
9876
100
AcDbEntity
  8
1
  6
Continuous
100
AcDbCircle
 10
194.7759999999999
 20
146.6769999999999
 30
0.0
 40
6.0
100
AcDbArc
 50
5.006999999999997
 51
86.102
  0
ARC
  5
9A19
330
9876
100
AcDbEntity
  8
1
  6
Continuous
100
AcDbCircle
 10
194.7759999999999
 20
58.96209999999999
 30
0.0
 40
6.0
100
AcDbArc
 50
273.8979999999999
 51
354.9929999999998
  0
ARC
  5
9A1A
330
9876
100
AcDbEntity
  8
1
  6
Continuous
100
AcDbCircle
 10
127.611
 20
58.96209999999999
 30
0.0
 40
6.0
100
AcDbArc
 50
185.007
 51
266.1019999999999
  0
ARC
  5
9A1B
330
9876
100
AcDbEntity
  8
1
  6
Continuous
100
AcDbCircle
 10
189.5809999999999
 20
142.8189999999998
 30
0.0
 40
3.0
100
AcDbArc
 50
4.616299999999998
 51
90.0
  0
ARC
  5
9A1C
330
9876
100
AcDbEntity
  8
1
  6
Continuous
100
AcDbCircle
 10
189.5809999999999
 20
62.8193
 30
0.0
 40
3.0
100
AcDbArc
 50
270.0
 51
355.384
  0
ARC
  5
9A1D
330
9876
100
AcDbEntity
  8
1
  6
Continuous
100
AcDbCircle
 10
-305.307
 20
102.8189999999999
 30
0.0
 40
498.0
100
AcDbArc
 50
355.423
 51
356.1809999999999
  0
ARC
  5
9A1E
330
9876
100
AcDbEntity
  8
1
  6
Continuous
100
AcDbCircle
 10
181.61
 20
70.3193
 30
0.0
 40
10.0
100
AcDbArc
 50
356.1809999999999
 51
63.1671
  0
ARC
  5
9A1F
330
9876
100
AcDbEntity
  8
1
  6
Continuous
100
AcDbCircle
 10
188.115
 20
63.31929999999999
 30
0.0
 40
3.0
100
AcDbArc
 50
270.0
 51
355.423
  0
ARC
  5
9A20
330
9876
100
AcDbEntity
  8
1
  6
Continuous
100
AcDbCircle
 10
208.6939999999999
 20
123.859
 30
0.0
 40
50.0
100
AcDbArc
 50
180.0
 51
243.1669999999999
  0
ARC
  5
9A21
330
9876
100
AcDbEntity
  8
1
  6
Continuous
100
AcDbCircle
 10
155.6939999999999
 20
142.3189999999999
 30
0.0
 40
3.0
100
AcDbArc
 50
0.0
 51
90.0
  0
CIRCLE
  5
9A22
330
9876
100
AcDbEntity
  8
1
  6
Continuous
100
AcDbCircle
 10
138.6929999999999
 20
232.6159999999999
 30
0.0
 40
2.5
  0
CIRCLE
  5
9A23
330
9876
100
AcDbEntity
  8
1
  6
Continuous
100
AcDbCircle
 10
138.6929999999999
 20
232.6159999999999
 30
0.0
 40
4.0
  0
ARC
  5
9A24
330
9876
100
AcDbEntity
  8
1
  6
Continuous
100
AcDbCircle
 10
179.1939999999999
 20
226.4159999999999
 30
0.0
 40
17.0
100
AcDbArc
 50
0.674041
 51
90.00010000000001
  0
ARC
  5
9A25
330
9876
100
AcDbEntity
  8
1
  6
Continuous
100
AcDbCircle
 10
194.1939999999999
 20
244.6159999999999
 30
0.0
 40
2.0
100
AcDbArc
 50
0.0
 51
90.00010000000001
  0
ARC
  5
9A26
330
9876
100
AcDbEntity
  8
1
  6
Continuous
100
AcDbCircle
 10
36.13369999999999
 20
65.3193
 30
0.0
 40
8.0
100
AcDbArc
 50
237.922
 51
270.0
  0
ARC
  5
9A27
330
9876
100
AcDbEntity
  8
1
  6
Continuous
100
AcDbCircle
 10
36.13369999999999
 20
140.3189999999999
 30
0.0
 40
8.0
100
AcDbArc
 50
90.0
 51
122.0779999999999
  0
ARC
  5
9A28
330
9876
100
AcDbEntity
  8
1
  6
Continuous
100
AcDbCircle
 10
105.6929999999999
 20
77.4193
 30
0.0
 40
1.0
100
AcDbArc
 50
180.0
 51
270.0
  0
ARC
  5
9A29
330
9876
100
AcDbEntity
  8
1
  6
Continuous
100
AcDbCircle
 10
105.6929999999999
 20
68.2193
 30
0.0
 40
1.0
100
AcDbArc
 50
90.0
 51
180.0
  0
ARC
  5
9A2A
330
9876
100
AcDbEntity
  8
1
  6
Continuous
100
AcDbCircle
 10
105.6929999999999
 20
137.4189999999998
 30
0.0
 40
1.0
100
AcDbArc
 50
180.0
 51
270.0
  0
ARC
  5
9A2B
330
9876
100
AcDbEntity
  8
1
  6
Continuous
100
AcDbCircle
 10
105.6929999999999
 20
128.2189999999999
 30
0.0
 40
1.0
100
AcDbArc
 50
90.0
 51
180.0
  0
ARC
  5
9A2C
330
9876
100
AcDbEntity
  8
1
  6
Continuous
100
AcDbCircle
 10
104.6929999999999
 20
253.6159999999999
 30
0.0
 40
2.0
100
AcDbArc
 50
90.00010000000001
 51
180.0
  0
ARC
  5
9A2D
330
9876
100
AcDbEntity
  8
1
  6
Continuous
100
AcDbCircle
 10
105.6929999999999
 20
241.0159999999999
 30
0.0
 40
1.0
100
AcDbArc
 50
90.00010000000001
 51
180.0
  0
ARC
  5
9A2E
330
9876
100
AcDbEntity
  8
1
  6
Continuous
100
AcDbCircle
 10
105.6929999999999
 20
250.2159999999999
 30
0.0
 40
1.0
100
AcDbArc
 50
180.0
 51
270.0
  0
ARC
  5
9A2F
330
9876
100
AcDbEntity
  8
1
  6
Continuous
100
AcDbCircle
 10
93.693
 20
108.8189999999999
 30
0.0
 40
1.0
100
AcDbArc
 50
90.0
 51
180.0
  0
ARC
  5
9A30
330
9876
100
AcDbEntity
  8
1
  6
Continuous
100
AcDbCircle
 10
93.693
 20
96.81930000000001
 30
0.0
 40
1.0
100
AcDbArc
 50
180.0
 51
270.0
  0
ARC
  5
9A31
330
9876
100
AcDbEntity
  8
1
  6
Continuous
100
AcDbCircle
 10
93.693
 20
244.6159999999999
 30
0.0
 40
1.0
100
AcDbArc
 50
148.993
 51
270.0
  0
ARC
  5
9A32
330
9876
100
AcDbEntity
  8
1
  6
Continuous
100
AcDbCircle
 10
29.9337
 20
60.81929999999999
 30
0.0
 40
3.0
100
AcDbArc
 50
270.0
 51
0.0
  0
ARC
  5
9A33
330
9876
100
AcDbEntity
  8
1
  6
Continuous
100
AcDbCircle
 10
29.9337
 20
144.8189999999998
 30
0.0
 40
3.0
100
AcDbArc
 50
0.0
 51
90.0
  0
ARC
  5
9A34
330
9876
100
AcDbEntity
  8
1
  6
Continuous
100
AcDbCircle
 10
42.9337
 20
143.8189999999998
 30
0.0
 40
1.0
100
AcDbArc
 50
270.0
 51
0.0
  0
ARC
  5
9A35
330
9876
100
AcDbEntity
  8
1
  6
Continuous
100
AcDbCircle
 10
42.9337
 20
61.8193
 30
0.0
 40
1.0
100
AcDbArc
 50
0.0
 51
90.0
  0
ARC
  5
9A36
330
9876
100
AcDbEntity
  8
1
  6
Continuous
100
AcDbCircle
 10
43.93369999999999
 20
61.8193
 30
0.0
 40
1.0
100
AcDbArc
 50
0.0
 51
90.0
  0
ARC
  5
9A37
330
9876
100
AcDbEntity
  8
1
  6
Continuous
100
AcDbCircle
 10
43.93369999999999
 20
143.8189999999998
 30
0.0
 40
1.0
100
AcDbArc
 50
270.0
 51
0.0
  0
ARC
  5
9A38
330
9876
100
AcDbEntity
  8
1
  6
Continuous
100
AcDbCircle
 10
26.9337
 20
108.8189999999999
 30
0.0
 40
1.0
100
AcDbArc
 50
0.0
 51
90.0
  0
ARC
  5
9A39
330
9876
100
AcDbEntity
  8
1
  6
Continuous
100
AcDbCircle
 10
26.9337
 20
96.81930000000001
 30
0.0
 40
1.0
100
AcDbArc
 50
270.0
 51
0.0
  0
ARC
  5
9A3A
330
9876
100
AcDbEntity
  8
1
  6
Continuous
100
AcDbCircle
 10
18.9337
 20
96.81930000000001
 30
0.0
 40
1.0
100
AcDbArc
 50
180.0
 51
270.0
  0
ARC
  5
9A3B
330
9876
100
AcDbEntity
  8
1
  6
Continuous
100
AcDbCircle
 10
18.9337
 20
108.8189999999999
 30
0.0
 40
1.0
100
AcDbArc
 50
90.0
 51
180.0
  0
CIRCLE
  5
9A3C
330
9876
100
AcDbEntity
  8
2
  6
Continuous
100
AcDbCircle
 10
25.9337
 20
72.8193
 30
0.0
 40
2.5
  0
CIRCLE
  5
9A3D
330
9876
100
AcDbEntity
  8
2
  6
Continuous
100
AcDbCircle
 10
25.9337
 20
132.8189999999999
 30
0.0
 40
2.5
  0
ARC
  5
9A3E
330
9876
100
AcDbEntity
  8
1
  6
Continuous
100
AcDbCircle
 10
197.1509999999999
 20
277.5749999999998
 30
0.0
 40
2.0
100
AcDbArc
 50
0.00009
 51
90.00010000000001
  0
ARC
  5
9A3F
330
9876
100
AcDbEntity
  8
1
  6
Continuous
100
AcDbCircle
 10
199.1509999999999
 20
260.075
 30
0.0
 40
2.0
100
AcDbArc
 50
180.0
 51
270.0
  0
ARC
  5
9A40
330
9876
100
AcDbEntity
  8
5
  6
PHANTOM
100
AcDbCircle
 10
103.6929999999999
 20
244.6159999999999
 30
0.0
 40
1.0
100
AcDbArc
 50
148.993
 51
270.0
  0
ARC
  5
9A41
330
9876
100
AcDbEntity
  8
1
  6
Continuous
100
AcDbCircle
 10
206.489
 20
64.8193
 30
0.0
 40
2.0
100
AcDbArc
 50
270.0
 51
0.0
  0
ARC
  5
9A42
330
9876
100
AcDbEntity
  8
1
  6
Continuous
100
AcDbCircle
 10
206.489
 20
140.8189999999999
 30
0.0
 40
2.0
100
AcDbArc
 50
0.0
 51
90.0
  0
ARC
  5
9A43
330
9876
100
AcDbEntity
  8
1
  6
Continuous
100
AcDbCircle
 10
48.754093
 20
228.8719009999998
 30
0.0
 40
1.0
100
AcDbArc
 50
315.0
 51
45.0
  0
ARC
  5
9A44
330
9876
100
AcDbEntity
  8
1
  6
Continuous
100
AcDbCircle
 10
38.254093
 20
224.8719009999998
 30
0.0
 40
0.5
100
AcDbArc
 50
270.0
 51
0.0
  0
ARC
  5
9A45
330
9876
100
AcDbEntity
  8
1
  6
Continuous
100
AcDbCircle
 10
38.254093
 20
232.8719009999999
 30
0.0
 40
0.5
100
AcDbArc
 50
0.0
 51
90.0
  0
ARC
  5
9A46
330
9876
100
AcDbEntity
  8
1
  6
Continuous
100
AcDbCircle
 10
18.254093
 20
231.3719009999998
 30
0.0
 40
0.5
100
AcDbArc
 50
90.0
 51
180.0
  0
ARC
  5
9A47
330
9876
100
AcDbEntity
  8
1
  6
Continuous
100
AcDbCircle
 10
19.754093
 20
231.3719009999998
 30
0.0
 40
0.5
100
AcDbArc
 50
0.0
 51
90.0
  0
ARC
  5
9A48
330
9876
100
AcDbEntity
  8
1
  6
Continuous
100
AcDbCircle
 10
16.754093
 20
232.0319009999999
 30
0.0
 40
1.0
100
AcDbArc
 50
142.431
 51
180.0
  0
ARC
  5
9A49
330
9876
100
AcDbEntity
  8
1
  6
Continuous
100
AcDbCircle
 10
16.754093
 20
225.7119009999999
 30
0.0
 40
1.0
100
AcDbArc
 50
180.0
 51
217.5689999999999
  0
ARC
  5
9A4A
330
9876
100
AcDbEntity
  8
1
  6
Continuous
100
AcDbCircle
 10
21.246493
 20
219.871901
 30
0.0
 40
1.0
100
AcDbArc
 50
217.5689999999999
 51
270.0
  0
ARC
  5
9A4B
330
9876
100
AcDbEntity
  8
1
  6
Continuous
100
AcDbCircle
 10
23.98549299999999
 20
219.871901
 30
0.0
 40
1.0
100
AcDbArc
 50
270.0
 51
300.069
  0
ARC
  5
9A4C
330
9876
100
AcDbEntity
  8
1
  6
Continuous
100
AcDbCircle
 10
21.246493
 20
237.8719009999998
 30
0.0
 40
1.0
100
AcDbArc
 50
90.0
 51
142.431
  0
ARC
  5
9A4D
330
9876
100
AcDbEntity
  8
1
  6
Continuous
100
AcDbCircle
 10
23.98549299999999
 20
237.8719009999998
 30
0.0
 40
1.0
100
AcDbArc
 50
59.9314
 51
90.0
  0
ARC
  5
9A4E
330
9876
100
AcDbEntity
  8
1
  6
Continuous
100
AcDbCircle
 10
25.754093
 20
224.1499009999998
 30
0.0
 40
2.0282
100
AcDbArc
 50
215.5379999999999
 51
256.5369999999999
  0
ARC
  5
9A4F
330
9876
100
AcDbEntity
  8
1
  6
Continuous
100
AcDbCircle
 10
32.364693
 20
228.8719009999998
 30
0.0
 40
10.1519
100
AcDbArc
 50
144.462
 51
215.5379999999999
  0
ARC
  5
9A50
330
9876
100
AcDbEntity
  8
1
  6
Continuous
100
AcDbCircle
 10
25.754093
 20
233.593901
 30
0.0
 40
2.0282
100
AcDbArc
 50
45.6988
 51
144.462
  0
ARC
  5
9A51
330
9876
100
AcDbEntity
  8
1
  6
Continuous
100
AcDbCircle
 10
25.754093
 20
224.1499009999998
 30
0.0
 40
2.0282
100
AcDbArc
 50
256.5369999999999
 51
324.4619999999998
  0
ARC
  5
9A52
330
9876
100
AcDbEntity
  8
1
  6
Continuous
100
AcDbCircle
 10
19.143593
 20
228.8719009999998
 30
0.0
 40
10.1519
100
AcDbArc
 50
324.4619999999998
 51
35.5377
  0
ARC
  5
9A53
330
9876
100
AcDbEntity
  8
1
  6
Continuous
100
AcDbCircle
 10
25.754093
 20
233.593901
 30
0.0
 40
2.0282
100
AcDbArc
 50
35.5377
 51
45.6988
  0
ARC
  5
9A54
330
9876
100
AcDbEntity
  8
1
  6
Continuous
100
AcDbCircle
 10
24.302193
 20
224.9369009999998
 30
0.0
 40
0.3935
100
AcDbArc
 50
206.014
 51
270.0
  0
ARC
  5
9A55
330
9876
100
AcDbEntity
  8
1
  6
Continuous
100
AcDbCircle
 10
32.364693
 20
228.8719009999998
 30
0.0
 40
9.3649
100
AcDbArc
 50
202.944
 51
206.014
  0
ARC
  5
9A56
330
9876
100
AcDbEntity
  8
1
  6
Continuous
100
AcDbCircle
 10
23.81309299999999
 20
225.2519009999998
 30
0.0
 40
0.0787
100
AcDbArc
 50
90.0
 51
202.944
  0
ARC
  5
9A57
330
9876
100
AcDbEntity
  8
1
  6
Continuous
100
AcDbCircle
 10
27.695193
 20
225.2519009999998
 30
0.0
 40
0.0787
100
AcDbArc
 50
337.0559999999999
 51
90.0
  0
ARC
  5
9A58
330
9876
100
AcDbEntity
  8
1
  6
Continuous
100
AcDbCircle
 10
19.143593
 20
228.8719009999998
 30
0.0
 40
9.3649
100
AcDbArc
 50
333.9859999999998
 51
337.0559999999999
  0
ARC
  5
9A59
330
9876
100
AcDbEntity
  8
1
  6
Continuous
100
AcDbCircle
 10
19.143593
 20
228.8719009999998
 30
0.0
 40
9.3649
100
AcDbArc
 50
333.9859999999998
 51
334.7709999999999
  0
ARC
  5
9A5A
330
9876
100
AcDbEntity
  8
1
  6
Continuous
100
AcDbCircle
 10
27.206093
 20
224.9369009999998
 30
0.0
 40
0.3935
100
AcDbArc
 50
270.0
 51
333.9859999999998
  0
ARC
  5
9A5B
330
9876
100
AcDbEntity
  8
1
  6
Continuous
100
AcDbCircle
 10
23.30669299999999
 20
226.8259009999999
 30
0.0
 40
0.0787
100
AcDbArc
 50
90.0
 51
192.729
  0
ARC
  5
9A5C
330
9876
100
AcDbEntity
  8
1
  6
Continuous
100
AcDbCircle
 10
32.364693
 20
228.8719009999998
 30
0.0
 40
9.3649
100
AcDbArc
 50
192.729
 51
193.2679999999999
  0
ARC
  5
9A5D
330
9876
100
AcDbEntity
  8
1
  6
Continuous
100
AcDbCircle
 10
32.364693
 20
228.8719009999998
 30
0.0
 40
9.3649
100
AcDbArc
 50
193.2679999999999
 51
195.257
  0
ARC
  5
9A5E
330
9876
100
AcDbEntity
  8
1
  6
Continuous
100
AcDbCircle
 10
23.70939299999999
 20
226.5109009999999
 30
0.0
 40
0.3935
100
AcDbArc
 50
195.257
 51
270.0
  0
ARC
  5
9A5F
330
9876
100
AcDbEntity
  8
1
  6
Continuous
100
AcDbCircle
 10
27.798793
 20
226.5109009999999
 30
0.0
 40
0.3935
100
AcDbArc
 50
270.0
 51
344.7419999999998
  0
ARC
  5
9A60
330
9876
100
AcDbEntity
  8
1
  6
Continuous
100
AcDbCircle
 10
19.143593
 20
228.8719009999998
 30
0.0
 40
9.3649
100
AcDbArc
 50
344.7419999999998
 51
344.794
  0
ARC
  5
9A61
330
9876
100
AcDbEntity
  8
1
  6
Continuous
100
AcDbCircle
 10
19.143593
 20
228.8719009999998
 30
0.0
 40
9.3649
100
AcDbArc
 50
344.794
 51
347.2709999999998
  0
ARC
  5
9A62
330
9876
100
AcDbEntity
  8
1
  6
Continuous
100
AcDbCircle
 10
28.201593
 20
226.8259009999999
 30
0.0
 40
0.0787
100
AcDbArc
 50
347.2709999999998
 51
90.0
  0
ARC
  5
9A63
330
9876
100
AcDbEntity
  8
1
  6
Continuous
100
AcDbCircle
 10
23.53239299999999
 20
230.4459009999999
 30
0.0
 40
0.3935
100
AcDbArc
 50
90.0
 51
169.896
  0
ARC
  5
9A64
330
9876
100
AcDbEntity
  8
1
  6
Continuous
100
AcDbCircle
 10
32.364693
 20
228.8719009999998
 30
0.0
 40
9.3649
100
AcDbArc
 50
169.896
 51
172.2069999999999
  0
ARC
  5
9A65
330
9876
100
AcDbEntity
  8
1
  6
Continuous
100
AcDbCircle
 10
23.164193
 20
230.1309009999999
 30
0.0
 40
0.0787
100
AcDbArc
 50
172.2069999999999
 51
270.0
  0
ARC
  5
9A66
330
9876
100
AcDbEntity
  8
1
  6
Continuous
100
AcDbCircle
 10
28.344093
 20
230.1309009999999
 30
0.0
 40
0.0787
100
AcDbArc
 50
270.0
 51
7.792900000000001
  0
ARC
  5
9A67
330
9876
100
AcDbEntity
  8
1
  6
Continuous
100
AcDbCircle
 10
19.143593
 20
228.8719009999998
 30
0.0
 40
9.3649
100
AcDbArc
 50
7.792900000000001
 51
10.1042
  0
ARC
  5
9A68
330
9876
100
AcDbEntity
  8
1
  6
Continuous
100
AcDbCircle
 10
27.975893
 20
230.4459009999999
 30
0.0
 40
0.3935
100
AcDbArc
 50
10.1042
 51
90.0
  0
ARC
  5
9A69
330
9876
100
AcDbEntity
  8
1
  6
Continuous
100
AcDbCircle
 10
25.36069299999999
 20
232.8069009999999
 30
0.0
 40
0.3935
100
AcDbArc
 50
270.0
 51
90.0
  0
CIRCLE
  5
9A6A
330
9876
100
AcDbEntity
  8
1
  6
Continuous
100
AcDbCircle
 10
153.1939999999998
 20
69.8193
 30
0.0
 40
6.7
  0
ARC
  5
9A6B
330
9876
100
AcDbEntity
  8
1
  6
Continuous
100
AcDbCircle
 10
158.489
 20
971.5049999999999
 30
0.0
 40
749.3939999999999
100
AcDbArc
 50
267.105
 51
273.309
  0
ARC
  5
9A6C
330
9876
100
AcDbEntity
  8
1
  6
Continuous
100
AcDbCircle
 10
201.6939999999999
 20
224.36
 30
0.0
 40
1.0
100
AcDbArc
 50
273.309
 51
0.0
  0
ARC
  5
9A6D
330
9876
100
AcDbEntity
  8
1
  6
Continuous
100
AcDbCircle
 10
120.693
 20
224.0659999999998
 30
0.0
 40
1.0
100
AcDbArc
 50
180.0
 51
267.105
  0
ARC
  5
9A6E
330
9876
100
AcDbEntity
  8
1
  6
Continuous
100
AcDbCircle
 10
46.7616
 20
52.8193
 30
0.0
 40
1.0
100
AcDbArc
 50
270.0
 51
356.169
  0
ARC
  5
9A6F
330
9876
100
AcDbEntity
  8
1
  6
Continuous
100
AcDbCircle
 10
-699.96
 20
102.8189999999999
 30
0.0
 40
749.3939999999999
100
AcDbArc
 50
356.169
 51
3.830769999999998
  0
ARC
  5
9A70
330
9876
100
AcDbEntity
  8
1
  6
Continuous
100
AcDbCircle
 10
46.7616
 20
152.8189999999999
 30
0.0
 40
1.0
100
AcDbArc
 50
3.830769999999998
 51
90.0
  0
ARC
  5
9A71
330
9876
100
AcDbEntity
  8
5
  6
PHANTOM
100
AcDbCircle
 10
175.7019999999999
 20
197.5929999999999
 30
0.0
 40
2.5
100
AcDbArc
 50
237.252
 51
111.4829999999999
  0
ARC
  5
9A72
330
9876
100
AcDbEntity
  8
5
  6
PHANTOM
100
AcDbCircle
 10
579.727
 20
825.7759999999999
 30
0.0
 40
749.3939999999999
100
AcDbArc
 50
233.6149999999999
 51
237.252
  0
ARC
  5
9A73
330
9876
100
AcDbEntity
  8
1
  6
Continuous
100
AcDbCircle
 10
114.2639999999999
 20
232.2529999999999
 30
0.0
 40
25.0
100
AcDbArc
 50
121.2909999999999
 51
148.993
  0
ARC
  5
9A74
330
9876
100
AcDbEntity
  8
5
  6
PHANTOM
100
AcDbCircle
 10
124.2639999999999
 20
232.2529999999999
 30
0.0
 40
25.0
100
AcDbArc
 50
121.2909999999999
 51
148.993
  0
ARC
  5
9A75
330
9876
100
AcDbEntity
  8
5
  6
PHANTOM
100
AcDbCircle
 10
579.727
 20
825.7759999999999
 30
0.0
 40
749.3939999999999
100
AcDbArc
 50
232.697
 51
232.9479999999998
  0
ARC
  5
9A76
330
9876
100
AcDbEntity
  8
5
  6
PHANTOM
100
AcDbCircle
 10
126.184
 20
230.4679999999999
 30
0.0
 40
1.0
100
AcDbArc
 50
144.903
 51
232.697
  0
ARC
  5
9A77
330
9876
100
AcDbEntity
  8
1
  6
Continuous
100
AcDbCircle
 10
266.2529999999998
 20
65.3193
 30
0.0
 40
8.0
100
AcDbArc
 50
270.0
 51
0.0
  0
ARC
  5
9A78
330
9876
100
AcDbEntity
  8
1
  6
Continuous
100
AcDbCircle
 10
266.2529999999998
 20
140.3189999999999
 30
0.0
 40
8.0
100
AcDbArc
 50
0.0
 51
90.0
  0
ARC
  5
9A79
330
9876
100
AcDbEntity
  8
1
  6
Continuous
100
AcDbCircle
 10
272.4529999999999
 20
60.81929999999999
 30
0.0
 40
3.0
100
AcDbArc
 50
229.4229999999998
 51
270.0
  0
ARC
  5
9A7A
330
9876
100
AcDbEntity
  8
1
  6
Continuous
100
AcDbCircle
 10
272.4529999999999
 20
144.8189999999998
 30
0.0
 40
3.0
100
AcDbArc
 50
90.0
 51
130.577
  0
ARC
  5
9A7B
330
9876
100
AcDbEntity
  8
1
  6
Continuous
100
AcDbCircle
 10
255.6249999999999
 20
52.8193
 30
0.0
 40
1.0
100
AcDbArc
 50
183.8309999999999
 51
270.0
  0
ARC
  5
9A7C
330
9876
100
AcDbEntity
  8
1
  6
Continuous
100
AcDbCircle
 10
1002.35
 20
102.8189999999999
 30
0.0
 40
749.3939999999999
100
AcDbArc
 50
176.169
 51
183.8309999999999
  0
ARC
  5
9A7D
330
9876
100
AcDbEntity
  8
1
  6
Continuous
100
AcDbCircle
 10
255.6249999999999
 20
152.8189999999999
 30
0.0
 40
1.0
100
AcDbArc
 50
90.0
 51
176.169
  0
ARC
  5
9A7E
330
9876
100
AcDbEntity
  8
1
  6
Continuous
100
AcDbCircle
 10
332.668
 20
129.9259999999999
 30
0.0
 40
1.3
100
AcDbArc
 50
15.8809
 51
85.0
  0
ARC
  5
9A7F
330
9876
100
AcDbEntity
  8
1
  6
Continuous
100
AcDbCircle
 10
325.262
 20
127.819
 30
0.0
 40
9.0
100
AcDbArc
 50
344.1190000000001
 51
15.8809
  0
ARC
  5
9A80
330
9876
100
AcDbEntity
  8
1
  6
Continuous
100
AcDbCircle
 10
332.668
 20
125.712
 30
0.0
 40
1.3
100
AcDbArc
 50
275.0
 51
344.1190000000001
  0
ARC
  5
9A81
330
9876
100
AcDbEntity
  8
1
  6
Continuous
100
AcDbCircle
 10
418.5299999999998
 20
-346.1809999999999
 30
0.0
 40
500.0
100
AcDbArc
 50
86.102
 51
93.89799999999999
  0
ARC
  5
9A82
330
9876
100
AcDbEntity
  8
1
  6
Continuous
100
AcDbCircle
 10
418.5299999999998
 20
551.8189999999998
 30
0.0
 40
500.0
100
AcDbArc
 50
266.1019999999999
 51
273.8979999999999
  0
ARC
  5
9A83
330
9876
100
AcDbEntity
  8
1
  6
Continuous
100
AcDbCircle
 10
885.5299999999997
 20
102.8189999999999
 30
0.0
 40
508.4999999999998
100
AcDbArc
 50
174.993
 51
175.4879999999998
  0
ARC
  5
9A84
330
9876
100
AcDbEntity
  8
1
  6
Continuous
100
AcDbCircle
 10
452.1119999999998
 20
146.6769999999999
 30
0.0
 40
6.0
100
AcDbArc
 50
10.9799
 51
86.102
  0
ARC
  5
9A85
330
9876
100
AcDbEntity
  8
1
  6
Continuous
100
AcDbCircle
 10
384.9469999999998
 20
146.6769999999999
 30
0.0
 40
6.0
100
AcDbArc
 50
93.89799999999999
 51
174.993
  0
ARC
  5
9A86
330
9876
100
AcDbEntity
  8
1
  6
Continuous
100
AcDbCircle
 10
384.9469999999998
 20
58.96209999999999
 30
0.0
 40
6.0
100
AcDbArc
 50
185.007
 51
266.1019999999999
  0
ARC
  5
9A87
330
9876
100
AcDbEntity
  8
1
  6
Continuous
100
AcDbCircle
 10
452.1119999999998
 20
58.96209999999999
 30
0.0
 40
6.0
100
AcDbArc
 50
273.8979999999999
 51
349.0199999999999
  0
ARC
  5
9A88
330
9876
100
AcDbEntity
  8
1
  6
Continuous
100
AcDbCircle
 10
486.0299999999998
 20
108.8189999999999
 30
0.0
 40
1.0
100
AcDbArc
 50
0.000022
 51
90.0
  0
ARC
  5
9A89
330
9876
100
AcDbEntity
  8
1
  6
Continuous
100
AcDbCircle
 10
486.0299999999998
 20
96.81930000000001
 30
0.0
 40
1.0
100
AcDbArc
 50
270.0
 51
0.000022
  0
ARC
  5
9A8A
330
9876
100
AcDbEntity
  8
1
  6
Continuous
100
AcDbCircle
 10
389.7339999999999
 20
140.8189999999999
 30
0.0
 40
2.0
100
AcDbArc
 50
0.0
 51
90.00010000000001
  0
ARC
  5
9A8B
330
9876
100
AcDbEntity
  8
1
  6
Continuous
100
AcDbCircle
 10
389.7339999999999
 20
64.8193
 30
0.0
 40
2.0
100
AcDbArc
 50
270.0
 51
0.0
  0
ARC
  5
9A8C
330
9876
100
AcDbEntity
  8
1
  6
Continuous
100
AcDbCircle
 10
373.2339999999999
 20
64.8193
 30
0.0
 40
2.0
100
AcDbArc
 50
180.0
 51
270.0
  0
ARC
  5
9A8D
330
9876
100
AcDbEntity
  8
1
  6
Continuous
100
AcDbCircle
 10
373.2339999999999
 20
140.8189999999999
 30
0.0
 40
2.0
100
AcDbArc
 50
90.0
 51
180.0
  0
ARC
  5
9A8E
330
9876
100
AcDbEntity
  8
1
  6
Continuous
100
AcDbCircle
 10
389.7339999999999
 20
90.81929999999998
 30
0.0
 40
2.0
100
AcDbArc
 50
0.0
 51
90.0
  0
ARC
  5
9A8F
330
9876
100
AcDbEntity
  8
1
  6
Continuous
100
AcDbCircle
 10
389.7339999999999
 20
114.819
 30
0.0
 40
2.0
100
AcDbArc
 50
270.0
 51
0.0
  0
ARC
  5
9A90
330
9876
100
AcDbEntity
  8
1
  6
Continuous
100
AcDbCircle
 10
885.5299999999997
 20
102.8189999999999
 30
0.0
 40
508.4999999999998
100
AcDbArc
 50
184.512
 51
185.007
  0
ARC
  5
9A91
330
9876
100
AcDbEntity
  8
1
  6
Continuous
100
AcDbCircle
 10
389.5299999999999
 20
142.3189999999999
 30
0.0
 40
6.0
100
AcDbArc
 50
90.0
 51
175.22
  0
ARC
  5
9A92
330
9876
100
AcDbEntity
  8
1
  6
Continuous
100
AcDbCircle
 10
389.5299999999999
 20
63.31929999999999
 30
0.0
 40
6.0
100
AcDbArc
 50
184.78
 51
270.0
  0
ARC
  5
9A93
330
9876
100
AcDbEntity
  8
1
  6
Continuous
100
AcDbCircle
 10
385.7339999999999
 20
77.8193
 30
0.0
 40
2.1
100
AcDbArc
 50
348.463
 51
11.537
  0
ARC
  5
9A94
330
9876
100
AcDbEntity
  8
1
  6
Continuous
100
AcDbCircle
 10
385.7339999999999
 20
77.8193
 30
0.0
 40
2.1
100
AcDbArc
 50
78.46299999999998
 51
101.537
  0
ARC
  5
9A95
330
9876
100
AcDbEntity
  8
1
  6
Continuous
100
AcDbCircle
 10
385.7339999999999
 20
77.8193
 30
0.0
 40
2.1
100
AcDbArc
 50
168.463
 51
191.5369999999998
  0
ARC
  5
9A96
330
9876
100
AcDbEntity
  8
1
  6
Continuous
100
AcDbCircle
 10
385.7339999999999
 20
77.8193
 30
0.0
 40
2.1
100
AcDbArc
 50
258.4629999999999
 51
281.5369999999999
  0
CIRCLE
  5
9A97
330
9876
100
AcDbEntity
  8
1
  6
Continuous
100
AcDbCircle
 10
385.7339999999999
 20
77.8193
 30
0.0
 40
3.5
  0
ARC
  5
9A98
330
9876
100
AcDbEntity
  8
1
  6
Continuous
100
AcDbCircle
 10
385.7339999999999
 20
127.819
 30
0.0
 40
2.1
100
AcDbArc
 50
348.463
 51
11.537
  0
ARC
  5
9A99
330
9876
100
AcDbEntity
  8
1
  6
Continuous
100
AcDbCircle
 10
385.7339999999999
 20
127.819
 30
0.0
 40
2.1
100
AcDbArc
 50
78.46299999999998
 51
101.537
  0
ARC
  5
9A9A
330
9876
100
AcDbEntity
  8
1
  6
Continuous
100
AcDbCircle
 10
385.7339999999999
 20
127.819
 30
0.0
 40
2.1
100
AcDbArc
 50
168.463
 51
191.5369999999998
  0
ARC
  5
9A9B
330
9876
100
AcDbEntity
  8
1
  6
Continuous
100
AcDbCircle
 10
385.7339999999999
 20
127.819
 30
0.0
 40
2.1
100
AcDbArc
 50
258.4629999999999
 51
281.5369999999999
  0
CIRCLE
  5
9A9C
330
9876
100
AcDbEntity
  8
1
  6
Continuous
100
AcDbCircle
 10
385.7339999999999
 20
127.819
 30
0.0
 40
3.5
  0
CIRCLE
  5
9A9D
330
9876
100
AcDbEntity
  8
1
  6
Continuous
100
AcDbCircle
 10
385.7339999999999
 20
127.819
 30
0.0
 40
3.799999999999998
  0
CIRCLE
  5
9A9E
330
9876
100
AcDbEntity
  8
1
  6
Continuous
100
AcDbCircle
 10
385.7339999999999
 20
77.8193
 30
0.0
 40
3.799999999999998
  0
CIRCLE
  5
9A9F
330
9876
100
AcDbEntity
  8
1
  6
Continuous
100
AcDbCircle
 10
385.7339999999999
 20
127.819
 30
0.0
 40
5.0
  0
CIRCLE
  5
9AA0
330
9876
100
AcDbEntity
  8
1
  6
Continuous
100
AcDbCircle
 10
385.7339999999999
 20
77.8193
 30
0.0
 40
5.0
  0
ARC
  5
9AA1
330
9876
100
AcDbEntity
  8
1
  6
Continuous
100
AcDbCircle
 10
395.5299999999999
 20
60.81929999999999
 30
0.0
 40
3.0
100
AcDbArc
 50
180.0
 51
270.0
  0
ARC
  5
9AA2
330
9876
100
AcDbEntity
  8
1
  6
Continuous
100
AcDbCircle
 10
395.5299999999999
 20
144.8189999999998
 30
0.0
 40
3.0
100
AcDbArc
 50
90.0
 51
180.0
  0
ARC
  5
9AA3
330
9876
100
AcDbEntity
  8
1
  6
Continuous
100
AcDbCircle
 10
446.53
 20
72.8193
 30
0.0
 40
2.25
100
AcDbArc
 50
349.2419999999999
 51
10.7583
  0
ARC
  5
9AA4
330
9876
100
AcDbEntity
  8
1
  6
Continuous
100
AcDbCircle
 10
446.53
 20
72.8193
 30
0.0
 40
2.25
100
AcDbArc
 50
79.24169999999998
 51
100.7579999999999
  0
ARC
  5
9AA5
330
9876
100
AcDbEntity
  8
1
  6
Continuous
100
AcDbCircle
 10
446.53
 20
72.8193
 30
0.0
 40
2.25
100
AcDbArc
 50
169.242
 51
190.758
  0
ARC
  5
9AA6
330
9876
100
AcDbEntity
  8
1
  6
Continuous
100
AcDbCircle
 10
446.53
 20
72.8193
 30
0.0
 40
2.25
100
AcDbArc
 50
259.242
 51
280.7579999999999
  0
CIRCLE
  5
9AA7
330
9876
100
AcDbEntity
  8
1
  6
Continuous
100
AcDbCircle
 10
446.53
 20
72.8193
 30
0.0
 40
4.0
  0
ARC
  5
9AA8
330
9876
100
AcDbEntity
  8
1
  6
Continuous
100
AcDbCircle
 10
446.53
 20
132.8189999999999
 30
0.0
 40
2.25
100
AcDbArc
 50
349.2419999999999
 51
10.7583
  0
ARC
  5
9AA9
330
9876
100
AcDbEntity
  8
1
  6
Continuous
100
AcDbCircle
 10
446.53
 20
132.8189999999999
 30
0.0
 40
2.25
100
AcDbArc
 50
79.24169999999998
 51
100.7579999999999
  0
ARC
  5
9AAA
330
9876
100
AcDbEntity
  8
1
  6
Continuous
100
AcDbCircle
 10
446.53
 20
132.8189999999999
 30
0.0
 40
2.25
100
AcDbArc
 50
169.242
 51
190.758
  0
ARC
  5
9AAB
330
9876
100
AcDbEntity
  8
1
  6
Continuous
100
AcDbCircle
 10
446.53
 20
132.8189999999999
 30
0.0
 40
2.25
100
AcDbArc
 50
259.242
 51
280.7579999999999
  0
CIRCLE
  5
9AAC
330
9876
100
AcDbEntity
  8
1
  6
Continuous
100
AcDbCircle
 10
446.53
 20
132.8189999999999
 30
0.0
 40
4.0
  0
CIRCLE
  5
9AAD
330
9876
100
AcDbEntity
  8
1
  6
Continuous
100
AcDbCircle
 10
411.0299999999998
 20
85.3193
 30
0.0
 40
2.75
  0
CIRCLE
  5
9AAE
330
9876
100
AcDbEntity
  8
1
  6
Continuous
100
AcDbCircle
 10
411.0299999999998
 20
120.3189999999999
 30
0.0
 40
2.75
  0
ARC
  5
9AAF
330
9876
100
AcDbEntity
  8
1
  6
Continuous
100
AcDbCircle
 10
398.5299999999999
 20
85.3193
 30
0.0
 40
2.25
100
AcDbArc
 50
349.2419999999999
 51
10.7583
  0
ARC
  5
9AB0
330
9876
100
AcDbEntity
  8
1
  6
Continuous
100
AcDbCircle
 10
398.5299999999999
 20
85.3193
 30
0.0
 40
2.25
100
AcDbArc
 50
79.24169999999998
 51
100.7579999999999
  0
ARC
  5
9AB1
330
9876
100
AcDbEntity
  8
1
  6
Continuous
100
AcDbCircle
 10
398.5299999999999
 20
85.3193
 30
0.0
 40
2.25
100
AcDbArc
 50
169.242
 51
190.758
  0
ARC
  5
9AB2
330
9876
100
AcDbEntity
  8
1
  6
Continuous
100
AcDbCircle
 10
398.5299999999999
 20
85.3193
 30
0.0
 40
2.25
100
AcDbArc
 50
259.242
 51
280.7579999999999
  0
CIRCLE
  5
9AB3
330
9876
100
AcDbEntity
  8
1
  6
Continuous
100
AcDbCircle
 10
398.5299999999999
 20
85.3193
 30
0.0
 40
4.0
  0
ARC
  5
9AB4
330
9876
100
AcDbEntity
  8
1
  6
Continuous
100
AcDbCircle
 10
398.5299999999999
 20
120.3189999999999
 30
0.0
 40
2.25
100
AcDbArc
 50
349.2419999999999
 51
10.7583
  0
ARC
  5
9AB5
330
9876
100
AcDbEntity
  8
1
  6
Continuous
100
AcDbCircle
 10
398.5299999999999
 20
120.3189999999999
 30
0.0
 40
2.25
100
AcDbArc
 50
79.24169999999998
 51
100.7579999999999
  0
ARC
  5
9AB6
330
9876
100
AcDbEntity
  8
1
  6
Continuous
100
AcDbCircle
 10
398.5299999999999
 20
120.3189999999999
 30
0.0
 40
2.25
100
AcDbArc
 50
169.242
 51
190.758
  0
ARC
  5
9AB7
330
9876
100
AcDbEntity
  8
1
  6
Continuous
100
AcDbCircle
 10
398.5299999999999
 20
120.3189999999999
 30
0.0
 40
2.25
100
AcDbArc
 50
259.242
 51
280.7579999999999
  0
CIRCLE
  5
9AB8
330
9876
100
AcDbEntity
  8
1
  6
Continuous
100
AcDbCircle
 10
398.5299999999999
 20
120.3189999999999
 30
0.0
 40
4.0
  0
ARC
  5
9AB9
330
9876
100
AcDbEntity
  8
1
  6
Continuous
100
AcDbCircle
 10
628.193
 20
102.8189999999999
 30
0.0
 40
508.4999999999998
100
AcDbArc
 50
174.993
 51
185.007
  0
CIRCLE
  5
9ABA
330
9876
100
AcDbEntity
  8
1
  6
Continuous
100
AcDbCircle
 10
25.9337
 20
72.8193
 30
0.0
 40
2.066999999999997
  0
CIRCLE
  5
9ABB
330
9876
100
AcDbEntity
  8
1
  6
Continuous
100
AcDbCircle
 10
25.9337
 20
132.8189999999999
 30
0.0
 40
2.066999999999997
  0
ARC
  5
9ABC
330
9876
100
AcDbEntity
  8
1
  6
Continuous
100
AcDbCircle
 10
276.4529999999999
 20
131.8189999999999
 30
0.0
 40
1.0
100
AcDbArc
 50
0.0
 51
90.0
  0
ARC
  5
9ABD
330
9876
100
AcDbEntity
  8
1
  6
Continuous
100
AcDbCircle
 10
276.4529999999999
 20
73.8193
 30
0.0
 40
1.0
100
AcDbArc
 50
270.0
 51
0.0
  0
ARC
  5
9ABE
330
9876
100
AcDbEntity
  8
1
  6
Continuous
100
AcDbCircle
 10
276.4529999999999
 20
81.81929999999999
 30
0.0
 40
1.0
100
AcDbArc
 50
0.0
 51
90.0
  0
ARC
  5
9ABF
330
9876
100
AcDbEntity
  8
1
  6
Continuous
100
AcDbCircle
 10
276.4529999999999
 20
123.819
 30
0.0
 40
1.0
100
AcDbArc
 50
270.0
 51
0.0
  0
ARC
  5
9AC0
330
9876
100
AcDbEntity
  8
1
  6
Continuous
100
AcDbCircle
 10
194.2589999999999
 20
282.3809999999999
 30
0.0
 40
1.3
100
AcDbArc
 50
5.00004
 51
74.1191
  0
ARC
  5
9AC1
330
9876
100
AcDbEntity
  8
1
  6
Continuous
100
AcDbCircle
 10
192.1519999999999
 20
274.975
 30
0.0
 40
9.0
100
AcDbArc
 50
74.1191
 51
105.881
  0
ARC
  5
9AC2
330
9876
100
AcDbEntity
  8
1
  6
Continuous
100
AcDbCircle
 10
190.045
 20
282.3809999999999
 30
0.0
 40
1.3
100
AcDbArc
 50
105.881
 51
175.0
  0
ARC
  5
9AC3
330
9876
100
AcDbEntity
  8
1
  6
Continuous
100
AcDbCircle
 10
332.668
 20
79.9263
 30
0.0
 40
1.3
100
AcDbArc
 50
15.8809
 51
85.0
  0
ARC
  5
9AC4
330
9876
100
AcDbEntity
  8
1
  6
Continuous
100
AcDbCircle
 10
325.262
 20
77.8193
 30
0.0
 40
9.0
100
AcDbArc
 50
344.1190000000001
 51
15.8809
  0
ARC
  5
9AC5
330
9876
100
AcDbEntity
  8
1
  6
Continuous
100
AcDbCircle
 10
332.668
 20
75.71229999999999
 30
0.0
 40
1.3
100
AcDbArc
 50
275.0
 51
344.1190000000001
  0
LINE
  5
9AC6
330
9876
100
AcDbEntity
  8
1
  6
Continuous
100
AcDbLine
 10
478.444
 20
95.81929999999998
 30
0.0
 11
478.444
 21
109.8189999999999
 31
0.0
  0
LINE
  5
9AC7
330
9876
100
AcDbEntity
  8
1
  6
Continuous
100
AcDbLine
 10
477.0299999999998
 20
109.8189999999999
 30
0.0
 11
477.0299999999998
 21
147.8189999999998
 31
0.0
  0
LINE
  5
9AC8
330
9876
100
AcDbEntity
  8
4
  6
CENTER
100
AcDbLine
 10
13.067326
 20
228.8719009999998
 30
0.0
 11
53.129663
 21
228.8719009999998
 31
0.0
  0
LINE
  5
9AC9
330
9876
100
AcDbEntity
  8
1
  6
Continuous
100
AcDbLine
 10
19.754093
 20
225.8719009999999
 30
0.0
 11
18.254093
 21
225.8719009999999
 31
0.0
  0
ARC
  5
9ACA
330
9876
100
AcDbEntity
  8
1
  6
Continuous
100
AcDbCircle
 10
19.754093
 20
226.3719009999999
 30
0.0
 40
0.5
100
AcDbArc
 50
270.0
 51
0.0
  0
ARC
  5
9ACB
330
9876
100
AcDbEntity
  8
1
  6
Continuous
100
AcDbCircle
 10
18.254093
 20
226.3719009999999
 30
0.0
 40
0.5
100
AcDbArc
 50
180.0
 51
270.0
  0
LINE
  5
9ACC
330
9876
100
AcDbEntity
  8
4
  6
CENTER
100
AcDbLine
 10
109.909875
 20
245.616
 30
0.0
 11
99.815556
 21
245.616
 31
0.0
  0
ENDSEC
  0
SECTION
  2
OBJECTS
  0
DICTIONARY
  5
9864
330
0
100
AcDbDictionary
281
     1
  3
ACAD_CIP_PREVIOUS_PRODUCT_INFO
350
9B32
  3
ACAD_COLOR
350
9B14
  3
ACAD_DETAILVIEWSTYLE
350
9B2D
  3
ACAD_GROUP
350
9865
  3
ACAD_LAYOUT
350
9871
  3
ACAD_MATERIAL
350
9AE2
  3
ACAD_MLEADERSTYLE
350
9B29
  3
ACAD_MLINESTYLE
350
986E
  3
ACAD_PLOTSETTINGS
350
9870
  3
ACAD_PLOTSTYLENAME
350
9AE0
  3
ACAD_SCALELIST
350
9B17
  3
ACAD_SECTIONVIEWSTYLE
350
9B2B
  3
ACAD_TABLESTYLE
350
9B15
  3
ACAD_VISUALSTYLE
350
9AFB
  3
ACDB_RECOMPOSE_DATA
350
9B50
  3
AcDbVariableDictionary
350
9B43
  3
DWGPROPS
350
9B51
  0
DICTIONARY
  5
9B33
330
9868
100
AcDbDictionary
280
     1
281
     1
  3
ADSK_XREC_LAYER_RECONCILED
360
9B34
  0
DICTIONARY
  5
9B35
330
987E
100
AcDbDictionary
280
     1
281
     1
  3
ADSK_XREC_LAYER_RECONCILED
360
9B36
  0
DICTIONARY
  5
9B37
330
987F
100
AcDbDictionary
280
     1
281
     1
  3
ADSK_XREC_LAYER_RECONCILED
360
9B38
  0
DICTIONARY
  5
9B39
330
9880
100
AcDbDictionary
280
     1
281
     1
  3
ADSK_XREC_LAYER_RECONCILED
360
9B3A
  0
DICTIONARY
  5
9B3B
330
9881
100
AcDbDictionary
280
     1
281
     1
  3
ADSK_XREC_LAYER_RECONCILED
360
9B3C
  0
DICTIONARY
  5
9B3D
330
9882
100
AcDbDictionary
280
     1
281
     1
  3
ADSK_XREC_LAYER_RECONCILED
360
9B3E
  0
DICTIONARY
  5
9B3F
330
9883
100
AcDbDictionary
280
     1
281
     1
  3
ADSK_XREC_LAYER_RECONCILED
360
9B40
  0
DICTIONARY
  5
9B41
330
9884
100
AcDbDictionary
280
     1
281
     1
  3
ADSK_XREC_LAYER_RECONCILED
360
9B42
  0
DICTIONARY
  5
9ADB
330
9876
100
AcDbDictionary
281
     1
  3
ACAD_LAYOUTSELFREF
350
9ADC
  0
DICTIONARY
  5
9AD9
330
9872
100
AcDbDictionary
281
     1
  3
ACAD_LAYOUTSELFREF
350
9ADA
  0
XRECORD
  5
9B32
102
{ACAD_REACTORS
330
9864
102
}
330
9864
100
AcDbXrecord
280
     1
300
ACDLT
300
2014
300
ACDLT_F_S
  0
DICTIONARY
  5
9B14
102
{ACAD_REACTORS
330
9864
102
}
330
9864
100
AcDbDictionary
281
     1
  0
DICTIONARY
  5
9B2D
102
{ACAD_REACTORS
330
9864
102
}
330
9864
100
AcDbDictionary
281
     1
  3
Imperial24
350
9B2E
  0
DICTIONARY
  5
9865
102
{ACAD_REACTORS
330
9864
102
}
330
9864
100
AcDbDictionary
281
     1
  0
DICTIONARY
  5
9871
102
{ACAD_REACTORS
330
9864
102
}
330
9864
100
AcDbDictionary
281
     1
  3
Model
350
9B2F
  3
レイアウト1
350
9B30
  0
DICTIONARY
  5
9AE2
102
{ACAD_REACTORS
330
9864
102
}
330
9864
100
AcDbDictionary
281
     1
  3
ByBlock
350
9AEB
  3
ByLayer
350
9AE3
  3
Global
350
9AF3
  0
DICTIONARY
  5
9B29
102
{ACAD_REACTORS
330
9864
102
}
330
9864
100
AcDbDictionary
281
     1
  3
Standard
350
9B2A
  0
DICTIONARY
  5
986E
102
{ACAD_REACTORS
330
9864
102
}
330
9864
100
AcDbDictionary
281
     1
  3
STANDARD
350
986F
  0
DICTIONARY
  5
9870
102
{ACAD_REACTORS
330
9864
102
}
330
9864
100
AcDbDictionary
281
     1
  0
ACDBDICTIONARYWDFLT
  5
9AE0
102
{ACAD_REACTORS
330
9864
102
}
330
9864
100
AcDbDictionary
281
     1
  3
Normal
350
9AE1
100
AcDbDictionaryWithDefault
340
9AE1
  0
DICTIONARY
  5
9B17
102
{ACAD_REACTORS
330
9864
102
}
330
9864
100
AcDbDictionary
281
     1
  3
A0
350
9B18
  3
A1
350
9B19
  3
A2
350
9B1A
  3
A3
350
9B1B
  3
A4
350
9B1C
  3
A5
350
9B1D
  3
A6
350
9B1E
  3
A7
350
9B1F
  3
A8
350
9B20
  3
A9
350
9B21
  3
B0
350
9B22
  3
B1
350
9B23
  3
B2
350
9B24
  3
B3
350
9B25
  3
B4
350
9B26
  3
B5
350
9B27
  3
B6
350
9B28
  0
DICTIONARY
  5
9B2B
102
{ACAD_REACTORS
330
9864
102
}
330
9864
100
AcDbDictionary
281
     1
  3
Imperial24
350
9B2C
  0
DICTIONARY
  5
9B15
102
{ACAD_REACTORS
330
9864
102
}
330
9864
100
AcDbDictionary
281
     1
  3
Standard
350
9B16
  0
DICTIONARY
  5
9AFB
102
{ACAD_REACTORS
330
9864
102
}
330
9864
100
AcDbDictionary
281
     1
  3
2dWireframe
350
9B01
  3
Basic
350
9B00
  3
Brighten
350
9B07
  3
ColorChange
350
9B0B
  3
Conceptual
350
9B04
  3
Dim
350
9B06
  3
EdgeColorOff
350
9B13
  3
Facepattern
350
9B0A
  3
Flat
350
9AFC
  3
FlatWithEdges
350
9AFD
  3
Gouraud
350
9AFE
  3
GouraudWithEdges
350
9AFF
  3
Hidden
350
9B03
  3
JitterOff
350
9B11
  3
Linepattern
350
9B09
  3
OverhangOff
350
9B12
  3
Realistic
350
9B05
  3
Shaded
350
9B10
  3
Shaded with edges
350
9B0F
  3
Shades of Gray
350
9B0C
  3
Sketchy
350
9B0D
  3
Thicken
350
9B08
  3
Wireframe
350
9B02
  3
X-Ray
350
9B0E
  0
XRECORD
  5
9B50
102
{ACAD_REACTORS
330
9864
102
}
330
9864
100
AcDbXrecord
280
     1
 90
        1
330
9B16
  0
DICTIONARY
  5
9B43
102
{ACAD_REACTORS
330
9864
102
}
330
9864
100
AcDbDictionary
281
     1
  3
CANNOSCALE
350
9B48
  3
CMLEADERSTYLE
350
9B45
  3
CTABLESTYLE
350
9B44
  3
CVIEWDETAILSTYLE
350
9B46
  3
CVIEWSECTIONSTYLE
350
9B47
  3
DIMASSOC
350
9B4B
  3
INDEXCTL
350
9B4A
  3
SORTENTS
350
9B49
  3
XCLIPFRAME
350
9B4C
  0
XRECORD
  5
9B51
102
{ACAD_REACTORS
330
9864
102
}
330
9864
100
AcDbXrecord
280
     1
  1
DWGPROPS COOKIE
  2

  3

  4

  6

  7

  8
Yoshitsune
  9

300
=
301
=
302
=
303
=
304
=
305
=
306
=
307
=
308
=
309
=
 40
0.000015150462963
 41
2450737.66336007
 42
2457192.640169838
  1

 90
        0
  0
XRECORD
  5
9B34
102
{ACAD_REACTORS
330
9B33
102
}
330
9B33
100
AcDbXrecord
280
     1
290
     1
  0
XRECORD
  5
9B36
102
{ACAD_REACTORS
330
9B35
102
}
330
9B35
100
AcDbXrecord
280
     1
290
     1
  0
XRECORD
  5
9B38
102
{ACAD_REACTORS
330
9B37
102
}
330
9B37
100
AcDbXrecord
280
     1
290
     1
  0
XRECORD
  5
9B3A
102
{ACAD_REACTORS
330
9B39
102
}
330
9B39
100
AcDbXrecord
280
     1
290
     1
  0
XRECORD
  5
9B3C
102
{ACAD_REACTORS
330
9B3B
102
}
330
9B3B
100
AcDbXrecord
280
     1
290
     1
  0
XRECORD
  5
9B3E
102
{ACAD_REACTORS
330
9B3D
102
}
330
9B3D
100
AcDbXrecord
280
     1
290
     1
  0
XRECORD
  5
9B40
102
{ACAD_REACTORS
330
9B3F
102
}
330
9B3F
100
AcDbXrecord
280
     1
290
     1
  0
XRECORD
  5
9B42
102
{ACAD_REACTORS
330
9B41
102
}
330
9B41
100
AcDbXrecord
280
     1
290
     1
  0
XRECORD
  5
9ADC
102
{ACAD_REACTORS
330
9ADB
102
}
330
9ADB
100
AcDbXrecord
280
     1
340
9876
  0
XRECORD
  5
9ADA
102
{ACAD_REACTORS
330
9AD9
102
}
330
9AD9
100
AcDbXrecord
280
     1
340
9872
  0
ACDBDETAILVIEWSTYLE
  5
9B2E
102
{ACAD_XDICTIONARY
360
9B89
102
}
102
{ACAD_REACTORS
330
9B2D
102
}
330
9B2D
100
AcDbModelDocViewStyle
 70
     0
  3
Imperial24
290
     0
100
AcDbDetailViewStyle
 70
     0
 71
     0
 90
        3
 71
     1
340
9869
 40
0.24
340
0
 40
0.24
300

 40
0.36
280
     3
 71
     2
340
986D
 90
       25
 71
     3
340
9869
 40
0.24
 90
        1
 40
0.75
 90
        1
300
%<\AcVar ViewType \f "%tc1">% %<\AcVar ViewDetailId>%\PSCALE %<\AcVar ViewScale \f "%sn">%
 71
     4
340
986D
 90
       25
340
986D
 90
       25
280
     0
  0
LAYOUT
  5
9B2F
102
{ACAD_XDICTIONARY
360
9B8B
102
}
102
{ACAD_REACTORS
330
9871
102
}
330
9871
100
AcDbPlotSettings
  1

  2
Canon LBP9100C
  4

  6

 40
0.0
 41
0.0
 42
0.0
 43
0.0
 44
0.0
 45
0.0
 46
0.0
 47
0.0
 48
0.0
 49
0.0
140
0.0
141
0.0
142
1.0
143
1.0
 70
  1712
 72
     0
 73
     0
 74
     0
  7

 75
     0
147
1.0
148
0.0
149
0.0
100
AcDbLayout
  1
Model
 70
     1
 71
     0
 10
0.0
 20
0.0
 11
12.0
 21
9.0
 12
0.0
 22
0.0
 32
0.0
 14
0.0
 24
0.0
 34
0.0
 15
0.0
 25
0.0
 35
0.0
146
0.0
 13
0.0
 23
0.0
 33
0.0
 16
1.0
 26
0.0
 36
0.0
 17
0.0
 27
1.0
 37
0.0
 76
     0
330
9876
331
9AD8
  0
LAYOUT
  5
9B30
102
{ACAD_XDICTIONARY
360
9B8D
102
}
102
{ACAD_REACTORS
330
9871
102
}
330
9871
100
AcDbPlotSettings
  1

  2
Canon LBP9100C
  4

  6

 40
0.0
 41
0.0
 42
0.0
 43
0.0
 44
0.0
 45
0.0
 46
0.0
 47
0.0
 48
0.0
 49
0.0
140
0.0
141
0.0
142
1.0
143
1.0
 70
   688
 72
     0
 73
     0
 74
     5
  7

 75
    16
147
1.0
148
0.0
149
0.0
100
AcDbLayout
  1
レイアウト1
 70
     0
 71
     1
 10
0.0
 20
0.0
 11
420.0
 21
297.0
 12
0.0
 22
0.0
 32
0.0
 14
1.000000000000000E+20
 24
1.000000000000000E+20
 34
1.000000000000000E+20
 15
-1.000000000000000E+20
 25
-1.000000000000000E+20
 35
-1.000000000000000E+20
146
0.0
 13
0.0
 23
0.0
 33
0.0
 16
1.0
 26
0.0
 36
0.0
 17
0.0
 27
1.0
 37
0.0
 76
     0
330
9872
  0
MATERIAL
  5
9AEB
102
{ACAD_XDICTIONARY
360
9AEC
102
}
102
{ACAD_REACTORS
330
9AE2
102
}
330
9AE2
100
AcDbMaterial
  1
ByBlock
 72
     0
 43
0.0208333333333333
 43
0.0
 43
0.0
 43
0.0
 43
0.0
 43
0.0208333333333333
 43
0.0
 43
0.0
 43
0.0
 43
0.0
 43
1.0
 43
0.0
 43
0.0
 43
0.0
 43
0.0
 43
1.0
 77
     0
 47
0.0208333333333333
 47
0.0
 47
0.0
 47
0.0
 47
0.0
 47
0.0208333333333333
 47
0.0
 47
0.0
 47
0.0
 47
0.0
 47
1.0
 47
0.0
 47
0.0
 47
0.0
 47
0.0
 47
1.0
171
     0
 49
0.0208333333333333
 49
0.0
 49
0.0
 49
0.0
 49
0.0
 49
0.0208333333333333
 49
0.0
 49
0.0
 49
0.0
 49
0.0
 49
1.0
 49
0.0
 49
0.0
 49
0.0
 49
0.0
 49
1.0
175
     0
142
0.0208333333333333
142
0.0
142
0.0
142
0.0
142
0.0
142
0.0208333333333333
142
0.0
142
0.0
142
0.0
142
0.0
142
1.0
142
0.0
142
0.0
142
0.0
142
0.0
142
1.0
179
     0
144
0.0208333333333333
144
0.0
144
0.0
144
0.0
144
0.0
144
0.0208333333333333
144
0.0
144
0.0
144
0.0
144
0.0
144
1.0
144
0.0
144
0.0
144
0.0
144
0.0
144
1.0
147
0.0208333333333333
147
0.0
147
0.0
147
0.0
147
0.0
147
0.0208333333333333
147
0.0
147
0.0
147
0.0
147
0.0
147
1.0
147
0.0
147
0.0
147
0.0
147
0.0
147
1.0
  0
MATERIAL
  5
9AE3
102
{ACAD_XDICTIONARY
360
9AE4
102
}
102
{ACAD_REACTORS
330
9AE2
102
}
330
9AE2
100
AcDbMaterial
  1
ByLayer
 72
     0
 43
0.0208333333333333
 43
0.0
 43
0.0
 43
0.0
 43
0.0
 43
0.0208333333333333
 43
0.0
 43
0.0
 43
0.0
 43
0.0
 43
1.0
 43
0.0
 43
0.0
 43
0.0
 43
0.0
 43
1.0
 77
     0
 47
0.0208333333333333
 47
0.0
 47
0.0
 47
0.0
 47
0.0
 47
0.0208333333333333
 47
0.0
 47
0.0
 47
0.0
 47
0.0
 47
1.0
 47
0.0
 47
0.0
 47
0.0
 47
0.0
 47
1.0
171
     0
 49
0.0208333333333333
 49
0.0
 49
0.0
 49
0.0
 49
0.0
 49
0.0208333333333333
 49
0.0
 49
0.0
 49
0.0
 49
0.0
 49
1.0
 49
0.0
 49
0.0
 49
0.0
 49
0.0
 49
1.0
175
     0
142
0.0208333333333333
142
0.0
142
0.0
142
0.0
142
0.0
142
0.0208333333333333
142
0.0
142
0.0
142
0.0
142
0.0
142
1.0
142
0.0
142
0.0
142
0.0
142
0.0
142
1.0
179
     0
144
0.0208333333333333
144
0.0
144
0.0
144
0.0
144
0.0
144
0.0208333333333333
144
0.0
144
0.0
144
0.0
144
0.0
144
1.0
144
0.0
144
0.0
144
0.0
144
0.0
144
1.0
147
0.0208333333333333
147
0.0
147
0.0
147
0.0
147
0.0
147
0.0208333333333333
147
0.0
147
0.0
147
0.0
147
0.0
147
1.0
147
0.0
147
0.0
147
0.0
147
0.0
147
1.0
  0
MATERIAL
  5
9AF3
102
{ACAD_XDICTIONARY
360
9AF4
102
}
102
{ACAD_REACTORS
330
9AE2
102
}
330
9AE2
100
AcDbMaterial
  1
Global
 72
     0
 43
0.0208333333333333
 43
0.0
 43
0.0
 43
0.0
 43
0.0
 43
0.0208333333333333
 43
0.0
 43
0.0
 43
0.0
 43
0.0
 43
1.0
 43
0.0
 43
0.0
 43
0.0
 43
0.0
 43
1.0
 77
     0
 47
0.0208333333333333
 47
0.0
 47
0.0
 47
0.0
 47
0.0
 47
0.0208333333333333
 47
0.0
 47
0.0
 47
0.0
 47
0.0
 47
1.0
 47
0.0
 47
0.0
 47
0.0
 47
0.0
 47
1.0
171
     0
 49
0.0208333333333333
 49
0.0
 49
0.0
 49
0.0
 49
0.0
 49
0.0208333333333333
 49
0.0
 49
0.0
 49
0.0
 49
0.0
 49
1.0
 49
0.0
 49
0.0
 49
0.0
 49
0.0
 49
1.0
175
     0
142
0.0208333333333333
142
0.0
142
0.0
142
0.0
142
0.0
142
0.0208333333333333
142
0.0
142
0.0
142
0.0
142
0.0
142
1.0
142
0.0
142
0.0
142
0.0
142
0.0
142
1.0
179
     0
144
0.0208333333333333
144
0.0
144
0.0
144
0.0
144
0.0
144
0.0208333333333333
144
0.0
144
0.0
144
0.0
144
0.0
144
1.0
144
0.0
144
0.0
144
0.0
144
0.0
144
1.0
147
0.0208333333333333
147
0.0
147
0.0
147
0.0
147
0.0
147
0.0208333333333333
147
0.0
147
0.0
147
0.0
147
0.0
147
1.0
147
0.0
147
0.0
147
0.0
147
0.0
147
1.0
  0
MLEADERSTYLE
  5
9B2A
102
{ACAD_REACTORS
330
9B29
102
}
330
9B29
100
AcDbMLeaderStyle
170
     2
171
     1
172
     0
 90
        2
 40
0.0
 41
0.0
173
     1
 91
-1056964608
340
986B
 92
       -2
290
     1
 42
0.09
291
     1
 43
0.36
  3
Standard
 44
0.18
300

342
9869
174
     1
178
     6
175
     1
176
     0
 93
-1056964608
 45
0.18
292
     0
297
     0
 46
0.18
 94
-1056964608
 47
1.0
 49
1.0
140
1.0
293
     1
141
0.0
294
     1
177
     0
142
1.0
295
     0
296
     0
143
0.125
1001
ACAD_MLEADERVER
1070
     2
  0
MLINESTYLE
  5
986F
102
{ACAD_REACTORS
330
986E
102
}
330
986E
100
AcDbMlineStyle
  2
STANDARD
 70
     0
  3

 62
   256
 51
90.0
 52
90.0
 71
     2
 49
0.5
 62
   256
  6
BYLAYER
 49
-0.5
 62
   256
  6
BYLAYER
  0
ACDBPLACEHOLDER
  5
9AE1
102
{ACAD_REACTORS
330
9AE0
102
}
330
9AE0
  0
SCALE
  5
9B18
102
{ACAD_REACTORS
330
9B17
102
}
330
9B17
100
AcDbScale
 70
     0
300
1:1
140
1.0
141
1.0
290
     1
  0
SCALE
  5
9B19
102
{ACAD_REACTORS
330
9B17
102
}
330
9B17
100
AcDbScale
 70
     0
300
1/128" = 1'-0"
140
0.0078125
141
12.0
290
     0
  0
SCALE
  5
9B1A
102
{ACAD_REACTORS
330
9B17
102
}
330
9B17
100
AcDbScale
 70
     0
300
1/64" = 1'-0"
140
0.015625
141
12.0
290
     0
  0
SCALE
  5
9B1B
102
{ACAD_REACTORS
330
9B17
102
}
330
9B17
100
AcDbScale
 70
     0
300
1/32" = 1'-0"
140
0.03125
141
12.0
290
     0
  0
SCALE
  5
9B1C
102
{ACAD_REACTORS
330
9B17
102
}
330
9B17
100
AcDbScale
 70
     0
300
1/16" = 1'-0"
140
0.0625
141
12.0
290
     0
  0
SCALE
  5
9B1D
102
{ACAD_REACTORS
330
9B17
102
}
330
9B17
100
AcDbScale
 70
     0
300
3/32" = 1'-0"
140
0.09375
141
12.0
290
     0
  0
SCALE
  5
9B1E
102
{ACAD_REACTORS
330
9B17
102
}
330
9B17
100
AcDbScale
 70
     0
300
1/8" = 1'-0"
140
0.125
141
12.0
290
     0
  0
SCALE
  5
9B1F
102
{ACAD_REACTORS
330
9B17
102
}
330
9B17
100
AcDbScale
 70
     0
300
3/16" = 1'-0"
140
0.1875
141
12.0
290
     0
  0
SCALE
  5
9B20
102
{ACAD_REACTORS
330
9B17
102
}
330
9B17
100
AcDbScale
 70
     0
300
1/4" = 1'-0"
140
0.25
141
12.0
290
     0
  0
SCALE
  5
9B21
102
{ACAD_REACTORS
330
9B17
102
}
330
9B17
100
AcDbScale
 70
     0
300
3/8" = 1'-0"
140
0.375
141
12.0
290
     0
  0
SCALE
  5
9B22
102
{ACAD_REACTORS
330
9B17
102
}
330
9B17
100
AcDbScale
 70
     0
300
1/2" = 1'-0"
140
0.5
141
12.0
290
     0
  0
SCALE
  5
9B23
102
{ACAD_REACTORS
330
9B17
102
}
330
9B17
100
AcDbScale
 70
     0
300
3/4" = 1'-0"
140
0.75
141
12.0
290
     0
  0
SCALE
  5
9B24
102
{ACAD_REACTORS
330
9B17
102
}
330
9B17
100
AcDbScale
 70
     0
300
1" = 1'-0"
140
1.0
141
12.0
290
     0
  0
SCALE
  5
9B25
102
{ACAD_REACTORS
330
9B17
102
}
330
9B17
100
AcDbScale
 70
     0
300
1-1/2" = 1'-0"
140
1.5
141
12.0
290
     0
  0
SCALE
  5
9B26
102
{ACAD_REACTORS
330
9B17
102
}
330
9B17
100
AcDbScale
 70
     0
300
3" = 1'-0"
140
3.0
141
12.0
290
     0
  0
SCALE
  5
9B27
102
{ACAD_REACTORS
330
9B17
102
}
330
9B17
100
AcDbScale
 70
     0
300
6" = 1'-0"
140
6.0
141
12.0
290
     0
  0
SCALE
  5
9B28
102
{ACAD_REACTORS
330
9B17
102
}
330
9B17
100
AcDbScale
 70
     0
300
1'-0" = 1'-0"
140
12.0
141
12.0
290
     0
  0
ACDBSECTIONVIEWSTYLE
  5
9B2C
102
{ACAD_XDICTIONARY
360
9B87
102
}
102
{ACAD_REACTORS
330
9B2B
102
}
330
9B2B
100
AcDbModelDocViewStyle
 70
     0
  3
Imperial24
290
     0
100
AcDbSectionViewStyle
 70
     0
 71
     0
 90
       78
 71
     1
340
9869
 40
0.24
340
0
340
0
 40
0.24
300
I, O, Q, S, X, Z
 40
0.48
 90
        3
 40
0.18
 90
        1
 71
     2
340
986D
 90
       25
340
986D
 90
       50
 40
0.24
 40
0.0
 40
0.24
 71
     3
340
9869
 40
0.24
 90
        1
 40
0.75
 90
        1
300
%<\AcVar ViewType \f "%tc1">% %<\AcVar ViewSectionStartId>%-%<\AcVar ViewSectionEndId>%\PSCALE %<\AcVar ViewScale \f "%sn">%
 71
     4
300
ANSI31
 40
1.0
 90
        0
290
     0
290
     0
 90
        6
 40
0.0
 40
1.570796326794896
 40
0.2617993877991494
 40
1.308996938995747
 40
-0.2617993877991494
 40
1.832595714594046
  0
TABLESTYLE
  5
9B16
102
{ACAD_XDICTIONARY
360
9B4E
102
}
102
{ACAD_REACTORS
330
9B15
102
}
330
9B15
100
AcDbTableStyle
  3
Standard
 70
     0
 71
     0
 40
0.06
 41
0.06
280
     0
281
     0
  7
STANDARD
140
0.18
170
     2
 62
     0
 63
     7
283
     0
274
    -2
284
     1
 64
     0
275
    -2
285
     1
 65
     0
276
    -2
286
     1
 66
     0
277
    -2
287
     1
 67
     0
278
    -2
288
     1
 68
     0
279
    -2
289
     1
 69
     0
  7
STANDARD
140
0.25
170
     5
 62
     0
 63
     7
283
     0
274
    -2
284
     1
 64
     0
275
    -2
285
     1
 65
     0
276
    -2
286
     1
 66
     0
277
    -2
287
     1
 67
     0
278
    -2
288
     1
 68
     0
279
    -2
289
     1
 69
     0
  7
STANDARD
140
0.18
170
     5
 62
     0
 63
     7
283
     0
274
    -2
284
     1
 64
     0
275
    -2
285
     1
 65
     0
276
    -2
286
     1
 66
     0
277
    -2
287
     1
 67
     0
278
    -2
288
     1
 68
     0
279
    -2
289
     1
 69
     0
  0
VISUALSTYLE
  5
9B01
102
{ACAD_XDICTIONARY
360
9B5F
102
}
102
{ACAD_REACTORS
330
9AFB
102
}
330
9AFB
100
AcDbVisualStyle
  2
2dWireframe
 70
     4
 71
     0
 72
     2
 73
     0
 90
        0
 40
-0.6
 41
-30.0
 62
     5
 63
     7
 74
     1
 91
        4
 64
     7
 65
   257
 75
     1
175
     1
 42
1.0
 92
        0
 66
   257
 43
1.0
 76
     1
 77
     6
 78
     2
 67
     7
 79
     5
170
     0
171
     0
290
     0
174
     0
 93
        1
 44
0.0
173
     0
291
     0
 45
0.0
1001
ACAD
1000
AcDbSavedByObjectVersion
1070
     0
  0
VISUALSTYLE
  5
9B00
102
{ACAD_XDICTIONARY
360
9B5D
102
}
102
{ACAD_REACTORS
330
9AFB
102
}
330
9AFB
100
AcDbVisualStyle
  2
Basic
 70
     7
 71
     1
 72
     0
 73
     1
 90
        0
 40
-0.6
 41
-30.0
 62
     5
 63
     7
 74
     0
 91
        4
 64
     7
 65
   257
 75
     1
175
     1
 42
1.0
 92
        8
 66
     7
 43
1.0
 76
     1
 77
     6
 78
     2
 67
     7
 79
     5
170
     0
171
     0
290
     0
174
     0
 93
        1
 44
0.0
173
     0
291
     1
 45
0.0
1001
ACAD
1000
AcDbSavedByObjectVersion
1070
     0
  0
VISUALSTYLE
  5
9B07
102
{ACAD_XDICTIONARY
360
9B6B
102
}
102
{ACAD_REACTORS
330
9AFB
102
}
330
9AFB
100
AcDbVisualStyle
  2
Brighten
 70
    12
 71
     2
 72
     2
 73
     0
 90
        0
 40
-0.6
 41
-30.0
 62
     5
 63
     7
 74
     1
 91
        4
 64
     7
 65
   257
 75
     1
175
     1
 42
1.0
 92
        8
 66
     7
 43
1.0
 76
     1
 77
     6
 78
     2
 67
     7
 79
     5
170
     0
171
     0
290
     0
174
     0
 93
        1
 44
50.0
173
     0
291
     1
 45
0.0
1001
ACAD
1000
AcDbSavedByObjectVersion
1070
     0
  0
VISUALSTYLE
  5
9B0B
102
{ACAD_XDICTIONARY
360
9B73
102
}
102
{ACAD_REACTORS
330
9AFB
102
}
330
9AFB
100
AcDbVisualStyle
  2
ColorChange
 70
    16
 71
     2
 72
     2
 73
     3
 90
        0
 40
-0.6
 41
-30.0
 62
     5
 63
     8
 74
     1
 91
        4
 64
     7
 65
   257
 75
     1
175
     1
 42
1.0
 92
        8
 66
     8
 43
1.0
 76
     1
 77
     6
 78
     2
 67
     7
 79
     5
170
     0
171
     0
290
     0
174
     0
 93
        1
 44
0.0
173
     0
291
     1
 45
0.0
1001
ACAD
1000
AcDbSavedByObjectVersion
1070
     0
  0
VISUALSTYLE
  5
9B04
102
{ACAD_XDICTIONARY
360
9B65
102
}
102
{ACAD_REACTORS
330
9AFB
102
}
330
9AFB
100
AcDbVisualStyle
  2
Conceptual
 70
     9
 71
     3
 72
     2
 73
     0
 90
        0
 40
-0.6
 41
-30.0
 62
     5
 63
     7
 74
     2
 91
        2
 64
     7
 65
   257
 75
     1
175
     1
 42
179.0
 92
        8
 66
     7
 43
1.0
 76
     1
 77
     6
 78
     2
 67
     7
 79
     3
170
     0
171
     0
290
     0
174
     0
 93
        1
 44
0.0
173
     0
291
     0
 45
0.0
1001
ACAD
1000
AcDbSavedByObjectVersion
1070
     0
  0
VISUALSTYLE
  5
9B06
102
{ACAD_XDICTIONARY
360
9B69
102
}
102
{ACAD_REACTORS
330
9AFB
102
}
330
9AFB
100
AcDbVisualStyle
  2
Dim
 70
    11
 71
     2
 72
     2
 73
     0
 90
        0
 40
-0.6
 41
-30.0
 62
     5
 63
     7
 74
     1
 91
        4
 64
     7
 65
   257
 75
     1
175
     1
 42
1.0
 92
        8
 66
     7
 43
1.0
 76
     1
 77
     6
 78
     2
 67
     7
 79
     5
170
     0
171
     0
290
     0
174
     0
 93
        1
 44
-50.0
173
     0
291
     1
 45
0.0
1001
ACAD
1000
AcDbSavedByObjectVersion
1070
     0
  0
VISUALSTYLE
  5
9B13
102
{ACAD_XDICTIONARY
360
9B83
102
}
102
{ACAD_REACTORS
330
9AFB
102
}
330
9AFB
100
AcDbVisualStyle
  2
EdgeColorOff
 70
    22
 71
     2
 72
     2
 73
     0
 90
        0
 40
-0.6
 41
-30.0
 62
     5
 63
     7
 74
     1
 91
        4
 64
     7
 65
   257
 75
     1
175
     1
 42
1.0
 92
        8
 66
     7
 43
1.0
 76
     1
 77
     6
 78
     2
 67
     7
 79
     5
170
     0
171
     0
290
     0
174
     0
 93
        1
 44
0.0
173
     0
291
     1
 45
0.0
1001
ACAD
1000
AcDbSavedByObjectVersion
1070
     0
  0
VISUALSTYLE
  5
9B0A
102
{ACAD_XDICTIONARY
360
9B71
102
}
102
{ACAD_REACTORS
330
9AFB
102
}
330
9AFB
100
AcDbVisualStyle
  2
Facepattern
 70
    15
 71
     2
 72
     2
 73
     0
 90
        0
 40
-0.6
 41
-30.0
 62
     5
 63
     7
 74
     1
 91
        4
 64
     7
 65
   257
 75
     1
175
     1
 42
1.0
 92
        8
 66
     7
 43
1.0
 76
     1
 77
     6
 78
     2
 67
     7
 79
     5
170
     0
171
     0
290
     0
174
     0
 93
        1
 44
0.0
173
     0
291
     1
 45
0.0
1001
ACAD
1000
AcDbSavedByObjectVersion
1070
     0
  0
VISUALSTYLE
  5
9AFC
102
{ACAD_XDICTIONARY
360
9B55
102
}
102
{ACAD_REACTORS
330
9AFB
102
}
330
9AFB
100
AcDbVisualStyle
  2
Flat
 70
     0
 71
     2
 72
     1
 73
     1
 90
        2
 40
-0.6
 41
30.0
 62
     5
 63
     7
 74
     0
 91
        0
 64
     7
 65
   257
 75
     1
175
     1
 42
1.0
 92
        8
 66
     7
 43
1.0
 76
     1
 77
     6
 78
     2
 67
     7
 79
     5
170
     0
171
     0
290
     0
174
     0
 93
       13
 44
0.0
173
     0
291
     1
 45
0.0
1001
ACAD
1000
AcDbSavedByObjectVersion
1070
     0
  0
VISUALSTYLE
  5
9AFD
102
{ACAD_XDICTIONARY
360
9B57
102
}
102
{ACAD_REACTORS
330
9AFB
102
}
330
9AFB
100
AcDbVisualStyle
  2
FlatWithEdges
 70
     1
 71
     2
 72
     1
 73
     1
 90
        2
 40
-0.6
 41
30.0
 62
     5
 63
     7
 74
     1
 91
        0
 64
     7
 65
   257
 75
     1
175
     1
 42
1.0
 92
        0
 66
   257
 43
1.0
 76
     1
 77
     6
 78
     2
 67
     7
 79
     5
170
     0
171
     0
290
     0
174
     0
 93
       13
 44
0.0
173
     0
291
     1
 45
0.0
1001
ACAD
1000
AcDbSavedByObjectVersion
1070
     0
  0
VISUALSTYLE
  5
9AFE
102
{ACAD_XDICTIONARY
360
9B59
102
}
102
{ACAD_REACTORS
330
9AFB
102
}
330
9AFB
100
AcDbVisualStyle
  2
Gouraud
 70
     2
 71
     2
 72
     2
 73
     1
 90
        2
 40
-0.6
 41
30.0
 62
     5
 63
     7
 74
     0
 91
        0
 64
     7
 65
   257
 75
     1
175
     1
 42
1.0
 92
        0
 66
     7
 43
1.0
 76
     1
 77
     6
 78
     2
 67
     7
 79
     5
170
     0
171
     0
290
     0
174
     0
 93
       13
 44
0.0
173
     0
291
     1
 45
0.0
1001
ACAD
1000
AcDbSavedByObjectVersion
1070
     0
  0
VISUALSTYLE
  5
9AFF
102
{ACAD_XDICTIONARY
360
9B5B
102
}
102
{ACAD_REACTORS
330
9AFB
102
}
330
9AFB
100
AcDbVisualStyle
  2
GouraudWithEdges
 70
     3
 71
     2
 72
     2
 73
     1
 90
        2
 40
-0.6
 41
30.0
 62
     5
 63
     7
 74
     1
 91
        0
 64
     7
 65
   257
 75
     1
175
     1
 42
1.0
 92
        0
 66
   257
 43
1.0
 76
     1
 77
     6
 78
     2
 67
     7
 79
     5
170
     0
171
     0
290
     0
174
     0
 93
       13
 44
0.0
173
     0
291
     1
 45
0.0
1001
ACAD
1000
AcDbSavedByObjectVersion
1070
     0
  0
VISUALSTYLE
  5
9B03
102
{ACAD_XDICTIONARY
360
9B63
102
}
102
{ACAD_REACTORS
330
9AFB
102
}
330
9AFB
100
AcDbVisualStyle
  2
Hidden
 70
     6
 71
     1
 72
     2
 73
     2
 90
        0
 40
-0.6
 41
-30.0
 62
     5
 63
     7
 74
     2
 91
        2
 64
     7
 65
   257
 75
     2
175
     1
 42
40.0
 92
        0
 66
   257
 43
1.0
 76
     1
 77
     6
 78
     2
 67
     7
 79
     3
170
     0
171
     0
290
     0
174
     0
 93
        1
 44
0.0
173
     0
291
     0
 45
0.0
1001
ACAD
1000
AcDbSavedByObjectVersion
1070
     0
  0
VISUALSTYLE
  5
9B11
102
{ACAD_XDICTIONARY
360
9B7F
102
}
102
{ACAD_REACTORS
330
9AFB
102
}
330
9AFB
100
AcDbVisualStyle
  2
JitterOff
 70
    20
 71
     2
 72
     2
 73
     0
 90
        0
 40
-0.6
 41
-30.0
 62
     5
 63
     7
 74
     1
 91
        4
 64
     7
 65
   257
 75
     1
175
     1
 42
1.0
 92
       10
 66
     7
 43
1.0
 76
     1
 77
     6
 78
     2
 67
     7
 79
     5
170
     0
171
     0
290
     0
174
     0
 93
        1
 44
0.0
173
     0
291
     1
 45
0.0
1001
ACAD
1000
AcDbSavedByObjectVersion
1070
     0
  0
VISUALSTYLE
  5
9B09
102
{ACAD_XDICTIONARY
360
9B6F
102
}
102
{ACAD_REACTORS
330
9AFB
102
}
330
9AFB
100
AcDbVisualStyle
  2
Linepattern
 70
    14
 71
     2
 72
     2
 73
     0
 90
        0
 40
-0.6
 41
-30.0
 62
     5
 63
     7
 74
     1
 91
        4
 64
     7
 65
   257
 75
     7
175
     7
 42
1.0
 92
        8
 66
     7
 43
1.0
 76
     1
 77
     6
 78
     2
 67
     7
 79
     5
170
     0
171
     0
290
     0
174
     0
 93
        1
 44
0.0
173
     0
291
     1
 45
0.0
1001
ACAD
1000
AcDbSavedByObjectVersion
1070
     0
  0
VISUALSTYLE
  5
9B12
102
{ACAD_XDICTIONARY
360
9B81
102
}
102
{ACAD_REACTORS
330
9AFB
102
}
330
9AFB
100
AcDbVisualStyle
  2
OverhangOff
 70
    21
 71
     2
 72
     2
 73
     0
 90
        0
 40
-0.6
 41
-30.0
 62
     5
 63
     7
 74
     1
 91
        4
 64
     7
 65
   257
 75
     1
175
     1
 42
1.0
 92
        9
 66
     7
 43
1.0
 76
     1
 77
     6
 78
     2
 67
     7
 79
     5
170
     0
171
     0
290
     0
174
     0
 93
        1
 44
0.0
173
     0
291
     1
 45
0.0
1001
ACAD
1000
AcDbSavedByObjectVersion
1070
     0
  0
VISUALSTYLE
  5
9B05
102
{ACAD_XDICTIONARY
360
9B67
102
}
102
{ACAD_REACTORS
330
9AFB
102
}
330
9AFB
100
AcDbVisualStyle
  2
Realistic
 70
     8
 71
     2
 72
     3
 73
     0
 90
        2
 40
-0.6
 41
30.0
 62
     5
 63
     7
 74
     0
 91
        0
 64
     7
 65
   257
 75
     1
175
     1
 42
1.0
 92
        8
 66
   257
 43
1.0
 76
     1
 77
     6
 78
     2
 67
     7
 79
     3
170
     0
171
     0
290
     0
174
     0
 93
       13
 44
0.0
173
     0
291
     0
 45
0.0
1001
ACAD
1000
AcDbSavedByObjectVersion
1070
     0
  0
VISUALSTYLE
  5
9B10
102
{ACAD_XDICTIONARY
360
9B7D
102
}
102
{ACAD_REACTORS
330
9AFB
102
}
330
9AFB
100
AcDbVisualStyle
  2
Shaded
 70
    27
 71
     2
 72
     2
 73
     1
 90
        2
 40
-0.6
 41
30.0
 62
     5
 63
     7
 74
     0
 91
        4
 64
     7
 65
   257
 75
     1
175
     1
 42
1.0
 92
        8
 66
   257
 43
1.0
 76
     1
 77
     6
 78
     2
 67
     8
 79
     3
170
     0
171
     0
290
     0
174
     0
 93
        5
 44
0.0
173
     0
291
     0
 45
0.0
1001
ACAD
1000
AcDbSavedByObjectVersion
1070
     0
  0
VISUALSTYLE
  5
9B0F
102
{ACAD_XDICTIONARY
360
9B7B
102
}
102
{ACAD_REACTORS
330
9AFB
102
}
330
9AFB
100
AcDbVisualStyle
  2
Shaded with edges
 70
    26
 71
     2
 72
     2
 73
     1
 90
        2
 40
-0.6
 41
30.0
 62
     5
 63
     7
 74
     1
 91
       10
 64
     7
 65
   257
 75
     2
175
     1
 42
1.0
 92
        8
 66
   257
 43
1.0
 76
     1
 77
     6
 78
     2
 67
     7
 79
     3
170
     0
171
     0
290
     0
174
     0
 93
        5
 44
0.0
173
     0
291
     0
 45
0.0
1001
ACAD
1000
AcDbSavedByObjectVersion
1070
     0
  0
VISUALSTYLE
  5
9B0C
102
{ACAD_XDICTIONARY
360
9B75
102
}
102
{ACAD_REACTORS
330
9AFB
102
}
330
9AFB
100
AcDbVisualStyle
  2
Shades of Gray
 70
    23
 71
     2
 72
     2
 73
     3
 90
        0
 40
-0.6
 41
-30.0
 62
     5
 63
     7
 74
     2
 91
        2
 64
     7
 65
     7
 75
     1
175
     1
 42
40.0
 92
        8
 66
     7
 43
1.0
 76
     1
 77
     6
 78
     2
 67
     7
 79
     3
170
     0
171
     0
290
     0
174
     0
 93
        1
 44
0.0
173
     0
291
     0
 45
0.0
1001
ACAD
1000
AcDbSavedByObjectVersion
1070
     0
  0
VISUALSTYLE
  5
9B0D
102
{ACAD_XDICTIONARY
360
9B77
102
}
102
{ACAD_REACTORS
330
9AFB
102
}
330
9AFB
100
AcDbVisualStyle
  2
Sketchy
 70
    24
 71
     1
 72
     2
 73
     2
 90
        0
 40
-0.6
 41
-30.0
 62
     5
 63
     7
 74
     2
 91
        2
 64
     7
 65
     7
 75
     1
175
     1
 42
40.0
 92
       11
 66
     7
 43
1.0
 76
     1
 77
     6
 78
     2
 67
     7
 79
     6
170
     0
171
     0
290
     0
174
     0
 93
        1
 44
0.0
173
     0
291
     0
 45
0.0
1001
ACAD
1000
AcDbSavedByObjectVersion
1070
     0
  0
VISUALSTYLE
  5
9B08
102
{ACAD_XDICTIONARY
360
9B6D
102
}
102
{ACAD_REACTORS
330
9AFB
102
}
330
9AFB
100
AcDbVisualStyle
  2
Thicken
 70
    13
 71
     2
 72
     2
 73
     0
 90
        0
 40
-0.6
 41
-30.0
 62
     5
 63
     7
 74
     1
 91
        4
 64
     7
 65
   257
 75
     1
175
     1
 42
1.0
 92
       12
 66
     7
 43
1.0
 76
     1
 77
     6
 78
     2
 67
     7
 79
     5
170
     0
171
     0
290
     0
174
     0
 93
        1
 44
0.0
173
     0
291
     1
 45
0.0
1001
ACAD
1000
AcDbSavedByObjectVersion
1070
     0
  0
VISUALSTYLE
  5
9B02
102
{ACAD_XDICTIONARY
360
9B61
102
}
102
{ACAD_REACTORS
330
9AFB
102
}
330
9AFB
100
AcDbVisualStyle
  2
Wireframe
 70
     5
 71
     0
 72
     2
 73
     0
 90
        0
 40
-0.6
 41
-30.0
 62
     5
 63
     7
 74
     1
 91
        4
 64
     7
 65
   257
 75
     1
175
     1
 42
1.0
 92
        0
 66
   257
 43
1.0
 76
     1
 77
     6
 78
     2
 67
     7
 79
     3
170
     0
171
     0
290
     0
174
     0
 93
        1
 44
0.0
173
     0
291
     0
 45
0.0
1001
ACAD
1000
AcDbSavedByObjectVersion
1070
     0
  0
VISUALSTYLE
  5
9B0E
102
{ACAD_XDICTIONARY
360
9B79
102
}
102
{ACAD_REACTORS
330
9AFB
102
}
330
9AFB
100
AcDbVisualStyle
  2
X-Ray
 70
    25
 71
     2
 72
     2
 73
     1
 90
        1
 40
0.5
 41
-30.0
 62
     5
 63
     7
 74
     1
 91
        0
 64
     7
 65
   257
 75
     1
175
     1
 42
1.0
 92
        8
 66
     7
 43
1.0
 76
     1
 77
     6
 78
     2
 67
     7
 79
     3
170
     0
171
     0
290
     0
174
     0
 93
       13
 44
0.0
173
     0
291
     0
 45
0.0
1001
ACAD
1000
AcDbSavedByObjectVersion
1070
     0
  0
DICTIONARYVAR
  5
9B48
102
{ACAD_REACTORS
330
9B43
102
}
330
9B43
100
DictionaryVariables
280
     0
  1
1:1
  0
DICTIONARYVAR
  5
9B45
102
{ACAD_REACTORS
330
9B43
102
}
330
9B43
100
DictionaryVariables
280
     0
  1
STANDARD
  0
DICTIONARYVAR
  5
9B44
102
{ACAD_REACTORS
330
9B43
102
}
330
9B43
100
DictionaryVariables
280
     0
  1
STANDARD
  0
DICTIONARYVAR
  5
9B46
102
{ACAD_REACTORS
330
9B43
102
}
330
9B43
100
DictionaryVariables
280
     0
  1
Imperial24
  0
DICTIONARYVAR
  5
9B47
102
{ACAD_REACTORS
330
9B43
102
}
330
9B43
100
DictionaryVariables
280
     0
  1
Imperial24
  0
DICTIONARYVAR
  5
9B4B
102
{ACAD_REACTORS
330
9B43
102
}
330
9B43
100
DictionaryVariables
280
     0
  1
1
  0
DICTIONARYVAR
  5
9B4A
102
{ACAD_REACTORS
330
9B43
102
}
330
9B43
100
DictionaryVariables
280
     0
  1
0
  0
DICTIONARYVAR
  5
9B49
102
{ACAD_REACTORS
330
9B43
102
}
330
9B43
100
DictionaryVariables
280
     0
  1
127
  0
DICTIONARYVAR
  5
9B4C
102
{ACAD_REACTORS
330
9B43
102
}
330
9B43
100
DictionaryVariables
280
     0
  1
2
  0
DICTIONARY
  5
9B89
330
9B2E
100
AcDbDictionary
280
     1
281
     1
  3
ACAD_XREC_ROUNDTRIP
360
9B8A
  0
DICTIONARY
  5
9B8B
330
9B2F
100
AcDbDictionary
280
     1
281
     1
  3
ACAD_XREC_ROUNDTRIP
360
9B8C
  0
DICTIONARY
  5
9B8D
330
9B30
100
AcDbDictionary
280
     1
281
     1
  3
ACAD_XREC_ROUNDTRIP
360
9B8E
  0
DICTIONARY
  5
9AEC
330
9AEB
100
AcDbDictionary
280
     1
281
     1
  3
ACAD_XREC_ROUNDTRIP
360
9B53
  3
BUMPTILE
360
9AEE
  3
DIFFUSETILE
360
9AED
  3
OPACITYTILE
360
9AF1
  3
REFLECTIONTILE
360
9AF0
  3
REFRACTIONTILE
360
9AF2
  3
SPECULARTILE
360
9AEF
  0
DICTIONARY
  5
9AE4
330
9AE3
100
AcDbDictionary
280
     1
281
     1
  3
ACAD_XREC_ROUNDTRIP
360
9B52
  3
BUMPTILE
360
9AE6
  3
DIFFUSETILE
360
9AE5
  3
OPACITYTILE
360
9AE9
  3
REFLECTIONTILE
360
9AE8
  3
REFRACTIONTILE
360
9AEA
  3
SPECULARTILE
360
9AE7
  0
DICTIONARY
  5
9AF4
330
9AF3
100
AcDbDictionary
280
     1
281
     1
  3
ACAD_XREC_ROUNDTRIP
360
9B54
  3
BUMPTILE
360
9AF6
  3
DIFFUSETILE
360
9AF5
  3
OPACITYTILE
360
9AF9
  3
REFLECTIONTILE
360
9AF8
  3
REFRACTIONTILE
360
9AFA
  3
SPECULARTILE
360
9AF7
  0
DICTIONARY
  5
9B87
330
9B2C
100
AcDbDictionary
280
     1
281
     1
  3
ACAD_XREC_ROUNDTRIP
360
9B88
  0
DICTIONARY
  5
9B4E
330
9B16
100
AcDbDictionary
280
     1
281
     1
  3
ACAD_ROUNDTRIP_2008_TABLESTYLE_CELLSTYLEMAP
360
9B4F
  3
ACAD_XREC_ROUNDTRIP
360
9B85
  0
DICTIONARY
  5
9B5F
330
9B01
100
AcDbDictionary
280
     1
281
     1
  3
ACAD_XREC_ROUNDTRIP
360
9B60
  0
DICTIONARY
  5
9B5D
330
9B00
100
AcDbDictionary
280
     1
281
     1
  3
ACAD_XREC_ROUNDTRIP
360
9B5E
  0
DICTIONARY
  5
9B6B
330
9B07
100
AcDbDictionary
280
     1
281
     1
  3
ACAD_XREC_ROUNDTRIP
360
9B6C
  0
DICTIONARY
  5
9B73
330
9B0B
100
AcDbDictionary
280
     1
281
     1
  3
ACAD_XREC_ROUNDTRIP
360
9B74
  0
DICTIONARY
  5
9B65
330
9B04
100
AcDbDictionary
280
     1
281
     1
  3
ACAD_XREC_ROUNDTRIP
360
9B66
  0
DICTIONARY
  5
9B69
330
9B06
100
AcDbDictionary
280
     1
281
     1
  3
ACAD_XREC_ROUNDTRIP
360
9B6A
  0
DICTIONARY
  5
9B83
330
9B13
100
AcDbDictionary
280
     1
281
     1
  3
ACAD_XREC_ROUNDTRIP
360
9B84
  0
DICTIONARY
  5
9B71
330
9B0A
100
AcDbDictionary
280
     1
281
     1
  3
ACAD_XREC_ROUNDTRIP
360
9B72
  0
DICTIONARY
  5
9B55
330
9AFC
100
AcDbDictionary
280
     1
281
     1
  3
ACAD_XREC_ROUNDTRIP
360
9B56
  0
DICTIONARY
  5
9B57
330
9AFD
100
AcDbDictionary
280
     1
281
     1
  3
ACAD_XREC_ROUNDTRIP
360
9B58
  0
DICTIONARY
  5
9B59
330
9AFE
100
AcDbDictionary
280
     1
281
     1
  3
ACAD_XREC_ROUNDTRIP
360
9B5A
  0
DICTIONARY
  5
9B5B
330
9AFF
100
AcDbDictionary
280
     1
281
     1
  3
ACAD_XREC_ROUNDTRIP
360
9B5C
  0
DICTIONARY
  5
9B63
330
9B03
100
AcDbDictionary
280
     1
281
     1
  3
ACAD_XREC_ROUNDTRIP
360
9B64
  0
DICTIONARY
  5
9B7F
330
9B11
100
AcDbDictionary
280
     1
281
     1
  3
ACAD_XREC_ROUNDTRIP
360
9B80
  0
DICTIONARY
  5
9B6F
330
9B09
100
AcDbDictionary
280
     1
281
     1
  3
ACAD_XREC_ROUNDTRIP
360
9B70
  0
DICTIONARY
  5
9B81
330
9B12
100
AcDbDictionary
280
     1
281
     1
  3
ACAD_XREC_ROUNDTRIP
360
9B82
  0
DICTIONARY
  5
9B67
330
9B05
100
AcDbDictionary
280
     1
281
     1
  3
ACAD_XREC_ROUNDTRIP
360
9B68
  0
DICTIONARY
  5
9B7D
330
9B10
100
AcDbDictionary
280
     1
281
     1
  3
ACAD_XREC_ROUNDTRIP
360
9B7E
  0
DICTIONARY
  5
9B7B
330
9B0F
100
AcDbDictionary
280
     1
281
     1
  3
ACAD_XREC_ROUNDTRIP
360
9B7C
  0
DICTIONARY
  5
9B75
330
9B0C
100
AcDbDictionary
280
     1
281
     1
  3
ACAD_XREC_ROUNDTRIP
360
9B76
  0
DICTIONARY
  5
9B77
330
9B0D
100
AcDbDictionary
280
     1
281
     1
  3
ACAD_XREC_ROUNDTRIP
360
9B78
  0
DICTIONARY
  5
9B6D
330
9B08
100
AcDbDictionary
280
     1
281
     1
  3
ACAD_XREC_ROUNDTRIP
360
9B6E
  0
DICTIONARY
  5
9B61
330
9B02
100
AcDbDictionary
280
     1
281
     1
  3
ACAD_XREC_ROUNDTRIP
360
9B62
  0
DICTIONARY
  5
9B79
330
9B0E
100
AcDbDictionary
280
     1
281
     1
  3
ACAD_XREC_ROUNDTRIP
360
9B7A
  0
XRECORD
  5
9B8A
102
{ACAD_REACTORS
330
9B89
102
}
330
9B89
100
AcDbXrecord
280
     1
102
DISPLAYNAME
  1
Imperial24
102
FLAGS
 90
        0
  0
XRECORD
  5
9B8C
102
{ACAD_REACTORS
330
9B8B
102
}
330
9B8B
100
AcDbXrecord
280
     1
102
SHADEPLOT
 70
     0
102
SHADEPLOTRESLEVEL
 70
     2
102
SHADEPLOTCUSTOMDPI
 70
   300
  0
XRECORD
  5
9B8E
102
{ACAD_REACTORS
330
9B8D
102
}
330
9B8D
100
AcDbXrecord
280
     1
102
SHADEPLOT
 70
     0
102
SHADEPLOTRESLEVEL
 70
     2
102
SHADEPLOTCUSTOMDPI
 70
   300
  0
XRECORD
  5
9B53
102
{ACAD_REACTORS
330
9AEC
102
}
330
9AEC
100
AcDbXrecord
280
     1
102
MATERIAL
148
0.0
149
0.0
149
0.0
 93
        0
 94
      127
282
     0
 72
     0
 77
     0
171
     0
175
     0
179
     0
273
     0
  0
XRECORD
  5
9AEE
102
{ACAD_REACTORS
330
9AEC
102
}
330
9AEC
100
AcDbXrecord
280
     1
270
     1
271
     1
  0
XRECORD
  5
9AED
102
{ACAD_REACTORS
330
9AEC
102
}
330
9AEC
100
AcDbXrecord
280
     1
270
     1
271
     1
  0
XRECORD
  5
9AF1
102
{ACAD_REACTORS
330
9AEC
102
}
330
9AEC
100
AcDbXrecord
280
     1
270
     1
271
     1
  0
XRECORD
  5
9AF0
102
{ACAD_REACTORS
330
9AEC
102
}
330
9AEC
100
AcDbXrecord
280
     1
270
     1
271
     1
  0
XRECORD
  5
9AF2
102
{ACAD_REACTORS
330
9AEC
102
}
330
9AEC
100
AcDbXrecord
280
     1
270
     1
271
     1
  0
XRECORD
  5
9AEF
102
{ACAD_REACTORS
330
9AEC
102
}
330
9AEC
100
AcDbXrecord
280
     1
270
     1
271
     1
  0
XRECORD
  5
9B52
102
{ACAD_REACTORS
330
9AE4
102
}
330
9AE4
100
AcDbXrecord
280
     1
102
MATERIAL
148
0.0
149
0.0
149
0.0
 93
        0
 94
      127
282
     0
 72
     0
 77
     0
171
     0
175
     0
179
     0
273
     0
  0
XRECORD
  5
9AE6
102
{ACAD_REACTORS
330
9AE4
102
}
330
9AE4
100
AcDbXrecord
280
     1
270
     1
271
     1
  0
XRECORD
  5
9AE5
102
{ACAD_REACTORS
330
9AE4
102
}
330
9AE4
100
AcDbXrecord
280
     1
270
     1
271
     1
  0
XRECORD
  5
9AE9
102
{ACAD_REACTORS
330
9AE4
102
}
330
9AE4
100
AcDbXrecord
280
     1
270
     1
271
     1
  0
XRECORD
  5
9AE8
102
{ACAD_REACTORS
330
9AE4
102
}
330
9AE4
100
AcDbXrecord
280
     1
270
     1
271
     1
  0
XRECORD
  5
9AEA
102
{ACAD_REACTORS
330
9AE4
102
}
330
9AE4
100
AcDbXrecord
280
     1
270
     1
271
     1
  0
XRECORD
  5
9AE7
102
{ACAD_REACTORS
330
9AE4
102
}
330
9AE4
100
AcDbXrecord
280
     1
270
     1
271
     1
  0
XRECORD
  5
9B54
102
{ACAD_REACTORS
330
9AF4
102
}
330
9AF4
100
AcDbXrecord
280
     1
102
MATERIAL
148
0.0
149
0.0
149
0.0
 93
        0
 94
      127
282
     0
 72
     0
 77
     0
171
     0
175
     0
179
     0
273
     0
  0
XRECORD
  5
9AF6
102
{ACAD_REACTORS
330
9AF4
102
}
330
9AF4
100
AcDbXrecord
280
     1
270
     1
271
     1
  0
XRECORD
  5
9AF5
102
{ACAD_REACTORS
330
9AF4
102
}
330
9AF4
100
AcDbXrecord
280
     1
270
     1
271
     1
  0
XRECORD
  5
9AF9
102
{ACAD_REACTORS
330
9AF4
102
}
330
9AF4
100
AcDbXrecord
280
     1
270
     1
271
     1
  0
XRECORD
  5
9AF8
102
{ACAD_REACTORS
330
9AF4
102
}
330
9AF4
100
AcDbXrecord
280
     1
270
     1
271
     1
  0
XRECORD
  5
9AFA
102
{ACAD_REACTORS
330
9AF4
102
}
330
9AF4
100
AcDbXrecord
280
     1
270
     1
271
     1
  0
XRECORD
  5
9AF7
102
{ACAD_REACTORS
330
9AF4
102
}
330
9AF4
100
AcDbXrecord
280
     1
270
     1
271
     1
  0
XRECORD
  5
9B88
102
{ACAD_REACTORS
330
9B87
102
}
330
9B87
100
AcDbXrecord
280
     1
102
DISPLAYNAME
  1
Imperial24
102
FLAGS
 90
        0
  0
CELLSTYLEMAP
  5
9B4F
102
{ACAD_REACTORS
330
9B4E
102
}
330
9B4E
100
AcDbCellStyleMap
 90
        3
300
CELLSTYLE
  1
TABLEFORMAT_BEGIN
 90
        5
170
     1
 91
        0
 92
    32768
 62
   257
 93
        1
300
CONTENTFORMAT
  1
CONTENTFORMAT_BEGIN
 90
        0
 91
        0
 92
      512
 93
        0
300

 40
0.0
140
1.0
 94
        5
 62
     0
340
9869
144
0.25
309
CONTENTFORMAT_END
171
     0
 94
        0
309
TABLEFORMAT_END
  1
CELLSTYLE_BEGIN
 90
        1
 91
        1
300
_TITLE
309
CELLSTYLE_END
300
CELLSTYLE
  1
TABLEFORMAT_BEGIN
 90
        5
170
     1
 91
        0
 92
        0
 62
   257
 93
        1
300
CONTENTFORMAT
  1
CONTENTFORMAT_BEGIN
 90
        0
 91
        0
 92
      512
 93
        0
300

 40
0.0
140
1.0
 94
        5
 62
     0
340
9869
144
0.18
309
CONTENTFORMAT_END
171
     0
 94
        0
309
TABLEFORMAT_END
  1
CELLSTYLE_BEGIN
 90
        2
 91
        1
300
_HEADER
309
CELLSTYLE_END
300
CELLSTYLE
  1
TABLEFORMAT_BEGIN
 90
        5
170
     1
 91
        0
 92
        0
 62
   257
 93
        1
300
CONTENTFORMAT
  1
CONTENTFORMAT_BEGIN
 90
        0
 91
        0
 92
      512
 93
        0
300

 40
0.0
140
1.0
 94
        2
 62
     0
340
9869
144
0.18
309
CONTENTFORMAT_END
171
     0
 94
        0
309
TABLEFORMAT_END
  1
CELLSTYLE_BEGIN
 90
        3
 91
        2
300
_DATA
309
CELLSTYLE_END
  0
XRECORD
  5
9B85
102
{ACAD_REACTORS
330
9B4E
102
}
330
9B4E
100
AcDbXrecord
280
     1
102
ACAD_ROUNDTRIP_PRE2007_TABLESTYLE
 90
      512
 91
        0
  1

 92
      512
 93
        0
  2

 94
      512
 95
        0
  3

  0
XRECORD
  5
9B60
102
{ACAD_REACTORS
330
9B5F
102
}
330
9B5F
100
AcDbXrecord
280
     1
102
RTVSPost2010Prop28
280
     1
102
RTVSPost2010PropOp28
 70
     1
102
RTVSPost2010Prop29
280
     1
102
RTVSPost2010PropOp29
 70
     1
102
RTVSPost2010Prop30
280
     0
102
RTVSPost2010PropOp30
 70
     1
102
RTVSPost2010Prop31
280
     0
102
RTVSPost2010PropOp31
 70
     1
102
RTVSPost2010Prop32
280
     0
102
RTVSPost2010PropOp32
 70
     1
102
RTVSPost2010Prop33
280
     0
102
RTVSPost2010PropOp33
 70
     1
102
RTVSPost2010Prop34
280
     0
102
RTVSPost2010PropOp34
 70
     1
102
RTVSPost2010Prop35
280
     0
102
RTVSPost2010PropOp35
 70
     1
102
RTVSPost2010Prop36
280
     0
102
RTVSPost2010PropOp36
 70
     1
102
RTVSPost2010Prop37
 90
       50
102
RTVSPost2010PropOp37
 70
     1
102
RTVSPost2010Prop38
140
0.0
102
RTVSPost2010PropOp38
 70
     1
102
RTVSPost2010Prop39
140
1.0
102
RTVSPost2010PropOp39
 70
     1
102
RTVSPost2010Prop40
 90
        0
102
RTVSPost2010PropOp40
 70
     1
102
RTVSPost2010Prop41ColorIndex
 90
       18
102
RTVSPost2010Prop41ColorRGB
 90
        0
102
RTVSPost2010PropOp41
 70
     1
102
RTVSPost2010Prop42
 90
       50
102
RTVSPost2010PropOp42
 70
     1
102
RTVSPost2010Prop43
 90
        3
102
RTVSPost2010PropOp43
 70
     1
102
RTVSPost2010Prop44ColorIndex
 90
        5
102
RTVSPost2010Prop44ColorRGB
 90
      255
102
RTVSPost2010PropOp44
 70
     1
102
RTVSPost2010Prop45
280
     0
102
RTVSPost2010PropOp45
 70
     1
102
RTVSPost2010Prop46
 90
       50
102
RTVSPost2010PropOp46
 70
     1
102
RTVSPost2010Prop47
 90
       50
102
RTVSPost2010PropOp47
 70
     1
102
RTVSPost2010Prop48
 90
       50
102
RTVSPost2010PropOp48
 70
     1
102
RTVSPost2010Prop49
280
     0
102
RTVSPost2010PropOp49
 70
     1
102
RTVSPost2010Prop50
 90
       50
102
RTVSPost2010PropOp50
 70
     1
102
RTVSPost2010Prop51ColorIndex
 90
      256
102
RTVSPost2010Prop51ColorRGB
 90
-16777216
102
RTVSPost2010PropOp51
 70
     0
102
RTVSPost2010Prop52
140
1.0
102
RTVSPost2010PropOp52
 70
     0
102
RTVSPost2010Prop53
 90
        2
102
RTVSPost2010PropOp53
 70
     1
102
RTVSPost2010Prop54
  1
strokes_ogs.tif
102
RTVSPost2010PropOp54
 70
     1
102
RTVSPost2010Prop55
280
     0
102
RTVSPost2010PropOp55
 70
     1
102
RTVSPost2010Prop56
140
1.0
102
RTVSPost2010PropOp56
 70
     1
102
RTVSPost2010Prop57
140
1.0
102
RTVSPost2010PropOp57
 70
     1
102
RTVSPropertyOp0
 70
     1
102
RTVSPropertyOp1
 70
     1
102
RTVSPropertyOp2
 70
     1
102
RTVSPropertyOp3
 70
     1
102
RTVSPropertyOp4
 70
     1
102
RTVSPropertyOp5
 70
     1
102
RTVSPropertyOp6
 70
     1
102
RTVSPropertyOp7
 70
     1
102
RTVSPropertyOp8
 70
     1
102
RTVSPropertyOp9
 70
     1
102
RTVSPropertyOp10
 70
     1
102
RTVSPropertyOp11
 70
     1
102
RTVSPropertyOp12
 70
     1
102
RTVSPropertyOp13
 70
     1
102
RTVSPropertyOp14
 70
     1
102
RTVSPropertyOp15
 70
     1
102
RTVSPropertyOp16
 70
     1
102
RTVSPropertyOp17
 70
     1
102
RTVSPropertyOp18
 70
     1
102
RTVSPropertyOp19
 70
     1
102
RTVSPropertyOp20
 70
     1
102
RTVSPropertyOp21
 70
     1
102
RTVSPropertyOp22
 70
     1
102
RTVSPropertyOp23
 70
     1
102
RTVSPropertyOp24
 70
     1
102
RTVSPropertyOp25
 70
     1
102
RTVSPropertyOp26
 70
     1
102
RTVSPropertyOp27
 70
     1
102
RTVSPropertyOp28
 70
     1
102
RTVSPropertyOp29
 70
     1
102
RTVSPropertyOp30
 70
     1
102
RTVSPropertyOp31
 70
     1
102
RTVSPropertyOp32
 70
     1
102
RTVSPropertyOp33
 70
     1
102
RTVSPropertyOp34
 70
     1
102
RTVSPropertyOp35
 70
     1
102
RTVSPropertyOp36
 70
     1
102
RTVSPropertyOp37
 70
     1
102
RTVSPropertyOp38
 70
     1
102
RTVSPropertyOp39
 70
     1
102
RTVSPropertyOp40
 70
     1
102
RTVSPropertyOp41
 70
     1
102
RTVSPropertyOp42
 70
     1
102
RTVSPropertyOp43
 70
     1
102
RTVSPropertyOp44
 70
     1
102
RTVSPropertyOp45
 70
     1
102
RTVSPropertyOp46
 70
     1
102
RTVSPropertyOp47
 70
     1
102
RTVSPropertyOp48
 70
     1
102
RTVSPropertyOp49
 70
     1
102
RTVSPropertyOp50
 70
     1
102
RTVSPropertyOp51
 70
     0
102
RTVSPropertyOp52
 70
     0
102
RTVSPropertyOp53
 70
     1
102
RTVSPropertyOp54
 70
     1
102
RTVSPropertyOp55
 70
     1
102
RTVSPropertyOp56
 70
     1
102
RTVSPropertyOp57
 70
     1
102
RTVSPropertyOp58
 70
     1
102
RTVSPropertyOp59
 70
     1
102
RTVSPropertyOp60
 70
     1
102
RTVSPropertyOp61
 70
     1
102
RTVSPropertyOp62
 70
     1
  0
XRECORD
  5
9B5E
102
{ACAD_REACTORS
330
9B5D
102
}
330
9B5D
100
AcDbXrecord
280
     1
102
RTVSPost2010Prop28
280
     0
102
RTVSPost2010PropOp28
 70
     1
102
RTVSPost2010Prop29
280
     1
102
RTVSPost2010PropOp29
 70
     1
102
RTVSPost2010Prop30
280
     1
102
RTVSPost2010PropOp30
 70
     1
102
RTVSPost2010Prop31
280
     0
102
RTVSPost2010PropOp31
 70
     1
102
RTVSPost2010Prop32
280
     0
102
RTVSPost2010PropOp32
 70
     1
102
RTVSPost2010Prop33
280
     0
102
RTVSPost2010PropOp33
 70
     1
102
RTVSPost2010Prop34
280
     0
102
RTVSPost2010PropOp34
 70
     1
102
RTVSPost2010Prop35
280
     0
102
RTVSPost2010PropOp35
 70
     1
102
RTVSPost2010Prop36
280
     0
102
RTVSPost2010PropOp36
 70
     1
102
RTVSPost2010Prop37
 90
       50
102
RTVSPost2010PropOp37
 70
     1
102
RTVSPost2010Prop38
140
0.0
102
RTVSPost2010PropOp38
 70
     1
102
RTVSPost2010Prop39
140
1.0
102
RTVSPost2010PropOp39
 70
     1
102
RTVSPost2010Prop40
 90
        0
102
RTVSPost2010PropOp40
 70
     1
102
RTVSPost2010Prop41ColorIndex
 90
       18
102
RTVSPost2010Prop41ColorRGB
 90
        0
102
RTVSPost2010PropOp41
 70
     1
102
RTVSPost2010Prop42
 90
       50
102
RTVSPost2010PropOp42
 70
     1
102
RTVSPost2010Prop43
 90
        3
102
RTVSPost2010PropOp43
 70
     1
102
RTVSPost2010Prop44ColorIndex
 90
        5
102
RTVSPost2010Prop44ColorRGB
 90
      255
102
RTVSPost2010PropOp44
 70
     1
102
RTVSPost2010Prop45
280
     0
102
RTVSPost2010PropOp45
 70
     1
102
RTVSPost2010Prop46
 90
       50
102
RTVSPost2010PropOp46
 70
     1
102
RTVSPost2010Prop47
 90
       50
102
RTVSPost2010PropOp47
 70
     1
102
RTVSPost2010Prop48
 90
       50
102
RTVSPost2010PropOp48
 70
     1
102
RTVSPost2010Prop49
280
     0
102
RTVSPost2010PropOp49
 70
     1
102
RTVSPost2010Prop50
 90
       50
102
RTVSPost2010PropOp50
 70
     1
102
RTVSPost2010Prop51ColorIndex
 90
      256
102
RTVSPost2010Prop51ColorRGB
 90
-16777216
102
RTVSPost2010PropOp51
 70
     0
102
RTVSPost2010Prop52
140
1.0
102
RTVSPost2010PropOp52
 70
     0
102
RTVSPost2010Prop53
 90
        2
102
RTVSPost2010PropOp53
 70
     1
102
RTVSPost2010Prop54
  1
strokes_ogs.tif
102
RTVSPost2010PropOp54
 70
     1
102
RTVSPost2010Prop55
280
     0
102
RTVSPost2010PropOp55
 70
     1
102
RTVSPost2010Prop56
140
1.0
102
RTVSPost2010PropOp56
 70
     1
102
RTVSPost2010Prop57
140
1.0
102
RTVSPost2010PropOp57
 70
     1
102
RTVSPropertyOp0
 70
     1
102
RTVSPropertyOp1
 70
     1
102
RTVSPropertyOp2
 70
     1
102
RTVSPropertyOp3
 70
     1
102
RTVSPropertyOp4
 70
     1
102
RTVSPropertyOp5
 70
     1
102
RTVSPropertyOp6
 70
     1
102
RTVSPropertyOp7
 70
     1
102
RTVSPropertyOp8
 70
     1
102
RTVSPropertyOp9
 70
     1
102
RTVSPropertyOp10
 70
     1
102
RTVSPropertyOp11
 70
     1
102
RTVSPropertyOp12
 70
     1
102
RTVSPropertyOp13
 70
     1
102
RTVSPropertyOp14
 70
     1
102
RTVSPropertyOp15
 70
     1
102
RTVSPropertyOp16
 70
     1
102
RTVSPropertyOp17
 70
     1
102
RTVSPropertyOp18
 70
     1
102
RTVSPropertyOp19
 70
     1
102
RTVSPropertyOp20
 70
     1
102
RTVSPropertyOp21
 70
     1
102
RTVSPropertyOp22
 70
     1
102
RTVSPropertyOp23
 70
     1
102
RTVSPropertyOp24
 70
     1
102
RTVSPropertyOp25
 70
     1
102
RTVSPropertyOp26
 70
     1
102
RTVSPropertyOp27
 70
     1
102
RTVSPropertyOp28
 70
     1
102
RTVSPropertyOp29
 70
     1
102
RTVSPropertyOp30
 70
     1
102
RTVSPropertyOp31
 70
     1
102
RTVSPropertyOp32
 70
     1
102
RTVSPropertyOp33
 70
     1
102
RTVSPropertyOp34
 70
     1
102
RTVSPropertyOp35
 70
     1
102
RTVSPropertyOp36
 70
     1
102
RTVSPropertyOp37
 70
     1
102
RTVSPropertyOp38
 70
     1
102
RTVSPropertyOp39
 70
     1
102
RTVSPropertyOp40
 70
     1
102
RTVSPropertyOp41
 70
     1
102
RTVSPropertyOp42
 70
     1
102
RTVSPropertyOp43
 70
     1
102
RTVSPropertyOp44
 70
     1
102
RTVSPropertyOp45
 70
     1
102
RTVSPropertyOp46
 70
     1
102
RTVSPropertyOp47
 70
     1
102
RTVSPropertyOp48
 70
     1
102
RTVSPropertyOp49
 70
     1
102
RTVSPropertyOp50
 70
     1
102
RTVSPropertyOp51
 70
     0
102
RTVSPropertyOp52
 70
     0
102
RTVSPropertyOp53
 70
     1
102
RTVSPropertyOp54
 70
     1
102
RTVSPropertyOp55
 70
     1
102
RTVSPropertyOp56
 70
     1
102
RTVSPropertyOp57
 70
     1
102
RTVSPropertyOp58
 70
     1
102
RTVSPropertyOp59
 70
     1
102
RTVSPropertyOp60
 70
     1
102
RTVSPropertyOp61
 70
     1
102
RTVSPropertyOp62
 70
     1
  0
XRECORD
  5
9B6C
102
{ACAD_REACTORS
330
9B6B
102
}
330
9B6B
100
AcDbXrecord
280
     1
102
RTVSPost2010Prop28
280
     0
102
RTVSPost2010PropOp28
 70
     1
102
RTVSPost2010Prop29
280
     1
102
RTVSPost2010PropOp29
 70
     1
102
RTVSPost2010Prop30
280
     1
102
RTVSPost2010PropOp30
 70
     1
102
RTVSPost2010Prop31
280
     0
102
RTVSPost2010PropOp31
 70
     1
102
RTVSPost2010Prop32
280
     0
102
RTVSPost2010PropOp32
 70
     1
102
RTVSPost2010Prop33
280
     0
102
RTVSPost2010PropOp33
 70
     1
102
RTVSPost2010Prop34
280
     0
102
RTVSPost2010PropOp34
 70
     1
102
RTVSPost2010Prop35
280
     0
102
RTVSPost2010PropOp35
 70
     1
102
RTVSPost2010Prop36
280
     0
102
RTVSPost2010PropOp36
 70
     1
102
RTVSPost2010Prop37
 90
       50
102
RTVSPost2010PropOp37
 70
     1
102
RTVSPost2010Prop38
140
0.0
102
RTVSPost2010PropOp38
 70
     1
102
RTVSPost2010Prop39
140
1.0
102
RTVSPost2010PropOp39
 70
     1
102
RTVSPost2010Prop40
 90
        0
102
RTVSPost2010PropOp40
 70
     1
102
RTVSPost2010Prop41ColorIndex
 90
       18
102
RTVSPost2010Prop41ColorRGB
 90
        0
102
RTVSPost2010PropOp41
 70
     1
102
RTVSPost2010Prop42
 90
       50
102
RTVSPost2010PropOp42
 70
     1
102
RTVSPost2010Prop43
 90
        3
102
RTVSPost2010PropOp43
 70
     1
102
RTVSPost2010Prop44ColorIndex
 90
        5
102
RTVSPost2010Prop44ColorRGB
 90
      255
102
RTVSPost2010PropOp44
 70
     1
102
RTVSPost2010Prop45
280
     0
102
RTVSPost2010PropOp45
 70
     1
102
RTVSPost2010Prop46
 90
       50
102
RTVSPost2010PropOp46
 70
     1
102
RTVSPost2010Prop47
 90
       50
102
RTVSPost2010PropOp47
 70
     1
102
RTVSPost2010Prop48
 90
       50
102
RTVSPost2010PropOp48
 70
     1
102
RTVSPost2010Prop49
280
     0
102
RTVSPost2010PropOp49
 70
     1
102
RTVSPost2010Prop50
 90
       50
102
RTVSPost2010PropOp50
 70
     1
102
RTVSPost2010Prop51ColorIndex
 90
      256
102
RTVSPost2010Prop51ColorRGB
 90
-16777216
102
RTVSPost2010PropOp51
 70
     0
102
RTVSPost2010Prop52
140
1.0
102
RTVSPost2010PropOp52
 70
     0
102
RTVSPost2010Prop53
 90
        2
102
RTVSPost2010PropOp53
 70
     1
102
RTVSPost2010Prop54
  1
strokes_ogs.tif
102
RTVSPost2010PropOp54
 70
     1
102
RTVSPost2010Prop55
280
     0
102
RTVSPost2010PropOp55
 70
     1
102
RTVSPost2010Prop56
140
1.0
102
RTVSPost2010PropOp56
 70
     1
102
RTVSPost2010Prop57
140
1.0
102
RTVSPost2010PropOp57
 70
     1
102
RTVSPropertyOp0
 70
     1
102
RTVSPropertyOp1
 70
     1
102
RTVSPropertyOp2
 70
     1
102
RTVSPropertyOp3
 70
     1
102
RTVSPropertyOp4
 70
     1
102
RTVSPropertyOp5
 70
     1
102
RTVSPropertyOp6
 70
     1
102
RTVSPropertyOp7
 70
     1
102
RTVSPropertyOp8
 70
     1
102
RTVSPropertyOp9
 70
     1
102
RTVSPropertyOp10
 70
     1
102
RTVSPropertyOp11
 70
     1
102
RTVSPropertyOp12
 70
     1
102
RTVSPropertyOp13
 70
     1
102
RTVSPropertyOp14
 70
     1
102
RTVSPropertyOp15
 70
     1
102
RTVSPropertyOp16
 70
     1
102
RTVSPropertyOp17
 70
     1
102
RTVSPropertyOp18
 70
     1
102
RTVSPropertyOp19
 70
     1
102
RTVSPropertyOp20
 70
     1
102
RTVSPropertyOp21
 70
     1
102
RTVSPropertyOp22
 70
     1
102
RTVSPropertyOp23
 70
     1
102
RTVSPropertyOp24
 70
     1
102
RTVSPropertyOp25
 70
     1
102
RTVSPropertyOp26
 70
     1
102
RTVSPropertyOp27
 70
     1
102
RTVSPropertyOp28
 70
     1
102
RTVSPropertyOp29
 70
     1
102
RTVSPropertyOp30
 70
     1
102
RTVSPropertyOp31
 70
     1
102
RTVSPropertyOp32
 70
     1
102
RTVSPropertyOp33
 70
     1
102
RTVSPropertyOp34
 70
     1
102
RTVSPropertyOp35
 70
     1
102
RTVSPropertyOp36
 70
     1
102
RTVSPropertyOp37
 70
     1
102
RTVSPropertyOp38
 70
     1
102
RTVSPropertyOp39
 70
     1
102
RTVSPropertyOp40
 70
     1
102
RTVSPropertyOp41
 70
     1
102
RTVSPropertyOp42
 70
     1
102
RTVSPropertyOp43
 70
     1
102
RTVSPropertyOp44
 70
     1
102
RTVSPropertyOp45
 70
     1
102
RTVSPropertyOp46
 70
     1
102
RTVSPropertyOp47
 70
     1
102
RTVSPropertyOp48
 70
     1
102
RTVSPropertyOp49
 70
     1
102
RTVSPropertyOp50
 70
     1
102
RTVSPropertyOp51
 70
     0
102
RTVSPropertyOp52
 70
     0
102
RTVSPropertyOp53
 70
     1
102
RTVSPropertyOp54
 70
     1
102
RTVSPropertyOp55
 70
     1
102
RTVSPropertyOp56
 70
     1
102
RTVSPropertyOp57
 70
     1
102
RTVSPropertyOp58
 70
     1
102
RTVSPropertyOp59
 70
     1
102
RTVSPropertyOp60
 70
     1
102
RTVSPropertyOp61
 70
     1
102
RTVSPropertyOp62
 70
     1
  0
XRECORD
  5
9B74
102
{ACAD_REACTORS
330
9B73
102
}
330
9B73
100
AcDbXrecord
280
     1
102
RTVSPost2010Prop28
280
     0
102
RTVSPost2010PropOp28
 70
     1
102
RTVSPost2010Prop29
280
     1
102
RTVSPost2010PropOp29
 70
     1
102
RTVSPost2010Prop30
280
     1
102
RTVSPost2010PropOp30
 70
     1
102
RTVSPost2010Prop31
280
     0
102
RTVSPost2010PropOp31
 70
     1
102
RTVSPost2010Prop32
280
     0
102
RTVSPost2010PropOp32
 70
     1
102
RTVSPost2010Prop33
280
     0
102
RTVSPost2010PropOp33
 70
     1
102
RTVSPost2010Prop34
280
     0
102
RTVSPost2010PropOp34
 70
     1
102
RTVSPost2010Prop35
280
     0
102
RTVSPost2010PropOp35
 70
     1
102
RTVSPost2010Prop36
280
     0
102
RTVSPost2010PropOp36
 70
     1
102
RTVSPost2010Prop37
 90
       50
102
RTVSPost2010PropOp37
 70
     1
102
RTVSPost2010Prop38
140
0.0
102
RTVSPost2010PropOp38
 70
     1
102
RTVSPost2010Prop39
140
1.0
102
RTVSPost2010PropOp39
 70
     1
102
RTVSPost2010Prop40
 90
        0
102
RTVSPost2010PropOp40
 70
     1
102
RTVSPost2010Prop41ColorIndex
 90
       18
102
RTVSPost2010Prop41ColorRGB
 90
        0
102
RTVSPost2010PropOp41
 70
     1
102
RTVSPost2010Prop42
 90
       50
102
RTVSPost2010PropOp42
 70
     1
102
RTVSPost2010Prop43
 90
        3
102
RTVSPost2010PropOp43
 70
     1
102
RTVSPost2010Prop44ColorIndex
 90
        5
102
RTVSPost2010Prop44ColorRGB
 90
      255
102
RTVSPost2010PropOp44
 70
     1
102
RTVSPost2010Prop45
280
     0
102
RTVSPost2010PropOp45
 70
     1
102
RTVSPost2010Prop46
 90
       50
102
RTVSPost2010PropOp46
 70
     1
102
RTVSPost2010Prop47
 90
       50
102
RTVSPost2010PropOp47
 70
     1
102
RTVSPost2010Prop48
 90
       50
102
RTVSPost2010PropOp48
 70
     1
102
RTVSPost2010Prop49
280
     0
102
RTVSPost2010PropOp49
 70
     1
102
RTVSPost2010Prop50
 90
       50
102
RTVSPost2010PropOp50
 70
     1
102
RTVSPost2010Prop51ColorIndex
 90
      256
102
RTVSPost2010Prop51ColorRGB
 90
-16777216
102
RTVSPost2010PropOp51
 70
     0
102
RTVSPost2010Prop52
140
1.0
102
RTVSPost2010PropOp52
 70
     0
102
RTVSPost2010Prop53
 90
        2
102
RTVSPost2010PropOp53
 70
     1
102
RTVSPost2010Prop54
  1
strokes_ogs.tif
102
RTVSPost2010PropOp54
 70
     1
102
RTVSPost2010Prop55
280
     0
102
RTVSPost2010PropOp55
 70
     1
102
RTVSPost2010Prop56
140
1.0
102
RTVSPost2010PropOp56
 70
     1
102
RTVSPost2010Prop57
140
1.0
102
RTVSPost2010PropOp57
 70
     1
102
RTVSPropertyOp0
 70
     1
102
RTVSPropertyOp1
 70
     1
102
RTVSPropertyOp2
 70
     1
102
RTVSPropertyOp3
 70
     1
102
RTVSPropertyOp4
 70
     1
102
RTVSPropertyOp5
 70
     1
102
RTVSPropertyOp6
 70
     1
102
RTVSPropertyOp7
 70
     1
102
RTVSPropertyOp8
 70
     1
102
RTVSPropertyOp9
 70
     1
102
RTVSPropertyOp10
 70
     1
102
RTVSPropertyOp11
 70
     1
102
RTVSPropertyOp12
 70
     1
102
RTVSPropertyOp13
 70
     1
102
RTVSPropertyOp14
 70
     1
102
RTVSPropertyOp15
 70
     1
102
RTVSPropertyOp16
 70
     1
102
RTVSPropertyOp17
 70
     1
102
RTVSPropertyOp18
 70
     1
102
RTVSPropertyOp19
 70
     1
102
RTVSPropertyOp20
 70
     1
102
RTVSPropertyOp21
 70
     1
102
RTVSPropertyOp22
 70
     1
102
RTVSPropertyOp23
 70
     1
102
RTVSPropertyOp24
 70
     1
102
RTVSPropertyOp25
 70
     1
102
RTVSPropertyOp26
 70
     1
102
RTVSPropertyOp27
 70
     1
102
RTVSPropertyOp28
 70
     1
102
RTVSPropertyOp29
 70
     1
102
RTVSPropertyOp30
 70
     1
102
RTVSPropertyOp31
 70
     1
102
RTVSPropertyOp32
 70
     1
102
RTVSPropertyOp33
 70
     1
102
RTVSPropertyOp34
 70
     1
102
RTVSPropertyOp35
 70
     1
102
RTVSPropertyOp36
 70
     1
102
RTVSPropertyOp37
 70
     1
102
RTVSPropertyOp38
 70
     1
102
RTVSPropertyOp39
 70
     1
102
RTVSPropertyOp40
 70
     1
102
RTVSPropertyOp41
 70
     1
102
RTVSPropertyOp42
 70
     1
102
RTVSPropertyOp43
 70
     1
102
RTVSPropertyOp44
 70
     1
102
RTVSPropertyOp45
 70
     1
102
RTVSPropertyOp46
 70
     1
102
RTVSPropertyOp47
 70
     1
102
RTVSPropertyOp48
 70
     1
102
RTVSPropertyOp49
 70
     1
102
RTVSPropertyOp50
 70
     1
102
RTVSPropertyOp51
 70
     0
102
RTVSPropertyOp52
 70
     0
102
RTVSPropertyOp53
 70
     1
102
RTVSPropertyOp54
 70
     1
102
RTVSPropertyOp55
 70
     1
102
RTVSPropertyOp56
 70
     1
102
RTVSPropertyOp57
 70
     1
102
RTVSPropertyOp58
 70
     1
102
RTVSPropertyOp59
 70
     1
102
RTVSPropertyOp60
 70
     1
102
RTVSPropertyOp61
 70
     1
102
RTVSPropertyOp62
 70
     1
  0
XRECORD
  5
9B66
102
{ACAD_REACTORS
330
9B65
102
}
330
9B65
100
AcDbXrecord
280
     1
102
RTVSPost2010Prop28
280
     0
102
RTVSPost2010PropOp28
 70
     1
102
RTVSPost2010Prop29
280
     1
102
RTVSPost2010PropOp29
 70
     1
102
RTVSPost2010Prop30
280
     1
102
RTVSPost2010PropOp30
 70
     1
102
RTVSPost2010Prop31
280
     0
102
RTVSPost2010PropOp31
 70
     1
102
RTVSPost2010Prop32
280
     0
102
RTVSPost2010PropOp32
 70
     1
102
RTVSPost2010Prop33
280
     0
102
RTVSPost2010PropOp33
 70
     1
102
RTVSPost2010Prop34
280
     0
102
RTVSPost2010PropOp34
 70
     1
102
RTVSPost2010Prop35
280
     0
102
RTVSPost2010PropOp35
 70
     1
102
RTVSPost2010Prop36
280
     0
102
RTVSPost2010PropOp36
 70
     1
102
RTVSPost2010Prop37
 90
       50
102
RTVSPost2010PropOp37
 70
     1
102
RTVSPost2010Prop38
140
0.0
102
RTVSPost2010PropOp38
 70
     1
102
RTVSPost2010Prop39
140
1.0
102
RTVSPost2010PropOp39
 70
     1
102
RTVSPost2010Prop40
 90
        0
102
RTVSPost2010PropOp40
 70
     1
102
RTVSPost2010Prop41ColorIndex
 90
       18
102
RTVSPost2010Prop41ColorRGB
 90
        0
102
RTVSPost2010PropOp41
 70
     1
102
RTVSPost2010Prop42
 90
       50
102
RTVSPost2010PropOp42
 70
     1
102
RTVSPost2010Prop43
 90
        3
102
RTVSPost2010PropOp43
 70
     1
102
RTVSPost2010Prop44ColorIndex
 90
        5
102
RTVSPost2010Prop44ColorRGB
 90
      255
102
RTVSPost2010PropOp44
 70
     1
102
RTVSPost2010Prop45
280
     0
102
RTVSPost2010PropOp45
 70
     1
102
RTVSPost2010Prop46
 90
       50
102
RTVSPost2010PropOp46
 70
     1
102
RTVSPost2010Prop47
 90
       50
102
RTVSPost2010PropOp47
 70
     1
102
RTVSPost2010Prop48
 90
       50
102
RTVSPost2010PropOp48
 70
     1
102
RTVSPost2010Prop49
280
     0
102
RTVSPost2010PropOp49
 70
     1
102
RTVSPost2010Prop50
 90
       50
102
RTVSPost2010PropOp50
 70
     1
102
RTVSPost2010Prop51ColorIndex
 90
      256
102
RTVSPost2010Prop51ColorRGB
 90
-16777216
102
RTVSPost2010PropOp51
 70
     0
102
RTVSPost2010Prop52
140
1.0
102
RTVSPost2010PropOp52
 70
     0
102
RTVSPost2010Prop53
 90
        2
102
RTVSPost2010PropOp53
 70
     1
102
RTVSPost2010Prop54
  1
strokes_ogs.tif
102
RTVSPost2010PropOp54
 70
     1
102
RTVSPost2010Prop55
280
     0
102
RTVSPost2010PropOp55
 70
     1
102
RTVSPost2010Prop56
140
1.0
102
RTVSPost2010PropOp56
 70
     1
102
RTVSPost2010Prop57
140
1.0
102
RTVSPost2010PropOp57
 70
     1
102
RTVSPropertyOp0
 70
     1
102
RTVSPropertyOp1
 70
     1
102
RTVSPropertyOp2
 70
     1
102
RTVSPropertyOp3
 70
     1
102
RTVSPropertyOp4
 70
     1
102
RTVSPropertyOp5
 70
     1
102
RTVSPropertyOp6
 70
     1
102
RTVSPropertyOp7
 70
     1
102
RTVSPropertyOp8
 70
     1
102
RTVSPropertyOp9
 70
     1
102
RTVSPropertyOp10
 70
     1
102
RTVSPropertyOp11
 70
     1
102
RTVSPropertyOp12
 70
     1
102
RTVSPropertyOp13
 70
     1
102
RTVSPropertyOp14
 70
     1
102
RTVSPropertyOp15
 70
     1
102
RTVSPropertyOp16
 70
     1
102
RTVSPropertyOp17
 70
     1
102
RTVSPropertyOp18
 70
     1
102
RTVSPropertyOp19
 70
     1
102
RTVSPropertyOp20
 70
     1
102
RTVSPropertyOp21
 70
     1
102
RTVSPropertyOp22
 70
     1
102
RTVSPropertyOp23
 70
     1
102
RTVSPropertyOp24
 70
     1
102
RTVSPropertyOp25
 70
     1
102
RTVSPropertyOp26
 70
     1
102
RTVSPropertyOp27
 70
     1
102
RTVSPropertyOp28
 70
     1
102
RTVSPropertyOp29
 70
     1
102
RTVSPropertyOp30
 70
     1
102
RTVSPropertyOp31
 70
     1
102
RTVSPropertyOp32
 70
     1
102
RTVSPropertyOp33
 70
     1
102
RTVSPropertyOp34
 70
     1
102
RTVSPropertyOp35
 70
     1
102
RTVSPropertyOp36
 70
     1
102
RTVSPropertyOp37
 70
     1
102
RTVSPropertyOp38
 70
     1
102
RTVSPropertyOp39
 70
     1
102
RTVSPropertyOp40
 70
     1
102
RTVSPropertyOp41
 70
     1
102
RTVSPropertyOp42
 70
     1
102
RTVSPropertyOp43
 70
     1
102
RTVSPropertyOp44
 70
     1
102
RTVSPropertyOp45
 70
     1
102
RTVSPropertyOp46
 70
     1
102
RTVSPropertyOp47
 70
     1
102
RTVSPropertyOp48
 70
     1
102
RTVSPropertyOp49
 70
     1
102
RTVSPropertyOp50
 70
     1
102
RTVSPropertyOp51
 70
     0
102
RTVSPropertyOp52
 70
     0
102
RTVSPropertyOp53
 70
     1
102
RTVSPropertyOp54
 70
     1
102
RTVSPropertyOp55
 70
     1
102
RTVSPropertyOp56
 70
     1
102
RTVSPropertyOp57
 70
     1
102
RTVSPropertyOp58
 70
     1
102
RTVSPropertyOp59
 70
     1
102
RTVSPropertyOp60
 70
     1
102
RTVSPropertyOp61
 70
     1
102
RTVSPropertyOp62
 70
     1
  0
XRECORD
  5
9B6A
102
{ACAD_REACTORS
330
9B69
102
}
330
9B69
100
AcDbXrecord
280
     1
102
RTVSPost2010Prop28
280
     0
102
RTVSPost2010PropOp28
 70
     1
102
RTVSPost2010Prop29
280
     1
102
RTVSPost2010PropOp29
 70
     1
102
RTVSPost2010Prop30
280
     1
102
RTVSPost2010PropOp30
 70
     1
102
RTVSPost2010Prop31
280
     0
102
RTVSPost2010PropOp31
 70
     1
102
RTVSPost2010Prop32
280
     0
102
RTVSPost2010PropOp32
 70
     1
102
RTVSPost2010Prop33
280
     0
102
RTVSPost2010PropOp33
 70
     1
102
RTVSPost2010Prop34
280
     0
102
RTVSPost2010PropOp34
 70
     1
102
RTVSPost2010Prop35
280
     0
102
RTVSPost2010PropOp35
 70
     1
102
RTVSPost2010Prop36
280
     0
102
RTVSPost2010PropOp36
 70
     1
102
RTVSPost2010Prop37
 90
       50
102
RTVSPost2010PropOp37
 70
     1
102
RTVSPost2010Prop38
140
0.0
102
RTVSPost2010PropOp38
 70
     1
102
RTVSPost2010Prop39
140
1.0
102
RTVSPost2010PropOp39
 70
     1
102
RTVSPost2010Prop40
 90
        0
102
RTVSPost2010PropOp40
 70
     1
102
RTVSPost2010Prop41ColorIndex
 90
       18
102
RTVSPost2010Prop41ColorRGB
 90
        0
102
RTVSPost2010PropOp41
 70
     1
102
RTVSPost2010Prop42
 90
       50
102
RTVSPost2010PropOp42
 70
     1
102
RTVSPost2010Prop43
 90
        3
102
RTVSPost2010PropOp43
 70
     1
102
RTVSPost2010Prop44ColorIndex
 90
        5
102
RTVSPost2010Prop44ColorRGB
 90
      255
102
RTVSPost2010PropOp44
 70
     1
102
RTVSPost2010Prop45
280
     0
102
RTVSPost2010PropOp45
 70
     1
102
RTVSPost2010Prop46
 90
       50
102
RTVSPost2010PropOp46
 70
     1
102
RTVSPost2010Prop47
 90
       50
102
RTVSPost2010PropOp47
 70
     1
102
RTVSPost2010Prop48
 90
       50
102
RTVSPost2010PropOp48
 70
     1
102
RTVSPost2010Prop49
280
     0
102
RTVSPost2010PropOp49
 70
     1
102
RTVSPost2010Prop50
 90
       50
102
RTVSPost2010PropOp50
 70
     1
102
RTVSPost2010Prop51ColorIndex
 90
      256
102
RTVSPost2010Prop51ColorRGB
 90
-16777216
102
RTVSPost2010PropOp51
 70
     0
102
RTVSPost2010Prop52
140
1.0
102
RTVSPost2010PropOp52
 70
     0
102
RTVSPost2010Prop53
 90
        2
102
RTVSPost2010PropOp53
 70
     1
102
RTVSPost2010Prop54
  1
strokes_ogs.tif
102
RTVSPost2010PropOp54
 70
     1
102
RTVSPost2010Prop55
280
     0
102
RTVSPost2010PropOp55
 70
     1
102
RTVSPost2010Prop56
140
1.0
102
RTVSPost2010PropOp56
 70
     1
102
RTVSPost2010Prop57
140
1.0
102
RTVSPost2010PropOp57
 70
     1
102
RTVSPropertyOp0
 70
     1
102
RTVSPropertyOp1
 70
     1
102
RTVSPropertyOp2
 70
     1
102
RTVSPropertyOp3
 70
     1
102
RTVSPropertyOp4
 70
     1
102
RTVSPropertyOp5
 70
     1
102
RTVSPropertyOp6
 70
     1
102
RTVSPropertyOp7
 70
     1
102
RTVSPropertyOp8
 70
     1
102
RTVSPropertyOp9
 70
     1
102
RTVSPropertyOp10
 70
     1
102
RTVSPropertyOp11
 70
     1
102
RTVSPropertyOp12
 70
     1
102
RTVSPropertyOp13
 70
     1
102
RTVSPropertyOp14
 70
     1
102
RTVSPropertyOp15
 70
     1
102
RTVSPropertyOp16
 70
     1
102
RTVSPropertyOp17
 70
     1
102
RTVSPropertyOp18
 70
     1
102
RTVSPropertyOp19
 70
     1
102
RTVSPropertyOp20
 70
     1
102
RTVSPropertyOp21
 70
     1
102
RTVSPropertyOp22
 70
     1
102
RTVSPropertyOp23
 70
     1
102
RTVSPropertyOp24
 70
     1
102
RTVSPropertyOp25
 70
     1
102
RTVSPropertyOp26
 70
     1
102
RTVSPropertyOp27
 70
     1
102
RTVSPropertyOp28
 70
     1
102
RTVSPropertyOp29
 70
     1
102
RTVSPropertyOp30
 70
     1
102
RTVSPropertyOp31
 70
     1
102
RTVSPropertyOp32
 70
     1
102
RTVSPropertyOp33
 70
     1
102
RTVSPropertyOp34
 70
     1
102
RTVSPropertyOp35
 70
     1
102
RTVSPropertyOp36
 70
     1
102
RTVSPropertyOp37
 70
     1
102
RTVSPropertyOp38
 70
     1
102
RTVSPropertyOp39
 70
     1
102
RTVSPropertyOp40
 70
     1
102
RTVSPropertyOp41
 70
     1
102
RTVSPropertyOp42
 70
     1
102
RTVSPropertyOp43
 70
     1
102
RTVSPropertyOp44
 70
     1
102
RTVSPropertyOp45
 70
     1
102
RTVSPropertyOp46
 70
     1
102
RTVSPropertyOp47
 70
     1
102
RTVSPropertyOp48
 70
     1
102
RTVSPropertyOp49
 70
     1
102
RTVSPropertyOp50
 70
     1
102
RTVSPropertyOp51
 70
     0
102
RTVSPropertyOp52
 70
     0
102
RTVSPropertyOp53
 70
     1
102
RTVSPropertyOp54
 70
     1
102
RTVSPropertyOp55
 70
     1
102
RTVSPropertyOp56
 70
     1
102
RTVSPropertyOp57
 70
     1
102
RTVSPropertyOp58
 70
     1
102
RTVSPropertyOp59
 70
     1
102
RTVSPropertyOp60
 70
     1
102
RTVSPropertyOp61
 70
     1
102
RTVSPropertyOp62
 70
     1
  0
XRECORD
  5
9B84
102
{ACAD_REACTORS
330
9B83
102
}
330
9B83
100
AcDbXrecord
280
     1
102
RTVSPost2010Prop28
280
     0
102
RTVSPost2010PropOp28
 70
     1
102
RTVSPost2010Prop29
280
     1
102
RTVSPost2010PropOp29
 70
     1
102
RTVSPost2010Prop30
280
     1
102
RTVSPost2010PropOp30
 70
     1
102
RTVSPost2010Prop31
280
     0
102
RTVSPost2010PropOp31
 70
     1
102
RTVSPost2010Prop32
280
     0
102
RTVSPost2010PropOp32
 70
     1
102
RTVSPost2010Prop33
280
     0
102
RTVSPost2010PropOp33
 70
     1
102
RTVSPost2010Prop34
280
     0
102
RTVSPost2010PropOp34
 70
     1
102
RTVSPost2010Prop35
280
     0
102
RTVSPost2010PropOp35
 70
     1
102
RTVSPost2010Prop36
280
     0
102
RTVSPost2010PropOp36
 70
     1
102
RTVSPost2010Prop37
 90
       50
102
RTVSPost2010PropOp37
 70
     0
102
RTVSPost2010Prop38
140
0.0
102
RTVSPost2010PropOp38
 70
     0
102
RTVSPost2010Prop39
140
1.0
102
RTVSPost2010PropOp39
 70
     0
102
RTVSPost2010Prop40
 90
        0
102
RTVSPost2010PropOp40
 70
     0
102
RTVSPost2010Prop41ColorIndex
 90
       18
102
RTVSPost2010Prop41ColorRGB
 90
        0
102
RTVSPost2010PropOp41
 70
     0
102
RTVSPost2010Prop42
 90
       50
102
RTVSPost2010PropOp42
 70
     0
102
RTVSPost2010Prop43
 90
        3
102
RTVSPost2010PropOp43
 70
     0
102
RTVSPost2010Prop44ColorIndex
 90
        5
102
RTVSPost2010Prop44ColorRGB
 90
      255
102
RTVSPost2010PropOp44
 70
     0
102
RTVSPost2010Prop45
280
     0
102
RTVSPost2010PropOp45
 70
     1
102
RTVSPost2010Prop46
 90
       50
102
RTVSPost2010PropOp46
 70
     0
102
RTVSPost2010Prop47
 90
       50
102
RTVSPost2010PropOp47
 70
     0
102
RTVSPost2010Prop48
 90
       50
102
RTVSPost2010PropOp48
 70
     0
102
RTVSPost2010Prop49
280
     0
102
RTVSPost2010PropOp49
 70
     1
102
RTVSPost2010Prop50
 90
       50
102
RTVSPost2010PropOp50
 70
     0
102
RTVSPost2010Prop51ColorIndex
 90
      256
102
RTVSPost2010Prop51ColorRGB
 90
-16777216
102
RTVSPost2010PropOp51
 70
     0
102
RTVSPost2010Prop52
140
1.0
102
RTVSPost2010PropOp52
 70
     0
102
RTVSPost2010Prop53
 90
        2
102
RTVSPost2010PropOp53
 70
     0
102
RTVSPost2010Prop54
  1
strokes_ogs.tif
102
RTVSPost2010PropOp54
 70
     0
102
RTVSPost2010Prop55
280
     0
102
RTVSPost2010PropOp55
 70
     1
102
RTVSPost2010Prop56
140
1.0
102
RTVSPost2010PropOp56
 70
     0
102
RTVSPost2010Prop57
140
1.0
102
RTVSPost2010PropOp57
 70
     0
102
RTVSPropertyOp0
 70
     0
102
RTVSPropertyOp1
 70
     0
102
RTVSPropertyOp2
 70
     0
102
RTVSPropertyOp3
 70
     0
102
RTVSPropertyOp4
 70
     0
102
RTVSPropertyOp5
 70
     0
102
RTVSPropertyOp6
 70
     0
102
RTVSPropertyOp7
 70
     0
102
RTVSPropertyOp8
 70
     0
102
RTVSPropertyOp9
 70
     0
102
RTVSPropertyOp10
 70
     0
102
RTVSPropertyOp11
 70
     0
102
RTVSPropertyOp12
 70
     0
102
RTVSPropertyOp13
 70
     0
102
RTVSPropertyOp14
 70
     2
102
RTVSPropertyOp15
 70
     0
102
RTVSPropertyOp16
 70
     0
102
RTVSPropertyOp17
 70
     0
102
RTVSPropertyOp18
 70
     0
102
RTVSPropertyOp19
 70
     0
102
RTVSPropertyOp20
 70
     0
102
RTVSPropertyOp21
 70
     0
102
RTVSPropertyOp22
 70
     0
102
RTVSPropertyOp23
 70
     0
102
RTVSPropertyOp24
 70
     0
102
RTVSPropertyOp25
 70
     0
102
RTVSPropertyOp26
 70
     0
102
RTVSPropertyOp27
 70
     0
102
RTVSPropertyOp28
 70
     1
102
RTVSPropertyOp29
 70
     1
102
RTVSPropertyOp30
 70
     1
102
RTVSPropertyOp31
 70
     1
102
RTVSPropertyOp32
 70
     1
102
RTVSPropertyOp33
 70
     1
102
RTVSPropertyOp34
 70
     1
102
RTVSPropertyOp35
 70
     1
102
RTVSPropertyOp36
 70
     1
102
RTVSPropertyOp37
 70
     0
102
RTVSPropertyOp38
 70
     0
102
RTVSPropertyOp39
 70
     0
102
RTVSPropertyOp40
 70
     0
102
RTVSPropertyOp41
 70
     0
102
RTVSPropertyOp42
 70
     0
102
RTVSPropertyOp43
 70
     0
102
RTVSPropertyOp44
 70
     0
102
RTVSPropertyOp45
 70
     1
102
RTVSPropertyOp46
 70
     0
102
RTVSPropertyOp47
 70
     0
102
RTVSPropertyOp48
 70
     0
102
RTVSPropertyOp49
 70
     1
102
RTVSPropertyOp50
 70
     0
102
RTVSPropertyOp51
 70
     0
102
RTVSPropertyOp52
 70
     0
102
RTVSPropertyOp53
 70
     0
102
RTVSPropertyOp54
 70
     0
102
RTVSPropertyOp55
 70
     1
102
RTVSPropertyOp56
 70
     0
102
RTVSPropertyOp57
 70
     0
102
RTVSPropertyOp58
 70
     0
102
RTVSPropertyOp59
 70
     0
102
RTVSPropertyOp60
 70
     0
102
RTVSPropertyOp61
 70
     0
102
RTVSPropertyOp62
 70
     0
  0
XRECORD
  5
9B72
102
{ACAD_REACTORS
330
9B71
102
}
330
9B71
100
AcDbXrecord
280
     1
102
RTVSPost2010Prop28
280
     0
102
RTVSPost2010PropOp28
 70
     1
102
RTVSPost2010Prop29
280
     1
102
RTVSPost2010PropOp29
 70
     1
102
RTVSPost2010Prop30
280
     1
102
RTVSPost2010PropOp30
 70
     1
102
RTVSPost2010Prop31
280
     0
102
RTVSPost2010PropOp31
 70
     1
102
RTVSPost2010Prop32
280
     0
102
RTVSPost2010PropOp32
 70
     1
102
RTVSPost2010Prop33
280
     0
102
RTVSPost2010PropOp33
 70
     1
102
RTVSPost2010Prop34
280
     0
102
RTVSPost2010PropOp34
 70
     1
102
RTVSPost2010Prop35
280
     0
102
RTVSPost2010PropOp35
 70
     1
102
RTVSPost2010Prop36
280
     0
102
RTVSPost2010PropOp36
 70
     1
102
RTVSPost2010Prop37
 90
       50
102
RTVSPost2010PropOp37
 70
     1
102
RTVSPost2010Prop38
140
0.0
102
RTVSPost2010PropOp38
 70
     1
102
RTVSPost2010Prop39
140
1.0
102
RTVSPost2010PropOp39
 70
     1
102
RTVSPost2010Prop40
 90
        0
102
RTVSPost2010PropOp40
 70
     1
102
RTVSPost2010Prop41ColorIndex
 90
       18
102
RTVSPost2010Prop41ColorRGB
 90
        0
102
RTVSPost2010PropOp41
 70
     1
102
RTVSPost2010Prop42
 90
       50
102
RTVSPost2010PropOp42
 70
     1
102
RTVSPost2010Prop43
 90
        3
102
RTVSPost2010PropOp43
 70
     1
102
RTVSPost2010Prop44ColorIndex
 90
        5
102
RTVSPost2010Prop44ColorRGB
 90
      255
102
RTVSPost2010PropOp44
 70
     1
102
RTVSPost2010Prop45
280
     0
102
RTVSPost2010PropOp45
 70
     1
102
RTVSPost2010Prop46
 90
       50
102
RTVSPost2010PropOp46
 70
     1
102
RTVSPost2010Prop47
 90
       50
102
RTVSPost2010PropOp47
 70
     1
102
RTVSPost2010Prop48
 90
       50
102
RTVSPost2010PropOp48
 70
     1
102
RTVSPost2010Prop49
280
     0
102
RTVSPost2010PropOp49
 70
     1
102
RTVSPost2010Prop50
 90
       50
102
RTVSPost2010PropOp50
 70
     1
102
RTVSPost2010Prop51ColorIndex
 90
      256
102
RTVSPost2010Prop51ColorRGB
 90
-16777216
102
RTVSPost2010PropOp51
 70
     0
102
RTVSPost2010Prop52
140
1.0
102
RTVSPost2010PropOp52
 70
     0
102
RTVSPost2010Prop53
 90
        2
102
RTVSPost2010PropOp53
 70
     1
102
RTVSPost2010Prop54
  1
strokes_ogs.tif
102
RTVSPost2010PropOp54
 70
     1
102
RTVSPost2010Prop55
280
     0
102
RTVSPost2010PropOp55
 70
     1
102
RTVSPost2010Prop56
140
1.0
102
RTVSPost2010PropOp56
 70
     1
102
RTVSPost2010Prop57
140
1.0
102
RTVSPost2010PropOp57
 70
     1
102
RTVSPropertyOp0
 70
     1
102
RTVSPropertyOp1
 70
     1
102
RTVSPropertyOp2
 70
     1
102
RTVSPropertyOp3
 70
     1
102
RTVSPropertyOp4
 70
     1
102
RTVSPropertyOp5
 70
     1
102
RTVSPropertyOp6
 70
     1
102
RTVSPropertyOp7
 70
     1
102
RTVSPropertyOp8
 70
     1
102
RTVSPropertyOp9
 70
     1
102
RTVSPropertyOp10
 70
     1
102
RTVSPropertyOp11
 70
     1
102
RTVSPropertyOp12
 70
     1
102
RTVSPropertyOp13
 70
     1
102
RTVSPropertyOp14
 70
     1
102
RTVSPropertyOp15
 70
     1
102
RTVSPropertyOp16
 70
     1
102
RTVSPropertyOp17
 70
     1
102
RTVSPropertyOp18
 70
     1
102
RTVSPropertyOp19
 70
     1
102
RTVSPropertyOp20
 70
     1
102
RTVSPropertyOp21
 70
     1
102
RTVSPropertyOp22
 70
     1
102
RTVSPropertyOp23
 70
     1
102
RTVSPropertyOp24
 70
     1
102
RTVSPropertyOp25
 70
     1
102
RTVSPropertyOp26
 70
     1
102
RTVSPropertyOp27
 70
     1
102
RTVSPropertyOp28
 70
     1
102
RTVSPropertyOp29
 70
     1
102
RTVSPropertyOp30
 70
     1
102
RTVSPropertyOp31
 70
     1
102
RTVSPropertyOp32
 70
     1
102
RTVSPropertyOp33
 70
     1
102
RTVSPropertyOp34
 70
     1
102
RTVSPropertyOp35
 70
     1
102
RTVSPropertyOp36
 70
     1
102
RTVSPropertyOp37
 70
     1
102
RTVSPropertyOp38
 70
     1
102
RTVSPropertyOp39
 70
     1
102
RTVSPropertyOp40
 70
     1
102
RTVSPropertyOp41
 70
     1
102
RTVSPropertyOp42
 70
     1
102
RTVSPropertyOp43
 70
     1
102
RTVSPropertyOp44
 70
     1
102
RTVSPropertyOp45
 70
     1
102
RTVSPropertyOp46
 70
     1
102
RTVSPropertyOp47
 70
     1
102
RTVSPropertyOp48
 70
     1
102
RTVSPropertyOp49
 70
     1
102
RTVSPropertyOp50
 70
     1
102
RTVSPropertyOp51
 70
     0
102
RTVSPropertyOp52
 70
     0
102
RTVSPropertyOp53
 70
     1
102
RTVSPropertyOp54
 70
     1
102
RTVSPropertyOp55
 70
     1
102
RTVSPropertyOp56
 70
     1
102
RTVSPropertyOp57
 70
     1
102
RTVSPropertyOp58
 70
     1
102
RTVSPropertyOp59
 70
     1
102
RTVSPropertyOp60
 70
     1
102
RTVSPropertyOp61
 70
     1
102
RTVSPropertyOp62
 70
     1
  0
XRECORD
  5
9B56
102
{ACAD_REACTORS
330
9B55
102
}
330
9B55
100
AcDbXrecord
280
     1
102
RTVSPost2010Prop28
280
     0
102
RTVSPost2010PropOp28
 70
     1
102
RTVSPost2010Prop29
280
     1
102
RTVSPost2010PropOp29
 70
     1
102
RTVSPost2010Prop30
280
     1
102
RTVSPost2010PropOp30
 70
     1
102
RTVSPost2010Prop31
280
     0
102
RTVSPost2010PropOp31
 70
     1
102
RTVSPost2010Prop32
280
     0
102
RTVSPost2010PropOp32
 70
     1
102
RTVSPost2010Prop33
280
     0
102
RTVSPost2010PropOp33
 70
     1
102
RTVSPost2010Prop34
280
     0
102
RTVSPost2010PropOp34
 70
     1
102
RTVSPost2010Prop35
280
     0
102
RTVSPost2010PropOp35
 70
     1
102
RTVSPost2010Prop36
280
     0
102
RTVSPost2010PropOp36
 70
     1
102
RTVSPost2010Prop37
 90
       50
102
RTVSPost2010PropOp37
 70
     1
102
RTVSPost2010Prop38
140
0.0
102
RTVSPost2010PropOp38
 70
     1
102
RTVSPost2010Prop39
140
1.0
102
RTVSPost2010PropOp39
 70
     1
102
RTVSPost2010Prop40
 90
        0
102
RTVSPost2010PropOp40
 70
     1
102
RTVSPost2010Prop41ColorIndex
 90
       18
102
RTVSPost2010Prop41ColorRGB
 90
        0
102
RTVSPost2010PropOp41
 70
     1
102
RTVSPost2010Prop42
 90
       50
102
RTVSPost2010PropOp42
 70
     1
102
RTVSPost2010Prop43
 90
        3
102
RTVSPost2010PropOp43
 70
     1
102
RTVSPost2010Prop44ColorIndex
 90
        5
102
RTVSPost2010Prop44ColorRGB
 90
      255
102
RTVSPost2010PropOp44
 70
     1
102
RTVSPost2010Prop45
280
     0
102
RTVSPost2010PropOp45
 70
     1
102
RTVSPost2010Prop46
 90
       50
102
RTVSPost2010PropOp46
 70
     1
102
RTVSPost2010Prop47
 90
       50
102
RTVSPost2010PropOp47
 70
     1
102
RTVSPost2010Prop48
 90
       50
102
RTVSPost2010PropOp48
 70
     1
102
RTVSPost2010Prop49
280
     0
102
RTVSPost2010PropOp49
 70
     1
102
RTVSPost2010Prop50
 90
       50
102
RTVSPost2010PropOp50
 70
     1
102
RTVSPost2010Prop51ColorIndex
 90
      256
102
RTVSPost2010Prop51ColorRGB
 90
-16777216
102
RTVSPost2010PropOp51
 70
     0
102
RTVSPost2010Prop52
140
1.0
102
RTVSPost2010PropOp52
 70
     0
102
RTVSPost2010Prop53
 90
        2
102
RTVSPost2010PropOp53
 70
     1
102
RTVSPost2010Prop54
  1
strokes_ogs.tif
102
RTVSPost2010PropOp54
 70
     1
102
RTVSPost2010Prop55
280
     0
102
RTVSPost2010PropOp55
 70
     1
102
RTVSPost2010Prop56
140
1.0
102
RTVSPost2010PropOp56
 70
     1
102
RTVSPost2010Prop57
140
1.0
102
RTVSPost2010PropOp57
 70
     1
102
RTVSPropertyOp0
 70
     1
102
RTVSPropertyOp1
 70
     1
102
RTVSPropertyOp2
 70
     1
102
RTVSPropertyOp3
 70
     1
102
RTVSPropertyOp4
 70
     1
102
RTVSPropertyOp5
 70
     1
102
RTVSPropertyOp6
 70
     1
102
RTVSPropertyOp7
 70
     1
102
RTVSPropertyOp8
 70
     1
102
RTVSPropertyOp9
 70
     1
102
RTVSPropertyOp10
 70
     1
102
RTVSPropertyOp11
 70
     1
102
RTVSPropertyOp12
 70
     1
102
RTVSPropertyOp13
 70
     1
102
RTVSPropertyOp14
 70
     1
102
RTVSPropertyOp15
 70
     1
102
RTVSPropertyOp16
 70
     1
102
RTVSPropertyOp17
 70
     1
102
RTVSPropertyOp18
 70
     1
102
RTVSPropertyOp19
 70
     1
102
RTVSPropertyOp20
 70
     1
102
RTVSPropertyOp21
 70
     1
102
RTVSPropertyOp22
 70
     1
102
RTVSPropertyOp23
 70
     1
102
RTVSPropertyOp24
 70
     1
102
RTVSPropertyOp25
 70
     1
102
RTVSPropertyOp26
 70
     1
102
RTVSPropertyOp27
 70
     1
102
RTVSPropertyOp28
 70
     1
102
RTVSPropertyOp29
 70
     1
102
RTVSPropertyOp30
 70
     1
102
RTVSPropertyOp31
 70
     1
102
RTVSPropertyOp32
 70
     1
102
RTVSPropertyOp33
 70
     1
102
RTVSPropertyOp34
 70
     1
102
RTVSPropertyOp35
 70
     1
102
RTVSPropertyOp36
 70
     1
102
RTVSPropertyOp37
 70
     1
102
RTVSPropertyOp38
 70
     1
102
RTVSPropertyOp39
 70
     1
102
RTVSPropertyOp40
 70
     1
102
RTVSPropertyOp41
 70
     1
102
RTVSPropertyOp42
 70
     1
102
RTVSPropertyOp43
 70
     1
102
RTVSPropertyOp44
 70
     1
102
RTVSPropertyOp45
 70
     1
102
RTVSPropertyOp46
 70
     1
102
RTVSPropertyOp47
 70
     1
102
RTVSPropertyOp48
 70
     1
102
RTVSPropertyOp49
 70
     1
102
RTVSPropertyOp50
 70
     1
102
RTVSPropertyOp51
 70
     0
102
RTVSPropertyOp52
 70
     0
102
RTVSPropertyOp53
 70
     1
102
RTVSPropertyOp54
 70
     1
102
RTVSPropertyOp55
 70
     1
102
RTVSPropertyOp56
 70
     1
102
RTVSPropertyOp57
 70
     1
102
RTVSPropertyOp58
 70
     1
102
RTVSPropertyOp59
 70
     1
102
RTVSPropertyOp60
 70
     1
102
RTVSPropertyOp61
 70
     1
102
RTVSPropertyOp62
 70
     1
  0
XRECORD
  5
9B58
102
{ACAD_REACTORS
330
9B57
102
}
330
9B57
100
AcDbXrecord
280
     1
102
RTVSPost2010Prop28
280
     0
102
RTVSPost2010PropOp28
 70
     1
102
RTVSPost2010Prop29
280
     1
102
RTVSPost2010PropOp29
 70
     1
102
RTVSPost2010Prop30
280
     1
102
RTVSPost2010PropOp30
 70
     1
102
RTVSPost2010Prop31
280
     0
102
RTVSPost2010PropOp31
 70
     1
102
RTVSPost2010Prop32
280
     0
102
RTVSPost2010PropOp32
 70
     1
102
RTVSPost2010Prop33
280
     0
102
RTVSPost2010PropOp33
 70
     1
102
RTVSPost2010Prop34
280
     0
102
RTVSPost2010PropOp34
 70
     1
102
RTVSPost2010Prop35
280
     0
102
RTVSPost2010PropOp35
 70
     1
102
RTVSPost2010Prop36
280
     0
102
RTVSPost2010PropOp36
 70
     1
102
RTVSPost2010Prop37
 90
       50
102
RTVSPost2010PropOp37
 70
     1
102
RTVSPost2010Prop38
140
0.0
102
RTVSPost2010PropOp38
 70
     1
102
RTVSPost2010Prop39
140
1.0
102
RTVSPost2010PropOp39
 70
     1
102
RTVSPost2010Prop40
 90
        0
102
RTVSPost2010PropOp40
 70
     1
102
RTVSPost2010Prop41ColorIndex
 90
       18
102
RTVSPost2010Prop41ColorRGB
 90
        0
102
RTVSPost2010PropOp41
 70
     1
102
RTVSPost2010Prop42
 90
       50
102
RTVSPost2010PropOp42
 70
     1
102
RTVSPost2010Prop43
 90
        3
102
RTVSPost2010PropOp43
 70
     1
102
RTVSPost2010Prop44ColorIndex
 90
        5
102
RTVSPost2010Prop44ColorRGB
 90
      255
102
RTVSPost2010PropOp44
 70
     1
102
RTVSPost2010Prop45
280
     0
102
RTVSPost2010PropOp45
 70
     1
102
RTVSPost2010Prop46
 90
       50
102
RTVSPost2010PropOp46
 70
     1
102
RTVSPost2010Prop47
 90
       50
102
RTVSPost2010PropOp47
 70
     1
102
RTVSPost2010Prop48
 90
       50
102
RTVSPost2010PropOp48
 70
     1
102
RTVSPost2010Prop49
280
     0
102
RTVSPost2010PropOp49
 70
     1
102
RTVSPost2010Prop50
 90
       50
102
RTVSPost2010PropOp50
 70
     1
102
RTVSPost2010Prop51ColorIndex
 90
      256
102
RTVSPost2010Prop51ColorRGB
 90
-16777216
102
RTVSPost2010PropOp51
 70
     0
102
RTVSPost2010Prop52
140
1.0
102
RTVSPost2010PropOp52
 70
     0
102
RTVSPost2010Prop53
 90
        2
102
RTVSPost2010PropOp53
 70
     1
102
RTVSPost2010Prop54
  1
strokes_ogs.tif
102
RTVSPost2010PropOp54
 70
     1
102
RTVSPost2010Prop55
280
     0
102
RTVSPost2010PropOp55
 70
     1
102
RTVSPost2010Prop56
140
1.0
102
RTVSPost2010PropOp56
 70
     1
102
RTVSPost2010Prop57
140
1.0
102
RTVSPost2010PropOp57
 70
     1
102
RTVSPropertyOp0
 70
     1
102
RTVSPropertyOp1
 70
     1
102
RTVSPropertyOp2
 70
     1
102
RTVSPropertyOp3
 70
     1
102
RTVSPropertyOp4
 70
     1
102
RTVSPropertyOp5
 70
     1
102
RTVSPropertyOp6
 70
     1
102
RTVSPropertyOp7
 70
     1
102
RTVSPropertyOp8
 70
     1
102
RTVSPropertyOp9
 70
     1
102
RTVSPropertyOp10
 70
     1
102
RTVSPropertyOp11
 70
     1
102
RTVSPropertyOp12
 70
     1
102
RTVSPropertyOp13
 70
     1
102
RTVSPropertyOp14
 70
     1
102
RTVSPropertyOp15
 70
     1
102
RTVSPropertyOp16
 70
     1
102
RTVSPropertyOp17
 70
     1
102
RTVSPropertyOp18
 70
     1
102
RTVSPropertyOp19
 70
     1
102
RTVSPropertyOp20
 70
     1
102
RTVSPropertyOp21
 70
     1
102
RTVSPropertyOp22
 70
     1
102
RTVSPropertyOp23
 70
     1
102
RTVSPropertyOp24
 70
     1
102
RTVSPropertyOp25
 70
     1
102
RTVSPropertyOp26
 70
     1
102
RTVSPropertyOp27
 70
     1
102
RTVSPropertyOp28
 70
     1
102
RTVSPropertyOp29
 70
     1
102
RTVSPropertyOp30
 70
     1
102
RTVSPropertyOp31
 70
     1
102
RTVSPropertyOp32
 70
     1
102
RTVSPropertyOp33
 70
     1
102
RTVSPropertyOp34
 70
     1
102
RTVSPropertyOp35
 70
     1
102
RTVSPropertyOp36
 70
     1
102
RTVSPropertyOp37
 70
     1
102
RTVSPropertyOp38
 70
     1
102
RTVSPropertyOp39
 70
     1
102
RTVSPropertyOp40
 70
     1
102
RTVSPropertyOp41
 70
     1
102
RTVSPropertyOp42
 70
     1
102
RTVSPropertyOp43
 70
     1
102
RTVSPropertyOp44
 70
     1
102
RTVSPropertyOp45
 70
     1
102
RTVSPropertyOp46
 70
     1
102
RTVSPropertyOp47
 70
     1
102
RTVSPropertyOp48
 70
     1
102
RTVSPropertyOp49
 70
     1
102
RTVSPropertyOp50
 70
     1
102
RTVSPropertyOp51
 70
     0
102
RTVSPropertyOp52
 70
     0
102
RTVSPropertyOp53
 70
     1
102
RTVSPropertyOp54
 70
     1
102
RTVSPropertyOp55
 70
     1
102
RTVSPropertyOp56
 70
     1
102
RTVSPropertyOp57
 70
     1
102
RTVSPropertyOp58
 70
     1
102
RTVSPropertyOp59
 70
     1
102
RTVSPropertyOp60
 70
     1
102
RTVSPropertyOp61
 70
     1
102
RTVSPropertyOp62
 70
     1
  0
XRECORD
  5
9B5A
102
{ACAD_REACTORS
330
9B59
102
}
330
9B59
100
AcDbXrecord
280
     1
102
RTVSPost2010Prop28
280
     0
102
RTVSPost2010PropOp28
 70
     1
102
RTVSPost2010Prop29
280
     1
102
RTVSPost2010PropOp29
 70
     1
102
RTVSPost2010Prop30
280
     1
102
RTVSPost2010PropOp30
 70
     1
102
RTVSPost2010Prop31
280
     0
102
RTVSPost2010PropOp31
 70
     1
102
RTVSPost2010Prop32
280
     0
102
RTVSPost2010PropOp32
 70
     1
102
RTVSPost2010Prop33
280
     0
102
RTVSPost2010PropOp33
 70
     1
102
RTVSPost2010Prop34
280
     0
102
RTVSPost2010PropOp34
 70
     1
102
RTVSPost2010Prop35
280
     0
102
RTVSPost2010PropOp35
 70
     1
102
RTVSPost2010Prop36
280
     0
102
RTVSPost2010PropOp36
 70
     1
102
RTVSPost2010Prop37
 90
       50
102
RTVSPost2010PropOp37
 70
     1
102
RTVSPost2010Prop38
140
0.0
102
RTVSPost2010PropOp38
 70
     1
102
RTVSPost2010Prop39
140
1.0
102
RTVSPost2010PropOp39
 70
     1
102
RTVSPost2010Prop40
 90
        0
102
RTVSPost2010PropOp40
 70
     1
102
RTVSPost2010Prop41ColorIndex
 90
       18
102
RTVSPost2010Prop41ColorRGB
 90
        0
102
RTVSPost2010PropOp41
 70
     1
102
RTVSPost2010Prop42
 90
       50
102
RTVSPost2010PropOp42
 70
     1
102
RTVSPost2010Prop43
 90
        3
102
RTVSPost2010PropOp43
 70
     1
102
RTVSPost2010Prop44ColorIndex
 90
        5
102
RTVSPost2010Prop44ColorRGB
 90
      255
102
RTVSPost2010PropOp44
 70
     1
102
RTVSPost2010Prop45
280
     0
102
RTVSPost2010PropOp45
 70
     1
102
RTVSPost2010Prop46
 90
       50
102
RTVSPost2010PropOp46
 70
     1
102
RTVSPost2010Prop47
 90
       50
102
RTVSPost2010PropOp47
 70
     1
102
RTVSPost2010Prop48
 90
       50
102
RTVSPost2010PropOp48
 70
     1
102
RTVSPost2010Prop49
280
     0
102
RTVSPost2010PropOp49
 70
     1
102
RTVSPost2010Prop50
 90
       50
102
RTVSPost2010PropOp50
 70
     1
102
RTVSPost2010Prop51ColorIndex
 90
      256
102
RTVSPost2010Prop51ColorRGB
 90
-16777216
102
RTVSPost2010PropOp51
 70
     0
102
RTVSPost2010Prop52
140
1.0
102
RTVSPost2010PropOp52
 70
     0
102
RTVSPost2010Prop53
 90
        2
102
RTVSPost2010PropOp53
 70
     1
102
RTVSPost2010Prop54
  1
strokes_ogs.tif
102
RTVSPost2010PropOp54
 70
     1
102
RTVSPost2010Prop55
280
     0
102
RTVSPost2010PropOp55
 70
     1
102
RTVSPost2010Prop56
140
1.0
102
RTVSPost2010PropOp56
 70
     1
102
RTVSPost2010Prop57
140
1.0
102
RTVSPost2010PropOp57
 70
     1
102
RTVSPropertyOp0
 70
     1
102
RTVSPropertyOp1
 70
     1
102
RTVSPropertyOp2
 70
     1
102
RTVSPropertyOp3
 70
     1
102
RTVSPropertyOp4
 70
     1
102
RTVSPropertyOp5
 70
     1
102
RTVSPropertyOp6
 70
     1
102
RTVSPropertyOp7
 70
     1
102
RTVSPropertyOp8
 70
     1
102
RTVSPropertyOp9
 70
     1
102
RTVSPropertyOp10
 70
     1
102
RTVSPropertyOp11
 70
     1
102
RTVSPropertyOp12
 70
     1
102
RTVSPropertyOp13
 70
     1
102
RTVSPropertyOp14
 70
     1
102
RTVSPropertyOp15
 70
     1
102
RTVSPropertyOp16
 70
     1
102
RTVSPropertyOp17
 70
     1
102
RTVSPropertyOp18
 70
     1
102
RTVSPropertyOp19
 70
     1
102
RTVSPropertyOp20
 70
     1
102
RTVSPropertyOp21
 70
     1
102
RTVSPropertyOp22
 70
     1
102
RTVSPropertyOp23
 70
     1
102
RTVSPropertyOp24
 70
     1
102
RTVSPropertyOp25
 70
     1
102
RTVSPropertyOp26
 70
     1
102
RTVSPropertyOp27
 70
     1
102
RTVSPropertyOp28
 70
     1
102
RTVSPropertyOp29
 70
     1
102
RTVSPropertyOp30
 70
     1
102
RTVSPropertyOp31
 70
     1
102
RTVSPropertyOp32
 70
     1
102
RTVSPropertyOp33
 70
     1
102
RTVSPropertyOp34
 70
     1
102
RTVSPropertyOp35
 70
     1
102
RTVSPropertyOp36
 70
     1
102
RTVSPropertyOp37
 70
     1
102
RTVSPropertyOp38
 70
     1
102
RTVSPropertyOp39
 70
     1
102
RTVSPropertyOp40
 70
     1
102
RTVSPropertyOp41
 70
     1
102
RTVSPropertyOp42
 70
     1
102
RTVSPropertyOp43
 70
     1
102
RTVSPropertyOp44
 70
     1
102
RTVSPropertyOp45
 70
     1
102
RTVSPropertyOp46
 70
     1
102
RTVSPropertyOp47
 70
     1
102
RTVSPropertyOp48
 70
     1
102
RTVSPropertyOp49
 70
     1
102
RTVSPropertyOp50
 70
     1
102
RTVSPropertyOp51
 70
     0
102
RTVSPropertyOp52
 70
     0
102
RTVSPropertyOp53
 70
     1
102
RTVSPropertyOp54
 70
     1
102
RTVSPropertyOp55
 70
     1
102
RTVSPropertyOp56
 70
     1
102
RTVSPropertyOp57
 70
     1
102
RTVSPropertyOp58
 70
     1
102
RTVSPropertyOp59
 70
     1
102
RTVSPropertyOp60
 70
     1
102
RTVSPropertyOp61
 70
     1
102
RTVSPropertyOp62
 70
     1
  0
XRECORD
  5
9B5C
102
{ACAD_REACTORS
330
9B5B
102
}
330
9B5B
100
AcDbXrecord
280
     1
102
RTVSPost2010Prop28
280
     0
102
RTVSPost2010PropOp28
 70
     1
102
RTVSPost2010Prop29
280
     1
102
RTVSPost2010PropOp29
 70
     1
102
RTVSPost2010Prop30
280
     1
102
RTVSPost2010PropOp30
 70
     1
102
RTVSPost2010Prop31
280
     0
102
RTVSPost2010PropOp31
 70
     1
102
RTVSPost2010Prop32
280
     0
102
RTVSPost2010PropOp32
 70
     1
102
RTVSPost2010Prop33
280
     0
102
RTVSPost2010PropOp33
 70
     1
102
RTVSPost2010Prop34
280
     0
102
RTVSPost2010PropOp34
 70
     1
102
RTVSPost2010Prop35
280
     0
102
RTVSPost2010PropOp35
 70
     1
102
RTVSPost2010Prop36
280
     0
102
RTVSPost2010PropOp36
 70
     1
102
RTVSPost2010Prop37
 90
       50
102
RTVSPost2010PropOp37
 70
     1
102
RTVSPost2010Prop38
140
0.0
102
RTVSPost2010PropOp38
 70
     1
102
RTVSPost2010Prop39
140
1.0
102
RTVSPost2010PropOp39
 70
     1
102
RTVSPost2010Prop40
 90
        0
102
RTVSPost2010PropOp40
 70
     1
102
RTVSPost2010Prop41ColorIndex
 90
       18
102
RTVSPost2010Prop41ColorRGB
 90
        0
102
RTVSPost2010PropOp41
 70
     1
102
RTVSPost2010Prop42
 90
       50
102
RTVSPost2010PropOp42
 70
     1
102
RTVSPost2010Prop43
 90
        3
102
RTVSPost2010PropOp43
 70
     1
102
RTVSPost2010Prop44ColorIndex
 90
        5
102
RTVSPost2010Prop44ColorRGB
 90
      255
102
RTVSPost2010PropOp44
 70
     1
102
RTVSPost2010Prop45
280
     0
102
RTVSPost2010PropOp45
 70
     1
102
RTVSPost2010Prop46
 90
       50
102
RTVSPost2010PropOp46
 70
     1
102
RTVSPost2010Prop47
 90
       50
102
RTVSPost2010PropOp47
 70
     1
102
RTVSPost2010Prop48
 90
       50
102
RTVSPost2010PropOp48
 70
     1
102
RTVSPost2010Prop49
280
     0
102
RTVSPost2010PropOp49
 70
     1
102
RTVSPost2010Prop50
 90
       50
102
RTVSPost2010PropOp50
 70
     1
102
RTVSPost2010Prop51ColorIndex
 90
      256
102
RTVSPost2010Prop51ColorRGB
 90
-16777216
102
RTVSPost2010PropOp51
 70
     0
102
RTVSPost2010Prop52
140
1.0
102
RTVSPost2010PropOp52
 70
     0
102
RTVSPost2010Prop53
 90
        2
102
RTVSPost2010PropOp53
 70
     1
102
RTVSPost2010Prop54
  1
strokes_ogs.tif
102
RTVSPost2010PropOp54
 70
     1
102
RTVSPost2010Prop55
280
     0
102
RTVSPost2010PropOp55
 70
     1
102
RTVSPost2010Prop56
140
1.0
102
RTVSPost2010PropOp56
 70
     1
102
RTVSPost2010Prop57
140
1.0
102
RTVSPost2010PropOp57
 70
     1
102
RTVSPropertyOp0
 70
     1
102
RTVSPropertyOp1
 70
     1
102
RTVSPropertyOp2
 70
     1
102
RTVSPropertyOp3
 70
     1
102
RTVSPropertyOp4
 70
     1
102
RTVSPropertyOp5
 70
     1
102
RTVSPropertyOp6
 70
     1
102
RTVSPropertyOp7
 70
     1
102
RTVSPropertyOp8
 70
     1
102
RTVSPropertyOp9
 70
     1
102
RTVSPropertyOp10
 70
     1
102
RTVSPropertyOp11
 70
     1
102
RTVSPropertyOp12
 70
     1
102
RTVSPropertyOp13
 70
     1
102
RTVSPropertyOp14
 70
     1
102
RTVSPropertyOp15
 70
     1
102
RTVSPropertyOp16
 70
     1
102
RTVSPropertyOp17
 70
     1
102
RTVSPropertyOp18
 70
     1
102
RTVSPropertyOp19
 70
     1
102
RTVSPropertyOp20
 70
     1
102
RTVSPropertyOp21
 70
     1
102
RTVSPropertyOp22
 70
     1
102
RTVSPropertyOp23
 70
     1
102
RTVSPropertyOp24
 70
     1
102
RTVSPropertyOp25
 70
     1
102
RTVSPropertyOp26
 70
     1
102
RTVSPropertyOp27
 70
     1
102
RTVSPropertyOp28
 70
     1
102
RTVSPropertyOp29
 70
     1
102
RTVSPropertyOp30
 70
     1
102
RTVSPropertyOp31
 70
     1
102
RTVSPropertyOp32
 70
     1
102
RTVSPropertyOp33
 70
     1
102
RTVSPropertyOp34
 70
     1
102
RTVSPropertyOp35
 70
     1
102
RTVSPropertyOp36
 70
     1
102
RTVSPropertyOp37
 70
     1
102
RTVSPropertyOp38
 70
     1
102
RTVSPropertyOp39
 70
     1
102
RTVSPropertyOp40
 70
     1
102
RTVSPropertyOp41
 70
     1
102
RTVSPropertyOp42
 70
     1
102
RTVSPropertyOp43
 70
     1
102
RTVSPropertyOp44
 70
     1
102
RTVSPropertyOp45
 70
     1
102
RTVSPropertyOp46
 70
     1
102
RTVSPropertyOp47
 70
     1
102
RTVSPropertyOp48
 70
     1
102
RTVSPropertyOp49
 70
     1
102
RTVSPropertyOp50
 70
     1
102
RTVSPropertyOp51
 70
     0
102
RTVSPropertyOp52
 70
     0
102
RTVSPropertyOp53
 70
     1
102
RTVSPropertyOp54
 70
     1
102
RTVSPropertyOp55
 70
     1
102
RTVSPropertyOp56
 70
     1
102
RTVSPropertyOp57
 70
     1
102
RTVSPropertyOp58
 70
     1
102
RTVSPropertyOp59
 70
     1
102
RTVSPropertyOp60
 70
     1
102
RTVSPropertyOp61
 70
     1
102
RTVSPropertyOp62
 70
     1
  0
XRECORD
  5
9B64
102
{ACAD_REACTORS
330
9B63
102
}
330
9B63
100
AcDbXrecord
280
     1
102
RTVSPost2010Prop28
280
     0
102
RTVSPost2010PropOp28
 70
     1
102
RTVSPost2010Prop29
280
     1
102
RTVSPost2010PropOp29
 70
     1
102
RTVSPost2010Prop30
280
     1
102
RTVSPost2010PropOp30
 70
     1
102
RTVSPost2010Prop31
280
     0
102
RTVSPost2010PropOp31
 70
     1
102
RTVSPost2010Prop32
280
     0
102
RTVSPost2010PropOp32
 70
     1
102
RTVSPost2010Prop33
280
     0
102
RTVSPost2010PropOp33
 70
     1
102
RTVSPost2010Prop34
280
     0
102
RTVSPost2010PropOp34
 70
     1
102
RTVSPost2010Prop35
280
     0
102
RTVSPost2010PropOp35
 70
     1
102
RTVSPost2010Prop36
280
     0
102
RTVSPost2010PropOp36
 70
     1
102
RTVSPost2010Prop37
 90
       50
102
RTVSPost2010PropOp37
 70
     1
102
RTVSPost2010Prop38
140
0.0
102
RTVSPost2010PropOp38
 70
     1
102
RTVSPost2010Prop39
140
1.0
102
RTVSPost2010PropOp39
 70
     1
102
RTVSPost2010Prop40
 90
        0
102
RTVSPost2010PropOp40
 70
     1
102
RTVSPost2010Prop41ColorIndex
 90
       18
102
RTVSPost2010Prop41ColorRGB
 90
        0
102
RTVSPost2010PropOp41
 70
     1
102
RTVSPost2010Prop42
 90
       50
102
RTVSPost2010PropOp42
 70
     1
102
RTVSPost2010Prop43
 90
        3
102
RTVSPost2010PropOp43
 70
     1
102
RTVSPost2010Prop44ColorIndex
 90
        5
102
RTVSPost2010Prop44ColorRGB
 90
      255
102
RTVSPost2010PropOp44
 70
     1
102
RTVSPost2010Prop45
280
     0
102
RTVSPost2010PropOp45
 70
     1
102
RTVSPost2010Prop46
 90
       50
102
RTVSPost2010PropOp46
 70
     1
102
RTVSPost2010Prop47
 90
       50
102
RTVSPost2010PropOp47
 70
     1
102
RTVSPost2010Prop48
 90
       50
102
RTVSPost2010PropOp48
 70
     1
102
RTVSPost2010Prop49
280
     0
102
RTVSPost2010PropOp49
 70
     1
102
RTVSPost2010Prop50
 90
       50
102
RTVSPost2010PropOp50
 70
     1
102
RTVSPost2010Prop51ColorIndex
 90
      256
102
RTVSPost2010Prop51ColorRGB
 90
-16777216
102
RTVSPost2010PropOp51
 70
     0
102
RTVSPost2010Prop52
140
1.0
102
RTVSPost2010PropOp52
 70
     0
102
RTVSPost2010Prop53
 90
        2
102
RTVSPost2010PropOp53
 70
     1
102
RTVSPost2010Prop54
  1
strokes_ogs.tif
102
RTVSPost2010PropOp54
 70
     1
102
RTVSPost2010Prop55
280
     0
102
RTVSPost2010PropOp55
 70
     1
102
RTVSPost2010Prop56
140
1.0
102
RTVSPost2010PropOp56
 70
     1
102
RTVSPost2010Prop57
140
1.0
102
RTVSPost2010PropOp57
 70
     1
102
RTVSPropertyOp0
 70
     1
102
RTVSPropertyOp1
 70
     1
102
RTVSPropertyOp2
 70
     1
102
RTVSPropertyOp3
 70
     1
102
RTVSPropertyOp4
 70
     1
102
RTVSPropertyOp5
 70
     1
102
RTVSPropertyOp6
 70
     1
102
RTVSPropertyOp7
 70
     1
102
RTVSPropertyOp8
 70
     1
102
RTVSPropertyOp9
 70
     1
102
RTVSPropertyOp10
 70
     1
102
RTVSPropertyOp11
 70
     1
102
RTVSPropertyOp12
 70
     1
102
RTVSPropertyOp13
 70
     1
102
RTVSPropertyOp14
 70
     1
102
RTVSPropertyOp15
 70
     1
102
RTVSPropertyOp16
 70
     1
102
RTVSPropertyOp17
 70
     1
102
RTVSPropertyOp18
 70
     1
102
RTVSPropertyOp19
 70
     1
102
RTVSPropertyOp20
 70
     1
102
RTVSPropertyOp21
 70
     1
102
RTVSPropertyOp22
 70
     1
102
RTVSPropertyOp23
 70
     1
102
RTVSPropertyOp24
 70
     1
102
RTVSPropertyOp25
 70
     1
102
RTVSPropertyOp26
 70
     1
102
RTVSPropertyOp27
 70
     1
102
RTVSPropertyOp28
 70
     1
102
RTVSPropertyOp29
 70
     1
102
RTVSPropertyOp30
 70
     1
102
RTVSPropertyOp31
 70
     1
102
RTVSPropertyOp32
 70
     1
102
RTVSPropertyOp33
 70
     1
102
RTVSPropertyOp34
 70
     1
102
RTVSPropertyOp35
 70
     1
102
RTVSPropertyOp36
 70
     1
102
RTVSPropertyOp37
 70
     1
102
RTVSPropertyOp38
 70
     1
102
RTVSPropertyOp39
 70
     1
102
RTVSPropertyOp40
 70
     1
102
RTVSPropertyOp41
 70
     1
102
RTVSPropertyOp42
 70
     1
102
RTVSPropertyOp43
 70
     1
102
RTVSPropertyOp44
 70
     1
102
RTVSPropertyOp45
 70
     1
102
RTVSPropertyOp46
 70
     1
102
RTVSPropertyOp47
 70
     1
102
RTVSPropertyOp48
 70
     1
102
RTVSPropertyOp49
 70
     1
102
RTVSPropertyOp50
 70
     1
102
RTVSPropertyOp51
 70
     0
102
RTVSPropertyOp52
 70
     0
102
RTVSPropertyOp53
 70
     1
102
RTVSPropertyOp54
 70
     1
102
RTVSPropertyOp55
 70
     1
102
RTVSPropertyOp56
 70
     1
102
RTVSPropertyOp57
 70
     1
102
RTVSPropertyOp58
 70
     1
102
RTVSPropertyOp59
 70
     1
102
RTVSPropertyOp60
 70
     1
102
RTVSPropertyOp61
 70
     1
102
RTVSPropertyOp62
 70
     1
  0
XRECORD
  5
9B80
102
{ACAD_REACTORS
330
9B7F
102
}
330
9B7F
100
AcDbXrecord
280
     1
102
RTVSPost2010Prop28
280
     0
102
RTVSPost2010PropOp28
 70
     1
102
RTVSPost2010Prop29
280
     1
102
RTVSPost2010PropOp29
 70
     1
102
RTVSPost2010Prop30
280
     1
102
RTVSPost2010PropOp30
 70
     1
102
RTVSPost2010Prop31
280
     0
102
RTVSPost2010PropOp31
 70
     1
102
RTVSPost2010Prop32
280
     0
102
RTVSPost2010PropOp32
 70
     1
102
RTVSPost2010Prop33
280
     0
102
RTVSPost2010PropOp33
 70
     1
102
RTVSPost2010Prop34
280
     0
102
RTVSPost2010PropOp34
 70
     1
102
RTVSPost2010Prop35
280
     0
102
RTVSPost2010PropOp35
 70
     1
102
RTVSPost2010Prop36
280
     0
102
RTVSPost2010PropOp36
 70
     1
102
RTVSPost2010Prop37
 90
       50
102
RTVSPost2010PropOp37
 70
     0
102
RTVSPost2010Prop38
140
0.0
102
RTVSPost2010PropOp38
 70
     0
102
RTVSPost2010Prop39
140
1.0
102
RTVSPost2010PropOp39
 70
     0
102
RTVSPost2010Prop40
 90
        0
102
RTVSPost2010PropOp40
 70
     0
102
RTVSPost2010Prop41ColorIndex
 90
       18
102
RTVSPost2010Prop41ColorRGB
 90
        0
102
RTVSPost2010PropOp41
 70
     0
102
RTVSPost2010Prop42
 90
       50
102
RTVSPost2010PropOp42
 70
     0
102
RTVSPost2010Prop43
 90
        3
102
RTVSPost2010PropOp43
 70
     0
102
RTVSPost2010Prop44ColorIndex
 90
        5
102
RTVSPost2010Prop44ColorRGB
 90
      255
102
RTVSPost2010PropOp44
 70
     0
102
RTVSPost2010Prop45
280
     0
102
RTVSPost2010PropOp45
 70
     1
102
RTVSPost2010Prop46
 90
       50
102
RTVSPost2010PropOp46
 70
     0
102
RTVSPost2010Prop47
 90
       50
102
RTVSPost2010PropOp47
 70
     0
102
RTVSPost2010Prop48
 90
       50
102
RTVSPost2010PropOp48
 70
     0
102
RTVSPost2010Prop49
280
     0
102
RTVSPost2010PropOp49
 70
     1
102
RTVSPost2010Prop50
 90
       50
102
RTVSPost2010PropOp50
 70
     0
102
RTVSPost2010Prop51ColorIndex
 90
      256
102
RTVSPost2010Prop51ColorRGB
 90
-16777216
102
RTVSPost2010PropOp51
 70
     0
102
RTVSPost2010Prop52
140
1.0
102
RTVSPost2010PropOp52
 70
     0
102
RTVSPost2010Prop53
 90
        2
102
RTVSPost2010PropOp53
 70
     0
102
RTVSPost2010Prop54
  1
strokes_ogs.tif
102
RTVSPost2010PropOp54
 70
     0
102
RTVSPost2010Prop55
280
     0
102
RTVSPost2010PropOp55
 70
     1
102
RTVSPost2010Prop56
140
1.0
102
RTVSPost2010PropOp56
 70
     0
102
RTVSPost2010Prop57
140
1.0
102
RTVSPost2010PropOp57
 70
     0
102
RTVSPropertyOp0
 70
     0
102
RTVSPropertyOp1
 70
     0
102
RTVSPropertyOp2
 70
     0
102
RTVSPropertyOp3
 70
     0
102
RTVSPropertyOp4
 70
     0
102
RTVSPropertyOp5
 70
     0
102
RTVSPropertyOp6
 70
     0
102
RTVSPropertyOp7
 70
     0
102
RTVSPropertyOp8
 70
     0
102
RTVSPropertyOp9
 70
     0
102
RTVSPropertyOp10
 70
     0
102
RTVSPropertyOp11
 70
     0
102
RTVSPropertyOp12
 70
     0
102
RTVSPropertyOp13
 70
     0
102
RTVSPropertyOp14
 70
     2
102
RTVSPropertyOp15
 70
     0
102
RTVSPropertyOp16
 70
     0
102
RTVSPropertyOp17
 70
     0
102
RTVSPropertyOp18
 70
     0
102
RTVSPropertyOp19
 70
     0
102
RTVSPropertyOp20
 70
     0
102
RTVSPropertyOp21
 70
     0
102
RTVSPropertyOp22
 70
     0
102
RTVSPropertyOp23
 70
     0
102
RTVSPropertyOp24
 70
     0
102
RTVSPropertyOp25
 70
     0
102
RTVSPropertyOp26
 70
     0
102
RTVSPropertyOp27
 70
     0
102
RTVSPropertyOp28
 70
     1
102
RTVSPropertyOp29
 70
     1
102
RTVSPropertyOp30
 70
     1
102
RTVSPropertyOp31
 70
     1
102
RTVSPropertyOp32
 70
     1
102
RTVSPropertyOp33
 70
     1
102
RTVSPropertyOp34
 70
     1
102
RTVSPropertyOp35
 70
     1
102
RTVSPropertyOp36
 70
     1
102
RTVSPropertyOp37
 70
     0
102
RTVSPropertyOp38
 70
     0
102
RTVSPropertyOp39
 70
     0
102
RTVSPropertyOp40
 70
     0
102
RTVSPropertyOp41
 70
     0
102
RTVSPropertyOp42
 70
     0
102
RTVSPropertyOp43
 70
     0
102
RTVSPropertyOp44
 70
     0
102
RTVSPropertyOp45
 70
     1
102
RTVSPropertyOp46
 70
     0
102
RTVSPropertyOp47
 70
     0
102
RTVSPropertyOp48
 70
     0
102
RTVSPropertyOp49
 70
     1
102
RTVSPropertyOp50
 70
     0
102
RTVSPropertyOp51
 70
     0
102
RTVSPropertyOp52
 70
     0
102
RTVSPropertyOp53
 70
     0
102
RTVSPropertyOp54
 70
     0
102
RTVSPropertyOp55
 70
     1
102
RTVSPropertyOp56
 70
     0
102
RTVSPropertyOp57
 70
     0
102
RTVSPropertyOp58
 70
     0
102
RTVSPropertyOp59
 70
     0
102
RTVSPropertyOp60
 70
     0
102
RTVSPropertyOp61
 70
     0
102
RTVSPropertyOp62
 70
     0
  0
XRECORD
  5
9B70
102
{ACAD_REACTORS
330
9B6F
102
}
330
9B6F
100
AcDbXrecord
280
     1
102
RTVSPost2010Prop28
280
     0
102
RTVSPost2010PropOp28
 70
     1
102
RTVSPost2010Prop29
280
     1
102
RTVSPost2010PropOp29
 70
     1
102
RTVSPost2010Prop30
280
     1
102
RTVSPost2010PropOp30
 70
     1
102
RTVSPost2010Prop31
280
     0
102
RTVSPost2010PropOp31
 70
     1
102
RTVSPost2010Prop32
280
     0
102
RTVSPost2010PropOp32
 70
     1
102
RTVSPost2010Prop33
280
     0
102
RTVSPost2010PropOp33
 70
     1
102
RTVSPost2010Prop34
280
     0
102
RTVSPost2010PropOp34
 70
     1
102
RTVSPost2010Prop35
280
     0
102
RTVSPost2010PropOp35
 70
     1
102
RTVSPost2010Prop36
280
     0
102
RTVSPost2010PropOp36
 70
     1
102
RTVSPost2010Prop37
 90
       50
102
RTVSPost2010PropOp37
 70
     1
102
RTVSPost2010Prop38
140
0.0
102
RTVSPost2010PropOp38
 70
     1
102
RTVSPost2010Prop39
140
1.0
102
RTVSPost2010PropOp39
 70
     1
102
RTVSPost2010Prop40
 90
        0
102
RTVSPost2010PropOp40
 70
     1
102
RTVSPost2010Prop41ColorIndex
 90
       18
102
RTVSPost2010Prop41ColorRGB
 90
        0
102
RTVSPost2010PropOp41
 70
     1
102
RTVSPost2010Prop42
 90
       50
102
RTVSPost2010PropOp42
 70
     1
102
RTVSPost2010Prop43
 90
        3
102
RTVSPost2010PropOp43
 70
     1
102
RTVSPost2010Prop44ColorIndex
 90
        5
102
RTVSPost2010Prop44ColorRGB
 90
      255
102
RTVSPost2010PropOp44
 70
     1
102
RTVSPost2010Prop45
280
     0
102
RTVSPost2010PropOp45
 70
     1
102
RTVSPost2010Prop46
 90
       50
102
RTVSPost2010PropOp46
 70
     1
102
RTVSPost2010Prop47
 90
       50
102
RTVSPost2010PropOp47
 70
     1
102
RTVSPost2010Prop48
 90
       50
102
RTVSPost2010PropOp48
 70
     1
102
RTVSPost2010Prop49
280
     0
102
RTVSPost2010PropOp49
 70
     1
102
RTVSPost2010Prop50
 90
       50
102
RTVSPost2010PropOp50
 70
     1
102
RTVSPost2010Prop51ColorIndex
 90
      256
102
RTVSPost2010Prop51ColorRGB
 90
-16777216
102
RTVSPost2010PropOp51
 70
     0
102
RTVSPost2010Prop52
140
1.0
102
RTVSPost2010PropOp52
 70
     0
102
RTVSPost2010Prop53
 90
        2
102
RTVSPost2010PropOp53
 70
     1
102
RTVSPost2010Prop54
  1
strokes_ogs.tif
102
RTVSPost2010PropOp54
 70
     1
102
RTVSPost2010Prop55
280
     0
102
RTVSPost2010PropOp55
 70
     1
102
RTVSPost2010Prop56
140
1.0
102
RTVSPost2010PropOp56
 70
     1
102
RTVSPost2010Prop57
140
1.0
102
RTVSPost2010PropOp57
 70
     1
102
RTVSPropertyOp0
 70
     1
102
RTVSPropertyOp1
 70
     1
102
RTVSPropertyOp2
 70
     1
102
RTVSPropertyOp3
 70
     1
102
RTVSPropertyOp4
 70
     1
102
RTVSPropertyOp5
 70
     1
102
RTVSPropertyOp6
 70
     1
102
RTVSPropertyOp7
 70
     1
102
RTVSPropertyOp8
 70
     1
102
RTVSPropertyOp9
 70
     1
102
RTVSPropertyOp10
 70
     1
102
RTVSPropertyOp11
 70
     1
102
RTVSPropertyOp12
 70
     1
102
RTVSPropertyOp13
 70
     1
102
RTVSPropertyOp14
 70
     1
102
RTVSPropertyOp15
 70
     1
102
RTVSPropertyOp16
 70
     1
102
RTVSPropertyOp17
 70
     1
102
RTVSPropertyOp18
 70
     1
102
RTVSPropertyOp19
 70
     1
102
RTVSPropertyOp20
 70
     1
102
RTVSPropertyOp21
 70
     1
102
RTVSPropertyOp22
 70
     1
102
RTVSPropertyOp23
 70
     1
102
RTVSPropertyOp24
 70
     1
102
RTVSPropertyOp25
 70
     1
102
RTVSPropertyOp26
 70
     1
102
RTVSPropertyOp27
 70
     1
102
RTVSPropertyOp28
 70
     1
102
RTVSPropertyOp29
 70
     1
102
RTVSPropertyOp30
 70
     1
102
RTVSPropertyOp31
 70
     1
102
RTVSPropertyOp32
 70
     1
102
RTVSPropertyOp33
 70
     1
102
RTVSPropertyOp34
 70
     1
102
RTVSPropertyOp35
 70
     1
102
RTVSPropertyOp36
 70
     1
102
RTVSPropertyOp37
 70
     1
102
RTVSPropertyOp38
 70
     1
102
RTVSPropertyOp39
 70
     1
102
RTVSPropertyOp40
 70
     1
102
RTVSPropertyOp41
 70
     1
102
RTVSPropertyOp42
 70
     1
102
RTVSPropertyOp43
 70
     1
102
RTVSPropertyOp44
 70
     1
102
RTVSPropertyOp45
 70
     1
102
RTVSPropertyOp46
 70
     1
102
RTVSPropertyOp47
 70
     1
102
RTVSPropertyOp48
 70
     1
102
RTVSPropertyOp49
 70
     1
102
RTVSPropertyOp50
 70
     1
102
RTVSPropertyOp51
 70
     0
102
RTVSPropertyOp52
 70
     0
102
RTVSPropertyOp53
 70
     1
102
RTVSPropertyOp54
 70
     1
102
RTVSPropertyOp55
 70
     1
102
RTVSPropertyOp56
 70
     1
102
RTVSPropertyOp57
 70
     1
102
RTVSPropertyOp58
 70
     1
102
RTVSPropertyOp59
 70
     1
102
RTVSPropertyOp60
 70
     1
102
RTVSPropertyOp61
 70
     1
102
RTVSPropertyOp62
 70
     1
  0
XRECORD
  5
9B82
102
{ACAD_REACTORS
330
9B81
102
}
330
9B81
100
AcDbXrecord
280
     1
102
RTVSPost2010Prop28
280
     0
102
RTVSPost2010PropOp28
 70
     1
102
RTVSPost2010Prop29
280
     1
102
RTVSPost2010PropOp29
 70
     1
102
RTVSPost2010Prop30
280
     1
102
RTVSPost2010PropOp30
 70
     1
102
RTVSPost2010Prop31
280
     0
102
RTVSPost2010PropOp31
 70
     1
102
RTVSPost2010Prop32
280
     0
102
RTVSPost2010PropOp32
 70
     1
102
RTVSPost2010Prop33
280
     0
102
RTVSPost2010PropOp33
 70
     1
102
RTVSPost2010Prop34
280
     0
102
RTVSPost2010PropOp34
 70
     1
102
RTVSPost2010Prop35
280
     0
102
RTVSPost2010PropOp35
 70
     1
102
RTVSPost2010Prop36
280
     0
102
RTVSPost2010PropOp36
 70
     1
102
RTVSPost2010Prop37
 90
       50
102
RTVSPost2010PropOp37
 70
     0
102
RTVSPost2010Prop38
140
0.0
102
RTVSPost2010PropOp38
 70
     0
102
RTVSPost2010Prop39
140
1.0
102
RTVSPost2010PropOp39
 70
     0
102
RTVSPost2010Prop40
 90
        0
102
RTVSPost2010PropOp40
 70
     0
102
RTVSPost2010Prop41ColorIndex
 90
       18
102
RTVSPost2010Prop41ColorRGB
 90
        0
102
RTVSPost2010PropOp41
 70
     0
102
RTVSPost2010Prop42
 90
       50
102
RTVSPost2010PropOp42
 70
     0
102
RTVSPost2010Prop43
 90
        3
102
RTVSPost2010PropOp43
 70
     0
102
RTVSPost2010Prop44ColorIndex
 90
        5
102
RTVSPost2010Prop44ColorRGB
 90
      255
102
RTVSPost2010PropOp44
 70
     0
102
RTVSPost2010Prop45
280
     0
102
RTVSPost2010PropOp45
 70
     1
102
RTVSPost2010Prop46
 90
       50
102
RTVSPost2010PropOp46
 70
     0
102
RTVSPost2010Prop47
 90
       50
102
RTVSPost2010PropOp47
 70
     0
102
RTVSPost2010Prop48
 90
       50
102
RTVSPost2010PropOp48
 70
     0
102
RTVSPost2010Prop49
280
     0
102
RTVSPost2010PropOp49
 70
     1
102
RTVSPost2010Prop50
 90
       50
102
RTVSPost2010PropOp50
 70
     0
102
RTVSPost2010Prop51ColorIndex
 90
      256
102
RTVSPost2010Prop51ColorRGB
 90
-16777216
102
RTVSPost2010PropOp51
 70
     0
102
RTVSPost2010Prop52
140
1.0
102
RTVSPost2010PropOp52
 70
     0
102
RTVSPost2010Prop53
 90
        2
102
RTVSPost2010PropOp53
 70
     0
102
RTVSPost2010Prop54
  1
strokes_ogs.tif
102
RTVSPost2010PropOp54
 70
     0
102
RTVSPost2010Prop55
280
     0
102
RTVSPost2010PropOp55
 70
     1
102
RTVSPost2010Prop56
140
1.0
102
RTVSPost2010PropOp56
 70
     0
102
RTVSPost2010Prop57
140
1.0
102
RTVSPost2010PropOp57
 70
     0
102
RTVSPropertyOp0
 70
     0
102
RTVSPropertyOp1
 70
     0
102
RTVSPropertyOp2
 70
     0
102
RTVSPropertyOp3
 70
     0
102
RTVSPropertyOp4
 70
     0
102
RTVSPropertyOp5
 70
     0
102
RTVSPropertyOp6
 70
     0
102
RTVSPropertyOp7
 70
     0
102
RTVSPropertyOp8
 70
     0
102
RTVSPropertyOp9
 70
     0
102
RTVSPropertyOp10
 70
     0
102
RTVSPropertyOp11
 70
     0
102
RTVSPropertyOp12
 70
     0
102
RTVSPropertyOp13
 70
     0
102
RTVSPropertyOp14
 70
     2
102
RTVSPropertyOp15
 70
     0
102
RTVSPropertyOp16
 70
     0
102
RTVSPropertyOp17
 70
     0
102
RTVSPropertyOp18
 70
     0
102
RTVSPropertyOp19
 70
     0
102
RTVSPropertyOp20
 70
     0
102
RTVSPropertyOp21
 70
     0
102
RTVSPropertyOp22
 70
     0
102
RTVSPropertyOp23
 70
     0
102
RTVSPropertyOp24
 70
     0
102
RTVSPropertyOp25
 70
     0
102
RTVSPropertyOp26
 70
     0
102
RTVSPropertyOp27
 70
     0
102
RTVSPropertyOp28
 70
     1
102
RTVSPropertyOp29
 70
     1
102
RTVSPropertyOp30
 70
     1
102
RTVSPropertyOp31
 70
     1
102
RTVSPropertyOp32
 70
     1
102
RTVSPropertyOp33
 70
     1
102
RTVSPropertyOp34
 70
     1
102
RTVSPropertyOp35
 70
     1
102
RTVSPropertyOp36
 70
     1
102
RTVSPropertyOp37
 70
     0
102
RTVSPropertyOp38
 70
     0
102
RTVSPropertyOp39
 70
     0
102
RTVSPropertyOp40
 70
     0
102
RTVSPropertyOp41
 70
     0
102
RTVSPropertyOp42
 70
     0
102
RTVSPropertyOp43
 70
     0
102
RTVSPropertyOp44
 70
     0
102
RTVSPropertyOp45
 70
     1
102
RTVSPropertyOp46
 70
     0
102
RTVSPropertyOp47
 70
     0
102
RTVSPropertyOp48
 70
     0
102
RTVSPropertyOp49
 70
     1
102
RTVSPropertyOp50
 70
     0
102
RTVSPropertyOp51
 70
     0
102
RTVSPropertyOp52
 70
     0
102
RTVSPropertyOp53
 70
     0
102
RTVSPropertyOp54
 70
     0
102
RTVSPropertyOp55
 70
     1
102
RTVSPropertyOp56
 70
     0
102
RTVSPropertyOp57
 70
     0
102
RTVSPropertyOp58
 70
     0
102
RTVSPropertyOp59
 70
     0
102
RTVSPropertyOp60
 70
     0
102
RTVSPropertyOp61
 70
     0
102
RTVSPropertyOp62
 70
     0
  0
XRECORD
  5
9B68
102
{ACAD_REACTORS
330
9B67
102
}
330
9B67
100
AcDbXrecord
280
     1
102
RTVSPost2010Prop28
280
     0
102
RTVSPost2010PropOp28
 70
     1
102
RTVSPost2010Prop29
280
     1
102
RTVSPost2010PropOp29
 70
     1
102
RTVSPost2010Prop30
280
     1
102
RTVSPost2010PropOp30
 70
     1
102
RTVSPost2010Prop31
280
     0
102
RTVSPost2010PropOp31
 70
     1
102
RTVSPost2010Prop32
280
     0
102
RTVSPost2010PropOp32
 70
     1
102
RTVSPost2010Prop33
280
     0
102
RTVSPost2010PropOp33
 70
     1
102
RTVSPost2010Prop34
280
     0
102
RTVSPost2010PropOp34
 70
     1
102
RTVSPost2010Prop35
280
     0
102
RTVSPost2010PropOp35
 70
     1
102
RTVSPost2010Prop36
280
     0
102
RTVSPost2010PropOp36
 70
     1
102
RTVSPost2010Prop37
 90
       50
102
RTVSPost2010PropOp37
 70
     1
102
RTVSPost2010Prop38
140
0.0
102
RTVSPost2010PropOp38
 70
     1
102
RTVSPost2010Prop39
140
1.0
102
RTVSPost2010PropOp39
 70
     1
102
RTVSPost2010Prop40
 90
        0
102
RTVSPost2010PropOp40
 70
     1
102
RTVSPost2010Prop41ColorIndex
 90
       18
102
RTVSPost2010Prop41ColorRGB
 90
        0
102
RTVSPost2010PropOp41
 70
     1
102
RTVSPost2010Prop42
 90
       50
102
RTVSPost2010PropOp42
 70
     1
102
RTVSPost2010Prop43
 90
        3
102
RTVSPost2010PropOp43
 70
     1
102
RTVSPost2010Prop44ColorIndex
 90
        5
102
RTVSPost2010Prop44ColorRGB
 90
      255
102
RTVSPost2010PropOp44
 70
     1
102
RTVSPost2010Prop45
280
     0
102
RTVSPost2010PropOp45
 70
     1
102
RTVSPost2010Prop46
 90
       50
102
RTVSPost2010PropOp46
 70
     1
102
RTVSPost2010Prop47
 90
       50
102
RTVSPost2010PropOp47
 70
     1
102
RTVSPost2010Prop48
 90
       50
102
RTVSPost2010PropOp48
 70
     1
102
RTVSPost2010Prop49
280
     0
102
RTVSPost2010PropOp49
 70
     1
102
RTVSPost2010Prop50
 90
       50
102
RTVSPost2010PropOp50
 70
     1
102
RTVSPost2010Prop51ColorIndex
 90
      256
102
RTVSPost2010Prop51ColorRGB
 90
-16777216
102
RTVSPost2010PropOp51
 70
     0
102
RTVSPost2010Prop52
140
1.0
102
RTVSPost2010PropOp52
 70
     0
102
RTVSPost2010Prop53
 90
        2
102
RTVSPost2010PropOp53
 70
     1
102
RTVSPost2010Prop54
  1
strokes_ogs.tif
102
RTVSPost2010PropOp54
 70
     1
102
RTVSPost2010Prop55
280
     0
102
RTVSPost2010PropOp55
 70
     1
102
RTVSPost2010Prop56
140
1.0
102
RTVSPost2010PropOp56
 70
     1
102
RTVSPost2010Prop57
140
1.0
102
RTVSPost2010PropOp57
 70
     1
102
RTVSPropertyOp0
 70
     1
102
RTVSPropertyOp1
 70
     1
102
RTVSPropertyOp2
 70
     1
102
RTVSPropertyOp3
 70
     1
102
RTVSPropertyOp4
 70
     1
102
RTVSPropertyOp5
 70
     1
102
RTVSPropertyOp6
 70
     1
102
RTVSPropertyOp7
 70
     1
102
RTVSPropertyOp8
 70
     1
102
RTVSPropertyOp9
 70
     1
102
RTVSPropertyOp10
 70
     1
102
RTVSPropertyOp11
 70
     1
102
RTVSPropertyOp12
 70
     1
102
RTVSPropertyOp13
 70
     1
102
RTVSPropertyOp14
 70
     1
102
RTVSPropertyOp15
 70
     1
102
RTVSPropertyOp16
 70
     1
102
RTVSPropertyOp17
 70
     1
102
RTVSPropertyOp18
 70
     1
102
RTVSPropertyOp19
 70
     1
102
RTVSPropertyOp20
 70
     1
102
RTVSPropertyOp21
 70
     1
102
RTVSPropertyOp22
 70
     1
102
RTVSPropertyOp23
 70
     1
102
RTVSPropertyOp24
 70
     1
102
RTVSPropertyOp25
 70
     1
102
RTVSPropertyOp26
 70
     1
102
RTVSPropertyOp27
 70
     1
102
RTVSPropertyOp28
 70
     1
102
RTVSPropertyOp29
 70
     1
102
RTVSPropertyOp30
 70
     1
102
RTVSPropertyOp31
 70
     1
102
RTVSPropertyOp32
 70
     1
102
RTVSPropertyOp33
 70
     1
102
RTVSPropertyOp34
 70
     1
102
RTVSPropertyOp35
 70
     1
102
RTVSPropertyOp36
 70
     1
102
RTVSPropertyOp37
 70
     1
102
RTVSPropertyOp38
 70
     1
102
RTVSPropertyOp39
 70
     1
102
RTVSPropertyOp40
 70
     1
102
RTVSPropertyOp41
 70
     1
102
RTVSPropertyOp42
 70
     1
102
RTVSPropertyOp43
 70
     1
102
RTVSPropertyOp44
 70
     1
102
RTVSPropertyOp45
 70
     1
102
RTVSPropertyOp46
 70
     1
102
RTVSPropertyOp47
 70
     1
102
RTVSPropertyOp48
 70
     1
102
RTVSPropertyOp49
 70
     1
102
RTVSPropertyOp50
 70
     1
102
RTVSPropertyOp51
 70
     0
102
RTVSPropertyOp52
 70
     0
102
RTVSPropertyOp53
 70
     1
102
RTVSPropertyOp54
 70
     1
102
RTVSPropertyOp55
 70
     1
102
RTVSPropertyOp56
 70
     1
102
RTVSPropertyOp57
 70
     1
102
RTVSPropertyOp58
 70
     1
102
RTVSPropertyOp59
 70
     1
102
RTVSPropertyOp60
 70
     1
102
RTVSPropertyOp61
 70
     1
102
RTVSPropertyOp62
 70
     1
  0
XRECORD
  5
9B7E
102
{ACAD_REACTORS
330
9B7D
102
}
330
9B7D
100
AcDbXrecord
280
     1
102
RTVSPost2010Prop28
280
     0
102
RTVSPost2010PropOp28
 70
     1
102
RTVSPost2010Prop29
280
     1
102
RTVSPost2010PropOp29
 70
     1
102
RTVSPost2010Prop30
280
     1
102
RTVSPost2010PropOp30
 70
     1
102
RTVSPost2010Prop31
280
     0
102
RTVSPost2010PropOp31
 70
     1
102
RTVSPost2010Prop32
280
     0
102
RTVSPost2010PropOp32
 70
     1
102
RTVSPost2010Prop33
280
     0
102
RTVSPost2010PropOp33
 70
     1
102
RTVSPost2010Prop34
280
     0
102
RTVSPost2010PropOp34
 70
     1
102
RTVSPost2010Prop35
280
     0
102
RTVSPost2010PropOp35
 70
     1
102
RTVSPost2010Prop36
280
     0
102
RTVSPost2010PropOp36
 70
     1
102
RTVSPost2010Prop37
 90
       50
102
RTVSPost2010PropOp37
 70
     1
102
RTVSPost2010Prop38
140
0.0
102
RTVSPost2010PropOp38
 70
     1
102
RTVSPost2010Prop39
140
1.0
102
RTVSPost2010PropOp39
 70
     1
102
RTVSPost2010Prop40
 90
        0
102
RTVSPost2010PropOp40
 70
     1
102
RTVSPost2010Prop41ColorIndex
 90
       18
102
RTVSPost2010Prop41ColorRGB
 90
        0
102
RTVSPost2010PropOp41
 70
     1
102
RTVSPost2010Prop42
 90
       50
102
RTVSPost2010PropOp42
 70
     1
102
RTVSPost2010Prop43
 90
        3
102
RTVSPost2010PropOp43
 70
     1
102
RTVSPost2010Prop44ColorIndex
 90
        5
102
RTVSPost2010Prop44ColorRGB
 90
      255
102
RTVSPost2010PropOp44
 70
     1
102
RTVSPost2010Prop45
280
     0
102
RTVSPost2010PropOp45
 70
     1
102
RTVSPost2010Prop46
 90
       50
102
RTVSPost2010PropOp46
 70
     1
102
RTVSPost2010Prop47
 90
       50
102
RTVSPost2010PropOp47
 70
     1
102
RTVSPost2010Prop48
 90
       50
102
RTVSPost2010PropOp48
 70
     1
102
RTVSPost2010Prop49
280
     0
102
RTVSPost2010PropOp49
 70
     1
102
RTVSPost2010Prop50
 90
       50
102
RTVSPost2010PropOp50
 70
     1
102
RTVSPost2010Prop51ColorIndex
 90
      256
102
RTVSPost2010Prop51ColorRGB
 90
-16777216
102
RTVSPost2010PropOp51
 70
     0
102
RTVSPost2010Prop52
140
1.0
102
RTVSPost2010PropOp52
 70
     0
102
RTVSPost2010Prop53
 90
        2
102
RTVSPost2010PropOp53
 70
     1
102
RTVSPost2010Prop54
  1
strokes_ogs.tif
102
RTVSPost2010PropOp54
 70
     1
102
RTVSPost2010Prop55
280
     0
102
RTVSPost2010PropOp55
 70
     1
102
RTVSPost2010Prop56
140
1.0
102
RTVSPost2010PropOp56
 70
     1
102
RTVSPost2010Prop57
140
1.0
102
RTVSPost2010PropOp57
 70
     1
102
RTVSPropertyOp0
 70
     1
102
RTVSPropertyOp1
 70
     1
102
RTVSPropertyOp2
 70
     1
102
RTVSPropertyOp3
 70
     1
102
RTVSPropertyOp4
 70
     1
102
RTVSPropertyOp5
 70
     1
102
RTVSPropertyOp6
 70
     1
102
RTVSPropertyOp7
 70
     1
102
RTVSPropertyOp8
 70
     1
102
RTVSPropertyOp9
 70
     1
102
RTVSPropertyOp10
 70
     1
102
RTVSPropertyOp11
 70
     1
102
RTVSPropertyOp12
 70
     1
102
RTVSPropertyOp13
 70
     1
102
RTVSPropertyOp14
 70
     1
102
RTVSPropertyOp15
 70
     1
102
RTVSPropertyOp16
 70
     1
102
RTVSPropertyOp17
 70
     1
102
RTVSPropertyOp18
 70
     1
102
RTVSPropertyOp19
 70
     1
102
RTVSPropertyOp20
 70
     1
102
RTVSPropertyOp21
 70
     1
102
RTVSPropertyOp22
 70
     1
102
RTVSPropertyOp23
 70
     1
102
RTVSPropertyOp24
 70
     1
102
RTVSPropertyOp25
 70
     1
102
RTVSPropertyOp26
 70
     1
102
RTVSPropertyOp27
 70
     1
102
RTVSPropertyOp28
 70
     1
102
RTVSPropertyOp29
 70
     1
102
RTVSPropertyOp30
 70
     1
102
RTVSPropertyOp31
 70
     1
102
RTVSPropertyOp32
 70
     1
102
RTVSPropertyOp33
 70
     1
102
RTVSPropertyOp34
 70
     1
102
RTVSPropertyOp35
 70
     1
102
RTVSPropertyOp36
 70
     1
102
RTVSPropertyOp37
 70
     1
102
RTVSPropertyOp38
 70
     1
102
RTVSPropertyOp39
 70
     1
102
RTVSPropertyOp40
 70
     1
102
RTVSPropertyOp41
 70
     1
102
RTVSPropertyOp42
 70
     1
102
RTVSPropertyOp43
 70
     1
102
RTVSPropertyOp44
 70
     1
102
RTVSPropertyOp45
 70
     1
102
RTVSPropertyOp46
 70
     1
102
RTVSPropertyOp47
 70
     1
102
RTVSPropertyOp48
 70
     1
102
RTVSPropertyOp49
 70
     1
102
RTVSPropertyOp50
 70
     1
102
RTVSPropertyOp51
 70
     0
102
RTVSPropertyOp52
 70
     0
102
RTVSPropertyOp53
 70
     1
102
RTVSPropertyOp54
 70
     1
102
RTVSPropertyOp55
 70
     1
102
RTVSPropertyOp56
 70
     1
102
RTVSPropertyOp57
 70
     1
102
RTVSPropertyOp58
 70
     1
102
RTVSPropertyOp59
 70
     1
102
RTVSPropertyOp60
 70
     1
102
RTVSPropertyOp61
 70
     1
102
RTVSPropertyOp62
 70
     1
  0
XRECORD
  5
9B7C
102
{ACAD_REACTORS
330
9B7B
102
}
330
9B7B
100
AcDbXrecord
280
     1
102
RTVSPost2010Prop28
280
     0
102
RTVSPost2010PropOp28
 70
     1
102
RTVSPost2010Prop29
280
     1
102
RTVSPost2010PropOp29
 70
     1
102
RTVSPost2010Prop30
280
     1
102
RTVSPost2010PropOp30
 70
     1
102
RTVSPost2010Prop31
280
     0
102
RTVSPost2010PropOp31
 70
     1
102
RTVSPost2010Prop32
280
     0
102
RTVSPost2010PropOp32
 70
     1
102
RTVSPost2010Prop33
280
     0
102
RTVSPost2010PropOp33
 70
     1
102
RTVSPost2010Prop34
280
     0
102
RTVSPost2010PropOp34
 70
     1
102
RTVSPost2010Prop35
280
     0
102
RTVSPost2010PropOp35
 70
     1
102
RTVSPost2010Prop36
280
     0
102
RTVSPost2010PropOp36
 70
     1
102
RTVSPost2010Prop37
 90
       50
102
RTVSPost2010PropOp37
 70
     1
102
RTVSPost2010Prop38
140
0.0
102
RTVSPost2010PropOp38
 70
     1
102
RTVSPost2010Prop39
140
1.0
102
RTVSPost2010PropOp39
 70
     1
102
RTVSPost2010Prop40
 90
        0
102
RTVSPost2010PropOp40
 70
     1
102
RTVSPost2010Prop41ColorIndex
 90
       18
102
RTVSPost2010Prop41ColorRGB
 90
        0
102
RTVSPost2010PropOp41
 70
     1
102
RTVSPost2010Prop42
 90
       50
102
RTVSPost2010PropOp42
 70
     1
102
RTVSPost2010Prop43
 90
        3
102
RTVSPost2010PropOp43
 70
     1
102
RTVSPost2010Prop44ColorIndex
 90
        5
102
RTVSPost2010Prop44ColorRGB
 90
      255
102
RTVSPost2010PropOp44
 70
     1
102
RTVSPost2010Prop45
280
     0
102
RTVSPost2010PropOp45
 70
     1
102
RTVSPost2010Prop46
 90
       50
102
RTVSPost2010PropOp46
 70
     1
102
RTVSPost2010Prop47
 90
       50
102
RTVSPost2010PropOp47
 70
     1
102
RTVSPost2010Prop48
 90
       50
102
RTVSPost2010PropOp48
 70
     1
102
RTVSPost2010Prop49
280
     0
102
RTVSPost2010PropOp49
 70
     1
102
RTVSPost2010Prop50
 90
       50
102
RTVSPost2010PropOp50
 70
     1
102
RTVSPost2010Prop51ColorIndex
 90
      256
102
RTVSPost2010Prop51ColorRGB
 90
-16777216
102
RTVSPost2010PropOp51
 70
     0
102
RTVSPost2010Prop52
140
1.0
102
RTVSPost2010PropOp52
 70
     0
102
RTVSPost2010Prop53
 90
        2
102
RTVSPost2010PropOp53
 70
     1
102
RTVSPost2010Prop54
  1
strokes_ogs.tif
102
RTVSPost2010PropOp54
 70
     1
102
RTVSPost2010Prop55
280
     0
102
RTVSPost2010PropOp55
 70
     1
102
RTVSPost2010Prop56
140
1.0
102
RTVSPost2010PropOp56
 70
     1
102
RTVSPost2010Prop57
140
1.0
102
RTVSPost2010PropOp57
 70
     1
102
RTVSPropertyOp0
 70
     1
102
RTVSPropertyOp1
 70
     1
102
RTVSPropertyOp2
 70
     1
102
RTVSPropertyOp3
 70
     1
102
RTVSPropertyOp4
 70
     1
102
RTVSPropertyOp5
 70
     1
102
RTVSPropertyOp6
 70
     1
102
RTVSPropertyOp7
 70
     1
102
RTVSPropertyOp8
 70
     1
102
RTVSPropertyOp9
 70
     1
102
RTVSPropertyOp10
 70
     1
102
RTVSPropertyOp11
 70
     1
102
RTVSPropertyOp12
 70
     1
102
RTVSPropertyOp13
 70
     1
102
RTVSPropertyOp14
 70
     1
102
RTVSPropertyOp15
 70
     1
102
RTVSPropertyOp16
 70
     1
102
RTVSPropertyOp17
 70
     1
102
RTVSPropertyOp18
 70
     1
102
RTVSPropertyOp19
 70
     1
102
RTVSPropertyOp20
 70
     1
102
RTVSPropertyOp21
 70
     1
102
RTVSPropertyOp22
 70
     1
102
RTVSPropertyOp23
 70
     1
102
RTVSPropertyOp24
 70
     1
102
RTVSPropertyOp25
 70
     1
102
RTVSPropertyOp26
 70
     1
102
RTVSPropertyOp27
 70
     1
102
RTVSPropertyOp28
 70
     1
102
RTVSPropertyOp29
 70
     1
102
RTVSPropertyOp30
 70
     1
102
RTVSPropertyOp31
 70
     1
102
RTVSPropertyOp32
 70
     1
102
RTVSPropertyOp33
 70
     1
102
RTVSPropertyOp34
 70
     1
102
RTVSPropertyOp35
 70
     1
102
RTVSPropertyOp36
 70
     1
102
RTVSPropertyOp37
 70
     1
102
RTVSPropertyOp38
 70
     1
102
RTVSPropertyOp39
 70
     1
102
RTVSPropertyOp40
 70
     1
102
RTVSPropertyOp41
 70
     1
102
RTVSPropertyOp42
 70
     1
102
RTVSPropertyOp43
 70
     1
102
RTVSPropertyOp44
 70
     1
102
RTVSPropertyOp45
 70
     1
102
RTVSPropertyOp46
 70
     1
102
RTVSPropertyOp47
 70
     1
102
RTVSPropertyOp48
 70
     1
102
RTVSPropertyOp49
 70
     1
102
RTVSPropertyOp50
 70
     1
102
RTVSPropertyOp51
 70
     0
102
RTVSPropertyOp52
 70
     0
102
RTVSPropertyOp53
 70
     1
102
RTVSPropertyOp54
 70
     1
102
RTVSPropertyOp55
 70
     1
102
RTVSPropertyOp56
 70
     1
102
RTVSPropertyOp57
 70
     1
102
RTVSPropertyOp58
 70
     1
102
RTVSPropertyOp59
 70
     1
102
RTVSPropertyOp60
 70
     1
102
RTVSPropertyOp61
 70
     1
102
RTVSPropertyOp62
 70
     1
  0
XRECORD
  5
9B76
102
{ACAD_REACTORS
330
9B75
102
}
330
9B75
100
AcDbXrecord
280
     1
102
RTVSPost2010Prop28
280
     0
102
RTVSPost2010PropOp28
 70
     1
102
RTVSPost2010Prop29
280
     1
102
RTVSPost2010PropOp29
 70
     1
102
RTVSPost2010Prop30
280
     1
102
RTVSPost2010PropOp30
 70
     1
102
RTVSPost2010Prop31
280
     0
102
RTVSPost2010PropOp31
 70
     1
102
RTVSPost2010Prop32
280
     0
102
RTVSPost2010PropOp32
 70
     1
102
RTVSPost2010Prop33
280
     0
102
RTVSPost2010PropOp33
 70
     1
102
RTVSPost2010Prop34
280
     0
102
RTVSPost2010PropOp34
 70
     1
102
RTVSPost2010Prop35
280
     0
102
RTVSPost2010PropOp35
 70
     1
102
RTVSPost2010Prop36
280
     0
102
RTVSPost2010PropOp36
 70
     1
102
RTVSPost2010Prop37
 90
       50
102
RTVSPost2010PropOp37
 70
     1
102
RTVSPost2010Prop38
140
0.0
102
RTVSPost2010PropOp38
 70
     1
102
RTVSPost2010Prop39
140
1.0
102
RTVSPost2010PropOp39
 70
     1
102
RTVSPost2010Prop40
 90
        0
102
RTVSPost2010PropOp40
 70
     1
102
RTVSPost2010Prop41ColorIndex
 90
       18
102
RTVSPost2010Prop41ColorRGB
 90
        0
102
RTVSPost2010PropOp41
 70
     1
102
RTVSPost2010Prop42
 90
       50
102
RTVSPost2010PropOp42
 70
     1
102
RTVSPost2010Prop43
 90
        3
102
RTVSPost2010PropOp43
 70
     1
102
RTVSPost2010Prop44ColorIndex
 90
        5
102
RTVSPost2010Prop44ColorRGB
 90
      255
102
RTVSPost2010PropOp44
 70
     1
102
RTVSPost2010Prop45
280
     0
102
RTVSPost2010PropOp45
 70
     1
102
RTVSPost2010Prop46
 90
       50
102
RTVSPost2010PropOp46
 70
     1
102
RTVSPost2010Prop47
 90
       50
102
RTVSPost2010PropOp47
 70
     1
102
RTVSPost2010Prop48
 90
       50
102
RTVSPost2010PropOp48
 70
     1
102
RTVSPost2010Prop49
280
     0
102
RTVSPost2010PropOp49
 70
     1
102
RTVSPost2010Prop50
 90
       50
102
RTVSPost2010PropOp50
 70
     1
102
RTVSPost2010Prop51ColorIndex
 90
      256
102
RTVSPost2010Prop51ColorRGB
 90
-16777216
102
RTVSPost2010PropOp51
 70
     0
102
RTVSPost2010Prop52
140
1.0
102
RTVSPost2010PropOp52
 70
     0
102
RTVSPost2010Prop53
 90
        2
102
RTVSPost2010PropOp53
 70
     1
102
RTVSPost2010Prop54
  1
strokes_ogs.tif
102
RTVSPost2010PropOp54
 70
     1
102
RTVSPost2010Prop55
280
     0
102
RTVSPost2010PropOp55
 70
     1
102
RTVSPost2010Prop56
140
1.0
102
RTVSPost2010PropOp56
 70
     1
102
RTVSPost2010Prop57
140
1.0
102
RTVSPost2010PropOp57
 70
     1
102
RTVSPropertyOp0
 70
     1
102
RTVSPropertyOp1
 70
     1
102
RTVSPropertyOp2
 70
     1
102
RTVSPropertyOp3
 70
     1
102
RTVSPropertyOp4
 70
     1
102
RTVSPropertyOp5
 70
     1
102
RTVSPropertyOp6
 70
     1
102
RTVSPropertyOp7
 70
     1
102
RTVSPropertyOp8
 70
     1
102
RTVSPropertyOp9
 70
     1
102
RTVSPropertyOp10
 70
     1
102
RTVSPropertyOp11
 70
     1
102
RTVSPropertyOp12
 70
     1
102
RTVSPropertyOp13
 70
     1
102
RTVSPropertyOp14
 70
     1
102
RTVSPropertyOp15
 70
     1
102
RTVSPropertyOp16
 70
     1
102
RTVSPropertyOp17
 70
     1
102
RTVSPropertyOp18
 70
     1
102
RTVSPropertyOp19
 70
     1
102
RTVSPropertyOp20
 70
     1
102
RTVSPropertyOp21
 70
     1
102
RTVSPropertyOp22
 70
     1
102
RTVSPropertyOp23
 70
     1
102
RTVSPropertyOp24
 70
     1
102
RTVSPropertyOp25
 70
     1
102
RTVSPropertyOp26
 70
     1
102
RTVSPropertyOp27
 70
     1
102
RTVSPropertyOp28
 70
     1
102
RTVSPropertyOp29
 70
     1
102
RTVSPropertyOp30
 70
     1
102
RTVSPropertyOp31
 70
     1
102
RTVSPropertyOp32
 70
     1
102
RTVSPropertyOp33
 70
     1
102
RTVSPropertyOp34
 70
     1
102
RTVSPropertyOp35
 70
     1
102
RTVSPropertyOp36
 70
     1
102
RTVSPropertyOp37
 70
     1
102
RTVSPropertyOp38
 70
     1
102
RTVSPropertyOp39
 70
     1
102
RTVSPropertyOp40
 70
     1
102
RTVSPropertyOp41
 70
     1
102
RTVSPropertyOp42
 70
     1
102
RTVSPropertyOp43
 70
     1
102
RTVSPropertyOp44
 70
     1
102
RTVSPropertyOp45
 70
     1
102
RTVSPropertyOp46
 70
     1
102
RTVSPropertyOp47
 70
     1
102
RTVSPropertyOp48
 70
     1
102
RTVSPropertyOp49
 70
     1
102
RTVSPropertyOp50
 70
     1
102
RTVSPropertyOp51
 70
     0
102
RTVSPropertyOp52
 70
     0
102
RTVSPropertyOp53
 70
     1
102
RTVSPropertyOp54
 70
     1
102
RTVSPropertyOp55
 70
     1
102
RTVSPropertyOp56
 70
     1
102
RTVSPropertyOp57
 70
     1
102
RTVSPropertyOp58
 70
     1
102
RTVSPropertyOp59
 70
     1
102
RTVSPropertyOp60
 70
     1
102
RTVSPropertyOp61
 70
     1
102
RTVSPropertyOp62
 70
     1
  0
XRECORD
  5
9B78
102
{ACAD_REACTORS
330
9B77
102
}
330
9B77
100
AcDbXrecord
280
     1
102
RTVSPost2010Prop28
280
     0
102
RTVSPost2010PropOp28
 70
     1
102
RTVSPost2010Prop29
280
     1
102
RTVSPost2010PropOp29
 70
     1
102
RTVSPost2010Prop30
280
     1
102
RTVSPost2010PropOp30
 70
     1
102
RTVSPost2010Prop31
280
     0
102
RTVSPost2010PropOp31
 70
     1
102
RTVSPost2010Prop32
280
     0
102
RTVSPost2010PropOp32
 70
     1
102
RTVSPost2010Prop33
280
     0
102
RTVSPost2010PropOp33
 70
     1
102
RTVSPost2010Prop34
280
     0
102
RTVSPost2010PropOp34
 70
     1
102
RTVSPost2010Prop35
280
     0
102
RTVSPost2010PropOp35
 70
     1
102
RTVSPost2010Prop36
280
     0
102
RTVSPost2010PropOp36
 70
     1
102
RTVSPost2010Prop37
 90
       50
102
RTVSPost2010PropOp37
 70
     1
102
RTVSPost2010Prop38
140
0.0
102
RTVSPost2010PropOp38
 70
     1
102
RTVSPost2010Prop39
140
1.0
102
RTVSPost2010PropOp39
 70
     1
102
RTVSPost2010Prop40
 90
        0
102
RTVSPost2010PropOp40
 70
     1
102
RTVSPost2010Prop41ColorIndex
 90
       18
102
RTVSPost2010Prop41ColorRGB
 90
        0
102
RTVSPost2010PropOp41
 70
     1
102
RTVSPost2010Prop42
 90
       50
102
RTVSPost2010PropOp42
 70
     1
102
RTVSPost2010Prop43
 90
        3
102
RTVSPost2010PropOp43
 70
     1
102
RTVSPost2010Prop44ColorIndex
 90
        5
102
RTVSPost2010Prop44ColorRGB
 90
      255
102
RTVSPost2010PropOp44
 70
     1
102
RTVSPost2010Prop45
280
     0
102
RTVSPost2010PropOp45
 70
     1
102
RTVSPost2010Prop46
 90
       50
102
RTVSPost2010PropOp46
 70
     1
102
RTVSPost2010Prop47
 90
       50
102
RTVSPost2010PropOp47
 70
     1
102
RTVSPost2010Prop48
 90
       50
102
RTVSPost2010PropOp48
 70
     1
102
RTVSPost2010Prop49
280
     0
102
RTVSPost2010PropOp49
 70
     1
102
RTVSPost2010Prop50
 90
       50
102
RTVSPost2010PropOp50
 70
     1
102
RTVSPost2010Prop51ColorIndex
 90
      256
102
RTVSPost2010Prop51ColorRGB
 90
-16777216
102
RTVSPost2010PropOp51
 70
     0
102
RTVSPost2010Prop52
140
1.0
102
RTVSPost2010PropOp52
 70
     0
102
RTVSPost2010Prop53
 90
        2
102
RTVSPost2010PropOp53
 70
     1
102
RTVSPost2010Prop54
  1
strokes_ogs.tif
102
RTVSPost2010PropOp54
 70
     1
102
RTVSPost2010Prop55
280
     0
102
RTVSPost2010PropOp55
 70
     1
102
RTVSPost2010Prop56
140
1.0
102
RTVSPost2010PropOp56
 70
     1
102
RTVSPost2010Prop57
140
1.0
102
RTVSPost2010PropOp57
 70
     1
102
RTVSPropertyOp0
 70
     1
102
RTVSPropertyOp1
 70
     1
102
RTVSPropertyOp2
 70
     1
102
RTVSPropertyOp3
 70
     1
102
RTVSPropertyOp4
 70
     1
102
RTVSPropertyOp5
 70
     1
102
RTVSPropertyOp6
 70
     1
102
RTVSPropertyOp7
 70
     1
102
RTVSPropertyOp8
 70
     1
102
RTVSPropertyOp9
 70
     1
102
RTVSPropertyOp10
 70
     1
102
RTVSPropertyOp11
 70
     1
102
RTVSPropertyOp12
 70
     1
102
RTVSPropertyOp13
 70
     1
102
RTVSPropertyOp14
 70
     1
102
RTVSPropertyOp15
 70
     1
102
RTVSPropertyOp16
 70
     1
102
RTVSPropertyOp17
 70
     1
102
RTVSPropertyOp18
 70
     1
102
RTVSPropertyOp19
 70
     1
102
RTVSPropertyOp20
 70
     1
102
RTVSPropertyOp21
 70
     1
102
RTVSPropertyOp22
 70
     1
102
RTVSPropertyOp23
 70
     1
102
RTVSPropertyOp24
 70
     1
102
RTVSPropertyOp25
 70
     1
102
RTVSPropertyOp26
 70
     1
102
RTVSPropertyOp27
 70
     1
102
RTVSPropertyOp28
 70
     1
102
RTVSPropertyOp29
 70
     1
102
RTVSPropertyOp30
 70
     1
102
RTVSPropertyOp31
 70
     1
102
RTVSPropertyOp32
 70
     1
102
RTVSPropertyOp33
 70
     1
102
RTVSPropertyOp34
 70
     1
102
RTVSPropertyOp35
 70
     1
102
RTVSPropertyOp36
 70
     1
102
RTVSPropertyOp37
 70
     1
102
RTVSPropertyOp38
 70
     1
102
RTVSPropertyOp39
 70
     1
102
RTVSPropertyOp40
 70
     1
102
RTVSPropertyOp41
 70
     1
102
RTVSPropertyOp42
 70
     1
102
RTVSPropertyOp43
 70
     1
102
RTVSPropertyOp44
 70
     1
102
RTVSPropertyOp45
 70
     1
102
RTVSPropertyOp46
 70
     1
102
RTVSPropertyOp47
 70
     1
102
RTVSPropertyOp48
 70
     1
102
RTVSPropertyOp49
 70
     1
102
RTVSPropertyOp50
 70
     1
102
RTVSPropertyOp51
 70
     0
102
RTVSPropertyOp52
 70
     0
102
RTVSPropertyOp53
 70
     1
102
RTVSPropertyOp54
 70
     1
102
RTVSPropertyOp55
 70
     1
102
RTVSPropertyOp56
 70
     1
102
RTVSPropertyOp57
 70
     1
102
RTVSPropertyOp58
 70
     1
102
RTVSPropertyOp59
 70
     1
102
RTVSPropertyOp60
 70
     1
102
RTVSPropertyOp61
 70
     1
102
RTVSPropertyOp62
 70
     1
  0
XRECORD
  5
9B6E
102
{ACAD_REACTORS
330
9B6D
102
}
330
9B6D
100
AcDbXrecord
280
     1
102
RTVSPost2010Prop28
280
     0
102
RTVSPost2010PropOp28
 70
     1
102
RTVSPost2010Prop29
280
     1
102
RTVSPost2010PropOp29
 70
     1
102
RTVSPost2010Prop30
280
     1
102
RTVSPost2010PropOp30
 70
     1
102
RTVSPost2010Prop31
280
     0
102
RTVSPost2010PropOp31
 70
     1
102
RTVSPost2010Prop32
280
     0
102
RTVSPost2010PropOp32
 70
     1
102
RTVSPost2010Prop33
280
     0
102
RTVSPost2010PropOp33
 70
     1
102
RTVSPost2010Prop34
280
     0
102
RTVSPost2010PropOp34
 70
     1
102
RTVSPost2010Prop35
280
     0
102
RTVSPost2010PropOp35
 70
     1
102
RTVSPost2010Prop36
280
     0
102
RTVSPost2010PropOp36
 70
     1
102
RTVSPost2010Prop37
 90
       50
102
RTVSPost2010PropOp37
 70
     1
102
RTVSPost2010Prop38
140
0.0
102
RTVSPost2010PropOp38
 70
     1
102
RTVSPost2010Prop39
140
1.0
102
RTVSPost2010PropOp39
 70
     1
102
RTVSPost2010Prop40
 90
        0
102
RTVSPost2010PropOp40
 70
     1
102
RTVSPost2010Prop41ColorIndex
 90
       18
102
RTVSPost2010Prop41ColorRGB
 90
        0
102
RTVSPost2010PropOp41
 70
     1
102
RTVSPost2010Prop42
 90
       50
102
RTVSPost2010PropOp42
 70
     1
102
RTVSPost2010Prop43
 90
        3
102
RTVSPost2010PropOp43
 70
     1
102
RTVSPost2010Prop44ColorIndex
 90
        5
102
RTVSPost2010Prop44ColorRGB
 90
      255
102
RTVSPost2010PropOp44
 70
     1
102
RTVSPost2010Prop45
280
     0
102
RTVSPost2010PropOp45
 70
     1
102
RTVSPost2010Prop46
 90
       50
102
RTVSPost2010PropOp46
 70
     1
102
RTVSPost2010Prop47
 90
       50
102
RTVSPost2010PropOp47
 70
     1
102
RTVSPost2010Prop48
 90
       50
102
RTVSPost2010PropOp48
 70
     1
102
RTVSPost2010Prop49
280
     0
102
RTVSPost2010PropOp49
 70
     1
102
RTVSPost2010Prop50
 90
       50
102
RTVSPost2010PropOp50
 70
     1
102
RTVSPost2010Prop51ColorIndex
 90
      256
102
RTVSPost2010Prop51ColorRGB
 90
-16777216
102
RTVSPost2010PropOp51
 70
     0
102
RTVSPost2010Prop52
140
1.0
102
RTVSPost2010PropOp52
 70
     0
102
RTVSPost2010Prop53
 90
        2
102
RTVSPost2010PropOp53
 70
     1
102
RTVSPost2010Prop54
  1
strokes_ogs.tif
102
RTVSPost2010PropOp54
 70
     1
102
RTVSPost2010Prop55
280
     0
102
RTVSPost2010PropOp55
 70
     1
102
RTVSPost2010Prop56
140
1.0
102
RTVSPost2010PropOp56
 70
     1
102
RTVSPost2010Prop57
140
1.0
102
RTVSPost2010PropOp57
 70
     1
102
RTVSPropertyOp0
 70
     1
102
RTVSPropertyOp1
 70
     1
102
RTVSPropertyOp2
 70
     1
102
RTVSPropertyOp3
 70
     1
102
RTVSPropertyOp4
 70
     1
102
RTVSPropertyOp5
 70
     1
102
RTVSPropertyOp6
 70
     1
102
RTVSPropertyOp7
 70
     1
102
RTVSPropertyOp8
 70
     1
102
RTVSPropertyOp9
 70
     1
102
RTVSPropertyOp10
 70
     1
102
RTVSPropertyOp11
 70
     1
102
RTVSPropertyOp12
 70
     1
102
RTVSPropertyOp13
 70
     1
102
RTVSPropertyOp14
 70
     1
102
RTVSPropertyOp15
 70
     1
102
RTVSPropertyOp16
 70
     1
102
RTVSPropertyOp17
 70
     1
102
RTVSPropertyOp18
 70
     1
102
RTVSPropertyOp19
 70
     1
102
RTVSPropertyOp20
 70
     1
102
RTVSPropertyOp21
 70
     1
102
RTVSPropertyOp22
 70
     1
102
RTVSPropertyOp23
 70
     1
102
RTVSPropertyOp24
 70
     1
102
RTVSPropertyOp25
 70
     1
102
RTVSPropertyOp26
 70
     1
102
RTVSPropertyOp27
 70
     1
102
RTVSPropertyOp28
 70
     1
102
RTVSPropertyOp29
 70
     1
102
RTVSPropertyOp30
 70
     1
102
RTVSPropertyOp31
 70
     1
102
RTVSPropertyOp32
 70
     1
102
RTVSPropertyOp33
 70
     1
102
RTVSPropertyOp34
 70
     1
102
RTVSPropertyOp35
 70
     1
102
RTVSPropertyOp36
 70
     1
102
RTVSPropertyOp37
 70
     1
102
RTVSPropertyOp38
 70
     1
102
RTVSPropertyOp39
 70
     1
102
RTVSPropertyOp40
 70
     1
102
RTVSPropertyOp41
 70
     1
102
RTVSPropertyOp42
 70
     1
102
RTVSPropertyOp43
 70
     1
102
RTVSPropertyOp44
 70
     1
102
RTVSPropertyOp45
 70
     1
102
RTVSPropertyOp46
 70
     1
102
RTVSPropertyOp47
 70
     1
102
RTVSPropertyOp48
 70
     1
102
RTVSPropertyOp49
 70
     1
102
RTVSPropertyOp50
 70
     1
102
RTVSPropertyOp51
 70
     0
102
RTVSPropertyOp52
 70
     0
102
RTVSPropertyOp53
 70
     1
102
RTVSPropertyOp54
 70
     1
102
RTVSPropertyOp55
 70
     1
102
RTVSPropertyOp56
 70
     1
102
RTVSPropertyOp57
 70
     1
102
RTVSPropertyOp58
 70
     1
102
RTVSPropertyOp59
 70
     1
102
RTVSPropertyOp60
 70
     1
102
RTVSPropertyOp61
 70
     1
102
RTVSPropertyOp62
 70
     1
  0
XRECORD
  5
9B62
102
{ACAD_REACTORS
330
9B61
102
}
330
9B61
100
AcDbXrecord
280
     1
102
RTVSPost2010Prop28
280
     0
102
RTVSPost2010PropOp28
 70
     1
102
RTVSPost2010Prop29
280
     1
102
RTVSPost2010PropOp29
 70
     1
102
RTVSPost2010Prop30
280
     1
102
RTVSPost2010PropOp30
 70
     1
102
RTVSPost2010Prop31
280
     0
102
RTVSPost2010PropOp31
 70
     1
102
RTVSPost2010Prop32
280
     0
102
RTVSPost2010PropOp32
 70
     1
102
RTVSPost2010Prop33
280
     0
102
RTVSPost2010PropOp33
 70
     1
102
RTVSPost2010Prop34
280
     0
102
RTVSPost2010PropOp34
 70
     1
102
RTVSPost2010Prop35
280
     0
102
RTVSPost2010PropOp35
 70
     1
102
RTVSPost2010Prop36
280
     0
102
RTVSPost2010PropOp36
 70
     1
102
RTVSPost2010Prop37
 90
       50
102
RTVSPost2010PropOp37
 70
     1
102
RTVSPost2010Prop38
140
0.0
102
RTVSPost2010PropOp38
 70
     1
102
RTVSPost2010Prop39
140
1.0
102
RTVSPost2010PropOp39
 70
     1
102
RTVSPost2010Prop40
 90
        0
102
RTVSPost2010PropOp40
 70
     1
102
RTVSPost2010Prop41ColorIndex
 90
       18
102
RTVSPost2010Prop41ColorRGB
 90
        0
102
RTVSPost2010PropOp41
 70
     1
102
RTVSPost2010Prop42
 90
       50
102
RTVSPost2010PropOp42
 70
     1
102
RTVSPost2010Prop43
 90
        3
102
RTVSPost2010PropOp43
 70
     1
102
RTVSPost2010Prop44ColorIndex
 90
        5
102
RTVSPost2010Prop44ColorRGB
 90
      255
102
RTVSPost2010PropOp44
 70
     1
102
RTVSPost2010Prop45
280
     0
102
RTVSPost2010PropOp45
 70
     1
102
RTVSPost2010Prop46
 90
       50
102
RTVSPost2010PropOp46
 70
     1
102
RTVSPost2010Prop47
 90
       50
102
RTVSPost2010PropOp47
 70
     1
102
RTVSPost2010Prop48
 90
       50
102
RTVSPost2010PropOp48
 70
     1
102
RTVSPost2010Prop49
280
     0
102
RTVSPost2010PropOp49
 70
     1
102
RTVSPost2010Prop50
 90
       50
102
RTVSPost2010PropOp50
 70
     1
102
RTVSPost2010Prop51ColorIndex
 90
      256
102
RTVSPost2010Prop51ColorRGB
 90
-16777216
102
RTVSPost2010PropOp51
 70
     0
102
RTVSPost2010Prop52
140
1.0
102
RTVSPost2010PropOp52
 70
     0
102
RTVSPost2010Prop53
 90
        2
102
RTVSPost2010PropOp53
 70
     1
102
RTVSPost2010Prop54
  1
strokes_ogs.tif
102
RTVSPost2010PropOp54
 70
     1
102
RTVSPost2010Prop55
280
     0
102
RTVSPost2010PropOp55
 70
     1
102
RTVSPost2010Prop56
140
1.0
102
RTVSPost2010PropOp56
 70
     1
102
RTVSPost2010Prop57
140
1.0
102
RTVSPost2010PropOp57
 70
     1
102
RTVSPropertyOp0
 70
     1
102
RTVSPropertyOp1
 70
     1
102
RTVSPropertyOp2
 70
     1
102
RTVSPropertyOp3
 70
     1
102
RTVSPropertyOp4
 70
     1
102
RTVSPropertyOp5
 70
     1
102
RTVSPropertyOp6
 70
     1
102
RTVSPropertyOp7
 70
     1
102
RTVSPropertyOp8
 70
     1
102
RTVSPropertyOp9
 70
     1
102
RTVSPropertyOp10
 70
     1
102
RTVSPropertyOp11
 70
     1
102
RTVSPropertyOp12
 70
     1
102
RTVSPropertyOp13
 70
     1
102
RTVSPropertyOp14
 70
     1
102
RTVSPropertyOp15
 70
     1
102
RTVSPropertyOp16
 70
     1
102
RTVSPropertyOp17
 70
     1
102
RTVSPropertyOp18
 70
     1
102
RTVSPropertyOp19
 70
     1
102
RTVSPropertyOp20
 70
     1
102
RTVSPropertyOp21
 70
     1
102
RTVSPropertyOp22
 70
     1
102
RTVSPropertyOp23
 70
     1
102
RTVSPropertyOp24
 70
     1
102
RTVSPropertyOp25
 70
     1
102
RTVSPropertyOp26
 70
     1
102
RTVSPropertyOp27
 70
     1
102
RTVSPropertyOp28
 70
     1
102
RTVSPropertyOp29
 70
     1
102
RTVSPropertyOp30
 70
     1
102
RTVSPropertyOp31
 70
     1
102
RTVSPropertyOp32
 70
     1
102
RTVSPropertyOp33
 70
     1
102
RTVSPropertyOp34
 70
     1
102
RTVSPropertyOp35
 70
     1
102
RTVSPropertyOp36
 70
     1
102
RTVSPropertyOp37
 70
     1
102
RTVSPropertyOp38
 70
     1
102
RTVSPropertyOp39
 70
     1
102
RTVSPropertyOp40
 70
     1
102
RTVSPropertyOp41
 70
     1
102
RTVSPropertyOp42
 70
     1
102
RTVSPropertyOp43
 70
     1
102
RTVSPropertyOp44
 70
     1
102
RTVSPropertyOp45
 70
     1
102
RTVSPropertyOp46
 70
     1
102
RTVSPropertyOp47
 70
     1
102
RTVSPropertyOp48
 70
     1
102
RTVSPropertyOp49
 70
     1
102
RTVSPropertyOp50
 70
     1
102
RTVSPropertyOp51
 70
     0
102
RTVSPropertyOp52
 70
     0
102
RTVSPropertyOp53
 70
     1
102
RTVSPropertyOp54
 70
     1
102
RTVSPropertyOp55
 70
     1
102
RTVSPropertyOp56
 70
     1
102
RTVSPropertyOp57
 70
     1
102
RTVSPropertyOp58
 70
     1
102
RTVSPropertyOp59
 70
     1
102
RTVSPropertyOp60
 70
     1
102
RTVSPropertyOp61
 70
     1
102
RTVSPropertyOp62
 70
     1
  0
XRECORD
  5
9B7A
102
{ACAD_REACTORS
330
9B79
102
}
330
9B79
100
AcDbXrecord
280
     1
102
RTVSPost2010Prop28
280
     0
102
RTVSPost2010PropOp28
 70
     1
102
RTVSPost2010Prop29
280
     1
102
RTVSPost2010PropOp29
 70
     1
102
RTVSPost2010Prop30
280
     1
102
RTVSPost2010PropOp30
 70
     1
102
RTVSPost2010Prop31
280
     0
102
RTVSPost2010PropOp31
 70
     1
102
RTVSPost2010Prop32
280
     0
102
RTVSPost2010PropOp32
 70
     1
102
RTVSPost2010Prop33
280
     0
102
RTVSPost2010PropOp33
 70
     1
102
RTVSPost2010Prop34
280
     0
102
RTVSPost2010PropOp34
 70
     1
102
RTVSPost2010Prop35
280
     0
102
RTVSPost2010PropOp35
 70
     1
102
RTVSPost2010Prop36
280
     0
102
RTVSPost2010PropOp36
 70
     1
102
RTVSPost2010Prop37
 90
       50
102
RTVSPost2010PropOp37
 70
     1
102
RTVSPost2010Prop38
140
0.0
102
RTVSPost2010PropOp38
 70
     1
102
RTVSPost2010Prop39
140
1.0
102
RTVSPost2010PropOp39
 70
     1
102
RTVSPost2010Prop40
 90
        0
102
RTVSPost2010PropOp40
 70
     1
102
RTVSPost2010Prop41ColorIndex
 90
       18
102
RTVSPost2010Prop41ColorRGB
 90
        0
102
RTVSPost2010PropOp41
 70
     1
102
RTVSPost2010Prop42
 90
       50
102
RTVSPost2010PropOp42
 70
     1
102
RTVSPost2010Prop43
 90
        3
102
RTVSPost2010PropOp43
 70
     1
102
RTVSPost2010Prop44ColorIndex
 90
        5
102
RTVSPost2010Prop44ColorRGB
 90
      255
102
RTVSPost2010PropOp44
 70
     1
102
RTVSPost2010Prop45
280
     0
102
RTVSPost2010PropOp45
 70
     1
102
RTVSPost2010Prop46
 90
       50
102
RTVSPost2010PropOp46
 70
     1
102
RTVSPost2010Prop47
 90
       50
102
RTVSPost2010PropOp47
 70
     1
102
RTVSPost2010Prop48
 90
       50
102
RTVSPost2010PropOp48
 70
     1
102
RTVSPost2010Prop49
280
     0
102
RTVSPost2010PropOp49
 70
     1
102
RTVSPost2010Prop50
 90
       50
102
RTVSPost2010PropOp50
 70
     1
102
RTVSPost2010Prop51ColorIndex
 90
      256
102
RTVSPost2010Prop51ColorRGB
 90
-16777216
102
RTVSPost2010PropOp51
 70
     0
102
RTVSPost2010Prop52
140
1.0
102
RTVSPost2010PropOp52
 70
     0
102
RTVSPost2010Prop53
 90
        2
102
RTVSPost2010PropOp53
 70
     1
102
RTVSPost2010Prop54
  1
strokes_ogs.tif
102
RTVSPost2010PropOp54
 70
     1
102
RTVSPost2010Prop55
280
     0
102
RTVSPost2010PropOp55
 70
     1
102
RTVSPost2010Prop56
140
1.0
102
RTVSPost2010PropOp56
 70
     1
102
RTVSPost2010Prop57
140
1.0
102
RTVSPost2010PropOp57
 70
     1
102
RTVSPropertyOp0
 70
     1
102
RTVSPropertyOp1
 70
     1
102
RTVSPropertyOp2
 70
     1
102
RTVSPropertyOp3
 70
     1
102
RTVSPropertyOp4
 70
     1
102
RTVSPropertyOp5
 70
     1
102
RTVSPropertyOp6
 70
     1
102
RTVSPropertyOp7
 70
     1
102
RTVSPropertyOp8
 70
     1
102
RTVSPropertyOp9
 70
     1
102
RTVSPropertyOp10
 70
     1
102
RTVSPropertyOp11
 70
     1
102
RTVSPropertyOp12
 70
     1
102
RTVSPropertyOp13
 70
     1
102
RTVSPropertyOp14
 70
     1
102
RTVSPropertyOp15
 70
     1
102
RTVSPropertyOp16
 70
     1
102
RTVSPropertyOp17
 70
     1
102
RTVSPropertyOp18
 70
     1
102
RTVSPropertyOp19
 70
     1
102
RTVSPropertyOp20
 70
     1
102
RTVSPropertyOp21
 70
     1
102
RTVSPropertyOp22
 70
     1
102
RTVSPropertyOp23
 70
     1
102
RTVSPropertyOp24
 70
     1
102
RTVSPropertyOp25
 70
     1
102
RTVSPropertyOp26
 70
     1
102
RTVSPropertyOp27
 70
     1
102
RTVSPropertyOp28
 70
     1
102
RTVSPropertyOp29
 70
     1
102
RTVSPropertyOp30
 70
     1
102
RTVSPropertyOp31
 70
     1
102
RTVSPropertyOp32
 70
     1
102
RTVSPropertyOp33
 70
     1
102
RTVSPropertyOp34
 70
     1
102
RTVSPropertyOp35
 70
     1
102
RTVSPropertyOp36
 70
     1
102
RTVSPropertyOp37
 70
     1
102
RTVSPropertyOp38
 70
     1
102
RTVSPropertyOp39
 70
     1
102
RTVSPropertyOp40
 70
     1
102
RTVSPropertyOp41
 70
     1
102
RTVSPropertyOp42
 70
     1
102
RTVSPropertyOp43
 70
     1
102
RTVSPropertyOp44
 70
     1
102
RTVSPropertyOp45
 70
     1
102
RTVSPropertyOp46
 70
     1
102
RTVSPropertyOp47
 70
     1
102
RTVSPropertyOp48
 70
     1
102
RTVSPropertyOp49
 70
     1
102
RTVSPropertyOp50
 70
     1
102
RTVSPropertyOp51
 70
     0
102
RTVSPropertyOp52
 70
     0
102
RTVSPropertyOp53
 70
     1
102
RTVSPropertyOp54
 70
     1
102
RTVSPropertyOp55
 70
     1
102
RTVSPropertyOp56
 70
     1
102
RTVSPropertyOp57
 70
     1
102
RTVSPropertyOp58
 70
     1
102
RTVSPropertyOp59
 70
     1
102
RTVSPropertyOp60
 70
     1
102
RTVSPropertyOp61
 70
     1
102
RTVSPropertyOp62
 70
     1
  0
ENDSEC
  0
EOF
