  0
SECTION
  2
HEADER
  9
$ACADVER
  1
AC1015
  9
$ACADMAINTVER
 70
    20
  9
$DWGCODEPAGE
  3
ANSI_932
  9
$INSBASE
 10
0.0
 20
0.0
 30
0.0
  9
$EXTMIN
 10
10.0
 20
9.999999999999998
 30
0.0
  9
$EXTMAX
 10
493.4459999999998
 20
306.721
 30
0.0
  9
$LIMMIN
 10
0.0
 20
0.0
  9
$LIMMAX
 10
495.0
 20
341.25
  9
$ORTHOMODE
 70
     1
  9
$REGENMODE
 70
     1
  9
$FILLMODE
 70
     1
  9
$QTEXTMODE
 70
     0
  9
$MIRRTEXT
 70
     1
  9
$LTSCALE
 40
20.0
  9
$ATTMODE
 70
     1
  9
$TEXTSIZE
 40
5.0
  9
$TRACEWID
 40
1.0
  9
$TEXTSTYLE
  7
STANDARD
  9
$CLAYER
  8
0
  9
$CELTYPE
  6
BYLAYER
  9
$CECOLOR
 62
   256
  9
$CELTSCALE
 40
1.0
  9
$DISPSILH
 70
     0
  9
$DIMSCALE
 40
1.0
  9
$DIMASZ
 40
3.0
  9
$DIMEXO
 40
1.0
  9
$DIMDLI
 40
10.0
  9
$DIMRND
 40
0.0
  9
$DIMDLE
 40
0.0
  9
$DIMEXE
 40
1.0
  9
$DIMTP
 40
0.0
  9
$DIMTM
 40
0.0
  9
$DIMTXT
 40
3.2
  9
$DIMCEN
 40
0.0
  9
$DIMTSZ
 40
0.0
  9
$DIMTOL
 70
     0
  9
$DIMLIM
 70
     0
  9
$DIMTIH
 70
     0
  9
$DIMTOH
 70
     0
  9
$DIMSE1
 70
     0
  9
$DIMSE2
 70
     0
  9
$DIMTAD
 70
     3
  9
$DIMZIN
 70
     8
  9
$DIMBLK
  1

  9
$DIMASO
 70
     1
  9
$DIMSHO
 70
     1
  9
$DIMPOST
  1

  9
$DIMAPOST
  1

  9
$DIMALT
 70
     0
  9
$DIMALTD
 70
     2
  9
$DIMALTF
 40
25.4
  9
$DIMLFAC
 40
1.0
  9
$DIMTOFL
 70
     1
  9
$DIMTVP
 40
0.0
  9
$DIMTIX
 70
     0
  9
$DIMSOXD
 70
     0
  9
$DIMSAH
 70
     1
  9
$DIMBLK1
  1

  9
$DIMBLK2
  1

  9
$DIMSTYLE
  2
STANDARD
  9
$DIMCLRD
 70
     0
  9
$DIMCLRE
 70
     0
  9
$DIMCLRT
 70
     0
  9
$DIMTFAC
 40
1.0
  9
$DIMGAP
 40
1.0
  9
$DIMJUST
 70
     0
  9
$DIMSD1
 70
     0
  9
$DIMSD2
 70
     0
  9
$DIMTOLJ
 70
     1
  9
$DIMTZIN
 70
     0
  9
$DIMALTZ
 70
     0
  9
$DIMALTTZ
 70
     0
  9
$DIMUPT
 70
     0
  9
$DIMDEC
 70
     4
  9
$DIMTDEC
 70
     4
  9
$DIMALTU
 70
     2
  9
$DIMALTTD
 70
     2
  9
$DIMTXSTY
  7
STANDARD
  9
$DIMAUNIT
 70
     0
  9
$DIMADEC
 70
     0
  9
$DIMALTRND
 40
0.0
  9
$DIMAZIN
 70
     0
  9
$DIMDSEP
 70
    46
  9
$DIMATFIT
 70
     3
  9
$DIMFRAC
 70
     0
  9
$DIMLDRBLK
  1

  9
$DIMLUNIT
 70
     2
  9
$DIMLWD
 70
    -2
  9
$DIMLWE
 70
    -2
  9
$DIMTMOVE
 70
     0
  9
$LUNITS
 70
     2
  9
$LUPREC
 70
     4
  9
$SKETCHINC
 40
1.0
  9
$FILLETRAD
 40
0.0
  9
$AUNITS
 70
     0
  9
$AUPREC
 70
     2
  9
$MENU
  1
.
  9
$ELEVATION
 40
0.0
  9
$PELEVATION
 40
0.0
  9
$THICKNESS
 40
0.0
  9
$LIMCHECK
 70
     0
  9
$CHAMFERA
 40
10.0
  9
$CHAMFERB
 40
10.0
  9
$CHAMFERC
 40
0.0
  9
$CHAMFERD
 40
0.0
  9
$SKPOLY
 70
     0
  9
$TDCREATE
 40
2450737.665205556
  9
$TDUCREATE
 40
2450737.290205556
  9
$TDUPDATE
 40
2457192.640188727
  9
$TDUUPDATE
 40
2457192.265188727
  9
$TDINDWG
 40
0.0000143750
  9
$TDUSRTIMER
 40
0.0000140741
  9
$USRTIMER
 70
     1
  9
$ANGBASE
 50
0.0
  9
$ANGDIR
 70
     0
  9
$PDMODE
 70
     0
  9
$PDSIZE
 40
0.0
  9
$PLINEWID
 40
0.0
  9
$SPLFRAME
 70
     0
  9
$SPLINETYPE
 70
     6
  9
$SPLINESEGS
 70
     8
  9
$HANDSEED
  5
9B10
  9
$SURFTAB1
 70
     6
  9
$SURFTAB2
 70
     6
  9
$SURFTYPE
 70
     6
  9
$SURFU
 70
     6
  9
$SURFV
 70
     6
  9
$UCSBASE
  2

  9
$UCSNAME
  2

  9
$UCSORG
 10
0.0
 20
0.0
 30
0.0
  9
$UCSXDIR
 10
1.0
 20
0.0
 30
0.0
  9
$UCSYDIR
 10
0.0
 20
1.0
 30
0.0
  9
$UCSORTHOREF
  2

  9
$UCSORTHOVIEW
 70
     0
  9
$UCSORGTOP
 10
0.0
 20
0.0
 30
0.0
  9
$UCSORGBOTTOM
 10
0.0
 20
0.0
 30
0.0
  9
$UCSORGLEFT
 10
0.0
 20
0.0
 30
0.0
  9
$UCSORGRIGHT
 10
0.0
 20
0.0
 30
0.0
  9
$UCSORGFRONT
 10
0.0
 20
0.0
 30
0.0
  9
$UCSORGBACK
 10
0.0
 20
0.0
 30
0.0
  9
$PUCSBASE
  2

  9
$PUCSNAME
  2

  9
$PUCSORG
 10
0.0
 20
0.0
 30
0.0
  9
$PUCSXDIR
 10
1.0
 20
0.0
 30
0.0
  9
$PUCSYDIR
 10
0.0
 20
1.0
 30
0.0
  9
$PUCSORTHOREF
  2

  9
$PUCSORTHOVIEW
 70
     0
  9
$PUCSORGTOP
 10
0.0
 20
0.0
 30
0.0
  9
$PUCSORGBOTTOM
 10
0.0
 20
0.0
 30
0.0
  9
$PUCSORGLEFT
 10
0.0
 20
0.0
 30
0.0
  9
$PUCSORGRIGHT
 10
0.0
 20
0.0
 30
0.0
  9
$PUCSORGFRONT
 10
0.0
 20
0.0
 30
0.0
  9
$PUCSORGBACK
 10
0.0
 20
0.0
 30
0.0
  9
$USERI1
 70
     0
  9
$USERI2
 70
     0
  9
$USERI3
 70
     0
  9
$USERI4
 70
     0
  9
$USERI5
 70
     0
  9
$USERR1
 40
0.0
  9
$USERR2
 40
0.0
  9
$USERR3
 40
0.0
  9
$USERR4
 40
0.0
  9
$USERR5
 40
0.0
  9
$WORLDVIEW
 70
     1
  9
$SHADEDGE
 70
     3
  9
$SHADEDIF
 70
    70
  9
$TILEMODE
 70
     1
  9
$MAXACTVP
 70
    16
  9
$PINSBASE
 10
0.0
 20
0.0
 30
0.0
  9
$PLIMCHECK
 70
     0
  9
$PEXTMIN
 10
1.000000000000000E+20
 20
1.000000000000000E+20
 30
1.000000000000000E+20
  9
$PEXTMAX
 10
-1.000000000000000E+20
 20
-1.000000000000000E+20
 30
-1.000000000000000E+20
  9
$PLIMMIN
 10
0.0
 20
0.0
  9
$PLIMMAX
 10
420.0
 20
297.0
  9
$UNITMODE
 70
     0
  9
$VISRETAIN
 70
     0
  9
$PLINEGEN
 70
     0
  9
$PSLTSCALE
 70
     0
  9
$TREEDEPTH
 70
  3020
  9
$CMLSTYLE
  2
STANDARD
  9
$CMLJUST
 70
     0
  9
$CMLSCALE
 40
1.0
  9
$PROXYGRAPHICS
 70
     1
  9
$MEASUREMENT
 70
     0
  9
$CELWEIGHT
370
    -1
  9
$ENDCAPS
280
     0
  9
$JOINSTYLE
280
     0
  9
$LWDISPLAY
290
     0
  9
$INSUNITS
 70
     0
  9
$HYPERLINKBASE
  1

  9
$STYLESHEET
  1

  9
$XEDIT
290
     1
  9
$CEPSNTYPE
380
     0
  9
$PSTYLEMODE
290
     1
  9
$FINGERPRINTGUID
  2
{ECFA66CA-12DB-492E-8192-0BED533CC3B8}
  9
$VERSIONGUID
  2
{34CC1CD1-EF39-4A21-BF78-3F4186A21F62}
  9
$EXTNAMES
290
     1
  9
$PSVPSCALE
 40
0.0
  9
$OLESTARTUP
290
     0
  0
ENDSEC
  0
SECTION
  2
CLASSES
  0
CLASS
  1
ACDBDICTIONARYWDFLT
  2
AcDbDictionaryWithDefault
  3
ObjectDBX Classes
 90
        0
280
     0
281
     0
  0
CLASS
  1
ACDBPLACEHOLDER
  2
AcDbPlaceHolder
  3
ObjectDBX Classes
 90
        0
280
     0
281
     0
  0
CLASS
  1
LAYOUT
  2
AcDbLayout
  3
ObjectDBX Classes
 90
        0
280
     0
281
     0
  0
CLASS
  1
DICTIONARYVAR
  2
AcDbDictionaryVar
  3
ObjectDBX Classes
 90
        0
280
     0
281
     0
  0
CLASS
  1
MATERIAL
  2
AcDbMaterial
  3
ObjectDBX Classes
 90
     1153
280
     0
281
     0
  0
CLASS
  1
VISUALSTYLE
  2
AcDbVisualStyle
  3
ObjectDBX Classes
 90
     4095
280
     0
281
     0
  0
CLASS
  1
TABLESTYLE
  2
AcDbTableStyle
  3
ObjectDBX Classes
 90
     4095
280
     0
281
     0
  0
CLASS
  1
SCALE
  2
AcDbScale
  3
ObjectDBX Classes
 90
     1153
280
     0
281
     0
  0
CLASS
  1
MLEADERSTYLE
  2
AcDbMLeaderStyle
  3
ACDB_MLEADERSTYLE_CLASS
 90
     4095
280
     0
281
     0
  0
CLASS
  1
ACDBSECTIONVIEWSTYLE
  2
AcDbSectionViewStyle
  3
ObjectDBX Classes
 90
     1025
280
     0
281
     0
  0
CLASS
  1
ACDBDETAILVIEWSTYLE
  2
AcDbDetailViewStyle
  3
ObjectDBX Classes
 90
     1025
280
     0
281
     0
  0
CLASS
  1
CELLSTYLEMAP
  2
AcDbCellStyleMap
  3
ObjectDBX Classes
 90
     1152
280
     0
281
     0
  0
ENDSEC
  0
SECTION
  2
TABLES
  0
TABLE
  2
VPORT
  5
97E1
330
0
100
AcDbSymbolTable
 70
     1
  0
VPORT
  5
9A59
330
97E1
100
AcDbSymbolTableRecord
100
AcDbViewportTableRecord
  2
*ACTIVE
 70
     0
 10
0.0
 20
0.0
 11
1.0
 21
1.0
 12
341.610094189816
 22
158.3623703176124
 13
0.0
 23
0.0
 14
10.0
 24
10.0
 15
10.0
 25
10.0
 16
0.0
 26
0.0
 36
1.0
 17
0.0
 27
0.0
 37
0.0
 40
300.0694310632123
 41
1.899603698811096
 42
50.0
 43
0.0
 44
0.0
 50
0.0
 51
0.0
 71
     0
 72
   100
 73
     1
 74
     0
 75
     0
 76
     0
 77
     0
 78
     0
281
     0
 65
     1
110
0.0
120
0.0
130
0.0
111
1.0
121
0.0
131
0.0
112
0.0
122
1.0
132
0.0
 79
     0
146
0.0
1001
ACAD_NAV_VCDISPLAY
1070
     3
  0
ENDTAB
  0
TABLE
  2
LTYPE
  5
97DE
330
0
100
AcDbSymbolTable
 70
     4
  0
LTYPE
  5
97EC
330
97DE
100
AcDbSymbolTableRecord
100
AcDbLinetypeTableRecord
  2
BYBLOCK
 70
     0
  3

 72
    65
 73
     0
 40
0.0
  0
LTYPE
  5
97ED
330
97DE
100
AcDbSymbolTableRecord
100
AcDbLinetypeTableRecord
  2
BYLAYER
 70
     0
  3

 72
    65
 73
     0
 40
0.0
  0
LTYPE
  5
97EE
330
97DE
100
AcDbSymbolTableRecord
100
AcDbLinetypeTableRecord
  2
CONTINUOUS
 70
     0
  3
Solid line
 72
    65
 73
     0
 40
0.0
  0
LTYPE
  5
97FB
330
97DE
100
AcDbSymbolTableRecord
100
AcDbLinetypeTableRecord
  2
CENTER
 70
     0
  3
____ _ ____ _ ____ _ ____ _ ____ _ ____ _ ____ 
 72
    65
 73
     4
 40
2.0
 49
1.25
 74
     0
 49
-0.25
 74
     0
 49
0.25
 74
     0
 49
-0.25
 74
     0
  0
LTYPE
  5
97FD
330
97DE
100
AcDbSymbolTableRecord
100
AcDbLinetypeTableRecord
  2
DASHED
 70
     0
  3
__ __ __ __ __ __ __ __ __ __ __ __ __ __ __ __
 72
    65
 73
     2
 40
0.75
 49
0.5
 74
     0
 49
-0.25
 74
     0
  0
LTYPE
  5
97FE
330
97DE
100
AcDbSymbolTableRecord
100
AcDbLinetypeTableRecord
  2
PHANTOM
 70
     0
  3
______  __  __  ______  __  __  ______  __  __ 
 72
    65
 73
     6
 40
2.5
 49
1.25
 74
     0
 49
-0.25
 74
     0
 49
0.25
 74
     0
 49
-0.25
 74
     0
 49
0.25
 74
     0
 49
-0.25
 74
     0
  0
ENDTAB
  0
TABLE
  2
LAYER
  5
97DB
330
0
100
AcDbSymbolTable
 70
     8
  0
LAYER
  5
97E9
102
{ACAD_XDICTIONARY
360
9AB4
102
}
330
97DB
100
AcDbSymbolTableRecord
100
AcDbLayerTableRecord
  2
0
 70
     0
 62
     7
  6
CONTINUOUS
370
    -3
390
9A62
  0
LAYER
  5
97FF
102
{ACAD_XDICTIONARY
360
9AB6
102
}
330
97DB
100
AcDbSymbolTableRecord
100
AcDbLayerTableRecord
  2
4
 70
     0
 62
     1
  6
CENTER
370
    -3
390
9A62
  0
LAYER
  5
9800
102
{ACAD_XDICTIONARY
360
9AB8
102
}
330
97DB
100
AcDbSymbolTableRecord
100
AcDbLayerTableRecord
  2
5
 70
     0
 62
     6
  6
PHANTOM
370
    -3
390
9A62
  0
LAYER
  5
9801
102
{ACAD_XDICTIONARY
360
9ABA
102
}
330
97DB
100
AcDbSymbolTableRecord
100
AcDbLayerTableRecord
  2
1
 70
     0
 62
     7
  6
CONTINUOUS
370
    -3
390
9A62
  0
LAYER
  5
9802
102
{ACAD_XDICTIONARY
360
9ABC
102
}
330
97DB
100
AcDbSymbolTableRecord
100
AcDbLayerTableRecord
  2
2
 70
     0
 62
     4
  6
CONTINUOUS
370
    -3
390
9A62
  0
LAYER
  5
9803
102
{ACAD_XDICTIONARY
360
9ABE
102
}
330
97DB
100
AcDbSymbolTableRecord
100
AcDbLayerTableRecord
  2
3
 70
     0
 62
     2
  6
DASHED
370
    -3
390
9A62
  0
LAYER
  5
9804
102
{ACAD_XDICTIONARY
360
9AC0
102
}
330
97DB
100
AcDbSymbolTableRecord
100
AcDbLayerTableRecord
  2
6
 70
     0
 62
     5
  6
CONTINUOUS
370
    -3
390
9A62
  0
LAYER
  5
9805
102
{ACAD_XDICTIONARY
360
9AC2
102
}
330
97DB
100
AcDbSymbolTableRecord
100
AcDbLayerTableRecord
  2
7
 70
     0
 62
     3
  6
CONTINUOUS
370
    -3
390
9A62
  0
ENDTAB
  0
TABLE
  2
STYLE
  5
97DC
330
0
100
AcDbSymbolTable
 70
     1
  0
STYLE
  5
97EA
330
97DC
100
AcDbSymbolTableRecord
100
AcDbTextStyleTableRecord
  2
STANDARD
 70
     0
 40
0.0
 41
1.0
 50
0.0
 71
     0
 42
5.0
  3
txt
  4

  0
ENDTAB
  0
TABLE
  2
VIEW
  5
97DF
330
0
100
AcDbSymbolTable
 70
     0
  0
ENDTAB
  0
TABLE
  2
UCS
  5
97E0
330
0
100
AcDbSymbolTable
 70
     0
  0
ENDTAB
  0
TABLE
  2
APPID
  5
97E2
330
0
100
AcDbSymbolTable
 70
     3
  0
APPID
  5
97EB
330
97E2
100
AcDbSymbolTableRecord
100
AcDbRegAppTableRecord
  2
ACAD
 70
     0
  0
APPID
  5
9ACE
330
97E2
100
AcDbSymbolTableRecord
100
AcDbRegAppTableRecord
  2
ACAD_NAV_VCDISPLAY
 70
     0
  0
APPID
  5
9B07
330
97E2
100
AcDbSymbolTableRecord
100
AcDbRegAppTableRecord
  2
ACAD_MLEADERVER
 70
     0
  0
ENDTAB
  0
TABLE
  2
DIMSTYLE
  5
97E3
330
0
100
AcDbSymbolTable
 70
     1
100
AcDbDimStyleTable
 71
     0
  0
DIMSTYLE
105
9807
330
97E3
100
AcDbSymbolTableRecord
100
AcDbDimStyleTableRecord
  2
STANDARD
 70
     0
 41
3.0
 42
1.0
 43
10.0
 44
1.0
 73
     0
 74
     0
 77
     3
 78
     8
140
3.2
141
0.0
147
1.0
172
     1
173
     1
284
     8
285
     8
286
     8
340
97EA
  0
ENDTAB
  0
TABLE
  2
BLOCK_RECORD
  5
97DA
330
0
100
AcDbSymbolTable
 70
     0
  0
BLOCK_RECORD
  5
97F7
102
{ACAD_XDICTIONARY
360
9A5C
102
}
330
97DA
100
AcDbSymbolTableRecord
100
AcDbBlockTableRecord
  2
*MODEL_SPACE
340
9AB0
  0
BLOCK_RECORD
  5
97F3
102
{ACAD_XDICTIONARY
360
9A5A
102
}
330
97DA
100
AcDbSymbolTableRecord
100
AcDbBlockTableRecord
  2
*PAPER_SPACE
340
9AB1
  0
ENDTAB
  0
ENDSEC
  0
SECTION
  2
BLOCKS
  0
BLOCK
  5
97F8
330
97F7
100
AcDbEntity
  8
0
100
AcDbBlockBegin
  2
*MODEL_SPACE
 70
     0
 10
0.0
 20
0.0
 30
0.0
  3
*MODEL_SPACE
  1

  0
ENDBLK
  5
97F9
330
97F7
100
AcDbEntity
  8
0
100
AcDbBlockEnd
  0
BLOCK
  5
97F4
330
97F3
100
AcDbEntity
 67
     1
  8
0
100
AcDbBlockBegin
  2
*PAPER_SPACE
 70
     0
 10
0.0
 20
0.0
 30
0.0
  3
*PAPER_SPACE
  1

  0
ENDBLK
  5
97F5
330
97F3
100
AcDbEntity
 67
     1
  8
0
100
AcDbBlockEnd
  0
ENDSEC
  0
SECTION
  2
ENTITIES
  0
TEXT
  5
980F
330
97F7
100
AcDbEntity
  8
7
  6
Continuous
100
AcDbText
 10
10.0
 20
18.0
 30
0.0
 40
3.0
  1
TYPE No.THA-282-3
100
AcDbText
  0
TEXT
  5
9810
330
97F7
100
AcDbEntity
  8
7
  6
Continuous
100
AcDbText
 10
10.0
 20
26.0
 30
0.0
 40
3.0
  1
CODE No.3226
100
AcDbText
  0
TEXT
  5
9811
330
97F7
100
AcDbEntity
  8
1
  6
Continuous
100
AcDbText
 10
10.0
 20
10.0
 30
0.0
 40
1.399999999999999
  1
LAYER
100
AcDbText
  0
TEXT
  5
9812
330
97F7
100
AcDbEntity
  8
1
  6
Continuous
100
AcDbText
 10
17.97951099999998
 20
10.04873699999998
 30
0.0
 40
1.399999999999999
  1
1
100
AcDbText
  0
TEXT
  5
9813
330
97F7
100
AcDbEntity
  8
7
  6
Continuous
100
AcDbText
 10
29.97951099999999
 20
10.04873699999998
 30
0.0
 40
1.399999999999999
  1
7
100
AcDbText
  0
TEXT
  5
9814
330
97F7
100
AcDbEntity
  8
4
  6
CENTER
100
AcDbText
 10
23.97951099999999
 20
10.04873699999998
 30
0.0
 40
1.399999999999999
  1
4
100
AcDbText
  0
TEXT
  5
9815
330
97F7
100
AcDbEntity
  8
3
  6
DASHED
100
AcDbText
 10
21.979511
 20
10.04873699999998
 30
0.0
 40
1.399999999999999
  1
3
100
AcDbText
  0
TEXT
  5
9816
330
97F7
100
AcDbEntity
  8
2
  6
Continuous
100
AcDbText
 10
19.97951099999999
 20
10.04873699999998
 30
0.0
 40
1.399999999999999
  1
2
100
AcDbText
  0
TEXT
  5
9817
330
97F7
100
AcDbEntity
  8
6
  6
Continuous
100
AcDbText
 10
27.979511
 20
10.04873699999998
 30
0.0
 40
1.399999999999999
  1
6
100
AcDbText
  0
TEXT
  5
9818
330
97F7
100
AcDbEntity
  8
5
  6
PHANTOM
100
AcDbText
 10
25.97951099999999
 20
10.04873699999998
 30
0.0
 40
1.399999999999999
  1
5
100
AcDbText
  0
LINE
  5
9819
330
97F7
100
AcDbEntity
  8
1
  6
Continuous
100
AcDbLine
 10
377.3009999999999
 20
74.6855
 30
0.0
 11
377.3009999999999
 21
160.685
 31
0.0
  0
LINE
  5
981A
330
97F7
100
AcDbEntity
  8
1
  6
Continuous
100
AcDbLine
 10
377.3009999999999
 20
74.6855
 30
0.0
 11
315.9139999999998
 21
74.6855
 31
0.0
  0
LINE
  5
981B
330
97F7
100
AcDbEntity
  8
1
  6
Continuous
100
AcDbLine
 10
377.3009999999999
 20
160.685
 30
0.0
 11
315.9139999999998
 21
160.685
 31
0.0
  0
LINE
  5
981C
330
97F7
100
AcDbEntity
  8
1
  6
Continuous
100
AcDbLine
 10
376.8009999999999
 20
160.1849999999998
 30
0.0
 11
376.8009999999999
 21
75.18550000000002
 31
0.0
  0
LINE
  5
981D
330
97F7
100
AcDbEntity
  8
1
  6
Continuous
100
AcDbLine
 10
376.8009999999999
 20
160.1849999999998
 30
0.0
 11
349.8009999999999
 21
160.1849999999998
 31
0.0
  0
LINE
  5
981E
330
97F7
100
AcDbEntity
  8
1
  6
Continuous
100
AcDbLine
 10
376.8009999999999
 20
75.18550000000002
 30
0.0
 11
317.3799999999999
 21
75.18550000000002
 31
0.0
  0
LINE
  5
981F
330
97F7
100
AcDbEntity
  8
1
  6
Continuous
100
AcDbLine
 10
346.801
 20
157.1849999999998
 30
0.0
 11
346.801
 21
138.7249999999999
 31
0.0
  0
LINE
  5
9820
330
97F7
100
AcDbEntity
  8
1
  6
Continuous
100
AcDbLine
 10
377.3009999999999
 20
122.185
 30
0.0
 11
376.8009999999999
 21
122.185
 31
0.0
  0
LINE
  5
9821
330
97F7
100
AcDbEntity
  8
1
  6
Continuous
100
AcDbLine
 10
377.3009999999999
 20
113.185
 30
0.0
 11
376.8009999999999
 21
113.185
 31
0.0
  0
LINE
  5
9822
330
97F7
100
AcDbEntity
  8
1
  6
Continuous
100
AcDbLine
 10
371.801
 20
160.1849999999998
 30
0.0
 11
371.801
 21
160.685
 31
0.0
  0
LINE
  5
9823
330
97F7
100
AcDbEntity
  8
1
  6
Continuous
100
AcDbLine
 10
371.801
 20
74.6855
 30
0.0
 11
371.801
 21
75.18550000000002
 31
0.0
  0
LINE
  5
9824
330
97F7
100
AcDbEntity
  8
1
  6
Continuous
100
AcDbLine
 10
367.801
 20
160.1849999999998
 30
0.0
 11
367.801
 21
160.685
 31
0.0
  0
LINE
  5
9825
330
97F7
100
AcDbEntity
  8
1
  6
Continuous
100
AcDbLine
 10
367.801
 20
74.6855
 30
0.0
 11
367.801
 21
75.18550000000002
 31
0.0
  0
LINE
  5
9826
330
97F7
100
AcDbEntity
  8
1
  6
Continuous
100
AcDbLine
 10
362.8009999999999
 20
160.1849999999998
 30
0.0
 11
362.8009999999999
 21
160.685
 31
0.0
  0
LINE
  5
9827
330
97F7
100
AcDbEntity
  8
1
  6
Continuous
100
AcDbLine
 10
362.8009999999999
 20
74.6855
 30
0.0
 11
362.8009999999999
 21
75.18550000000002
 31
0.0
  0
LINE
  5
9828
330
97F7
100
AcDbEntity
  8
1
  6
Continuous
100
AcDbLine
 10
385.801
 20
243.9329999999999
 30
0.0
 11
385.801
 21
246.482
 31
0.0
  0
LINE
  5
9829
330
97F7
100
AcDbEntity
  8
1
  6
Continuous
100
AcDbLine
 10
302.801
 20
244.226
 30
0.0
 11
302.801
 21
246.482
 31
0.0
  0
LINE
  5
982A
330
97F7
100
AcDbEntity
  8
1
  6
Continuous
100
AcDbLine
 10
385.801
 20
246.482
 30
0.0
 11
302.801
 21
246.482
 31
0.0
  0
LINE
  5
982B
330
97F7
100
AcDbEntity
  8
1
  6
Continuous
100
AcDbLine
 10
377.3009999999999
 20
246.482
 30
0.0
 11
377.3009999999999
 21
273.482
 31
0.0
  0
LINE
  5
982C
330
97F7
100
AcDbEntity
  8
1
  6
Continuous
100
AcDbLine
 10
400.8009999999998
 20
273.482
 30
0.0
 11
318.3009999999999
 21
273.482
 31
0.0
  0
LINE
  5
982D
330
97F7
100
AcDbEntity
  8
1
  6
Continuous
100
AcDbLine
 10
377.3009999999999
 20
263.2819999999999
 30
0.0
 11
326.3009999999998
 21
263.2819999999999
 31
0.0
  0
LINE
  5
982E
330
97F7
100
AcDbEntity
  8
1
  6
Continuous
100
AcDbLine
 10
309.301
 20
246.482
 30
0.0
 11
309.301
 21
264.482
 31
0.0
  0
LINE
  5
982F
330
97F7
100
AcDbEntity
  8
1
  6
Continuous
100
AcDbLine
 10
353.8009999999999
 20
265.482
 30
0.0
 11
353.8009999999999
 21
273.482
 31
0.0
  0
LINE
  5
9830
330
97F7
100
AcDbEntity
  8
1
  6
Continuous
100
AcDbLine
 10
367.301
 20
263.2819999999999
 30
0.0
 11
367.301
 21
273.482
 31
0.0
  0
LINE
  5
9831
330
97F7
100
AcDbEntity
  8
1
  6
Continuous
100
AcDbLine
 10
329.3009999999998
 20
263.2819999999999
 30
0.0
 11
329.3009999999998
 21
273.482
 31
0.0
  0
LINE
  5
9832
330
97F7
100
AcDbEntity
  8
1
  6
Continuous
100
AcDbLine
 10
319.301
 20
261.7739999999999
 30
0.0
 11
319.301
 21
273.482
 31
0.0
  0
LINE
  5
9833
330
97F7
100
AcDbEntity
  8
1
  6
Continuous
100
AcDbLine
 10
341.8009999999998
 20
263.2819999999999
 30
0.0
 11
341.8009999999998
 21
270.982
 31
0.0
  0
LINE
  5
9834
330
97F7
100
AcDbEntity
  8
1
  6
Continuous
100
AcDbLine
 10
331.801
 20
263.2819999999999
 30
0.0
 11
331.801
 21
270.982
 31
0.0
  0
LINE
  5
9835
330
97F7
100
AcDbEntity
  8
1
  6
Continuous
100
AcDbLine
 10
341.8009999999998
 20
270.982
 30
0.0
 11
331.801
 21
270.982
 31
0.0
  0
LINE
  5
9836
330
97F7
100
AcDbEntity
  8
1
  6
Continuous
100
AcDbLine
 10
339.8009999999998
 20
270.982
 30
0.0
 11
339.8009999999998
 21
273.482
 31
0.0
  0
LINE
  5
9837
330
97F7
100
AcDbEntity
  8
1
  6
Continuous
100
AcDbLine
 10
333.801
 20
270.982
 30
0.0
 11
333.801
 21
273.482
 31
0.0
  0
LINE
  5
9838
330
97F7
100
AcDbEntity
  8
1
  6
Continuous
100
AcDbLine
 10
324.3009999999998
 20
266.482
 30
0.0
 11
311.301
 21
266.482
 31
0.0
  0
LINE
  5
9839
330
97F7
100
AcDbEntity
  8
1
  6
Continuous
100
AcDbLine
 10
455.733
 20
66.6855
 30
0.0
 11
457.561
 21
66.6855
 31
0.0
  0
LINE
  5
983A
330
97F7
100
AcDbEntity
  8
1
  6
Continuous
100
AcDbLine
 10
455.733
 20
168.6849999999998
 30
0.0
 11
457.561
 21
168.6849999999998
 31
0.0
  0
LINE
  5
983B
330
97F7
100
AcDbEntity
  8
1
  6
Continuous
100
AcDbLine
 10
457.561
 20
66.6855
 30
0.0
 11
457.561
 21
168.6849999999998
 31
0.0
  0
LINE
  5
983C
330
97F7
100
AcDbEntity
  8
1
  6
Continuous
100
AcDbLine
 10
466.361
 20
163.185
 30
0.0
 11
457.561
 21
163.185
 31
0.0
  0
LINE
  5
983D
330
97F7
100
AcDbEntity
  8
1
  6
Continuous
100
AcDbLine
 10
466.361
 20
72.1855
 30
0.0
 11
457.561
 21
72.1855
 31
0.0
  0
LINE
  5
983E
330
97F7
100
AcDbEntity
  8
1
  6
Continuous
100
AcDbLine
 10
465.561
 20
160.685
 30
0.0
 11
457.561
 21
160.685
 31
0.0
  0
LINE
  5
983F
330
97F7
100
AcDbEntity
  8
1
  6
Continuous
100
AcDbLine
 10
465.561
 20
74.6855
 30
0.0
 11
457.561
 21
74.6855
 31
0.0
  0
LINE
  5
9840
330
97F7
100
AcDbEntity
  8
1
  6
Continuous
100
AcDbLine
 10
469.561
 20
121.6849999999999
 30
0.0
 11
457.561
 21
121.6849999999999
 31
0.0
  0
LINE
  5
9841
330
97F7
100
AcDbEntity
  8
1
  6
Continuous
100
AcDbLine
 10
469.561
 20
113.685
 30
0.0
 11
457.561
 21
113.685
 31
0.0
  0
LINE
  5
9842
330
97F7
100
AcDbEntity
  8
1
  6
Continuous
100
AcDbLine
 10
465.561
 20
121.6849999999999
 30
0.0
 11
465.561
 21
160.685
 31
0.0
  0
LINE
  5
9843
330
97F7
100
AcDbEntity
  8
1
  6
Continuous
100
AcDbLine
 10
465.561
 20
74.6855
 30
0.0
 11
465.561
 21
113.685
 31
0.0
  0
LINE
  5
9844
330
97F7
100
AcDbEntity
  8
1
  6
Continuous
100
AcDbLine
 10
402.801
 20
162.685
 30
0.0
 11
383.861
 21
162.685
 31
0.0
  0
LINE
  5
9845
330
97F7
100
AcDbEntity
  8
1
  6
Continuous
100
AcDbLine
 10
402.801
 20
72.68550000000002
 30
0.0
 11
383.774
 21
72.68550000000002
 31
0.0
  0
LINE
  5
9846
330
97F7
100
AcDbEntity
  8
1
  6
Continuous
100
AcDbLine
 10
399.8009999999999
 20
151.285
 30
0.0
 11
398.801
 21
151.285
 31
0.0
  0
LINE
  5
9847
330
97F7
100
AcDbEntity
  8
1
  6
Continuous
100
AcDbLine
 10
399.8009999999999
 20
144.085
 30
0.0
 11
398.801
 21
144.085
 31
0.0
  0
LINE
  5
9848
330
97F7
100
AcDbEntity
  8
1
  6
Continuous
100
AcDbLine
 10
398.801
 20
144.085
 30
0.0
 11
398.801
 21
151.285
 31
0.0
  0
LINE
  5
9849
330
97F7
100
AcDbEntity
  8
1
  6
Continuous
100
AcDbLine
 10
399.8009999999999
 20
91.28550000000002
 30
0.0
 11
398.801
 21
91.28550000000002
 31
0.0
  0
LINE
  5
984A
330
97F7
100
AcDbEntity
  8
1
  6
Continuous
100
AcDbLine
 10
399.8009999999999
 20
84.08549999999998
 30
0.0
 11
398.801
 21
84.08549999999998
 31
0.0
  0
LINE
  5
984B
330
97F7
100
AcDbEntity
  8
1
  6
Continuous
100
AcDbLine
 10
398.801
 20
84.08549999999998
 30
0.0
 11
398.801
 21
91.28550000000002
 31
0.0
  0
LINE
  5
984C
330
97F7
100
AcDbEntity
  8
1
  6
Continuous
100
AcDbLine
 10
402.801
 20
258.482
 30
0.0
 11
402.801
 21
273.482
 31
0.0
  0
LINE
  5
984D
330
97F7
100
AcDbEntity
  8
1
  6
Continuous
100
AcDbLine
 10
400.8009999999998
 20
275.482
 30
0.0
 11
318.3009999999999
 21
275.482
 31
0.0
  0
LINE
  5
984E
330
97F7
100
AcDbEntity
  8
1
  6
Continuous
100
AcDbLine
 10
400.8009999999998
 20
258.482
 30
0.0
 11
400.8009999999998
 21
273.482
 31
0.0
  0
LINE
  5
984F
330
97F7
100
AcDbEntity
  8
1
  6
Continuous
100
AcDbLine
 10
402.801
 20
258.482
 30
0.0
 11
400.8009999999998
 21
258.482
 31
0.0
  0
LINE
  5
9850
330
97F7
100
AcDbEntity
  8
1
  6
Continuous
100
AcDbLine
 10
318.3009999999999
 20
273.482
 30
0.0
 11
318.3009999999999
 21
275.482
 31
0.0
  0
LINE
  5
9851
330
97F7
100
AcDbEntity
  8
1
  6
Continuous
100
AcDbLine
 10
399.8009999999999
 20
269.0819999999998
 30
0.0
 11
398.801
 21
269.0819999999998
 31
0.0
  0
LINE
  5
9852
330
97F7
100
AcDbEntity
  8
1
  6
Continuous
100
AcDbLine
 10
399.8009999999999
 20
261.8819999999999
 30
0.0
 11
398.801
 21
261.8819999999999
 31
0.0
  0
LINE
  5
9853
330
97F7
100
AcDbEntity
  8
1
  6
Continuous
100
AcDbLine
 10
398.801
 20
261.8819999999999
 30
0.0
 11
398.801
 21
269.0819999999998
 31
0.0
  0
LINE
  5
9854
330
97F7
100
AcDbEntity
  8
1
  6
Continuous
100
AcDbLine
 10
412.8009999999998
 20
111.685
 30
0.0
 11
412.8009999999998
 21
123.685
 31
0.0
  0
LINE
  5
9855
330
97F7
100
AcDbEntity
  8
1
  6
Continuous
100
AcDbLine
 10
411.8009999999999
 20
263.482
 30
0.0
 11
402.801
 21
263.482
 31
0.0
  0
LINE
  5
9856
330
97F7
100
AcDbEntity
  8
1
  6
Continuous
100
AcDbLine
 10
404.2149999999998
 20
273.482
 30
0.0
 11
402.801
 21
273.482
 31
0.0
  0
LINE
  5
9857
330
97F7
100
AcDbEntity
  8
1
  6
Continuous
100
AcDbLine
 10
398.801
 20
263.482
 30
0.0
 11
377.3009999999999
 21
263.482
 31
0.0
  0
LINE
  5
9858
330
97F7
100
AcDbEntity
  8
1
  6
Continuous
100
AcDbLine
 10
486.561
 20
72.68550000000002
 30
0.0
 11
486.561
 21
162.685
 31
0.0
  0
LINE
  5
9859
330
97F7
100
AcDbEntity
  8
1
  6
Continuous
100
AcDbLine
 10
472.5609999999998
 20
72.68550000000002
 30
0.0
 11
486.561
 21
72.68550000000002
 31
0.0
  0
LINE
  5
985A
330
97F7
100
AcDbEntity
  8
1
  6
Continuous
100
AcDbLine
 10
472.5609999999998
 20
162.685
 30
0.0
 11
486.561
 21
162.685
 31
0.0
  0
LINE
  5
985B
330
97F7
100
AcDbEntity
  8
1
  6
Continuous
100
AcDbLine
 10
465.561
 20
157.685
 30
0.0
 11
458.5609999999999
 21
157.685
 31
0.0
  0
LINE
  5
985C
330
97F7
100
AcDbEntity
  8
1
  6
Continuous
100
AcDbLine
 10
465.561
 20
77.68550000000002
 30
0.0
 11
458.5609999999999
 21
77.68550000000002
 31
0.0
  0
LINE
  5
985D
330
97F7
100
AcDbEntity
  8
1
  6
Continuous
100
AcDbLine
 10
458.5609999999999
 20
158.685
 30
0.0
 11
458.5609999999999
 21
160.685
 31
0.0
  0
LINE
  5
985E
330
97F7
100
AcDbEntity
  8
1
  6
Continuous
100
AcDbLine
 10
458.5609999999999
 20
74.6855
 30
0.0
 11
458.5609999999999
 21
76.6855
 31
0.0
  0
LINE
  5
985F
330
97F7
100
AcDbEntity
  8
1
  6
Continuous
100
AcDbLine
 10
474.561
 20
124.685
 30
0.0
 11
474.561
 21
110.685
 31
0.0
  0
LINE
  5
9860
330
97F7
100
AcDbEntity
  8
1
  6
Continuous
100
AcDbLine
 10
484.5609999999998
 20
124.685
 30
0.0
 11
484.5609999999998
 21
110.685
 31
0.0
  0
LINE
  5
9861
330
97F7
100
AcDbEntity
  8
1
  6
Continuous
100
AcDbLine
 10
476.2679999999998
 20
122.737
 30
0.0
 11
476.2679999999998
 21
112.592
 31
0.0
  0
LINE
  5
9862
330
97F7
100
AcDbEntity
  8
1
  6
Continuous
100
AcDbLine
 10
474.561
 20
110.685
 30
0.0
 11
486.561
 21
110.685
 31
0.0
  0
LINE
  5
9863
330
97F7
100
AcDbEntity
  8
1
  6
Continuous
100
AcDbLine
 10
474.561
 20
124.685
 30
0.0
 11
486.561
 21
124.685
 31
0.0
  0
LINE
  5
9864
330
97F7
100
AcDbEntity
  8
4
  6
CENTER
100
AcDbLine
 10
472.5609999999998
 20
147.6849999999998
 30
0.0
 11
480.5609999999998
 21
147.6849999999998
 31
0.0
  0
LINE
  5
9865
330
97F7
100
AcDbEntity
  8
4
  6
CENTER
100
AcDbLine
 10
476.5609999999998
 20
143.6849999999998
 30
0.0
 11
476.5609999999998
 21
151.6849999999998
 31
0.0
  0
LINE
  5
9866
330
97F7
100
AcDbEntity
  8
4
  6
CENTER
100
AcDbLine
 10
472.5609999999998
 20
87.68550000000002
 30
0.0
 11
480.5609999999998
 21
87.68550000000002
 31
0.0
  0
LINE
  5
9867
330
97F7
100
AcDbEntity
  8
4
  6
CENTER
100
AcDbLine
 10
476.5609999999998
 20
83.6855
 30
0.0
 11
476.5609999999998
 21
91.68550000000001
 31
0.0
  0
LINE
  5
9868
330
97F7
100
AcDbEntity
  8
4
  6
CENTER
100
AcDbLine
 10
394.8179999999999
 20
147.6849999999998
 30
0.0
 11
406.381
 21
147.6849999999998
 31
0.0
  0
LINE
  5
9869
330
97F7
100
AcDbEntity
  8
4
  6
CENTER
100
AcDbLine
 10
394.6219999999998
 20
87.68550000000002
 30
0.0
 11
405.989
 21
87.68550000000002
 31
0.0
  0
LINE
  5
986A
330
97F7
100
AcDbEntity
  8
4
  6
CENTER
100
AcDbLine
 10
361.301
 20
252.482
 30
0.0
 11
372.3009999999999
 21
252.482
 31
0.0
  0
LINE
  5
986B
330
97F7
100
AcDbEntity
  8
4
  6
CENTER
100
AcDbLine
 10
366.8009999999999
 20
246.9819999999999
 30
0.0
 11
366.8009999999999
 21
257.982
 31
0.0
  0
LINE
  5
986C
330
97F7
100
AcDbEntity
  8
1
  6
Continuous
100
AcDbLine
 10
319.343
 20
297.4409999999998
 30
0.0
 11
308.343
 21
297.4409999999998
 31
0.0
  0
LINE
  5
986D
330
97F7
100
AcDbEntity
  8
1
  6
Continuous
100
AcDbLine
 10
308.3439999999999
 20
297.4409999999998
 30
0.0
 11
308.3439999999999
 21
279.9409999999999
 31
0.0
  0
LINE
  5
986E
330
97F7
100
AcDbEntity
  8
1
  6
Continuous
100
AcDbLine
 10
306.343
 20
277.943
 30
0.0
 11
298.843
 21
277.943
 31
0.0
  0
LINE
  5
986F
330
97F7
100
AcDbEntity
  8
1
  6
Continuous
100
AcDbLine
 10
306.343
 20
279.9399999999999
 30
0.0
 11
298.843
 21
279.9399999999999
 31
0.0
  0
LINE
  5
9870
330
97F7
100
AcDbEntity
  8
1
  6
Continuous
100
AcDbLine
 10
306.3439999999999
 20
297.4409999999998
 30
0.0
 11
306.3439999999999
 21
279.9409999999999
 31
0.0
  0
LINE
  5
9871
330
97F7
100
AcDbEntity
  8
1
  6
Continuous
100
AcDbLine
 10
319.343
 20
299.4409999999998
 30
0.0
 11
308.343
 21
299.4409999999998
 31
0.0
  0
LINE
  5
9872
330
97F7
100
AcDbEntity
  8
1
  6
Continuous
100
AcDbLine
 10
298.843
 20
277.9409999999999
 30
0.0
 11
298.843
 21
279.9409999999999
 31
0.0
  0
LINE
  5
9873
330
97F7
100
AcDbEntity
  8
1
  6
Continuous
100
AcDbLine
 10
319.343
 20
297.4409999999998
 30
0.0
 11
319.343
 21
299.4409999999998
 31
0.0
  0
LINE
  5
9874
330
97F7
100
AcDbEntity
  8
4
  6
CENTER
100
AcDbLine
 10
493.4459999999998
 20
117.6849999999999
 30
0.0
 11
447.9739999999998
 21
117.6849999999999
 31
0.0
  0
LINE
  5
9875
330
97F7
100
AcDbEntity
  8
4
  6
CENTER
100
AcDbLine
 10
421.164
 20
117.6849999999999
 30
0.0
 11
291.543
 21
117.6849999999999
 31
0.0
  0
LINE
  5
9876
330
97F7
100
AcDbEntity
  8
1
  6
Continuous
100
AcDbLine
 10
297.005
 20
155.685
 30
0.0
 11
297.005
 21
79.6855
 31
0.0
  0
LINE
  5
9877
330
97F7
100
AcDbEntity
  8
1
  6
Continuous
100
AcDbLine
 10
299.005
 20
157.685
 30
0.0
 11
304.377
 21
157.685
 31
0.0
  0
LINE
  5
9878
330
97F7
100
AcDbEntity
  8
1
  6
Continuous
100
AcDbLine
 10
299.005
 20
77.68550000000002
 30
0.0
 11
304.377
 21
77.68550000000002
 31
0.0
  0
LINE
  5
9879
330
97F7
100
AcDbEntity
  8
1
  6
Continuous
100
AcDbLine
 10
66.86532800000001
 20
259.501355
 30
0.0
 11
66.86532800000001
 21
253.1813549999998
 31
0.0
  0
LINE
  5
987A
330
97F7
100
AcDbEntity
  8
1
  6
Continuous
100
AcDbLine
 10
75.096728
 20
246.3413549999999
 30
0.0
 11
72.35772800000003
 21
246.3413549999999
 31
0.0
  0
LINE
  5
987B
330
97F7
100
AcDbEntity
  8
1
  6
Continuous
100
AcDbLine
 10
75.096728
 20
266.3413549999999
 30
0.0
 11
72.35772800000003
 21
266.3413549999999
 31
0.0
  0
LINE
  5
987C
330
97F7
100
AcDbEntity
  8
1
  6
Continuous
100
AcDbLine
 10
67.072728
 20
260.1113549999999
 30
0.0
 11
71.565128
 21
265.9513549999999
 31
0.0
  0
LINE
  5
987D
330
97F7
100
AcDbEntity
  8
1
  6
Continuous
100
AcDbLine
 10
75.597828
 20
266.2063549999999
 30
0.0
 11
84.865328
 21
260.8413549999998
 31
0.0
  0
LINE
  5
987E
330
97F7
100
AcDbEntity
  8
1
  6
Continuous
100
AcDbLine
 10
75.597828
 20
246.4753549999998
 30
0.0
 11
84.865328
 21
251.841355
 31
0.0
  0
LINE
  5
987F
330
97F7
100
AcDbEntity
  8
1
  6
Continuous
100
AcDbLine
 10
84.865328
 20
260.8413549999998
 30
0.0
 11
89.365328
 21
260.8413549999998
 31
0.0
  0
LINE
  5
9880
330
97F7
100
AcDbEntity
  8
1
  6
Continuous
100
AcDbLine
 10
84.865328
 20
251.841355
 30
0.0
 11
89.365328
 21
251.841355
 31
0.0
  0
LINE
  5
9881
330
97F7
100
AcDbEntity
  8
1
  6
Continuous
100
AcDbLine
 10
89.865328
 20
259.3413549999999
 30
0.0
 11
98.27962800000001
 21
259.3413549999999
 31
0.0
  0
LINE
  5
9882
330
97F7
100
AcDbEntity
  8
1
  6
Continuous
100
AcDbLine
 10
89.865328
 20
253.341355
 30
0.0
 11
98.27962800000001
 21
253.341355
 31
0.0
  0
LINE
  5
9883
330
97F7
100
AcDbEntity
  8
1
  6
Continuous
100
AcDbLine
 10
89.865328
 20
252.3413549999999
 30
0.0
 11
89.865328
 21
253.341355
 31
0.0
  0
LINE
  5
9884
330
97F7
100
AcDbEntity
  8
1
  6
Continuous
100
AcDbLine
 10
89.865328
 20
260.3413549999999
 30
0.0
 11
89.865328
 21
259.3413549999999
 31
0.0
  0
LINE
  5
9885
330
97F7
100
AcDbEntity
  8
1
  6
Continuous
100
AcDbLine
 10
98.27962800000001
 20
253.341355
 30
0.0
 11
100.572428
 21
255.6343549999999
 31
0.0
  0
LINE
  5
9886
330
97F7
100
AcDbEntity
  8
1
  6
Continuous
100
AcDbLine
 10
98.27962800000001
 20
259.3413549999999
 30
0.0
 11
100.572428
 21
257.0483549999999
 31
0.0
  0
LINE
  5
9887
330
97F7
100
AcDbEntity
  8
1
  6
Continuous
100
AcDbLine
 10
68.86532800000001
 20
258.8413549999998
 30
0.0
 11
68.86532800000001
 21
253.841355
 31
0.0
  0
LINE
  5
9888
330
97F7
100
AcDbEntity
  8
1
  6
Continuous
100
AcDbLine
 10
71.36532800000002
 20
258.8413549999998
 30
0.0
 11
71.36532800000002
 21
253.841355
 31
0.0
  0
LINE
  5
9889
330
97F7
100
AcDbEntity
  8
1
  6
Continuous
100
AcDbLine
 10
70.86532800000002
 20
259.3413549999999
 30
0.0
 11
69.36532800000001
 21
259.3413549999999
 31
0.0
  0
LINE
  5
988A
330
97F7
100
AcDbEntity
  8
1
  6
Continuous
100
AcDbLine
 10
74.70692800000001
 20
251.2263549999999
 30
0.0
 11
78.099328
 21
251.2263549999999
 31
0.0
  0
LINE
  5
988B
330
97F7
100
AcDbEntity
  8
1
  6
Continuous
100
AcDbLine
 10
78.31732800000001
 20
252.013355
 30
0.0
 11
75.41342799999998
 21
252.013355
 31
0.0
  0
LINE
  5
988C
330
97F7
100
AcDbEntity
  8
1
  6
Continuous
100
AcDbLine
 10
74.924328
 20
252.8003549999999
 30
0.0
 11
78.80642799999998
 21
252.8003549999999
 31
0.0
  0
LINE
  5
988D
330
97F7
100
AcDbEntity
  8
1
  6
Continuous
100
AcDbLine
 10
75.92102800000002
 20
254.3743549999998
 30
0.0
 11
74.417928
 21
254.3743549999998
 31
0.0
  0
LINE
  5
988E
330
97F7
100
AcDbEntity
  8
1
  6
Continuous
100
AcDbLine
 10
74.820628
 20
253.5873549999998
 30
0.0
 11
78.91002799999998
 21
253.5873549999998
 31
0.0
  0
LINE
  5
988F
330
97F7
100
AcDbEntity
  8
1
  6
Continuous
100
AcDbLine
 10
79.31282799999998
 20
254.3743549999998
 30
0.0
 11
77.809728
 21
254.3743549999998
 31
0.0
  0
LINE
  5
9890
330
97F7
100
AcDbEntity
  8
1
  6
Continuous
100
AcDbLine
 10
74.18562800000001
 20
255.1603549999999
 30
0.0
 11
79.545028
 21
255.1603549999999
 31
0.0
  0
LINE
  5
9891
330
97F7
100
AcDbEntity
  8
1
  6
Continuous
100
AcDbLine
 10
74.11922800000002
 20
255.9473549999999
 30
0.0
 11
79.611528
 21
255.9473549999999
 31
0.0
  0
LINE
  5
9892
330
97F7
100
AcDbEntity
  8
1
  6
Continuous
100
AcDbLine
 10
76.86532800000001
 20
255.9473549999999
 30
0.0
 11
76.86532800000001
 21
255.1603549999999
 31
0.0
  0
LINE
  5
9893
330
97F7
100
AcDbEntity
  8
1
  6
Continuous
100
AcDbLine
 10
74.11922800000002
 20
256.7343549999999
 30
0.0
 11
79.611528
 21
256.7343549999999
 31
0.0
  0
LINE
  5
9894
330
97F7
100
AcDbEntity
  8
1
  6
Continuous
100
AcDbLine
 10
75.92102800000002
 20
258.308355
 30
0.0
 11
74.643628
 21
258.308355
 31
0.0
  0
LINE
  5
9895
330
97F7
100
AcDbEntity
  8
1
  6
Continuous
100
AcDbLine
 10
74.27542800000002
 20
257.5213549999999
 30
0.0
 11
79.45532800000002
 21
257.5213549999999
 31
0.0
  0
LINE
  5
9896
330
97F7
100
AcDbEntity
  8
1
  6
Continuous
100
AcDbLine
 10
79.087128
 20
258.308355
 30
0.0
 11
76.86532800000001
 21
258.308355
 31
0.0
  0
LINE
  5
9897
330
97F7
100
AcDbEntity
  8
1
  6
Continuous
100
AcDbLine
 10
76.86532800000001
 20
258.308355
 30
0.0
 11
76.86532800000001
 21
257.915355
 31
0.0
  0
LINE
  5
9898
330
97F7
100
AcDbEntity
  8
1
  6
Continuous
100
AcDbLine
 10
74.278428
 20
259.095355
 30
0.0
 11
79.205528
 21
259.095355
 31
0.0
  0
LINE
  5
9899
330
97F7
100
AcDbEntity
  8
1
  6
Continuous
100
AcDbLine
 10
74.64922799999998
 20
259.8823549999999
 30
0.0
 11
76.471928
 21
259.8823549999999
 31
0.0
  0
LINE
  5
989A
330
97F7
100
AcDbEntity
  8
1
  6
Continuous
100
AcDbLine
 10
76.471928
 20
260.669355
 30
0.0
 11
74.790628
 21
260.669355
 31
0.0
  0
LINE
  5
989B
330
97F7
100
AcDbEntity
  8
1
  6
Continuous
100
AcDbLine
 10
76.86532800000001
 20
260.2763549999999
 30
0.0
 11
78.753028
 21
260.2763549999999
 31
0.0
  0
LINE
  5
989C
330
97F7
100
AcDbEntity
  8
1
  6
Continuous
100
AcDbLine
 10
78.33802799999998
 20
261.070355
 30
0.0
 11
75.020228
 21
261.9593549999998
 31
0.0
  0
LINE
  5
989D
330
97F7
100
AcDbEntity
  8
1
  6
Continuous
100
AcDbLine
 10
76.86532800000001
 20
263.0913549999998
 30
0.0
 11
76.86532800000001
 21
261.4653549999998
 31
0.0
  0
LINE
  5
989E
330
97F7
100
AcDbEntity
  8
1
  6
Continuous
100
AcDbLine
 10
67.865328
 20
259.501355
 30
0.0
 11
67.865328
 21
253.181114
 31
0.0
  0
LINE
  5
989F
330
97F7
100
AcDbEntity
  8
1
  6
Continuous
100
AcDbLine
 10
67.865328
 20
259.501355
 30
0.0
 11
72.35772800000003
 21
265.3413549999999
 31
0.0
  0
LINE
  5
98A0
330
97F7
100
AcDbEntity
  8
1
  6
Continuous
100
AcDbLine
 10
75.096728
 20
247.341355
 30
0.0
 11
72.35772800000003
 21
247.341355
 31
0.0
  0
LINE
  5
98A1
330
97F7
100
AcDbEntity
  8
1
  6
Continuous
100
AcDbLine
 10
75.096728
 20
265.3413549999999
 30
0.0
 11
72.35772800000003
 21
265.3413549999999
 31
0.0
  0
LINE
  5
98A2
330
97F7
100
AcDbEntity
  8
1
  6
Continuous
100
AcDbLine
 10
75.096728
 20
265.3413549999999
 30
0.0
 11
84.865328
 21
259.6853549999999
 31
0.0
  0
LINE
  5
98A3
330
97F7
100
AcDbEntity
  8
1
  6
Continuous
100
AcDbLine
 10
75.096728
 20
247.341355
 30
0.0
 11
84.865328
 21
252.996355
 31
0.0
  0
LINE
  5
98A4
330
97F7
100
AcDbEntity
  8
1
  6
Continuous
100
AcDbLine
 10
84.865328
 20
252.996355
 30
0.0
 11
84.865328
 21
259.6853549999999
 31
0.0
  0
LINE
  5
98A5
330
97F7
100
AcDbEntity
  8
1
  6
Continuous
100
AcDbLine
 10
67.865328
 20
253.181114
 30
0.0
 11
72.35772800000003
 21
247.341355
 31
0.0
  0
LINE
  5
98A6
330
97F7
100
AcDbEntity
  8
1
  6
Continuous
100
AcDbLine
 10
67.04702799999998
 20
252.606564
 30
0.0
 11
71.565128
 21
246.7313549999999
 31
0.0
  0
LINE
  5
98A7
330
97F7
100
AcDbEntity
  8
4
  6
CENTER
100
AcDbLine
 10
324.3009999999998
 20
270.163
 30
0.0
 11
324.3009999999998
 21
277.084
 31
0.0
  0
LINE
  5
98A8
330
97F7
100
AcDbEntity
  8
4
  6
CENTER
100
AcDbLine
 10
372.3009999999999
 20
270.163
 30
0.0
 11
372.3009999999999
 21
277.084
 31
0.0
  0
LINE
  5
98A9
330
97F7
100
AcDbEntity
  8
1
  6
Continuous
100
AcDbLine
 10
400.8009999999998
 20
162.685
 30
0.0
 11
400.8009999999998
 21
72.68550000000002
 31
0.0
  0
LINE
  5
98AA
330
97F7
100
AcDbEntity
  8
1
  6
Continuous
100
AcDbLine
 10
402.801
 20
162.685
 30
0.0
 11
402.801
 21
72.68550000000002
 31
0.0
  0
LINE
  5
98AB
330
97F7
100
AcDbEntity
  8
1
  6
Continuous
100
AcDbLine
 10
411.8009999999999
 20
110.685
 30
0.0
 11
402.801
 21
110.685
 31
0.0
  0
LINE
  5
98AC
330
97F7
100
AcDbEntity
  8
1
  6
Continuous
100
AcDbLine
 10
400.8009999999998
 20
110.685
 30
0.0
 11
385.753
 21
110.685
 31
0.0
  0
LINE
  5
98AD
330
97F7
100
AcDbEntity
  8
1
  6
Continuous
100
AcDbLine
 10
411.8009999999999
 20
124.685
 30
0.0
 11
402.801
 21
124.685
 31
0.0
  0
LINE
  5
98AE
330
97F7
100
AcDbEntity
  8
1
  6
Continuous
100
AcDbLine
 10
400.8009999999998
 20
124.685
 30
0.0
 11
385.753
 21
124.685
 31
0.0
  0
LINE
  5
98AF
330
97F7
100
AcDbEntity
  8
1
  6
Continuous
100
AcDbLine
 10
469.561
 20
159.685
 30
0.0
 11
469.561
 21
75.6855
 31
0.0
  0
LINE
  5
98B0
330
97F7
100
AcDbEntity
  8
1
  6
Continuous
100
AcDbLine
 10
357.401
 20
83.63549999999998
 30
0.0
 11
347.8009999999999
 21
83.63549999999998
 31
0.0
  0
LINE
  5
98B1
330
97F7
100
AcDbEntity
  8
1
  6
Continuous
100
AcDbLine
 10
357.401
 20
85.7355
 30
0.0
 11
347.8009999999999
 21
85.7355
 31
0.0
  0
LINE
  5
98B2
330
97F7
100
AcDbEntity
  8
1
  6
Continuous
100
AcDbLine
 10
347.8009999999999
 20
85.7355
 30
0.0
 11
347.8009999999999
 21
83.63549999999998
 31
0.0
  0
LINE
  5
98B3
330
97F7
100
AcDbEntity
  8
1
  6
Continuous
100
AcDbLine
 10
357.401
 20
85.7355
 30
0.0
 11
357.401
 21
83.63549999999998
 31
0.0
  0
LINE
  5
98B4
330
97F7
100
AcDbEntity
  8
4
  6
CENTER
100
AcDbLine
 10
343.651
 20
84.6855
 30
0.0
 11
360.9509999999998
 21
84.6855
 31
0.0
  0
LINE
  5
98B5
330
97F7
100
AcDbEntity
  8
4
  6
CENTER
100
AcDbLine
 10
352.3009999999999
 20
93.3355
 30
0.0
 11
352.3009999999999
 21
75.90810000000002
 31
0.0
  0
LINE
  5
98B6
330
97F7
100
AcDbEntity
  8
5
  6
PHANTOM
100
AcDbLine
 10
380.129
 20
250.909
 30
0.0
 11
377.3009999999999
 21
254.9329999999999
 31
0.0
  0
LINE
  5
98B7
330
97F7
100
AcDbEntity
  8
5
  6
PHANTOM
100
AcDbLine
 10
378.4330000000001
 20
253.3229999999999
 30
0.0
 11
377.3009999999999
 21
252.5279999999999
 31
0.0
  0
LINE
  5
98B8
330
97F7
100
AcDbEntity
  8
5
  6
PHANTOM
100
AcDbLine
 10
362.517
 20
242.138
 30
0.0
 11
330.709
 21
219.7849999999998
 31
0.0
  0
LINE
  5
98B9
330
97F7
100
AcDbEntity
  8
1
  6
Continuous
100
AcDbLine
 10
254.869
 20
66.6855
 30
0.0
 11
253.0409999999999
 21
66.6855
 31
0.0
  0
LINE
  5
98BA
330
97F7
100
AcDbEntity
  8
1
  6
Continuous
100
AcDbLine
 10
254.869
 20
168.6849999999998
 30
0.0
 11
253.0409999999999
 21
168.6849999999998
 31
0.0
  0
LINE
  5
98BB
330
97F7
100
AcDbEntity
  8
1
  6
Continuous
100
AcDbLine
 10
253.0409999999999
 20
66.6855
 30
0.0
 11
253.0409999999999
 21
168.6849999999998
 31
0.0
  0
LINE
  5
98BC
330
97F7
100
AcDbEntity
  8
1
  6
Continuous
100
AcDbLine
 10
244.2409999999999
 20
163.185
 30
0.0
 11
253.0409999999999
 21
163.185
 31
0.0
  0
LINE
  5
98BD
330
97F7
100
AcDbEntity
  8
1
  6
Continuous
100
AcDbLine
 10
244.2409999999999
 20
72.1855
 30
0.0
 11
253.0409999999999
 21
72.1855
 31
0.0
  0
LINE
  5
98BE
330
97F7
100
AcDbEntity
  8
1
  6
Continuous
100
AcDbLine
 10
224.041
 20
72.68550000000002
 30
0.0
 11
224.041
 21
162.685
 31
0.0
  0
LINE
  5
98BF
330
97F7
100
AcDbEntity
  8
1
  6
Continuous
100
AcDbLine
 10
238.0409999999999
 20
72.68550000000002
 30
0.0
 11
224.041
 21
72.68550000000002
 31
0.0
  0
LINE
  5
98C0
330
97F7
100
AcDbEntity
  8
1
  6
Continuous
100
AcDbLine
 10
238.0409999999999
 20
162.685
 30
0.0
 11
224.041
 21
162.685
 31
0.0
  0
LINE
  5
98C1
330
97F7
100
AcDbEntity
  8
4
  6
CENTER
100
AcDbLine
 10
217.1559999999999
 20
117.6849999999999
 30
0.0
 11
262.6279999999998
 21
117.6849999999999
 31
0.0
  0
LINE
  5
98C2
330
97F7
100
AcDbEntity
  8
1
  6
Continuous
100
AcDbLine
 10
236.241
 20
80.18550000000002
 30
0.0
 11
236.241
 21
87.68550000000002
 31
0.0
  0
LINE
  5
98C3
330
97F7
100
AcDbEntity
  8
1
  6
Continuous
100
AcDbLine
 10
226.0409999999999
 20
108.0849999999998
 30
0.0
 11
233.041
 21
108.0849999999998
 31
0.0
  0
LINE
  5
98C4
330
97F7
100
AcDbEntity
  8
1
  6
Continuous
100
AcDbLine
 10
226.0409999999999
 20
127.285
 30
0.0
 11
233.041
 21
127.285
 31
0.0
  0
LINE
  5
98C5
330
97F7
100
AcDbEntity
  8
4
  6
CENTER
100
AcDbLine
 10
221.1149999999999
 20
147.6849999999998
 30
0.0
 11
234.0409999999998
 21
147.6849999999998
 31
0.0
  0
LINE
  5
98C6
330
97F7
100
AcDbEntity
  8
4
  6
CENTER
100
AcDbLine
 10
220.8159999999999
 20
87.68550000000002
 30
0.0
 11
234.0409999999998
 21
87.68550000000002
 31
0.0
  0
LINE
  5
98C7
330
97F7
100
AcDbEntity
  8
1
  6
Continuous
100
AcDbLine
 10
226.0409999999999
 20
82.68550000000002
 30
0.0
 11
236.241
 21
82.68550000000002
 31
0.0
  0
LINE
  5
98C8
330
97F7
100
AcDbEntity
  8
1
  6
Continuous
100
AcDbLine
 10
226.0409999999999
 20
92.68550000000001
 30
0.0
 11
233.041
 21
92.68550000000001
 31
0.0
  0
LINE
  5
98C9
330
97F7
100
AcDbEntity
  8
1
  6
Continuous
100
AcDbLine
 10
226.0409999999999
 20
142.6849999999998
 30
0.0
 11
233.041
 21
142.6849999999998
 31
0.0
  0
LINE
  5
98CA
330
97F7
100
AcDbEntity
  8
1
  6
Continuous
100
AcDbLine
 10
226.0409999999999
 20
152.685
 30
0.0
 11
236.241
 21
152.685
 31
0.0
  0
LINE
  5
98CB
330
97F7
100
AcDbEntity
  8
4
  6
CENTER
100
AcDbLine
 10
219.903
 20
100.185
 30
0.0
 11
236.1349999999999
 21
100.185
 31
0.0
  0
LINE
  5
98CC
330
97F7
100
AcDbEntity
  8
4
  6
CENTER
100
AcDbLine
 10
220.9709999999998
 20
135.1849999999998
 30
0.0
 11
236.99
 21
135.1849999999998
 31
0.0
  0
LINE
  5
98CD
330
97F7
100
AcDbEntity
  8
1
  6
Continuous
100
AcDbLine
 10
233.041
 20
88.6855
 30
0.0
 11
233.041
 21
108.0849999999998
 31
0.0
  0
LINE
  5
98CE
330
97F7
100
AcDbEntity
  8
1
  6
Continuous
100
AcDbLine
 10
226.0409999999999
 20
72.68550000000002
 30
0.0
 11
226.0409999999999
 21
162.685
 31
0.0
  0
LINE
  5
98CF
330
97F7
100
AcDbEntity
  8
1
  6
Continuous
100
AcDbLine
 10
234.0409999999998
 20
137.685
 30
0.0
 11
253.0409999999999
 21
137.685
 31
0.0
  0
LINE
  5
98D0
330
97F7
100
AcDbEntity
  8
1
  6
Continuous
100
AcDbLine
 10
234.0409999999998
 20
97.68550000000001
 30
0.0
 11
253.0409999999999
 21
97.68550000000001
 31
0.0
  0
LINE
  5
98D1
330
97F7
100
AcDbEntity
  8
1
  6
Continuous
100
AcDbLine
 10
234.0409999999998
 20
87.68550000000002
 30
0.0
 11
253.0409999999999
 21
87.68550000000002
 31
0.0
  0
LINE
  5
98D2
330
97F7
100
AcDbEntity
  8
1
  6
Continuous
100
AcDbLine
 10
234.0409999999998
 20
147.6849999999998
 30
0.0
 11
253.0409999999999
 21
147.6849999999998
 31
0.0
  0
LINE
  5
98D3
330
97F7
100
AcDbEntity
  8
1
  6
Continuous
100
AcDbLine
 10
236.241
 20
147.6849999999998
 30
0.0
 11
236.241
 21
155.1849999999998
 31
0.0
  0
LINE
  5
98D4
330
97F7
100
AcDbEntity
  8
1
  6
Continuous
100
AcDbLine
 10
233.041
 20
127.285
 30
0.0
 11
233.041
 21
146.6849999999998
 31
0.0
  0
LINE
  5
98D5
330
97F7
100
AcDbEntity
  8
1
  6
Continuous
100
AcDbLine
 10
202.1329999999999
 20
157.685
 30
0.0
 11
202.1329999999999
 21
77.68550000000002
 31
0.0
  0
LINE
  5
98D6
330
97F7
100
AcDbEntity
  8
1
  6
Continuous
100
AcDbLine
 10
200.1329999999999
 20
157.685
 30
0.0
 11
200.1329999999999
 21
77.68550000000002
 31
0.0
  0
LINE
  5
98D7
330
97F7
100
AcDbEntity
  8
1
  6
Continuous
100
AcDbLine
 10
180.6329999999999
 20
157.685
 30
0.0
 11
180.6329999999999
 21
77.68550000000002
 31
0.0
  0
LINE
  5
98D8
330
97F7
100
AcDbEntity
  8
1
  6
Continuous
100
AcDbLine
 10
202.1329999999999
 20
157.685
 30
0.0
 11
180.6329999999999
 21
157.685
 31
0.0
  0
LINE
  5
98D9
330
97F7
100
AcDbEntity
  8
1
  6
Continuous
100
AcDbLine
 10
202.1329999999999
 20
77.68550000000002
 30
0.0
 11
180.6329999999999
 21
77.68550000000002
 31
0.0
  0
LINE
  5
98DA
330
97F7
100
AcDbEntity
  8
4
  6
CENTER
100
AcDbLine
 10
313.343
 20
261.329
 30
0.0
 11
313.343
 21
271.2269999999999
 31
0.0
  0
LINE
  5
98DB
330
97F7
100
AcDbEntity
  8
4
  6
CENTER
100
AcDbLine
 10
313.343
 20
293.5809999999999
 30
0.0
 11
313.343
 21
306.721
 31
0.0
  0
LINE
  5
98DC
330
97F7
100
AcDbEntity
  8
4
  6
CENTER
100
AcDbLine
 10
206.6289999999999
 20
117.6849999999999
 30
0.0
 11
175.06
 21
117.6849999999999
 31
0.0
  0
LINE
  5
98DD
330
97F7
100
AcDbEntity
  8
4
  6
CENTER
100
AcDbLine
 10
183.6329999999999
 20
142.6849999999998
 30
0.0
 11
173.233
 21
142.6849999999998
 31
0.0
  0
LINE
  5
98DE
330
97F7
100
AcDbEntity
  8
4
  6
CENTER
100
AcDbLine
 10
183.6329999999999
 20
92.68550000000001
 30
0.0
 11
173.233
 21
92.68550000000001
 31
0.0
  0
LINE
  5
98DF
330
97F7
100
AcDbEntity
  8
1
  6
Continuous
100
AcDbLine
 10
179.8329999999999
 20
87.68550000000002
 30
0.0
 11
179.8329999999999
 21
97.68550000000001
 31
0.0
  0
LINE
  5
98E0
330
97F7
100
AcDbEntity
  8
1
  6
Continuous
100
AcDbLine
 10
178.833
 20
88.88549999999998
 30
0.0
 11
178.833
 21
96.4855
 31
0.0
  0
LINE
  5
98E1
330
97F7
100
AcDbEntity
  8
1
  6
Continuous
100
AcDbLine
 10
178.833
 20
92.22410000000001
 30
0.0
 11
179.8329999999999
 21
93.06319999999999
 31
0.0
  0
LINE
  5
98E2
330
97F7
100
AcDbEntity
  8
1
  6
Continuous
100
AcDbLine
 10
178.833
 20
89.18550000000001
 30
0.0
 11
177.714
 21
89.2834
 31
0.0
  0
LINE
  5
98E3
330
97F7
100
AcDbEntity
  8
1
  6
Continuous
100
AcDbLine
 10
178.833
 20
96.1855
 30
0.0
 11
177.714
 21
96.0876
 31
0.0
  0
LINE
  5
98E4
330
97F7
100
AcDbEntity
  8
1
  6
Continuous
100
AcDbLine
 10
53.965
 20
72.1855
 30
0.0
 11
53.965
 21
72.68550000000002
 31
0.0
  0
LINE
  5
98E5
330
97F7
100
AcDbEntity
  8
1
  6
Continuous
100
AcDbLine
 10
28.465
 20
162.685
 30
0.0
 11
109.965
 21
162.685
 31
0.0
  0
LINE
  5
98E6
330
97F7
100
AcDbEntity
  8
1
  6
Continuous
100
AcDbLine
 10
28.465
 20
72.68550000000002
 30
0.0
 11
109.965
 21
72.68550000000002
 31
0.0
  0
LINE
  5
98E7
330
97F7
100
AcDbEntity
  8
1
  6
Continuous
100
AcDbLine
 10
18.46499999999998
 20
111.685
 30
0.0
 11
18.46499999999998
 21
123.685
 31
0.0
  0
LINE
  5
98E8
330
97F7
100
AcDbEntity
  8
4
  6
CENTER
100
AcDbLine
 10
34.03739999999999
 20
147.6849999999998
 30
0.0
 11
23.22529999999999
 21
147.6849999999998
 31
0.0
  0
LINE
  5
98E9
330
97F7
100
AcDbEntity
  8
4
  6
CENTER
100
AcDbLine
 10
33.7971
 20
87.68550000000002
 30
0.0
 11
23.4655
 21
87.68550000000002
 31
0.0
  0
LINE
  5
98EA
330
97F7
100
AcDbEntity
  8
4
  6
CENTER
100
AcDbLine
 10
10.1024
 20
117.6849999999999
 30
0.0
 11
139.7229999999999
 21
117.6849999999999
 31
0.0
  0
LINE
  5
98EB
330
97F7
100
AcDbEntity
  8
1
  6
Continuous
100
AcDbLine
 10
113.761
 20
79.6855
 30
0.0
 11
113.761
 21
105.685
 31
0.0
  0
LINE
  5
98EC
330
97F7
100
AcDbEntity
  8
1
  6
Continuous
100
AcDbLine
 10
115.761
 20
77.68550000000002
 30
0.0
 11
132.261
 21
77.68550000000002
 31
0.0
  0
LINE
  5
98ED
330
97F7
100
AcDbEntity
  8
1
  6
Continuous
100
AcDbLine
 10
115.761
 20
157.685
 30
0.0
 11
132.261
 21
157.685
 31
0.0
  0
LINE
  5
98EE
330
97F7
100
AcDbEntity
  8
1
  6
Continuous
100
AcDbLine
 10
28.465
 20
162.685
 30
0.0
 11
28.465
 21
124.685
 31
0.0
  0
LINE
  5
98EF
330
97F7
100
AcDbEntity
  8
1
  6
Continuous
100
AcDbLine
 10
19.465
 20
110.685
 30
0.0
 11
30.46499999999999
 21
110.685
 31
0.0
  0
LINE
  5
98F0
330
97F7
100
AcDbEntity
  8
1
  6
Continuous
100
AcDbLine
 10
19.465
 20
124.685
 30
0.0
 11
30.46499999999999
 21
124.685
 31
0.0
  0
LINE
  5
98F1
330
97F7
100
AcDbEntity
  8
1
  6
Continuous
100
AcDbLine
 10
134.261
 20
79.6855
 30
0.0
 11
134.261
 21
155.685
 31
0.0
  0
LINE
  5
98F2
330
97F7
100
AcDbEntity
  8
1
  6
Continuous
100
AcDbLine
 10
118.761
 20
107.685
 30
0.0
 11
115.761
 21
107.685
 31
0.0
  0
LINE
  5
98F3
330
97F7
100
AcDbEntity
  8
1
  6
Continuous
100
AcDbLine
 10
118.761
 20
127.685
 30
0.0
 11
115.761
 21
127.685
 31
0.0
  0
LINE
  5
98F4
330
97F7
100
AcDbEntity
  8
1
  6
Continuous
100
AcDbLine
 10
118.761
 20
107.685
 30
0.0
 11
118.761
 21
127.685
 31
0.0
  0
LINE
  5
98F5
330
97F7
100
AcDbEntity
  8
1
  6
Continuous
100
AcDbLine
 10
113.761
 20
129.685
 30
0.0
 11
113.761
 21
155.685
 31
0.0
  0
LINE
  5
98F6
330
97F7
100
AcDbEntity
  8
1
  6
Continuous
100
AcDbLine
 10
115.965
 20
163.185
 30
0.0
 11
53.965
 21
163.185
 31
0.0
  0
LINE
  5
98F7
330
97F7
100
AcDbEntity
  8
1
  6
Continuous
100
AcDbLine
 10
115.965
 20
72.1855
 30
0.0
 11
53.965
 21
72.1855
 31
0.0
  0
LINE
  5
98F8
330
97F7
100
AcDbEntity
  8
1
  6
Continuous
100
AcDbLine
 10
119.089
 20
143.357
 30
0.0
 11
118.5819999999999
 21
143.121
 31
0.0
  0
LINE
  5
98F9
330
97F7
100
AcDbEntity
  8
1
  6
Continuous
100
AcDbLine
 10
118.5819999999999
 20
143.121
 30
0.0
 11
117.703
 21
143.1049999999999
 31
0.0
  0
LINE
  5
98FA
330
97F7
100
AcDbEntity
  8
1
  6
Continuous
100
AcDbLine
 10
118.5819999999999
 20
142.25
 30
0.0
 11
117.703
 21
142.2649999999999
 31
0.0
  0
LINE
  5
98FB
330
97F7
100
AcDbEntity
  8
1
  6
Continuous
100
AcDbLine
 10
119.089
 20
142.014
 30
0.0
 11
118.5819999999999
 21
142.25
 31
0.0
  0
LINE
  5
98FC
330
97F7
100
AcDbEntity
  8
1
  6
Continuous
100
AcDbLine
 10
120.432
 20
142.014
 30
0.0
 11
120.1959999999999
 21
141.507
 31
0.0
  0
LINE
  5
98FD
330
97F7
100
AcDbEntity
  8
1
  6
Continuous
100
AcDbLine
 10
120.1959999999999
 20
141.507
 30
0.0
 11
120.181
 21
140.6279999999999
 31
0.0
  0
LINE
  5
98FE
330
97F7
100
AcDbEntity
  8
1
  6
Continuous
100
AcDbLine
 10
119.325
 20
141.507
 30
0.0
 11
119.3409999999999
 21
140.6279999999999
 31
0.0
  0
LINE
  5
98FF
330
97F7
100
AcDbEntity
  8
1
  6
Continuous
100
AcDbLine
 10
119.089
 20
142.014
 30
0.0
 11
119.325
 21
141.507
 31
0.0
  0
LINE
  5
9900
330
97F7
100
AcDbEntity
  8
1
  6
Continuous
100
AcDbLine
 10
120.432
 20
143.357
 30
0.0
 11
120.9389999999998
 21
143.121
 31
0.0
  0
LINE
  5
9901
330
97F7
100
AcDbEntity
  8
1
  6
Continuous
100
AcDbLine
 10
120.9389999999998
 20
143.121
 30
0.0
 11
121.818
 21
143.1049999999999
 31
0.0
  0
LINE
  5
9902
330
97F7
100
AcDbEntity
  8
1
  6
Continuous
100
AcDbLine
 10
120.9389999999998
 20
142.25
 30
0.0
 11
121.818
 21
142.2649999999999
 31
0.0
  0
LINE
  5
9903
330
97F7
100
AcDbEntity
  8
1
  6
Continuous
100
AcDbLine
 10
120.432
 20
142.014
 30
0.0
 11
120.9389999999998
 21
142.25
 31
0.0
  0
LINE
  5
9904
330
97F7
100
AcDbEntity
  8
1
  6
Continuous
100
AcDbLine
 10
119.089
 20
143.357
 30
0.0
 11
119.325
 21
143.864
 31
0.0
  0
LINE
  5
9905
330
97F7
100
AcDbEntity
  8
1
  6
Continuous
100
AcDbLine
 10
119.325
 20
143.864
 30
0.0
 11
119.3409999999999
 21
144.7429999999999
 31
0.0
  0
LINE
  5
9906
330
97F7
100
AcDbEntity
  8
1
  6
Continuous
100
AcDbLine
 10
120.1959999999999
 20
143.864
 30
0.0
 11
120.181
 21
144.7429999999999
 31
0.0
  0
LINE
  5
9907
330
97F7
100
AcDbEntity
  8
1
  6
Continuous
100
AcDbLine
 10
120.432
 20
143.357
 30
0.0
 11
120.1959999999999
 21
143.864
 31
0.0
  0
LINE
  5
9908
330
97F7
100
AcDbEntity
  8
1
  6
Continuous
100
AcDbLine
 10
119.089
 20
93.3571
 30
0.0
 11
118.5819999999999
 21
93.12079999999999
 31
0.0
  0
LINE
  5
9909
330
97F7
100
AcDbEntity
  8
1
  6
Continuous
100
AcDbLine
 10
118.5819999999999
 20
93.12079999999999
 30
0.0
 11
117.703
 21
93.1055
 31
0.0
  0
LINE
  5
990A
330
97F7
100
AcDbEntity
  8
1
  6
Continuous
100
AcDbLine
 10
118.5819999999999
 20
92.25010000000001
 30
0.0
 11
117.703
 21
92.26550000000001
 31
0.0
  0
LINE
  5
990B
330
97F7
100
AcDbEntity
  8
1
  6
Continuous
100
AcDbLine
 10
119.089
 20
92.0138
 30
0.0
 11
118.5819999999999
 21
92.25010000000001
 31
0.0
  0
LINE
  5
990C
330
97F7
100
AcDbEntity
  8
1
  6
Continuous
100
AcDbLine
 10
120.432
 20
92.0138
 30
0.0
 11
120.1959999999999
 21
91.5071
 31
0.0
  0
LINE
  5
990D
330
97F7
100
AcDbEntity
  8
1
  6
Continuous
100
AcDbLine
 10
120.1959999999999
 20
91.5071
 30
0.0
 11
120.181
 21
90.62789999999999
 31
0.0
  0
LINE
  5
990E
330
97F7
100
AcDbEntity
  8
1
  6
Continuous
100
AcDbLine
 10
119.325
 20
91.5071
 30
0.0
 11
119.3409999999999
 21
90.62789999999999
 31
0.0
  0
LINE
  5
990F
330
97F7
100
AcDbEntity
  8
1
  6
Continuous
100
AcDbLine
 10
119.089
 20
92.0138
 30
0.0
 11
119.325
 21
91.5071
 31
0.0
  0
LINE
  5
9910
330
97F7
100
AcDbEntity
  8
1
  6
Continuous
100
AcDbLine
 10
120.432
 20
93.3571
 30
0.0
 11
120.9389999999998
 21
93.12079999999999
 31
0.0
  0
LINE
  5
9911
330
97F7
100
AcDbEntity
  8
1
  6
Continuous
100
AcDbLine
 10
120.9389999999998
 20
93.12079999999999
 30
0.0
 11
121.818
 21
93.1055
 31
0.0
  0
LINE
  5
9912
330
97F7
100
AcDbEntity
  8
1
  6
Continuous
100
AcDbLine
 10
120.9389999999998
 20
92.25010000000001
 30
0.0
 11
121.818
 21
92.26550000000001
 31
0.0
  0
LINE
  5
9913
330
97F7
100
AcDbEntity
  8
1
  6
Continuous
100
AcDbLine
 10
120.432
 20
92.0138
 30
0.0
 11
120.9389999999998
 21
92.25010000000001
 31
0.0
  0
LINE
  5
9914
330
97F7
100
AcDbEntity
  8
1
  6
Continuous
100
AcDbLine
 10
119.089
 20
93.3571
 30
0.0
 11
119.325
 21
93.8638
 31
0.0
  0
LINE
  5
9915
330
97F7
100
AcDbEntity
  8
1
  6
Continuous
100
AcDbLine
 10
119.325
 20
93.8638
 30
0.0
 11
119.3409999999999
 21
94.74299999999999
 31
0.0
  0
LINE
  5
9916
330
97F7
100
AcDbEntity
  8
1
  6
Continuous
100
AcDbLine
 10
120.1959999999999
 20
93.8638
 30
0.0
 11
120.181
 21
94.74299999999999
 31
0.0
  0
LINE
  5
9917
330
97F7
100
AcDbEntity
  8
1
  6
Continuous
100
AcDbLine
 10
120.432
 20
93.3571
 30
0.0
 11
120.1959999999999
 21
93.8638
 31
0.0
  0
LINE
  5
9918
330
97F7
100
AcDbEntity
  8
4
  6
CENTER
100
AcDbLine
 10
113.261
 20
142.6849999999998
 30
0.0
 11
126.261
 21
142.6849999999998
 31
0.0
  0
LINE
  5
9919
330
97F7
100
AcDbEntity
  8
4
  6
CENTER
100
AcDbLine
 10
119.761
 20
136.185
 30
0.0
 11
119.761
 21
149.185
 31
0.0
  0
LINE
  5
991A
330
97F7
100
AcDbEntity
  8
4
  6
CENTER
100
AcDbLine
 10
113.261
 20
92.68550000000001
 30
0.0
 11
126.261
 21
92.68550000000001
 31
0.0
  0
LINE
  5
991B
330
97F7
100
AcDbEntity
  8
4
  6
CENTER
100
AcDbLine
 10
119.761
 20
86.1855
 30
0.0
 11
119.761
 21
99.18550000000001
 31
0.0
  0
LINE
  5
991C
330
97F7
100
AcDbEntity
  8
1
  6
Continuous
100
AcDbLine
 10
28.465
 20
110.485
 30
0.0
 11
30.46499999999999
 21
110.485
 31
0.0
  0
LINE
  5
991D
330
97F7
100
AcDbEntity
  8
1
  6
Continuous
100
AcDbLine
 10
28.465
 20
124.885
 30
0.0
 11
30.46499999999999
 21
124.885
 31
0.0
  0
LINE
  5
991E
330
97F7
100
AcDbEntity
  8
1
  6
Continuous
100
AcDbLine
 10
30.46499999999999
 20
124.885
 30
0.0
 11
30.46499999999999
 21
110.485
 31
0.0
  0
LINE
  5
991F
330
97F7
100
AcDbEntity
  8
1
  6
Continuous
100
AcDbLine
 10
112.965
 20
159.685
 30
0.0
 11
112.965
 21
75.6855
 31
0.0
  0
LINE
  5
9920
330
97F7
100
AcDbEntity
  8
1
  6
Continuous
100
AcDbLine
 10
53.965
 20
162.685
 30
0.0
 11
53.965
 21
163.185
 31
0.0
  0
LINE
  5
9921
330
97F7
100
AcDbEntity
  8
1
  6
Continuous
100
AcDbLine
 10
58.2719
 20
148.3789999999999
 30
0.0
 11
57.7226
 21
148.122
 31
0.0
  0
LINE
  5
9922
330
97F7
100
AcDbEntity
  8
1
  6
Continuous
100
AcDbLine
 10
57.7226
 20
148.122
 30
0.0
 11
56.7545
 21
148.1049999999999
 31
0.0
  0
LINE
  5
9923
330
97F7
100
AcDbEntity
  8
1
  6
Continuous
100
AcDbLine
 10
57.7226
 20
147.249
 30
0.0
 11
56.75460000000001
 21
147.2649999999999
 31
0.0
  0
LINE
  5
9924
330
97F7
100
AcDbEntity
  8
1
  6
Continuous
100
AcDbLine
 10
58.2719
 20
146.9919999999999
 30
0.0
 11
57.7226
 21
147.249
 31
0.0
  0
LINE
  5
9925
330
97F7
100
AcDbEntity
  8
1
  6
Continuous
100
AcDbLine
 10
59.658
 20
146.9919999999999
 30
0.0
 11
59.4019
 21
146.4429999999999
 31
0.0
  0
LINE
  5
9926
330
97F7
100
AcDbEntity
  8
1
  6
Continuous
100
AcDbLine
 10
59.4019
 20
146.4429999999999
 30
0.0
 11
59.385
 21
145.4749999999999
 31
0.0
  0
LINE
  5
9927
330
97F7
100
AcDbEntity
  8
1
  6
Continuous
100
AcDbLine
 10
58.5281
 20
146.4429999999999
 30
0.0
 11
58.545
 21
145.4749999999999
 31
0.0
  0
LINE
  5
9928
330
97F7
100
AcDbEntity
  8
1
  6
Continuous
100
AcDbLine
 10
58.2719
 20
146.9919999999999
 30
0.0
 11
58.5281
 21
146.4429999999999
 31
0.0
  0
LINE
  5
9929
330
97F7
100
AcDbEntity
  8
1
  6
Continuous
100
AcDbLine
 10
59.658
 20
148.3789999999999
 30
0.0
 11
60.20739999999999
 21
148.122
 31
0.0
  0
LINE
  5
992A
330
97F7
100
AcDbEntity
  8
1
  6
Continuous
100
AcDbLine
 10
60.20739999999999
 20
148.122
 30
0.0
 11
61.1755
 21
148.1049999999999
 31
0.0
  0
LINE
  5
992B
330
97F7
100
AcDbEntity
  8
1
  6
Continuous
100
AcDbLine
 10
60.20739999999999
 20
147.249
 30
0.0
 11
61.1754
 21
147.2649999999999
 31
0.0
  0
LINE
  5
992C
330
97F7
100
AcDbEntity
  8
1
  6
Continuous
100
AcDbLine
 10
59.658
 20
146.9919999999999
 30
0.0
 11
60.2073
 21
147.249
 31
0.0
  0
LINE
  5
992D
330
97F7
100
AcDbEntity
  8
1
  6
Continuous
100
AcDbLine
 10
58.2719
 20
148.3789999999999
 30
0.0
 11
58.5281
 21
148.9279999999999
 31
0.0
  0
LINE
  5
992E
330
97F7
100
AcDbEntity
  8
1
  6
Continuous
100
AcDbLine
 10
58.5281
 20
148.9279999999999
 30
0.0
 11
58.545
 21
149.8959999999999
 31
0.0
  0
LINE
  5
992F
330
97F7
100
AcDbEntity
  8
1
  6
Continuous
100
AcDbLine
 10
59.4019
 20
148.9279999999999
 30
0.0
 11
59.385
 21
149.8959999999999
 31
0.0
  0
LINE
  5
9930
330
97F7
100
AcDbEntity
  8
1
  6
Continuous
100
AcDbLine
 10
59.658
 20
148.3789999999999
 30
0.0
 11
59.4019
 21
148.9279999999999
 31
0.0
  0
LINE
  5
9931
330
97F7
100
AcDbEntity
  8
1
  6
Continuous
100
AcDbLine
 10
58.2719
 20
88.37850000000001
 30
0.0
 11
57.7226
 21
88.1224
 31
0.0
  0
LINE
  5
9932
330
97F7
100
AcDbEntity
  8
1
  6
Continuous
100
AcDbLine
 10
57.7226
 20
88.1224
 30
0.0
 11
56.7545
 21
88.1055
 31
0.0
  0
LINE
  5
9933
330
97F7
100
AcDbEntity
  8
1
  6
Continuous
100
AcDbLine
 10
57.7226
 20
87.24859999999997
 30
0.0
 11
56.7545
 21
87.26550000000001
 31
0.0
  0
LINE
  5
9934
330
97F7
100
AcDbEntity
  8
1
  6
Continuous
100
AcDbLine
 10
58.2719
 20
86.99240000000001
 30
0.0
 11
57.7226
 21
87.24859999999997
 31
0.0
  0
LINE
  5
9935
330
97F7
100
AcDbEntity
  8
1
  6
Continuous
100
AcDbLine
 10
59.658
 20
86.99240000000001
 30
0.0
 11
59.4019
 21
86.4431
 31
0.0
  0
LINE
  5
9936
330
97F7
100
AcDbEntity
  8
1
  6
Continuous
100
AcDbLine
 10
59.4019
 20
86.4431
 30
0.0
 11
59.385
 21
85.47499999999997
 31
0.0
  0
LINE
  5
9937
330
97F7
100
AcDbEntity
  8
1
  6
Continuous
100
AcDbLine
 10
58.5281
 20
86.4431
 30
0.0
 11
58.545
 21
85.47499999999997
 31
0.0
  0
LINE
  5
9938
330
97F7
100
AcDbEntity
  8
1
  6
Continuous
100
AcDbLine
 10
58.2719
 20
86.99240000000001
 30
0.0
 11
58.5281
 21
86.4431
 31
0.0
  0
LINE
  5
9939
330
97F7
100
AcDbEntity
  8
1
  6
Continuous
100
AcDbLine
 10
59.658
 20
88.37850000000001
 30
0.0
 11
60.2073
 21
88.1224
 31
0.0
  0
LINE
  5
993A
330
97F7
100
AcDbEntity
  8
1
  6
Continuous
100
AcDbLine
 10
60.2073
 20
88.1224
 30
0.0
 11
61.1754
 21
88.1055
 31
0.0
  0
LINE
  5
993B
330
97F7
100
AcDbEntity
  8
1
  6
Continuous
100
AcDbLine
 10
60.2073
 20
87.24859999999997
 30
0.0
 11
61.1754
 21
87.26550000000001
 31
0.0
  0
LINE
  5
993C
330
97F7
100
AcDbEntity
  8
1
  6
Continuous
100
AcDbLine
 10
59.658
 20
86.99240000000001
 30
0.0
 11
60.20739999999999
 21
87.24859999999997
 31
0.0
  0
LINE
  5
993D
330
97F7
100
AcDbEntity
  8
1
  6
Continuous
100
AcDbLine
 10
58.2719
 20
88.37850000000001
 30
0.0
 11
58.5281
 21
88.9278
 31
0.0
  0
LINE
  5
993E
330
97F7
100
AcDbEntity
  8
1
  6
Continuous
100
AcDbLine
 10
58.5281
 20
88.9278
 30
0.0
 11
58.545
 21
89.89589999999996
 31
0.0
  0
LINE
  5
993F
330
97F7
100
AcDbEntity
  8
1
  6
Continuous
100
AcDbLine
 10
59.4019
 20
88.9278
 30
0.0
 11
59.385
 21
89.89589999999996
 31
0.0
  0
LINE
  5
9940
330
97F7
100
AcDbEntity
  8
1
  6
Continuous
100
AcDbLine
 10
59.658
 20
88.37850000000001
 30
0.0
 11
59.4019
 21
88.9278
 31
0.0
  0
LINE
  5
9941
330
97F7
100
AcDbEntity
  8
1
  6
Continuous
100
AcDbLine
 10
106.272
 20
135.8789999999999
 30
0.0
 11
105.723
 21
135.622
 31
0.0
  0
LINE
  5
9942
330
97F7
100
AcDbEntity
  8
1
  6
Continuous
100
AcDbLine
 10
105.723
 20
135.622
 30
0.0
 11
104.7549999999999
 21
135.6049999999999
 31
0.0
  0
LINE
  5
9943
330
97F7
100
AcDbEntity
  8
1
  6
Continuous
100
AcDbLine
 10
105.723
 20
134.749
 30
0.0
 11
104.7549999999999
 21
134.7649999999999
 31
0.0
  0
LINE
  5
9944
330
97F7
100
AcDbEntity
  8
1
  6
Continuous
100
AcDbLine
 10
106.272
 20
134.4919999999999
 30
0.0
 11
105.723
 21
134.749
 31
0.0
  0
LINE
  5
9945
330
97F7
100
AcDbEntity
  8
1
  6
Continuous
100
AcDbLine
 10
107.6579999999998
 20
134.4919999999999
 30
0.0
 11
107.4019999999999
 21
133.9429999999999
 31
0.0
  0
LINE
  5
9946
330
97F7
100
AcDbEntity
  8
1
  6
Continuous
100
AcDbLine
 10
107.4019999999999
 20
133.9429999999999
 30
0.0
 11
107.3849999999999
 21
132.9749999999999
 31
0.0
  0
LINE
  5
9947
330
97F7
100
AcDbEntity
  8
1
  6
Continuous
100
AcDbLine
 10
106.528
 20
133.9429999999999
 30
0.0
 11
106.545
 21
132.9749999999999
 31
0.0
  0
LINE
  5
9948
330
97F7
100
AcDbEntity
  8
1
  6
Continuous
100
AcDbLine
 10
106.272
 20
134.4919999999999
 30
0.0
 11
106.528
 21
133.9429999999999
 31
0.0
  0
LINE
  5
9949
330
97F7
100
AcDbEntity
  8
1
  6
Continuous
100
AcDbLine
 10
107.6579999999998
 20
135.8789999999999
 30
0.0
 11
108.2069999999999
 21
135.622
 31
0.0
  0
LINE
  5
994A
330
97F7
100
AcDbEntity
  8
1
  6
Continuous
100
AcDbLine
 10
108.2069999999999
 20
135.622
 30
0.0
 11
109.175
 21
135.6049999999999
 31
0.0
  0
LINE
  5
994B
330
97F7
100
AcDbEntity
  8
1
  6
Continuous
100
AcDbLine
 10
108.2069999999999
 20
134.749
 30
0.0
 11
109.175
 21
134.7649999999999
 31
0.0
  0
LINE
  5
994C
330
97F7
100
AcDbEntity
  8
1
  6
Continuous
100
AcDbLine
 10
107.6579999999998
 20
134.4919999999999
 30
0.0
 11
108.2069999999999
 21
134.749
 31
0.0
  0
LINE
  5
994D
330
97F7
100
AcDbEntity
  8
1
  6
Continuous
100
AcDbLine
 10
106.272
 20
135.8789999999999
 30
0.0
 11
106.528
 21
136.4279999999999
 31
0.0
  0
LINE
  5
994E
330
97F7
100
AcDbEntity
  8
1
  6
Continuous
100
AcDbLine
 10
106.528
 20
136.4279999999999
 30
0.0
 11
106.545
 21
137.3959999999999
 31
0.0
  0
LINE
  5
994F
330
97F7
100
AcDbEntity
  8
1
  6
Continuous
100
AcDbLine
 10
107.4019999999999
 20
136.4279999999999
 30
0.0
 11
107.3849999999999
 21
137.3959999999999
 31
0.0
  0
LINE
  5
9950
330
97F7
100
AcDbEntity
  8
1
  6
Continuous
100
AcDbLine
 10
107.6579999999998
 20
135.8789999999999
 30
0.0
 11
107.4019999999999
 21
136.4279999999999
 31
0.0
  0
LINE
  5
9951
330
97F7
100
AcDbEntity
  8
1
  6
Continuous
100
AcDbLine
 10
106.272
 20
100.8789999999999
 30
0.0
 11
105.723
 21
100.622
 31
0.0
  0
LINE
  5
9952
330
97F7
100
AcDbEntity
  8
1
  6
Continuous
100
AcDbLine
 10
105.723
 20
100.622
 30
0.0
 11
104.7549999999999
 21
100.605
 31
0.0
  0
LINE
  5
9953
330
97F7
100
AcDbEntity
  8
1
  6
Continuous
100
AcDbLine
 10
105.723
 20
99.74859999999999
 30
0.0
 11
104.7549999999999
 21
99.76550000000001
 31
0.0
  0
LINE
  5
9954
330
97F7
100
AcDbEntity
  8
1
  6
Continuous
100
AcDbLine
 10
106.272
 20
99.49240000000001
 30
0.0
 11
105.723
 21
99.74859999999999
 31
0.0
  0
LINE
  5
9955
330
97F7
100
AcDbEntity
  8
1
  6
Continuous
100
AcDbLine
 10
107.6579999999998
 20
99.49240000000001
 30
0.0
 11
107.4019999999999
 21
98.9431
 31
0.0
  0
LINE
  5
9956
330
97F7
100
AcDbEntity
  8
1
  6
Continuous
100
AcDbLine
 10
107.4019999999999
 20
98.9431
 30
0.0
 11
107.3849999999999
 21
97.97499999999999
 31
0.0
  0
LINE
  5
9957
330
97F7
100
AcDbEntity
  8
1
  6
Continuous
100
AcDbLine
 10
106.528
 20
98.9431
 30
0.0
 11
106.545
 21
97.97499999999999
 31
0.0
  0
LINE
  5
9958
330
97F7
100
AcDbEntity
  8
1
  6
Continuous
100
AcDbLine
 10
106.272
 20
99.49240000000001
 30
0.0
 11
106.528
 21
98.9431
 31
0.0
  0
LINE
  5
9959
330
97F7
100
AcDbEntity
  8
1
  6
Continuous
100
AcDbLine
 10
107.6579999999998
 20
100.8789999999999
 30
0.0
 11
108.2069999999999
 21
100.622
 31
0.0
  0
LINE
  5
995A
330
97F7
100
AcDbEntity
  8
1
  6
Continuous
100
AcDbLine
 10
108.2069999999999
 20
100.622
 30
0.0
 11
109.175
 21
100.605
 31
0.0
  0
LINE
  5
995B
330
97F7
100
AcDbEntity
  8
1
  6
Continuous
100
AcDbLine
 10
108.2069999999999
 20
99.74859999999999
 30
0.0
 11
109.175
 21
99.76550000000001
 31
0.0
  0
LINE
  5
995C
330
97F7
100
AcDbEntity
  8
1
  6
Continuous
100
AcDbLine
 10
107.6579999999998
 20
99.49240000000001
 30
0.0
 11
108.2069999999999
 21
99.74859999999999
 31
0.0
  0
LINE
  5
995D
330
97F7
100
AcDbEntity
  8
1
  6
Continuous
100
AcDbLine
 10
106.272
 20
100.8789999999999
 30
0.0
 11
106.528
 21
101.428
 31
0.0
  0
LINE
  5
995E
330
97F7
100
AcDbEntity
  8
1
  6
Continuous
100
AcDbLine
 10
106.528
 20
101.428
 30
0.0
 11
106.545
 21
102.3959999999999
 31
0.0
  0
LINE
  5
995F
330
97F7
100
AcDbEntity
  8
1
  6
Continuous
100
AcDbLine
 10
107.4019999999999
 20
101.428
 30
0.0
 11
107.3849999999999
 21
102.3959999999999
 31
0.0
  0
LINE
  5
9960
330
97F7
100
AcDbEntity
  8
1
  6
Continuous
100
AcDbLine
 10
107.6579999999998
 20
100.8789999999999
 30
0.0
 11
107.4019999999999
 21
101.428
 31
0.0
  0
LINE
  5
9961
330
97F7
100
AcDbEntity
  8
4
  6
CENTER
100
AcDbLine
 10
90.965
 20
135.1849999999998
 30
0.0
 11
97.96500000000001
 21
135.1849999999998
 31
0.0
  0
LINE
  5
9962
330
97F7
100
AcDbEntity
  8
4
  6
CENTER
100
AcDbLine
 10
94.465
 20
131.685
 30
0.0
 11
94.465
 21
138.685
 31
0.0
  0
LINE
  5
9963
330
97F7
100
AcDbEntity
  8
4
  6
CENTER
100
AcDbLine
 10
90.965
 20
100.185
 30
0.0
 11
97.96500000000001
 21
100.185
 31
0.0
  0
LINE
  5
9964
330
97F7
100
AcDbEntity
  8
4
  6
CENTER
100
AcDbLine
 10
94.465
 20
96.68550000000001
 30
0.0
 11
94.465
 21
103.685
 31
0.0
  0
LINE
  5
9965
330
97F7
100
AcDbEntity
  8
4
  6
CENTER
100
AcDbLine
 10
101.465
 20
100.185
 30
0.0
 11
112.465
 21
100.185
 31
0.0
  0
LINE
  5
9966
330
97F7
100
AcDbEntity
  8
4
  6
CENTER
100
AcDbLine
 10
106.9649999999999
 20
94.6855
 30
0.0
 11
106.9649999999999
 21
105.685
 31
0.0
  0
LINE
  5
9967
330
97F7
100
AcDbEntity
  8
4
  6
CENTER
100
AcDbLine
 10
101.465
 20
135.1849999999998
 30
0.0
 11
112.465
 21
135.1849999999998
 31
0.0
  0
LINE
  5
9968
330
97F7
100
AcDbEntity
  8
4
  6
CENTER
100
AcDbLine
 10
106.9649999999999
 20
129.685
 30
0.0
 11
106.9649999999999
 21
140.685
 31
0.0
  0
LINE
  5
9969
330
97F7
100
AcDbEntity
  8
4
  6
CENTER
100
AcDbLine
 10
53.465
 20
147.6849999999998
 30
0.0
 11
64.465
 21
147.6849999999998
 31
0.0
  0
LINE
  5
996A
330
97F7
100
AcDbEntity
  8
4
  6
CENTER
100
AcDbLine
 10
58.965
 20
142.185
 30
0.0
 11
58.965
 21
153.185
 31
0.0
  0
LINE
  5
996B
330
97F7
100
AcDbEntity
  8
4
  6
CENTER
100
AcDbLine
 10
53.465
 20
87.68550000000002
 30
0.0
 11
64.465
 21
87.68550000000002
 31
0.0
  0
LINE
  5
996C
330
97F7
100
AcDbEntity
  8
4
  6
CENTER
100
AcDbLine
 10
58.965
 20
82.1855
 30
0.0
 11
58.965
 21
93.1855
 31
0.0
  0
LINE
  5
996D
330
97F7
100
AcDbEntity
  8
1
  6
Continuous
100
AcDbLine
 10
115.4649999999999
 20
127.7069999999999
 30
0.0
 11
115.4649999999999
 21
107.6629999999999
 31
0.0
  0
LINE
  5
996E
330
97F7
100
AcDbEntity
  8
1
  6
Continuous
100
AcDbLine
 10
112.965
 20
108.0849999999998
 30
0.0
 11
115.4649999999999
 21
108.0849999999998
 31
0.0
  0
LINE
  5
996F
330
97F7
100
AcDbEntity
  8
1
  6
Continuous
100
AcDbLine
 10
112.965
 20
127.285
 30
0.0
 11
115.4649999999999
 21
127.285
 31
0.0
  0
LINE
  5
9970
330
97F7
100
AcDbEntity
  8
1
  6
Continuous
100
AcDbLine
 10
112.965
 20
147.6849999999998
 30
0.0
 11
113.761
 21
147.6849999999998
 31
0.0
  0
LINE
  5
9971
330
97F7
100
AcDbEntity
  8
1
  6
Continuous
100
AcDbLine
 10
112.965
 20
87.68550000000002
 30
0.0
 11
113.761
 21
87.68550000000002
 31
0.0
  0
LINE
  5
9972
330
97F7
100
AcDbEntity
  8
1
  6
Continuous
100
AcDbLine
 10
353.8009999999999
 20
265.482
 30
0.0
 11
341.8009999999998
 21
265.482
 31
0.0
  0
LINE
  5
9973
330
97F7
100
AcDbEntity
  8
1
  6
Continuous
100
AcDbLine
 10
329.801
 20
265.482
 30
0.0
 11
329.801
 21
273.482
 31
0.0
  0
LINE
  5
9974
330
97F7
100
AcDbEntity
  8
1
  6
Continuous
100
AcDbLine
 10
331.902
 20
265.482
 30
0.0
 11
329.801
 21
265.482
 31
0.0
  0
LINE
  5
9975
330
97F7
100
AcDbEntity
  8
1
  6
Continuous
100
AcDbLine
 10
226.0409999999999
 20
130.1849999999998
 30
0.0
 11
233.041
 21
130.1849999999998
 31
0.0
  0
LINE
  5
9976
330
97F7
100
AcDbEntity
  8
1
  6
Continuous
100
AcDbLine
 10
226.0409999999999
 20
140.185
 30
0.0
 11
233.041
 21
140.185
 31
0.0
  0
LINE
  5
9977
330
97F7
100
AcDbEntity
  8
1
  6
Continuous
100
AcDbLine
 10
226.0409999999999
 20
95.18550000000001
 30
0.0
 11
233.041
 21
95.18550000000001
 31
0.0
  0
LINE
  5
9978
330
97F7
100
AcDbEntity
  8
1
  6
Continuous
100
AcDbLine
 10
226.0409999999999
 20
105.1849999999999
 30
0.0
 11
233.041
 21
105.1849999999999
 31
0.0
  0
LINE
  5
9979
330
97F7
100
AcDbEntity
  8
1
  6
Continuous
100
AcDbLine
 10
237.7499999999999
 20
97.68550000000001
 30
0.0
 11
237.7499999999999
 21
137.685
 31
0.0
  0
LINE
  5
997A
330
97F7
100
AcDbEntity
  8
4
  6
CENTER
100
AcDbLine
 10
233.041
 20
92.68550000000001
 30
0.0
 11
259.2649999999998
 21
92.68550000000001
 31
0.0
  0
LINE
  5
997B
330
97F7
100
AcDbEntity
  8
4
  6
CENTER
100
AcDbLine
 10
233.041
 20
142.6849999999998
 30
0.0
 11
258.6139999999999
 21
142.6849999999998
 31
0.0
  0
LINE
  5
997C
330
97F7
100
AcDbEntity
  8
4
  6
CENTER
100
AcDbLine
 10
472.6259999999999
 20
142.6849999999998
 30
0.0
 11
450.7769999999998
 21
142.6849999999998
 31
0.0
  0
LINE
  5
997D
330
97F7
100
AcDbEntity
  8
4
  6
CENTER
100
AcDbLine
 10
472.6259999999999
 20
92.68550000000001
 30
0.0
 11
450.7769999999998
 21
92.68550000000001
 31
0.0
  0
LINE
  5
997E
330
97F7
100
AcDbEntity
  8
1
  6
Continuous
100
AcDbLine
 10
179.8329999999999
 20
96.4855
 30
0.0
 11
178.833
 21
96.4855
 31
0.0
  0
LINE
  5
997F
330
97F7
100
AcDbEntity
  8
1
  6
Continuous
100
AcDbLine
 10
179.8329999999999
 20
88.88549999999998
 30
0.0
 11
178.833
 21
88.88549999999998
 31
0.0
  0
LINE
  5
9980
330
97F7
100
AcDbEntity
  8
1
  6
Continuous
100
AcDbLine
 10
180.6329999999999
 20
87.68550000000002
 30
0.0
 11
179.8329999999999
 21
87.68550000000002
 31
0.0
  0
LINE
  5
9981
330
97F7
100
AcDbEntity
  8
1
  6
Continuous
100
AcDbLine
 10
180.6329999999999
 20
97.68550000000001
 30
0.0
 11
179.8329999999999
 21
97.68550000000001
 31
0.0
  0
LINE
  5
9982
330
97F7
100
AcDbEntity
  8
1
  6
Continuous
100
AcDbLine
 10
308.343
 20
300.2409999999998
 30
0.0
 11
318.343
 21
300.2409999999998
 31
0.0
  0
LINE
  5
9983
330
97F7
100
AcDbEntity
  8
1
  6
Continuous
100
AcDbLine
 10
308.343
 20
299.4409999999998
 30
0.0
 11
308.343
 21
300.2409999999998
 31
0.0
  0
LINE
  5
9984
330
97F7
100
AcDbEntity
  8
1
  6
Continuous
100
AcDbLine
 10
309.543
 20
300.2409999999998
 30
0.0
 11
309.543
 21
301.241
 31
0.0
  0
LINE
  5
9985
330
97F7
100
AcDbEntity
  8
1
  6
Continuous
100
AcDbLine
 10
309.543
 20
301.241
 30
0.0
 11
317.1429999999999
 21
301.241
 31
0.0
  0
LINE
  5
9986
330
97F7
100
AcDbEntity
  8
1
  6
Continuous
100
AcDbLine
 10
309.843
 20
301.241
 30
0.0
 11
309.9409999999999
 21
302.361
 31
0.0
  0
LINE
  5
9987
330
97F7
100
AcDbEntity
  8
1
  6
Continuous
100
AcDbLine
 10
316.843
 20
301.241
 30
0.0
 11
316.745
 21
302.361
 31
0.0
  0
LINE
  5
9988
330
97F7
100
AcDbEntity
  8
1
  6
Continuous
100
AcDbLine
 10
317.1429999999999
 20
300.2409999999998
 30
0.0
 11
317.1429999999999
 21
301.241
 31
0.0
  0
LINE
  5
9989
330
97F7
100
AcDbEntity
  8
1
  6
Continuous
100
AcDbLine
 10
318.343
 20
299.4409999999998
 30
0.0
 11
318.343
 21
300.2409999999998
 31
0.0
  0
LINE
  5
998A
330
97F7
100
AcDbEntity
  8
1
  6
Continuous
100
AcDbLine
 10
312.882
 20
301.241
 30
0.0
 11
313.721
 21
300.2409999999998
 31
0.0
  0
LINE
  5
998B
330
97F7
100
AcDbEntity
  8
1
  6
Continuous
100
AcDbLine
 10
179.8329999999999
 20
137.685
 30
0.0
 11
179.8329999999999
 21
147.6849999999998
 31
0.0
  0
LINE
  5
998C
330
97F7
100
AcDbEntity
  8
1
  6
Continuous
100
AcDbLine
 10
178.833
 20
138.8849999999999
 30
0.0
 11
178.833
 21
146.485
 31
0.0
  0
LINE
  5
998D
330
97F7
100
AcDbEntity
  8
1
  6
Continuous
100
AcDbLine
 10
178.833
 20
142.2239999999999
 30
0.0
 11
179.8329999999999
 21
143.0629999999998
 31
0.0
  0
LINE
  5
998E
330
97F7
100
AcDbEntity
  8
1
  6
Continuous
100
AcDbLine
 10
178.833
 20
139.185
 30
0.0
 11
177.714
 21
139.2829999999999
 31
0.0
  0
LINE
  5
998F
330
97F7
100
AcDbEntity
  8
1
  6
Continuous
100
AcDbLine
 10
178.833
 20
146.185
 30
0.0
 11
177.714
 21
146.0879999999999
 31
0.0
  0
LINE
  5
9990
330
97F7
100
AcDbEntity
  8
1
  6
Continuous
100
AcDbLine
 10
179.8329999999999
 20
146.485
 30
0.0
 11
178.833
 21
146.485
 31
0.0
  0
LINE
  5
9991
330
97F7
100
AcDbEntity
  8
1
  6
Continuous
100
AcDbLine
 10
179.8329999999999
 20
138.8849999999999
 30
0.0
 11
178.833
 21
138.8849999999999
 31
0.0
  0
LINE
  5
9992
330
97F7
100
AcDbEntity
  8
1
  6
Continuous
100
AcDbLine
 10
180.6329999999999
 20
137.685
 30
0.0
 11
179.8329999999999
 21
137.685
 31
0.0
  0
LINE
  5
9993
330
97F7
100
AcDbEntity
  8
1
  6
Continuous
100
AcDbLine
 10
180.6329999999999
 20
147.6849999999998
 30
0.0
 11
179.8329999999999
 21
147.6849999999998
 31
0.0
  0
ARC
  5
9994
330
97F7
100
AcDbEntity
  8
1
  6
Continuous
100
AcDbCircle
 10
344.301
 20
566.6849999999998
 30
0.0
 40
500.0
100
AcDbArc
 50
266.1019999999999
 51
273.8979999999999
  0
ARC
  5
9995
330
97F7
100
AcDbEntity
  8
1
  6
Continuous
100
AcDbCircle
 10
344.301
 20
-331.315
 30
0.0
 40
500.0
100
AcDbArc
 50
86.102
 51
93.89799999999999
  0
ARC
  5
9996
330
97F7
100
AcDbEntity
  8
1
  6
Continuous
100
AcDbCircle
 10
811.301
 20
117.6849999999999
 30
0.0
 40
508.4999999999998
100
AcDbArc
 50
174.993
 51
185.007
  0
ARC
  5
9997
330
97F7
100
AcDbEntity
  8
1
  6
Continuous
100
AcDbCircle
 10
811.301
 20
117.6849999999999
 30
0.0
 40
500.0
100
AcDbArc
 50
175.3839999999999
 51
184.6159999999999
  0
ARC
  5
9998
330
97F7
100
AcDbEntity
  8
1
  6
Continuous
100
AcDbCircle
 10
377.884
 20
73.8283
 30
0.0
 40
6.0
100
AcDbArc
 50
273.8979999999999
 51
354.9929999999998
  0
ARC
  5
9999
330
97F7
100
AcDbEntity
  8
1
  6
Continuous
100
AcDbCircle
 10
310.719
 20
73.8283
 30
0.0
 40
6.0
100
AcDbArc
 50
185.007
 51
266.1019999999999
  0
ARC
  5
999A
330
97F7
100
AcDbEntity
  8
1
  6
Continuous
100
AcDbCircle
 10
310.719
 20
161.543
 30
0.0
 40
6.0
100
AcDbArc
 50
93.89799999999999
 51
174.993
  0
ARC
  5
999B
330
97F7
100
AcDbEntity
  8
1
  6
Continuous
100
AcDbCircle
 10
377.884
 20
161.543
 30
0.0
 40
6.0
100
AcDbArc
 50
5.006969999999999
 51
86.102
  0
ARC
  5
999C
330
97F7
100
AcDbEntity
  8
1
  6
Continuous
100
AcDbCircle
 10
315.9139999999998
 20
77.68550000000002
 30
0.0
 40
3.0
100
AcDbArc
 50
184.6159999999999
 51
270.0
  0
ARC
  5
999D
330
97F7
100
AcDbEntity
  8
1
  6
Continuous
100
AcDbCircle
 10
315.9139999999998
 20
157.685
 30
0.0
 40
3.0
100
AcDbArc
 50
90.0
 51
175.3839999999999
  0
ARC
  5
999E
330
97F7
100
AcDbEntity
  8
1
  6
Continuous
100
AcDbCircle
 10
810.801
 20
117.6849999999999
 30
0.0
 40
498.0
100
AcDbArc
 50
183.819
 51
184.577
  0
ARC
  5
999F
330
97F7
100
AcDbEntity
  8
1
  6
Continuous
100
AcDbCircle
 10
323.8849999999998
 20
85.18550000000002
 30
0.0
 40
10.0
100
AcDbArc
 50
116.8329999999999
 51
183.819
  0
ARC
  5
99A0
330
97F7
100
AcDbEntity
  8
1
  6
Continuous
100
AcDbCircle
 10
317.3799999999999
 20
78.1855
 30
0.0
 40
3.0
100
AcDbArc
 50
184.577
 51
270.0
  0
ARC
  5
99A1
330
97F7
100
AcDbEntity
  8
1
  6
Continuous
100
AcDbCircle
 10
296.8009999999998
 20
138.7249999999999
 30
0.0
 40
50.0
100
AcDbArc
 50
296.8329999999999
 51
0.000022
  0
ARC
  5
99A2
330
97F7
100
AcDbEntity
  8
1
  6
Continuous
100
AcDbCircle
 10
349.8009999999999
 20
157.1849999999998
 30
0.0
 40
3.0
100
AcDbArc
 50
90.0
 51
180.0
  0
CIRCLE
  5
99A3
330
97F7
100
AcDbEntity
  8
1
  6
Continuous
100
AcDbCircle
 10
366.8009999999999
 20
252.482
 30
0.0
 40
2.5
  0
CIRCLE
  5
99A4
330
97F7
100
AcDbEntity
  8
1
  6
Continuous
100
AcDbCircle
 10
366.8009999999999
 20
252.482
 30
0.0
 40
4.0
  0
ARC
  5
99A5
330
97F7
100
AcDbEntity
  8
1
  6
Continuous
100
AcDbCircle
 10
326.3009999999998
 20
246.282
 30
0.0
 40
17.0
100
AcDbArc
 50
90.0
 51
179.326
  0
ARC
  5
99A6
330
97F7
100
AcDbEntity
  8
1
  6
Continuous
100
AcDbCircle
 10
311.301
 20
264.482
 30
0.0
 40
2.0
100
AcDbArc
 50
90.0
 51
180.0
  0
ARC
  5
99A7
330
97F7
100
AcDbEntity
  8
1
  6
Continuous
100
AcDbCircle
 10
466.361
 20
155.1849999999998
 30
0.0
 40
8.0
100
AcDbArc
 50
57.9219
 51
90.0
  0
ARC
  5
99A8
330
97F7
100
AcDbEntity
  8
1
  6
Continuous
100
AcDbCircle
 10
466.361
 20
80.18550000000002
 30
0.0
 40
8.0
100
AcDbArc
 50
270.0
 51
302.0779999999998
  0
ARC
  5
99A9
330
97F7
100
AcDbEntity
  8
1
  6
Continuous
100
AcDbCircle
 10
399.8009999999999
 20
143.085
 30
0.0
 40
1.0
100
AcDbArc
 50
0.0
 51
90.0
  0
ARC
  5
99AA
330
97F7
100
AcDbEntity
  8
1
  6
Continuous
100
AcDbCircle
 10
399.8009999999999
 20
152.285
 30
0.0
 40
1.0
100
AcDbArc
 50
270.0
 51
0.0
  0
ARC
  5
99AB
330
97F7
100
AcDbEntity
  8
1
  6
Continuous
100
AcDbCircle
 10
399.8009999999999
 20
83.08549999999998
 30
0.0
 40
1.0
100
AcDbArc
 50
0.0
 51
90.0
  0
ARC
  5
99AC
330
97F7
100
AcDbEntity
  8
1
  6
Continuous
100
AcDbCircle
 10
399.8009999999999
 20
92.28550000000002
 30
0.0
 40
1.0
100
AcDbArc
 50
270.0
 51
0.0
  0
ARC
  5
99AD
330
97F7
100
AcDbEntity
  8
1
  6
Continuous
100
AcDbCircle
 10
400.8009999999998
 20
273.482
 30
0.0
 40
2.0
100
AcDbArc
 50
0.0
 51
90.0
  0
ARC
  5
99AE
330
97F7
100
AcDbEntity
  8
1
  6
Continuous
100
AcDbCircle
 10
399.8009999999999
 20
260.882
 30
0.0
 40
1.0
100
AcDbArc
 50
0.0
 51
90.0
  0
ARC
  5
99AF
330
97F7
100
AcDbEntity
  8
1
  6
Continuous
100
AcDbCircle
 10
399.8009999999999
 20
270.0819999999998
 30
0.0
 40
1.0
100
AcDbArc
 50
270.0
 51
0.0
  0
ARC
  5
99B0
330
97F7
100
AcDbEntity
  8
1
  6
Continuous
100
AcDbCircle
 10
411.8009999999999
 20
111.685
 30
0.0
 40
1.0
100
AcDbArc
 50
270.0
 51
0.0
  0
ARC
  5
99B1
330
97F7
100
AcDbEntity
  8
1
  6
Continuous
100
AcDbCircle
 10
411.8009999999999
 20
123.685
 30
0.0
 40
1.0
100
AcDbArc
 50
0.0
 51
90.0
  0
ARC
  5
99B2
330
97F7
100
AcDbEntity
  8
1
  6
Continuous
100
AcDbCircle
 10
411.8009999999999
 20
264.482
 30
0.0
 40
1.0
100
AcDbArc
 50
270.0
 51
31.0071
  0
ARC
  5
99B3
330
97F7
100
AcDbEntity
  8
1
  6
Continuous
100
AcDbCircle
 10
472.5609999999998
 20
159.685
 30
0.0
 40
3.0
100
AcDbArc
 50
90.0
 51
180.0
  0
ARC
  5
99B4
330
97F7
100
AcDbEntity
  8
1
  6
Continuous
100
AcDbCircle
 10
472.5609999999998
 20
75.6855
 30
0.0
 40
3.0
100
AcDbArc
 50
180.0
 51
270.0
  0
ARC
  5
99B5
330
97F7
100
AcDbEntity
  8
1
  6
Continuous
100
AcDbCircle
 10
459.5609999999998
 20
76.6855
 30
0.0
 40
1.0
100
AcDbArc
 50
90.0
 51
180.0
  0
ARC
  5
99B6
330
97F7
100
AcDbEntity
  8
1
  6
Continuous
100
AcDbCircle
 10
459.5609999999998
 20
158.685
 30
0.0
 40
1.0
100
AcDbArc
 50
180.0
 51
270.0
  0
ARC
  5
99B7
330
97F7
100
AcDbEntity
  8
1
  6
Continuous
100
AcDbCircle
 10
458.5609999999999
 20
158.685
 30
0.0
 40
1.0
100
AcDbArc
 50
180.0
 51
270.0
  0
ARC
  5
99B8
330
97F7
100
AcDbEntity
  8
1
  6
Continuous
100
AcDbCircle
 10
458.5609999999999
 20
76.6855
 30
0.0
 40
1.0
100
AcDbArc
 50
90.0
 51
180.0
  0
ARC
  5
99B9
330
97F7
100
AcDbEntity
  8
1
  6
Continuous
100
AcDbCircle
 10
475.5609999999999
 20
111.685
 30
0.0
 40
1.0
100
AcDbArc
 50
180.0
 51
270.0
  0
ARC
  5
99BA
330
97F7
100
AcDbEntity
  8
1
  6
Continuous
100
AcDbCircle
 10
475.5609999999999
 20
123.685
 30
0.0
 40
1.0
100
AcDbArc
 50
90.0
 51
180.0
  0
ARC
  5
99BB
330
97F7
100
AcDbEntity
  8
1
  6
Continuous
100
AcDbCircle
 10
483.5609999999999
 20
123.685
 30
0.0
 40
1.0
100
AcDbArc
 50
0.0
 51
90.0
  0
ARC
  5
99BC
330
97F7
100
AcDbEntity
  8
1
  6
Continuous
100
AcDbCircle
 10
483.5609999999999
 20
111.685
 30
0.0
 40
1.0
100
AcDbArc
 50
270.0
 51
0.0
  0
CIRCLE
  5
99BD
330
97F7
100
AcDbEntity
  8
2
  6
Continuous
100
AcDbCircle
 10
476.5609999999998
 20
147.6849999999998
 30
0.0
 40
2.5
  0
CIRCLE
  5
99BE
330
97F7
100
AcDbEntity
  8
2
  6
Continuous
100
AcDbCircle
 10
476.5609999999998
 20
87.68550000000002
 30
0.0
 40
2.5
  0
ARC
  5
99BF
330
97F7
100
AcDbEntity
  8
1
  6
Continuous
100
AcDbCircle
 10
308.343
 20
297.4409999999998
 30
0.0
 40
2.0
100
AcDbArc
 50
89.99989999999998
 51
180.0
  0
ARC
  5
99C0
330
97F7
100
AcDbEntity
  8
1
  6
Continuous
100
AcDbCircle
 10
306.343
 20
279.9409999999999
 30
0.0
 40
2.0
100
AcDbArc
 50
270.0
 51
0.0
  0
ARC
  5
99C1
330
97F7
100
AcDbEntity
  8
5
  6
PHANTOM
100
AcDbCircle
 10
401.801
 20
264.482
 30
0.0
 40
1.0
100
AcDbArc
 50
270.0
 51
31.0071
  0
ARC
  5
99C2
330
97F7
100
AcDbEntity
  8
1
  6
Continuous
100
AcDbCircle
 10
299.005
 20
155.685
 30
0.0
 40
2.0
100
AcDbArc
 50
90.0
 51
180.0
  0
ARC
  5
99C3
330
97F7
100
AcDbEntity
  8
1
  6
Continuous
100
AcDbCircle
 10
299.005
 20
79.6855
 30
0.0
 40
2.0
100
AcDbArc
 50
180.0
 51
270.0
  0
ARC
  5
99C4
330
97F7
100
AcDbEntity
  8
1
  6
Continuous
100
AcDbCircle
 10
99.865328
 20
256.3413549999999
 30
0.0
 40
1.0
100
AcDbArc
 50
315.0
 51
45.0
  0
ARC
  5
99C5
330
97F7
100
AcDbEntity
  8
1
  6
Continuous
100
AcDbCircle
 10
89.365328
 20
252.3413549999999
 30
0.0
 40
0.5
100
AcDbArc
 50
270.0
 51
0.0
  0
ARC
  5
99C6
330
97F7
100
AcDbEntity
  8
1
  6
Continuous
100
AcDbCircle
 10
89.365328
 20
260.3413549999999
 30
0.0
 40
0.5
100
AcDbArc
 50
0.0
 51
90.0
  0
ARC
  5
99C7
330
97F7
100
AcDbEntity
  8
1
  6
Continuous
100
AcDbCircle
 10
69.36532800000001
 20
258.8413549999998
 30
0.0
 40
0.5
100
AcDbArc
 50
90.0
 51
180.0
  0
ARC
  5
99C8
330
97F7
100
AcDbEntity
  8
1
  6
Continuous
100
AcDbCircle
 10
70.86532800000002
 20
258.8413549999998
 30
0.0
 40
0.5
100
AcDbArc
 50
0.0
 51
90.0
  0
ARC
  5
99C9
330
97F7
100
AcDbEntity
  8
1
  6
Continuous
100
AcDbCircle
 10
67.865328
 20
259.501355
 30
0.0
 40
1.0
100
AcDbArc
 50
142.431
 51
180.0
  0
ARC
  5
99CA
330
97F7
100
AcDbEntity
  8
1
  6
Continuous
100
AcDbCircle
 10
67.865328
 20
253.1813549999998
 30
0.0
 40
1.0
100
AcDbArc
 50
180.0
 51
217.5689999999999
  0
ARC
  5
99CB
330
97F7
100
AcDbEntity
  8
1
  6
Continuous
100
AcDbCircle
 10
72.35772800000003
 20
247.341355
 30
0.0
 40
1.0
100
AcDbArc
 50
217.5689999999999
 51
270.0
  0
ARC
  5
99CC
330
97F7
100
AcDbEntity
  8
1
  6
Continuous
100
AcDbCircle
 10
75.096728
 20
247.341355
 30
0.0
 40
1.0
100
AcDbArc
 50
270.0
 51
300.069
  0
ARC
  5
99CD
330
97F7
100
AcDbEntity
  8
1
  6
Continuous
100
AcDbCircle
 10
72.35772800000003
 20
265.3413549999999
 30
0.0
 40
1.0
100
AcDbArc
 50
90.0
 51
142.431
  0
ARC
  5
99CE
330
97F7
100
AcDbEntity
  8
1
  6
Continuous
100
AcDbCircle
 10
75.096728
 20
265.3413549999999
 30
0.0
 40
1.0
100
AcDbArc
 50
59.9314
 51
90.0
  0
ARC
  5
99CF
330
97F7
100
AcDbEntity
  8
1
  6
Continuous
100
AcDbCircle
 10
76.86532800000001
 20
251.619355
 30
0.0
 40
2.0282
100
AcDbArc
 50
215.5379999999999
 51
256.5369999999999
  0
ARC
  5
99D0
330
97F7
100
AcDbEntity
  8
1
  6
Continuous
100
AcDbCircle
 10
83.47592799999999
 20
256.3413549999999
 30
0.0
 40
10.1519
100
AcDbArc
 50
144.462
 51
215.5379999999999
  0
ARC
  5
99D1
330
97F7
100
AcDbEntity
  8
1
  6
Continuous
100
AcDbCircle
 10
76.86532800000001
 20
261.063355
 30
0.0
 40
2.0282
100
AcDbArc
 50
45.6988
 51
144.462
  0
ARC
  5
99D2
330
97F7
100
AcDbEntity
  8
1
  6
Continuous
100
AcDbCircle
 10
76.86532800000001
 20
251.619355
 30
0.0
 40
2.0282
100
AcDbArc
 50
256.5369999999999
 51
324.4619999999998
  0
ARC
  5
99D3
330
97F7
100
AcDbEntity
  8
1
  6
Continuous
100
AcDbCircle
 10
70.254828
 20
256.3413549999999
 30
0.0
 40
10.1519
100
AcDbArc
 50
324.4619999999998
 51
35.5377
  0
ARC
  5
99D4
330
97F7
100
AcDbEntity
  8
1
  6
Continuous
100
AcDbCircle
 10
76.86532800000001
 20
261.063355
 30
0.0
 40
2.0282
100
AcDbArc
 50
35.5377
 51
45.6988
  0
ARC
  5
99D5
330
97F7
100
AcDbEntity
  8
1
  6
Continuous
100
AcDbCircle
 10
75.41342799999998
 20
252.406355
 30
0.0
 40
0.3935
100
AcDbArc
 50
206.014
 51
270.0
  0
ARC
  5
99D6
330
97F7
100
AcDbEntity
  8
1
  6
Continuous
100
AcDbCircle
 10
83.47592799999999
 20
256.3413549999999
 30
0.0
 40
9.3649
100
AcDbArc
 50
202.944
 51
206.014
  0
ARC
  5
99D7
330
97F7
100
AcDbEntity
  8
1
  6
Continuous
100
AcDbCircle
 10
74.924328
 20
252.7213549999999
 30
0.0
 40
0.0787
100
AcDbArc
 50
90.0
 51
202.944
  0
ARC
  5
99D8
330
97F7
100
AcDbEntity
  8
1
  6
Continuous
100
AcDbCircle
 10
78.80642799999998
 20
252.7213549999999
 30
0.0
 40
0.0787
100
AcDbArc
 50
337.0559999999999
 51
90.0
  0
ARC
  5
99D9
330
97F7
100
AcDbEntity
  8
1
  6
Continuous
100
AcDbCircle
 10
70.254828
 20
256.3413549999999
 30
0.0
 40
9.3649
100
AcDbArc
 50
333.9859999999998
 51
337.0559999999999
  0
ARC
  5
99DA
330
97F7
100
AcDbEntity
  8
1
  6
Continuous
100
AcDbCircle
 10
70.254828
 20
256.3413549999999
 30
0.0
 40
9.3649
100
AcDbArc
 50
333.9859999999998
 51
334.7709999999999
  0
ARC
  5
99DB
330
97F7
100
AcDbEntity
  8
1
  6
Continuous
100
AcDbCircle
 10
78.31732800000001
 20
252.406355
 30
0.0
 40
0.3935
100
AcDbArc
 50
270.0
 51
333.9859999999998
  0
ARC
  5
99DC
330
97F7
100
AcDbEntity
  8
1
  6
Continuous
100
AcDbCircle
 10
74.417928
 20
254.2953549999999
 30
0.0
 40
0.0787
100
AcDbArc
 50
90.0
 51
192.729
  0
ARC
  5
99DD
330
97F7
100
AcDbEntity
  8
1
  6
Continuous
100
AcDbCircle
 10
83.47592799999999
 20
256.3413549999999
 30
0.0
 40
9.3649
100
AcDbArc
 50
192.729
 51
193.2679999999999
  0
ARC
  5
99DE
330
97F7
100
AcDbEntity
  8
1
  6
Continuous
100
AcDbCircle
 10
83.47592799999999
 20
256.3413549999999
 30
0.0
 40
9.3649
100
AcDbArc
 50
193.2679999999999
 51
195.257
  0
ARC
  5
99DF
330
97F7
100
AcDbEntity
  8
1
  6
Continuous
100
AcDbCircle
 10
74.820628
 20
253.9803549999998
 30
0.0
 40
0.3935
100
AcDbArc
 50
195.257
 51
270.0
  0
ARC
  5
99E0
330
97F7
100
AcDbEntity
  8
1
  6
Continuous
100
AcDbCircle
 10
78.91002799999998
 20
253.9803549999998
 30
0.0
 40
0.3935
100
AcDbArc
 50
270.0
 51
344.7419999999998
  0
ARC
  5
99E1
330
97F7
100
AcDbEntity
  8
1
  6
Continuous
100
AcDbCircle
 10
70.254828
 20
256.3413549999999
 30
0.0
 40
9.3649
100
AcDbArc
 50
344.7419999999998
 51
344.794
  0
ARC
  5
99E2
330
97F7
100
AcDbEntity
  8
1
  6
Continuous
100
AcDbCircle
 10
70.254828
 20
256.3413549999999
 30
0.0
 40
9.3649
100
AcDbArc
 50
344.794
 51
347.2709999999998
  0
ARC
  5
99E3
330
97F7
100
AcDbEntity
  8
1
  6
Continuous
100
AcDbCircle
 10
79.31282799999998
 20
254.2953549999999
 30
0.0
 40
0.0787
100
AcDbArc
 50
347.2709999999998
 51
90.0
  0
ARC
  5
99E4
330
97F7
100
AcDbEntity
  8
1
  6
Continuous
100
AcDbCircle
 10
74.643628
 20
257.915355
 30
0.0
 40
0.3935
100
AcDbArc
 50
90.0
 51
169.896
  0
ARC
  5
99E5
330
97F7
100
AcDbEntity
  8
1
  6
Continuous
100
AcDbCircle
 10
83.47592799999999
 20
256.3413549999999
 30
0.0
 40
9.3649
100
AcDbArc
 50
169.896
 51
172.2069999999999
  0
ARC
  5
99E6
330
97F7
100
AcDbEntity
  8
1
  6
Continuous
100
AcDbCircle
 10
74.27542800000002
 20
257.6003549999999
 30
0.0
 40
0.0787
100
AcDbArc
 50
172.2069999999999
 51
270.0
  0
ARC
  5
99E7
330
97F7
100
AcDbEntity
  8
1
  6
Continuous
100
AcDbCircle
 10
79.45532800000002
 20
257.6003549999999
 30
0.0
 40
0.0787
100
AcDbArc
 50
270.0
 51
7.792900000000001
  0
ARC
  5
99E8
330
97F7
100
AcDbEntity
  8
1
  6
Continuous
100
AcDbCircle
 10
70.254828
 20
256.3413549999999
 30
0.0
 40
9.3649
100
AcDbArc
 50
7.792900000000001
 51
10.1042
  0
ARC
  5
99E9
330
97F7
100
AcDbEntity
  8
1
  6
Continuous
100
AcDbCircle
 10
79.087128
 20
257.915355
 30
0.0
 40
0.3935
100
AcDbArc
 50
10.1042
 51
90.0
  0
ARC
  5
99EA
330
97F7
100
AcDbEntity
  8
1
  6
Continuous
100
AcDbCircle
 10
76.471928
 20
260.2763549999999
 30
0.0
 40
0.3935
100
AcDbArc
 50
270.0
 51
90.0
  0
CIRCLE
  5
99EB
330
97F7
100
AcDbEntity
  8
1
  6
Continuous
100
AcDbCircle
 10
352.3009999999999
 20
84.6855
 30
0.0
 40
6.7
  0
ARC
  5
99EC
330
97F7
100
AcDbEntity
  8
1
  6
Continuous
100
AcDbCircle
 10
347.0059999999999
 20
991.3719999999997
 30
0.0
 40
749.3939999999999
100
AcDbArc
 50
266.69
 51
272.8949999999999
  0
ARC
  5
99ED
330
97F7
100
AcDbEntity
  8
1
  6
Continuous
100
AcDbCircle
 10
303.8009999999998
 20
244.226
 30
0.0
 40
1.0
100
AcDbArc
 50
180.0
 51
266.69
  0
ARC
  5
99EE
330
97F7
100
AcDbEntity
  8
1
  6
Continuous
100
AcDbCircle
 10
384.801
 20
243.9329999999999
 30
0.0
 40
1.0
100
AcDbArc
 50
272.8949999999999
 51
0.0
  0
ARC
  5
99EF
330
97F7
100
AcDbEntity
  8
1
  6
Continuous
100
AcDbCircle
 10
455.733
 20
167.6849999999998
 30
0.0
 40
1.0
100
AcDbArc
 50
90.0
 51
176.169
  0
ARC
  5
99F0
330
97F7
100
AcDbEntity
  8
1
  6
Continuous
100
AcDbCircle
 10
1202.46
 20
117.6849999999999
 30
0.0
 40
749.3939999999999
100
AcDbArc
 50
176.169
 51
183.8309999999999
  0
ARC
  5
99F1
330
97F7
100
AcDbEntity
  8
1
  6
Continuous
100
AcDbCircle
 10
455.733
 20
67.68550000000001
 30
0.0
 40
1.0
100
AcDbArc
 50
183.8309999999999
 51
270.0
  0
ARC
  5
99F2
330
97F7
100
AcDbEntity
  8
5
  6
PHANTOM
100
AcDbCircle
 10
329.793
 20
217.459
 30
0.0
 40
2.5
100
AcDbArc
 50
68.517
 51
302.748
  0
ARC
  5
99F3
330
97F7
100
AcDbEntity
  8
5
  6
PHANTOM
100
AcDbCircle
 10
-74.23269999999998
 20
845.6419999999997
 30
0.0
 40
749.3939999999999
100
AcDbArc
 50
302.748
 51
306.3849999999998
  0
ARC
  5
99F4
330
97F7
100
AcDbEntity
  8
1
  6
Continuous
100
AcDbCircle
 10
391.231
 20
252.119
 30
0.0
 40
25.0
100
AcDbArc
 50
31.0071
 51
58.70879999999999
  0
ARC
  5
99F5
330
97F7
100
AcDbEntity
  8
5
  6
PHANTOM
100
AcDbCircle
 10
381.231
 20
252.119
 30
0.0
 40
25.0
100
AcDbArc
 50
31.0071
 51
58.70879999999999
  0
ARC
  5
99F6
330
97F7
100
AcDbEntity
  8
5
  6
PHANTOM
100
AcDbCircle
 10
-74.23269999999998
 20
845.6419999999997
 30
0.0
 40
749.3939999999999
100
AcDbArc
 50
307.051
 51
307.302
  0
ARC
  5
99F7
330
97F7
100
AcDbEntity
  8
5
  6
PHANTOM
100
AcDbCircle
 10
379.3109999999999
 20
250.334
 30
0.0
 40
1.0
100
AcDbArc
 50
307.302
 51
35.0974
  0
ARC
  5
99F8
330
97F7
100
AcDbEntity
  8
1
  6
Continuous
100
AcDbCircle
 10
244.2409999999999
 20
155.1849999999998
 30
0.0
 40
8.0
100
AcDbArc
 50
90.00010000000001
 51
180.0
  0
ARC
  5
99F9
330
97F7
100
AcDbEntity
  8
1
  6
Continuous
100
AcDbCircle
 10
244.2409999999999
 20
80.18550000000002
 30
0.0
 40
8.0
100
AcDbArc
 50
180.0
 51
270.0
  0
ARC
  5
99FA
330
97F7
100
AcDbEntity
  8
1
  6
Continuous
100
AcDbCircle
 10
238.0409999999999
 20
159.685
 30
0.0
 40
3.0
100
AcDbArc
 50
49.4233
 51
90.0
  0
ARC
  5
99FB
330
97F7
100
AcDbEntity
  8
1
  6
Continuous
100
AcDbCircle
 10
238.0409999999999
 20
75.6855
 30
0.0
 40
3.0
100
AcDbArc
 50
270.0
 51
310.577
  0
ARC
  5
99FC
330
97F7
100
AcDbEntity
  8
1
  6
Continuous
100
AcDbCircle
 10
254.869
 20
167.6849999999998
 30
0.0
 40
1.0
100
AcDbArc
 50
3.830839999999998
 51
90.00010000000001
  0
ARC
  5
99FD
330
97F7
100
AcDbEntity
  8
1
  6
Continuous
100
AcDbCircle
 10
-491.853
 20
117.6849999999999
 30
0.0
 40
749.3939999999999
100
AcDbArc
 50
356.169
 51
3.830839999999998
  0
ARC
  5
99FE
330
97F7
100
AcDbEntity
  8
1
  6
Continuous
100
AcDbCircle
 10
254.869
 20
67.68550000000001
 30
0.0
 40
1.0
100
AcDbArc
 50
270.0
 51
356.169
  0
ARC
  5
99FF
330
97F7
100
AcDbEntity
  8
1
  6
Continuous
100
AcDbCircle
 10
177.827
 20
90.5784
 30
0.0
 40
1.3
100
AcDbArc
 50
195.8809999999998
 51
265.0
  0
ARC
  5
9A00
330
97F7
100
AcDbEntity
  8
1
  6
Continuous
100
AcDbCircle
 10
185.233
 20
92.68539999999999
 30
0.0
 40
9.0
100
AcDbArc
 50
164.119
 51
195.8809999999998
  0
ARC
  5
9A01
330
97F7
100
AcDbEntity
  8
1
  6
Continuous
100
AcDbCircle
 10
177.827
 20
94.7925
 30
0.0
 40
1.3
100
AcDbArc
 50
95.0
 51
164.119
  0
ARC
  5
9A02
330
97F7
100
AcDbEntity
  8
1
  6
Continuous
100
AcDbCircle
 10
86.965
 20
566.6849999999998
 30
0.0
 40
500.0
100
AcDbArc
 50
266.1019999999999
 51
273.8979999999999
  0
ARC
  5
9A03
330
97F7
100
AcDbEntity
  8
1
  6
Continuous
100
AcDbCircle
 10
86.965
 20
-331.315
 30
0.0
 40
500.0
100
AcDbArc
 50
86.102
 51
93.89809999999998
  0
ARC
  5
9A04
330
97F7
100
AcDbEntity
  8
1
  6
Continuous
100
AcDbCircle
 10
-380.035
 20
117.6849999999999
 30
0.0
 40
508.4999999999998
100
AcDbArc
 50
354.9929999999998
 51
355.4880000000001
  0
ARC
  5
9A05
330
97F7
100
AcDbEntity
  8
1
  6
Continuous
100
AcDbCircle
 10
53.3825
 20
73.8283
 30
0.0
 40
6.0
100
AcDbArc
 50
190.9799999999999
 51
266.1019999999999
  0
ARC
  5
9A06
330
97F7
100
AcDbEntity
  8
1
  6
Continuous
100
AcDbCircle
 10
120.547
 20
73.8283
 30
0.0
 40
6.0
100
AcDbArc
 50
273.8979999999999
 51
354.9929999999998
  0
ARC
  5
9A07
330
97F7
100
AcDbEntity
  8
1
  6
Continuous
100
AcDbCircle
 10
120.547
 20
161.543
 30
0.0
 40
6.0
100
AcDbArc
 50
5.007039999999999
 51
86.102
  0
ARC
  5
9A08
330
97F7
100
AcDbEntity
  8
1
  6
Continuous
100
AcDbCircle
 10
53.3825
 20
161.543
 30
0.0
 40
6.0
100
AcDbArc
 50
93.89809999999998
 51
169.02
  0
ARC
  5
9A09
330
97F7
100
AcDbEntity
  8
1
  6
Continuous
100
AcDbCircle
 10
19.465
 20
111.685
 30
0.0
 40
1.0
100
AcDbArc
 50
180.0
 51
270.0
  0
ARC
  5
9A0A
330
97F7
100
AcDbEntity
  8
1
  6
Continuous
100
AcDbCircle
 10
19.465
 20
123.685
 30
0.0
 40
1.0
100
AcDbArc
 50
90.0
 51
180.0
  0
ARC
  5
9A0B
330
97F7
100
AcDbEntity
  8
1
  6
Continuous
100
AcDbCircle
 10
115.761
 20
79.6855
 30
0.0
 40
2.0
100
AcDbArc
 50
180.0
 51
270.0
  0
ARC
  5
9A0C
330
97F7
100
AcDbEntity
  8
1
  6
Continuous
100
AcDbCircle
 10
115.761
 20
155.685
 30
0.0
 40
2.0
100
AcDbArc
 50
90.0
 51
180.0
  0
ARC
  5
9A0D
330
97F7
100
AcDbEntity
  8
1
  6
Continuous
100
AcDbCircle
 10
132.261
 20
155.685
 30
0.0
 40
2.0
100
AcDbArc
 50
0.0
 51
90.0
  0
ARC
  5
9A0E
330
97F7
100
AcDbEntity
  8
1
  6
Continuous
100
AcDbCircle
 10
132.261
 20
79.6855
 30
0.0
 40
2.0
100
AcDbArc
 50
270.0
 51
0.000005
  0
ARC
  5
9A0F
330
97F7
100
AcDbEntity
  8
1
  6
Continuous
100
AcDbCircle
 10
115.761
 20
129.685
 30
0.0
 40
2.0
100
AcDbArc
 50
180.0
 51
270.0
  0
ARC
  5
9A10
330
97F7
100
AcDbEntity
  8
1
  6
Continuous
100
AcDbCircle
 10
115.761
 20
105.685
 30
0.0
 40
2.0
100
AcDbArc
 50
90.0
 51
180.0
  0
ARC
  5
9A11
330
97F7
100
AcDbEntity
  8
1
  6
Continuous
100
AcDbCircle
 10
-380.035
 20
117.6849999999999
 30
0.0
 40
508.4999999999998
100
AcDbArc
 50
4.5117
 51
5.007039999999999
  0
ARC
  5
9A12
330
97F7
100
AcDbEntity
  8
1
  6
Continuous
100
AcDbCircle
 10
115.965
 20
78.1855
 30
0.0
 40
6.0
100
AcDbArc
 50
270.0
 51
355.22
  0
ARC
  5
9A13
330
97F7
100
AcDbEntity
  8
1
  6
Continuous
100
AcDbCircle
 10
115.965
 20
157.1849999999998
 30
0.0
 40
6.0
100
AcDbArc
 50
4.780199999999998
 51
90.0
  0
ARC
  5
9A14
330
97F7
100
AcDbEntity
  8
1
  6
Continuous
100
AcDbCircle
 10
119.761
 20
142.6849999999998
 30
0.0
 40
2.1
100
AcDbArc
 50
168.463
 51
191.5369999999998
  0
ARC
  5
9A15
330
97F7
100
AcDbEntity
  8
1
  6
Continuous
100
AcDbCircle
 10
119.761
 20
142.6849999999998
 30
0.0
 40
2.1
100
AcDbArc
 50
258.4629999999999
 51
281.5369999999999
  0
ARC
  5
9A16
330
97F7
100
AcDbEntity
  8
1
  6
Continuous
100
AcDbCircle
 10
119.761
 20
142.6849999999998
 30
0.0
 40
2.1
100
AcDbArc
 50
348.463
 51
11.537
  0
ARC
  5
9A17
330
97F7
100
AcDbEntity
  8
1
  6
Continuous
100
AcDbCircle
 10
119.761
 20
142.6849999999998
 30
0.0
 40
2.1
100
AcDbArc
 50
78.46299999999998
 51
101.537
  0
CIRCLE
  5
9A18
330
97F7
100
AcDbEntity
  8
1
  6
Continuous
100
AcDbCircle
 10
119.761
 20
142.6849999999998
 30
0.0
 40
3.5
  0
ARC
  5
9A19
330
97F7
100
AcDbEntity
  8
1
  6
Continuous
100
AcDbCircle
 10
119.761
 20
92.68550000000001
 30
0.0
 40
2.1
100
AcDbArc
 50
168.463
 51
191.5369999999998
  0
ARC
  5
9A1A
330
97F7
100
AcDbEntity
  8
1
  6
Continuous
100
AcDbCircle
 10
119.761
 20
92.68550000000001
 30
0.0
 40
2.1
100
AcDbArc
 50
258.4629999999999
 51
281.5369999999999
  0
ARC
  5
9A1B
330
97F7
100
AcDbEntity
  8
1
  6
Continuous
100
AcDbCircle
 10
119.761
 20
92.68550000000001
 30
0.0
 40
2.1
100
AcDbArc
 50
348.463
 51
11.537
  0
ARC
  5
9A1C
330
97F7
100
AcDbEntity
  8
1
  6
Continuous
100
AcDbCircle
 10
119.761
 20
92.68550000000001
 30
0.0
 40
2.1
100
AcDbArc
 50
78.46299999999998
 51
101.537
  0
CIRCLE
  5
9A1D
330
97F7
100
AcDbEntity
  8
1
  6
Continuous
100
AcDbCircle
 10
119.761
 20
92.68550000000001
 30
0.0
 40
3.5
  0
CIRCLE
  5
9A1E
330
97F7
100
AcDbEntity
  8
1
  6
Continuous
100
AcDbCircle
 10
119.761
 20
92.68550000000001
 30
0.0
 40
3.799999999999998
  0
CIRCLE
  5
9A1F
330
97F7
100
AcDbEntity
  8
1
  6
Continuous
100
AcDbCircle
 10
119.761
 20
142.6849999999998
 30
0.0
 40
3.799999999999998
  0
CIRCLE
  5
9A20
330
97F7
100
AcDbEntity
  8
1
  6
Continuous
100
AcDbCircle
 10
119.761
 20
92.68550000000001
 30
0.0
 40
5.0
  0
CIRCLE
  5
9A21
330
97F7
100
AcDbEntity
  8
1
  6
Continuous
100
AcDbCircle
 10
119.761
 20
142.6849999999998
 30
0.0
 40
5.0
  0
ARC
  5
9A22
330
97F7
100
AcDbEntity
  8
1
  6
Continuous
100
AcDbCircle
 10
109.965
 20
159.685
 30
0.0
 40
3.0
100
AcDbArc
 50
0.0
 51
90.0
  0
ARC
  5
9A23
330
97F7
100
AcDbEntity
  8
1
  6
Continuous
100
AcDbCircle
 10
109.965
 20
75.6855
 30
0.0
 40
3.0
100
AcDbArc
 50
270.0
 51
0.000005
  0
ARC
  5
9A24
330
97F7
100
AcDbEntity
  8
1
  6
Continuous
100
AcDbCircle
 10
58.965
 20
147.6849999999998
 30
0.0
 40
2.25
100
AcDbArc
 50
169.242
 51
190.758
  0
ARC
  5
9A25
330
97F7
100
AcDbEntity
  8
1
  6
Continuous
100
AcDbCircle
 10
58.965
 20
147.6849999999998
 30
0.0
 40
2.25
100
AcDbArc
 50
259.242
 51
280.7579999999999
  0
ARC
  5
9A26
330
97F7
100
AcDbEntity
  8
1
  6
Continuous
100
AcDbCircle
 10
58.965
 20
147.6849999999998
 30
0.0
 40
2.25
100
AcDbArc
 50
349.2419999999999
 51
10.7583
  0
ARC
  5
9A27
330
97F7
100
AcDbEntity
  8
1
  6
Continuous
100
AcDbCircle
 10
58.965
 20
147.6849999999998
 30
0.0
 40
2.25
100
AcDbArc
 50
79.24169999999998
 51
100.7579999999999
  0
CIRCLE
  5
9A28
330
97F7
100
AcDbEntity
  8
1
  6
Continuous
100
AcDbCircle
 10
58.965
 20
147.6849999999998
 30
0.0
 40
4.0
  0
ARC
  5
9A29
330
97F7
100
AcDbEntity
  8
1
  6
Continuous
100
AcDbCircle
 10
58.965
 20
87.68550000000002
 30
0.0
 40
2.25
100
AcDbArc
 50
169.242
 51
190.758
  0
ARC
  5
9A2A
330
97F7
100
AcDbEntity
  8
1
  6
Continuous
100
AcDbCircle
 10
58.965
 20
87.68550000000002
 30
0.0
 40
2.25
100
AcDbArc
 50
259.242
 51
280.7579999999999
  0
ARC
  5
9A2B
330
97F7
100
AcDbEntity
  8
1
  6
Continuous
100
AcDbCircle
 10
58.965
 20
87.68550000000002
 30
0.0
 40
2.25
100
AcDbArc
 50
349.2419999999999
 51
10.7583
  0
ARC
  5
9A2C
330
97F7
100
AcDbEntity
  8
1
  6
Continuous
100
AcDbCircle
 10
58.965
 20
87.68550000000002
 30
0.0
 40
2.25
100
AcDbArc
 50
79.24169999999998
 51
100.7579999999999
  0
CIRCLE
  5
9A2D
330
97F7
100
AcDbEntity
  8
1
  6
Continuous
100
AcDbCircle
 10
58.965
 20
87.68550000000002
 30
0.0
 40
4.0
  0
CIRCLE
  5
9A2E
330
97F7
100
AcDbEntity
  8
1
  6
Continuous
100
AcDbCircle
 10
94.465
 20
135.1849999999998
 30
0.0
 40
2.75
  0
CIRCLE
  5
9A2F
330
97F7
100
AcDbEntity
  8
1
  6
Continuous
100
AcDbCircle
 10
94.465
 20
100.185
 30
0.0
 40
2.75
  0
ARC
  5
9A30
330
97F7
100
AcDbEntity
  8
1
  6
Continuous
100
AcDbCircle
 10
106.9649999999999
 20
135.1849999999998
 30
0.0
 40
2.25
100
AcDbArc
 50
169.242
 51
190.758
  0
ARC
  5
9A31
330
97F7
100
AcDbEntity
  8
1
  6
Continuous
100
AcDbCircle
 10
106.9649999999999
 20
135.1849999999998
 30
0.0
 40
2.25
100
AcDbArc
 50
259.242
 51
280.7579999999999
  0
ARC
  5
9A32
330
97F7
100
AcDbEntity
  8
1
  6
Continuous
100
AcDbCircle
 10
106.9649999999999
 20
135.1849999999998
 30
0.0
 40
2.25
100
AcDbArc
 50
349.2419999999999
 51
10.7583
  0
ARC
  5
9A33
330
97F7
100
AcDbEntity
  8
1
  6
Continuous
100
AcDbCircle
 10
106.9649999999999
 20
135.1849999999998
 30
0.0
 40
2.25
100
AcDbArc
 50
79.24169999999998
 51
100.7579999999999
  0
CIRCLE
  5
9A34
330
97F7
100
AcDbEntity
  8
1
  6
Continuous
100
AcDbCircle
 10
106.9649999999999
 20
135.1849999999998
 30
0.0
 40
4.0
  0
ARC
  5
9A35
330
97F7
100
AcDbEntity
  8
1
  6
Continuous
100
AcDbCircle
 10
106.9649999999999
 20
100.185
 30
0.0
 40
2.25
100
AcDbArc
 50
169.242
 51
190.758
  0
ARC
  5
9A36
330
97F7
100
AcDbEntity
  8
1
  6
Continuous
100
AcDbCircle
 10
106.9649999999999
 20
100.185
 30
0.0
 40
2.25
100
AcDbArc
 50
259.242
 51
280.7579999999999
  0
ARC
  5
9A37
330
97F7
100
AcDbEntity
  8
1
  6
Continuous
100
AcDbCircle
 10
106.9649999999999
 20
100.185
 30
0.0
 40
2.25
100
AcDbArc
 50
349.2419999999999
 51
10.7583
  0
ARC
  5
9A38
330
97F7
100
AcDbEntity
  8
1
  6
Continuous
100
AcDbCircle
 10
106.9649999999999
 20
100.185
 30
0.0
 40
2.25
100
AcDbArc
 50
79.24169999999998
 51
100.7579999999999
  0
CIRCLE
  5
9A39
330
97F7
100
AcDbEntity
  8
1
  6
Continuous
100
AcDbCircle
 10
106.9649999999999
 20
100.185
 30
0.0
 40
4.0
  0
ARC
  5
9A3A
330
97F7
100
AcDbEntity
  8
1
  6
Continuous
100
AcDbCircle
 10
-122.6988
 20
117.6849999999999
 30
0.0
 40
508.4999999999998
100
AcDbArc
 50
354.9929999999998
 51
5.00698
  0
CIRCLE
  5
9A3B
330
97F7
100
AcDbEntity
  8
1
  6
Continuous
100
AcDbCircle
 10
476.5609999999998
 20
147.6849999999998
 30
0.0
 40
2.066999999999997
  0
CIRCLE
  5
9A3C
330
97F7
100
AcDbEntity
  8
1
  6
Continuous
100
AcDbCircle
 10
476.5609999999998
 20
87.68550000000002
 30
0.0
 40
2.066999999999997
  0
ARC
  5
9A3D
330
97F7
100
AcDbEntity
  8
1
  6
Continuous
100
AcDbCircle
 10
234.0409999999998
 20
88.6855
 30
0.0
 40
1.0
100
AcDbArc
 50
180.0
 51
270.0
  0
ARC
  5
9A3E
330
97F7
100
AcDbEntity
  8
1
  6
Continuous
100
AcDbCircle
 10
234.0409999999998
 20
146.6849999999998
 30
0.0
 40
1.0
100
AcDbArc
 50
90.0
 51
180.0
  0
ARC
  5
9A3F
330
97F7
100
AcDbEntity
  8
1
  6
Continuous
100
AcDbCircle
 10
234.0409999999998
 20
138.685
 30
0.0
 40
1.0
100
AcDbArc
 50
180.0
 51
270.0
  0
ARC
  5
9A40
330
97F7
100
AcDbEntity
  8
1
  6
Continuous
100
AcDbCircle
 10
234.0409999999998
 20
96.68550000000001
 30
0.0
 40
1.0
100
AcDbArc
 50
90.0
 51
180.0
  0
ARC
  5
9A41
330
97F7
100
AcDbEntity
  8
1
  6
Continuous
100
AcDbCircle
 10
311.2359999999998
 20
302.247
 30
0.0
 40
1.3
100
AcDbArc
 50
105.881
 51
175.0
  0
ARC
  5
9A42
330
97F7
100
AcDbEntity
  8
1
  6
Continuous
100
AcDbCircle
 10
313.343
 20
294.8409999999999
 30
0.0
 40
9.0
100
AcDbArc
 50
74.1191
 51
105.881
  0
ARC
  5
9A43
330
97F7
100
AcDbEntity
  8
1
  6
Continuous
100
AcDbCircle
 10
315.45
 20
302.247
 30
0.0
 40
1.3
100
AcDbArc
 50
4.999979999999999
 51
74.1191
  0
ARC
  5
9A44
330
97F7
100
AcDbEntity
  8
1
  6
Continuous
100
AcDbCircle
 10
177.827
 20
140.578
 30
0.0
 40
1.3
100
AcDbArc
 50
195.8809999999998
 51
265.0
  0
ARC
  5
9A45
330
97F7
100
AcDbEntity
  8
1
  6
Continuous
100
AcDbCircle
 10
185.233
 20
142.6849999999998
 30
0.0
 40
9.0
100
AcDbArc
 50
164.119
 51
195.8809999999998
  0
ARC
  5
9A46
330
97F7
100
AcDbEntity
  8
1
  6
Continuous
100
AcDbCircle
 10
177.827
 20
144.792
 30
0.0
 40
1.3
100
AcDbArc
 50
95.0
 51
164.119
  0
LINE
  5
9A47
330
97F7
100
AcDbEntity
  8
1
  6
Continuous
100
AcDbLine
 10
28.465
 20
110.685
 30
0.0
 11
28.465
 21
72.68550000000002
 31
0.0
  0
LINE
  5
9A48
330
97F7
100
AcDbEntity
  8
1
  6
Continuous
100
AcDbLine
 10
27.065
 20
124.685
 30
0.0
 11
27.065
 21
110.685
 31
0.0
  0
LINE
  5
9A49
330
97F7
100
AcDbEntity
  8
4
  6
CENTER
100
AcDbLine
 10
63.418449
 20
256.3413549999999
 30
0.0
 11
103.870927
 21
256.3413549999999
 31
0.0
  0
ARC
  5
9A4A
330
97F7
100
AcDbEntity
  8
1
  6
Continuous
100
AcDbCircle
 10
69.36532800000001
 20
253.841355
 30
0.0
 40
0.5
100
AcDbArc
 50
180.0
 51
270.0
  0
LINE
  5
9A4B
330
97F7
100
AcDbEntity
  8
1
  6
Continuous
100
AcDbLine
 10
70.86532800000002
 20
253.341355
 30
0.0
 11
69.36532800000001
 21
253.341355
 31
0.0
  0
ARC
  5
9A4C
330
97F7
100
AcDbEntity
  8
1
  6
Continuous
100
AcDbCircle
 10
70.86532800000002
 20
253.841355
 30
0.0
 40
0.5
100
AcDbArc
 50
270.0
 51
0.0
  0
LINE
  5
9A4D
330
97F7
100
AcDbEntity
  8
4
  6
CENTER
100
AcDbLine
 10
395.119475
 20
265.482
 30
0.0
 11
406.070038
 21
265.482
 31
0.0
  0
ENDSEC
  0
SECTION
  2
OBJECTS
  0
DICTIONARY
  5
97E5
330
0
100
AcDbDictionary
281
     1
  3
ACAD_CIP_PREVIOUS_PRODUCT_INFO
350
9AB3
  3
ACAD_COLOR
350
9A95
  3
ACAD_DETAILVIEWSTYLE
350
9AAE
  3
ACAD_GROUP
350
97E6
  3
ACAD_LAYOUT
350
97F2
  3
ACAD_MATERIAL
350
9A63
  3
ACAD_MLEADERSTYLE
350
9AAA
  3
ACAD_MLINESTYLE
350
97EF
  3
ACAD_PLOTSETTINGS
350
97F1
  3
ACAD_PLOTSTYLENAME
350
9A61
  3
ACAD_SCALELIST
350
9A98
  3
ACAD_SECTIONVIEWSTYLE
350
9AAC
  3
ACAD_TABLESTYLE
350
9A96
  3
ACAD_VISUALSTYLE
350
9A7C
  3
ACDB_RECOMPOSE_DATA
350
9AD1
  3
AcDbVariableDictionary
350
9AC4
  3
DWGPROPS
350
9AD2
  0
DICTIONARY
  5
9AB4
330
97E9
100
AcDbDictionary
280
     1
281
     1
  3
ADSK_XREC_LAYER_RECONCILED
360
9AB5
  0
DICTIONARY
  5
9AB6
330
97FF
100
AcDbDictionary
280
     1
281
     1
  3
ADSK_XREC_LAYER_RECONCILED
360
9AB7
  0
DICTIONARY
  5
9AB8
330
9800
100
AcDbDictionary
280
     1
281
     1
  3
ADSK_XREC_LAYER_RECONCILED
360
9AB9
  0
DICTIONARY
  5
9ABA
330
9801
100
AcDbDictionary
280
     1
281
     1
  3
ADSK_XREC_LAYER_RECONCILED
360
9ABB
  0
DICTIONARY
  5
9ABC
330
9802
100
AcDbDictionary
280
     1
281
     1
  3
ADSK_XREC_LAYER_RECONCILED
360
9ABD
  0
DICTIONARY
  5
9ABE
330
9803
100
AcDbDictionary
280
     1
281
     1
  3
ADSK_XREC_LAYER_RECONCILED
360
9ABF
  0
DICTIONARY
  5
9AC0
330
9804
100
AcDbDictionary
280
     1
281
     1
  3
ADSK_XREC_LAYER_RECONCILED
360
9AC1
  0
DICTIONARY
  5
9AC2
330
9805
100
AcDbDictionary
280
     1
281
     1
  3
ADSK_XREC_LAYER_RECONCILED
360
9AC3
  0
DICTIONARY
  5
9A5C
330
97F7
100
AcDbDictionary
281
     1
  3
ACAD_LAYOUTSELFREF
350
9A5D
  0
DICTIONARY
  5
9A5A
330
97F3
100
AcDbDictionary
281
     1
  3
ACAD_LAYOUTSELFREF
350
9A5B
  0
XRECORD
  5
9AB3
102
{ACAD_REACTORS
330
97E5
102
}
330
97E5
100
AcDbXrecord
280
     1
300
ACDLT
300
2014
300
ACDLT_F_S
  0
DICTIONARY
  5
9A95
102
{ACAD_REACTORS
330
97E5
102
}
330
97E5
100
AcDbDictionary
281
     1
  0
DICTIONARY
  5
9AAE
102
{ACAD_REACTORS
330
97E5
102
}
330
97E5
100
AcDbDictionary
281
     1
  3
Imperial24
350
9AAF
  0
DICTIONARY
  5
97E6
102
{ACAD_REACTORS
330
97E5
102
}
330
97E5
100
AcDbDictionary
281
     1
  0
DICTIONARY
  5
97F2
102
{ACAD_REACTORS
330
97E5
102
}
330
97E5
100
AcDbDictionary
281
     1
  3
Model
350
9AB0
  3
レイアウト1
350
9AB1
  0
DICTIONARY
  5
9A63
102
{ACAD_REACTORS
330
97E5
102
}
330
97E5
100
AcDbDictionary
281
     1
  3
ByBlock
350
9A6C
  3
ByLayer
350
9A64
  3
Global
350
9A74
  0
DICTIONARY
  5
9AAA
102
{ACAD_REACTORS
330
97E5
102
}
330
97E5
100
AcDbDictionary
281
     1
  3
Standard
350
9AAB
  0
DICTIONARY
  5
97EF
102
{ACAD_REACTORS
330
97E5
102
}
330
97E5
100
AcDbDictionary
281
     1
  3
STANDARD
350
97F0
  0
DICTIONARY
  5
97F1
102
{ACAD_REACTORS
330
97E5
102
}
330
97E5
100
AcDbDictionary
281
     1
  0
ACDBDICTIONARYWDFLT
  5
9A61
102
{ACAD_REACTORS
330
97E5
102
}
330
97E5
100
AcDbDictionary
281
     1
  3
Normal
350
9A62
100
AcDbDictionaryWithDefault
340
9A62
  0
DICTIONARY
  5
9A98
102
{ACAD_REACTORS
330
97E5
102
}
330
97E5
100
AcDbDictionary
281
     1
  3
A0
350
9A99
  3
A1
350
9A9A
  3
A2
350
9A9B
  3
A3
350
9A9C
  3
A4
350
9A9D
  3
A5
350
9A9E
  3
A6
350
9A9F
  3
A7
350
9AA0
  3
A8
350
9AA1
  3
A9
350
9AA2
  3
B0
350
9AA3
  3
B1
350
9AA4
  3
B2
350
9AA5
  3
B3
350
9AA6
  3
B4
350
9AA7
  3
B5
350
9AA8
  3
B6
350
9AA9
  0
DICTIONARY
  5
9AAC
102
{ACAD_REACTORS
330
97E5
102
}
330
97E5
100
AcDbDictionary
281
     1
  3
Imperial24
350
9AAD
  0
DICTIONARY
  5
9A96
102
{ACAD_REACTORS
330
97E5
102
}
330
97E5
100
AcDbDictionary
281
     1
  3
Standard
350
9A97
  0
DICTIONARY
  5
9A7C
102
{ACAD_REACTORS
330
97E5
102
}
330
97E5
100
AcDbDictionary
281
     1
  3
2dWireframe
350
9A82
  3
Basic
350
9A81
  3
Brighten
350
9A88
  3
ColorChange
350
9A8C
  3
Conceptual
350
9A85
  3
Dim
350
9A87
  3
EdgeColorOff
350
9A94
  3
Facepattern
350
9A8B
  3
Flat
350
9A7D
  3
FlatWithEdges
350
9A7E
  3
Gouraud
350
9A7F
  3
GouraudWithEdges
350
9A80
  3
Hidden
350
9A84
  3
JitterOff
350
9A92
  3
Linepattern
350
9A8A
  3
OverhangOff
350
9A93
  3
Realistic
350
9A86
  3
Shaded
350
9A91
  3
Shaded with edges
350
9A90
  3
Shades of Gray
350
9A8D
  3
Sketchy
350
9A8E
  3
Thicken
350
9A89
  3
Wireframe
350
9A83
  3
X-Ray
350
9A8F
  0
XRECORD
  5
9AD1
102
{ACAD_REACTORS
330
97E5
102
}
330
97E5
100
AcDbXrecord
280
     1
 90
        1
330
9A97
  0
DICTIONARY
  5
9AC4
102
{ACAD_REACTORS
330
97E5
102
}
330
97E5
100
AcDbDictionary
281
     1
  3
CANNOSCALE
350
9AC9
  3
CMLEADERSTYLE
350
9AC6
  3
CTABLESTYLE
350
9AC5
  3
CVIEWDETAILSTYLE
350
9AC7
  3
CVIEWSECTIONSTYLE
350
9AC8
  3
DIMASSOC
350
9ACC
  3
INDEXCTL
350
9ACB
  3
SORTENTS
350
9ACA
  3
XCLIPFRAME
350
9ACD
  0
XRECORD
  5
9AD2
102
{ACAD_REACTORS
330
97E5
102
}
330
97E5
100
AcDbXrecord
280
     1
  1
DWGPROPS COOKIE
  2

  3

  4

  6

  7

  8
Yoshitsune
  9

300
=
301
=
302
=
303
=
304
=
305
=
306
=
307
=
308
=
309
=
 40
0.0000137152777778
 41
2450737.665205556
 42
2457192.640188727
  1

 90
        0
  0
XRECORD
  5
9AB5
102
{ACAD_REACTORS
330
9AB4
102
}
330
9AB4
100
AcDbXrecord
280
     1
290
     1
  0
XRECORD
  5
9AB7
102
{ACAD_REACTORS
330
9AB6
102
}
330
9AB6
100
AcDbXrecord
280
     1
290
     1
  0
XRECORD
  5
9AB9
102
{ACAD_REACTORS
330
9AB8
102
}
330
9AB8
100
AcDbXrecord
280
     1
290
     1
  0
XRECORD
  5
9ABB
102
{ACAD_REACTORS
330
9ABA
102
}
330
9ABA
100
AcDbXrecord
280
     1
290
     1
  0
XRECORD
  5
9ABD
102
{ACAD_REACTORS
330
9ABC
102
}
330
9ABC
100
AcDbXrecord
280
     1
290
     1
  0
XRECORD
  5
9ABF
102
{ACAD_REACTORS
330
9ABE
102
}
330
9ABE
100
AcDbXrecord
280
     1
290
     1
  0
XRECORD
  5
9AC1
102
{ACAD_REACTORS
330
9AC0
102
}
330
9AC0
100
AcDbXrecord
280
     1
290
     1
  0
XRECORD
  5
9AC3
102
{ACAD_REACTORS
330
9AC2
102
}
330
9AC2
100
AcDbXrecord
280
     1
290
     1
  0
XRECORD
  5
9A5D
102
{ACAD_REACTORS
330
9A5C
102
}
330
9A5C
100
AcDbXrecord
280
     1
340
97F7
  0
XRECORD
  5
9A5B
102
{ACAD_REACTORS
330
9A5A
102
}
330
9A5A
100
AcDbXrecord
280
     1
340
97F3
  0
ACDBDETAILVIEWSTYLE
  5
9AAF
102
{ACAD_XDICTIONARY
360
9B0A
102
}
102
{ACAD_REACTORS
330
9AAE
102
}
330
9AAE
100
AcDbModelDocViewStyle
 70
     0
  3
Imperial24
290
     0
100
AcDbDetailViewStyle
 70
     0
 71
     0
 90
        3
 71
     1
340
97EA
 40
0.24
340
0
 40
0.24
300

 40
0.36
280
     3
 71
     2
340
97EE
 90
       25
 71
     3
340
97EA
 40
0.24
 90
        1
 40
0.75
 90
        1
300
%<\AcVar ViewType \f "%tc1">% %<\AcVar ViewDetailId>%\PSCALE %<\AcVar ViewScale \f "%sn">%
 71
     4
340
97EE
 90
       25
340
97EE
 90
       25
280
     0
  0
LAYOUT
  5
9AB0
102
{ACAD_XDICTIONARY
360
9B0C
102
}
102
{ACAD_REACTORS
330
97F2
102
}
330
97F2
100
AcDbPlotSettings
  1

  2
Canon LBP9100C
  4

  6

 40
0.0
 41
0.0
 42
0.0
 43
0.0
 44
0.0
 45
0.0
 46
0.0
 47
0.0
 48
0.0
 49
0.0
140
0.0
141
0.0
142
1.0
143
1.0
 70
  1712
 72
     0
 73
     0
 74
     0
  7

 75
     0
147
1.0
148
0.0
149
0.0
100
AcDbLayout
  1
Model
 70
     1
 71
     0
 10
0.0
 20
0.0
 11
12.0
 21
9.0
 12
0.0
 22
0.0
 32
0.0
 14
0.0
 24
0.0
 34
0.0
 15
0.0
 25
0.0
 35
0.0
146
0.0
 13
0.0
 23
0.0
 33
0.0
 16
1.0
 26
0.0
 36
0.0
 17
0.0
 27
1.0
 37
0.0
 76
     0
330
97F7
331
9A59
  0
LAYOUT
  5
9AB1
102
{ACAD_XDICTIONARY
360
9B0E
102
}
102
{ACAD_REACTORS
330
97F2
102
}
330
97F2
100
AcDbPlotSettings
  1

  2
Canon LBP9100C
  4

  6

 40
0.0
 41
0.0
 42
0.0
 43
0.0
 44
0.0
 45
0.0
 46
0.0
 47
0.0
 48
0.0
 49
0.0
140
0.0
141
0.0
142
1.0
143
1.0
 70
   688
 72
     0
 73
     0
 74
     5
  7

 75
    16
147
1.0
148
0.0
149
0.0
100
AcDbLayout
  1
レイアウト1
 70
     0
 71
     1
 10
0.0
 20
0.0
 11
420.0
 21
297.0
 12
0.0
 22
0.0
 32
0.0
 14
1.000000000000000E+20
 24
1.000000000000000E+20
 34
1.000000000000000E+20
 15
-1.000000000000000E+20
 25
-1.000000000000000E+20
 35
-1.000000000000000E+20
146
0.0
 13
0.0
 23
0.0
 33
0.0
 16
1.0
 26
0.0
 36
0.0
 17
0.0
 27
1.0
 37
0.0
 76
     0
330
97F3
  0
MATERIAL
  5
9A6C
102
{ACAD_XDICTIONARY
360
9A6D
102
}
102
{ACAD_REACTORS
330
9A63
102
}
330
9A63
100
AcDbMaterial
  1
ByBlock
 72
     0
 43
0.0208333333333333
 43
0.0
 43
0.0
 43
0.0
 43
0.0
 43
0.0208333333333333
 43
0.0
 43
0.0
 43
0.0
 43
0.0
 43
1.0
 43
0.0
 43
0.0
 43
0.0
 43
0.0
 43
1.0
 77
     0
 47
0.0208333333333333
 47
0.0
 47
0.0
 47
0.0
 47
0.0
 47
0.0208333333333333
 47
0.0
 47
0.0
 47
0.0
 47
0.0
 47
1.0
 47
0.0
 47
0.0
 47
0.0
 47
0.0
 47
1.0
171
     0
 49
0.0208333333333333
 49
0.0
 49
0.0
 49
0.0
 49
0.0
 49
0.0208333333333333
 49
0.0
 49
0.0
 49
0.0
 49
0.0
 49
1.0
 49
0.0
 49
0.0
 49
0.0
 49
0.0
 49
1.0
175
     0
142
0.0208333333333333
142
0.0
142
0.0
142
0.0
142
0.0
142
0.0208333333333333
142
0.0
142
0.0
142
0.0
142
0.0
142
1.0
142
0.0
142
0.0
142
0.0
142
0.0
142
1.0
179
     0
144
0.0208333333333333
144
0.0
144
0.0
144
0.0
144
0.0
144
0.0208333333333333
144
0.0
144
0.0
144
0.0
144
0.0
144
1.0
144
0.0
144
0.0
144
0.0
144
0.0
144
1.0
147
0.0208333333333333
147
0.0
147
0.0
147
0.0
147
0.0
147
0.0208333333333333
147
0.0
147
0.0
147
0.0
147
0.0
147
1.0
147
0.0
147
0.0
147
0.0
147
0.0
147
1.0
  0
MATERIAL
  5
9A64
102
{ACAD_XDICTIONARY
360
9A65
102
}
102
{ACAD_REACTORS
330
9A63
102
}
330
9A63
100
AcDbMaterial
  1
ByLayer
 72
     0
 43
0.0208333333333333
 43
0.0
 43
0.0
 43
0.0
 43
0.0
 43
0.0208333333333333
 43
0.0
 43
0.0
 43
0.0
 43
0.0
 43
1.0
 43
0.0
 43
0.0
 43
0.0
 43
0.0
 43
1.0
 77
     0
 47
0.0208333333333333
 47
0.0
 47
0.0
 47
0.0
 47
0.0
 47
0.0208333333333333
 47
0.0
 47
0.0
 47
0.0
 47
0.0
 47
1.0
 47
0.0
 47
0.0
 47
0.0
 47
0.0
 47
1.0
171
     0
 49
0.0208333333333333
 49
0.0
 49
0.0
 49
0.0
 49
0.0
 49
0.0208333333333333
 49
0.0
 49
0.0
 49
0.0
 49
0.0
 49
1.0
 49
0.0
 49
0.0
 49
0.0
 49
0.0
 49
1.0
175
     0
142
0.0208333333333333
142
0.0
142
0.0
142
0.0
142
0.0
142
0.0208333333333333
142
0.0
142
0.0
142
0.0
142
0.0
142
1.0
142
0.0
142
0.0
142
0.0
142
0.0
142
1.0
179
     0
144
0.0208333333333333
144
0.0
144
0.0
144
0.0
144
0.0
144
0.0208333333333333
144
0.0
144
0.0
144
0.0
144
0.0
144
1.0
144
0.0
144
0.0
144
0.0
144
0.0
144
1.0
147
0.0208333333333333
147
0.0
147
0.0
147
0.0
147
0.0
147
0.0208333333333333
147
0.0
147
0.0
147
0.0
147
0.0
147
1.0
147
0.0
147
0.0
147
0.0
147
0.0
147
1.0
  0
MATERIAL
  5
9A74
102
{ACAD_XDICTIONARY
360
9A75
102
}
102
{ACAD_REACTORS
330
9A63
102
}
330
9A63
100
AcDbMaterial
  1
Global
 72
     0
 43
0.0208333333333333
 43
0.0
 43
0.0
 43
0.0
 43
0.0
 43
0.0208333333333333
 43
0.0
 43
0.0
 43
0.0
 43
0.0
 43
1.0
 43
0.0
 43
0.0
 43
0.0
 43
0.0
 43
1.0
 77
     0
 47
0.0208333333333333
 47
0.0
 47
0.0
 47
0.0
 47
0.0
 47
0.0208333333333333
 47
0.0
 47
0.0
 47
0.0
 47
0.0
 47
1.0
 47
0.0
 47
0.0
 47
0.0
 47
0.0
 47
1.0
171
     0
 49
0.0208333333333333
 49
0.0
 49
0.0
 49
0.0
 49
0.0
 49
0.0208333333333333
 49
0.0
 49
0.0
 49
0.0
 49
0.0
 49
1.0
 49
0.0
 49
0.0
 49
0.0
 49
0.0
 49
1.0
175
     0
142
0.0208333333333333
142
0.0
142
0.0
142
0.0
142
0.0
142
0.0208333333333333
142
0.0
142
0.0
142
0.0
142
0.0
142
1.0
142
0.0
142
0.0
142
0.0
142
0.0
142
1.0
179
     0
144
0.0208333333333333
144
0.0
144
0.0
144
0.0
144
0.0
144
0.0208333333333333
144
0.0
144
0.0
144
0.0
144
0.0
144
1.0
144
0.0
144
0.0
144
0.0
144
0.0
144
1.0
147
0.0208333333333333
147
0.0
147
0.0
147
0.0
147
0.0
147
0.0208333333333333
147
0.0
147
0.0
147
0.0
147
0.0
147
1.0
147
0.0
147
0.0
147
0.0
147
0.0
147
1.0
  0
MLEADERSTYLE
  5
9AAB
102
{ACAD_REACTORS
330
9AAA
102
}
330
9AAA
100
AcDbMLeaderStyle
170
     2
171
     1
172
     0
 90
        2
 40
0.0
 41
0.0
173
     1
 91
-1056964608
340
97EC
 92
       -2
290
     1
 42
0.09
291
     1
 43
0.36
  3
Standard
 44
0.18
300

342
97EA
174
     1
178
     6
175
     1
176
     0
 93
-1056964608
 45
0.18
292
     0
297
     0
 46
0.18
 94
-1056964608
 47
1.0
 49
1.0
140
1.0
293
     1
141
0.0
294
     1
177
     0
142
1.0
295
     0
296
     0
143
0.125
1001
ACAD_MLEADERVER
1070
     2
  0
MLINESTYLE
  5
97F0
102
{ACAD_REACTORS
330
97EF
102
}
330
97EF
100
AcDbMlineStyle
  2
STANDARD
 70
     0
  3

 62
   256
 51
90.0
 52
90.0
 71
     2
 49
0.5
 62
   256
  6
BYLAYER
 49
-0.5
 62
   256
  6
BYLAYER
  0
ACDBPLACEHOLDER
  5
9A62
102
{ACAD_REACTORS
330
9A61
102
}
330
9A61
  0
SCALE
  5
9A99
102
{ACAD_REACTORS
330
9A98
102
}
330
9A98
100
AcDbScale
 70
     0
300
1:1
140
1.0
141
1.0
290
     1
  0
SCALE
  5
9A9A
102
{ACAD_REACTORS
330
9A98
102
}
330
9A98
100
AcDbScale
 70
     0
300
1/128" = 1'-0"
140
0.0078125
141
12.0
290
     0
  0
SCALE
  5
9A9B
102
{ACAD_REACTORS
330
9A98
102
}
330
9A98
100
AcDbScale
 70
     0
300
1/64" = 1'-0"
140
0.015625
141
12.0
290
     0
  0
SCALE
  5
9A9C
102
{ACAD_REACTORS
330
9A98
102
}
330
9A98
100
AcDbScale
 70
     0
300
1/32" = 1'-0"
140
0.03125
141
12.0
290
     0
  0
SCALE
  5
9A9D
102
{ACAD_REACTORS
330
9A98
102
}
330
9A98
100
AcDbScale
 70
     0
300
1/16" = 1'-0"
140
0.0625
141
12.0
290
     0
  0
SCALE
  5
9A9E
102
{ACAD_REACTORS
330
9A98
102
}
330
9A98
100
AcDbScale
 70
     0
300
3/32" = 1'-0"
140
0.09375
141
12.0
290
     0
  0
SCALE
  5
9A9F
102
{ACAD_REACTORS
330
9A98
102
}
330
9A98
100
AcDbScale
 70
     0
300
1/8" = 1'-0"
140
0.125
141
12.0
290
     0
  0
SCALE
  5
9AA0
102
{ACAD_REACTORS
330
9A98
102
}
330
9A98
100
AcDbScale
 70
     0
300
3/16" = 1'-0"
140
0.1875
141
12.0
290
     0
  0
SCALE
  5
9AA1
102
{ACAD_REACTORS
330
9A98
102
}
330
9A98
100
AcDbScale
 70
     0
300
1/4" = 1'-0"
140
0.25
141
12.0
290
     0
  0
SCALE
  5
9AA2
102
{ACAD_REACTORS
330
9A98
102
}
330
9A98
100
AcDbScale
 70
     0
300
3/8" = 1'-0"
140
0.375
141
12.0
290
     0
  0
SCALE
  5
9AA3
102
{ACAD_REACTORS
330
9A98
102
}
330
9A98
100
AcDbScale
 70
     0
300
1/2" = 1'-0"
140
0.5
141
12.0
290
     0
  0
SCALE
  5
9AA4
102
{ACAD_REACTORS
330
9A98
102
}
330
9A98
100
AcDbScale
 70
     0
300
3/4" = 1'-0"
140
0.75
141
12.0
290
     0
  0
SCALE
  5
9AA5
102
{ACAD_REACTORS
330
9A98
102
}
330
9A98
100
AcDbScale
 70
     0
300
1" = 1'-0"
140
1.0
141
12.0
290
     0
  0
SCALE
  5
9AA6
102
{ACAD_REACTORS
330
9A98
102
}
330
9A98
100
AcDbScale
 70
     0
300
1-1/2" = 1'-0"
140
1.5
141
12.0
290
     0
  0
SCALE
  5
9AA7
102
{ACAD_REACTORS
330
9A98
102
}
330
9A98
100
AcDbScale
 70
     0
300
3" = 1'-0"
140
3.0
141
12.0
290
     0
  0
SCALE
  5
9AA8
102
{ACAD_REACTORS
330
9A98
102
}
330
9A98
100
AcDbScale
 70
     0
300
6" = 1'-0"
140
6.0
141
12.0
290
     0
  0
SCALE
  5
9AA9
102
{ACAD_REACTORS
330
9A98
102
}
330
9A98
100
AcDbScale
 70
     0
300
1'-0" = 1'-0"
140
12.0
141
12.0
290
     0
  0
ACDBSECTIONVIEWSTYLE
  5
9AAD
102
{ACAD_XDICTIONARY
360
9B08
102
}
102
{ACAD_REACTORS
330
9AAC
102
}
330
9AAC
100
AcDbModelDocViewStyle
 70
     0
  3
Imperial24
290
     0
100
AcDbSectionViewStyle
 70
     0
 71
     0
 90
       78
 71
     1
340
97EA
 40
0.24
340
0
340
0
 40
0.24
300
I, O, Q, S, X, Z
 40
0.48
 90
        3
 40
0.18
 90
        1
 71
     2
340
97EE
 90
       25
340
97EE
 90
       50
 40
0.24
 40
0.0
 40
0.24
 71
     3
340
97EA
 40
0.24
 90
        1
 40
0.75
 90
        1
300
%<\AcVar ViewType \f "%tc1">% %<\AcVar ViewSectionStartId>%-%<\AcVar ViewSectionEndId>%\PSCALE %<\AcVar ViewScale \f "%sn">%
 71
     4
300
ANSI31
 40
1.0
 90
        0
290
     0
290
     0
 90
        6
 40
0.0
 40
1.570796326794896
 40
0.2617993877991494
 40
1.308996938995747
 40
-0.2617993877991494
 40
1.832595714594046
  0
TABLESTYLE
  5
9A97
102
{ACAD_XDICTIONARY
360
9ACF
102
}
102
{ACAD_REACTORS
330
9A96
102
}
330
9A96
100
AcDbTableStyle
  3
Standard
 70
     0
 71
     0
 40
0.06
 41
0.06
280
     0
281
     0
  7
STANDARD
140
0.18
170
     2
 62
     0
 63
     7
283
     0
274
    -2
284
     1
 64
     0
275
    -2
285
     1
 65
     0
276
    -2
286
     1
 66
     0
277
    -2
287
     1
 67
     0
278
    -2
288
     1
 68
     0
279
    -2
289
     1
 69
     0
  7
STANDARD
140
0.25
170
     5
 62
     0
 63
     7
283
     0
274
    -2
284
     1
 64
     0
275
    -2
285
     1
 65
     0
276
    -2
286
     1
 66
     0
277
    -2
287
     1
 67
     0
278
    -2
288
     1
 68
     0
279
    -2
289
     1
 69
     0
  7
STANDARD
140
0.18
170
     5
 62
     0
 63
     7
283
     0
274
    -2
284
     1
 64
     0
275
    -2
285
     1
 65
     0
276
    -2
286
     1
 66
     0
277
    -2
287
     1
 67
     0
278
    -2
288
     1
 68
     0
279
    -2
289
     1
 69
     0
  0
VISUALSTYLE
  5
9A82
102
{ACAD_XDICTIONARY
360
9AE0
102
}
102
{ACAD_REACTORS
330
9A7C
102
}
330
9A7C
100
AcDbVisualStyle
  2
2dWireframe
 70
     4
 71
     0
 72
     2
 73
     0
 90
        0
 40
-0.6
 41
-30.0
 62
     5
 63
     7
 74
     1
 91
        4
 64
     7
 65
   257
 75
     1
175
     1
 42
1.0
 92
        0
 66
   257
 43
1.0
 76
     1
 77
     6
 78
     2
 67
     7
 79
     5
170
     0
171
     0
290
     0
174
     0
 93
        1
 44
0.0
173
     0
291
     0
 45
0.0
1001
ACAD
1000
AcDbSavedByObjectVersion
1070
     0
  0
VISUALSTYLE
  5
9A81
102
{ACAD_XDICTIONARY
360
9ADE
102
}
102
{ACAD_REACTORS
330
9A7C
102
}
330
9A7C
100
AcDbVisualStyle
  2
Basic
 70
     7
 71
     1
 72
     0
 73
     1
 90
        0
 40
-0.6
 41
-30.0
 62
     5
 63
     7
 74
     0
 91
        4
 64
     7
 65
   257
 75
     1
175
     1
 42
1.0
 92
        8
 66
     7
 43
1.0
 76
     1
 77
     6
 78
     2
 67
     7
 79
     5
170
     0
171
     0
290
     0
174
     0
 93
        1
 44
0.0
173
     0
291
     1
 45
0.0
1001
ACAD
1000
AcDbSavedByObjectVersion
1070
     0
  0
VISUALSTYLE
  5
9A88
102
{ACAD_XDICTIONARY
360
9AEC
102
}
102
{ACAD_REACTORS
330
9A7C
102
}
330
9A7C
100
AcDbVisualStyle
  2
Brighten
 70
    12
 71
     2
 72
     2
 73
     0
 90
        0
 40
-0.6
 41
-30.0
 62
     5
 63
     7
 74
     1
 91
        4
 64
     7
 65
   257
 75
     1
175
     1
 42
1.0
 92
        8
 66
     7
 43
1.0
 76
     1
 77
     6
 78
     2
 67
     7
 79
     5
170
     0
171
     0
290
     0
174
     0
 93
        1
 44
50.0
173
     0
291
     1
 45
0.0
1001
ACAD
1000
AcDbSavedByObjectVersion
1070
     0
  0
VISUALSTYLE
  5
9A8C
102
{ACAD_XDICTIONARY
360
9AF4
102
}
102
{ACAD_REACTORS
330
9A7C
102
}
330
9A7C
100
AcDbVisualStyle
  2
ColorChange
 70
    16
 71
     2
 72
     2
 73
     3
 90
        0
 40
-0.6
 41
-30.0
 62
     5
 63
     8
 74
     1
 91
        4
 64
     7
 65
   257
 75
     1
175
     1
 42
1.0
 92
        8
 66
     8
 43
1.0
 76
     1
 77
     6
 78
     2
 67
     7
 79
     5
170
     0
171
     0
290
     0
174
     0
 93
        1
 44
0.0
173
     0
291
     1
 45
0.0
1001
ACAD
1000
AcDbSavedByObjectVersion
1070
     0
  0
VISUALSTYLE
  5
9A85
102
{ACAD_XDICTIONARY
360
9AE6
102
}
102
{ACAD_REACTORS
330
9A7C
102
}
330
9A7C
100
AcDbVisualStyle
  2
Conceptual
 70
     9
 71
     3
 72
     2
 73
     0
 90
        0
 40
-0.6
 41
-30.0
 62
     5
 63
     7
 74
     2
 91
        2
 64
     7
 65
   257
 75
     1
175
     1
 42
179.0
 92
        8
 66
     7
 43
1.0
 76
     1
 77
     6
 78
     2
 67
     7
 79
     3
170
     0
171
     0
290
     0
174
     0
 93
        1
 44
0.0
173
     0
291
     0
 45
0.0
1001
ACAD
1000
AcDbSavedByObjectVersion
1070
     0
  0
VISUALSTYLE
  5
9A87
102
{ACAD_XDICTIONARY
360
9AEA
102
}
102
{ACAD_REACTORS
330
9A7C
102
}
330
9A7C
100
AcDbVisualStyle
  2
Dim
 70
    11
 71
     2
 72
     2
 73
     0
 90
        0
 40
-0.6
 41
-30.0
 62
     5
 63
     7
 74
     1
 91
        4
 64
     7
 65
   257
 75
     1
175
     1
 42
1.0
 92
        8
 66
     7
 43
1.0
 76
     1
 77
     6
 78
     2
 67
     7
 79
     5
170
     0
171
     0
290
     0
174
     0
 93
        1
 44
-50.0
173
     0
291
     1
 45
0.0
1001
ACAD
1000
AcDbSavedByObjectVersion
1070
     0
  0
VISUALSTYLE
  5
9A94
102
{ACAD_XDICTIONARY
360
9B04
102
}
102
{ACAD_REACTORS
330
9A7C
102
}
330
9A7C
100
AcDbVisualStyle
  2
EdgeColorOff
 70
    22
 71
     2
 72
     2
 73
     0
 90
        0
 40
-0.6
 41
-30.0
 62
     5
 63
     7
 74
     1
 91
        4
 64
     7
 65
   257
 75
     1
175
     1
 42
1.0
 92
        8
 66
     7
 43
1.0
 76
     1
 77
     6
 78
     2
 67
     7
 79
     5
170
     0
171
     0
290
     0
174
     0
 93
        1
 44
0.0
173
     0
291
     1
 45
0.0
1001
ACAD
1000
AcDbSavedByObjectVersion
1070
     0
  0
VISUALSTYLE
  5
9A8B
102
{ACAD_XDICTIONARY
360
9AF2
102
}
102
{ACAD_REACTORS
330
9A7C
102
}
330
9A7C
100
AcDbVisualStyle
  2
Facepattern
 70
    15
 71
     2
 72
     2
 73
     0
 90
        0
 40
-0.6
 41
-30.0
 62
     5
 63
     7
 74
     1
 91
        4
 64
     7
 65
   257
 75
     1
175
     1
 42
1.0
 92
        8
 66
     7
 43
1.0
 76
     1
 77
     6
 78
     2
 67
     7
 79
     5
170
     0
171
     0
290
     0
174
     0
 93
        1
 44
0.0
173
     0
291
     1
 45
0.0
1001
ACAD
1000
AcDbSavedByObjectVersion
1070
     0
  0
VISUALSTYLE
  5
9A7D
102
{ACAD_XDICTIONARY
360
9AD6
102
}
102
{ACAD_REACTORS
330
9A7C
102
}
330
9A7C
100
AcDbVisualStyle
  2
Flat
 70
     0
 71
     2
 72
     1
 73
     1
 90
        2
 40
-0.6
 41
30.0
 62
     5
 63
     7
 74
     0
 91
        0
 64
     7
 65
   257
 75
     1
175
     1
 42
1.0
 92
        8
 66
     7
 43
1.0
 76
     1
 77
     6
 78
     2
 67
     7
 79
     5
170
     0
171
     0
290
     0
174
     0
 93
       13
 44
0.0
173
     0
291
     1
 45
0.0
1001
ACAD
1000
AcDbSavedByObjectVersion
1070
     0
  0
VISUALSTYLE
  5
9A7E
102
{ACAD_XDICTIONARY
360
9AD8
102
}
102
{ACAD_REACTORS
330
9A7C
102
}
330
9A7C
100
AcDbVisualStyle
  2
FlatWithEdges
 70
     1
 71
     2
 72
     1
 73
     1
 90
        2
 40
-0.6
 41
30.0
 62
     5
 63
     7
 74
     1
 91
        0
 64
     7
 65
   257
 75
     1
175
     1
 42
1.0
 92
        0
 66
   257
 43
1.0
 76
     1
 77
     6
 78
     2
 67
     7
 79
     5
170
     0
171
     0
290
     0
174
     0
 93
       13
 44
0.0
173
     0
291
     1
 45
0.0
1001
ACAD
1000
AcDbSavedByObjectVersion
1070
     0
  0
VISUALSTYLE
  5
9A7F
102
{ACAD_XDICTIONARY
360
9ADA
102
}
102
{ACAD_REACTORS
330
9A7C
102
}
330
9A7C
100
AcDbVisualStyle
  2
Gouraud
 70
     2
 71
     2
 72
     2
 73
     1
 90
        2
 40
-0.6
 41
30.0
 62
     5
 63
     7
 74
     0
 91
        0
 64
     7
 65
   257
 75
     1
175
     1
 42
1.0
 92
        0
 66
     7
 43
1.0
 76
     1
 77
     6
 78
     2
 67
     7
 79
     5
170
     0
171
     0
290
     0
174
     0
 93
       13
 44
0.0
173
     0
291
     1
 45
0.0
1001
ACAD
1000
AcDbSavedByObjectVersion
1070
     0
  0
VISUALSTYLE
  5
9A80
102
{ACAD_XDICTIONARY
360
9ADC
102
}
102
{ACAD_REACTORS
330
9A7C
102
}
330
9A7C
100
AcDbVisualStyle
  2
GouraudWithEdges
 70
     3
 71
     2
 72
     2
 73
     1
 90
        2
 40
-0.6
 41
30.0
 62
     5
 63
     7
 74
     1
 91
        0
 64
     7
 65
   257
 75
     1
175
     1
 42
1.0
 92
        0
 66
   257
 43
1.0
 76
     1
 77
     6
 78
     2
 67
     7
 79
     5
170
     0
171
     0
290
     0
174
     0
 93
       13
 44
0.0
173
     0
291
     1
 45
0.0
1001
ACAD
1000
AcDbSavedByObjectVersion
1070
     0
  0
VISUALSTYLE
  5
9A84
102
{ACAD_XDICTIONARY
360
9AE4
102
}
102
{ACAD_REACTORS
330
9A7C
102
}
330
9A7C
100
AcDbVisualStyle
  2
Hidden
 70
     6
 71
     1
 72
     2
 73
     2
 90
        0
 40
-0.6
 41
-30.0
 62
     5
 63
     7
 74
     2
 91
        2
 64
     7
 65
   257
 75
     2
175
     1
 42
40.0
 92
        0
 66
   257
 43
1.0
 76
     1
 77
     6
 78
     2
 67
     7
 79
     3
170
     0
171
     0
290
     0
174
     0
 93
        1
 44
0.0
173
     0
291
     0
 45
0.0
1001
ACAD
1000
AcDbSavedByObjectVersion
1070
     0
  0
VISUALSTYLE
  5
9A92
102
{ACAD_XDICTIONARY
360
9B00
102
}
102
{ACAD_REACTORS
330
9A7C
102
}
330
9A7C
100
AcDbVisualStyle
  2
JitterOff
 70
    20
 71
     2
 72
     2
 73
     0
 90
        0
 40
-0.6
 41
-30.0
 62
     5
 63
     7
 74
     1
 91
        4
 64
     7
 65
   257
 75
     1
175
     1
 42
1.0
 92
       10
 66
     7
 43
1.0
 76
     1
 77
     6
 78
     2
 67
     7
 79
     5
170
     0
171
     0
290
     0
174
     0
 93
        1
 44
0.0
173
     0
291
     1
 45
0.0
1001
ACAD
1000
AcDbSavedByObjectVersion
1070
     0
  0
VISUALSTYLE
  5
9A8A
102
{ACAD_XDICTIONARY
360
9AF0
102
}
102
{ACAD_REACTORS
330
9A7C
102
}
330
9A7C
100
AcDbVisualStyle
  2
Linepattern
 70
    14
 71
     2
 72
     2
 73
     0
 90
        0
 40
-0.6
 41
-30.0
 62
     5
 63
     7
 74
     1
 91
        4
 64
     7
 65
   257
 75
     7
175
     7
 42
1.0
 92
        8
 66
     7
 43
1.0
 76
     1
 77
     6
 78
     2
 67
     7
 79
     5
170
     0
171
     0
290
     0
174
     0
 93
        1
 44
0.0
173
     0
291
     1
 45
0.0
1001
ACAD
1000
AcDbSavedByObjectVersion
1070
     0
  0
VISUALSTYLE
  5
9A93
102
{ACAD_XDICTIONARY
360
9B02
102
}
102
{ACAD_REACTORS
330
9A7C
102
}
330
9A7C
100
AcDbVisualStyle
  2
OverhangOff
 70
    21
 71
     2
 72
     2
 73
     0
 90
        0
 40
-0.6
 41
-30.0
 62
     5
 63
     7
 74
     1
 91
        4
 64
     7
 65
   257
 75
     1
175
     1
 42
1.0
 92
        9
 66
     7
 43
1.0
 76
     1
 77
     6
 78
     2
 67
     7
 79
     5
170
     0
171
     0
290
     0
174
     0
 93
        1
 44
0.0
173
     0
291
     1
 45
0.0
1001
ACAD
1000
AcDbSavedByObjectVersion
1070
     0
  0
VISUALSTYLE
  5
9A86
102
{ACAD_XDICTIONARY
360
9AE8
102
}
102
{ACAD_REACTORS
330
9A7C
102
}
330
9A7C
100
AcDbVisualStyle
  2
Realistic
 70
     8
 71
     2
 72
     3
 73
     0
 90
        2
 40
-0.6
 41
30.0
 62
     5
 63
     7
 74
     0
 91
        0
 64
     7
 65
   257
 75
     1
175
     1
 42
1.0
 92
        8
 66
   257
 43
1.0
 76
     1
 77
     6
 78
     2
 67
     7
 79
     3
170
     0
171
     0
290
     0
174
     0
 93
       13
 44
0.0
173
     0
291
     0
 45
0.0
1001
ACAD
1000
AcDbSavedByObjectVersion
1070
     0
  0
VISUALSTYLE
  5
9A91
102
{ACAD_XDICTIONARY
360
9AFE
102
}
102
{ACAD_REACTORS
330
9A7C
102
}
330
9A7C
100
AcDbVisualStyle
  2
Shaded
 70
    27
 71
     2
 72
     2
 73
     1
 90
        2
 40
-0.6
 41
30.0
 62
     5
 63
     7
 74
     0
 91
        4
 64
     7
 65
   257
 75
     1
175
     1
 42
1.0
 92
        8
 66
   257
 43
1.0
 76
     1
 77
     6
 78
     2
 67
     8
 79
     3
170
     0
171
     0
290
     0
174
     0
 93
        5
 44
0.0
173
     0
291
     0
 45
0.0
1001
ACAD
1000
AcDbSavedByObjectVersion
1070
     0
  0
VISUALSTYLE
  5
9A90
102
{ACAD_XDICTIONARY
360
9AFC
102
}
102
{ACAD_REACTORS
330
9A7C
102
}
330
9A7C
100
AcDbVisualStyle
  2
Shaded with edges
 70
    26
 71
     2
 72
     2
 73
     1
 90
        2
 40
-0.6
 41
30.0
 62
     5
 63
     7
 74
     1
 91
       10
 64
     7
 65
   257
 75
     2
175
     1
 42
1.0
 92
        8
 66
   257
 43
1.0
 76
     1
 77
     6
 78
     2
 67
     7
 79
     3
170
     0
171
     0
290
     0
174
     0
 93
        5
 44
0.0
173
     0
291
     0
 45
0.0
1001
ACAD
1000
AcDbSavedByObjectVersion
1070
     0
  0
VISUALSTYLE
  5
9A8D
102
{ACAD_XDICTIONARY
360
9AF6
102
}
102
{ACAD_REACTORS
330
9A7C
102
}
330
9A7C
100
AcDbVisualStyle
  2
Shades of Gray
 70
    23
 71
     2
 72
     2
 73
     3
 90
        0
 40
-0.6
 41
-30.0
 62
     5
 63
     7
 74
     2
 91
        2
 64
     7
 65
     7
 75
     1
175
     1
 42
40.0
 92
        8
 66
     7
 43
1.0
 76
     1
 77
     6
 78
     2
 67
     7
 79
     3
170
     0
171
     0
290
     0
174
     0
 93
        1
 44
0.0
173
     0
291
     0
 45
0.0
1001
ACAD
1000
AcDbSavedByObjectVersion
1070
     0
  0
VISUALSTYLE
  5
9A8E
102
{ACAD_XDICTIONARY
360
9AF8
102
}
102
{ACAD_REACTORS
330
9A7C
102
}
330
9A7C
100
AcDbVisualStyle
  2
Sketchy
 70
    24
 71
     1
 72
     2
 73
     2
 90
        0
 40
-0.6
 41
-30.0
 62
     5
 63
     7
 74
     2
 91
        2
 64
     7
 65
     7
 75
     1
175
     1
 42
40.0
 92
       11
 66
     7
 43
1.0
 76
     1
 77
     6
 78
     2
 67
     7
 79
     6
170
     0
171
     0
290
     0
174
     0
 93
        1
 44
0.0
173
     0
291
     0
 45
0.0
1001
ACAD
1000
AcDbSavedByObjectVersion
1070
     0
  0
VISUALSTYLE
  5
9A89
102
{ACAD_XDICTIONARY
360
9AEE
102
}
102
{ACAD_REACTORS
330
9A7C
102
}
330
9A7C
100
AcDbVisualStyle
  2
Thicken
 70
    13
 71
     2
 72
     2
 73
     0
 90
        0
 40
-0.6
 41
-30.0
 62
     5
 63
     7
 74
     1
 91
        4
 64
     7
 65
   257
 75
     1
175
     1
 42
1.0
 92
       12
 66
     7
 43
1.0
 76
     1
 77
     6
 78
     2
 67
     7
 79
     5
170
     0
171
     0
290
     0
174
     0
 93
        1
 44
0.0
173
     0
291
     1
 45
0.0
1001
ACAD
1000
AcDbSavedByObjectVersion
1070
     0
  0
VISUALSTYLE
  5
9A83
102
{ACAD_XDICTIONARY
360
9AE2
102
}
102
{ACAD_REACTORS
330
9A7C
102
}
330
9A7C
100
AcDbVisualStyle
  2
Wireframe
 70
     5
 71
     0
 72
     2
 73
     0
 90
        0
 40
-0.6
 41
-30.0
 62
     5
 63
     7
 74
     1
 91
        4
 64
     7
 65
   257
 75
     1
175
     1
 42
1.0
 92
        0
 66
   257
 43
1.0
 76
     1
 77
     6
 78
     2
 67
     7
 79
     3
170
     0
171
     0
290
     0
174
     0
 93
        1
 44
0.0
173
     0
291
     0
 45
0.0
1001
ACAD
1000
AcDbSavedByObjectVersion
1070
     0
  0
VISUALSTYLE
  5
9A8F
102
{ACAD_XDICTIONARY
360
9AFA
102
}
102
{ACAD_REACTORS
330
9A7C
102
}
330
9A7C
100
AcDbVisualStyle
  2
X-Ray
 70
    25
 71
     2
 72
     2
 73
     1
 90
        1
 40
0.5
 41
-30.0
 62
     5
 63
     7
 74
     1
 91
        0
 64
     7
 65
   257
 75
     1
175
     1
 42
1.0
 92
        8
 66
     7
 43
1.0
 76
     1
 77
     6
 78
     2
 67
     7
 79
     3
170
     0
171
     0
290
     0
174
     0
 93
       13
 44
0.0
173
     0
291
     0
 45
0.0
1001
ACAD
1000
AcDbSavedByObjectVersion
1070
     0
  0
DICTIONARYVAR
  5
9AC9
102
{ACAD_REACTORS
330
9AC4
102
}
330
9AC4
100
DictionaryVariables
280
     0
  1
1:1
  0
DICTIONARYVAR
  5
9AC6
102
{ACAD_REACTORS
330
9AC4
102
}
330
9AC4
100
DictionaryVariables
280
     0
  1
STANDARD
  0
DICTIONARYVAR
  5
9AC5
102
{ACAD_REACTORS
330
9AC4
102
}
330
9AC4
100
DictionaryVariables
280
     0
  1
STANDARD
  0
DICTIONARYVAR
  5
9AC7
102
{ACAD_REACTORS
330
9AC4
102
}
330
9AC4
100
DictionaryVariables
280
     0
  1
Imperial24
  0
DICTIONARYVAR
  5
9AC8
102
{ACAD_REACTORS
330
9AC4
102
}
330
9AC4
100
DictionaryVariables
280
     0
  1
Imperial24
  0
DICTIONARYVAR
  5
9ACC
102
{ACAD_REACTORS
330
9AC4
102
}
330
9AC4
100
DictionaryVariables
280
     0
  1
1
  0
DICTIONARYVAR
  5
9ACB
102
{ACAD_REACTORS
330
9AC4
102
}
330
9AC4
100
DictionaryVariables
280
     0
  1
0
  0
DICTIONARYVAR
  5
9ACA
102
{ACAD_REACTORS
330
9AC4
102
}
330
9AC4
100
DictionaryVariables
280
     0
  1
127
  0
DICTIONARYVAR
  5
9ACD
102
{ACAD_REACTORS
330
9AC4
102
}
330
9AC4
100
DictionaryVariables
280
     0
  1
2
  0
DICTIONARY
  5
9B0A
330
9AAF
100
AcDbDictionary
280
     1
281
     1
  3
ACAD_XREC_ROUNDTRIP
360
9B0B
  0
DICTIONARY
  5
9B0C
330
9AB0
100
AcDbDictionary
280
     1
281
     1
  3
ACAD_XREC_ROUNDTRIP
360
9B0D
  0
DICTIONARY
  5
9B0E
330
9AB1
100
AcDbDictionary
280
     1
281
     1
  3
ACAD_XREC_ROUNDTRIP
360
9B0F
  0
DICTIONARY
  5
9A6D
330
9A6C
100
AcDbDictionary
280
     1
281
     1
  3
ACAD_XREC_ROUNDTRIP
360
9AD4
  3
BUMPTILE
360
9A6F
  3
DIFFUSETILE
360
9A6E
  3
OPACITYTILE
360
9A72
  3
REFLECTIONTILE
360
9A71
  3
REFRACTIONTILE
360
9A73
  3
SPECULARTILE
360
9A70
  0
DICTIONARY
  5
9A65
330
9A64
100
AcDbDictionary
280
     1
281
     1
  3
ACAD_XREC_ROUNDTRIP
360
9AD3
  3
BUMPTILE
360
9A67
  3
DIFFUSETILE
360
9A66
  3
OPACITYTILE
360
9A6A
  3
REFLECTIONTILE
360
9A69
  3
REFRACTIONTILE
360
9A6B
  3
SPECULARTILE
360
9A68
  0
DICTIONARY
  5
9A75
330
9A74
100
AcDbDictionary
280
     1
281
     1
  3
ACAD_XREC_ROUNDTRIP
360
9AD5
  3
BUMPTILE
360
9A77
  3
DIFFUSETILE
360
9A76
  3
OPACITYTILE
360
9A7A
  3
REFLECTIONTILE
360
9A79
  3
REFRACTIONTILE
360
9A7B
  3
SPECULARTILE
360
9A78
  0
DICTIONARY
  5
9B08
330
9AAD
100
AcDbDictionary
280
     1
281
     1
  3
ACAD_XREC_ROUNDTRIP
360
9B09
  0
DICTIONARY
  5
9ACF
330
9A97
100
AcDbDictionary
280
     1
281
     1
  3
ACAD_ROUNDTRIP_2008_TABLESTYLE_CELLSTYLEMAP
360
9AD0
  3
ACAD_XREC_ROUNDTRIP
360
9B06
  0
DICTIONARY
  5
9AE0
330
9A82
100
AcDbDictionary
280
     1
281
     1
  3
ACAD_XREC_ROUNDTRIP
360
9AE1
  0
DICTIONARY
  5
9ADE
330
9A81
100
AcDbDictionary
280
     1
281
     1
  3
ACAD_XREC_ROUNDTRIP
360
9ADF
  0
DICTIONARY
  5
9AEC
330
9A88
100
AcDbDictionary
280
     1
281
     1
  3
ACAD_XREC_ROUNDTRIP
360
9AED
  0
DICTIONARY
  5
9AF4
330
9A8C
100
AcDbDictionary
280
     1
281
     1
  3
ACAD_XREC_ROUNDTRIP
360
9AF5
  0
DICTIONARY
  5
9AE6
330
9A85
100
AcDbDictionary
280
     1
281
     1
  3
ACAD_XREC_ROUNDTRIP
360
9AE7
  0
DICTIONARY
  5
9AEA
330
9A87
100
AcDbDictionary
280
     1
281
     1
  3
ACAD_XREC_ROUNDTRIP
360
9AEB
  0
DICTIONARY
  5
9B04
330
9A94
100
AcDbDictionary
280
     1
281
     1
  3
ACAD_XREC_ROUNDTRIP
360
9B05
  0
DICTIONARY
  5
9AF2
330
9A8B
100
AcDbDictionary
280
     1
281
     1
  3
ACAD_XREC_ROUNDTRIP
360
9AF3
  0
DICTIONARY
  5
9AD6
330
9A7D
100
AcDbDictionary
280
     1
281
     1
  3
ACAD_XREC_ROUNDTRIP
360
9AD7
  0
DICTIONARY
  5
9AD8
330
9A7E
100
AcDbDictionary
280
     1
281
     1
  3
ACAD_XREC_ROUNDTRIP
360
9AD9
  0
DICTIONARY
  5
9ADA
330
9A7F
100
AcDbDictionary
280
     1
281
     1
  3
ACAD_XREC_ROUNDTRIP
360
9ADB
  0
DICTIONARY
  5
9ADC
330
9A80
100
AcDbDictionary
280
     1
281
     1
  3
ACAD_XREC_ROUNDTRIP
360
9ADD
  0
DICTIONARY
  5
9AE4
330
9A84
100
AcDbDictionary
280
     1
281
     1
  3
ACAD_XREC_ROUNDTRIP
360
9AE5
  0
DICTIONARY
  5
9B00
330
9A92
100
AcDbDictionary
280
     1
281
     1
  3
ACAD_XREC_ROUNDTRIP
360
9B01
  0
DICTIONARY
  5
9AF0
330
9A8A
100
AcDbDictionary
280
     1
281
     1
  3
ACAD_XREC_ROUNDTRIP
360
9AF1
  0
DICTIONARY
  5
9B02
330
9A93
100
AcDbDictionary
280
     1
281
     1
  3
ACAD_XREC_ROUNDTRIP
360
9B03
  0
DICTIONARY
  5
9AE8
330
9A86
100
AcDbDictionary
280
     1
281
     1
  3
ACAD_XREC_ROUNDTRIP
360
9AE9
  0
DICTIONARY
  5
9AFE
330
9A91
100
AcDbDictionary
280
     1
281
     1
  3
ACAD_XREC_ROUNDTRIP
360
9AFF
  0
DICTIONARY
  5
9AFC
330
9A90
100
AcDbDictionary
280
     1
281
     1
  3
ACAD_XREC_ROUNDTRIP
360
9AFD
  0
DICTIONARY
  5
9AF6
330
9A8D
100
AcDbDictionary
280
     1
281
     1
  3
ACAD_XREC_ROUNDTRIP
360
9AF7
  0
DICTIONARY
  5
9AF8
330
9A8E
100
AcDbDictionary
280
     1
281
     1
  3
ACAD_XREC_ROUNDTRIP
360
9AF9
  0
DICTIONARY
  5
9AEE
330
9A89
100
AcDbDictionary
280
     1
281
     1
  3
ACAD_XREC_ROUNDTRIP
360
9AEF
  0
DICTIONARY
  5
9AE2
330
9A83
100
AcDbDictionary
280
     1
281
     1
  3
ACAD_XREC_ROUNDTRIP
360
9AE3
  0
DICTIONARY
  5
9AFA
330
9A8F
100
AcDbDictionary
280
     1
281
     1
  3
ACAD_XREC_ROUNDTRIP
360
9AFB
  0
XRECORD
  5
9B0B
102
{ACAD_REACTORS
330
9B0A
102
}
330
9B0A
100
AcDbXrecord
280
     1
102
DISPLAYNAME
  1
Imperial24
102
FLAGS
 90
        0
  0
XRECORD
  5
9B0D
102
{ACAD_REACTORS
330
9B0C
102
}
330
9B0C
100
AcDbXrecord
280
     1
102
SHADEPLOT
 70
     0
102
SHADEPLOTRESLEVEL
 70
     2
102
SHADEPLOTCUSTOMDPI
 70
   300
  0
XRECORD
  5
9B0F
102
{ACAD_REACTORS
330
9B0E
102
}
330
9B0E
100
AcDbXrecord
280
     1
102
SHADEPLOT
 70
     0
102
SHADEPLOTRESLEVEL
 70
     2
102
SHADEPLOTCUSTOMDPI
 70
   300
  0
XRECORD
  5
9AD4
102
{ACAD_REACTORS
330
9A6D
102
}
330
9A6D
100
AcDbXrecord
280
     1
102
MATERIAL
148
0.0
149
0.0
149
0.0
 93
        0
 94
      127
282
     0
 72
     0
 77
     0
171
     0
175
     0
179
     0
273
     0
  0
XRECORD
  5
9A6F
102
{ACAD_REACTORS
330
9A6D
102
}
330
9A6D
100
AcDbXrecord
280
     1
270
     1
271
     1
  0
XRECORD
  5
9A6E
102
{ACAD_REACTORS
330
9A6D
102
}
330
9A6D
100
AcDbXrecord
280
     1
270
     1
271
     1
  0
XRECORD
  5
9A72
102
{ACAD_REACTORS
330
9A6D
102
}
330
9A6D
100
AcDbXrecord
280
     1
270
     1
271
     1
  0
XRECORD
  5
9A71
102
{ACAD_REACTORS
330
9A6D
102
}
330
9A6D
100
AcDbXrecord
280
     1
270
     1
271
     1
  0
XRECORD
  5
9A73
102
{ACAD_REACTORS
330
9A6D
102
}
330
9A6D
100
AcDbXrecord
280
     1
270
     1
271
     1
  0
XRECORD
  5
9A70
102
{ACAD_REACTORS
330
9A6D
102
}
330
9A6D
100
AcDbXrecord
280
     1
270
     1
271
     1
  0
XRECORD
  5
9AD3
102
{ACAD_REACTORS
330
9A65
102
}
330
9A65
100
AcDbXrecord
280
     1
102
MATERIAL
148
0.0
149
0.0
149
0.0
 93
        0
 94
      127
282
     0
 72
     0
 77
     0
171
     0
175
     0
179
     0
273
     0
  0
XRECORD
  5
9A67
102
{ACAD_REACTORS
330
9A65
102
}
330
9A65
100
AcDbXrecord
280
     1
270
     1
271
     1
  0
XRECORD
  5
9A66
102
{ACAD_REACTORS
330
9A65
102
}
330
9A65
100
AcDbXrecord
280
     1
270
     1
271
     1
  0
XRECORD
  5
9A6A
102
{ACAD_REACTORS
330
9A65
102
}
330
9A65
100
AcDbXrecord
280
     1
270
     1
271
     1
  0
XRECORD
  5
9A69
102
{ACAD_REACTORS
330
9A65
102
}
330
9A65
100
AcDbXrecord
280
     1
270
     1
271
     1
  0
XRECORD
  5
9A6B
102
{ACAD_REACTORS
330
9A65
102
}
330
9A65
100
AcDbXrecord
280
     1
270
     1
271
     1
  0
XRECORD
  5
9A68
102
{ACAD_REACTORS
330
9A65
102
}
330
9A65
100
AcDbXrecord
280
     1
270
     1
271
     1
  0
XRECORD
  5
9AD5
102
{ACAD_REACTORS
330
9A75
102
}
330
9A75
100
AcDbXrecord
280
     1
102
MATERIAL
148
0.0
149
0.0
149
0.0
 93
        0
 94
      127
282
     0
 72
     0
 77
     0
171
     0
175
     0
179
     0
273
     0
  0
XRECORD
  5
9A77
102
{ACAD_REACTORS
330
9A75
102
}
330
9A75
100
AcDbXrecord
280
     1
270
     1
271
     1
  0
XRECORD
  5
9A76
102
{ACAD_REACTORS
330
9A75
102
}
330
9A75
100
AcDbXrecord
280
     1
270
     1
271
     1
  0
XRECORD
  5
9A7A
102
{ACAD_REACTORS
330
9A75
102
}
330
9A75
100
AcDbXrecord
280
     1
270
     1
271
     1
  0
XRECORD
  5
9A79
102
{ACAD_REACTORS
330
9A75
102
}
330
9A75
100
AcDbXrecord
280
     1
270
     1
271
     1
  0
XRECORD
  5
9A7B
102
{ACAD_REACTORS
330
9A75
102
}
330
9A75
100
AcDbXrecord
280
     1
270
     1
271
     1
  0
XRECORD
  5
9A78
102
{ACAD_REACTORS
330
9A75
102
}
330
9A75
100
AcDbXrecord
280
     1
270
     1
271
     1
  0
XRECORD
  5
9B09
102
{ACAD_REACTORS
330
9B08
102
}
330
9B08
100
AcDbXrecord
280
     1
102
DISPLAYNAME
  1
Imperial24
102
FLAGS
 90
        0
  0
CELLSTYLEMAP
  5
9AD0
102
{ACAD_REACTORS
330
9ACF
102
}
330
9ACF
100
AcDbCellStyleMap
 90
        3
300
CELLSTYLE
  1
TABLEFORMAT_BEGIN
 90
        5
170
     1
 91
        0
 92
    32768
 62
   257
 93
        1
300
CONTENTFORMAT
  1
CONTENTFORMAT_BEGIN
 90
        0
 91
        0
 92
      512
 93
        0
300

 40
0.0
140
1.0
 94
        5
 62
     0
340
97EA
144
0.25
309
CONTENTFORMAT_END
171
     0
 94
        0
309
TABLEFORMAT_END
  1
CELLSTYLE_BEGIN
 90
        1
 91
        1
300
_TITLE
309
CELLSTYLE_END
300
CELLSTYLE
  1
TABLEFORMAT_BEGIN
 90
        5
170
     1
 91
        0
 92
        0
 62
   257
 93
        1
300
CONTENTFORMAT
  1
CONTENTFORMAT_BEGIN
 90
        0
 91
        0
 92
      512
 93
        0
300

 40
0.0
140
1.0
 94
        5
 62
     0
340
97EA
144
0.18
309
CONTENTFORMAT_END
171
     0
 94
        0
309
TABLEFORMAT_END
  1
CELLSTYLE_BEGIN
 90
        2
 91
        1
300
_HEADER
309
CELLSTYLE_END
300
CELLSTYLE
  1
TABLEFORMAT_BEGIN
 90
        5
170
     1
 91
        0
 92
        0
 62
   257
 93
        1
300
CONTENTFORMAT
  1
CONTENTFORMAT_BEGIN
 90
        0
 91
        0
 92
      512
 93
        0
300

 40
0.0
140
1.0
 94
        2
 62
     0
340
97EA
144
0.18
309
CONTENTFORMAT_END
171
     0
 94
        0
309
TABLEFORMAT_END
  1
CELLSTYLE_BEGIN
 90
        3
 91
        2
300
_DATA
309
CELLSTYLE_END
  0
XRECORD
  5
9B06
102
{ACAD_REACTORS
330
9ACF
102
}
330
9ACF
100
AcDbXrecord
280
     1
102
ACAD_ROUNDTRIP_PRE2007_TABLESTYLE
 90
      512
 91
        0
  1

 92
      512
 93
        0
  2

 94
      512
 95
        0
  3

  0
XRECORD
  5
9AE1
102
{ACAD_REACTORS
330
9AE0
102
}
330
9AE0
100
AcDbXrecord
280
     1
102
RTVSPost2010Prop28
280
     1
102
RTVSPost2010PropOp28
 70
     1
102
RTVSPost2010Prop29
280
     1
102
RTVSPost2010PropOp29
 70
     1
102
RTVSPost2010Prop30
280
     0
102
RTVSPost2010PropOp30
 70
     1
102
RTVSPost2010Prop31
280
     0
102
RTVSPost2010PropOp31
 70
     1
102
RTVSPost2010Prop32
280
     0
102
RTVSPost2010PropOp32
 70
     1
102
RTVSPost2010Prop33
280
     0
102
RTVSPost2010PropOp33
 70
     1
102
RTVSPost2010Prop34
280
     0
102
RTVSPost2010PropOp34
 70
     1
102
RTVSPost2010Prop35
280
     0
102
RTVSPost2010PropOp35
 70
     1
102
RTVSPost2010Prop36
280
     0
102
RTVSPost2010PropOp36
 70
     1
102
RTVSPost2010Prop37
 90
       50
102
RTVSPost2010PropOp37
 70
     1
102
RTVSPost2010Prop38
140
0.0
102
RTVSPost2010PropOp38
 70
     1
102
RTVSPost2010Prop39
140
1.0
102
RTVSPost2010PropOp39
 70
     1
102
RTVSPost2010Prop40
 90
        0
102
RTVSPost2010PropOp40
 70
     1
102
RTVSPost2010Prop41ColorIndex
 90
       18
102
RTVSPost2010Prop41ColorRGB
 90
        0
102
RTVSPost2010PropOp41
 70
     1
102
RTVSPost2010Prop42
 90
       50
102
RTVSPost2010PropOp42
 70
     1
102
RTVSPost2010Prop43
 90
        3
102
RTVSPost2010PropOp43
 70
     1
102
RTVSPost2010Prop44ColorIndex
 90
        5
102
RTVSPost2010Prop44ColorRGB
 90
      255
102
RTVSPost2010PropOp44
 70
     1
102
RTVSPost2010Prop45
280
     0
102
RTVSPost2010PropOp45
 70
     1
102
RTVSPost2010Prop46
 90
       50
102
RTVSPost2010PropOp46
 70
     1
102
RTVSPost2010Prop47
 90
       50
102
RTVSPost2010PropOp47
 70
     1
102
RTVSPost2010Prop48
 90
       50
102
RTVSPost2010PropOp48
 70
     1
102
RTVSPost2010Prop49
280
     0
102
RTVSPost2010PropOp49
 70
     1
102
RTVSPost2010Prop50
 90
       50
102
RTVSPost2010PropOp50
 70
     1
102
RTVSPost2010Prop51ColorIndex
 90
      256
102
RTVSPost2010Prop51ColorRGB
 90
-16777216
102
RTVSPost2010PropOp51
 70
     0
102
RTVSPost2010Prop52
140
1.0
102
RTVSPost2010PropOp52
 70
     0
102
RTVSPost2010Prop53
 90
        2
102
RTVSPost2010PropOp53
 70
     1
102
RTVSPost2010Prop54
  1
strokes_ogs.tif
102
RTVSPost2010PropOp54
 70
     1
102
RTVSPost2010Prop55
280
     0
102
RTVSPost2010PropOp55
 70
     1
102
RTVSPost2010Prop56
140
1.0
102
RTVSPost2010PropOp56
 70
     1
102
RTVSPost2010Prop57
140
1.0
102
RTVSPost2010PropOp57
 70
     1
102
RTVSPropertyOp0
 70
     1
102
RTVSPropertyOp1
 70
     1
102
RTVSPropertyOp2
 70
     1
102
RTVSPropertyOp3
 70
     1
102
RTVSPropertyOp4
 70
     1
102
RTVSPropertyOp5
 70
     1
102
RTVSPropertyOp6
 70
     1
102
RTVSPropertyOp7
 70
     1
102
RTVSPropertyOp8
 70
     1
102
RTVSPropertyOp9
 70
     1
102
RTVSPropertyOp10
 70
     1
102
RTVSPropertyOp11
 70
     1
102
RTVSPropertyOp12
 70
     1
102
RTVSPropertyOp13
 70
     1
102
RTVSPropertyOp14
 70
     1
102
RTVSPropertyOp15
 70
     1
102
RTVSPropertyOp16
 70
     1
102
RTVSPropertyOp17
 70
     1
102
RTVSPropertyOp18
 70
     1
102
RTVSPropertyOp19
 70
     1
102
RTVSPropertyOp20
 70
     1
102
RTVSPropertyOp21
 70
     1
102
RTVSPropertyOp22
 70
     1
102
RTVSPropertyOp23
 70
     1
102
RTVSPropertyOp24
 70
     1
102
RTVSPropertyOp25
 70
     1
102
RTVSPropertyOp26
 70
     1
102
RTVSPropertyOp27
 70
     1
102
RTVSPropertyOp28
 70
     1
102
RTVSPropertyOp29
 70
     1
102
RTVSPropertyOp30
 70
     1
102
RTVSPropertyOp31
 70
     1
102
RTVSPropertyOp32
 70
     1
102
RTVSPropertyOp33
 70
     1
102
RTVSPropertyOp34
 70
     1
102
RTVSPropertyOp35
 70
     1
102
RTVSPropertyOp36
 70
     1
102
RTVSPropertyOp37
 70
     1
102
RTVSPropertyOp38
 70
     1
102
RTVSPropertyOp39
 70
     1
102
RTVSPropertyOp40
 70
     1
102
RTVSPropertyOp41
 70
     1
102
RTVSPropertyOp42
 70
     1
102
RTVSPropertyOp43
 70
     1
102
RTVSPropertyOp44
 70
     1
102
RTVSPropertyOp45
 70
     1
102
RTVSPropertyOp46
 70
     1
102
RTVSPropertyOp47
 70
     1
102
RTVSPropertyOp48
 70
     1
102
RTVSPropertyOp49
 70
     1
102
RTVSPropertyOp50
 70
     1
102
RTVSPropertyOp51
 70
     0
102
RTVSPropertyOp52
 70
     0
102
RTVSPropertyOp53
 70
     1
102
RTVSPropertyOp54
 70
     1
102
RTVSPropertyOp55
 70
     1
102
RTVSPropertyOp56
 70
     1
102
RTVSPropertyOp57
 70
     1
102
RTVSPropertyOp58
 70
     1
102
RTVSPropertyOp59
 70
     1
102
RTVSPropertyOp60
 70
     1
102
RTVSPropertyOp61
 70
     1
102
RTVSPropertyOp62
 70
     1
  0
XRECORD
  5
9ADF
102
{ACAD_REACTORS
330
9ADE
102
}
330
9ADE
100
AcDbXrecord
280
     1
102
RTVSPost2010Prop28
280
     0
102
RTVSPost2010PropOp28
 70
     1
102
RTVSPost2010Prop29
280
     1
102
RTVSPost2010PropOp29
 70
     1
102
RTVSPost2010Prop30
280
     1
102
RTVSPost2010PropOp30
 70
     1
102
RTVSPost2010Prop31
280
     0
102
RTVSPost2010PropOp31
 70
     1
102
RTVSPost2010Prop32
280
     0
102
RTVSPost2010PropOp32
 70
     1
102
RTVSPost2010Prop33
280
     0
102
RTVSPost2010PropOp33
 70
     1
102
RTVSPost2010Prop34
280
     0
102
RTVSPost2010PropOp34
 70
     1
102
RTVSPost2010Prop35
280
     0
102
RTVSPost2010PropOp35
 70
     1
102
RTVSPost2010Prop36
280
     0
102
RTVSPost2010PropOp36
 70
     1
102
RTVSPost2010Prop37
 90
       50
102
RTVSPost2010PropOp37
 70
     1
102
RTVSPost2010Prop38
140
0.0
102
RTVSPost2010PropOp38
 70
     1
102
RTVSPost2010Prop39
140
1.0
102
RTVSPost2010PropOp39
 70
     1
102
RTVSPost2010Prop40
 90
        0
102
RTVSPost2010PropOp40
 70
     1
102
RTVSPost2010Prop41ColorIndex
 90
       18
102
RTVSPost2010Prop41ColorRGB
 90
        0
102
RTVSPost2010PropOp41
 70
     1
102
RTVSPost2010Prop42
 90
       50
102
RTVSPost2010PropOp42
 70
     1
102
RTVSPost2010Prop43
 90
        3
102
RTVSPost2010PropOp43
 70
     1
102
RTVSPost2010Prop44ColorIndex
 90
        5
102
RTVSPost2010Prop44ColorRGB
 90
      255
102
RTVSPost2010PropOp44
 70
     1
102
RTVSPost2010Prop45
280
     0
102
RTVSPost2010PropOp45
 70
     1
102
RTVSPost2010Prop46
 90
       50
102
RTVSPost2010PropOp46
 70
     1
102
RTVSPost2010Prop47
 90
       50
102
RTVSPost2010PropOp47
 70
     1
102
RTVSPost2010Prop48
 90
       50
102
RTVSPost2010PropOp48
 70
     1
102
RTVSPost2010Prop49
280
     0
102
RTVSPost2010PropOp49
 70
     1
102
RTVSPost2010Prop50
 90
       50
102
RTVSPost2010PropOp50
 70
     1
102
RTVSPost2010Prop51ColorIndex
 90
      256
102
RTVSPost2010Prop51ColorRGB
 90
-16777216
102
RTVSPost2010PropOp51
 70
     0
102
RTVSPost2010Prop52
140
1.0
102
RTVSPost2010PropOp52
 70
     0
102
RTVSPost2010Prop53
 90
        2
102
RTVSPost2010PropOp53
 70
     1
102
RTVSPost2010Prop54
  1
strokes_ogs.tif
102
RTVSPost2010PropOp54
 70
     1
102
RTVSPost2010Prop55
280
     0
102
RTVSPost2010PropOp55
 70
     1
102
RTVSPost2010Prop56
140
1.0
102
RTVSPost2010PropOp56
 70
     1
102
RTVSPost2010Prop57
140
1.0
102
RTVSPost2010PropOp57
 70
     1
102
RTVSPropertyOp0
 70
     1
102
RTVSPropertyOp1
 70
     1
102
RTVSPropertyOp2
 70
     1
102
RTVSPropertyOp3
 70
     1
102
RTVSPropertyOp4
 70
     1
102
RTVSPropertyOp5
 70
     1
102
RTVSPropertyOp6
 70
     1
102
RTVSPropertyOp7
 70
     1
102
RTVSPropertyOp8
 70
     1
102
RTVSPropertyOp9
 70
     1
102
RTVSPropertyOp10
 70
     1
102
RTVSPropertyOp11
 70
     1
102
RTVSPropertyOp12
 70
     1
102
RTVSPropertyOp13
 70
     1
102
RTVSPropertyOp14
 70
     1
102
RTVSPropertyOp15
 70
     1
102
RTVSPropertyOp16
 70
     1
102
RTVSPropertyOp17
 70
     1
102
RTVSPropertyOp18
 70
     1
102
RTVSPropertyOp19
 70
     1
102
RTVSPropertyOp20
 70
     1
102
RTVSPropertyOp21
 70
     1
102
RTVSPropertyOp22
 70
     1
102
RTVSPropertyOp23
 70
     1
102
RTVSPropertyOp24
 70
     1
102
RTVSPropertyOp25
 70
     1
102
RTVSPropertyOp26
 70
     1
102
RTVSPropertyOp27
 70
     1
102
RTVSPropertyOp28
 70
     1
102
RTVSPropertyOp29
 70
     1
102
RTVSPropertyOp30
 70
     1
102
RTVSPropertyOp31
 70
     1
102
RTVSPropertyOp32
 70
     1
102
RTVSPropertyOp33
 70
     1
102
RTVSPropertyOp34
 70
     1
102
RTVSPropertyOp35
 70
     1
102
RTVSPropertyOp36
 70
     1
102
RTVSPropertyOp37
 70
     1
102
RTVSPropertyOp38
 70
     1
102
RTVSPropertyOp39
 70
     1
102
RTVSPropertyOp40
 70
     1
102
RTVSPropertyOp41
 70
     1
102
RTVSPropertyOp42
 70
     1
102
RTVSPropertyOp43
 70
     1
102
RTVSPropertyOp44
 70
     1
102
RTVSPropertyOp45
 70
     1
102
RTVSPropertyOp46
 70
     1
102
RTVSPropertyOp47
 70
     1
102
RTVSPropertyOp48
 70
     1
102
RTVSPropertyOp49
 70
     1
102
RTVSPropertyOp50
 70
     1
102
RTVSPropertyOp51
 70
     0
102
RTVSPropertyOp52
 70
     0
102
RTVSPropertyOp53
 70
     1
102
RTVSPropertyOp54
 70
     1
102
RTVSPropertyOp55
 70
     1
102
RTVSPropertyOp56
 70
     1
102
RTVSPropertyOp57
 70
     1
102
RTVSPropertyOp58
 70
     1
102
RTVSPropertyOp59
 70
     1
102
RTVSPropertyOp60
 70
     1
102
RTVSPropertyOp61
 70
     1
102
RTVSPropertyOp62
 70
     1
  0
XRECORD
  5
9AED
102
{ACAD_REACTORS
330
9AEC
102
}
330
9AEC
100
AcDbXrecord
280
     1
102
RTVSPost2010Prop28
280
     0
102
RTVSPost2010PropOp28
 70
     1
102
RTVSPost2010Prop29
280
     1
102
RTVSPost2010PropOp29
 70
     1
102
RTVSPost2010Prop30
280
     1
102
RTVSPost2010PropOp30
 70
     1
102
RTVSPost2010Prop31
280
     0
102
RTVSPost2010PropOp31
 70
     1
102
RTVSPost2010Prop32
280
     0
102
RTVSPost2010PropOp32
 70
     1
102
RTVSPost2010Prop33
280
     0
102
RTVSPost2010PropOp33
 70
     1
102
RTVSPost2010Prop34
280
     0
102
RTVSPost2010PropOp34
 70
     1
102
RTVSPost2010Prop35
280
     0
102
RTVSPost2010PropOp35
 70
     1
102
RTVSPost2010Prop36
280
     0
102
RTVSPost2010PropOp36
 70
     1
102
RTVSPost2010Prop37
 90
       50
102
RTVSPost2010PropOp37
 70
     1
102
RTVSPost2010Prop38
140
0.0
102
RTVSPost2010PropOp38
 70
     1
102
RTVSPost2010Prop39
140
1.0
102
RTVSPost2010PropOp39
 70
     1
102
RTVSPost2010Prop40
 90
        0
102
RTVSPost2010PropOp40
 70
     1
102
RTVSPost2010Prop41ColorIndex
 90
       18
102
RTVSPost2010Prop41ColorRGB
 90
        0
102
RTVSPost2010PropOp41
 70
     1
102
RTVSPost2010Prop42
 90
       50
102
RTVSPost2010PropOp42
 70
     1
102
RTVSPost2010Prop43
 90
        3
102
RTVSPost2010PropOp43
 70
     1
102
RTVSPost2010Prop44ColorIndex
 90
        5
102
RTVSPost2010Prop44ColorRGB
 90
      255
102
RTVSPost2010PropOp44
 70
     1
102
RTVSPost2010Prop45
280
     0
102
RTVSPost2010PropOp45
 70
     1
102
RTVSPost2010Prop46
 90
       50
102
RTVSPost2010PropOp46
 70
     1
102
RTVSPost2010Prop47
 90
       50
102
RTVSPost2010PropOp47
 70
     1
102
RTVSPost2010Prop48
 90
       50
102
RTVSPost2010PropOp48
 70
     1
102
RTVSPost2010Prop49
280
     0
102
RTVSPost2010PropOp49
 70
     1
102
RTVSPost2010Prop50
 90
       50
102
RTVSPost2010PropOp50
 70
     1
102
RTVSPost2010Prop51ColorIndex
 90
      256
102
RTVSPost2010Prop51ColorRGB
 90
-16777216
102
RTVSPost2010PropOp51
 70
     0
102
RTVSPost2010Prop52
140
1.0
102
RTVSPost2010PropOp52
 70
     0
102
RTVSPost2010Prop53
 90
        2
102
RTVSPost2010PropOp53
 70
     1
102
RTVSPost2010Prop54
  1
strokes_ogs.tif
102
RTVSPost2010PropOp54
 70
     1
102
RTVSPost2010Prop55
280
     0
102
RTVSPost2010PropOp55
 70
     1
102
RTVSPost2010Prop56
140
1.0
102
RTVSPost2010PropOp56
 70
     1
102
RTVSPost2010Prop57
140
1.0
102
RTVSPost2010PropOp57
 70
     1
102
RTVSPropertyOp0
 70
     1
102
RTVSPropertyOp1
 70
     1
102
RTVSPropertyOp2
 70
     1
102
RTVSPropertyOp3
 70
     1
102
RTVSPropertyOp4
 70
     1
102
RTVSPropertyOp5
 70
     1
102
RTVSPropertyOp6
 70
     1
102
RTVSPropertyOp7
 70
     1
102
RTVSPropertyOp8
 70
     1
102
RTVSPropertyOp9
 70
     1
102
RTVSPropertyOp10
 70
     1
102
RTVSPropertyOp11
 70
     1
102
RTVSPropertyOp12
 70
     1
102
RTVSPropertyOp13
 70
     1
102
RTVSPropertyOp14
 70
     1
102
RTVSPropertyOp15
 70
     1
102
RTVSPropertyOp16
 70
     1
102
RTVSPropertyOp17
 70
     1
102
RTVSPropertyOp18
 70
     1
102
RTVSPropertyOp19
 70
     1
102
RTVSPropertyOp20
 70
     1
102
RTVSPropertyOp21
 70
     1
102
RTVSPropertyOp22
 70
     1
102
RTVSPropertyOp23
 70
     1
102
RTVSPropertyOp24
 70
     1
102
RTVSPropertyOp25
 70
     1
102
RTVSPropertyOp26
 70
     1
102
RTVSPropertyOp27
 70
     1
102
RTVSPropertyOp28
 70
     1
102
RTVSPropertyOp29
 70
     1
102
RTVSPropertyOp30
 70
     1
102
RTVSPropertyOp31
 70
     1
102
RTVSPropertyOp32
 70
     1
102
RTVSPropertyOp33
 70
     1
102
RTVSPropertyOp34
 70
     1
102
RTVSPropertyOp35
 70
     1
102
RTVSPropertyOp36
 70
     1
102
RTVSPropertyOp37
 70
     1
102
RTVSPropertyOp38
 70
     1
102
RTVSPropertyOp39
 70
     1
102
RTVSPropertyOp40
 70
     1
102
RTVSPropertyOp41
 70
     1
102
RTVSPropertyOp42
 70
     1
102
RTVSPropertyOp43
 70
     1
102
RTVSPropertyOp44
 70
     1
102
RTVSPropertyOp45
 70
     1
102
RTVSPropertyOp46
 70
     1
102
RTVSPropertyOp47
 70
     1
102
RTVSPropertyOp48
 70
     1
102
RTVSPropertyOp49
 70
     1
102
RTVSPropertyOp50
 70
     1
102
RTVSPropertyOp51
 70
     0
102
RTVSPropertyOp52
 70
     0
102
RTVSPropertyOp53
 70
     1
102
RTVSPropertyOp54
 70
     1
102
RTVSPropertyOp55
 70
     1
102
RTVSPropertyOp56
 70
     1
102
RTVSPropertyOp57
 70
     1
102
RTVSPropertyOp58
 70
     1
102
RTVSPropertyOp59
 70
     1
102
RTVSPropertyOp60
 70
     1
102
RTVSPropertyOp61
 70
     1
102
RTVSPropertyOp62
 70
     1
  0
XRECORD
  5
9AF5
102
{ACAD_REACTORS
330
9AF4
102
}
330
9AF4
100
AcDbXrecord
280
     1
102
RTVSPost2010Prop28
280
     0
102
RTVSPost2010PropOp28
 70
     1
102
RTVSPost2010Prop29
280
     1
102
RTVSPost2010PropOp29
 70
     1
102
RTVSPost2010Prop30
280
     1
102
RTVSPost2010PropOp30
 70
     1
102
RTVSPost2010Prop31
280
     0
102
RTVSPost2010PropOp31
 70
     1
102
RTVSPost2010Prop32
280
     0
102
RTVSPost2010PropOp32
 70
     1
102
RTVSPost2010Prop33
280
     0
102
RTVSPost2010PropOp33
 70
     1
102
RTVSPost2010Prop34
280
     0
102
RTVSPost2010PropOp34
 70
     1
102
RTVSPost2010Prop35
280
     0
102
RTVSPost2010PropOp35
 70
     1
102
RTVSPost2010Prop36
280
     0
102
RTVSPost2010PropOp36
 70
     1
102
RTVSPost2010Prop37
 90
       50
102
RTVSPost2010PropOp37
 70
     1
102
RTVSPost2010Prop38
140
0.0
102
RTVSPost2010PropOp38
 70
     1
102
RTVSPost2010Prop39
140
1.0
102
RTVSPost2010PropOp39
 70
     1
102
RTVSPost2010Prop40
 90
        0
102
RTVSPost2010PropOp40
 70
     1
102
RTVSPost2010Prop41ColorIndex
 90
       18
102
RTVSPost2010Prop41ColorRGB
 90
        0
102
RTVSPost2010PropOp41
 70
     1
102
RTVSPost2010Prop42
 90
       50
102
RTVSPost2010PropOp42
 70
     1
102
RTVSPost2010Prop43
 90
        3
102
RTVSPost2010PropOp43
 70
     1
102
RTVSPost2010Prop44ColorIndex
 90
        5
102
RTVSPost2010Prop44ColorRGB
 90
      255
102
RTVSPost2010PropOp44
 70
     1
102
RTVSPost2010Prop45
280
     0
102
RTVSPost2010PropOp45
 70
     1
102
RTVSPost2010Prop46
 90
       50
102
RTVSPost2010PropOp46
 70
     1
102
RTVSPost2010Prop47
 90
       50
102
RTVSPost2010PropOp47
 70
     1
102
RTVSPost2010Prop48
 90
       50
102
RTVSPost2010PropOp48
 70
     1
102
RTVSPost2010Prop49
280
     0
102
RTVSPost2010PropOp49
 70
     1
102
RTVSPost2010Prop50
 90
       50
102
RTVSPost2010PropOp50
 70
     1
102
RTVSPost2010Prop51ColorIndex
 90
      256
102
RTVSPost2010Prop51ColorRGB
 90
-16777216
102
RTVSPost2010PropOp51
 70
     0
102
RTVSPost2010Prop52
140
1.0
102
RTVSPost2010PropOp52
 70
     0
102
RTVSPost2010Prop53
 90
        2
102
RTVSPost2010PropOp53
 70
     1
102
RTVSPost2010Prop54
  1
strokes_ogs.tif
102
RTVSPost2010PropOp54
 70
     1
102
RTVSPost2010Prop55
280
     0
102
RTVSPost2010PropOp55
 70
     1
102
RTVSPost2010Prop56
140
1.0
102
RTVSPost2010PropOp56
 70
     1
102
RTVSPost2010Prop57
140
1.0
102
RTVSPost2010PropOp57
 70
     1
102
RTVSPropertyOp0
 70
     1
102
RTVSPropertyOp1
 70
     1
102
RTVSPropertyOp2
 70
     1
102
RTVSPropertyOp3
 70
     1
102
RTVSPropertyOp4
 70
     1
102
RTVSPropertyOp5
 70
     1
102
RTVSPropertyOp6
 70
     1
102
RTVSPropertyOp7
 70
     1
102
RTVSPropertyOp8
 70
     1
102
RTVSPropertyOp9
 70
     1
102
RTVSPropertyOp10
 70
     1
102
RTVSPropertyOp11
 70
     1
102
RTVSPropertyOp12
 70
     1
102
RTVSPropertyOp13
 70
     1
102
RTVSPropertyOp14
 70
     1
102
RTVSPropertyOp15
 70
     1
102
RTVSPropertyOp16
 70
     1
102
RTVSPropertyOp17
 70
     1
102
RTVSPropertyOp18
 70
     1
102
RTVSPropertyOp19
 70
     1
102
RTVSPropertyOp20
 70
     1
102
RTVSPropertyOp21
 70
     1
102
RTVSPropertyOp22
 70
     1
102
RTVSPropertyOp23
 70
     1
102
RTVSPropertyOp24
 70
     1
102
RTVSPropertyOp25
 70
     1
102
RTVSPropertyOp26
 70
     1
102
RTVSPropertyOp27
 70
     1
102
RTVSPropertyOp28
 70
     1
102
RTVSPropertyOp29
 70
     1
102
RTVSPropertyOp30
 70
     1
102
RTVSPropertyOp31
 70
     1
102
RTVSPropertyOp32
 70
     1
102
RTVSPropertyOp33
 70
     1
102
RTVSPropertyOp34
 70
     1
102
RTVSPropertyOp35
 70
     1
102
RTVSPropertyOp36
 70
     1
102
RTVSPropertyOp37
 70
     1
102
RTVSPropertyOp38
 70
     1
102
RTVSPropertyOp39
 70
     1
102
RTVSPropertyOp40
 70
     1
102
RTVSPropertyOp41
 70
     1
102
RTVSPropertyOp42
 70
     1
102
RTVSPropertyOp43
 70
     1
102
RTVSPropertyOp44
 70
     1
102
RTVSPropertyOp45
 70
     1
102
RTVSPropertyOp46
 70
     1
102
RTVSPropertyOp47
 70
     1
102
RTVSPropertyOp48
 70
     1
102
RTVSPropertyOp49
 70
     1
102
RTVSPropertyOp50
 70
     1
102
RTVSPropertyOp51
 70
     0
102
RTVSPropertyOp52
 70
     0
102
RTVSPropertyOp53
 70
     1
102
RTVSPropertyOp54
 70
     1
102
RTVSPropertyOp55
 70
     1
102
RTVSPropertyOp56
 70
     1
102
RTVSPropertyOp57
 70
     1
102
RTVSPropertyOp58
 70
     1
102
RTVSPropertyOp59
 70
     1
102
RTVSPropertyOp60
 70
     1
102
RTVSPropertyOp61
 70
     1
102
RTVSPropertyOp62
 70
     1
  0
XRECORD
  5
9AE7
102
{ACAD_REACTORS
330
9AE6
102
}
330
9AE6
100
AcDbXrecord
280
     1
102
RTVSPost2010Prop28
280
     0
102
RTVSPost2010PropOp28
 70
     1
102
RTVSPost2010Prop29
280
     1
102
RTVSPost2010PropOp29
 70
     1
102
RTVSPost2010Prop30
280
     1
102
RTVSPost2010PropOp30
 70
     1
102
RTVSPost2010Prop31
280
     0
102
RTVSPost2010PropOp31
 70
     1
102
RTVSPost2010Prop32
280
     0
102
RTVSPost2010PropOp32
 70
     1
102
RTVSPost2010Prop33
280
     0
102
RTVSPost2010PropOp33
 70
     1
102
RTVSPost2010Prop34
280
     0
102
RTVSPost2010PropOp34
 70
     1
102
RTVSPost2010Prop35
280
     0
102
RTVSPost2010PropOp35
 70
     1
102
RTVSPost2010Prop36
280
     0
102
RTVSPost2010PropOp36
 70
     1
102
RTVSPost2010Prop37
 90
       50
102
RTVSPost2010PropOp37
 70
     1
102
RTVSPost2010Prop38
140
0.0
102
RTVSPost2010PropOp38
 70
     1
102
RTVSPost2010Prop39
140
1.0
102
RTVSPost2010PropOp39
 70
     1
102
RTVSPost2010Prop40
 90
        0
102
RTVSPost2010PropOp40
 70
     1
102
RTVSPost2010Prop41ColorIndex
 90
       18
102
RTVSPost2010Prop41ColorRGB
 90
        0
102
RTVSPost2010PropOp41
 70
     1
102
RTVSPost2010Prop42
 90
       50
102
RTVSPost2010PropOp42
 70
     1
102
RTVSPost2010Prop43
 90
        3
102
RTVSPost2010PropOp43
 70
     1
102
RTVSPost2010Prop44ColorIndex
 90
        5
102
RTVSPost2010Prop44ColorRGB
 90
      255
102
RTVSPost2010PropOp44
 70
     1
102
RTVSPost2010Prop45
280
     0
102
RTVSPost2010PropOp45
 70
     1
102
RTVSPost2010Prop46
 90
       50
102
RTVSPost2010PropOp46
 70
     1
102
RTVSPost2010Prop47
 90
       50
102
RTVSPost2010PropOp47
 70
     1
102
RTVSPost2010Prop48
 90
       50
102
RTVSPost2010PropOp48
 70
     1
102
RTVSPost2010Prop49
280
     0
102
RTVSPost2010PropOp49
 70
     1
102
RTVSPost2010Prop50
 90
       50
102
RTVSPost2010PropOp50
 70
     1
102
RTVSPost2010Prop51ColorIndex
 90
      256
102
RTVSPost2010Prop51ColorRGB
 90
-16777216
102
RTVSPost2010PropOp51
 70
     0
102
RTVSPost2010Prop52
140
1.0
102
RTVSPost2010PropOp52
 70
     0
102
RTVSPost2010Prop53
 90
        2
102
RTVSPost2010PropOp53
 70
     1
102
RTVSPost2010Prop54
  1
strokes_ogs.tif
102
RTVSPost2010PropOp54
 70
     1
102
RTVSPost2010Prop55
280
     0
102
RTVSPost2010PropOp55
 70
     1
102
RTVSPost2010Prop56
140
1.0
102
RTVSPost2010PropOp56
 70
     1
102
RTVSPost2010Prop57
140
1.0
102
RTVSPost2010PropOp57
 70
     1
102
RTVSPropertyOp0
 70
     1
102
RTVSPropertyOp1
 70
     1
102
RTVSPropertyOp2
 70
     1
102
RTVSPropertyOp3
 70
     1
102
RTVSPropertyOp4
 70
     1
102
RTVSPropertyOp5
 70
     1
102
RTVSPropertyOp6
 70
     1
102
RTVSPropertyOp7
 70
     1
102
RTVSPropertyOp8
 70
     1
102
RTVSPropertyOp9
 70
     1
102
RTVSPropertyOp10
 70
     1
102
RTVSPropertyOp11
 70
     1
102
RTVSPropertyOp12
 70
     1
102
RTVSPropertyOp13
 70
     1
102
RTVSPropertyOp14
 70
     1
102
RTVSPropertyOp15
 70
     1
102
RTVSPropertyOp16
 70
     1
102
RTVSPropertyOp17
 70
     1
102
RTVSPropertyOp18
 70
     1
102
RTVSPropertyOp19
 70
     1
102
RTVSPropertyOp20
 70
     1
102
RTVSPropertyOp21
 70
     1
102
RTVSPropertyOp22
 70
     1
102
RTVSPropertyOp23
 70
     1
102
RTVSPropertyOp24
 70
     1
102
RTVSPropertyOp25
 70
     1
102
RTVSPropertyOp26
 70
     1
102
RTVSPropertyOp27
 70
     1
102
RTVSPropertyOp28
 70
     1
102
RTVSPropertyOp29
 70
     1
102
RTVSPropertyOp30
 70
     1
102
RTVSPropertyOp31
 70
     1
102
RTVSPropertyOp32
 70
     1
102
RTVSPropertyOp33
 70
     1
102
RTVSPropertyOp34
 70
     1
102
RTVSPropertyOp35
 70
     1
102
RTVSPropertyOp36
 70
     1
102
RTVSPropertyOp37
 70
     1
102
RTVSPropertyOp38
 70
     1
102
RTVSPropertyOp39
 70
     1
102
RTVSPropertyOp40
 70
     1
102
RTVSPropertyOp41
 70
     1
102
RTVSPropertyOp42
 70
     1
102
RTVSPropertyOp43
 70
     1
102
RTVSPropertyOp44
 70
     1
102
RTVSPropertyOp45
 70
     1
102
RTVSPropertyOp46
 70
     1
102
RTVSPropertyOp47
 70
     1
102
RTVSPropertyOp48
 70
     1
102
RTVSPropertyOp49
 70
     1
102
RTVSPropertyOp50
 70
     1
102
RTVSPropertyOp51
 70
     0
102
RTVSPropertyOp52
 70
     0
102
RTVSPropertyOp53
 70
     1
102
RTVSPropertyOp54
 70
     1
102
RTVSPropertyOp55
 70
     1
102
RTVSPropertyOp56
 70
     1
102
RTVSPropertyOp57
 70
     1
102
RTVSPropertyOp58
 70
     1
102
RTVSPropertyOp59
 70
     1
102
RTVSPropertyOp60
 70
     1
102
RTVSPropertyOp61
 70
     1
102
RTVSPropertyOp62
 70
     1
  0
XRECORD
  5
9AEB
102
{ACAD_REACTORS
330
9AEA
102
}
330
9AEA
100
AcDbXrecord
280
     1
102
RTVSPost2010Prop28
280
     0
102
RTVSPost2010PropOp28
 70
     1
102
RTVSPost2010Prop29
280
     1
102
RTVSPost2010PropOp29
 70
     1
102
RTVSPost2010Prop30
280
     1
102
RTVSPost2010PropOp30
 70
     1
102
RTVSPost2010Prop31
280
     0
102
RTVSPost2010PropOp31
 70
     1
102
RTVSPost2010Prop32
280
     0
102
RTVSPost2010PropOp32
 70
     1
102
RTVSPost2010Prop33
280
     0
102
RTVSPost2010PropOp33
 70
     1
102
RTVSPost2010Prop34
280
     0
102
RTVSPost2010PropOp34
 70
     1
102
RTVSPost2010Prop35
280
     0
102
RTVSPost2010PropOp35
 70
     1
102
RTVSPost2010Prop36
280
     0
102
RTVSPost2010PropOp36
 70
     1
102
RTVSPost2010Prop37
 90
       50
102
RTVSPost2010PropOp37
 70
     1
102
RTVSPost2010Prop38
140
0.0
102
RTVSPost2010PropOp38
 70
     1
102
RTVSPost2010Prop39
140
1.0
102
RTVSPost2010PropOp39
 70
     1
102
RTVSPost2010Prop40
 90
        0
102
RTVSPost2010PropOp40
 70
     1
102
RTVSPost2010Prop41ColorIndex
 90
       18
102
RTVSPost2010Prop41ColorRGB
 90
        0
102
RTVSPost2010PropOp41
 70
     1
102
RTVSPost2010Prop42
 90
       50
102
RTVSPost2010PropOp42
 70
     1
102
RTVSPost2010Prop43
 90
        3
102
RTVSPost2010PropOp43
 70
     1
102
RTVSPost2010Prop44ColorIndex
 90
        5
102
RTVSPost2010Prop44ColorRGB
 90
      255
102
RTVSPost2010PropOp44
 70
     1
102
RTVSPost2010Prop45
280
     0
102
RTVSPost2010PropOp45
 70
     1
102
RTVSPost2010Prop46
 90
       50
102
RTVSPost2010PropOp46
 70
     1
102
RTVSPost2010Prop47
 90
       50
102
RTVSPost2010PropOp47
 70
     1
102
RTVSPost2010Prop48
 90
       50
102
RTVSPost2010PropOp48
 70
     1
102
RTVSPost2010Prop49
280
     0
102
RTVSPost2010PropOp49
 70
     1
102
RTVSPost2010Prop50
 90
       50
102
RTVSPost2010PropOp50
 70
     1
102
RTVSPost2010Prop51ColorIndex
 90
      256
102
RTVSPost2010Prop51ColorRGB
 90
-16777216
102
RTVSPost2010PropOp51
 70
     0
102
RTVSPost2010Prop52
140
1.0
102
RTVSPost2010PropOp52
 70
     0
102
RTVSPost2010Prop53
 90
        2
102
RTVSPost2010PropOp53
 70
     1
102
RTVSPost2010Prop54
  1
strokes_ogs.tif
102
RTVSPost2010PropOp54
 70
     1
102
RTVSPost2010Prop55
280
     0
102
RTVSPost2010PropOp55
 70
     1
102
RTVSPost2010Prop56
140
1.0
102
RTVSPost2010PropOp56
 70
     1
102
RTVSPost2010Prop57
140
1.0
102
RTVSPost2010PropOp57
 70
     1
102
RTVSPropertyOp0
 70
     1
102
RTVSPropertyOp1
 70
     1
102
RTVSPropertyOp2
 70
     1
102
RTVSPropertyOp3
 70
     1
102
RTVSPropertyOp4
 70
     1
102
RTVSPropertyOp5
 70
     1
102
RTVSPropertyOp6
 70
     1
102
RTVSPropertyOp7
 70
     1
102
RTVSPropertyOp8
 70
     1
102
RTVSPropertyOp9
 70
     1
102
RTVSPropertyOp10
 70
     1
102
RTVSPropertyOp11
 70
     1
102
RTVSPropertyOp12
 70
     1
102
RTVSPropertyOp13
 70
     1
102
RTVSPropertyOp14
 70
     1
102
RTVSPropertyOp15
 70
     1
102
RTVSPropertyOp16
 70
     1
102
RTVSPropertyOp17
 70
     1
102
RTVSPropertyOp18
 70
     1
102
RTVSPropertyOp19
 70
     1
102
RTVSPropertyOp20
 70
     1
102
RTVSPropertyOp21
 70
     1
102
RTVSPropertyOp22
 70
     1
102
RTVSPropertyOp23
 70
     1
102
RTVSPropertyOp24
 70
     1
102
RTVSPropertyOp25
 70
     1
102
RTVSPropertyOp26
 70
     1
102
RTVSPropertyOp27
 70
     1
102
RTVSPropertyOp28
 70
     1
102
RTVSPropertyOp29
 70
     1
102
RTVSPropertyOp30
 70
     1
102
RTVSPropertyOp31
 70
     1
102
RTVSPropertyOp32
 70
     1
102
RTVSPropertyOp33
 70
     1
102
RTVSPropertyOp34
 70
     1
102
RTVSPropertyOp35
 70
     1
102
RTVSPropertyOp36
 70
     1
102
RTVSPropertyOp37
 70
     1
102
RTVSPropertyOp38
 70
     1
102
RTVSPropertyOp39
 70
     1
102
RTVSPropertyOp40
 70
     1
102
RTVSPropertyOp41
 70
     1
102
RTVSPropertyOp42
 70
     1
102
RTVSPropertyOp43
 70
     1
102
RTVSPropertyOp44
 70
     1
102
RTVSPropertyOp45
 70
     1
102
RTVSPropertyOp46
 70
     1
102
RTVSPropertyOp47
 70
     1
102
RTVSPropertyOp48
 70
     1
102
RTVSPropertyOp49
 70
     1
102
RTVSPropertyOp50
 70
     1
102
RTVSPropertyOp51
 70
     0
102
RTVSPropertyOp52
 70
     0
102
RTVSPropertyOp53
 70
     1
102
RTVSPropertyOp54
 70
     1
102
RTVSPropertyOp55
 70
     1
102
RTVSPropertyOp56
 70
     1
102
RTVSPropertyOp57
 70
     1
102
RTVSPropertyOp58
 70
     1
102
RTVSPropertyOp59
 70
     1
102
RTVSPropertyOp60
 70
     1
102
RTVSPropertyOp61
 70
     1
102
RTVSPropertyOp62
 70
     1
  0
XRECORD
  5
9B05
102
{ACAD_REACTORS
330
9B04
102
}
330
9B04
100
AcDbXrecord
280
     1
102
RTVSPost2010Prop28
280
     0
102
RTVSPost2010PropOp28
 70
     1
102
RTVSPost2010Prop29
280
     1
102
RTVSPost2010PropOp29
 70
     1
102
RTVSPost2010Prop30
280
     1
102
RTVSPost2010PropOp30
 70
     1
102
RTVSPost2010Prop31
280
     0
102
RTVSPost2010PropOp31
 70
     1
102
RTVSPost2010Prop32
280
     0
102
RTVSPost2010PropOp32
 70
     1
102
RTVSPost2010Prop33
280
     0
102
RTVSPost2010PropOp33
 70
     1
102
RTVSPost2010Prop34
280
     0
102
RTVSPost2010PropOp34
 70
     1
102
RTVSPost2010Prop35
280
     0
102
RTVSPost2010PropOp35
 70
     1
102
RTVSPost2010Prop36
280
     0
102
RTVSPost2010PropOp36
 70
     1
102
RTVSPost2010Prop37
 90
       50
102
RTVSPost2010PropOp37
 70
     0
102
RTVSPost2010Prop38
140
0.0
102
RTVSPost2010PropOp38
 70
     0
102
RTVSPost2010Prop39
140
1.0
102
RTVSPost2010PropOp39
 70
     0
102
RTVSPost2010Prop40
 90
        0
102
RTVSPost2010PropOp40
 70
     0
102
RTVSPost2010Prop41ColorIndex
 90
       18
102
RTVSPost2010Prop41ColorRGB
 90
        0
102
RTVSPost2010PropOp41
 70
     0
102
RTVSPost2010Prop42
 90
       50
102
RTVSPost2010PropOp42
 70
     0
102
RTVSPost2010Prop43
 90
        3
102
RTVSPost2010PropOp43
 70
     0
102
RTVSPost2010Prop44ColorIndex
 90
        5
102
RTVSPost2010Prop44ColorRGB
 90
      255
102
RTVSPost2010PropOp44
 70
     0
102
RTVSPost2010Prop45
280
     0
102
RTVSPost2010PropOp45
 70
     1
102
RTVSPost2010Prop46
 90
       50
102
RTVSPost2010PropOp46
 70
     0
102
RTVSPost2010Prop47
 90
       50
102
RTVSPost2010PropOp47
 70
     0
102
RTVSPost2010Prop48
 90
       50
102
RTVSPost2010PropOp48
 70
     0
102
RTVSPost2010Prop49
280
     0
102
RTVSPost2010PropOp49
 70
     1
102
RTVSPost2010Prop50
 90
       50
102
RTVSPost2010PropOp50
 70
     0
102
RTVSPost2010Prop51ColorIndex
 90
      256
102
RTVSPost2010Prop51ColorRGB
 90
-16777216
102
RTVSPost2010PropOp51
 70
     0
102
RTVSPost2010Prop52
140
1.0
102
RTVSPost2010PropOp52
 70
     0
102
RTVSPost2010Prop53
 90
        2
102
RTVSPost2010PropOp53
 70
     0
102
RTVSPost2010Prop54
  1
strokes_ogs.tif
102
RTVSPost2010PropOp54
 70
     0
102
RTVSPost2010Prop55
280
     0
102
RTVSPost2010PropOp55
 70
     1
102
RTVSPost2010Prop56
140
1.0
102
RTVSPost2010PropOp56
 70
     0
102
RTVSPost2010Prop57
140
1.0
102
RTVSPost2010PropOp57
 70
     0
102
RTVSPropertyOp0
 70
     0
102
RTVSPropertyOp1
 70
     0
102
RTVSPropertyOp2
 70
     0
102
RTVSPropertyOp3
 70
     0
102
RTVSPropertyOp4
 70
     0
102
RTVSPropertyOp5
 70
     0
102
RTVSPropertyOp6
 70
     0
102
RTVSPropertyOp7
 70
     0
102
RTVSPropertyOp8
 70
     0
102
RTVSPropertyOp9
 70
     0
102
RTVSPropertyOp10
 70
     0
102
RTVSPropertyOp11
 70
     0
102
RTVSPropertyOp12
 70
     0
102
RTVSPropertyOp13
 70
     0
102
RTVSPropertyOp14
 70
     2
102
RTVSPropertyOp15
 70
     0
102
RTVSPropertyOp16
 70
     0
102
RTVSPropertyOp17
 70
     0
102
RTVSPropertyOp18
 70
     0
102
RTVSPropertyOp19
 70
     0
102
RTVSPropertyOp20
 70
     0
102
RTVSPropertyOp21
 70
     0
102
RTVSPropertyOp22
 70
     0
102
RTVSPropertyOp23
 70
     0
102
RTVSPropertyOp24
 70
     0
102
RTVSPropertyOp25
 70
     0
102
RTVSPropertyOp26
 70
     0
102
RTVSPropertyOp27
 70
     0
102
RTVSPropertyOp28
 70
     1
102
RTVSPropertyOp29
 70
     1
102
RTVSPropertyOp30
 70
     1
102
RTVSPropertyOp31
 70
     1
102
RTVSPropertyOp32
 70
     1
102
RTVSPropertyOp33
 70
     1
102
RTVSPropertyOp34
 70
     1
102
RTVSPropertyOp35
 70
     1
102
RTVSPropertyOp36
 70
     1
102
RTVSPropertyOp37
 70
     0
102
RTVSPropertyOp38
 70
     0
102
RTVSPropertyOp39
 70
     0
102
RTVSPropertyOp40
 70
     0
102
RTVSPropertyOp41
 70
     0
102
RTVSPropertyOp42
 70
     0
102
RTVSPropertyOp43
 70
     0
102
RTVSPropertyOp44
 70
     0
102
RTVSPropertyOp45
 70
     1
102
RTVSPropertyOp46
 70
     0
102
RTVSPropertyOp47
 70
     0
102
RTVSPropertyOp48
 70
     0
102
RTVSPropertyOp49
 70
     1
102
RTVSPropertyOp50
 70
     0
102
RTVSPropertyOp51
 70
     0
102
RTVSPropertyOp52
 70
     0
102
RTVSPropertyOp53
 70
     0
102
RTVSPropertyOp54
 70
     0
102
RTVSPropertyOp55
 70
     1
102
RTVSPropertyOp56
 70
     0
102
RTVSPropertyOp57
 70
     0
102
RTVSPropertyOp58
 70
     0
102
RTVSPropertyOp59
 70
     0
102
RTVSPropertyOp60
 70
     0
102
RTVSPropertyOp61
 70
     0
102
RTVSPropertyOp62
 70
     0
  0
XRECORD
  5
9AF3
102
{ACAD_REACTORS
330
9AF2
102
}
330
9AF2
100
AcDbXrecord
280
     1
102
RTVSPost2010Prop28
280
     0
102
RTVSPost2010PropOp28
 70
     1
102
RTVSPost2010Prop29
280
     1
102
RTVSPost2010PropOp29
 70
     1
102
RTVSPost2010Prop30
280
     1
102
RTVSPost2010PropOp30
 70
     1
102
RTVSPost2010Prop31
280
     0
102
RTVSPost2010PropOp31
 70
     1
102
RTVSPost2010Prop32
280
     0
102
RTVSPost2010PropOp32
 70
     1
102
RTVSPost2010Prop33
280
     0
102
RTVSPost2010PropOp33
 70
     1
102
RTVSPost2010Prop34
280
     0
102
RTVSPost2010PropOp34
 70
     1
102
RTVSPost2010Prop35
280
     0
102
RTVSPost2010PropOp35
 70
     1
102
RTVSPost2010Prop36
280
     0
102
RTVSPost2010PropOp36
 70
     1
102
RTVSPost2010Prop37
 90
       50
102
RTVSPost2010PropOp37
 70
     1
102
RTVSPost2010Prop38
140
0.0
102
RTVSPost2010PropOp38
 70
     1
102
RTVSPost2010Prop39
140
1.0
102
RTVSPost2010PropOp39
 70
     1
102
RTVSPost2010Prop40
 90
        0
102
RTVSPost2010PropOp40
 70
     1
102
RTVSPost2010Prop41ColorIndex
 90
       18
102
RTVSPost2010Prop41ColorRGB
 90
        0
102
RTVSPost2010PropOp41
 70
     1
102
RTVSPost2010Prop42
 90
       50
102
RTVSPost2010PropOp42
 70
     1
102
RTVSPost2010Prop43
 90
        3
102
RTVSPost2010PropOp43
 70
     1
102
RTVSPost2010Prop44ColorIndex
 90
        5
102
RTVSPost2010Prop44ColorRGB
 90
      255
102
RTVSPost2010PropOp44
 70
     1
102
RTVSPost2010Prop45
280
     0
102
RTVSPost2010PropOp45
 70
     1
102
RTVSPost2010Prop46
 90
       50
102
RTVSPost2010PropOp46
 70
     1
102
RTVSPost2010Prop47
 90
       50
102
RTVSPost2010PropOp47
 70
     1
102
RTVSPost2010Prop48
 90
       50
102
RTVSPost2010PropOp48
 70
     1
102
RTVSPost2010Prop49
280
     0
102
RTVSPost2010PropOp49
 70
     1
102
RTVSPost2010Prop50
 90
       50
102
RTVSPost2010PropOp50
 70
     1
102
RTVSPost2010Prop51ColorIndex
 90
      256
102
RTVSPost2010Prop51ColorRGB
 90
-16777216
102
RTVSPost2010PropOp51
 70
     0
102
RTVSPost2010Prop52
140
1.0
102
RTVSPost2010PropOp52
 70
     0
102
RTVSPost2010Prop53
 90
        2
102
RTVSPost2010PropOp53
 70
     1
102
RTVSPost2010Prop54
  1
strokes_ogs.tif
102
RTVSPost2010PropOp54
 70
     1
102
RTVSPost2010Prop55
280
     0
102
RTVSPost2010PropOp55
 70
     1
102
RTVSPost2010Prop56
140
1.0
102
RTVSPost2010PropOp56
 70
     1
102
RTVSPost2010Prop57
140
1.0
102
RTVSPost2010PropOp57
 70
     1
102
RTVSPropertyOp0
 70
     1
102
RTVSPropertyOp1
 70
     1
102
RTVSPropertyOp2
 70
     1
102
RTVSPropertyOp3
 70
     1
102
RTVSPropertyOp4
 70
     1
102
RTVSPropertyOp5
 70
     1
102
RTVSPropertyOp6
 70
     1
102
RTVSPropertyOp7
 70
     1
102
RTVSPropertyOp8
 70
     1
102
RTVSPropertyOp9
 70
     1
102
RTVSPropertyOp10
 70
     1
102
RTVSPropertyOp11
 70
     1
102
RTVSPropertyOp12
 70
     1
102
RTVSPropertyOp13
 70
     1
102
RTVSPropertyOp14
 70
     1
102
RTVSPropertyOp15
 70
     1
102
RTVSPropertyOp16
 70
     1
102
RTVSPropertyOp17
 70
     1
102
RTVSPropertyOp18
 70
     1
102
RTVSPropertyOp19
 70
     1
102
RTVSPropertyOp20
 70
     1
102
RTVSPropertyOp21
 70
     1
102
RTVSPropertyOp22
 70
     1
102
RTVSPropertyOp23
 70
     1
102
RTVSPropertyOp24
 70
     1
102
RTVSPropertyOp25
 70
     1
102
RTVSPropertyOp26
 70
     1
102
RTVSPropertyOp27
 70
     1
102
RTVSPropertyOp28
 70
     1
102
RTVSPropertyOp29
 70
     1
102
RTVSPropertyOp30
 70
     1
102
RTVSPropertyOp31
 70
     1
102
RTVSPropertyOp32
 70
     1
102
RTVSPropertyOp33
 70
     1
102
RTVSPropertyOp34
 70
     1
102
RTVSPropertyOp35
 70
     1
102
RTVSPropertyOp36
 70
     1
102
RTVSPropertyOp37
 70
     1
102
RTVSPropertyOp38
 70
     1
102
RTVSPropertyOp39
 70
     1
102
RTVSPropertyOp40
 70
     1
102
RTVSPropertyOp41
 70
     1
102
RTVSPropertyOp42
 70
     1
102
RTVSPropertyOp43
 70
     1
102
RTVSPropertyOp44
 70
     1
102
RTVSPropertyOp45
 70
     1
102
RTVSPropertyOp46
 70
     1
102
RTVSPropertyOp47
 70
     1
102
RTVSPropertyOp48
 70
     1
102
RTVSPropertyOp49
 70
     1
102
RTVSPropertyOp50
 70
     1
102
RTVSPropertyOp51
 70
     0
102
RTVSPropertyOp52
 70
     0
102
RTVSPropertyOp53
 70
     1
102
RTVSPropertyOp54
 70
     1
102
RTVSPropertyOp55
 70
     1
102
RTVSPropertyOp56
 70
     1
102
RTVSPropertyOp57
 70
     1
102
RTVSPropertyOp58
 70
     1
102
RTVSPropertyOp59
 70
     1
102
RTVSPropertyOp60
 70
     1
102
RTVSPropertyOp61
 70
     1
102
RTVSPropertyOp62
 70
     1
  0
XRECORD
  5
9AD7
102
{ACAD_REACTORS
330
9AD6
102
}
330
9AD6
100
AcDbXrecord
280
     1
102
RTVSPost2010Prop28
280
     0
102
RTVSPost2010PropOp28
 70
     1
102
RTVSPost2010Prop29
280
     1
102
RTVSPost2010PropOp29
 70
     1
102
RTVSPost2010Prop30
280
     1
102
RTVSPost2010PropOp30
 70
     1
102
RTVSPost2010Prop31
280
     0
102
RTVSPost2010PropOp31
 70
     1
102
RTVSPost2010Prop32
280
     0
102
RTVSPost2010PropOp32
 70
     1
102
RTVSPost2010Prop33
280
     0
102
RTVSPost2010PropOp33
 70
     1
102
RTVSPost2010Prop34
280
     0
102
RTVSPost2010PropOp34
 70
     1
102
RTVSPost2010Prop35
280
     0
102
RTVSPost2010PropOp35
 70
     1
102
RTVSPost2010Prop36
280
     0
102
RTVSPost2010PropOp36
 70
     1
102
RTVSPost2010Prop37
 90
       50
102
RTVSPost2010PropOp37
 70
     1
102
RTVSPost2010Prop38
140
0.0
102
RTVSPost2010PropOp38
 70
     1
102
RTVSPost2010Prop39
140
1.0
102
RTVSPost2010PropOp39
 70
     1
102
RTVSPost2010Prop40
 90
        0
102
RTVSPost2010PropOp40
 70
     1
102
RTVSPost2010Prop41ColorIndex
 90
       18
102
RTVSPost2010Prop41ColorRGB
 90
        0
102
RTVSPost2010PropOp41
 70
     1
102
RTVSPost2010Prop42
 90
       50
102
RTVSPost2010PropOp42
 70
     1
102
RTVSPost2010Prop43
 90
        3
102
RTVSPost2010PropOp43
 70
     1
102
RTVSPost2010Prop44ColorIndex
 90
        5
102
RTVSPost2010Prop44ColorRGB
 90
      255
102
RTVSPost2010PropOp44
 70
     1
102
RTVSPost2010Prop45
280
     0
102
RTVSPost2010PropOp45
 70
     1
102
RTVSPost2010Prop46
 90
       50
102
RTVSPost2010PropOp46
 70
     1
102
RTVSPost2010Prop47
 90
       50
102
RTVSPost2010PropOp47
 70
     1
102
RTVSPost2010Prop48
 90
       50
102
RTVSPost2010PropOp48
 70
     1
102
RTVSPost2010Prop49
280
     0
102
RTVSPost2010PropOp49
 70
     1
102
RTVSPost2010Prop50
 90
       50
102
RTVSPost2010PropOp50
 70
     1
102
RTVSPost2010Prop51ColorIndex
 90
      256
102
RTVSPost2010Prop51ColorRGB
 90
-16777216
102
RTVSPost2010PropOp51
 70
     0
102
RTVSPost2010Prop52
140
1.0
102
RTVSPost2010PropOp52
 70
     0
102
RTVSPost2010Prop53
 90
        2
102
RTVSPost2010PropOp53
 70
     1
102
RTVSPost2010Prop54
  1
strokes_ogs.tif
102
RTVSPost2010PropOp54
 70
     1
102
RTVSPost2010Prop55
280
     0
102
RTVSPost2010PropOp55
 70
     1
102
RTVSPost2010Prop56
140
1.0
102
RTVSPost2010PropOp56
 70
     1
102
RTVSPost2010Prop57
140
1.0
102
RTVSPost2010PropOp57
 70
     1
102
RTVSPropertyOp0
 70
     1
102
RTVSPropertyOp1
 70
     1
102
RTVSPropertyOp2
 70
     1
102
RTVSPropertyOp3
 70
     1
102
RTVSPropertyOp4
 70
     1
102
RTVSPropertyOp5
 70
     1
102
RTVSPropertyOp6
 70
     1
102
RTVSPropertyOp7
 70
     1
102
RTVSPropertyOp8
 70
     1
102
RTVSPropertyOp9
 70
     1
102
RTVSPropertyOp10
 70
     1
102
RTVSPropertyOp11
 70
     1
102
RTVSPropertyOp12
 70
     1
102
RTVSPropertyOp13
 70
     1
102
RTVSPropertyOp14
 70
     1
102
RTVSPropertyOp15
 70
     1
102
RTVSPropertyOp16
 70
     1
102
RTVSPropertyOp17
 70
     1
102
RTVSPropertyOp18
 70
     1
102
RTVSPropertyOp19
 70
     1
102
RTVSPropertyOp20
 70
     1
102
RTVSPropertyOp21
 70
     1
102
RTVSPropertyOp22
 70
     1
102
RTVSPropertyOp23
 70
     1
102
RTVSPropertyOp24
 70
     1
102
RTVSPropertyOp25
 70
     1
102
RTVSPropertyOp26
 70
     1
102
RTVSPropertyOp27
 70
     1
102
RTVSPropertyOp28
 70
     1
102
RTVSPropertyOp29
 70
     1
102
RTVSPropertyOp30
 70
     1
102
RTVSPropertyOp31
 70
     1
102
RTVSPropertyOp32
 70
     1
102
RTVSPropertyOp33
 70
     1
102
RTVSPropertyOp34
 70
     1
102
RTVSPropertyOp35
 70
     1
102
RTVSPropertyOp36
 70
     1
102
RTVSPropertyOp37
 70
     1
102
RTVSPropertyOp38
 70
     1
102
RTVSPropertyOp39
 70
     1
102
RTVSPropertyOp40
 70
     1
102
RTVSPropertyOp41
 70
     1
102
RTVSPropertyOp42
 70
     1
102
RTVSPropertyOp43
 70
     1
102
RTVSPropertyOp44
 70
     1
102
RTVSPropertyOp45
 70
     1
102
RTVSPropertyOp46
 70
     1
102
RTVSPropertyOp47
 70
     1
102
RTVSPropertyOp48
 70
     1
102
RTVSPropertyOp49
 70
     1
102
RTVSPropertyOp50
 70
     1
102
RTVSPropertyOp51
 70
     0
102
RTVSPropertyOp52
 70
     0
102
RTVSPropertyOp53
 70
     1
102
RTVSPropertyOp54
 70
     1
102
RTVSPropertyOp55
 70
     1
102
RTVSPropertyOp56
 70
     1
102
RTVSPropertyOp57
 70
     1
102
RTVSPropertyOp58
 70
     1
102
RTVSPropertyOp59
 70
     1
102
RTVSPropertyOp60
 70
     1
102
RTVSPropertyOp61
 70
     1
102
RTVSPropertyOp62
 70
     1
  0
XRECORD
  5
9AD9
102
{ACAD_REACTORS
330
9AD8
102
}
330
9AD8
100
AcDbXrecord
280
     1
102
RTVSPost2010Prop28
280
     0
102
RTVSPost2010PropOp28
 70
     1
102
RTVSPost2010Prop29
280
     1
102
RTVSPost2010PropOp29
 70
     1
102
RTVSPost2010Prop30
280
     1
102
RTVSPost2010PropOp30
 70
     1
102
RTVSPost2010Prop31
280
     0
102
RTVSPost2010PropOp31
 70
     1
102
RTVSPost2010Prop32
280
     0
102
RTVSPost2010PropOp32
 70
     1
102
RTVSPost2010Prop33
280
     0
102
RTVSPost2010PropOp33
 70
     1
102
RTVSPost2010Prop34
280
     0
102
RTVSPost2010PropOp34
 70
     1
102
RTVSPost2010Prop35
280
     0
102
RTVSPost2010PropOp35
 70
     1
102
RTVSPost2010Prop36
280
     0
102
RTVSPost2010PropOp36
 70
     1
102
RTVSPost2010Prop37
 90
       50
102
RTVSPost2010PropOp37
 70
     1
102
RTVSPost2010Prop38
140
0.0
102
RTVSPost2010PropOp38
 70
     1
102
RTVSPost2010Prop39
140
1.0
102
RTVSPost2010PropOp39
 70
     1
102
RTVSPost2010Prop40
 90
        0
102
RTVSPost2010PropOp40
 70
     1
102
RTVSPost2010Prop41ColorIndex
 90
       18
102
RTVSPost2010Prop41ColorRGB
 90
        0
102
RTVSPost2010PropOp41
 70
     1
102
RTVSPost2010Prop42
 90
       50
102
RTVSPost2010PropOp42
 70
     1
102
RTVSPost2010Prop43
 90
        3
102
RTVSPost2010PropOp43
 70
     1
102
RTVSPost2010Prop44ColorIndex
 90
        5
102
RTVSPost2010Prop44ColorRGB
 90
      255
102
RTVSPost2010PropOp44
 70
     1
102
RTVSPost2010Prop45
280
     0
102
RTVSPost2010PropOp45
 70
     1
102
RTVSPost2010Prop46
 90
       50
102
RTVSPost2010PropOp46
 70
     1
102
RTVSPost2010Prop47
 90
       50
102
RTVSPost2010PropOp47
 70
     1
102
RTVSPost2010Prop48
 90
       50
102
RTVSPost2010PropOp48
 70
     1
102
RTVSPost2010Prop49
280
     0
102
RTVSPost2010PropOp49
 70
     1
102
RTVSPost2010Prop50
 90
       50
102
RTVSPost2010PropOp50
 70
     1
102
RTVSPost2010Prop51ColorIndex
 90
      256
102
RTVSPost2010Prop51ColorRGB
 90
-16777216
102
RTVSPost2010PropOp51
 70
     0
102
RTVSPost2010Prop52
140
1.0
102
RTVSPost2010PropOp52
 70
     0
102
RTVSPost2010Prop53
 90
        2
102
RTVSPost2010PropOp53
 70
     1
102
RTVSPost2010Prop54
  1
strokes_ogs.tif
102
RTVSPost2010PropOp54
 70
     1
102
RTVSPost2010Prop55
280
     0
102
RTVSPost2010PropOp55
 70
     1
102
RTVSPost2010Prop56
140
1.0
102
RTVSPost2010PropOp56
 70
     1
102
RTVSPost2010Prop57
140
1.0
102
RTVSPost2010PropOp57
 70
     1
102
RTVSPropertyOp0
 70
     1
102
RTVSPropertyOp1
 70
     1
102
RTVSPropertyOp2
 70
     1
102
RTVSPropertyOp3
 70
     1
102
RTVSPropertyOp4
 70
     1
102
RTVSPropertyOp5
 70
     1
102
RTVSPropertyOp6
 70
     1
102
RTVSPropertyOp7
 70
     1
102
RTVSPropertyOp8
 70
     1
102
RTVSPropertyOp9
 70
     1
102
RTVSPropertyOp10
 70
     1
102
RTVSPropertyOp11
 70
     1
102
RTVSPropertyOp12
 70
     1
102
RTVSPropertyOp13
 70
     1
102
RTVSPropertyOp14
 70
     1
102
RTVSPropertyOp15
 70
     1
102
RTVSPropertyOp16
 70
     1
102
RTVSPropertyOp17
 70
     1
102
RTVSPropertyOp18
 70
     1
102
RTVSPropertyOp19
 70
     1
102
RTVSPropertyOp20
 70
     1
102
RTVSPropertyOp21
 70
     1
102
RTVSPropertyOp22
 70
     1
102
RTVSPropertyOp23
 70
     1
102
RTVSPropertyOp24
 70
     1
102
RTVSPropertyOp25
 70
     1
102
RTVSPropertyOp26
 70
     1
102
RTVSPropertyOp27
 70
     1
102
RTVSPropertyOp28
 70
     1
102
RTVSPropertyOp29
 70
     1
102
RTVSPropertyOp30
 70
     1
102
RTVSPropertyOp31
 70
     1
102
RTVSPropertyOp32
 70
     1
102
RTVSPropertyOp33
 70
     1
102
RTVSPropertyOp34
 70
     1
102
RTVSPropertyOp35
 70
     1
102
RTVSPropertyOp36
 70
     1
102
RTVSPropertyOp37
 70
     1
102
RTVSPropertyOp38
 70
     1
102
RTVSPropertyOp39
 70
     1
102
RTVSPropertyOp40
 70
     1
102
RTVSPropertyOp41
 70
     1
102
RTVSPropertyOp42
 70
     1
102
RTVSPropertyOp43
 70
     1
102
RTVSPropertyOp44
 70
     1
102
RTVSPropertyOp45
 70
     1
102
RTVSPropertyOp46
 70
     1
102
RTVSPropertyOp47
 70
     1
102
RTVSPropertyOp48
 70
     1
102
RTVSPropertyOp49
 70
     1
102
RTVSPropertyOp50
 70
     1
102
RTVSPropertyOp51
 70
     0
102
RTVSPropertyOp52
 70
     0
102
RTVSPropertyOp53
 70
     1
102
RTVSPropertyOp54
 70
     1
102
RTVSPropertyOp55
 70
     1
102
RTVSPropertyOp56
 70
     1
102
RTVSPropertyOp57
 70
     1
102
RTVSPropertyOp58
 70
     1
102
RTVSPropertyOp59
 70
     1
102
RTVSPropertyOp60
 70
     1
102
RTVSPropertyOp61
 70
     1
102
RTVSPropertyOp62
 70
     1
  0
XRECORD
  5
9ADB
102
{ACAD_REACTORS
330
9ADA
102
}
330
9ADA
100
AcDbXrecord
280
     1
102
RTVSPost2010Prop28
280
     0
102
RTVSPost2010PropOp28
 70
     1
102
RTVSPost2010Prop29
280
     1
102
RTVSPost2010PropOp29
 70
     1
102
RTVSPost2010Prop30
280
     1
102
RTVSPost2010PropOp30
 70
     1
102
RTVSPost2010Prop31
280
     0
102
RTVSPost2010PropOp31
 70
     1
102
RTVSPost2010Prop32
280
     0
102
RTVSPost2010PropOp32
 70
     1
102
RTVSPost2010Prop33
280
     0
102
RTVSPost2010PropOp33
 70
     1
102
RTVSPost2010Prop34
280
     0
102
RTVSPost2010PropOp34
 70
     1
102
RTVSPost2010Prop35
280
     0
102
RTVSPost2010PropOp35
 70
     1
102
RTVSPost2010Prop36
280
     0
102
RTVSPost2010PropOp36
 70
     1
102
RTVSPost2010Prop37
 90
       50
102
RTVSPost2010PropOp37
 70
     1
102
RTVSPost2010Prop38
140
0.0
102
RTVSPost2010PropOp38
 70
     1
102
RTVSPost2010Prop39
140
1.0
102
RTVSPost2010PropOp39
 70
     1
102
RTVSPost2010Prop40
 90
        0
102
RTVSPost2010PropOp40
 70
     1
102
RTVSPost2010Prop41ColorIndex
 90
       18
102
RTVSPost2010Prop41ColorRGB
 90
        0
102
RTVSPost2010PropOp41
 70
     1
102
RTVSPost2010Prop42
 90
       50
102
RTVSPost2010PropOp42
 70
     1
102
RTVSPost2010Prop43
 90
        3
102
RTVSPost2010PropOp43
 70
     1
102
RTVSPost2010Prop44ColorIndex
 90
        5
102
RTVSPost2010Prop44ColorRGB
 90
      255
102
RTVSPost2010PropOp44
 70
     1
102
RTVSPost2010Prop45
280
     0
102
RTVSPost2010PropOp45
 70
     1
102
RTVSPost2010Prop46
 90
       50
102
RTVSPost2010PropOp46
 70
     1
102
RTVSPost2010Prop47
 90
       50
102
RTVSPost2010PropOp47
 70
     1
102
RTVSPost2010Prop48
 90
       50
102
RTVSPost2010PropOp48
 70
     1
102
RTVSPost2010Prop49
280
     0
102
RTVSPost2010PropOp49
 70
     1
102
RTVSPost2010Prop50
 90
       50
102
RTVSPost2010PropOp50
 70
     1
102
RTVSPost2010Prop51ColorIndex
 90
      256
102
RTVSPost2010Prop51ColorRGB
 90
-16777216
102
RTVSPost2010PropOp51
 70
     0
102
RTVSPost2010Prop52
140
1.0
102
RTVSPost2010PropOp52
 70
     0
102
RTVSPost2010Prop53
 90
        2
102
RTVSPost2010PropOp53
 70
     1
102
RTVSPost2010Prop54
  1
strokes_ogs.tif
102
RTVSPost2010PropOp54
 70
     1
102
RTVSPost2010Prop55
280
     0
102
RTVSPost2010PropOp55
 70
     1
102
RTVSPost2010Prop56
140
1.0
102
RTVSPost2010PropOp56
 70
     1
102
RTVSPost2010Prop57
140
1.0
102
RTVSPost2010PropOp57
 70
     1
102
RTVSPropertyOp0
 70
     1
102
RTVSPropertyOp1
 70
     1
102
RTVSPropertyOp2
 70
     1
102
RTVSPropertyOp3
 70
     1
102
RTVSPropertyOp4
 70
     1
102
RTVSPropertyOp5
 70
     1
102
RTVSPropertyOp6
 70
     1
102
RTVSPropertyOp7
 70
     1
102
RTVSPropertyOp8
 70
     1
102
RTVSPropertyOp9
 70
     1
102
RTVSPropertyOp10
 70
     1
102
RTVSPropertyOp11
 70
     1
102
RTVSPropertyOp12
 70
     1
102
RTVSPropertyOp13
 70
     1
102
RTVSPropertyOp14
 70
     1
102
RTVSPropertyOp15
 70
     1
102
RTVSPropertyOp16
 70
     1
102
RTVSPropertyOp17
 70
     1
102
RTVSPropertyOp18
 70
     1
102
RTVSPropertyOp19
 70
     1
102
RTVSPropertyOp20
 70
     1
102
RTVSPropertyOp21
 70
     1
102
RTVSPropertyOp22
 70
     1
102
RTVSPropertyOp23
 70
     1
102
RTVSPropertyOp24
 70
     1
102
RTVSPropertyOp25
 70
     1
102
RTVSPropertyOp26
 70
     1
102
RTVSPropertyOp27
 70
     1
102
RTVSPropertyOp28
 70
     1
102
RTVSPropertyOp29
 70
     1
102
RTVSPropertyOp30
 70
     1
102
RTVSPropertyOp31
 70
     1
102
RTVSPropertyOp32
 70
     1
102
RTVSPropertyOp33
 70
     1
102
RTVSPropertyOp34
 70
     1
102
RTVSPropertyOp35
 70
     1
102
RTVSPropertyOp36
 70
     1
102
RTVSPropertyOp37
 70
     1
102
RTVSPropertyOp38
 70
     1
102
RTVSPropertyOp39
 70
     1
102
RTVSPropertyOp40
 70
     1
102
RTVSPropertyOp41
 70
     1
102
RTVSPropertyOp42
 70
     1
102
RTVSPropertyOp43
 70
     1
102
RTVSPropertyOp44
 70
     1
102
RTVSPropertyOp45
 70
     1
102
RTVSPropertyOp46
 70
     1
102
RTVSPropertyOp47
 70
     1
102
RTVSPropertyOp48
 70
     1
102
RTVSPropertyOp49
 70
     1
102
RTVSPropertyOp50
 70
     1
102
RTVSPropertyOp51
 70
     0
102
RTVSPropertyOp52
 70
     0
102
RTVSPropertyOp53
 70
     1
102
RTVSPropertyOp54
 70
     1
102
RTVSPropertyOp55
 70
     1
102
RTVSPropertyOp56
 70
     1
102
RTVSPropertyOp57
 70
     1
102
RTVSPropertyOp58
 70
     1
102
RTVSPropertyOp59
 70
     1
102
RTVSPropertyOp60
 70
     1
102
RTVSPropertyOp61
 70
     1
102
RTVSPropertyOp62
 70
     1
  0
XRECORD
  5
9ADD
102
{ACAD_REACTORS
330
9ADC
102
}
330
9ADC
100
AcDbXrecord
280
     1
102
RTVSPost2010Prop28
280
     0
102
RTVSPost2010PropOp28
 70
     1
102
RTVSPost2010Prop29
280
     1
102
RTVSPost2010PropOp29
 70
     1
102
RTVSPost2010Prop30
280
     1
102
RTVSPost2010PropOp30
 70
     1
102
RTVSPost2010Prop31
280
     0
102
RTVSPost2010PropOp31
 70
     1
102
RTVSPost2010Prop32
280
     0
102
RTVSPost2010PropOp32
 70
     1
102
RTVSPost2010Prop33
280
     0
102
RTVSPost2010PropOp33
 70
     1
102
RTVSPost2010Prop34
280
     0
102
RTVSPost2010PropOp34
 70
     1
102
RTVSPost2010Prop35
280
     0
102
RTVSPost2010PropOp35
 70
     1
102
RTVSPost2010Prop36
280
     0
102
RTVSPost2010PropOp36
 70
     1
102
RTVSPost2010Prop37
 90
       50
102
RTVSPost2010PropOp37
 70
     1
102
RTVSPost2010Prop38
140
0.0
102
RTVSPost2010PropOp38
 70
     1
102
RTVSPost2010Prop39
140
1.0
102
RTVSPost2010PropOp39
 70
     1
102
RTVSPost2010Prop40
 90
        0
102
RTVSPost2010PropOp40
 70
     1
102
RTVSPost2010Prop41ColorIndex
 90
       18
102
RTVSPost2010Prop41ColorRGB
 90
        0
102
RTVSPost2010PropOp41
 70
     1
102
RTVSPost2010Prop42
 90
       50
102
RTVSPost2010PropOp42
 70
     1
102
RTVSPost2010Prop43
 90
        3
102
RTVSPost2010PropOp43
 70
     1
102
RTVSPost2010Prop44ColorIndex
 90
        5
102
RTVSPost2010Prop44ColorRGB
 90
      255
102
RTVSPost2010PropOp44
 70
     1
102
RTVSPost2010Prop45
280
     0
102
RTVSPost2010PropOp45
 70
     1
102
RTVSPost2010Prop46
 90
       50
102
RTVSPost2010PropOp46
 70
     1
102
RTVSPost2010Prop47
 90
       50
102
RTVSPost2010PropOp47
 70
     1
102
RTVSPost2010Prop48
 90
       50
102
RTVSPost2010PropOp48
 70
     1
102
RTVSPost2010Prop49
280
     0
102
RTVSPost2010PropOp49
 70
     1
102
RTVSPost2010Prop50
 90
       50
102
RTVSPost2010PropOp50
 70
     1
102
RTVSPost2010Prop51ColorIndex
 90
      256
102
RTVSPost2010Prop51ColorRGB
 90
-16777216
102
RTVSPost2010PropOp51
 70
     0
102
RTVSPost2010Prop52
140
1.0
102
RTVSPost2010PropOp52
 70
     0
102
RTVSPost2010Prop53
 90
        2
102
RTVSPost2010PropOp53
 70
     1
102
RTVSPost2010Prop54
  1
strokes_ogs.tif
102
RTVSPost2010PropOp54
 70
     1
102
RTVSPost2010Prop55
280
     0
102
RTVSPost2010PropOp55
 70
     1
102
RTVSPost2010Prop56
140
1.0
102
RTVSPost2010PropOp56
 70
     1
102
RTVSPost2010Prop57
140
1.0
102
RTVSPost2010PropOp57
 70
     1
102
RTVSPropertyOp0
 70
     1
102
RTVSPropertyOp1
 70
     1
102
RTVSPropertyOp2
 70
     1
102
RTVSPropertyOp3
 70
     1
102
RTVSPropertyOp4
 70
     1
102
RTVSPropertyOp5
 70
     1
102
RTVSPropertyOp6
 70
     1
102
RTVSPropertyOp7
 70
     1
102
RTVSPropertyOp8
 70
     1
102
RTVSPropertyOp9
 70
     1
102
RTVSPropertyOp10
 70
     1
102
RTVSPropertyOp11
 70
     1
102
RTVSPropertyOp12
 70
     1
102
RTVSPropertyOp13
 70
     1
102
RTVSPropertyOp14
 70
     1
102
RTVSPropertyOp15
 70
     1
102
RTVSPropertyOp16
 70
     1
102
RTVSPropertyOp17
 70
     1
102
RTVSPropertyOp18
 70
     1
102
RTVSPropertyOp19
 70
     1
102
RTVSPropertyOp20
 70
     1
102
RTVSPropertyOp21
 70
     1
102
RTVSPropertyOp22
 70
     1
102
RTVSPropertyOp23
 70
     1
102
RTVSPropertyOp24
 70
     1
102
RTVSPropertyOp25
 70
     1
102
RTVSPropertyOp26
 70
     1
102
RTVSPropertyOp27
 70
     1
102
RTVSPropertyOp28
 70
     1
102
RTVSPropertyOp29
 70
     1
102
RTVSPropertyOp30
 70
     1
102
RTVSPropertyOp31
 70
     1
102
RTVSPropertyOp32
 70
     1
102
RTVSPropertyOp33
 70
     1
102
RTVSPropertyOp34
 70
     1
102
RTVSPropertyOp35
 70
     1
102
RTVSPropertyOp36
 70
     1
102
RTVSPropertyOp37
 70
     1
102
RTVSPropertyOp38
 70
     1
102
RTVSPropertyOp39
 70
     1
102
RTVSPropertyOp40
 70
     1
102
RTVSPropertyOp41
 70
     1
102
RTVSPropertyOp42
 70
     1
102
RTVSPropertyOp43
 70
     1
102
RTVSPropertyOp44
 70
     1
102
RTVSPropertyOp45
 70
     1
102
RTVSPropertyOp46
 70
     1
102
RTVSPropertyOp47
 70
     1
102
RTVSPropertyOp48
 70
     1
102
RTVSPropertyOp49
 70
     1
102
RTVSPropertyOp50
 70
     1
102
RTVSPropertyOp51
 70
     0
102
RTVSPropertyOp52
 70
     0
102
RTVSPropertyOp53
 70
     1
102
RTVSPropertyOp54
 70
     1
102
RTVSPropertyOp55
 70
     1
102
RTVSPropertyOp56
 70
     1
102
RTVSPropertyOp57
 70
     1
102
RTVSPropertyOp58
 70
     1
102
RTVSPropertyOp59
 70
     1
102
RTVSPropertyOp60
 70
     1
102
RTVSPropertyOp61
 70
     1
102
RTVSPropertyOp62
 70
     1
  0
XRECORD
  5
9AE5
102
{ACAD_REACTORS
330
9AE4
102
}
330
9AE4
100
AcDbXrecord
280
     1
102
RTVSPost2010Prop28
280
     0
102
RTVSPost2010PropOp28
 70
     1
102
RTVSPost2010Prop29
280
     1
102
RTVSPost2010PropOp29
 70
     1
102
RTVSPost2010Prop30
280
     1
102
RTVSPost2010PropOp30
 70
     1
102
RTVSPost2010Prop31
280
     0
102
RTVSPost2010PropOp31
 70
     1
102
RTVSPost2010Prop32
280
     0
102
RTVSPost2010PropOp32
 70
     1
102
RTVSPost2010Prop33
280
     0
102
RTVSPost2010PropOp33
 70
     1
102
RTVSPost2010Prop34
280
     0
102
RTVSPost2010PropOp34
 70
     1
102
RTVSPost2010Prop35
280
     0
102
RTVSPost2010PropOp35
 70
     1
102
RTVSPost2010Prop36
280
     0
102
RTVSPost2010PropOp36
 70
     1
102
RTVSPost2010Prop37
 90
       50
102
RTVSPost2010PropOp37
 70
     1
102
RTVSPost2010Prop38
140
0.0
102
RTVSPost2010PropOp38
 70
     1
102
RTVSPost2010Prop39
140
1.0
102
RTVSPost2010PropOp39
 70
     1
102
RTVSPost2010Prop40
 90
        0
102
RTVSPost2010PropOp40
 70
     1
102
RTVSPost2010Prop41ColorIndex
 90
       18
102
RTVSPost2010Prop41ColorRGB
 90
        0
102
RTVSPost2010PropOp41
 70
     1
102
RTVSPost2010Prop42
 90
       50
102
RTVSPost2010PropOp42
 70
     1
102
RTVSPost2010Prop43
 90
        3
102
RTVSPost2010PropOp43
 70
     1
102
RTVSPost2010Prop44ColorIndex
 90
        5
102
RTVSPost2010Prop44ColorRGB
 90
      255
102
RTVSPost2010PropOp44
 70
     1
102
RTVSPost2010Prop45
280
     0
102
RTVSPost2010PropOp45
 70
     1
102
RTVSPost2010Prop46
 90
       50
102
RTVSPost2010PropOp46
 70
     1
102
RTVSPost2010Prop47
 90
       50
102
RTVSPost2010PropOp47
 70
     1
102
RTVSPost2010Prop48
 90
       50
102
RTVSPost2010PropOp48
 70
     1
102
RTVSPost2010Prop49
280
     0
102
RTVSPost2010PropOp49
 70
     1
102
RTVSPost2010Prop50
 90
       50
102
RTVSPost2010PropOp50
 70
     1
102
RTVSPost2010Prop51ColorIndex
 90
      256
102
RTVSPost2010Prop51ColorRGB
 90
-16777216
102
RTVSPost2010PropOp51
 70
     0
102
RTVSPost2010Prop52
140
1.0
102
RTVSPost2010PropOp52
 70
     0
102
RTVSPost2010Prop53
 90
        2
102
RTVSPost2010PropOp53
 70
     1
102
RTVSPost2010Prop54
  1
strokes_ogs.tif
102
RTVSPost2010PropOp54
 70
     1
102
RTVSPost2010Prop55
280
     0
102
RTVSPost2010PropOp55
 70
     1
102
RTVSPost2010Prop56
140
1.0
102
RTVSPost2010PropOp56
 70
     1
102
RTVSPost2010Prop57
140
1.0
102
RTVSPost2010PropOp57
 70
     1
102
RTVSPropertyOp0
 70
     1
102
RTVSPropertyOp1
 70
     1
102
RTVSPropertyOp2
 70
     1
102
RTVSPropertyOp3
 70
     1
102
RTVSPropertyOp4
 70
     1
102
RTVSPropertyOp5
 70
     1
102
RTVSPropertyOp6
 70
     1
102
RTVSPropertyOp7
 70
     1
102
RTVSPropertyOp8
 70
     1
102
RTVSPropertyOp9
 70
     1
102
RTVSPropertyOp10
 70
     1
102
RTVSPropertyOp11
 70
     1
102
RTVSPropertyOp12
 70
     1
102
RTVSPropertyOp13
 70
     1
102
RTVSPropertyOp14
 70
     1
102
RTVSPropertyOp15
 70
     1
102
RTVSPropertyOp16
 70
     1
102
RTVSPropertyOp17
 70
     1
102
RTVSPropertyOp18
 70
     1
102
RTVSPropertyOp19
 70
     1
102
RTVSPropertyOp20
 70
     1
102
RTVSPropertyOp21
 70
     1
102
RTVSPropertyOp22
 70
     1
102
RTVSPropertyOp23
 70
     1
102
RTVSPropertyOp24
 70
     1
102
RTVSPropertyOp25
 70
     1
102
RTVSPropertyOp26
 70
     1
102
RTVSPropertyOp27
 70
     1
102
RTVSPropertyOp28
 70
     1
102
RTVSPropertyOp29
 70
     1
102
RTVSPropertyOp30
 70
     1
102
RTVSPropertyOp31
 70
     1
102
RTVSPropertyOp32
 70
     1
102
RTVSPropertyOp33
 70
     1
102
RTVSPropertyOp34
 70
     1
102
RTVSPropertyOp35
 70
     1
102
RTVSPropertyOp36
 70
     1
102
RTVSPropertyOp37
 70
     1
102
RTVSPropertyOp38
 70
     1
102
RTVSPropertyOp39
 70
     1
102
RTVSPropertyOp40
 70
     1
102
RTVSPropertyOp41
 70
     1
102
RTVSPropertyOp42
 70
     1
102
RTVSPropertyOp43
 70
     1
102
RTVSPropertyOp44
 70
     1
102
RTVSPropertyOp45
 70
     1
102
RTVSPropertyOp46
 70
     1
102
RTVSPropertyOp47
 70
     1
102
RTVSPropertyOp48
 70
     1
102
RTVSPropertyOp49
 70
     1
102
RTVSPropertyOp50
 70
     1
102
RTVSPropertyOp51
 70
     0
102
RTVSPropertyOp52
 70
     0
102
RTVSPropertyOp53
 70
     1
102
RTVSPropertyOp54
 70
     1
102
RTVSPropertyOp55
 70
     1
102
RTVSPropertyOp56
 70
     1
102
RTVSPropertyOp57
 70
     1
102
RTVSPropertyOp58
 70
     1
102
RTVSPropertyOp59
 70
     1
102
RTVSPropertyOp60
 70
     1
102
RTVSPropertyOp61
 70
     1
102
RTVSPropertyOp62
 70
     1
  0
XRECORD
  5
9B01
102
{ACAD_REACTORS
330
9B00
102
}
330
9B00
100
AcDbXrecord
280
     1
102
RTVSPost2010Prop28
280
     0
102
RTVSPost2010PropOp28
 70
     1
102
RTVSPost2010Prop29
280
     1
102
RTVSPost2010PropOp29
 70
     1
102
RTVSPost2010Prop30
280
     1
102
RTVSPost2010PropOp30
 70
     1
102
RTVSPost2010Prop31
280
     0
102
RTVSPost2010PropOp31
 70
     1
102
RTVSPost2010Prop32
280
     0
102
RTVSPost2010PropOp32
 70
     1
102
RTVSPost2010Prop33
280
     0
102
RTVSPost2010PropOp33
 70
     1
102
RTVSPost2010Prop34
280
     0
102
RTVSPost2010PropOp34
 70
     1
102
RTVSPost2010Prop35
280
     0
102
RTVSPost2010PropOp35
 70
     1
102
RTVSPost2010Prop36
280
     0
102
RTVSPost2010PropOp36
 70
     1
102
RTVSPost2010Prop37
 90
       50
102
RTVSPost2010PropOp37
 70
     0
102
RTVSPost2010Prop38
140
0.0
102
RTVSPost2010PropOp38
 70
     0
102
RTVSPost2010Prop39
140
1.0
102
RTVSPost2010PropOp39
 70
     0
102
RTVSPost2010Prop40
 90
        0
102
RTVSPost2010PropOp40
 70
     0
102
RTVSPost2010Prop41ColorIndex
 90
       18
102
RTVSPost2010Prop41ColorRGB
 90
        0
102
RTVSPost2010PropOp41
 70
     0
102
RTVSPost2010Prop42
 90
       50
102
RTVSPost2010PropOp42
 70
     0
102
RTVSPost2010Prop43
 90
        3
102
RTVSPost2010PropOp43
 70
     0
102
RTVSPost2010Prop44ColorIndex
 90
        5
102
RTVSPost2010Prop44ColorRGB
 90
      255
102
RTVSPost2010PropOp44
 70
     0
102
RTVSPost2010Prop45
280
     0
102
RTVSPost2010PropOp45
 70
     1
102
RTVSPost2010Prop46
 90
       50
102
RTVSPost2010PropOp46
 70
     0
102
RTVSPost2010Prop47
 90
       50
102
RTVSPost2010PropOp47
 70
     0
102
RTVSPost2010Prop48
 90
       50
102
RTVSPost2010PropOp48
 70
     0
102
RTVSPost2010Prop49
280
     0
102
RTVSPost2010PropOp49
 70
     1
102
RTVSPost2010Prop50
 90
       50
102
RTVSPost2010PropOp50
 70
     0
102
RTVSPost2010Prop51ColorIndex
 90
      256
102
RTVSPost2010Prop51ColorRGB
 90
-16777216
102
RTVSPost2010PropOp51
 70
     0
102
RTVSPost2010Prop52
140
1.0
102
RTVSPost2010PropOp52
 70
     0
102
RTVSPost2010Prop53
 90
        2
102
RTVSPost2010PropOp53
 70
     0
102
RTVSPost2010Prop54
  1
strokes_ogs.tif
102
RTVSPost2010PropOp54
 70
     0
102
RTVSPost2010Prop55
280
     0
102
RTVSPost2010PropOp55
 70
     1
102
RTVSPost2010Prop56
140
1.0
102
RTVSPost2010PropOp56
 70
     0
102
RTVSPost2010Prop57
140
1.0
102
RTVSPost2010PropOp57
 70
     0
102
RTVSPropertyOp0
 70
     0
102
RTVSPropertyOp1
 70
     0
102
RTVSPropertyOp2
 70
     0
102
RTVSPropertyOp3
 70
     0
102
RTVSPropertyOp4
 70
     0
102
RTVSPropertyOp5
 70
     0
102
RTVSPropertyOp6
 70
     0
102
RTVSPropertyOp7
 70
     0
102
RTVSPropertyOp8
 70
     0
102
RTVSPropertyOp9
 70
     0
102
RTVSPropertyOp10
 70
     0
102
RTVSPropertyOp11
 70
     0
102
RTVSPropertyOp12
 70
     0
102
RTVSPropertyOp13
 70
     0
102
RTVSPropertyOp14
 70
     2
102
RTVSPropertyOp15
 70
     0
102
RTVSPropertyOp16
 70
     0
102
RTVSPropertyOp17
 70
     0
102
RTVSPropertyOp18
 70
     0
102
RTVSPropertyOp19
 70
     0
102
RTVSPropertyOp20
 70
     0
102
RTVSPropertyOp21
 70
     0
102
RTVSPropertyOp22
 70
     0
102
RTVSPropertyOp23
 70
     0
102
RTVSPropertyOp24
 70
     0
102
RTVSPropertyOp25
 70
     0
102
RTVSPropertyOp26
 70
     0
102
RTVSPropertyOp27
 70
     0
102
RTVSPropertyOp28
 70
     1
102
RTVSPropertyOp29
 70
     1
102
RTVSPropertyOp30
 70
     1
102
RTVSPropertyOp31
 70
     1
102
RTVSPropertyOp32
 70
     1
102
RTVSPropertyOp33
 70
     1
102
RTVSPropertyOp34
 70
     1
102
RTVSPropertyOp35
 70
     1
102
RTVSPropertyOp36
 70
     1
102
RTVSPropertyOp37
 70
     0
102
RTVSPropertyOp38
 70
     0
102
RTVSPropertyOp39
 70
     0
102
RTVSPropertyOp40
 70
     0
102
RTVSPropertyOp41
 70
     0
102
RTVSPropertyOp42
 70
     0
102
RTVSPropertyOp43
 70
     0
102
RTVSPropertyOp44
 70
     0
102
RTVSPropertyOp45
 70
     1
102
RTVSPropertyOp46
 70
     0
102
RTVSPropertyOp47
 70
     0
102
RTVSPropertyOp48
 70
     0
102
RTVSPropertyOp49
 70
     1
102
RTVSPropertyOp50
 70
     0
102
RTVSPropertyOp51
 70
     0
102
RTVSPropertyOp52
 70
     0
102
RTVSPropertyOp53
 70
     0
102
RTVSPropertyOp54
 70
     0
102
RTVSPropertyOp55
 70
     1
102
RTVSPropertyOp56
 70
     0
102
RTVSPropertyOp57
 70
     0
102
RTVSPropertyOp58
 70
     0
102
RTVSPropertyOp59
 70
     0
102
RTVSPropertyOp60
 70
     0
102
RTVSPropertyOp61
 70
     0
102
RTVSPropertyOp62
 70
     0
  0
XRECORD
  5
9AF1
102
{ACAD_REACTORS
330
9AF0
102
}
330
9AF0
100
AcDbXrecord
280
     1
102
RTVSPost2010Prop28
280
     0
102
RTVSPost2010PropOp28
 70
     1
102
RTVSPost2010Prop29
280
     1
102
RTVSPost2010PropOp29
 70
     1
102
RTVSPost2010Prop30
280
     1
102
RTVSPost2010PropOp30
 70
     1
102
RTVSPost2010Prop31
280
     0
102
RTVSPost2010PropOp31
 70
     1
102
RTVSPost2010Prop32
280
     0
102
RTVSPost2010PropOp32
 70
     1
102
RTVSPost2010Prop33
280
     0
102
RTVSPost2010PropOp33
 70
     1
102
RTVSPost2010Prop34
280
     0
102
RTVSPost2010PropOp34
 70
     1
102
RTVSPost2010Prop35
280
     0
102
RTVSPost2010PropOp35
 70
     1
102
RTVSPost2010Prop36
280
     0
102
RTVSPost2010PropOp36
 70
     1
102
RTVSPost2010Prop37
 90
       50
102
RTVSPost2010PropOp37
 70
     1
102
RTVSPost2010Prop38
140
0.0
102
RTVSPost2010PropOp38
 70
     1
102
RTVSPost2010Prop39
140
1.0
102
RTVSPost2010PropOp39
 70
     1
102
RTVSPost2010Prop40
 90
        0
102
RTVSPost2010PropOp40
 70
     1
102
RTVSPost2010Prop41ColorIndex
 90
       18
102
RTVSPost2010Prop41ColorRGB
 90
        0
102
RTVSPost2010PropOp41
 70
     1
102
RTVSPost2010Prop42
 90
       50
102
RTVSPost2010PropOp42
 70
     1
102
RTVSPost2010Prop43
 90
        3
102
RTVSPost2010PropOp43
 70
     1
102
RTVSPost2010Prop44ColorIndex
 90
        5
102
RTVSPost2010Prop44ColorRGB
 90
      255
102
RTVSPost2010PropOp44
 70
     1
102
RTVSPost2010Prop45
280
     0
102
RTVSPost2010PropOp45
 70
     1
102
RTVSPost2010Prop46
 90
       50
102
RTVSPost2010PropOp46
 70
     1
102
RTVSPost2010Prop47
 90
       50
102
RTVSPost2010PropOp47
 70
     1
102
RTVSPost2010Prop48
 90
       50
102
RTVSPost2010PropOp48
 70
     1
102
RTVSPost2010Prop49
280
     0
102
RTVSPost2010PropOp49
 70
     1
102
RTVSPost2010Prop50
 90
       50
102
RTVSPost2010PropOp50
 70
     1
102
RTVSPost2010Prop51ColorIndex
 90
      256
102
RTVSPost2010Prop51ColorRGB
 90
-16777216
102
RTVSPost2010PropOp51
 70
     0
102
RTVSPost2010Prop52
140
1.0
102
RTVSPost2010PropOp52
 70
     0
102
RTVSPost2010Prop53
 90
        2
102
RTVSPost2010PropOp53
 70
     1
102
RTVSPost2010Prop54
  1
strokes_ogs.tif
102
RTVSPost2010PropOp54
 70
     1
102
RTVSPost2010Prop55
280
     0
102
RTVSPost2010PropOp55
 70
     1
102
RTVSPost2010Prop56
140
1.0
102
RTVSPost2010PropOp56
 70
     1
102
RTVSPost2010Prop57
140
1.0
102
RTVSPost2010PropOp57
 70
     1
102
RTVSPropertyOp0
 70
     1
102
RTVSPropertyOp1
 70
     1
102
RTVSPropertyOp2
 70
     1
102
RTVSPropertyOp3
 70
     1
102
RTVSPropertyOp4
 70
     1
102
RTVSPropertyOp5
 70
     1
102
RTVSPropertyOp6
 70
     1
102
RTVSPropertyOp7
 70
     1
102
RTVSPropertyOp8
 70
     1
102
RTVSPropertyOp9
 70
     1
102
RTVSPropertyOp10
 70
     1
102
RTVSPropertyOp11
 70
     1
102
RTVSPropertyOp12
 70
     1
102
RTVSPropertyOp13
 70
     1
102
RTVSPropertyOp14
 70
     1
102
RTVSPropertyOp15
 70
     1
102
RTVSPropertyOp16
 70
     1
102
RTVSPropertyOp17
 70
     1
102
RTVSPropertyOp18
 70
     1
102
RTVSPropertyOp19
 70
     1
102
RTVSPropertyOp20
 70
     1
102
RTVSPropertyOp21
 70
     1
102
RTVSPropertyOp22
 70
     1
102
RTVSPropertyOp23
 70
     1
102
RTVSPropertyOp24
 70
     1
102
RTVSPropertyOp25
 70
     1
102
RTVSPropertyOp26
 70
     1
102
RTVSPropertyOp27
 70
     1
102
RTVSPropertyOp28
 70
     1
102
RTVSPropertyOp29
 70
     1
102
RTVSPropertyOp30
 70
     1
102
RTVSPropertyOp31
 70
     1
102
RTVSPropertyOp32
 70
     1
102
RTVSPropertyOp33
 70
     1
102
RTVSPropertyOp34
 70
     1
102
RTVSPropertyOp35
 70
     1
102
RTVSPropertyOp36
 70
     1
102
RTVSPropertyOp37
 70
     1
102
RTVSPropertyOp38
 70
     1
102
RTVSPropertyOp39
 70
     1
102
RTVSPropertyOp40
 70
     1
102
RTVSPropertyOp41
 70
     1
102
RTVSPropertyOp42
 70
     1
102
RTVSPropertyOp43
 70
     1
102
RTVSPropertyOp44
 70
     1
102
RTVSPropertyOp45
 70
     1
102
RTVSPropertyOp46
 70
     1
102
RTVSPropertyOp47
 70
     1
102
RTVSPropertyOp48
 70
     1
102
RTVSPropertyOp49
 70
     1
102
RTVSPropertyOp50
 70
     1
102
RTVSPropertyOp51
 70
     0
102
RTVSPropertyOp52
 70
     0
102
RTVSPropertyOp53
 70
     1
102
RTVSPropertyOp54
 70
     1
102
RTVSPropertyOp55
 70
     1
102
RTVSPropertyOp56
 70
     1
102
RTVSPropertyOp57
 70
     1
102
RTVSPropertyOp58
 70
     1
102
RTVSPropertyOp59
 70
     1
102
RTVSPropertyOp60
 70
     1
102
RTVSPropertyOp61
 70
     1
102
RTVSPropertyOp62
 70
     1
  0
XRECORD
  5
9B03
102
{ACAD_REACTORS
330
9B02
102
}
330
9B02
100
AcDbXrecord
280
     1
102
RTVSPost2010Prop28
280
     0
102
RTVSPost2010PropOp28
 70
     1
102
RTVSPost2010Prop29
280
     1
102
RTVSPost2010PropOp29
 70
     1
102
RTVSPost2010Prop30
280
     1
102
RTVSPost2010PropOp30
 70
     1
102
RTVSPost2010Prop31
280
     0
102
RTVSPost2010PropOp31
 70
     1
102
RTVSPost2010Prop32
280
     0
102
RTVSPost2010PropOp32
 70
     1
102
RTVSPost2010Prop33
280
     0
102
RTVSPost2010PropOp33
 70
     1
102
RTVSPost2010Prop34
280
     0
102
RTVSPost2010PropOp34
 70
     1
102
RTVSPost2010Prop35
280
     0
102
RTVSPost2010PropOp35
 70
     1
102
RTVSPost2010Prop36
280
     0
102
RTVSPost2010PropOp36
 70
     1
102
RTVSPost2010Prop37
 90
       50
102
RTVSPost2010PropOp37
 70
     0
102
RTVSPost2010Prop38
140
0.0
102
RTVSPost2010PropOp38
 70
     0
102
RTVSPost2010Prop39
140
1.0
102
RTVSPost2010PropOp39
 70
     0
102
RTVSPost2010Prop40
 90
        0
102
RTVSPost2010PropOp40
 70
     0
102
RTVSPost2010Prop41ColorIndex
 90
       18
102
RTVSPost2010Prop41ColorRGB
 90
        0
102
RTVSPost2010PropOp41
 70
     0
102
RTVSPost2010Prop42
 90
       50
102
RTVSPost2010PropOp42
 70
     0
102
RTVSPost2010Prop43
 90
        3
102
RTVSPost2010PropOp43
 70
     0
102
RTVSPost2010Prop44ColorIndex
 90
        5
102
RTVSPost2010Prop44ColorRGB
 90
      255
102
RTVSPost2010PropOp44
 70
     0
102
RTVSPost2010Prop45
280
     0
102
RTVSPost2010PropOp45
 70
     1
102
RTVSPost2010Prop46
 90
       50
102
RTVSPost2010PropOp46
 70
     0
102
RTVSPost2010Prop47
 90
       50
102
RTVSPost2010PropOp47
 70
     0
102
RTVSPost2010Prop48
 90
       50
102
RTVSPost2010PropOp48
 70
     0
102
RTVSPost2010Prop49
280
     0
102
RTVSPost2010PropOp49
 70
     1
102
RTVSPost2010Prop50
 90
       50
102
RTVSPost2010PropOp50
 70
     0
102
RTVSPost2010Prop51ColorIndex
 90
      256
102
RTVSPost2010Prop51ColorRGB
 90
-16777216
102
RTVSPost2010PropOp51
 70
     0
102
RTVSPost2010Prop52
140
1.0
102
RTVSPost2010PropOp52
 70
     0
102
RTVSPost2010Prop53
 90
        2
102
RTVSPost2010PropOp53
 70
     0
102
RTVSPost2010Prop54
  1
strokes_ogs.tif
102
RTVSPost2010PropOp54
 70
     0
102
RTVSPost2010Prop55
280
     0
102
RTVSPost2010PropOp55
 70
     1
102
RTVSPost2010Prop56
140
1.0
102
RTVSPost2010PropOp56
 70
     0
102
RTVSPost2010Prop57
140
1.0
102
RTVSPost2010PropOp57
 70
     0
102
RTVSPropertyOp0
 70
     0
102
RTVSPropertyOp1
 70
     0
102
RTVSPropertyOp2
 70
     0
102
RTVSPropertyOp3
 70
     0
102
RTVSPropertyOp4
 70
     0
102
RTVSPropertyOp5
 70
     0
102
RTVSPropertyOp6
 70
     0
102
RTVSPropertyOp7
 70
     0
102
RTVSPropertyOp8
 70
     0
102
RTVSPropertyOp9
 70
     0
102
RTVSPropertyOp10
 70
     0
102
RTVSPropertyOp11
 70
     0
102
RTVSPropertyOp12
 70
     0
102
RTVSPropertyOp13
 70
     0
102
RTVSPropertyOp14
 70
     2
102
RTVSPropertyOp15
 70
     0
102
RTVSPropertyOp16
 70
     0
102
RTVSPropertyOp17
 70
     0
102
RTVSPropertyOp18
 70
     0
102
RTVSPropertyOp19
 70
     0
102
RTVSPropertyOp20
 70
     0
102
RTVSPropertyOp21
 70
     0
102
RTVSPropertyOp22
 70
     0
102
RTVSPropertyOp23
 70
     0
102
RTVSPropertyOp24
 70
     0
102
RTVSPropertyOp25
 70
     0
102
RTVSPropertyOp26
 70
     0
102
RTVSPropertyOp27
 70
     0
102
RTVSPropertyOp28
 70
     1
102
RTVSPropertyOp29
 70
     1
102
RTVSPropertyOp30
 70
     1
102
RTVSPropertyOp31
 70
     1
102
RTVSPropertyOp32
 70
     1
102
RTVSPropertyOp33
 70
     1
102
RTVSPropertyOp34
 70
     1
102
RTVSPropertyOp35
 70
     1
102
RTVSPropertyOp36
 70
     1
102
RTVSPropertyOp37
 70
     0
102
RTVSPropertyOp38
 70
     0
102
RTVSPropertyOp39
 70
     0
102
RTVSPropertyOp40
 70
     0
102
RTVSPropertyOp41
 70
     0
102
RTVSPropertyOp42
 70
     0
102
RTVSPropertyOp43
 70
     0
102
RTVSPropertyOp44
 70
     0
102
RTVSPropertyOp45
 70
     1
102
RTVSPropertyOp46
 70
     0
102
RTVSPropertyOp47
 70
     0
102
RTVSPropertyOp48
 70
     0
102
RTVSPropertyOp49
 70
     1
102
RTVSPropertyOp50
 70
     0
102
RTVSPropertyOp51
 70
     0
102
RTVSPropertyOp52
 70
     0
102
RTVSPropertyOp53
 70
     0
102
RTVSPropertyOp54
 70
     0
102
RTVSPropertyOp55
 70
     1
102
RTVSPropertyOp56
 70
     0
102
RTVSPropertyOp57
 70
     0
102
RTVSPropertyOp58
 70
     0
102
RTVSPropertyOp59
 70
     0
102
RTVSPropertyOp60
 70
     0
102
RTVSPropertyOp61
 70
     0
102
RTVSPropertyOp62
 70
     0
  0
XRECORD
  5
9AE9
102
{ACAD_REACTORS
330
9AE8
102
}
330
9AE8
100
AcDbXrecord
280
     1
102
RTVSPost2010Prop28
280
     0
102
RTVSPost2010PropOp28
 70
     1
102
RTVSPost2010Prop29
280
     1
102
RTVSPost2010PropOp29
 70
     1
102
RTVSPost2010Prop30
280
     1
102
RTVSPost2010PropOp30
 70
     1
102
RTVSPost2010Prop31
280
     0
102
RTVSPost2010PropOp31
 70
     1
102
RTVSPost2010Prop32
280
     0
102
RTVSPost2010PropOp32
 70
     1
102
RTVSPost2010Prop33
280
     0
102
RTVSPost2010PropOp33
 70
     1
102
RTVSPost2010Prop34
280
     0
102
RTVSPost2010PropOp34
 70
     1
102
RTVSPost2010Prop35
280
     0
102
RTVSPost2010PropOp35
 70
     1
102
RTVSPost2010Prop36
280
     0
102
RTVSPost2010PropOp36
 70
     1
102
RTVSPost2010Prop37
 90
       50
102
RTVSPost2010PropOp37
 70
     1
102
RTVSPost2010Prop38
140
0.0
102
RTVSPost2010PropOp38
 70
     1
102
RTVSPost2010Prop39
140
1.0
102
RTVSPost2010PropOp39
 70
     1
102
RTVSPost2010Prop40
 90
        0
102
RTVSPost2010PropOp40
 70
     1
102
RTVSPost2010Prop41ColorIndex
 90
       18
102
RTVSPost2010Prop41ColorRGB
 90
        0
102
RTVSPost2010PropOp41
 70
     1
102
RTVSPost2010Prop42
 90
       50
102
RTVSPost2010PropOp42
 70
     1
102
RTVSPost2010Prop43
 90
        3
102
RTVSPost2010PropOp43
 70
     1
102
RTVSPost2010Prop44ColorIndex
 90
        5
102
RTVSPost2010Prop44ColorRGB
 90
      255
102
RTVSPost2010PropOp44
 70
     1
102
RTVSPost2010Prop45
280
     0
102
RTVSPost2010PropOp45
 70
     1
102
RTVSPost2010Prop46
 90
       50
102
RTVSPost2010PropOp46
 70
     1
102
RTVSPost2010Prop47
 90
       50
102
RTVSPost2010PropOp47
 70
     1
102
RTVSPost2010Prop48
 90
       50
102
RTVSPost2010PropOp48
 70
     1
102
RTVSPost2010Prop49
280
     0
102
RTVSPost2010PropOp49
 70
     1
102
RTVSPost2010Prop50
 90
       50
102
RTVSPost2010PropOp50
 70
     1
102
RTVSPost2010Prop51ColorIndex
 90
      256
102
RTVSPost2010Prop51ColorRGB
 90
-16777216
102
RTVSPost2010PropOp51
 70
     0
102
RTVSPost2010Prop52
140
1.0
102
RTVSPost2010PropOp52
 70
     0
102
RTVSPost2010Prop53
 90
        2
102
RTVSPost2010PropOp53
 70
     1
102
RTVSPost2010Prop54
  1
strokes_ogs.tif
102
RTVSPost2010PropOp54
 70
     1
102
RTVSPost2010Prop55
280
     0
102
RTVSPost2010PropOp55
 70
     1
102
RTVSPost2010Prop56
140
1.0
102
RTVSPost2010PropOp56
 70
     1
102
RTVSPost2010Prop57
140
1.0
102
RTVSPost2010PropOp57
 70
     1
102
RTVSPropertyOp0
 70
     1
102
RTVSPropertyOp1
 70
     1
102
RTVSPropertyOp2
 70
     1
102
RTVSPropertyOp3
 70
     1
102
RTVSPropertyOp4
 70
     1
102
RTVSPropertyOp5
 70
     1
102
RTVSPropertyOp6
 70
     1
102
RTVSPropertyOp7
 70
     1
102
RTVSPropertyOp8
 70
     1
102
RTVSPropertyOp9
 70
     1
102
RTVSPropertyOp10
 70
     1
102
RTVSPropertyOp11
 70
     1
102
RTVSPropertyOp12
 70
     1
102
RTVSPropertyOp13
 70
     1
102
RTVSPropertyOp14
 70
     1
102
RTVSPropertyOp15
 70
     1
102
RTVSPropertyOp16
 70
     1
102
RTVSPropertyOp17
 70
     1
102
RTVSPropertyOp18
 70
     1
102
RTVSPropertyOp19
 70
     1
102
RTVSPropertyOp20
 70
     1
102
RTVSPropertyOp21
 70
     1
102
RTVSPropertyOp22
 70
     1
102
RTVSPropertyOp23
 70
     1
102
RTVSPropertyOp24
 70
     1
102
RTVSPropertyOp25
 70
     1
102
RTVSPropertyOp26
 70
     1
102
RTVSPropertyOp27
 70
     1
102
RTVSPropertyOp28
 70
     1
102
RTVSPropertyOp29
 70
     1
102
RTVSPropertyOp30
 70
     1
102
RTVSPropertyOp31
 70
     1
102
RTVSPropertyOp32
 70
     1
102
RTVSPropertyOp33
 70
     1
102
RTVSPropertyOp34
 70
     1
102
RTVSPropertyOp35
 70
     1
102
RTVSPropertyOp36
 70
     1
102
RTVSPropertyOp37
 70
     1
102
RTVSPropertyOp38
 70
     1
102
RTVSPropertyOp39
 70
     1
102
RTVSPropertyOp40
 70
     1
102
RTVSPropertyOp41
 70
     1
102
RTVSPropertyOp42
 70
     1
102
RTVSPropertyOp43
 70
     1
102
RTVSPropertyOp44
 70
     1
102
RTVSPropertyOp45
 70
     1
102
RTVSPropertyOp46
 70
     1
102
RTVSPropertyOp47
 70
     1
102
RTVSPropertyOp48
 70
     1
102
RTVSPropertyOp49
 70
     1
102
RTVSPropertyOp50
 70
     1
102
RTVSPropertyOp51
 70
     0
102
RTVSPropertyOp52
 70
     0
102
RTVSPropertyOp53
 70
     1
102
RTVSPropertyOp54
 70
     1
102
RTVSPropertyOp55
 70
     1
102
RTVSPropertyOp56
 70
     1
102
RTVSPropertyOp57
 70
     1
102
RTVSPropertyOp58
 70
     1
102
RTVSPropertyOp59
 70
     1
102
RTVSPropertyOp60
 70
     1
102
RTVSPropertyOp61
 70
     1
102
RTVSPropertyOp62
 70
     1
  0
XRECORD
  5
9AFF
102
{ACAD_REACTORS
330
9AFE
102
}
330
9AFE
100
AcDbXrecord
280
     1
102
RTVSPost2010Prop28
280
     0
102
RTVSPost2010PropOp28
 70
     1
102
RTVSPost2010Prop29
280
     1
102
RTVSPost2010PropOp29
 70
     1
102
RTVSPost2010Prop30
280
     1
102
RTVSPost2010PropOp30
 70
     1
102
RTVSPost2010Prop31
280
     0
102
RTVSPost2010PropOp31
 70
     1
102
RTVSPost2010Prop32
280
     0
102
RTVSPost2010PropOp32
 70
     1
102
RTVSPost2010Prop33
280
     0
102
RTVSPost2010PropOp33
 70
     1
102
RTVSPost2010Prop34
280
     0
102
RTVSPost2010PropOp34
 70
     1
102
RTVSPost2010Prop35
280
     0
102
RTVSPost2010PropOp35
 70
     1
102
RTVSPost2010Prop36
280
     0
102
RTVSPost2010PropOp36
 70
     1
102
RTVSPost2010Prop37
 90
       50
102
RTVSPost2010PropOp37
 70
     1
102
RTVSPost2010Prop38
140
0.0
102
RTVSPost2010PropOp38
 70
     1
102
RTVSPost2010Prop39
140
1.0
102
RTVSPost2010PropOp39
 70
     1
102
RTVSPost2010Prop40
 90
        0
102
RTVSPost2010PropOp40
 70
     1
102
RTVSPost2010Prop41ColorIndex
 90
       18
102
RTVSPost2010Prop41ColorRGB
 90
        0
102
RTVSPost2010PropOp41
 70
     1
102
RTVSPost2010Prop42
 90
       50
102
RTVSPost2010PropOp42
 70
     1
102
RTVSPost2010Prop43
 90
        3
102
RTVSPost2010PropOp43
 70
     1
102
RTVSPost2010Prop44ColorIndex
 90
        5
102
RTVSPost2010Prop44ColorRGB
 90
      255
102
RTVSPost2010PropOp44
 70
     1
102
RTVSPost2010Prop45
280
     0
102
RTVSPost2010PropOp45
 70
     1
102
RTVSPost2010Prop46
 90
       50
102
RTVSPost2010PropOp46
 70
     1
102
RTVSPost2010Prop47
 90
       50
102
RTVSPost2010PropOp47
 70
     1
102
RTVSPost2010Prop48
 90
       50
102
RTVSPost2010PropOp48
 70
     1
102
RTVSPost2010Prop49
280
     0
102
RTVSPost2010PropOp49
 70
     1
102
RTVSPost2010Prop50
 90
       50
102
RTVSPost2010PropOp50
 70
     1
102
RTVSPost2010Prop51ColorIndex
 90
      256
102
RTVSPost2010Prop51ColorRGB
 90
-16777216
102
RTVSPost2010PropOp51
 70
     0
102
RTVSPost2010Prop52
140
1.0
102
RTVSPost2010PropOp52
 70
     0
102
RTVSPost2010Prop53
 90
        2
102
RTVSPost2010PropOp53
 70
     1
102
RTVSPost2010Prop54
  1
strokes_ogs.tif
102
RTVSPost2010PropOp54
 70
     1
102
RTVSPost2010Prop55
280
     0
102
RTVSPost2010PropOp55
 70
     1
102
RTVSPost2010Prop56
140
1.0
102
RTVSPost2010PropOp56
 70
     1
102
RTVSPost2010Prop57
140
1.0
102
RTVSPost2010PropOp57
 70
     1
102
RTVSPropertyOp0
 70
     1
102
RTVSPropertyOp1
 70
     1
102
RTVSPropertyOp2
 70
     1
102
RTVSPropertyOp3
 70
     1
102
RTVSPropertyOp4
 70
     1
102
RTVSPropertyOp5
 70
     1
102
RTVSPropertyOp6
 70
     1
102
RTVSPropertyOp7
 70
     1
102
RTVSPropertyOp8
 70
     1
102
RTVSPropertyOp9
 70
     1
102
RTVSPropertyOp10
 70
     1
102
RTVSPropertyOp11
 70
     1
102
RTVSPropertyOp12
 70
     1
102
RTVSPropertyOp13
 70
     1
102
RTVSPropertyOp14
 70
     1
102
RTVSPropertyOp15
 70
     1
102
RTVSPropertyOp16
 70
     1
102
RTVSPropertyOp17
 70
     1
102
RTVSPropertyOp18
 70
     1
102
RTVSPropertyOp19
 70
     1
102
RTVSPropertyOp20
 70
     1
102
RTVSPropertyOp21
 70
     1
102
RTVSPropertyOp22
 70
     1
102
RTVSPropertyOp23
 70
     1
102
RTVSPropertyOp24
 70
     1
102
RTVSPropertyOp25
 70
     1
102
RTVSPropertyOp26
 70
     1
102
RTVSPropertyOp27
 70
     1
102
RTVSPropertyOp28
 70
     1
102
RTVSPropertyOp29
 70
     1
102
RTVSPropertyOp30
 70
     1
102
RTVSPropertyOp31
 70
     1
102
RTVSPropertyOp32
 70
     1
102
RTVSPropertyOp33
 70
     1
102
RTVSPropertyOp34
 70
     1
102
RTVSPropertyOp35
 70
     1
102
RTVSPropertyOp36
 70
     1
102
RTVSPropertyOp37
 70
     1
102
RTVSPropertyOp38
 70
     1
102
RTVSPropertyOp39
 70
     1
102
RTVSPropertyOp40
 70
     1
102
RTVSPropertyOp41
 70
     1
102
RTVSPropertyOp42
 70
     1
102
RTVSPropertyOp43
 70
     1
102
RTVSPropertyOp44
 70
     1
102
RTVSPropertyOp45
 70
     1
102
RTVSPropertyOp46
 70
     1
102
RTVSPropertyOp47
 70
     1
102
RTVSPropertyOp48
 70
     1
102
RTVSPropertyOp49
 70
     1
102
RTVSPropertyOp50
 70
     1
102
RTVSPropertyOp51
 70
     0
102
RTVSPropertyOp52
 70
     0
102
RTVSPropertyOp53
 70
     1
102
RTVSPropertyOp54
 70
     1
102
RTVSPropertyOp55
 70
     1
102
RTVSPropertyOp56
 70
     1
102
RTVSPropertyOp57
 70
     1
102
RTVSPropertyOp58
 70
     1
102
RTVSPropertyOp59
 70
     1
102
RTVSPropertyOp60
 70
     1
102
RTVSPropertyOp61
 70
     1
102
RTVSPropertyOp62
 70
     1
  0
XRECORD
  5
9AFD
102
{ACAD_REACTORS
330
9AFC
102
}
330
9AFC
100
AcDbXrecord
280
     1
102
RTVSPost2010Prop28
280
     0
102
RTVSPost2010PropOp28
 70
     1
102
RTVSPost2010Prop29
280
     1
102
RTVSPost2010PropOp29
 70
     1
102
RTVSPost2010Prop30
280
     1
102
RTVSPost2010PropOp30
 70
     1
102
RTVSPost2010Prop31
280
     0
102
RTVSPost2010PropOp31
 70
     1
102
RTVSPost2010Prop32
280
     0
102
RTVSPost2010PropOp32
 70
     1
102
RTVSPost2010Prop33
280
     0
102
RTVSPost2010PropOp33
 70
     1
102
RTVSPost2010Prop34
280
     0
102
RTVSPost2010PropOp34
 70
     1
102
RTVSPost2010Prop35
280
     0
102
RTVSPost2010PropOp35
 70
     1
102
RTVSPost2010Prop36
280
     0
102
RTVSPost2010PropOp36
 70
     1
102
RTVSPost2010Prop37
 90
       50
102
RTVSPost2010PropOp37
 70
     1
102
RTVSPost2010Prop38
140
0.0
102
RTVSPost2010PropOp38
 70
     1
102
RTVSPost2010Prop39
140
1.0
102
RTVSPost2010PropOp39
 70
     1
102
RTVSPost2010Prop40
 90
        0
102
RTVSPost2010PropOp40
 70
     1
102
RTVSPost2010Prop41ColorIndex
 90
       18
102
RTVSPost2010Prop41ColorRGB
 90
        0
102
RTVSPost2010PropOp41
 70
     1
102
RTVSPost2010Prop42
 90
       50
102
RTVSPost2010PropOp42
 70
     1
102
RTVSPost2010Prop43
 90
        3
102
RTVSPost2010PropOp43
 70
     1
102
RTVSPost2010Prop44ColorIndex
 90
        5
102
RTVSPost2010Prop44ColorRGB
 90
      255
102
RTVSPost2010PropOp44
 70
     1
102
RTVSPost2010Prop45
280
     0
102
RTVSPost2010PropOp45
 70
     1
102
RTVSPost2010Prop46
 90
       50
102
RTVSPost2010PropOp46
 70
     1
102
RTVSPost2010Prop47
 90
       50
102
RTVSPost2010PropOp47
 70
     1
102
RTVSPost2010Prop48
 90
       50
102
RTVSPost2010PropOp48
 70
     1
102
RTVSPost2010Prop49
280
     0
102
RTVSPost2010PropOp49
 70
     1
102
RTVSPost2010Prop50
 90
       50
102
RTVSPost2010PropOp50
 70
     1
102
RTVSPost2010Prop51ColorIndex
 90
      256
102
RTVSPost2010Prop51ColorRGB
 90
-16777216
102
RTVSPost2010PropOp51
 70
     0
102
RTVSPost2010Prop52
140
1.0
102
RTVSPost2010PropOp52
 70
     0
102
RTVSPost2010Prop53
 90
        2
102
RTVSPost2010PropOp53
 70
     1
102
RTVSPost2010Prop54
  1
strokes_ogs.tif
102
RTVSPost2010PropOp54
 70
     1
102
RTVSPost2010Prop55
280
     0
102
RTVSPost2010PropOp55
 70
     1
102
RTVSPost2010Prop56
140
1.0
102
RTVSPost2010PropOp56
 70
     1
102
RTVSPost2010Prop57
140
1.0
102
RTVSPost2010PropOp57
 70
     1
102
RTVSPropertyOp0
 70
     1
102
RTVSPropertyOp1
 70
     1
102
RTVSPropertyOp2
 70
     1
102
RTVSPropertyOp3
 70
     1
102
RTVSPropertyOp4
 70
     1
102
RTVSPropertyOp5
 70
     1
102
RTVSPropertyOp6
 70
     1
102
RTVSPropertyOp7
 70
     1
102
RTVSPropertyOp8
 70
     1
102
RTVSPropertyOp9
 70
     1
102
RTVSPropertyOp10
 70
     1
102
RTVSPropertyOp11
 70
     1
102
RTVSPropertyOp12
 70
     1
102
RTVSPropertyOp13
 70
     1
102
RTVSPropertyOp14
 70
     1
102
RTVSPropertyOp15
 70
     1
102
RTVSPropertyOp16
 70
     1
102
RTVSPropertyOp17
 70
     1
102
RTVSPropertyOp18
 70
     1
102
RTVSPropertyOp19
 70
     1
102
RTVSPropertyOp20
 70
     1
102
RTVSPropertyOp21
 70
     1
102
RTVSPropertyOp22
 70
     1
102
RTVSPropertyOp23
 70
     1
102
RTVSPropertyOp24
 70
     1
102
RTVSPropertyOp25
 70
     1
102
RTVSPropertyOp26
 70
     1
102
RTVSPropertyOp27
 70
     1
102
RTVSPropertyOp28
 70
     1
102
RTVSPropertyOp29
 70
     1
102
RTVSPropertyOp30
 70
     1
102
RTVSPropertyOp31
 70
     1
102
RTVSPropertyOp32
 70
     1
102
RTVSPropertyOp33
 70
     1
102
RTVSPropertyOp34
 70
     1
102
RTVSPropertyOp35
 70
     1
102
RTVSPropertyOp36
 70
     1
102
RTVSPropertyOp37
 70
     1
102
RTVSPropertyOp38
 70
     1
102
RTVSPropertyOp39
 70
     1
102
RTVSPropertyOp40
 70
     1
102
RTVSPropertyOp41
 70
     1
102
RTVSPropertyOp42
 70
     1
102
RTVSPropertyOp43
 70
     1
102
RTVSPropertyOp44
 70
     1
102
RTVSPropertyOp45
 70
     1
102
RTVSPropertyOp46
 70
     1
102
RTVSPropertyOp47
 70
     1
102
RTVSPropertyOp48
 70
     1
102
RTVSPropertyOp49
 70
     1
102
RTVSPropertyOp50
 70
     1
102
RTVSPropertyOp51
 70
     0
102
RTVSPropertyOp52
 70
     0
102
RTVSPropertyOp53
 70
     1
102
RTVSPropertyOp54
 70
     1
102
RTVSPropertyOp55
 70
     1
102
RTVSPropertyOp56
 70
     1
102
RTVSPropertyOp57
 70
     1
102
RTVSPropertyOp58
 70
     1
102
RTVSPropertyOp59
 70
     1
102
RTVSPropertyOp60
 70
     1
102
RTVSPropertyOp61
 70
     1
102
RTVSPropertyOp62
 70
     1
  0
XRECORD
  5
9AF7
102
{ACAD_REACTORS
330
9AF6
102
}
330
9AF6
100
AcDbXrecord
280
     1
102
RTVSPost2010Prop28
280
     0
102
RTVSPost2010PropOp28
 70
     1
102
RTVSPost2010Prop29
280
     1
102
RTVSPost2010PropOp29
 70
     1
102
RTVSPost2010Prop30
280
     1
102
RTVSPost2010PropOp30
 70
     1
102
RTVSPost2010Prop31
280
     0
102
RTVSPost2010PropOp31
 70
     1
102
RTVSPost2010Prop32
280
     0
102
RTVSPost2010PropOp32
 70
     1
102
RTVSPost2010Prop33
280
     0
102
RTVSPost2010PropOp33
 70
     1
102
RTVSPost2010Prop34
280
     0
102
RTVSPost2010PropOp34
 70
     1
102
RTVSPost2010Prop35
280
     0
102
RTVSPost2010PropOp35
 70
     1
102
RTVSPost2010Prop36
280
     0
102
RTVSPost2010PropOp36
 70
     1
102
RTVSPost2010Prop37
 90
       50
102
RTVSPost2010PropOp37
 70
     1
102
RTVSPost2010Prop38
140
0.0
102
RTVSPost2010PropOp38
 70
     1
102
RTVSPost2010Prop39
140
1.0
102
RTVSPost2010PropOp39
 70
     1
102
RTVSPost2010Prop40
 90
        0
102
RTVSPost2010PropOp40
 70
     1
102
RTVSPost2010Prop41ColorIndex
 90
       18
102
RTVSPost2010Prop41ColorRGB
 90
        0
102
RTVSPost2010PropOp41
 70
     1
102
RTVSPost2010Prop42
 90
       50
102
RTVSPost2010PropOp42
 70
     1
102
RTVSPost2010Prop43
 90
        3
102
RTVSPost2010PropOp43
 70
     1
102
RTVSPost2010Prop44ColorIndex
 90
        5
102
RTVSPost2010Prop44ColorRGB
 90
      255
102
RTVSPost2010PropOp44
 70
     1
102
RTVSPost2010Prop45
280
     0
102
RTVSPost2010PropOp45
 70
     1
102
RTVSPost2010Prop46
 90
       50
102
RTVSPost2010PropOp46
 70
     1
102
RTVSPost2010Prop47
 90
       50
102
RTVSPost2010PropOp47
 70
     1
102
RTVSPost2010Prop48
 90
       50
102
RTVSPost2010PropOp48
 70
     1
102
RTVSPost2010Prop49
280
     0
102
RTVSPost2010PropOp49
 70
     1
102
RTVSPost2010Prop50
 90
       50
102
RTVSPost2010PropOp50
 70
     1
102
RTVSPost2010Prop51ColorIndex
 90
      256
102
RTVSPost2010Prop51ColorRGB
 90
-16777216
102
RTVSPost2010PropOp51
 70
     0
102
RTVSPost2010Prop52
140
1.0
102
RTVSPost2010PropOp52
 70
     0
102
RTVSPost2010Prop53
 90
        2
102
RTVSPost2010PropOp53
 70
     1
102
RTVSPost2010Prop54
  1
strokes_ogs.tif
102
RTVSPost2010PropOp54
 70
     1
102
RTVSPost2010Prop55
280
     0
102
RTVSPost2010PropOp55
 70
     1
102
RTVSPost2010Prop56
140
1.0
102
RTVSPost2010PropOp56
 70
     1
102
RTVSPost2010Prop57
140
1.0
102
RTVSPost2010PropOp57
 70
     1
102
RTVSPropertyOp0
 70
     1
102
RTVSPropertyOp1
 70
     1
102
RTVSPropertyOp2
 70
     1
102
RTVSPropertyOp3
 70
     1
102
RTVSPropertyOp4
 70
     1
102
RTVSPropertyOp5
 70
     1
102
RTVSPropertyOp6
 70
     1
102
RTVSPropertyOp7
 70
     1
102
RTVSPropertyOp8
 70
     1
102
RTVSPropertyOp9
 70
     1
102
RTVSPropertyOp10
 70
     1
102
RTVSPropertyOp11
 70
     1
102
RTVSPropertyOp12
 70
     1
102
RTVSPropertyOp13
 70
     1
102
RTVSPropertyOp14
 70
     1
102
RTVSPropertyOp15
 70
     1
102
RTVSPropertyOp16
 70
     1
102
RTVSPropertyOp17
 70
     1
102
RTVSPropertyOp18
 70
     1
102
RTVSPropertyOp19
 70
     1
102
RTVSPropertyOp20
 70
     1
102
RTVSPropertyOp21
 70
     1
102
RTVSPropertyOp22
 70
     1
102
RTVSPropertyOp23
 70
     1
102
RTVSPropertyOp24
 70
     1
102
RTVSPropertyOp25
 70
     1
102
RTVSPropertyOp26
 70
     1
102
RTVSPropertyOp27
 70
     1
102
RTVSPropertyOp28
 70
     1
102
RTVSPropertyOp29
 70
     1
102
RTVSPropertyOp30
 70
     1
102
RTVSPropertyOp31
 70
     1
102
RTVSPropertyOp32
 70
     1
102
RTVSPropertyOp33
 70
     1
102
RTVSPropertyOp34
 70
     1
102
RTVSPropertyOp35
 70
     1
102
RTVSPropertyOp36
 70
     1
102
RTVSPropertyOp37
 70
     1
102
RTVSPropertyOp38
 70
     1
102
RTVSPropertyOp39
 70
     1
102
RTVSPropertyOp40
 70
     1
102
RTVSPropertyOp41
 70
     1
102
RTVSPropertyOp42
 70
     1
102
RTVSPropertyOp43
 70
     1
102
RTVSPropertyOp44
 70
     1
102
RTVSPropertyOp45
 70
     1
102
RTVSPropertyOp46
 70
     1
102
RTVSPropertyOp47
 70
     1
102
RTVSPropertyOp48
 70
     1
102
RTVSPropertyOp49
 70
     1
102
RTVSPropertyOp50
 70
     1
102
RTVSPropertyOp51
 70
     0
102
RTVSPropertyOp52
 70
     0
102
RTVSPropertyOp53
 70
     1
102
RTVSPropertyOp54
 70
     1
102
RTVSPropertyOp55
 70
     1
102
RTVSPropertyOp56
 70
     1
102
RTVSPropertyOp57
 70
     1
102
RTVSPropertyOp58
 70
     1
102
RTVSPropertyOp59
 70
     1
102
RTVSPropertyOp60
 70
     1
102
RTVSPropertyOp61
 70
     1
102
RTVSPropertyOp62
 70
     1
  0
XRECORD
  5
9AF9
102
{ACAD_REACTORS
330
9AF8
102
}
330
9AF8
100
AcDbXrecord
280
     1
102
RTVSPost2010Prop28
280
     0
102
RTVSPost2010PropOp28
 70
     1
102
RTVSPost2010Prop29
280
     1
102
RTVSPost2010PropOp29
 70
     1
102
RTVSPost2010Prop30
280
     1
102
RTVSPost2010PropOp30
 70
     1
102
RTVSPost2010Prop31
280
     0
102
RTVSPost2010PropOp31
 70
     1
102
RTVSPost2010Prop32
280
     0
102
RTVSPost2010PropOp32
 70
     1
102
RTVSPost2010Prop33
280
     0
102
RTVSPost2010PropOp33
 70
     1
102
RTVSPost2010Prop34
280
     0
102
RTVSPost2010PropOp34
 70
     1
102
RTVSPost2010Prop35
280
     0
102
RTVSPost2010PropOp35
 70
     1
102
RTVSPost2010Prop36
280
     0
102
RTVSPost2010PropOp36
 70
     1
102
RTVSPost2010Prop37
 90
       50
102
RTVSPost2010PropOp37
 70
     1
102
RTVSPost2010Prop38
140
0.0
102
RTVSPost2010PropOp38
 70
     1
102
RTVSPost2010Prop39
140
1.0
102
RTVSPost2010PropOp39
 70
     1
102
RTVSPost2010Prop40
 90
        0
102
RTVSPost2010PropOp40
 70
     1
102
RTVSPost2010Prop41ColorIndex
 90
       18
102
RTVSPost2010Prop41ColorRGB
 90
        0
102
RTVSPost2010PropOp41
 70
     1
102
RTVSPost2010Prop42
 90
       50
102
RTVSPost2010PropOp42
 70
     1
102
RTVSPost2010Prop43
 90
        3
102
RTVSPost2010PropOp43
 70
     1
102
RTVSPost2010Prop44ColorIndex
 90
        5
102
RTVSPost2010Prop44ColorRGB
 90
      255
102
RTVSPost2010PropOp44
 70
     1
102
RTVSPost2010Prop45
280
     0
102
RTVSPost2010PropOp45
 70
     1
102
RTVSPost2010Prop46
 90
       50
102
RTVSPost2010PropOp46
 70
     1
102
RTVSPost2010Prop47
 90
       50
102
RTVSPost2010PropOp47
 70
     1
102
RTVSPost2010Prop48
 90
       50
102
RTVSPost2010PropOp48
 70
     1
102
RTVSPost2010Prop49
280
     0
102
RTVSPost2010PropOp49
 70
     1
102
RTVSPost2010Prop50
 90
       50
102
RTVSPost2010PropOp50
 70
     1
102
RTVSPost2010Prop51ColorIndex
 90
      256
102
RTVSPost2010Prop51ColorRGB
 90
-16777216
102
RTVSPost2010PropOp51
 70
     0
102
RTVSPost2010Prop52
140
1.0
102
RTVSPost2010PropOp52
 70
     0
102
RTVSPost2010Prop53
 90
        2
102
RTVSPost2010PropOp53
 70
     1
102
RTVSPost2010Prop54
  1
strokes_ogs.tif
102
RTVSPost2010PropOp54
 70
     1
102
RTVSPost2010Prop55
280
     0
102
RTVSPost2010PropOp55
 70
     1
102
RTVSPost2010Prop56
140
1.0
102
RTVSPost2010PropOp56
 70
     1
102
RTVSPost2010Prop57
140
1.0
102
RTVSPost2010PropOp57
 70
     1
102
RTVSPropertyOp0
 70
     1
102
RTVSPropertyOp1
 70
     1
102
RTVSPropertyOp2
 70
     1
102
RTVSPropertyOp3
 70
     1
102
RTVSPropertyOp4
 70
     1
102
RTVSPropertyOp5
 70
     1
102
RTVSPropertyOp6
 70
     1
102
RTVSPropertyOp7
 70
     1
102
RTVSPropertyOp8
 70
     1
102
RTVSPropertyOp9
 70
     1
102
RTVSPropertyOp10
 70
     1
102
RTVSPropertyOp11
 70
     1
102
RTVSPropertyOp12
 70
     1
102
RTVSPropertyOp13
 70
     1
102
RTVSPropertyOp14
 70
     1
102
RTVSPropertyOp15
 70
     1
102
RTVSPropertyOp16
 70
     1
102
RTVSPropertyOp17
 70
     1
102
RTVSPropertyOp18
 70
     1
102
RTVSPropertyOp19
 70
     1
102
RTVSPropertyOp20
 70
     1
102
RTVSPropertyOp21
 70
     1
102
RTVSPropertyOp22
 70
     1
102
RTVSPropertyOp23
 70
     1
102
RTVSPropertyOp24
 70
     1
102
RTVSPropertyOp25
 70
     1
102
RTVSPropertyOp26
 70
     1
102
RTVSPropertyOp27
 70
     1
102
RTVSPropertyOp28
 70
     1
102
RTVSPropertyOp29
 70
     1
102
RTVSPropertyOp30
 70
     1
102
RTVSPropertyOp31
 70
     1
102
RTVSPropertyOp32
 70
     1
102
RTVSPropertyOp33
 70
     1
102
RTVSPropertyOp34
 70
     1
102
RTVSPropertyOp35
 70
     1
102
RTVSPropertyOp36
 70
     1
102
RTVSPropertyOp37
 70
     1
102
RTVSPropertyOp38
 70
     1
102
RTVSPropertyOp39
 70
     1
102
RTVSPropertyOp40
 70
     1
102
RTVSPropertyOp41
 70
     1
102
RTVSPropertyOp42
 70
     1
102
RTVSPropertyOp43
 70
     1
102
RTVSPropertyOp44
 70
     1
102
RTVSPropertyOp45
 70
     1
102
RTVSPropertyOp46
 70
     1
102
RTVSPropertyOp47
 70
     1
102
RTVSPropertyOp48
 70
     1
102
RTVSPropertyOp49
 70
     1
102
RTVSPropertyOp50
 70
     1
102
RTVSPropertyOp51
 70
     0
102
RTVSPropertyOp52
 70
     0
102
RTVSPropertyOp53
 70
     1
102
RTVSPropertyOp54
 70
     1
102
RTVSPropertyOp55
 70
     1
102
RTVSPropertyOp56
 70
     1
102
RTVSPropertyOp57
 70
     1
102
RTVSPropertyOp58
 70
     1
102
RTVSPropertyOp59
 70
     1
102
RTVSPropertyOp60
 70
     1
102
RTVSPropertyOp61
 70
     1
102
RTVSPropertyOp62
 70
     1
  0
XRECORD
  5
9AEF
102
{ACAD_REACTORS
330
9AEE
102
}
330
9AEE
100
AcDbXrecord
280
     1
102
RTVSPost2010Prop28
280
     0
102
RTVSPost2010PropOp28
 70
     1
102
RTVSPost2010Prop29
280
     1
102
RTVSPost2010PropOp29
 70
     1
102
RTVSPost2010Prop30
280
     1
102
RTVSPost2010PropOp30
 70
     1
102
RTVSPost2010Prop31
280
     0
102
RTVSPost2010PropOp31
 70
     1
102
RTVSPost2010Prop32
280
     0
102
RTVSPost2010PropOp32
 70
     1
102
RTVSPost2010Prop33
280
     0
102
RTVSPost2010PropOp33
 70
     1
102
RTVSPost2010Prop34
280
     0
102
RTVSPost2010PropOp34
 70
     1
102
RTVSPost2010Prop35
280
     0
102
RTVSPost2010PropOp35
 70
     1
102
RTVSPost2010Prop36
280
     0
102
RTVSPost2010PropOp36
 70
     1
102
RTVSPost2010Prop37
 90
       50
102
RTVSPost2010PropOp37
 70
     1
102
RTVSPost2010Prop38
140
0.0
102
RTVSPost2010PropOp38
 70
     1
102
RTVSPost2010Prop39
140
1.0
102
RTVSPost2010PropOp39
 70
     1
102
RTVSPost2010Prop40
 90
        0
102
RTVSPost2010PropOp40
 70
     1
102
RTVSPost2010Prop41ColorIndex
 90
       18
102
RTVSPost2010Prop41ColorRGB
 90
        0
102
RTVSPost2010PropOp41
 70
     1
102
RTVSPost2010Prop42
 90
       50
102
RTVSPost2010PropOp42
 70
     1
102
RTVSPost2010Prop43
 90
        3
102
RTVSPost2010PropOp43
 70
     1
102
RTVSPost2010Prop44ColorIndex
 90
        5
102
RTVSPost2010Prop44ColorRGB
 90
      255
102
RTVSPost2010PropOp44
 70
     1
102
RTVSPost2010Prop45
280
     0
102
RTVSPost2010PropOp45
 70
     1
102
RTVSPost2010Prop46
 90
       50
102
RTVSPost2010PropOp46
 70
     1
102
RTVSPost2010Prop47
 90
       50
102
RTVSPost2010PropOp47
 70
     1
102
RTVSPost2010Prop48
 90
       50
102
RTVSPost2010PropOp48
 70
     1
102
RTVSPost2010Prop49
280
     0
102
RTVSPost2010PropOp49
 70
     1
102
RTVSPost2010Prop50
 90
       50
102
RTVSPost2010PropOp50
 70
     1
102
RTVSPost2010Prop51ColorIndex
 90
      256
102
RTVSPost2010Prop51ColorRGB
 90
-16777216
102
RTVSPost2010PropOp51
 70
     0
102
RTVSPost2010Prop52
140
1.0
102
RTVSPost2010PropOp52
 70
     0
102
RTVSPost2010Prop53
 90
        2
102
RTVSPost2010PropOp53
 70
     1
102
RTVSPost2010Prop54
  1
strokes_ogs.tif
102
RTVSPost2010PropOp54
 70
     1
102
RTVSPost2010Prop55
280
     0
102
RTVSPost2010PropOp55
 70
     1
102
RTVSPost2010Prop56
140
1.0
102
RTVSPost2010PropOp56
 70
     1
102
RTVSPost2010Prop57
140
1.0
102
RTVSPost2010PropOp57
 70
     1
102
RTVSPropertyOp0
 70
     1
102
RTVSPropertyOp1
 70
     1
102
RTVSPropertyOp2
 70
     1
102
RTVSPropertyOp3
 70
     1
102
RTVSPropertyOp4
 70
     1
102
RTVSPropertyOp5
 70
     1
102
RTVSPropertyOp6
 70
     1
102
RTVSPropertyOp7
 70
     1
102
RTVSPropertyOp8
 70
     1
102
RTVSPropertyOp9
 70
     1
102
RTVSPropertyOp10
 70
     1
102
RTVSPropertyOp11
 70
     1
102
RTVSPropertyOp12
 70
     1
102
RTVSPropertyOp13
 70
     1
102
RTVSPropertyOp14
 70
     1
102
RTVSPropertyOp15
 70
     1
102
RTVSPropertyOp16
 70
     1
102
RTVSPropertyOp17
 70
     1
102
RTVSPropertyOp18
 70
     1
102
RTVSPropertyOp19
 70
     1
102
RTVSPropertyOp20
 70
     1
102
RTVSPropertyOp21
 70
     1
102
RTVSPropertyOp22
 70
     1
102
RTVSPropertyOp23
 70
     1
102
RTVSPropertyOp24
 70
     1
102
RTVSPropertyOp25
 70
     1
102
RTVSPropertyOp26
 70
     1
102
RTVSPropertyOp27
 70
     1
102
RTVSPropertyOp28
 70
     1
102
RTVSPropertyOp29
 70
     1
102
RTVSPropertyOp30
 70
     1
102
RTVSPropertyOp31
 70
     1
102
RTVSPropertyOp32
 70
     1
102
RTVSPropertyOp33
 70
     1
102
RTVSPropertyOp34
 70
     1
102
RTVSPropertyOp35
 70
     1
102
RTVSPropertyOp36
 70
     1
102
RTVSPropertyOp37
 70
     1
102
RTVSPropertyOp38
 70
     1
102
RTVSPropertyOp39
 70
     1
102
RTVSPropertyOp40
 70
     1
102
RTVSPropertyOp41
 70
     1
102
RTVSPropertyOp42
 70
     1
102
RTVSPropertyOp43
 70
     1
102
RTVSPropertyOp44
 70
     1
102
RTVSPropertyOp45
 70
     1
102
RTVSPropertyOp46
 70
     1
102
RTVSPropertyOp47
 70
     1
102
RTVSPropertyOp48
 70
     1
102
RTVSPropertyOp49
 70
     1
102
RTVSPropertyOp50
 70
     1
102
RTVSPropertyOp51
 70
     0
102
RTVSPropertyOp52
 70
     0
102
RTVSPropertyOp53
 70
     1
102
RTVSPropertyOp54
 70
     1
102
RTVSPropertyOp55
 70
     1
102
RTVSPropertyOp56
 70
     1
102
RTVSPropertyOp57
 70
     1
102
RTVSPropertyOp58
 70
     1
102
RTVSPropertyOp59
 70
     1
102
RTVSPropertyOp60
 70
     1
102
RTVSPropertyOp61
 70
     1
102
RTVSPropertyOp62
 70
     1
  0
XRECORD
  5
9AE3
102
{ACAD_REACTORS
330
9AE2
102
}
330
9AE2
100
AcDbXrecord
280
     1
102
RTVSPost2010Prop28
280
     0
102
RTVSPost2010PropOp28
 70
     1
102
RTVSPost2010Prop29
280
     1
102
RTVSPost2010PropOp29
 70
     1
102
RTVSPost2010Prop30
280
     1
102
RTVSPost2010PropOp30
 70
     1
102
RTVSPost2010Prop31
280
     0
102
RTVSPost2010PropOp31
 70
     1
102
RTVSPost2010Prop32
280
     0
102
RTVSPost2010PropOp32
 70
     1
102
RTVSPost2010Prop33
280
     0
102
RTVSPost2010PropOp33
 70
     1
102
RTVSPost2010Prop34
280
     0
102
RTVSPost2010PropOp34
 70
     1
102
RTVSPost2010Prop35
280
     0
102
RTVSPost2010PropOp35
 70
     1
102
RTVSPost2010Prop36
280
     0
102
RTVSPost2010PropOp36
 70
     1
102
RTVSPost2010Prop37
 90
       50
102
RTVSPost2010PropOp37
 70
     1
102
RTVSPost2010Prop38
140
0.0
102
RTVSPost2010PropOp38
 70
     1
102
RTVSPost2010Prop39
140
1.0
102
RTVSPost2010PropOp39
 70
     1
102
RTVSPost2010Prop40
 90
        0
102
RTVSPost2010PropOp40
 70
     1
102
RTVSPost2010Prop41ColorIndex
 90
       18
102
RTVSPost2010Prop41ColorRGB
 90
        0
102
RTVSPost2010PropOp41
 70
     1
102
RTVSPost2010Prop42
 90
       50
102
RTVSPost2010PropOp42
 70
     1
102
RTVSPost2010Prop43
 90
        3
102
RTVSPost2010PropOp43
 70
     1
102
RTVSPost2010Prop44ColorIndex
 90
        5
102
RTVSPost2010Prop44ColorRGB
 90
      255
102
RTVSPost2010PropOp44
 70
     1
102
RTVSPost2010Prop45
280
     0
102
RTVSPost2010PropOp45
 70
     1
102
RTVSPost2010Prop46
 90
       50
102
RTVSPost2010PropOp46
 70
     1
102
RTVSPost2010Prop47
 90
       50
102
RTVSPost2010PropOp47
 70
     1
102
RTVSPost2010Prop48
 90
       50
102
RTVSPost2010PropOp48
 70
     1
102
RTVSPost2010Prop49
280
     0
102
RTVSPost2010PropOp49
 70
     1
102
RTVSPost2010Prop50
 90
       50
102
RTVSPost2010PropOp50
 70
     1
102
RTVSPost2010Prop51ColorIndex
 90
      256
102
RTVSPost2010Prop51ColorRGB
 90
-16777216
102
RTVSPost2010PropOp51
 70
     0
102
RTVSPost2010Prop52
140
1.0
102
RTVSPost2010PropOp52
 70
     0
102
RTVSPost2010Prop53
 90
        2
102
RTVSPost2010PropOp53
 70
     1
102
RTVSPost2010Prop54
  1
strokes_ogs.tif
102
RTVSPost2010PropOp54
 70
     1
102
RTVSPost2010Prop55
280
     0
102
RTVSPost2010PropOp55
 70
     1
102
RTVSPost2010Prop56
140
1.0
102
RTVSPost2010PropOp56
 70
     1
102
RTVSPost2010Prop57
140
1.0
102
RTVSPost2010PropOp57
 70
     1
102
RTVSPropertyOp0
 70
     1
102
RTVSPropertyOp1
 70
     1
102
RTVSPropertyOp2
 70
     1
102
RTVSPropertyOp3
 70
     1
102
RTVSPropertyOp4
 70
     1
102
RTVSPropertyOp5
 70
     1
102
RTVSPropertyOp6
 70
     1
102
RTVSPropertyOp7
 70
     1
102
RTVSPropertyOp8
 70
     1
102
RTVSPropertyOp9
 70
     1
102
RTVSPropertyOp10
 70
     1
102
RTVSPropertyOp11
 70
     1
102
RTVSPropertyOp12
 70
     1
102
RTVSPropertyOp13
 70
     1
102
RTVSPropertyOp14
 70
     1
102
RTVSPropertyOp15
 70
     1
102
RTVSPropertyOp16
 70
     1
102
RTVSPropertyOp17
 70
     1
102
RTVSPropertyOp18
 70
     1
102
RTVSPropertyOp19
 70
     1
102
RTVSPropertyOp20
 70
     1
102
RTVSPropertyOp21
 70
     1
102
RTVSPropertyOp22
 70
     1
102
RTVSPropertyOp23
 70
     1
102
RTVSPropertyOp24
 70
     1
102
RTVSPropertyOp25
 70
     1
102
RTVSPropertyOp26
 70
     1
102
RTVSPropertyOp27
 70
     1
102
RTVSPropertyOp28
 70
     1
102
RTVSPropertyOp29
 70
     1
102
RTVSPropertyOp30
 70
     1
102
RTVSPropertyOp31
 70
     1
102
RTVSPropertyOp32
 70
     1
102
RTVSPropertyOp33
 70
     1
102
RTVSPropertyOp34
 70
     1
102
RTVSPropertyOp35
 70
     1
102
RTVSPropertyOp36
 70
     1
102
RTVSPropertyOp37
 70
     1
102
RTVSPropertyOp38
 70
     1
102
RTVSPropertyOp39
 70
     1
102
RTVSPropertyOp40
 70
     1
102
RTVSPropertyOp41
 70
     1
102
RTVSPropertyOp42
 70
     1
102
RTVSPropertyOp43
 70
     1
102
RTVSPropertyOp44
 70
     1
102
RTVSPropertyOp45
 70
     1
102
RTVSPropertyOp46
 70
     1
102
RTVSPropertyOp47
 70
     1
102
RTVSPropertyOp48
 70
     1
102
RTVSPropertyOp49
 70
     1
102
RTVSPropertyOp50
 70
     1
102
RTVSPropertyOp51
 70
     0
102
RTVSPropertyOp52
 70
     0
102
RTVSPropertyOp53
 70
     1
102
RTVSPropertyOp54
 70
     1
102
RTVSPropertyOp55
 70
     1
102
RTVSPropertyOp56
 70
     1
102
RTVSPropertyOp57
 70
     1
102
RTVSPropertyOp58
 70
     1
102
RTVSPropertyOp59
 70
     1
102
RTVSPropertyOp60
 70
     1
102
RTVSPropertyOp61
 70
     1
102
RTVSPropertyOp62
 70
     1
  0
XRECORD
  5
9AFB
102
{ACAD_REACTORS
330
9AFA
102
}
330
9AFA
100
AcDbXrecord
280
     1
102
RTVSPost2010Prop28
280
     0
102
RTVSPost2010PropOp28
 70
     1
102
RTVSPost2010Prop29
280
     1
102
RTVSPost2010PropOp29
 70
     1
102
RTVSPost2010Prop30
280
     1
102
RTVSPost2010PropOp30
 70
     1
102
RTVSPost2010Prop31
280
     0
102
RTVSPost2010PropOp31
 70
     1
102
RTVSPost2010Prop32
280
     0
102
RTVSPost2010PropOp32
 70
     1
102
RTVSPost2010Prop33
280
     0
102
RTVSPost2010PropOp33
 70
     1
102
RTVSPost2010Prop34
280
     0
102
RTVSPost2010PropOp34
 70
     1
102
RTVSPost2010Prop35
280
     0
102
RTVSPost2010PropOp35
 70
     1
102
RTVSPost2010Prop36
280
     0
102
RTVSPost2010PropOp36
 70
     1
102
RTVSPost2010Prop37
 90
       50
102
RTVSPost2010PropOp37
 70
     1
102
RTVSPost2010Prop38
140
0.0
102
RTVSPost2010PropOp38
 70
     1
102
RTVSPost2010Prop39
140
1.0
102
RTVSPost2010PropOp39
 70
     1
102
RTVSPost2010Prop40
 90
        0
102
RTVSPost2010PropOp40
 70
     1
102
RTVSPost2010Prop41ColorIndex
 90
       18
102
RTVSPost2010Prop41ColorRGB
 90
        0
102
RTVSPost2010PropOp41
 70
     1
102
RTVSPost2010Prop42
 90
       50
102
RTVSPost2010PropOp42
 70
     1
102
RTVSPost2010Prop43
 90
        3
102
RTVSPost2010PropOp43
 70
     1
102
RTVSPost2010Prop44ColorIndex
 90
        5
102
RTVSPost2010Prop44ColorRGB
 90
      255
102
RTVSPost2010PropOp44
 70
     1
102
RTVSPost2010Prop45
280
     0
102
RTVSPost2010PropOp45
 70
     1
102
RTVSPost2010Prop46
 90
       50
102
RTVSPost2010PropOp46
 70
     1
102
RTVSPost2010Prop47
 90
       50
102
RTVSPost2010PropOp47
 70
     1
102
RTVSPost2010Prop48
 90
       50
102
RTVSPost2010PropOp48
 70
     1
102
RTVSPost2010Prop49
280
     0
102
RTVSPost2010PropOp49
 70
     1
102
RTVSPost2010Prop50
 90
       50
102
RTVSPost2010PropOp50
 70
     1
102
RTVSPost2010Prop51ColorIndex
 90
      256
102
RTVSPost2010Prop51ColorRGB
 90
-16777216
102
RTVSPost2010PropOp51
 70
     0
102
RTVSPost2010Prop52
140
1.0
102
RTVSPost2010PropOp52
 70
     0
102
RTVSPost2010Prop53
 90
        2
102
RTVSPost2010PropOp53
 70
     1
102
RTVSPost2010Prop54
  1
strokes_ogs.tif
102
RTVSPost2010PropOp54
 70
     1
102
RTVSPost2010Prop55
280
     0
102
RTVSPost2010PropOp55
 70
     1
102
RTVSPost2010Prop56
140
1.0
102
RTVSPost2010PropOp56
 70
     1
102
RTVSPost2010Prop57
140
1.0
102
RTVSPost2010PropOp57
 70
     1
102
RTVSPropertyOp0
 70
     1
102
RTVSPropertyOp1
 70
     1
102
RTVSPropertyOp2
 70
     1
102
RTVSPropertyOp3
 70
     1
102
RTVSPropertyOp4
 70
     1
102
RTVSPropertyOp5
 70
     1
102
RTVSPropertyOp6
 70
     1
102
RTVSPropertyOp7
 70
     1
102
RTVSPropertyOp8
 70
     1
102
RTVSPropertyOp9
 70
     1
102
RTVSPropertyOp10
 70
     1
102
RTVSPropertyOp11
 70
     1
102
RTVSPropertyOp12
 70
     1
102
RTVSPropertyOp13
 70
     1
102
RTVSPropertyOp14
 70
     1
102
RTVSPropertyOp15
 70
     1
102
RTVSPropertyOp16
 70
     1
102
RTVSPropertyOp17
 70
     1
102
RTVSPropertyOp18
 70
     1
102
RTVSPropertyOp19
 70
     1
102
RTVSPropertyOp20
 70
     1
102
RTVSPropertyOp21
 70
     1
102
RTVSPropertyOp22
 70
     1
102
RTVSPropertyOp23
 70
     1
102
RTVSPropertyOp24
 70
     1
102
RTVSPropertyOp25
 70
     1
102
RTVSPropertyOp26
 70
     1
102
RTVSPropertyOp27
 70
     1
102
RTVSPropertyOp28
 70
     1
102
RTVSPropertyOp29
 70
     1
102
RTVSPropertyOp30
 70
     1
102
RTVSPropertyOp31
 70
     1
102
RTVSPropertyOp32
 70
     1
102
RTVSPropertyOp33
 70
     1
102
RTVSPropertyOp34
 70
     1
102
RTVSPropertyOp35
 70
     1
102
RTVSPropertyOp36
 70
     1
102
RTVSPropertyOp37
 70
     1
102
RTVSPropertyOp38
 70
     1
102
RTVSPropertyOp39
 70
     1
102
RTVSPropertyOp40
 70
     1
102
RTVSPropertyOp41
 70
     1
102
RTVSPropertyOp42
 70
     1
102
RTVSPropertyOp43
 70
     1
102
RTVSPropertyOp44
 70
     1
102
RTVSPropertyOp45
 70
     1
102
RTVSPropertyOp46
 70
     1
102
RTVSPropertyOp47
 70
     1
102
RTVSPropertyOp48
 70
     1
102
RTVSPropertyOp49
 70
     1
102
RTVSPropertyOp50
 70
     1
102
RTVSPropertyOp51
 70
     0
102
RTVSPropertyOp52
 70
     0
102
RTVSPropertyOp53
 70
     1
102
RTVSPropertyOp54
 70
     1
102
RTVSPropertyOp55
 70
     1
102
RTVSPropertyOp56
 70
     1
102
RTVSPropertyOp57
 70
     1
102
RTVSPropertyOp58
 70
     1
102
RTVSPropertyOp59
 70
     1
102
RTVSPropertyOp60
 70
     1
102
RTVSPropertyOp61
 70
     1
102
RTVSPropertyOp62
 70
     1
  0
ENDSEC
  0
EOF
