  0
SECTION
  2
HEADER
  9
$ACADVER
  1
AC1015
  9
$ACADMAINTVER
 70
    20
  9
$DWGCODEPAGE
  3
ANSI_932
  9
$INSBASE
 10
0.0
 20
0.0
 30
0.0
  9
$EXTMIN
 10
10.0
 20
9.999999999999998
 30
0.0
  9
$EXTMAX
 10
492.6107690000002
 20
310.610449
 30
0.0
  9
$LIMMIN
 10
0.0
 20
0.0
  9
$LIMMAX
 10
495.0
 20
341.25
  9
$ORTHOMODE
 70
     1
  9
$REGENMODE
 70
     1
  9
$FILLMODE
 70
     1
  9
$QTEXTMODE
 70
     0
  9
$MIRRTEXT
 70
     1
  9
$LTSCALE
 40
20.0
  9
$ATTMODE
 70
     1
  9
$TEXTSIZE
 40
5.0
  9
$TRACEWID
 40
1.0
  9
$TEXTSTYLE
  7
STANDARD
  9
$CLAYER
  8
0
  9
$CELTYPE
  6
BYLAYER
  9
$CECOLOR
 62
   256
  9
$CELTSCALE
 40
1.0
  9
$DISPSILH
 70
     0
  9
$DIMSCALE
 40
1.0
  9
$DIMASZ
 40
3.0
  9
$DIMEXO
 40
1.0
  9
$DIMDLI
 40
10.0
  9
$DIMRND
 40
0.0
  9
$DIMDLE
 40
0.0
  9
$DIMEXE
 40
1.0
  9
$DIMTP
 40
0.0
  9
$DIMTM
 40
0.0
  9
$DIMTXT
 40
3.2
  9
$DIMCEN
 40
0.0
  9
$DIMTSZ
 40
0.0
  9
$DIMTOL
 70
     0
  9
$DIMLIM
 70
     0
  9
$DIMTIH
 70
     0
  9
$DIMTOH
 70
     0
  9
$DIMSE1
 70
     0
  9
$DIMSE2
 70
     0
  9
$DIMTAD
 70
     3
  9
$DIMZIN
 70
     8
  9
$DIMBLK
  1

  9
$DIMASO
 70
     1
  9
$DIMSHO
 70
     1
  9
$DIMPOST
  1

  9
$DIMAPOST
  1

  9
$DIMALT
 70
     0
  9
$DIMALTD
 70
     2
  9
$DIMALTF
 40
25.4
  9
$DIMLFAC
 40
1.0
  9
$DIMTOFL
 70
     1
  9
$DIMTVP
 40
0.0
  9
$DIMTIX
 70
     0
  9
$DIMSOXD
 70
     0
  9
$DIMSAH
 70
     1
  9
$DIMBLK1
  1

  9
$DIMBLK2
  1

  9
$DIMSTYLE
  2
STANDARD
  9
$DIMCLRD
 70
     0
  9
$DIMCLRE
 70
     0
  9
$DIMCLRT
 70
     0
  9
$DIMTFAC
 40
1.0
  9
$DIMGAP
 40
1.0
  9
$DIMJUST
 70
     0
  9
$DIMSD1
 70
     0
  9
$DIMSD2
 70
     0
  9
$DIMTOLJ
 70
     1
  9
$DIMTZIN
 70
     0
  9
$DIMALTZ
 70
     0
  9
$DIMALTTZ
 70
     0
  9
$DIMUPT
 70
     0
  9
$DIMDEC
 70
     4
  9
$DIMTDEC
 70
     4
  9
$DIMALTU
 70
     2
  9
$DIMALTTD
 70
     2
  9
$DIMTXSTY
  7
STANDARD
  9
$DIMAUNIT
 70
     0
  9
$DIMADEC
 70
     0
  9
$DIMALTRND
 40
0.0
  9
$DIMAZIN
 70
     0
  9
$DIMDSEP
 70
    46
  9
$DIMATFIT
 70
     3
  9
$DIMFRAC
 70
     0
  9
$DIMLDRBLK
  1

  9
$DIMLUNIT
 70
     2
  9
$DIMLWD
 70
    -2
  9
$DIMLWE
 70
    -2
  9
$DIMTMOVE
 70
     0
  9
$LUNITS
 70
     2
  9
$LUPREC
 70
     4
  9
$SKETCHINC
 40
1.0
  9
$FILLETRAD
 40
0.0
  9
$AUNITS
 70
     0
  9
$AUPREC
 70
     2
  9
$MENU
  1
.
  9
$ELEVATION
 40
0.0
  9
$PELEVATION
 40
0.0
  9
$THICKNESS
 40
0.0
  9
$LIMCHECK
 70
     0
  9
$CHAMFERA
 40
10.0
  9
$CHAMFERB
 40
10.0
  9
$CHAMFERC
 40
0.0
  9
$CHAMFERD
 40
0.0
  9
$SKPOLY
 70
     0
  9
$TDCREATE
 40
2450737.666722338
  9
$TDUCREATE
 40
2450737.291722338
  9
$TDUPDATE
 40
2457192.640223959
  9
$TDUUPDATE
 40
2457192.265223959
  9
$TDINDWG
 40
0.0003165972
  9
$TDUSRTIMER
 40
0.0003162963
  9
$USRTIMER
 70
     1
  9
$ANGBASE
 50
0.0
  9
$ANGDIR
 70
     0
  9
$PDMODE
 70
     0
  9
$PDSIZE
 40
0.0
  9
$PLINEWID
 40
0.0
  9
$SPLFRAME
 70
     0
  9
$SPLINETYPE
 70
     6
  9
$SPLINESEGS
 70
     8
  9
$HANDSEED
  5
A2DD
  9
$SURFTAB1
 70
     6
  9
$SURFTAB2
 70
     6
  9
$SURFTYPE
 70
     6
  9
$SURFU
 70
     6
  9
$SURFV
 70
     6
  9
$UCSBASE
  2

  9
$UCSNAME
  2

  9
$UCSORG
 10
0.0
 20
0.0
 30
0.0
  9
$UCSXDIR
 10
1.0
 20
0.0
 30
0.0
  9
$UCSYDIR
 10
0.0
 20
1.0
 30
0.0
  9
$UCSORTHOREF
  2

  9
$UCSORTHOVIEW
 70
     0
  9
$UCSORGTOP
 10
0.0
 20
0.0
 30
0.0
  9
$UCSORGBOTTOM
 10
0.0
 20
0.0
 30
0.0
  9
$UCSORGLEFT
 10
0.0
 20
0.0
 30
0.0
  9
$UCSORGRIGHT
 10
0.0
 20
0.0
 30
0.0
  9
$UCSORGFRONT
 10
0.0
 20
0.0
 30
0.0
  9
$UCSORGBACK
 10
0.0
 20
0.0
 30
0.0
  9
$PUCSBASE
  2

  9
$PUCSNAME
  2

  9
$PUCSORG
 10
0.0
 20
0.0
 30
0.0
  9
$PUCSXDIR
 10
1.0
 20
0.0
 30
0.0
  9
$PUCSYDIR
 10
0.0
 20
1.0
 30
0.0
  9
$PUCSORTHOREF
  2

  9
$PUCSORTHOVIEW
 70
     0
  9
$PUCSORGTOP
 10
0.0
 20
0.0
 30
0.0
  9
$PUCSORGBOTTOM
 10
0.0
 20
0.0
 30
0.0
  9
$PUCSORGLEFT
 10
0.0
 20
0.0
 30
0.0
  9
$PUCSORGRIGHT
 10
0.0
 20
0.0
 30
0.0
  9
$PUCSORGFRONT
 10
0.0
 20
0.0
 30
0.0
  9
$PUCSORGBACK
 10
0.0
 20
0.0
 30
0.0
  9
$USERI1
 70
     0
  9
$USERI2
 70
     0
  9
$USERI3
 70
     0
  9
$USERI4
 70
     0
  9
$USERI5
 70
     0
  9
$USERR1
 40
0.0
  9
$USERR2
 40
0.0
  9
$USERR3
 40
0.0
  9
$USERR4
 40
0.0
  9
$USERR5
 40
0.0
  9
$WORLDVIEW
 70
     1
  9
$SHADEDGE
 70
     3
  9
$SHADEDIF
 70
    70
  9
$TILEMODE
 70
     1
  9
$MAXACTVP
 70
    16
  9
$PINSBASE
 10
0.0
 20
0.0
 30
0.0
  9
$PLIMCHECK
 70
     0
  9
$PEXTMIN
 10
1.000000000000000E+20
 20
1.000000000000000E+20
 30
1.000000000000000E+20
  9
$PEXTMAX
 10
-1.000000000000000E+20
 20
-1.000000000000000E+20
 30
-1.000000000000000E+20
  9
$PLIMMIN
 10
0.0
 20
0.0
  9
$PLIMMAX
 10
420.0
 20
297.0
  9
$UNITMODE
 70
     0
  9
$VISRETAIN
 70
     0
  9
$PLINEGEN
 70
     0
  9
$PSLTSCALE
 70
     0
  9
$TREEDEPTH
 70
  3020
  9
$CMLSTYLE
  2
STANDARD
  9
$CMLJUST
 70
     0
  9
$CMLSCALE
 40
1.0
  9
$PROXYGRAPHICS
 70
     1
  9
$MEASUREMENT
 70
     0
  9
$CELWEIGHT
370
    -1
  9
$ENDCAPS
280
     0
  9
$JOINSTYLE
280
     0
  9
$LWDISPLAY
290
     0
  9
$INSUNITS
 70
     0
  9
$HYPERLINKBASE
  1

  9
$STYLESHEET
  1

  9
$XEDIT
290
     1
  9
$CEPSNTYPE
380
     0
  9
$PSTYLEMODE
290
     1
  9
$FINGERPRINTGUID
  2
{7194EE49-5665-4625-83F7-B2EB39AB0000}
  9
$VERSIONGUID
  2
{06574635-190F-47EB-A4F0-FEE20A5C70B8}
  9
$EXTNAMES
290
     1
  9
$PSVPSCALE
 40
0.0
  9
$OLESTARTUP
290
     0
  0
ENDSEC
  0
SECTION
  2
CLASSES
  0
CLASS
  1
ACDBDICTIONARYWDFLT
  2
AcDbDictionaryWithDefault
  3
ObjectDBX Classes
 90
        0
280
     0
281
     0
  0
CLASS
  1
ACDBPLACEHOLDER
  2
AcDbPlaceHolder
  3
ObjectDBX Classes
 90
        0
280
     0
281
     0
  0
CLASS
  1
LAYOUT
  2
AcDbLayout
  3
ObjectDBX Classes
 90
        0
280
     0
281
     0
  0
CLASS
  1
DICTIONARYVAR
  2
AcDbDictionaryVar
  3
ObjectDBX Classes
 90
        0
280
     0
281
     0
  0
CLASS
  1
MATERIAL
  2
AcDbMaterial
  3
ObjectDBX Classes
 90
     1153
280
     0
281
     0
  0
CLASS
  1
VISUALSTYLE
  2
AcDbVisualStyle
  3
ObjectDBX Classes
 90
     4095
280
     0
281
     0
  0
CLASS
  1
TABLESTYLE
  2
AcDbTableStyle
  3
ObjectDBX Classes
 90
     4095
280
     0
281
     0
  0
CLASS
  1
SCALE
  2
AcDbScale
  3
ObjectDBX Classes
 90
     1153
280
     0
281
     0
  0
CLASS
  1
MLEADERSTYLE
  2
AcDbMLeaderStyle
  3
ACDB_MLEADERSTYLE_CLASS
 90
     4095
280
     0
281
     0
  0
CLASS
  1
ACDBSECTIONVIEWSTYLE
  2
AcDbSectionViewStyle
  3
ObjectDBX Classes
 90
     1025
280
     0
281
     0
  0
CLASS
  1
ACDBDETAILVIEWSTYLE
  2
AcDbDetailViewStyle
  3
ObjectDBX Classes
 90
     1025
280
     0
281
     0
  0
CLASS
  1
CELLSTYLEMAP
  2
AcDbCellStyleMap
  3
ObjectDBX Classes
 90
     1152
280
     0
281
     0
  0
ENDSEC
  0
SECTION
  2
TABLES
  0
TABLE
  2
VPORT
  5
9E79
330
0
100
AcDbSymbolTable
 70
     1
  0
VPORT
  5
A226
330
9E79
100
AcDbSymbolTableRecord
100
AcDbViewportTableRecord
  2
*ACTIVE
 70
     0
 10
0.0
 20
0.0
 11
1.0
 21
1.0
 12
342.3696318222984
 22
160.3020008282933
 13
0.0
 23
0.0
 14
10.0
 24
10.0
 15
10.0
 25
10.0
 16
0.0
 26
0.0
 36
1.0
 17
0.0
 27
0.0
 37
0.0
 40
303.9920793601305
 41
1.899603698811096
 42
50.0
 43
0.0
 44
0.0
 50
0.0
 51
0.0
 71
     0
 72
   100
 73
     1
 74
     0
 75
     0
 76
     0
 77
     0
 78
     0
281
     0
 65
     1
110
0.0
120
0.0
130
0.0
111
1.0
121
0.0
131
0.0
112
0.0
122
1.0
132
0.0
 79
     0
146
0.0
1001
ACAD_NAV_VCDISPLAY
1070
     3
  0
ENDTAB
  0
TABLE
  2
LTYPE
  5
9E76
330
0
100
AcDbSymbolTable
 70
     4
  0
LTYPE
  5
9E84
330
9E76
100
AcDbSymbolTableRecord
100
AcDbLinetypeTableRecord
  2
BYBLOCK
 70
     0
  3

 72
    65
 73
     0
 40
0.0
  0
LTYPE
  5
9E85
330
9E76
100
AcDbSymbolTableRecord
100
AcDbLinetypeTableRecord
  2
BYLAYER
 70
     0
  3

 72
    65
 73
     0
 40
0.0
  0
LTYPE
  5
9E86
330
9E76
100
AcDbSymbolTableRecord
100
AcDbLinetypeTableRecord
  2
CONTINUOUS
 70
     0
  3
Solid line
 72
    65
 73
     0
 40
0.0
  0
LTYPE
  5
9E93
330
9E76
100
AcDbSymbolTableRecord
100
AcDbLinetypeTableRecord
  2
CENTER
 70
     0
  3
____ _ ____ _ ____ _ ____ _ ____ _ ____ _ ____ 
 72
    65
 73
     4
 40
2.0
 49
1.25
 74
     0
 49
-0.25
 74
     0
 49
0.25
 74
     0
 49
-0.25
 74
     0
  0
LTYPE
  5
9E95
330
9E76
100
AcDbSymbolTableRecord
100
AcDbLinetypeTableRecord
  2
DASHED
 70
     0
  3
__ __ __ __ __ __ __ __ __ __ __ __ __ __ __ __
 72
    65
 73
     2
 40
0.75
 49
0.5
 74
     0
 49
-0.25
 74
     0
  0
LTYPE
  5
9E96
330
9E76
100
AcDbSymbolTableRecord
100
AcDbLinetypeTableRecord
  2
PHANTOM
 70
     0
  3
______  __  __  ______  __  __  ______  __  __ 
 72
    65
 73
     6
 40
2.5
 49
1.25
 74
     0
 49
-0.25
 74
     0
 49
0.25
 74
     0
 49
-0.25
 74
     0
 49
0.25
 74
     0
 49
-0.25
 74
     0
  0
ENDTAB
  0
TABLE
  2
LAYER
  5
9E73
330
0
100
AcDbSymbolTable
 70
     8
  0
LAYER
  5
9E81
102
{ACAD_XDICTIONARY
360
A281
102
}
330
9E73
100
AcDbSymbolTableRecord
100
AcDbLayerTableRecord
  2
0
 70
     0
 62
     7
  6
CONTINUOUS
370
    -3
390
A22F
  0
LAYER
  5
9E97
102
{ACAD_XDICTIONARY
360
A283
102
}
330
9E73
100
AcDbSymbolTableRecord
100
AcDbLayerTableRecord
  2
4
 70
     0
 62
     1
  6
CENTER
370
    -3
390
A22F
  0
LAYER
  5
9E98
102
{ACAD_XDICTIONARY
360
A285
102
}
330
9E73
100
AcDbSymbolTableRecord
100
AcDbLayerTableRecord
  2
5
 70
     0
 62
     6
  6
PHANTOM
370
    -3
390
A22F
  0
LAYER
  5
9E99
102
{ACAD_XDICTIONARY
360
A287
102
}
330
9E73
100
AcDbSymbolTableRecord
100
AcDbLayerTableRecord
  2
1
 70
     0
 62
     7
  6
CONTINUOUS
370
    -3
390
A22F
  0
LAYER
  5
9E9A
102
{ACAD_XDICTIONARY
360
A289
102
}
330
9E73
100
AcDbSymbolTableRecord
100
AcDbLayerTableRecord
  2
2
 70
     0
 62
     4
  6
CONTINUOUS
370
    -3
390
A22F
  0
LAYER
  5
9E9B
102
{ACAD_XDICTIONARY
360
A28B
102
}
330
9E73
100
AcDbSymbolTableRecord
100
AcDbLayerTableRecord
  2
3
 70
     0
 62
     2
  6
DASHED
370
    -3
390
A22F
  0
LAYER
  5
9E9C
102
{ACAD_XDICTIONARY
360
A28D
102
}
330
9E73
100
AcDbSymbolTableRecord
100
AcDbLayerTableRecord
  2
6
 70
     0
 62
     5
  6
CONTINUOUS
370
    -3
390
A22F
  0
LAYER
  5
9E9D
102
{ACAD_XDICTIONARY
360
A28F
102
}
330
9E73
100
AcDbSymbolTableRecord
100
AcDbLayerTableRecord
  2
7
 70
     0
 62
     3
  6
CONTINUOUS
370
    -3
390
A22F
  0
ENDTAB
  0
TABLE
  2
STYLE
  5
9E74
330
0
100
AcDbSymbolTable
 70
     1
  0
STYLE
  5
9E82
330
9E74
100
AcDbSymbolTableRecord
100
AcDbTextStyleTableRecord
  2
STANDARD
 70
     0
 40
0.0
 41
1.0
 50
0.0
 71
     0
 42
5.0
  3
txt
  4

  0
ENDTAB
  0
TABLE
  2
VIEW
  5
9E77
330
0
100
AcDbSymbolTable
 70
     0
  0
ENDTAB
  0
TABLE
  2
UCS
  5
9E78
330
0
100
AcDbSymbolTable
 70
     0
  0
ENDTAB
  0
TABLE
  2
APPID
  5
9E7A
330
0
100
AcDbSymbolTable
 70
     3
  0
APPID
  5
9E83
330
9E7A
100
AcDbSymbolTableRecord
100
AcDbRegAppTableRecord
  2
ACAD
 70
     0
  0
APPID
  5
A29B
330
9E7A
100
AcDbSymbolTableRecord
100
AcDbRegAppTableRecord
  2
ACAD_NAV_VCDISPLAY
 70
     0
  0
APPID
  5
A2D4
330
9E7A
100
AcDbSymbolTableRecord
100
AcDbRegAppTableRecord
  2
ACAD_MLEADERVER
 70
     0
  0
ENDTAB
  0
TABLE
  2
DIMSTYLE
  5
9E7B
330
0
100
AcDbSymbolTable
 70
     1
100
AcDbDimStyleTable
 71
     0
  0
DIMSTYLE
105
9E9F
330
9E7B
100
AcDbSymbolTableRecord
100
AcDbDimStyleTableRecord
  2
STANDARD
 70
     0
 41
3.0
 42
1.0
 43
10.0
 44
1.0
 73
     0
 74
     0
 77
     3
 78
     8
140
3.2
141
0.0
147
1.0
172
     1
173
     1
284
     8
285
     8
286
     8
340
9E82
  0
ENDTAB
  0
TABLE
  2
BLOCK_RECORD
  5
9E72
330
0
100
AcDbSymbolTable
 70
     0
  0
BLOCK_RECORD
  5
9E8F
102
{ACAD_XDICTIONARY
360
A229
102
}
330
9E72
100
AcDbSymbolTableRecord
100
AcDbBlockTableRecord
  2
*MODEL_SPACE
340
A27D
  0
BLOCK_RECORD
  5
9E8B
102
{ACAD_XDICTIONARY
360
A227
102
}
330
9E72
100
AcDbSymbolTableRecord
100
AcDbBlockTableRecord
  2
*PAPER_SPACE
340
A27E
  0
ENDTAB
  0
ENDSEC
  0
SECTION
  2
BLOCKS
  0
BLOCK
  5
9E90
330
9E8F
100
AcDbEntity
  8
0
100
AcDbBlockBegin
  2
*MODEL_SPACE
 70
     0
 10
0.0
 20
0.0
 30
0.0
  3
*MODEL_SPACE
  1

  0
ENDBLK
  5
9E91
330
9E8F
100
AcDbEntity
  8
0
100
AcDbBlockEnd
  0
BLOCK
  5
9E8C
330
9E8B
100
AcDbEntity
 67
     1
  8
0
100
AcDbBlockBegin
  2
*PAPER_SPACE
 70
     0
 10
0.0
 20
0.0
 30
0.0
  3
*PAPER_SPACE
  1

  0
ENDBLK
  5
9E8D
330
9E8B
100
AcDbEntity
 67
     1
  8
0
100
AcDbBlockEnd
  0
ENDSEC
  0
SECTION
  2
ENTITIES
  0
TEXT
  5
9EA7
330
9E8F
100
AcDbEntity
  8
7
  6
Continuous
100
AcDbText
 10
10.0
 20
18.0
 30
0.0
 40
3.0
  1
TYPE No.THA-283-2
100
AcDbText
  0
TEXT
  5
9EA8
330
9E8F
100
AcDbEntity
  8
7
  6
Continuous
100
AcDbText
 10
10.0
 20
26.0
 30
0.0
 40
3.0
  1
CODE No.3230
100
AcDbText
  0
TEXT
  5
9EA9
330
9E8F
100
AcDbEntity
  8
1
  6
Continuous
100
AcDbText
 10
10.0
 20
10.0
 30
0.0
 40
1.399999999999999
  1
LAYER
100
AcDbText
  0
TEXT
  5
9EAA
330
9E8F
100
AcDbEntity
  8
1
  6
Continuous
100
AcDbText
 10
17.97951099999998
 20
10.04873699999998
 30
0.0
 40
1.399999999999999
  1
1
100
AcDbText
  0
TEXT
  5
9EAB
330
9E8F
100
AcDbEntity
  8
7
  6
Continuous
100
AcDbText
 10
29.97951099999999
 20
10.04873699999998
 30
0.0
 40
1.399999999999999
  1
7
100
AcDbText
  0
TEXT
  5
9EAC
330
9E8F
100
AcDbEntity
  8
4
  6
CENTER
100
AcDbText
 10
23.97951099999999
 20
10.04873699999998
 30
0.0
 40
1.399999999999999
  1
4
100
AcDbText
  0
TEXT
  5
9EAD
330
9E8F
100
AcDbEntity
  8
3
  6
DASHED
100
AcDbText
 10
21.979511
 20
10.04873699999998
 30
0.0
 40
1.399999999999999
  1
3
100
AcDbText
  0
TEXT
  5
9EAE
330
9E8F
100
AcDbEntity
  8
2
  6
Continuous
100
AcDbText
 10
19.97951099999999
 20
10.04873699999998
 30
0.0
 40
1.399999999999999
  1
2
100
AcDbText
  0
TEXT
  5
9EAF
330
9E8F
100
AcDbEntity
  8
6
  6
Continuous
100
AcDbText
 10
27.979511
 20
10.04873699999998
 30
0.0
 40
1.399999999999999
  1
6
100
AcDbText
  0
TEXT
  5
9EB0
330
9E8F
100
AcDbEntity
  8
5
  6
PHANTOM
100
AcDbText
 10
25.97951099999999
 20
10.04873699999998
 30
0.0
 40
1.399999999999999
  1
5
100
AcDbText
  0
LINE
  5
9EB1
330
9E8F
100
AcDbEntity
  8
1
  6
Continuous
100
AcDbLine
 10
375.464769
 20
78.575449
 30
0.0
 11
375.464769
 21
164.5754489999999
 31
0.0
  0
LINE
  5
9EB2
330
9E8F
100
AcDbEntity
  8
1
  6
Continuous
100
AcDbLine
 10
375.464769
 20
78.575449
 30
0.0
 11
314.077769
 21
78.575449
 31
0.0
  0
LINE
  5
9EB3
330
9E8F
100
AcDbEntity
  8
1
  6
Continuous
100
AcDbLine
 10
375.464769
 20
164.5754489999999
 30
0.0
 11
314.077769
 21
164.5754489999999
 31
0.0
  0
LINE
  5
9EB4
330
9E8F
100
AcDbEntity
  8
1
  6
Continuous
100
AcDbLine
 10
374.9647689999998
 20
164.0754489999999
 30
0.0
 11
374.9647689999998
 21
79.07544900000002
 31
0.0
  0
LINE
  5
9EB5
330
9E8F
100
AcDbEntity
  8
1
  6
Continuous
100
AcDbLine
 10
374.9647689999998
 20
164.0754489999999
 30
0.0
 11
347.964769
 21
164.0754489999999
 31
0.0
  0
LINE
  5
9EB6
330
9E8F
100
AcDbEntity
  8
1
  6
Continuous
100
AcDbLine
 10
374.9647689999998
 20
79.07544900000002
 30
0.0
 11
315.5437689999998
 21
79.07544900000002
 31
0.0
  0
LINE
  5
9EB7
330
9E8F
100
AcDbEntity
  8
1
  6
Continuous
100
AcDbLine
 10
344.9647689999998
 20
161.0754489999998
 30
0.0
 11
344.9647689999998
 21
142.615449
 31
0.0
  0
LINE
  5
9EB8
330
9E8F
100
AcDbEntity
  8
1
  6
Continuous
100
AcDbLine
 10
375.464769
 20
126.075449
 30
0.0
 11
374.9647689999998
 21
126.075449
 31
0.0
  0
LINE
  5
9EB9
330
9E8F
100
AcDbEntity
  8
1
  6
Continuous
100
AcDbLine
 10
375.464769
 20
117.0754489999999
 30
0.0
 11
374.9647689999998
 21
117.0754489999999
 31
0.0
  0
LINE
  5
9EBA
330
9E8F
100
AcDbEntity
  8
1
  6
Continuous
100
AcDbLine
 10
369.9647689999998
 20
164.0754489999999
 30
0.0
 11
369.9647689999998
 21
164.5754489999999
 31
0.0
  0
LINE
  5
9EBB
330
9E8F
100
AcDbEntity
  8
1
  6
Continuous
100
AcDbLine
 10
369.9647689999998
 20
78.575449
 30
0.0
 11
369.9647689999998
 21
79.07544900000002
 31
0.0
  0
LINE
  5
9EBC
330
9E8F
100
AcDbEntity
  8
1
  6
Continuous
100
AcDbLine
 10
365.9647689999998
 20
164.0754489999999
 30
0.0
 11
365.9647689999998
 21
164.5754489999999
 31
0.0
  0
LINE
  5
9EBD
330
9E8F
100
AcDbEntity
  8
1
  6
Continuous
100
AcDbLine
 10
365.9647689999998
 20
78.575449
 30
0.0
 11
365.9647689999998
 21
79.07544900000002
 31
0.0
  0
LINE
  5
9EBE
330
9E8F
100
AcDbEntity
  8
1
  6
Continuous
100
AcDbLine
 10
360.964769
 20
164.0754489999999
 30
0.0
 11
360.964769
 21
164.5754489999999
 31
0.0
  0
LINE
  5
9EBF
330
9E8F
100
AcDbEntity
  8
1
  6
Continuous
100
AcDbLine
 10
360.964769
 20
78.575449
 30
0.0
 11
360.964769
 21
79.07544900000002
 31
0.0
  0
LINE
  5
9EC0
330
9E8F
100
AcDbEntity
  8
1
  6
Continuous
100
AcDbLine
 10
383.9647689999998
 20
247.823449
 30
0.0
 11
383.9647689999998
 21
250.3724489999999
 31
0.0
  0
LINE
  5
9EC1
330
9E8F
100
AcDbEntity
  8
1
  6
Continuous
100
AcDbLine
 10
300.9647689999998
 20
248.115449
 30
0.0
 11
300.9647689999998
 21
250.3724489999999
 31
0.0
  0
LINE
  5
9EC2
330
9E8F
100
AcDbEntity
  8
1
  6
Continuous
100
AcDbLine
 10
383.9657689999999
 20
250.3724489999999
 30
0.0
 11
300.9647689999998
 21
250.3724489999999
 31
0.0
  0
LINE
  5
9EC3
330
9E8F
100
AcDbEntity
  8
1
  6
Continuous
100
AcDbLine
 10
375.464769
 20
250.3724489999999
 30
0.0
 11
375.464769
 21
277.372449
 31
0.0
  0
LINE
  5
9EC4
330
9E8F
100
AcDbEntity
  8
1
  6
Continuous
100
AcDbLine
 10
398.9657689999999
 20
277.372449
 30
0.0
 11
348.2247689999999
 21
277.372449
 31
0.0
  0
LINE
  5
9EC5
330
9E8F
100
AcDbEntity
  8
1
  6
Continuous
100
AcDbLine
 10
375.4657689999998
 20
267.1724489999999
 30
0.0
 11
348.0487689999998
 21
267.1724489999999
 31
0.0
  0
LINE
  5
9EC6
330
9E8F
100
AcDbEntity
  8
1
  6
Continuous
100
AcDbLine
 10
307.4647689999999
 20
250.3724489999999
 30
0.0
 11
307.4647689999999
 21
268.372449
 31
0.0
  0
LINE
  5
9EC7
330
9E8F
100
AcDbEntity
  8
1
  6
Continuous
100
AcDbLine
 10
351.9647689999998
 20
269.372449
 30
0.0
 11
351.9647689999998
 21
277.372449
 31
0.0
  0
LINE
  5
9EC8
330
9E8F
100
AcDbEntity
  8
1
  6
Continuous
100
AcDbLine
 10
365.464769
 20
267.1724489999999
 30
0.0
 11
365.464769
 21
277.372449
 31
0.0
  0
LINE
  5
9EC9
330
9E8F
100
AcDbEntity
  8
1
  6
Continuous
100
AcDbLine
 10
327.464769
 20
267.1724489999999
 30
0.0
 11
327.464769
 21
277.372449
 31
0.0
  0
LINE
  5
9ECA
330
9E8F
100
AcDbEntity
  8
1
  6
Continuous
100
AcDbLine
 10
317.464769
 20
265.6644490000001
 30
0.0
 11
317.464769
 21
277.372449
 31
0.0
  0
LINE
  5
9ECB
330
9E8F
100
AcDbEntity
  8
1
  6
Continuous
100
AcDbLine
 10
339.964769
 20
267.1724489999999
 30
0.0
 11
339.964769
 21
272.7224489999999
 31
0.0
  0
LINE
  5
9ECC
330
9E8F
100
AcDbEntity
  8
1
  6
Continuous
100
AcDbLine
 10
329.964769
 20
267.1724489999999
 30
0.0
 11
329.964769
 21
274.872449
 31
0.0
  0
LINE
  5
9ECD
330
9E8F
100
AcDbEntity
  8
1
  6
Continuous
100
AcDbLine
 10
339.964769
 20
274.872449
 30
0.0
 11
329.964769
 21
274.872449
 31
0.0
  0
LINE
  5
9ECE
330
9E8F
100
AcDbEntity
  8
1
  6
Continuous
100
AcDbLine
 10
337.964769
 20
274.872449
 30
0.0
 11
337.964769
 21
277.372449
 31
0.0
  0
LINE
  5
9ECF
330
9E8F
100
AcDbEntity
  8
1
  6
Continuous
100
AcDbLine
 10
331.964769
 20
274.872449
 30
0.0
 11
331.964769
 21
277.372449
 31
0.0
  0
LINE
  5
9ED0
330
9E8F
100
AcDbEntity
  8
1
  6
Continuous
100
AcDbLine
 10
322.4647689999998
 20
270.372449
 30
0.0
 11
309.4647689999998
 21
270.372449
 31
0.0
  0
LINE
  5
9ED1
330
9E8F
100
AcDbEntity
  8
1
  6
Continuous
100
AcDbLine
 10
454.896769
 20
70.57544900000002
 30
0.0
 11
456.724769
 21
70.57544900000002
 31
0.0
  0
LINE
  5
9ED2
330
9E8F
100
AcDbEntity
  8
1
  6
Continuous
100
AcDbLine
 10
454.896769
 20
172.5754489999999
 30
0.0
 11
456.724769
 21
172.5754489999999
 31
0.0
  0
LINE
  5
9ED3
330
9E8F
100
AcDbEntity
  8
1
  6
Continuous
100
AcDbLine
 10
456.724769
 20
70.57544900000002
 30
0.0
 11
456.724769
 21
172.5754489999999
 31
0.0
  0
LINE
  5
9ED4
330
9E8F
100
AcDbEntity
  8
1
  6
Continuous
100
AcDbLine
 10
465.524769
 20
167.075449
 30
0.0
 11
456.724769
 21
167.075449
 31
0.0
  0
LINE
  5
9ED5
330
9E8F
100
AcDbEntity
  8
1
  6
Continuous
100
AcDbLine
 10
465.524769
 20
76.075449
 30
0.0
 11
456.724769
 21
76.075449
 31
0.0
  0
LINE
  5
9ED6
330
9E8F
100
AcDbEntity
  8
1
  6
Continuous
100
AcDbLine
 10
464.7247689999998
 20
164.5754489999999
 30
0.0
 11
456.724769
 21
164.5754489999999
 31
0.0
  0
LINE
  5
9ED7
330
9E8F
100
AcDbEntity
  8
1
  6
Continuous
100
AcDbLine
 10
464.7247689999998
 20
78.575449
 30
0.0
 11
456.724769
 21
78.575449
 31
0.0
  0
LINE
  5
9ED8
330
9E8F
100
AcDbEntity
  8
1
  6
Continuous
100
AcDbLine
 10
468.7247689999998
 20
125.575449
 30
0.0
 11
456.724769
 21
125.575449
 31
0.0
  0
LINE
  5
9ED9
330
9E8F
100
AcDbEntity
  8
1
  6
Continuous
100
AcDbLine
 10
468.7247689999998
 20
117.575449
 30
0.0
 11
456.724769
 21
117.575449
 31
0.0
  0
LINE
  5
9EDA
330
9E8F
100
AcDbEntity
  8
1
  6
Continuous
100
AcDbLine
 10
464.7247689999998
 20
125.575449
 30
0.0
 11
464.7247689999998
 21
164.5754489999999
 31
0.0
  0
LINE
  5
9EDB
330
9E8F
100
AcDbEntity
  8
1
  6
Continuous
100
AcDbLine
 10
464.7247689999998
 20
78.575449
 30
0.0
 11
464.7247689999998
 21
117.575449
 31
0.0
  0
LINE
  5
9EDC
330
9E8F
100
AcDbEntity
  8
1
  6
Continuous
100
AcDbLine
 10
400.9647689999998
 20
166.5754489999999
 30
0.0
 11
382.024769
 21
166.5754489999999
 31
0.0
  0
LINE
  5
9EDD
330
9E8F
100
AcDbEntity
  8
1
  6
Continuous
100
AcDbLine
 10
400.9647689999998
 20
76.57544900000002
 30
0.0
 11
381.9377689999998
 21
76.57544900000002
 31
0.0
  0
LINE
  5
9EDE
330
9E8F
100
AcDbEntity
  8
1
  6
Continuous
100
AcDbLine
 10
397.964769
 20
155.1754489999999
 30
0.0
 11
396.964769
 21
155.1754489999999
 31
0.0
  0
LINE
  5
9EDF
330
9E8F
100
AcDbEntity
  8
1
  6
Continuous
100
AcDbLine
 10
397.964769
 20
147.9754489999999
 30
0.0
 11
396.964769
 21
147.9754489999999
 31
0.0
  0
LINE
  5
9EE0
330
9E8F
100
AcDbEntity
  8
1
  6
Continuous
100
AcDbLine
 10
396.964769
 20
147.9754489999999
 30
0.0
 11
396.964769
 21
155.1754489999999
 31
0.0
  0
LINE
  5
9EE1
330
9E8F
100
AcDbEntity
  8
1
  6
Continuous
100
AcDbLine
 10
397.964769
 20
95.175449
 30
0.0
 11
396.964769
 21
95.175449
 31
0.0
  0
LINE
  5
9EE2
330
9E8F
100
AcDbEntity
  8
1
  6
Continuous
100
AcDbLine
 10
397.964769
 20
87.975449
 30
0.0
 11
396.964769
 21
87.975449
 31
0.0
  0
LINE
  5
9EE3
330
9E8F
100
AcDbEntity
  8
1
  6
Continuous
100
AcDbLine
 10
396.964769
 20
87.975449
 30
0.0
 11
396.964769
 21
95.175449
 31
0.0
  0
LINE
  5
9EE4
330
9E8F
100
AcDbEntity
  8
1
  6
Continuous
100
AcDbLine
 10
400.9647689999998
 20
262.372449
 30
0.0
 11
400.9647689999998
 21
277.372449
 31
0.0
  0
LINE
  5
9EE5
330
9E8F
100
AcDbEntity
  8
1
  6
Continuous
100
AcDbLine
 10
398.9657689999999
 20
279.372449
 30
0.0
 11
348.0537689999999
 21
279.372449
 31
0.0
  0
LINE
  5
9EE6
330
9E8F
100
AcDbEntity
  8
1
  6
Continuous
100
AcDbLine
 10
398.9647689999998
 20
262.372449
 30
0.0
 11
398.9647689999998
 21
277.372449
 31
0.0
  0
LINE
  5
9EE7
330
9E8F
100
AcDbEntity
  8
1
  6
Continuous
100
AcDbLine
 10
400.965769
 20
262.372449
 30
0.0
 11
398.9657689999999
 21
262.372449
 31
0.0
  0
LINE
  5
9EE8
330
9E8F
100
AcDbEntity
  8
1
  6
Continuous
100
AcDbLine
 10
316.4647689999998
 20
277.372449
 30
0.0
 11
316.4647689999998
 21
279.372449
 31
0.0
  0
LINE
  5
9EE9
330
9E8F
100
AcDbEntity
  8
1
  6
Continuous
100
AcDbLine
 10
397.9657689999998
 20
272.9724489999999
 30
0.0
 11
396.9657689999999
 21
272.9724489999999
 31
0.0
  0
LINE
  5
9EEA
330
9E8F
100
AcDbEntity
  8
1
  6
Continuous
100
AcDbLine
 10
397.9657689999998
 20
265.772449
 30
0.0
 11
396.9657689999999
 21
265.772449
 31
0.0
  0
LINE
  5
9EEB
330
9E8F
100
AcDbEntity
  8
1
  6
Continuous
100
AcDbLine
 10
396.964769
 20
265.772449
 30
0.0
 11
396.964769
 21
272.9724489999999
 31
0.0
  0
LINE
  5
9EEC
330
9E8F
100
AcDbEntity
  8
1
  6
Continuous
100
AcDbLine
 10
410.964769
 20
115.575449
 30
0.0
 11
410.964769
 21
127.575449
 31
0.0
  0
LINE
  5
9EED
330
9E8F
100
AcDbEntity
  8
1
  6
Continuous
100
AcDbLine
 10
409.9657689999999
 20
267.372449
 30
0.0
 11
400.965769
 21
267.372449
 31
0.0
  0
LINE
  5
9EEE
330
9E8F
100
AcDbEntity
  8
1
  6
Continuous
100
AcDbLine
 10
402.379769
 20
277.372449
 30
0.0
 11
400.965769
 21
277.372449
 31
0.0
  0
LINE
  5
9EEF
330
9E8F
100
AcDbEntity
  8
1
  6
Continuous
100
AcDbLine
 10
396.9657689999999
 20
267.372449
 30
0.0
 11
375.4657689999998
 21
267.372449
 31
0.0
  0
LINE
  5
9EF0
330
9E8F
100
AcDbEntity
  8
1
  6
Continuous
100
AcDbLine
 10
485.724769
 20
76.57544900000002
 30
0.0
 11
485.724769
 21
166.5754489999999
 31
0.0
  0
LINE
  5
9EF1
330
9E8F
100
AcDbEntity
  8
1
  6
Continuous
100
AcDbLine
 10
471.7247689999998
 20
76.57544900000002
 30
0.0
 11
485.724769
 21
76.57544900000002
 31
0.0
  0
LINE
  5
9EF2
330
9E8F
100
AcDbEntity
  8
1
  6
Continuous
100
AcDbLine
 10
471.7247689999998
 20
166.5754489999999
 30
0.0
 11
485.724769
 21
166.5754489999999
 31
0.0
  0
LINE
  5
9EF3
330
9E8F
100
AcDbEntity
  8
1
  6
Continuous
100
AcDbLine
 10
464.7247689999998
 20
161.575449
 30
0.0
 11
457.724769
 21
161.575449
 31
0.0
  0
LINE
  5
9EF4
330
9E8F
100
AcDbEntity
  8
1
  6
Continuous
100
AcDbLine
 10
464.7247689999998
 20
81.57544900000003
 30
0.0
 11
457.724769
 21
81.57544900000003
 31
0.0
  0
LINE
  5
9EF5
330
9E8F
100
AcDbEntity
  8
1
  6
Continuous
100
AcDbLine
 10
457.724769
 20
162.575449
 30
0.0
 11
457.724769
 21
164.5754489999999
 31
0.0
  0
LINE
  5
9EF6
330
9E8F
100
AcDbEntity
  8
1
  6
Continuous
100
AcDbLine
 10
457.724769
 20
78.575449
 30
0.0
 11
457.724769
 21
80.57544900000001
 31
0.0
  0
LINE
  5
9EF7
330
9E8F
100
AcDbEntity
  8
1
  6
Continuous
100
AcDbLine
 10
473.724769
 20
128.5754489999999
 30
0.0
 11
473.724769
 21
114.575449
 31
0.0
  0
LINE
  5
9EF8
330
9E8F
100
AcDbEntity
  8
1
  6
Continuous
100
AcDbLine
 10
483.7247689999998
 20
128.5754489999999
 30
0.0
 11
483.7247689999998
 21
114.575449
 31
0.0
  0
LINE
  5
9EF9
330
9E8F
100
AcDbEntity
  8
1
  6
Continuous
100
AcDbLine
 10
475.4317689999998
 20
126.6264489999998
 30
0.0
 11
475.4317689999998
 21
116.4824489999999
 31
0.0
  0
LINE
  5
9EFA
330
9E8F
100
AcDbEntity
  8
1
  6
Continuous
100
AcDbLine
 10
473.724769
 20
114.575449
 30
0.0
 11
485.724769
 21
114.575449
 31
0.0
  0
LINE
  5
9EFB
330
9E8F
100
AcDbEntity
  8
1
  6
Continuous
100
AcDbLine
 10
473.724769
 20
128.5754489999999
 30
0.0
 11
485.724769
 21
128.5754489999999
 31
0.0
  0
LINE
  5
9EFC
330
9E8F
100
AcDbEntity
  8
4
  6
CENTER
100
AcDbLine
 10
471.7247689999998
 20
151.5754489999999
 30
0.0
 11
479.7247689999998
 21
151.5754489999999
 31
0.0
  0
LINE
  5
9EFD
330
9E8F
100
AcDbEntity
  8
4
  6
CENTER
100
AcDbLine
 10
475.7247689999998
 20
147.5754489999999
 30
0.0
 11
475.7247689999998
 21
155.5754489999999
 31
0.0
  0
LINE
  5
9EFE
330
9E8F
100
AcDbEntity
  8
4
  6
CENTER
100
AcDbLine
 10
471.7247689999998
 20
91.57544900000001
 30
0.0
 11
479.7247689999998
 21
91.57544900000001
 31
0.0
  0
LINE
  5
9EFF
330
9E8F
100
AcDbEntity
  8
4
  6
CENTER
100
AcDbLine
 10
475.7247689999998
 20
87.575449
 30
0.0
 11
475.7247689999998
 21
95.57544900000001
 31
0.0
  0
LINE
  5
9F00
330
9E8F
100
AcDbEntity
  8
4
  6
CENTER
100
AcDbLine
 10
392.981769
 20
151.5754489999999
 30
0.0
 11
404.5447689999998
 21
151.5754489999999
 31
0.0
  0
LINE
  5
9F01
330
9E8F
100
AcDbEntity
  8
4
  6
CENTER
100
AcDbLine
 10
392.785769
 20
91.57544900000001
 30
0.0
 11
404.1527689999998
 21
91.57544900000001
 31
0.0
  0
LINE
  5
9F02
330
9E8F
100
AcDbEntity
  8
4
  6
CENTER
100
AcDbLine
 10
359.4657689999999
 20
256.372449
 30
0.0
 11
370.4657689999999
 21
256.372449
 31
0.0
  0
LINE
  5
9F03
330
9E8F
100
AcDbEntity
  8
4
  6
CENTER
100
AcDbLine
 10
364.964769
 20
250.872449
 30
0.0
 11
364.964769
 21
261.872449
 31
0.0
  0
LINE
  5
9F04
330
9E8F
100
AcDbEntity
  8
1
  6
Continuous
100
AcDbLine
 10
317.507769
 20
301.331449
 30
0.0
 11
306.5077689999998
 21
301.331449
 31
0.0
  0
LINE
  5
9F05
330
9E8F
100
AcDbEntity
  8
1
  6
Continuous
100
AcDbLine
 10
306.5077689999998
 20
301.331449
 30
0.0
 11
306.5077689999998
 21
283.831449
 31
0.0
  0
LINE
  5
9F06
330
9E8F
100
AcDbEntity
  8
1
  6
Continuous
100
AcDbLine
 10
304.5077689999998
 20
281.8334489999998
 30
0.0
 11
297.007769
 21
281.8334489999998
 31
0.0
  0
LINE
  5
9F07
330
9E8F
100
AcDbEntity
  8
1
  6
Continuous
100
AcDbLine
 10
304.5077689999998
 20
283.829449
 30
0.0
 11
297.007769
 21
283.829449
 31
0.0
  0
LINE
  5
9F08
330
9E8F
100
AcDbEntity
  8
1
  6
Continuous
100
AcDbLine
 10
304.5077689999998
 20
301.331449
 30
0.0
 11
304.5077689999998
 21
283.831449
 31
0.0
  0
LINE
  5
9F09
330
9E8F
100
AcDbEntity
  8
1
  6
Continuous
100
AcDbLine
 10
317.507769
 20
303.331449
 30
0.0
 11
306.5077689999998
 21
303.331449
 31
0.0
  0
LINE
  5
9F0A
330
9E8F
100
AcDbEntity
  8
1
  6
Continuous
100
AcDbLine
 10
297.006769
 20
281.831449
 30
0.0
 11
297.006769
 21
283.831449
 31
0.0
  0
LINE
  5
9F0B
330
9E8F
100
AcDbEntity
  8
1
  6
Continuous
100
AcDbLine
 10
317.506769
 20
301.331449
 30
0.0
 11
317.506769
 21
303.331449
 31
0.0
  0
LINE
  5
9F0C
330
9E8F
100
AcDbEntity
  8
4
  6
CENTER
100
AcDbLine
 10
492.6107690000002
 20
121.575449
 30
0.0
 11
447.138769
 21
121.575449
 31
0.0
  0
LINE
  5
9F0D
330
9E8F
100
AcDbEntity
  8
4
  6
CENTER
100
AcDbLine
 10
419.327769
 20
121.575449
 30
0.0
 11
289.706769
 21
121.575449
 31
0.0
  0
LINE
  5
9F0E
330
9E8F
100
AcDbEntity
  8
1
  6
Continuous
100
AcDbLine
 10
295.1697689999999
 20
159.575449
 30
0.0
 11
295.1697689999999
 21
83.575449
 31
0.0
  0
LINE
  5
9F0F
330
9E8F
100
AcDbEntity
  8
1
  6
Continuous
100
AcDbLine
 10
297.1697689999999
 20
161.575449
 30
0.0
 11
302.540769
 21
161.575449
 31
0.0
  0
LINE
  5
9F10
330
9E8F
100
AcDbEntity
  8
1
  6
Continuous
100
AcDbLine
 10
297.1697689999999
 20
81.57544900000003
 30
0.0
 11
302.540769
 21
81.57544900000003
 31
0.0
  0
LINE
  5
9F11
330
9E8F
100
AcDbEntity
  8
1
  6
Continuous
100
AcDbLine
 10
69.67410100000001
 20
261.989421
 30
0.0
 11
69.67410100000001
 21
255.6694209999998
 31
0.0
  0
LINE
  5
9F12
330
9E8F
100
AcDbEntity
  8
1
  6
Continuous
100
AcDbLine
 10
77.905501
 20
248.8294209999998
 30
0.0
 11
75.16650099999998
 21
248.8294209999998
 31
0.0
  0
LINE
  5
9F13
330
9E8F
100
AcDbEntity
  8
1
  6
Continuous
100
AcDbLine
 10
77.905501
 20
268.8294209999999
 30
0.0
 11
75.16650099999998
 21
268.8294209999999
 31
0.0
  0
LINE
  5
9F14
330
9E8F
100
AcDbEntity
  8
1
  6
Continuous
100
AcDbLine
 10
69.881501
 20
262.5994209999999
 30
0.0
 11
74.373901
 21
268.4394209999999
 31
0.0
  0
LINE
  5
9F15
330
9E8F
100
AcDbEntity
  8
1
  6
Continuous
100
AcDbLine
 10
78.40660099999998
 20
268.6944209999999
 30
0.0
 11
87.67410099999997
 21
263.3294209999998
 31
0.0
  0
LINE
  5
9F16
330
9E8F
100
AcDbEntity
  8
1
  6
Continuous
100
AcDbLine
 10
78.40660099999998
 20
248.9634209999999
 30
0.0
 11
87.67410099999997
 21
254.3294209999999
 31
0.0
  0
LINE
  5
9F17
330
9E8F
100
AcDbEntity
  8
1
  6
Continuous
100
AcDbLine
 10
87.67410099999997
 20
263.3294209999998
 30
0.0
 11
92.174101
 21
263.3294209999998
 31
0.0
  0
LINE
  5
9F18
330
9E8F
100
AcDbEntity
  8
1
  6
Continuous
100
AcDbLine
 10
87.67410099999997
 20
254.3294209999999
 30
0.0
 11
92.174101
 21
254.3294209999999
 31
0.0
  0
LINE
  5
9F19
330
9E8F
100
AcDbEntity
  8
1
  6
Continuous
100
AcDbLine
 10
92.67410099999999
 20
261.8294209999999
 30
0.0
 11
101.088401
 21
261.8294209999999
 31
0.0
  0
LINE
  5
9F1A
330
9E8F
100
AcDbEntity
  8
1
  6
Continuous
100
AcDbLine
 10
92.67410099999999
 20
255.829421
 30
0.0
 11
101.088401
 21
255.829421
 31
0.0
  0
LINE
  5
9F1B
330
9E8F
100
AcDbEntity
  8
1
  6
Continuous
100
AcDbLine
 10
92.67410099999999
 20
254.8294209999999
 30
0.0
 11
92.67410099999999
 21
255.829421
 31
0.0
  0
LINE
  5
9F1C
330
9E8F
100
AcDbEntity
  8
1
  6
Continuous
100
AcDbLine
 10
92.67410099999999
 20
262.8294209999999
 30
0.0
 11
92.67410099999999
 21
261.8294209999999
 31
0.0
  0
LINE
  5
9F1D
330
9E8F
100
AcDbEntity
  8
1
  6
Continuous
100
AcDbLine
 10
101.088401
 20
255.829421
 30
0.0
 11
103.381201
 21
258.1224209999999
 31
0.0
  0
LINE
  5
9F1E
330
9E8F
100
AcDbEntity
  8
1
  6
Continuous
100
AcDbLine
 10
101.088401
 20
261.8294209999999
 30
0.0
 11
103.381201
 21
259.536421
 31
0.0
  0
LINE
  5
9F1F
330
9E8F
100
AcDbEntity
  8
1
  6
Continuous
100
AcDbLine
 10
71.67410100000002
 20
261.3294209999998
 30
0.0
 11
71.67410100000002
 21
256.3294209999999
 31
0.0
  0
LINE
  5
9F20
330
9E8F
100
AcDbEntity
  8
1
  6
Continuous
100
AcDbLine
 10
74.17410099999997
 20
261.3294209999998
 30
0.0
 11
74.17410099999997
 21
256.3294209999999
 31
0.0
  0
LINE
  5
9F21
330
9E8F
100
AcDbEntity
  8
1
  6
Continuous
100
AcDbLine
 10
73.67410099999998
 20
261.8294209999999
 30
0.0
 11
72.17410099999998
 21
261.8294209999999
 31
0.0
  0
LINE
  5
9F22
330
9E8F
100
AcDbEntity
  8
1
  6
Continuous
100
AcDbLine
 10
77.51570100000002
 20
253.714421
 30
0.0
 11
80.908101
 21
253.714421
 31
0.0
  0
LINE
  5
9F23
330
9E8F
100
AcDbEntity
  8
1
  6
Continuous
100
AcDbLine
 10
81.12610100000003
 20
254.501421
 30
0.0
 11
78.222201
 21
254.501421
 31
0.0
  0
LINE
  5
9F24
330
9E8F
100
AcDbEntity
  8
1
  6
Continuous
100
AcDbLine
 10
77.733101
 20
255.288421
 30
0.0
 11
81.615201
 21
255.288421
 31
0.0
  0
LINE
  5
9F25
330
9E8F
100
AcDbEntity
  8
1
  6
Continuous
100
AcDbLine
 10
78.72980099999998
 20
256.8624209999999
 30
0.0
 11
77.22670100000001
 21
256.8624209999999
 31
0.0
  0
LINE
  5
9F26
330
9E8F
100
AcDbEntity
  8
1
  6
Continuous
100
AcDbLine
 10
77.629401
 20
256.075421
 30
0.0
 11
81.718801
 21
256.075421
 31
0.0
  0
LINE
  5
9F27
330
9E8F
100
AcDbEntity
  8
1
  6
Continuous
100
AcDbLine
 10
82.121601
 20
256.8624209999999
 30
0.0
 11
80.61850099999999
 21
256.8624209999999
 31
0.0
  0
LINE
  5
9F28
330
9E8F
100
AcDbEntity
  8
1
  6
Continuous
100
AcDbLine
 10
76.99440099999998
 20
257.6484209999999
 30
0.0
 11
82.353801
 21
257.6484209999999
 31
0.0
  0
LINE
  5
9F29
330
9E8F
100
AcDbEntity
  8
1
  6
Continuous
100
AcDbLine
 10
76.92800099999998
 20
258.435421
 30
0.0
 11
82.42030099999999
 21
258.435421
 31
0.0
  0
LINE
  5
9F2A
330
9E8F
100
AcDbEntity
  8
1
  6
Continuous
100
AcDbLine
 10
79.67410099999998
 20
258.435421
 30
0.0
 11
79.67410099999998
 21
257.6484209999999
 31
0.0
  0
LINE
  5
9F2B
330
9E8F
100
AcDbEntity
  8
1
  6
Continuous
100
AcDbLine
 10
76.92800099999998
 20
259.2224209999999
 30
0.0
 11
82.42030099999999
 21
259.2224209999999
 31
0.0
  0
LINE
  5
9F2C
330
9E8F
100
AcDbEntity
  8
1
  6
Continuous
100
AcDbLine
 10
78.72980099999998
 20
260.796421
 30
0.0
 11
77.45240099999998
 21
260.796421
 31
0.0
  0
LINE
  5
9F2D
330
9E8F
100
AcDbEntity
  8
1
  6
Continuous
100
AcDbLine
 10
77.08420099999997
 20
260.0094209999999
 30
0.0
 11
82.26410099999998
 21
260.0094209999999
 31
0.0
  0
LINE
  5
9F2E
330
9E8F
100
AcDbEntity
  8
1
  6
Continuous
100
AcDbLine
 10
81.89590099999998
 20
260.796421
 30
0.0
 11
79.67410099999998
 21
260.796421
 31
0.0
  0
LINE
  5
9F2F
330
9E8F
100
AcDbEntity
  8
1
  6
Continuous
100
AcDbLine
 10
79.67410099999998
 20
260.796421
 30
0.0
 11
79.67410099999998
 21
260.403421
 31
0.0
  0
LINE
  5
9F30
330
9E8F
100
AcDbEntity
  8
1
  6
Continuous
100
AcDbLine
 10
77.08720099999998
 20
261.583421
 30
0.0
 11
82.01430100000001
 21
261.583421
 31
0.0
  0
LINE
  5
9F31
330
9E8F
100
AcDbEntity
  8
1
  6
Continuous
100
AcDbLine
 10
77.45800099999998
 20
262.370421
 30
0.0
 11
79.28070099999998
 21
262.370421
 31
0.0
  0
LINE
  5
9F32
330
9E8F
100
AcDbEntity
  8
1
  6
Continuous
100
AcDbLine
 10
79.28070099999998
 20
263.157421
 30
0.0
 11
77.599401
 21
263.157421
 31
0.0
  0
LINE
  5
9F33
330
9E8F
100
AcDbEntity
  8
1
  6
Continuous
100
AcDbLine
 10
79.67410099999998
 20
262.7644209999999
 30
0.0
 11
81.561801
 21
262.7644209999999
 31
0.0
  0
LINE
  5
9F34
330
9E8F
100
AcDbEntity
  8
1
  6
Continuous
100
AcDbLine
 10
81.14680099999999
 20
263.558421
 30
0.0
 11
77.829001
 21
264.447421
 31
0.0
  0
LINE
  5
9F35
330
9E8F
100
AcDbEntity
  8
1
  6
Continuous
100
AcDbLine
 10
79.67410099999998
 20
265.5794209999999
 30
0.0
 11
79.67410099999998
 21
263.9534209999998
 31
0.0
  0
LINE
  5
9F36
330
9E8F
100
AcDbEntity
  8
1
  6
Continuous
100
AcDbLine
 10
70.67410099999998
 20
261.989421
 30
0.0
 11
70.67410099999998
 21
255.6691799999999
 31
0.0
  0
LINE
  5
9F37
330
9E8F
100
AcDbEntity
  8
1
  6
Continuous
100
AcDbLine
 10
70.67410099999998
 20
261.989421
 30
0.0
 11
75.16650099999998
 21
267.8294209999999
 31
0.0
  0
LINE
  5
9F38
330
9E8F
100
AcDbEntity
  8
1
  6
Continuous
100
AcDbLine
 10
77.905501
 20
249.829421
 30
0.0
 11
75.16650099999998
 21
249.829421
 31
0.0
  0
LINE
  5
9F39
330
9E8F
100
AcDbEntity
  8
1
  6
Continuous
100
AcDbLine
 10
77.905501
 20
267.8294209999999
 30
0.0
 11
75.16650099999998
 21
267.8294209999999
 31
0.0
  0
LINE
  5
9F3A
330
9E8F
100
AcDbEntity
  8
1
  6
Continuous
100
AcDbLine
 10
77.905501
 20
267.8294209999999
 30
0.0
 11
87.67410099999997
 21
262.173421
 31
0.0
  0
LINE
  5
9F3B
330
9E8F
100
AcDbEntity
  8
1
  6
Continuous
100
AcDbLine
 10
77.905501
 20
249.829421
 30
0.0
 11
87.67410099999997
 21
255.484421
 31
0.0
  0
LINE
  5
9F3C
330
9E8F
100
AcDbEntity
  8
1
  6
Continuous
100
AcDbLine
 10
87.67410099999997
 20
255.484421
 30
0.0
 11
87.67410099999997
 21
262.173421
 31
0.0
  0
LINE
  5
9F3D
330
9E8F
100
AcDbEntity
  8
1
  6
Continuous
100
AcDbLine
 10
70.67410099999998
 20
255.6691799999999
 30
0.0
 11
75.16650099999998
 21
249.829421
 31
0.0
  0
LINE
  5
9F3E
330
9E8F
100
AcDbEntity
  8
1
  6
Continuous
100
AcDbLine
 10
69.85580099999999
 20
255.09463
 30
0.0
 11
74.373901
 21
249.219421
 31
0.0
  0
LINE
  5
9F3F
330
9E8F
100
AcDbEntity
  8
4
  6
CENTER
100
AcDbLine
 10
322.4647689999998
 20
274.0534489999999
 30
0.0
 11
322.4647689999998
 21
280.9744489999999
 31
0.0
  0
LINE
  5
9F40
330
9E8F
100
AcDbEntity
  8
4
  6
CENTER
100
AcDbLine
 10
370.4647689999998
 20
274.0534489999999
 30
0.0
 11
370.4647689999998
 21
280.9744489999999
 31
0.0
  0
LINE
  5
9F41
330
9E8F
100
AcDbEntity
  8
1
  6
Continuous
100
AcDbLine
 10
398.9647689999998
 20
166.5754489999999
 30
0.0
 11
398.9647689999998
 21
76.57544900000002
 31
0.0
  0
LINE
  5
9F42
330
9E8F
100
AcDbEntity
  8
1
  6
Continuous
100
AcDbLine
 10
400.9647689999998
 20
166.5754489999999
 30
0.0
 11
400.9647689999998
 21
76.57544900000002
 31
0.0
  0
LINE
  5
9F43
330
9E8F
100
AcDbEntity
  8
1
  6
Continuous
100
AcDbLine
 10
409.964769
 20
114.575449
 30
0.0
 11
400.9647689999998
 21
114.575449
 31
0.0
  0
LINE
  5
9F44
330
9E8F
100
AcDbEntity
  8
1
  6
Continuous
100
AcDbLine
 10
398.9647689999998
 20
114.575449
 30
0.0
 11
383.916769
 21
114.575449
 31
0.0
  0
LINE
  5
9F45
330
9E8F
100
AcDbEntity
  8
1
  6
Continuous
100
AcDbLine
 10
409.964769
 20
128.5754489999999
 30
0.0
 11
400.9647689999998
 21
128.5754489999999
 31
0.0
  0
LINE
  5
9F46
330
9E8F
100
AcDbEntity
  8
1
  6
Continuous
100
AcDbLine
 10
398.9647689999998
 20
128.5754489999999
 30
0.0
 11
383.916769
 21
128.5754489999999
 31
0.0
  0
LINE
  5
9F47
330
9E8F
100
AcDbEntity
  8
1
  6
Continuous
100
AcDbLine
 10
468.7247689999998
 20
163.575449
 30
0.0
 11
468.7247689999998
 21
79.57544900000002
 31
0.0
  0
LINE
  5
9F48
330
9E8F
100
AcDbEntity
  8
1
  6
Continuous
100
AcDbLine
 10
355.564769
 20
87.52544899999998
 30
0.0
 11
345.964769
 21
87.52544899999998
 31
0.0
  0
LINE
  5
9F49
330
9E8F
100
AcDbEntity
  8
1
  6
Continuous
100
AcDbLine
 10
355.564769
 20
89.62544900000002
 30
0.0
 11
345.964769
 21
89.62544900000002
 31
0.0
  0
LINE
  5
9F4A
330
9E8F
100
AcDbEntity
  8
1
  6
Continuous
100
AcDbLine
 10
345.964769
 20
89.62544900000002
 30
0.0
 11
345.964769
 21
87.52544899999998
 31
0.0
  0
LINE
  5
9F4B
330
9E8F
100
AcDbEntity
  8
1
  6
Continuous
100
AcDbLine
 10
355.564769
 20
89.62544900000002
 30
0.0
 11
355.564769
 21
87.52544899999998
 31
0.0
  0
LINE
  5
9F4C
330
9E8F
100
AcDbEntity
  8
4
  6
CENTER
100
AcDbLine
 10
341.814769
 20
88.575449
 30
0.0
 11
359.1147689999999
 21
88.575449
 31
0.0
  0
LINE
  5
9F4D
330
9E8F
100
AcDbEntity
  8
4
  6
CENTER
100
AcDbLine
 10
350.464769
 20
97.225449
 30
0.0
 11
350.464769
 21
79.79804900000002
 31
0.0
  0
LINE
  5
9F4E
330
9E8F
100
AcDbEntity
  8
5
  6
PHANTOM
100
AcDbLine
 10
378.293769
 20
254.799449
 30
0.0
 11
375.464769
 21
258.823449
 31
0.0
  0
LINE
  5
9F4F
330
9E8F
100
AcDbEntity
  8
5
  6
PHANTOM
100
AcDbLine
 10
376.596769
 20
257.213449
 30
0.0
 11
375.4657689999998
 21
256.418449
 31
0.0
  0
LINE
  5
9F50
330
9E8F
100
AcDbEntity
  8
5
  6
PHANTOM
100
AcDbLine
 10
360.680769
 20
246.0284489999999
 30
0.0
 11
328.8727689999999
 21
223.675449
 31
0.0
  0
LINE
  5
9F51
330
9E8F
100
AcDbEntity
  8
1
  6
Continuous
100
AcDbLine
 10
253.033769
 20
70.57544900000002
 30
0.0
 11
251.205769
 21
70.57544900000002
 31
0.0
  0
LINE
  5
9F52
330
9E8F
100
AcDbEntity
  8
1
  6
Continuous
100
AcDbLine
 10
253.033769
 20
172.5754489999999
 30
0.0
 11
251.205769
 21
172.5754489999999
 31
0.0
  0
LINE
  5
9F53
330
9E8F
100
AcDbEntity
  8
1
  6
Continuous
100
AcDbLine
 10
251.205769
 20
70.57544900000002
 30
0.0
 11
251.205769
 21
172.5754489999999
 31
0.0
  0
LINE
  5
9F54
330
9E8F
100
AcDbEntity
  8
1
  6
Continuous
100
AcDbLine
 10
242.405769
 20
167.075449
 30
0.0
 11
251.205769
 21
167.075449
 31
0.0
  0
LINE
  5
9F55
330
9E8F
100
AcDbEntity
  8
1
  6
Continuous
100
AcDbLine
 10
242.405769
 20
76.075449
 30
0.0
 11
251.205769
 21
76.075449
 31
0.0
  0
LINE
  5
9F56
330
9E8F
100
AcDbEntity
  8
1
  6
Continuous
100
AcDbLine
 10
222.205769
 20
76.57544900000002
 30
0.0
 11
222.205769
 21
166.5754489999999
 31
0.0
  0
LINE
  5
9F57
330
9E8F
100
AcDbEntity
  8
1
  6
Continuous
100
AcDbLine
 10
236.2057689999998
 20
76.57544900000002
 30
0.0
 11
222.205769
 21
76.57544900000002
 31
0.0
  0
LINE
  5
9F58
330
9E8F
100
AcDbEntity
  8
1
  6
Continuous
100
AcDbLine
 10
236.2057689999998
 20
166.5754489999999
 30
0.0
 11
222.205769
 21
166.5754489999999
 31
0.0
  0
LINE
  5
9F59
330
9E8F
100
AcDbEntity
  8
4
  6
CENTER
100
AcDbLine
 10
215.319769
 20
121.575449
 30
0.0
 11
260.7917689999998
 21
121.575449
 31
0.0
  0
LINE
  5
9F5A
330
9E8F
100
AcDbEntity
  8
1
  6
Continuous
100
AcDbLine
 10
234.405769
 20
84.07544900000003
 30
0.0
 11
234.405769
 21
91.57544900000001
 31
0.0
  0
LINE
  5
9F5B
330
9E8F
100
AcDbEntity
  8
1
  6
Continuous
100
AcDbLine
 10
224.205769
 20
111.975449
 30
0.0
 11
231.205769
 21
111.975449
 31
0.0
  0
LINE
  5
9F5C
330
9E8F
100
AcDbEntity
  8
1
  6
Continuous
100
AcDbLine
 10
224.205769
 20
131.1754489999999
 30
0.0
 11
231.205769
 21
131.1754489999999
 31
0.0
  0
LINE
  5
9F5D
330
9E8F
100
AcDbEntity
  8
4
  6
CENTER
100
AcDbLine
 10
219.2787689999999
 20
151.5754489999999
 30
0.0
 11
232.205769
 21
151.5754489999999
 31
0.0
  0
LINE
  5
9F5E
330
9E8F
100
AcDbEntity
  8
4
  6
CENTER
100
AcDbLine
 10
218.9807689999999
 20
91.57544900000001
 30
0.0
 11
232.205769
 21
91.57544900000001
 31
0.0
  0
LINE
  5
9F5F
330
9E8F
100
AcDbEntity
  8
1
  6
Continuous
100
AcDbLine
 10
224.205769
 20
86.57544900000003
 30
0.0
 11
234.405769
 21
86.57544900000003
 31
0.0
  0
LINE
  5
9F60
330
9E8F
100
AcDbEntity
  8
1
  6
Continuous
100
AcDbLine
 10
224.205769
 20
96.57544900000001
 30
0.0
 11
231.205769
 21
96.57544900000001
 31
0.0
  0
LINE
  5
9F61
330
9E8F
100
AcDbEntity
  8
1
  6
Continuous
100
AcDbLine
 10
224.205769
 20
146.5754489999999
 30
0.0
 11
231.205769
 21
146.5754489999999
 31
0.0
  0
LINE
  5
9F62
330
9E8F
100
AcDbEntity
  8
1
  6
Continuous
100
AcDbLine
 10
224.205769
 20
156.5754489999999
 30
0.0
 11
234.405769
 21
156.5754489999999
 31
0.0
  0
LINE
  5
9F63
330
9E8F
100
AcDbEntity
  8
4
  6
CENTER
100
AcDbLine
 10
218.067769
 20
104.075449
 30
0.0
 11
234.299769
 21
104.075449
 31
0.0
  0
LINE
  5
9F64
330
9E8F
100
AcDbEntity
  8
4
  6
CENTER
100
AcDbLine
 10
219.1357689999999
 20
139.0754489999999
 30
0.0
 11
235.1537689999999
 21
139.0754489999999
 31
0.0
  0
LINE
  5
9F65
330
9E8F
100
AcDbEntity
  8
1
  6
Continuous
100
AcDbLine
 10
231.205769
 20
92.575449
 30
0.0
 11
231.205769
 21
111.975449
 31
0.0
  0
LINE
  5
9F66
330
9E8F
100
AcDbEntity
  8
1
  6
Continuous
100
AcDbLine
 10
224.205769
 20
76.57544900000002
 30
0.0
 11
224.205769
 21
166.5754489999999
 31
0.0
  0
LINE
  5
9F67
330
9E8F
100
AcDbEntity
  8
1
  6
Continuous
100
AcDbLine
 10
232.205769
 20
141.5754489999999
 30
0.0
 11
251.205769
 21
141.5754489999999
 31
0.0
  0
LINE
  5
9F68
330
9E8F
100
AcDbEntity
  8
1
  6
Continuous
100
AcDbLine
 10
232.205769
 20
101.575449
 30
0.0
 11
251.205769
 21
101.575449
 31
0.0
  0
LINE
  5
9F69
330
9E8F
100
AcDbEntity
  8
1
  6
Continuous
100
AcDbLine
 10
232.205769
 20
91.57544900000001
 30
0.0
 11
251.205769
 21
91.57544900000001
 31
0.0
  0
LINE
  5
9F6A
330
9E8F
100
AcDbEntity
  8
1
  6
Continuous
100
AcDbLine
 10
232.205769
 20
151.5754489999999
 30
0.0
 11
251.205769
 21
151.5754489999999
 31
0.0
  0
LINE
  5
9F6B
330
9E8F
100
AcDbEntity
  8
1
  6
Continuous
100
AcDbLine
 10
234.405769
 20
151.5754489999999
 30
0.0
 11
234.405769
 21
159.0754489999999
 31
0.0
  0
LINE
  5
9F6C
330
9E8F
100
AcDbEntity
  8
1
  6
Continuous
100
AcDbLine
 10
231.205769
 20
131.1754489999999
 30
0.0
 11
231.205769
 21
150.5754489999999
 31
0.0
  0
LINE
  5
9F6D
330
9E8F
100
AcDbEntity
  8
1
  6
Continuous
100
AcDbLine
 10
200.2967689999999
 20
161.575449
 30
0.0
 11
200.2967689999999
 21
81.57544900000003
 31
0.0
  0
LINE
  5
9F6E
330
9E8F
100
AcDbEntity
  8
1
  6
Continuous
100
AcDbLine
 10
198.2967689999999
 20
161.575449
 30
0.0
 11
198.2967689999999
 21
81.57544900000003
 31
0.0
  0
LINE
  5
9F6F
330
9E8F
100
AcDbEntity
  8
1
  6
Continuous
100
AcDbLine
 10
178.7967689999999
 20
161.575449
 30
0.0
 11
178.7967689999999
 21
81.57544900000003
 31
0.0
  0
LINE
  5
9F70
330
9E8F
100
AcDbEntity
  8
1
  6
Continuous
100
AcDbLine
 10
200.2967689999999
 20
161.575449
 30
0.0
 11
178.7967689999999
 21
161.575449
 31
0.0
  0
LINE
  5
9F71
330
9E8F
100
AcDbEntity
  8
1
  6
Continuous
100
AcDbLine
 10
200.2967689999999
 20
81.57544900000003
 30
0.0
 11
178.7967689999999
 21
81.57544900000003
 31
0.0
  0
LINE
  5
9F72
330
9E8F
100
AcDbEntity
  8
4
  6
CENTER
100
AcDbLine
 10
311.506769
 20
265.2194489999998
 30
0.0
 11
311.506769
 21
275.1164489999999
 31
0.0
  0
LINE
  5
9F73
330
9E8F
100
AcDbEntity
  8
4
  6
CENTER
100
AcDbLine
 10
311.506769
 20
297.471449
 30
0.0
 11
311.506769
 21
310.610449
 31
0.0
  0
LINE
  5
9F74
330
9E8F
100
AcDbEntity
  8
4
  6
CENTER
100
AcDbLine
 10
204.7937689999999
 20
121.575449
 30
0.0
 11
173.223769
 21
121.575449
 31
0.0
  0
LINE
  5
9F75
330
9E8F
100
AcDbEntity
  8
4
  6
CENTER
100
AcDbLine
 10
181.7967689999999
 20
146.5754489999999
 30
0.0
 11
171.396769
 21
146.5754489999999
 31
0.0
  0
LINE
  5
9F76
330
9E8F
100
AcDbEntity
  8
4
  6
CENTER
100
AcDbLine
 10
181.7967689999999
 20
96.57544900000001
 30
0.0
 11
171.396769
 21
96.57544900000001
 31
0.0
  0
LINE
  5
9F77
330
9E8F
100
AcDbEntity
  8
1
  6
Continuous
100
AcDbLine
 10
177.996769
 20
91.57544900000001
 30
0.0
 11
177.996769
 21
101.575449
 31
0.0
  0
LINE
  5
9F78
330
9E8F
100
AcDbEntity
  8
1
  6
Continuous
100
AcDbLine
 10
176.996769
 20
92.775449
 30
0.0
 11
176.996769
 21
100.3754489999999
 31
0.0
  0
LINE
  5
9F79
330
9E8F
100
AcDbEntity
  8
1
  6
Continuous
100
AcDbLine
 10
176.996769
 20
96.114449
 30
0.0
 11
177.996769
 21
96.95344900000002
 31
0.0
  0
LINE
  5
9F7A
330
9E8F
100
AcDbEntity
  8
1
  6
Continuous
100
AcDbLine
 10
176.996769
 20
93.07544900000001
 30
0.0
 11
175.877769
 21
93.173449
 31
0.0
  0
LINE
  5
9F7B
330
9E8F
100
AcDbEntity
  8
1
  6
Continuous
100
AcDbLine
 10
176.996769
 20
100.075449
 30
0.0
 11
175.877769
 21
99.977449
 31
0.0
  0
LINE
  5
9F7C
330
9E8F
100
AcDbEntity
  8
1
  6
Continuous
100
AcDbLine
 10
54.12906899999999
 20
76.075449
 30
0.0
 11
54.12906899999999
 21
76.57544900000002
 31
0.0
  0
LINE
  5
9F7D
330
9E8F
100
AcDbEntity
  8
1
  6
Continuous
100
AcDbLine
 10
28.629069
 20
166.5754489999999
 30
0.0
 11
110.1287689999999
 21
166.5754489999999
 31
0.0
  0
LINE
  5
9F7E
330
9E8F
100
AcDbEntity
  8
1
  6
Continuous
100
AcDbLine
 10
28.629069
 20
76.57544900000002
 30
0.0
 11
110.1287689999999
 21
76.57544900000002
 31
0.0
  0
LINE
  5
9F7F
330
9E8F
100
AcDbEntity
  8
1
  6
Continuous
100
AcDbLine
 10
18.629069
 20
115.575449
 30
0.0
 11
18.629069
 21
127.575449
 31
0.0
  0
LINE
  5
9F80
330
9E8F
100
AcDbEntity
  8
4
  6
CENTER
100
AcDbLine
 10
34.20146900000001
 20
151.5754489999999
 30
0.0
 11
23.38936899999999
 21
151.5754489999999
 31
0.0
  0
LINE
  5
9F81
330
9E8F
100
AcDbEntity
  8
4
  6
CENTER
100
AcDbLine
 10
33.96116899999999
 20
91.57544900000001
 30
0.0
 11
23.62956899999999
 21
91.57544900000001
 31
0.0
  0
LINE
  5
9F82
330
9E8F
100
AcDbEntity
  8
4
  6
CENTER
100
AcDbLine
 10
10.266469
 20
121.575449
 30
0.0
 11
139.8877689999999
 21
121.575449
 31
0.0
  0
LINE
  5
9F83
330
9E8F
100
AcDbEntity
  8
1
  6
Continuous
100
AcDbLine
 10
113.9247689999999
 20
83.575449
 30
0.0
 11
113.9247689999999
 21
109.575449
 31
0.0
  0
LINE
  5
9F84
330
9E8F
100
AcDbEntity
  8
1
  6
Continuous
100
AcDbLine
 10
115.9247689999999
 20
81.57544900000003
 30
0.0
 11
132.4247689999999
 21
81.57544900000003
 31
0.0
  0
LINE
  5
9F85
330
9E8F
100
AcDbEntity
  8
1
  6
Continuous
100
AcDbLine
 10
115.9247689999999
 20
161.575449
 30
0.0
 11
132.4247689999999
 21
161.575449
 31
0.0
  0
LINE
  5
9F86
330
9E8F
100
AcDbEntity
  8
1
  6
Continuous
100
AcDbLine
 10
28.629069
 20
166.5754489999999
 30
0.0
 11
28.629069
 21
128.5754489999999
 31
0.0
  0
LINE
  5
9F87
330
9E8F
100
AcDbEntity
  8
1
  6
Continuous
100
AcDbLine
 10
19.629069
 20
114.575449
 30
0.0
 11
30.629069
 21
114.575449
 31
0.0
  0
LINE
  5
9F88
330
9E8F
100
AcDbEntity
  8
1
  6
Continuous
100
AcDbLine
 10
19.629069
 20
128.5754489999999
 30
0.0
 11
30.629069
 21
128.5754489999999
 31
0.0
  0
LINE
  5
9F89
330
9E8F
100
AcDbEntity
  8
1
  6
Continuous
100
AcDbLine
 10
134.4247689999999
 20
83.575449
 30
0.0
 11
134.4247689999999
 21
159.575449
 31
0.0
  0
LINE
  5
9F8A
330
9E8F
100
AcDbEntity
  8
1
  6
Continuous
100
AcDbLine
 10
118.9247689999999
 20
111.575449
 30
0.0
 11
115.9247689999999
 21
111.575449
 31
0.0
  0
LINE
  5
9F8B
330
9E8F
100
AcDbEntity
  8
1
  6
Continuous
100
AcDbLine
 10
118.9247689999999
 20
131.5754489999999
 30
0.0
 11
115.9247689999999
 21
131.5754489999999
 31
0.0
  0
LINE
  5
9F8C
330
9E8F
100
AcDbEntity
  8
1
  6
Continuous
100
AcDbLine
 10
118.9247689999999
 20
111.575449
 30
0.0
 11
118.9247689999999
 21
131.5754489999999
 31
0.0
  0
LINE
  5
9F8D
330
9E8F
100
AcDbEntity
  8
1
  6
Continuous
100
AcDbLine
 10
113.9247689999999
 20
133.575449
 30
0.0
 11
113.9247689999999
 21
159.575449
 31
0.0
  0
LINE
  5
9F8E
330
9E8F
100
AcDbEntity
  8
1
  6
Continuous
100
AcDbLine
 10
116.1287689999999
 20
167.075449
 30
0.0
 11
86.56576900000002
 21
167.075449
 31
0.0
  0
LINE
  5
9F8F
330
9E8F
100
AcDbEntity
  8
1
  6
Continuous
100
AcDbLine
 10
116.1287689999999
 20
76.075449
 30
0.0
 11
86.56576900000002
 21
76.075449
 31
0.0
  0
LINE
  5
9F90
330
9E8F
100
AcDbEntity
  8
1
  6
Continuous
100
AcDbLine
 10
119.252769
 20
147.2474489999999
 30
0.0
 11
118.746769
 21
147.0104489999999
 31
0.0
  0
LINE
  5
9F91
330
9E8F
100
AcDbEntity
  8
1
  6
Continuous
100
AcDbLine
 10
118.746769
 20
147.0104489999999
 30
0.0
 11
117.8667689999999
 21
146.995449
 31
0.0
  0
LINE
  5
9F92
330
9E8F
100
AcDbEntity
  8
1
  6
Continuous
100
AcDbLine
 10
118.746769
 20
146.1404489999999
 30
0.0
 11
117.867769
 21
146.155449
 31
0.0
  0
LINE
  5
9F93
330
9E8F
100
AcDbEntity
  8
1
  6
Continuous
100
AcDbLine
 10
119.252769
 20
145.903449
 30
0.0
 11
118.746769
 21
146.1404489999999
 31
0.0
  0
LINE
  5
9F94
330
9E8F
100
AcDbEntity
  8
1
  6
Continuous
100
AcDbLine
 10
120.596769
 20
145.903449
 30
0.0
 11
120.359769
 21
145.397449
 31
0.0
  0
LINE
  5
9F95
330
9E8F
100
AcDbEntity
  8
1
  6
Continuous
100
AcDbLine
 10
120.359769
 20
145.397449
 30
0.0
 11
120.3447689999999
 21
144.517449
 31
0.0
  0
LINE
  5
9F96
330
9E8F
100
AcDbEntity
  8
1
  6
Continuous
100
AcDbLine
 10
119.4897689999999
 20
145.397449
 30
0.0
 11
119.5047689999999
 21
144.517449
 31
0.0
  0
LINE
  5
9F97
330
9E8F
100
AcDbEntity
  8
1
  6
Continuous
100
AcDbLine
 10
119.252769
 20
145.903449
 30
0.0
 11
119.4897689999999
 21
145.397449
 31
0.0
  0
LINE
  5
9F98
330
9E8F
100
AcDbEntity
  8
1
  6
Continuous
100
AcDbLine
 10
120.596769
 20
147.2474489999999
 30
0.0
 11
121.1027689999999
 21
147.0104489999999
 31
0.0
  0
LINE
  5
9F99
330
9E8F
100
AcDbEntity
  8
1
  6
Continuous
100
AcDbLine
 10
121.1027689999999
 20
147.0104489999999
 30
0.0
 11
121.982769
 21
146.995449
 31
0.0
  0
LINE
  5
9F9A
330
9E8F
100
AcDbEntity
  8
1
  6
Continuous
100
AcDbLine
 10
121.1027689999999
 20
146.1404489999999
 30
0.0
 11
121.982769
 21
146.155449
 31
0.0
  0
LINE
  5
9F9B
330
9E8F
100
AcDbEntity
  8
1
  6
Continuous
100
AcDbLine
 10
120.596769
 20
145.903449
 30
0.0
 11
121.1027689999999
 21
146.1404489999999
 31
0.0
  0
LINE
  5
9F9C
330
9E8F
100
AcDbEntity
  8
1
  6
Continuous
100
AcDbLine
 10
119.252769
 20
147.2474489999999
 30
0.0
 11
119.4897689999999
 21
147.7534489999999
 31
0.0
  0
LINE
  5
9F9D
330
9E8F
100
AcDbEntity
  8
1
  6
Continuous
100
AcDbLine
 10
119.4897689999999
 20
147.7534489999999
 30
0.0
 11
119.5047689999999
 21
148.633449
 31
0.0
  0
LINE
  5
9F9E
330
9E8F
100
AcDbEntity
  8
1
  6
Continuous
100
AcDbLine
 10
120.359769
 20
147.7534489999999
 30
0.0
 11
120.3447689999999
 21
148.633449
 31
0.0
  0
LINE
  5
9F9F
330
9E8F
100
AcDbEntity
  8
1
  6
Continuous
100
AcDbLine
 10
120.596769
 20
147.2474489999999
 30
0.0
 11
120.359769
 21
147.7534489999999
 31
0.0
  0
LINE
  5
9FA0
330
9E8F
100
AcDbEntity
  8
1
  6
Continuous
100
AcDbLine
 10
119.252769
 20
97.24744900000001
 30
0.0
 11
118.746769
 21
97.01044899999999
 31
0.0
  0
LINE
  5
9FA1
330
9E8F
100
AcDbEntity
  8
1
  6
Continuous
100
AcDbLine
 10
118.746769
 20
97.01044899999999
 30
0.0
 11
117.8667689999999
 21
96.99544899999999
 31
0.0
  0
LINE
  5
9FA2
330
9E8F
100
AcDbEntity
  8
1
  6
Continuous
100
AcDbLine
 10
118.746769
 20
96.14044900000001
 30
0.0
 11
117.867769
 21
96.15544900000001
 31
0.0
  0
LINE
  5
9FA3
330
9E8F
100
AcDbEntity
  8
1
  6
Continuous
100
AcDbLine
 10
119.252769
 20
95.90344899999999
 30
0.0
 11
118.746769
 21
96.14044900000001
 31
0.0
  0
LINE
  5
9FA4
330
9E8F
100
AcDbEntity
  8
1
  6
Continuous
100
AcDbLine
 10
120.596769
 20
95.90344899999999
 30
0.0
 11
120.359769
 21
95.397449
 31
0.0
  0
LINE
  5
9FA5
330
9E8F
100
AcDbEntity
  8
1
  6
Continuous
100
AcDbLine
 10
120.359769
 20
95.397449
 30
0.0
 11
120.3447689999999
 21
94.51744899999999
 31
0.0
  0
LINE
  5
9FA6
330
9E8F
100
AcDbEntity
  8
1
  6
Continuous
100
AcDbLine
 10
119.4897689999999
 20
95.397449
 30
0.0
 11
119.5047689999999
 21
94.51744899999999
 31
0.0
  0
LINE
  5
9FA7
330
9E8F
100
AcDbEntity
  8
1
  6
Continuous
100
AcDbLine
 10
119.252769
 20
95.90344899999999
 30
0.0
 11
119.4897689999999
 21
95.397449
 31
0.0
  0
LINE
  5
9FA8
330
9E8F
100
AcDbEntity
  8
1
  6
Continuous
100
AcDbLine
 10
120.596769
 20
97.24744900000001
 30
0.0
 11
121.1027689999999
 21
97.01044899999999
 31
0.0
  0
LINE
  5
9FA9
330
9E8F
100
AcDbEntity
  8
1
  6
Continuous
100
AcDbLine
 10
121.1027689999999
 20
97.01044899999999
 30
0.0
 11
121.982769
 21
96.99544899999999
 31
0.0
  0
LINE
  5
9FAA
330
9E8F
100
AcDbEntity
  8
1
  6
Continuous
100
AcDbLine
 10
121.1027689999999
 20
96.14044900000001
 30
0.0
 11
121.982769
 21
96.15544900000001
 31
0.0
  0
LINE
  5
9FAB
330
9E8F
100
AcDbEntity
  8
1
  6
Continuous
100
AcDbLine
 10
120.596769
 20
95.90344899999999
 30
0.0
 11
121.1027689999999
 21
96.14044900000001
 31
0.0
  0
LINE
  5
9FAC
330
9E8F
100
AcDbEntity
  8
1
  6
Continuous
100
AcDbLine
 10
119.252769
 20
97.24744900000001
 30
0.0
 11
119.4897689999999
 21
97.753449
 31
0.0
  0
LINE
  5
9FAD
330
9E8F
100
AcDbEntity
  8
1
  6
Continuous
100
AcDbLine
 10
119.4897689999999
 20
97.753449
 30
0.0
 11
119.5047689999999
 21
98.63344900000001
 31
0.0
  0
LINE
  5
9FAE
330
9E8F
100
AcDbEntity
  8
1
  6
Continuous
100
AcDbLine
 10
120.359769
 20
97.753449
 30
0.0
 11
120.3447689999999
 21
98.63344900000001
 31
0.0
  0
LINE
  5
9FAF
330
9E8F
100
AcDbEntity
  8
1
  6
Continuous
100
AcDbLine
 10
120.596769
 20
97.24744900000001
 30
0.0
 11
120.359769
 21
97.753449
 31
0.0
  0
LINE
  5
9FB0
330
9E8F
100
AcDbEntity
  8
4
  6
CENTER
100
AcDbLine
 10
113.424769
 20
146.5754489999999
 30
0.0
 11
126.4247689999999
 21
146.5754489999999
 31
0.0
  0
LINE
  5
9FB1
330
9E8F
100
AcDbEntity
  8
4
  6
CENTER
100
AcDbLine
 10
119.9247689999999
 20
140.0754489999999
 30
0.0
 11
119.9247689999999
 21
153.0754489999999
 31
0.0
  0
LINE
  5
9FB2
330
9E8F
100
AcDbEntity
  8
4
  6
CENTER
100
AcDbLine
 10
113.424769
 20
96.57544900000001
 30
0.0
 11
126.4247689999999
 21
96.57544900000001
 31
0.0
  0
LINE
  5
9FB3
330
9E8F
100
AcDbEntity
  8
4
  6
CENTER
100
AcDbLine
 10
119.9247689999999
 20
90.075449
 30
0.0
 11
119.9247689999999
 21
103.075449
 31
0.0
  0
LINE
  5
9FB4
330
9E8F
100
AcDbEntity
  8
1
  6
Continuous
100
AcDbLine
 10
28.629069
 20
114.375449
 30
0.0
 11
30.629069
 21
114.375449
 31
0.0
  0
LINE
  5
9FB5
330
9E8F
100
AcDbEntity
  8
1
  6
Continuous
100
AcDbLine
 10
28.629069
 20
128.775449
 30
0.0
 11
30.629069
 21
128.775449
 31
0.0
  0
LINE
  5
9FB6
330
9E8F
100
AcDbEntity
  8
1
  6
Continuous
100
AcDbLine
 10
30.629069
 20
128.775449
 30
0.0
 11
30.629069
 21
114.375449
 31
0.0
  0
LINE
  5
9FB7
330
9E8F
100
AcDbEntity
  8
1
  6
Continuous
100
AcDbLine
 10
113.1287689999999
 20
163.575449
 30
0.0
 11
113.1287689999999
 21
79.57544900000002
 31
0.0
  0
LINE
  5
9FB8
330
9E8F
100
AcDbEntity
  8
1
  6
Continuous
100
AcDbLine
 10
54.12906899999999
 20
166.5754489999999
 30
0.0
 11
54.12906899999999
 21
167.075449
 31
0.0
  0
LINE
  5
9FB9
330
9E8F
100
AcDbEntity
  8
1
  6
Continuous
100
AcDbLine
 10
58.43596899999999
 20
152.268449
 30
0.0
 11
57.88666899999999
 21
152.012449
 31
0.0
  0
LINE
  5
9FBA
330
9E8F
100
AcDbEntity
  8
1
  6
Continuous
100
AcDbLine
 10
57.88666899999999
 20
152.012449
 30
0.0
 11
56.91856899999999
 21
151.995449
 31
0.0
  0
LINE
  5
9FBB
330
9E8F
100
AcDbEntity
  8
1
  6
Continuous
100
AcDbLine
 10
57.88666899999999
 20
151.138449
 30
0.0
 11
56.91866899999999
 21
151.1554489999998
 31
0.0
  0
LINE
  5
9FBC
330
9E8F
100
AcDbEntity
  8
1
  6
Continuous
100
AcDbLine
 10
58.43596899999999
 20
150.882449
 30
0.0
 11
57.88666899999999
 21
151.138449
 31
0.0
  0
LINE
  5
9FBD
330
9E8F
100
AcDbEntity
  8
1
  6
Continuous
100
AcDbLine
 10
59.82206899999999
 20
150.882449
 30
0.0
 11
59.565969
 21
150.333449
 31
0.0
  0
LINE
  5
9FBE
330
9E8F
100
AcDbEntity
  8
1
  6
Continuous
100
AcDbLine
 10
59.565969
 20
150.333449
 30
0.0
 11
59.54906900000001
 21
149.365449
 31
0.0
  0
LINE
  5
9FBF
330
9E8F
100
AcDbEntity
  8
1
  6
Continuous
100
AcDbLine
 10
58.692069
 20
150.333449
 30
0.0
 11
58.70896899999999
 21
149.365449
 31
0.0
  0
LINE
  5
9FC0
330
9E8F
100
AcDbEntity
  8
1
  6
Continuous
100
AcDbLine
 10
58.43596899999999
 20
150.882449
 30
0.0
 11
58.69216899999999
 21
150.333449
 31
0.0
  0
LINE
  5
9FC1
330
9E8F
100
AcDbEntity
  8
1
  6
Continuous
100
AcDbLine
 10
59.82206899999999
 20
152.268449
 30
0.0
 11
60.371369
 21
152.012449
 31
0.0
  0
LINE
  5
9FC2
330
9E8F
100
AcDbEntity
  8
1
  6
Continuous
100
AcDbLine
 10
60.37146899999999
 20
152.012449
 30
0.0
 11
61.339569
 21
151.995449
 31
0.0
  0
LINE
  5
9FC3
330
9E8F
100
AcDbEntity
  8
1
  6
Continuous
100
AcDbLine
 10
60.37146899999999
 20
151.138449
 30
0.0
 11
61.33946899999997
 21
151.1554489999998
 31
0.0
  0
LINE
  5
9FC4
330
9E8F
100
AcDbEntity
  8
1
  6
Continuous
100
AcDbLine
 10
59.82206899999999
 20
150.882449
 30
0.0
 11
60.371369
 21
151.138449
 31
0.0
  0
LINE
  5
9FC5
330
9E8F
100
AcDbEntity
  8
1
  6
Continuous
100
AcDbLine
 10
58.43596899999999
 20
152.268449
 30
0.0
 11
58.69216899999999
 21
152.817449
 31
0.0
  0
LINE
  5
9FC6
330
9E8F
100
AcDbEntity
  8
1
  6
Continuous
100
AcDbLine
 10
58.69216899999999
 20
152.817449
 30
0.0
 11
58.70906899999999
 21
153.7854489999998
 31
0.0
  0
LINE
  5
9FC7
330
9E8F
100
AcDbEntity
  8
1
  6
Continuous
100
AcDbLine
 10
59.565969
 20
152.817449
 30
0.0
 11
59.54906900000001
 21
153.786449
 31
0.0
  0
LINE
  5
9FC8
330
9E8F
100
AcDbEntity
  8
1
  6
Continuous
100
AcDbLine
 10
59.82206899999999
 20
152.268449
 30
0.0
 11
59.565969
 21
152.817449
 31
0.0
  0
LINE
  5
9FC9
330
9E8F
100
AcDbEntity
  8
1
  6
Continuous
100
AcDbLine
 10
58.43596899999999
 20
92.26844900000001
 30
0.0
 11
57.88666899999999
 21
92.012449
 31
0.0
  0
LINE
  5
9FCA
330
9E8F
100
AcDbEntity
  8
1
  6
Continuous
100
AcDbLine
 10
57.88666899999999
 20
92.012449
 30
0.0
 11
56.91856899999999
 21
91.99544899999999
 31
0.0
  0
LINE
  5
9FCB
330
9E8F
100
AcDbEntity
  8
1
  6
Continuous
100
AcDbLine
 10
57.88666899999999
 20
91.138449
 30
0.0
 11
56.91856899999999
 21
91.15544900000001
 31
0.0
  0
LINE
  5
9FCC
330
9E8F
100
AcDbEntity
  8
1
  6
Continuous
100
AcDbLine
 10
58.43596899999999
 20
90.88244899999999
 30
0.0
 11
57.88666899999999
 21
91.138449
 31
0.0
  0
LINE
  5
9FCD
330
9E8F
100
AcDbEntity
  8
1
  6
Continuous
100
AcDbLine
 10
59.82206899999999
 20
90.88244899999999
 30
0.0
 11
59.565969
 21
90.333149
 31
0.0
  0
LINE
  5
9FCE
330
9E8F
100
AcDbEntity
  8
1
  6
Continuous
100
AcDbLine
 10
59.565969
 20
90.333149
 30
0.0
 11
59.54906900000001
 21
89.365049
 31
0.0
  0
LINE
  5
9FCF
330
9E8F
100
AcDbEntity
  8
1
  6
Continuous
100
AcDbLine
 10
58.69216899999999
 20
90.333149
 30
0.0
 11
58.70906899999999
 21
89.365049
 31
0.0
  0
LINE
  5
9FD0
330
9E8F
100
AcDbEntity
  8
1
  6
Continuous
100
AcDbLine
 10
58.43596899999999
 20
90.88244899999999
 30
0.0
 11
58.69216899999999
 21
90.333149
 31
0.0
  0
LINE
  5
9FD1
330
9E8F
100
AcDbEntity
  8
1
  6
Continuous
100
AcDbLine
 10
59.82206899999999
 20
92.26844900000001
 30
0.0
 11
60.371369
 21
92.012449
 31
0.0
  0
LINE
  5
9FD2
330
9E8F
100
AcDbEntity
  8
1
  6
Continuous
100
AcDbLine
 10
60.371369
 20
92.012449
 30
0.0
 11
61.33946899999997
 21
91.99544899999999
 31
0.0
  0
LINE
  5
9FD3
330
9E8F
100
AcDbEntity
  8
1
  6
Continuous
100
AcDbLine
 10
60.371369
 20
91.138449
 30
0.0
 11
61.33946899999997
 21
91.15544900000001
 31
0.0
  0
LINE
  5
9FD4
330
9E8F
100
AcDbEntity
  8
1
  6
Continuous
100
AcDbLine
 10
59.82206899999999
 20
90.88244899999999
 30
0.0
 11
60.37146899999999
 21
91.138449
 31
0.0
  0
LINE
  5
9FD5
330
9E8F
100
AcDbEntity
  8
1
  6
Continuous
100
AcDbLine
 10
58.43596899999999
 20
92.26844900000001
 30
0.0
 11
58.69216899999999
 21
92.81744899999999
 31
0.0
  0
LINE
  5
9FD6
330
9E8F
100
AcDbEntity
  8
1
  6
Continuous
100
AcDbLine
 10
58.69216899999999
 20
92.81744899999999
 30
0.0
 11
58.70906899999999
 21
93.78644900000001
 31
0.0
  0
LINE
  5
9FD7
330
9E8F
100
AcDbEntity
  8
1
  6
Continuous
100
AcDbLine
 10
59.565969
 20
92.81744899999999
 30
0.0
 11
59.54906900000001
 21
93.78544899999999
 31
0.0
  0
LINE
  5
9FD8
330
9E8F
100
AcDbEntity
  8
1
  6
Continuous
100
AcDbLine
 10
59.82206899999999
 20
92.26844900000001
 30
0.0
 11
59.565969
 21
92.81744899999999
 31
0.0
  0
LINE
  5
9FD9
330
9E8F
100
AcDbEntity
  8
1
  6
Continuous
100
AcDbLine
 10
106.435769
 20
139.768449
 30
0.0
 11
105.886769
 21
139.512449
 31
0.0
  0
LINE
  5
9FDA
330
9E8F
100
AcDbEntity
  8
1
  6
Continuous
100
AcDbLine
 10
105.886769
 20
139.512449
 30
0.0
 11
104.9187689999999
 21
139.495449
 31
0.0
  0
LINE
  5
9FDB
330
9E8F
100
AcDbEntity
  8
1
  6
Continuous
100
AcDbLine
 10
105.886769
 20
138.638449
 30
0.0
 11
104.9187689999999
 21
138.6554489999997
 31
0.0
  0
LINE
  5
9FDC
330
9E8F
100
AcDbEntity
  8
1
  6
Continuous
100
AcDbLine
 10
106.435769
 20
138.382449
 30
0.0
 11
105.886769
 21
138.638449
 31
0.0
  0
LINE
  5
9FDD
330
9E8F
100
AcDbEntity
  8
1
  6
Continuous
100
AcDbLine
 10
107.821769
 20
138.382449
 30
0.0
 11
107.5657689999999
 21
137.833449
 31
0.0
  0
LINE
  5
9FDE
330
9E8F
100
AcDbEntity
  8
1
  6
Continuous
100
AcDbLine
 10
107.5657689999999
 20
137.833449
 30
0.0
 11
107.5487689999998
 21
136.865449
 31
0.0
  0
LINE
  5
9FDF
330
9E8F
100
AcDbEntity
  8
1
  6
Continuous
100
AcDbLine
 10
106.6917689999998
 20
137.833449
 30
0.0
 11
106.7087689999999
 21
136.865449
 31
0.0
  0
LINE
  5
9FE0
330
9E8F
100
AcDbEntity
  8
1
  6
Continuous
100
AcDbLine
 10
106.435769
 20
138.382449
 30
0.0
 11
106.6917689999998
 21
137.833449
 31
0.0
  0
LINE
  5
9FE1
330
9E8F
100
AcDbEntity
  8
1
  6
Continuous
100
AcDbLine
 10
107.821769
 20
139.768449
 30
0.0
 11
108.371769
 21
139.512449
 31
0.0
  0
LINE
  5
9FE2
330
9E8F
100
AcDbEntity
  8
1
  6
Continuous
100
AcDbLine
 10
108.371769
 20
139.512449
 30
0.0
 11
109.3397689999999
 21
139.495449
 31
0.0
  0
LINE
  5
9FE3
330
9E8F
100
AcDbEntity
  8
1
  6
Continuous
100
AcDbLine
 10
108.371769
 20
138.638449
 30
0.0
 11
109.3397689999999
 21
138.6554489999997
 31
0.0
  0
LINE
  5
9FE4
330
9E8F
100
AcDbEntity
  8
1
  6
Continuous
100
AcDbLine
 10
107.821769
 20
138.382449
 30
0.0
 11
108.371769
 21
138.638449
 31
0.0
  0
LINE
  5
9FE5
330
9E8F
100
AcDbEntity
  8
1
  6
Continuous
100
AcDbLine
 10
106.435769
 20
139.768449
 30
0.0
 11
106.6917689999998
 21
140.317449
 31
0.0
  0
LINE
  5
9FE6
330
9E8F
100
AcDbEntity
  8
1
  6
Continuous
100
AcDbLine
 10
106.6917689999998
 20
140.317449
 30
0.0
 11
106.7087689999999
 21
141.286449
 31
0.0
  0
LINE
  5
9FE7
330
9E8F
100
AcDbEntity
  8
1
  6
Continuous
100
AcDbLine
 10
107.5657689999999
 20
140.317449
 30
0.0
 11
107.5487689999998
 21
141.2854489999998
 31
0.0
  0
LINE
  5
9FE8
330
9E8F
100
AcDbEntity
  8
1
  6
Continuous
100
AcDbLine
 10
107.821769
 20
139.768449
 30
0.0
 11
107.5657689999999
 21
140.317449
 31
0.0
  0
LINE
  5
9FE9
330
9E8F
100
AcDbEntity
  8
1
  6
Continuous
100
AcDbLine
 10
106.435769
 20
104.7684489999999
 30
0.0
 11
105.886769
 21
104.512449
 31
0.0
  0
LINE
  5
9FEA
330
9E8F
100
AcDbEntity
  8
1
  6
Continuous
100
AcDbLine
 10
105.886769
 20
104.512449
 30
0.0
 11
104.9187689999999
 21
104.4954489999998
 31
0.0
  0
LINE
  5
9FEB
330
9E8F
100
AcDbEntity
  8
1
  6
Continuous
100
AcDbLine
 10
105.886769
 20
103.6384489999998
 30
0.0
 11
104.9187689999999
 21
103.655449
 31
0.0
  0
LINE
  5
9FEC
330
9E8F
100
AcDbEntity
  8
1
  6
Continuous
100
AcDbLine
 10
106.435769
 20
103.3824489999998
 30
0.0
 11
105.886769
 21
103.6384489999998
 31
0.0
  0
LINE
  5
9FED
330
9E8F
100
AcDbEntity
  8
1
  6
Continuous
100
AcDbLine
 10
107.821769
 20
103.3824489999998
 30
0.0
 11
107.5657689999999
 21
102.8334489999999
 31
0.0
  0
LINE
  5
9FEE
330
9E8F
100
AcDbEntity
  8
1
  6
Continuous
100
AcDbLine
 10
107.5657689999999
 20
102.8334489999999
 30
0.0
 11
107.5487689999998
 21
101.865449
 31
0.0
  0
LINE
  5
9FEF
330
9E8F
100
AcDbEntity
  8
1
  6
Continuous
100
AcDbLine
 10
106.6917689999998
 20
102.8334489999999
 30
0.0
 11
106.7087689999999
 21
101.865449
 31
0.0
  0
LINE
  5
9FF0
330
9E8F
100
AcDbEntity
  8
1
  6
Continuous
100
AcDbLine
 10
106.435769
 20
103.3824489999998
 30
0.0
 11
106.6917689999998
 21
102.8334489999999
 31
0.0
  0
LINE
  5
9FF1
330
9E8F
100
AcDbEntity
  8
1
  6
Continuous
100
AcDbLine
 10
107.821769
 20
104.7684489999999
 30
0.0
 11
108.371769
 21
104.512449
 31
0.0
  0
LINE
  5
9FF2
330
9E8F
100
AcDbEntity
  8
1
  6
Continuous
100
AcDbLine
 10
108.371769
 20
104.512449
 30
0.0
 11
109.3397689999999
 21
104.4954489999998
 31
0.0
  0
LINE
  5
9FF3
330
9E8F
100
AcDbEntity
  8
1
  6
Continuous
100
AcDbLine
 10
108.371769
 20
103.6384489999998
 30
0.0
 11
109.3397689999999
 21
103.655449
 31
0.0
  0
LINE
  5
9FF4
330
9E8F
100
AcDbEntity
  8
1
  6
Continuous
100
AcDbLine
 10
107.821769
 20
103.3824489999998
 30
0.0
 11
108.371769
 21
103.6384489999998
 31
0.0
  0
LINE
  5
9FF5
330
9E8F
100
AcDbEntity
  8
1
  6
Continuous
100
AcDbLine
 10
106.435769
 20
104.7684489999999
 30
0.0
 11
106.6917689999998
 21
105.3174489999999
 31
0.0
  0
LINE
  5
9FF6
330
9E8F
100
AcDbEntity
  8
1
  6
Continuous
100
AcDbLine
 10
106.6917689999998
 20
105.3174489999999
 30
0.0
 11
106.7087689999999
 21
106.285449
 31
0.0
  0
LINE
  5
9FF7
330
9E8F
100
AcDbEntity
  8
1
  6
Continuous
100
AcDbLine
 10
107.5657689999999
 20
105.3174489999999
 30
0.0
 11
107.5487689999998
 21
106.286449
 31
0.0
  0
LINE
  5
9FF8
330
9E8F
100
AcDbEntity
  8
1
  6
Continuous
100
AcDbLine
 10
107.821769
 20
104.7684489999999
 30
0.0
 11
107.5657689999999
 21
105.3174489999999
 31
0.0
  0
LINE
  5
9FF9
330
9E8F
100
AcDbEntity
  8
4
  6
CENTER
100
AcDbLine
 10
101.6287689999999
 20
104.075449
 30
0.0
 11
112.6287689999999
 21
104.075449
 31
0.0
  0
LINE
  5
9FFA
330
9E8F
100
AcDbEntity
  8
4
  6
CENTER
100
AcDbLine
 10
107.1287689999999
 20
98.575449
 30
0.0
 11
107.1287689999999
 21
109.575449
 31
0.0
  0
LINE
  5
9FFB
330
9E8F
100
AcDbEntity
  8
4
  6
CENTER
100
AcDbLine
 10
101.6287689999999
 20
139.0754489999999
 30
0.0
 11
112.6287689999999
 21
139.0754489999999
 31
0.0
  0
LINE
  5
9FFC
330
9E8F
100
AcDbEntity
  8
4
  6
CENTER
100
AcDbLine
 10
107.1287689999999
 20
133.575449
 30
0.0
 11
107.1287689999999
 21
144.5754489999998
 31
0.0
  0
LINE
  5
9FFD
330
9E8F
100
AcDbEntity
  8
4
  6
CENTER
100
AcDbLine
 10
53.62906899999998
 20
151.5754489999999
 30
0.0
 11
64.629069
 21
151.5754489999999
 31
0.0
  0
LINE
  5
9FFE
330
9E8F
100
AcDbEntity
  8
4
  6
CENTER
100
AcDbLine
 10
59.12906899999999
 20
146.075449
 30
0.0
 11
59.12906899999999
 21
157.0754489999998
 31
0.0
  0
LINE
  5
9FFF
330
9E8F
100
AcDbEntity
  8
4
  6
CENTER
100
AcDbLine
 10
53.62906899999998
 20
91.57544900000001
 30
0.0
 11
64.629069
 21
91.57544900000001
 31
0.0
  0
LINE
  5
A000
330
9E8F
100
AcDbEntity
  8
4
  6
CENTER
100
AcDbLine
 10
59.12906899999999
 20
86.075449
 30
0.0
 11
59.12906899999999
 21
97.07544900000002
 31
0.0
  0
LINE
  5
A001
330
9E8F
100
AcDbEntity
  8
1
  6
Continuous
100
AcDbLine
 10
115.6287689999999
 20
131.597449
 30
0.0
 11
115.6287689999999
 21
111.5534489999999
 31
0.0
  0
LINE
  5
A002
330
9E8F
100
AcDbEntity
  8
1
  6
Continuous
100
AcDbLine
 10
113.1287689999999
 20
111.975449
 30
0.0
 11
115.6287689999999
 21
111.975449
 31
0.0
  0
LINE
  5
A003
330
9E8F
100
AcDbEntity
  8
1
  6
Continuous
100
AcDbLine
 10
113.1287689999999
 20
131.1754489999999
 30
0.0
 11
115.6287689999999
 21
131.1754489999999
 31
0.0
  0
LINE
  5
A004
330
9E8F
100
AcDbEntity
  8
1
  6
Continuous
100
AcDbLine
 10
113.1287689999999
 20
151.5754489999999
 30
0.0
 11
113.9247689999999
 21
151.5754489999999
 31
0.0
  0
LINE
  5
A005
330
9E8F
100
AcDbEntity
  8
1
  6
Continuous
100
AcDbLine
 10
113.1287689999999
 20
91.57544900000001
 30
0.0
 11
113.9247689999999
 21
91.57544900000001
 31
0.0
  0
LINE
  5
A006
330
9E8F
100
AcDbEntity
  8
1
  6
Continuous
100
AcDbLine
 10
351.9647689999998
 20
269.372449
 30
0.0
 11
342.4657689999999
 21
269.372449
 31
0.0
  0
LINE
  5
A007
330
9E8F
100
AcDbEntity
  8
1
  6
Continuous
100
AcDbLine
 10
327.964769
 20
269.372449
 30
0.0
 11
327.964769
 21
277.372449
 31
0.0
  0
LINE
  5
A008
330
9E8F
100
AcDbEntity
  8
1
  6
Continuous
100
AcDbLine
 10
330.066769
 20
269.372449
 30
0.0
 11
327.964769
 21
269.372449
 31
0.0
  0
LINE
  5
A009
330
9E8F
100
AcDbEntity
  8
1
  6
Continuous
100
AcDbLine
 10
224.205769
 20
134.0754489999999
 30
0.0
 11
231.205769
 21
134.0754489999999
 31
0.0
  0
LINE
  5
A00A
330
9E8F
100
AcDbEntity
  8
1
  6
Continuous
100
AcDbLine
 10
224.205769
 20
144.0754489999999
 30
0.0
 11
231.205769
 21
144.0754489999999
 31
0.0
  0
LINE
  5
A00B
330
9E8F
100
AcDbEntity
  8
1
  6
Continuous
100
AcDbLine
 10
224.205769
 20
99.07544900000001
 30
0.0
 11
231.205769
 21
99.07544900000001
 31
0.0
  0
LINE
  5
A00C
330
9E8F
100
AcDbEntity
  8
1
  6
Continuous
100
AcDbLine
 10
224.205769
 20
109.075449
 30
0.0
 11
231.205769
 21
109.075449
 31
0.0
  0
LINE
  5
A00D
330
9E8F
100
AcDbEntity
  8
1
  6
Continuous
100
AcDbLine
 10
235.913769
 20
101.575449
 30
0.0
 11
235.913769
 21
141.5754489999999
 31
0.0
  0
LINE
  5
A00E
330
9E8F
100
AcDbEntity
  8
4
  6
CENTER
100
AcDbLine
 10
231.205769
 20
96.57544900000001
 30
0.0
 11
257.4287689999998
 21
96.57544900000001
 31
0.0
  0
LINE
  5
A00F
330
9E8F
100
AcDbEntity
  8
4
  6
CENTER
100
AcDbLine
 10
231.205769
 20
146.5754489999999
 30
0.0
 11
256.778769
 21
146.5754489999999
 31
0.0
  0
LINE
  5
A010
330
9E8F
100
AcDbEntity
  8
4
  6
CENTER
100
AcDbLine
 10
471.789769
 20
146.5754489999999
 30
0.0
 11
449.941769
 21
146.5754489999999
 31
0.0
  0
LINE
  5
A011
330
9E8F
100
AcDbEntity
  8
4
  6
CENTER
100
AcDbLine
 10
471.789769
 20
96.57544900000001
 30
0.0
 11
449.941769
 21
96.57544900000001
 31
0.0
  0
LINE
  5
A012
330
9E8F
100
AcDbEntity
  8
1
  6
Continuous
100
AcDbLine
 10
177.996769
 20
100.3754489999999
 30
0.0
 11
176.996769
 21
100.3754489999999
 31
0.0
  0
LINE
  5
A013
330
9E8F
100
AcDbEntity
  8
1
  6
Continuous
100
AcDbLine
 10
177.996769
 20
92.775449
 30
0.0
 11
176.996769
 21
92.775449
 31
0.0
  0
LINE
  5
A014
330
9E8F
100
AcDbEntity
  8
1
  6
Continuous
100
AcDbLine
 10
178.7967689999999
 20
91.57544900000001
 30
0.0
 11
177.996769
 21
91.57544900000001
 31
0.0
  0
LINE
  5
A015
330
9E8F
100
AcDbEntity
  8
1
  6
Continuous
100
AcDbLine
 10
178.7967689999999
 20
101.575449
 30
0.0
 11
177.996769
 21
101.575449
 31
0.0
  0
LINE
  5
A016
330
9E8F
100
AcDbEntity
  8
1
  6
Continuous
100
AcDbLine
 10
306.506769
 20
304.1314489999999
 30
0.0
 11
316.506769
 21
304.1314489999999
 31
0.0
  0
LINE
  5
A017
330
9E8F
100
AcDbEntity
  8
1
  6
Continuous
100
AcDbLine
 10
306.506769
 20
303.331449
 30
0.0
 11
306.506769
 21
304.1314489999999
 31
0.0
  0
LINE
  5
A018
330
9E8F
100
AcDbEntity
  8
1
  6
Continuous
100
AcDbLine
 10
307.706769
 20
304.1314489999999
 30
0.0
 11
307.706769
 21
305.1314489999999
 31
0.0
  0
LINE
  5
A019
330
9E8F
100
AcDbEntity
  8
1
  6
Continuous
100
AcDbLine
 10
307.706769
 20
305.1314489999999
 30
0.0
 11
315.3067689999998
 21
305.1314489999999
 31
0.0
  0
LINE
  5
A01A
330
9E8F
100
AcDbEntity
  8
1
  6
Continuous
100
AcDbLine
 10
308.006769
 20
305.1314489999999
 30
0.0
 11
308.1047689999999
 21
306.250449
 31
0.0
  0
LINE
  5
A01B
330
9E8F
100
AcDbEntity
  8
1
  6
Continuous
100
AcDbLine
 10
315.006769
 20
305.1314489999999
 30
0.0
 11
314.9087689999999
 21
306.250449
 31
0.0
  0
LINE
  5
A01C
330
9E8F
100
AcDbEntity
  8
1
  6
Continuous
100
AcDbLine
 10
315.3067689999998
 20
304.1314489999999
 30
0.0
 11
315.3067689999998
 21
305.1314489999999
 31
0.0
  0
LINE
  5
A01D
330
9E8F
100
AcDbEntity
  8
1
  6
Continuous
100
AcDbLine
 10
316.506769
 20
303.331449
 30
0.0
 11
316.506769
 21
304.1314489999999
 31
0.0
  0
LINE
  5
A01E
330
9E8F
100
AcDbEntity
  8
1
  6
Continuous
100
AcDbLine
 10
311.045769
 20
305.1314489999999
 30
0.0
 11
311.8847689999999
 21
304.1314489999999
 31
0.0
  0
LINE
  5
A01F
330
9E8F
100
AcDbEntity
  8
1
  6
Continuous
100
AcDbLine
 10
177.996769
 20
141.5754489999999
 30
0.0
 11
177.996769
 21
151.5754489999999
 31
0.0
  0
LINE
  5
A020
330
9E8F
100
AcDbEntity
  8
1
  6
Continuous
100
AcDbLine
 10
176.996769
 20
142.775449
 30
0.0
 11
176.996769
 21
150.375449
 31
0.0
  0
LINE
  5
A021
330
9E8F
100
AcDbEntity
  8
1
  6
Continuous
100
AcDbLine
 10
176.996769
 20
146.114449
 30
0.0
 11
177.996769
 21
146.953449
 31
0.0
  0
LINE
  5
A022
330
9E8F
100
AcDbEntity
  8
1
  6
Continuous
100
AcDbLine
 10
176.996769
 20
143.0754489999999
 30
0.0
 11
175.877769
 21
143.173449
 31
0.0
  0
LINE
  5
A023
330
9E8F
100
AcDbEntity
  8
1
  6
Continuous
100
AcDbLine
 10
176.996769
 20
150.075449
 30
0.0
 11
175.877769
 21
149.977449
 31
0.0
  0
LINE
  5
A024
330
9E8F
100
AcDbEntity
  8
1
  6
Continuous
100
AcDbLine
 10
177.996769
 20
150.375449
 30
0.0
 11
176.996769
 21
150.375449
 31
0.0
  0
LINE
  5
A025
330
9E8F
100
AcDbEntity
  8
1
  6
Continuous
100
AcDbLine
 10
177.996769
 20
142.775449
 30
0.0
 11
176.996769
 21
142.775449
 31
0.0
  0
LINE
  5
A026
330
9E8F
100
AcDbEntity
  8
1
  6
Continuous
100
AcDbLine
 10
178.7967689999999
 20
141.5754489999999
 30
0.0
 11
177.996769
 21
141.5754489999999
 31
0.0
  0
LINE
  5
A027
330
9E8F
100
AcDbEntity
  8
1
  6
Continuous
100
AcDbLine
 10
178.7967689999999
 20
151.5754489999999
 30
0.0
 11
177.996769
 21
151.5754489999999
 31
0.0
  0
LINE
  5
A028
330
9E8F
100
AcDbEntity
  8
4
  6
CENTER
100
AcDbLine
 10
91.12876900000001
 20
104.075449
 30
0.0
 11
98.12876899999999
 21
104.075449
 31
0.0
  0
LINE
  5
A029
330
9E8F
100
AcDbEntity
  8
4
  6
CENTER
100
AcDbLine
 10
94.62876900000001
 20
100.575449
 30
0.0
 11
94.62876900000001
 21
107.575449
 31
0.0
  0
LINE
  5
A02A
330
9E8F
100
AcDbEntity
  8
4
  6
CENTER
100
AcDbLine
 10
91.12876900000001
 20
139.0754489999999
 30
0.0
 11
98.12876899999999
 21
139.0754489999999
 31
0.0
  0
LINE
  5
A02B
330
9E8F
100
AcDbEntity
  8
4
  6
CENTER
100
AcDbLine
 10
94.62876900000001
 20
135.575449
 30
0.0
 11
94.62876900000001
 21
142.5754489999999
 31
0.0
  0
LINE
  5
A02C
330
9E8F
100
AcDbEntity
  8
4
  6
CENTER
100
AcDbLine
 10
337.089769
 20
268.372449
 30
0.0
 11
353.749769
 21
268.372449
 31
0.0
  0
LINE
  5
A02D
330
9E8F
100
AcDbEntity
  8
4
  6
CENTER
100
AcDbLine
 10
344.9647689999998
 20
260.3114489999999
 30
0.0
 11
344.9647689999998
 21
284.034449
 31
0.0
  0
LINE
  5
A02E
330
9E8F
100
AcDbEntity
  8
1
  6
Continuous
100
AcDbLine
 10
340.214769
 20
268.372449
 30
0.0
 11
340.214769
 21
272.7224489999999
 31
0.0
  0
LINE
  5
A02F
330
9E8F
100
AcDbEntity
  8
1
  6
Continuous
100
AcDbLine
 10
349.7147689999998
 20
271.222449
 30
0.0
 11
349.7147689999998
 21
272.7224489999999
 31
0.0
  0
LINE
  5
A030
330
9E8F
100
AcDbEntity
  8
1
  6
Continuous
100
AcDbLine
 10
337.9657689999999
 20
272.7224489999999
 30
0.0
 11
351.9657689999998
 21
272.7224489999999
 31
0.0
  0
LINE
  5
A031
330
9E8F
100
AcDbEntity
  8
1
  6
Continuous
100
AcDbLine
 10
349.7157689999998
 20
271.222449
 30
0.0
 11
342.4657689999999
 21
271.222449
 31
0.0
  0
LINE
  5
A032
330
9E8F
100
AcDbEntity
  8
1
  6
Continuous
100
AcDbLine
 10
342.464769
 20
266.6404490000001
 30
0.0
 11
342.464769
 21
271.222449
 31
0.0
  0
LINE
  5
A033
330
9E8F
100
AcDbEntity
  8
1
  6
Continuous
100
AcDbLine
 10
348.365769
 20
274.7224489999999
 30
0.0
 11
348.365769
 21
275.722449
 31
0.0
  0
LINE
  5
A034
330
9E8F
100
AcDbEntity
  8
1
  6
Continuous
100
AcDbLine
 10
341.564769
 20
274.7224489999999
 30
0.0
 11
341.564769
 21
275.722449
 31
0.0
  0
LINE
  5
A035
330
9E8F
100
AcDbEntity
  8
1
  6
Continuous
100
AcDbLine
 10
342.374769
 20
279.8224489999999
 30
0.0
 11
347.555769
 21
279.8224489999999
 31
0.0
  0
LINE
  5
A036
330
9E8F
100
AcDbEntity
  8
1
  6
Continuous
100
AcDbLine
 10
341.5657689999998
 20
275.722449
 30
0.0
 11
348.365769
 21
275.722449
 31
0.0
  0
LINE
  5
A037
330
9E8F
100
AcDbEntity
  8
1
  6
Continuous
100
AcDbLine
 10
341.5657689999998
 20
275.722449
 30
0.0
 11
341.875769
 21
279.365449
 31
0.0
  0
LINE
  5
A038
330
9E8F
100
AcDbEntity
  8
1
  6
Continuous
100
AcDbLine
 10
348.3647689999998
 20
275.722449
 30
0.0
 11
348.054769
 21
279.365449
 31
0.0
  0
LINE
  5
A039
330
9E8F
100
AcDbEntity
  8
1
  6
Continuous
100
AcDbLine
 10
347.184769
 20
267.222449
 30
0.0
 11
347.9847689999999
 21
267.222449
 31
0.0
  0
LINE
  5
A03A
330
9E8F
100
AcDbEntity
  8
1
  6
Continuous
100
AcDbLine
 10
349.2147689999998
 20
266.2514489999999
 30
0.0
 11
347.9847689999999
 21
267.222449
 31
0.0
  0
LINE
  5
A03B
330
9E8F
100
AcDbEntity
  8
4
  6
CENTER
100
AcDbLine
 10
349.0277689999999
 20
35.687049
 30
0.0
 11
349.0277689999999
 21
75.281549
 31
0.0
  0
LINE
  5
A03C
330
9E8F
100
AcDbEntity
  8
1
  6
Continuous
100
AcDbLine
 10
355.0277689999999
 20
62.742849
 30
0.0
 11
355.0277689999999
 21
70.733349
 31
0.0
  0
LINE
  5
A03D
330
9E8F
100
AcDbEntity
  8
1
  6
Continuous
100
AcDbLine
 10
343.027769
 20
62.742849
 30
0.0
 11
343.027769
 21
70.57544900000002
 31
0.0
  0
LINE
  5
A03E
330
9E8F
100
AcDbEntity
  8
4
  6
CENTER
100
AcDbLine
 10
337.817769
 20
59.137249
 30
0.0
 11
361.533769
 21
59.137249
 31
0.0
  0
LINE
  5
A03F
330
9E8F
100
AcDbEntity
  8
1
  6
Continuous
100
AcDbLine
 10
343.027769
 20
67.13724899999999
 30
0.0
 11
355.0277689999999
 21
67.13724899999999
 31
0.0
  0
LINE
  5
A040
330
9E8F
100
AcDbEntity
  8
4
  6
CENTER
100
AcDbLine
 10
349.0277689999999
 20
207.083449
 30
0.0
 11
349.0277689999999
 21
167.988449
 31
0.0
  0
LINE
  5
A041
330
9E8F
100
AcDbEntity
  8
1
  6
Continuous
100
AcDbLine
 10
343.027769
 20
180.4084489999999
 30
0.0
 11
343.027769
 21
172.5754489999999
 31
0.0
  0
LINE
  5
A042
330
9E8F
100
AcDbEntity
  8
1
  6
Continuous
100
AcDbLine
 10
355.0277689999999
 20
180.4084489999999
 30
0.0
 11
355.0277689999999
 21
172.417449
 31
0.0
  0
LINE
  5
A043
330
9E8F
100
AcDbEntity
  8
4
  6
CENTER
100
AcDbLine
 10
360.238769
 20
184.013449
 30
0.0
 11
336.5227689999999
 21
184.013449
 31
0.0
  0
LINE
  5
A044
330
9E8F
100
AcDbEntity
  8
1
  6
Continuous
100
AcDbLine
 10
355.0277689999999
 20
176.013449
 30
0.0
 11
343.027769
 21
176.013449
 31
0.0
  0
LINE
  5
A045
330
9E8F
100
AcDbEntity
  8
1
  6
Continuous
100
AcDbLine
 10
344.2777689999999
 20
40.13724899999997
 30
0.0
 11
344.2777689999999
 21
58.03724899999998
 31
0.0
  0
LINE
  5
A046
330
9E8F
100
AcDbEntity
  8
1
  6
Continuous
100
AcDbLine
 10
353.7777689999999
 20
40.13724899999997
 30
0.0
 11
353.7777689999999
 21
42.93724899999999
 31
0.0
  0
LINE
  5
A047
330
9E8F
100
AcDbEntity
  8
1
  6
Continuous
100
AcDbLine
 10
344.2777689999999
 20
40.13724899999997
 30
0.0
 11
353.7777689999999
 21
40.13724899999997
 31
0.0
  0
LINE
  5
A048
330
9E8F
100
AcDbEntity
  8
1
  6
Continuous
100
AcDbLine
 10
345.887769
 20
42.93724899999999
 30
0.0
 11
353.7777689999999
 21
42.93724899999999
 31
0.0
  0
LINE
  5
A049
330
9E8F
100
AcDbEntity
  8
1
  6
Continuous
100
AcDbLine
 10
345.815769
 20
51.937249
 30
0.0
 11
353.7777689999999
 21
51.937249
 31
0.0
  0
LINE
  5
A04A
330
9E8F
100
AcDbEntity
  8
1
  6
Continuous
100
AcDbLine
 10
353.7777689999999
 20
51.937249
 30
0.0
 11
353.7777689999999
 21
58.03724899999998
 31
0.0
  0
LINE
  5
A04B
330
9E8F
100
AcDbEntity
  8
1
  6
Continuous
100
AcDbLine
 10
353.2777689999999
 20
42.93724899999999
 30
0.0
 11
353.2777689999999
 21
51.937249
 31
0.0
  0
LINE
  5
A04C
330
9E8F
100
AcDbEntity
  8
1
  6
Continuous
100
AcDbLine
 10
345.627769
 20
58.03724899999998
 30
0.0
 11
345.627769
 21
60.237249
 31
0.0
  0
LINE
  5
A04D
330
9E8F
100
AcDbEntity
  8
1
  6
Continuous
100
AcDbLine
 10
352.427769
 20
58.03724899999998
 30
0.0
 11
352.427769
 21
60.237249
 31
0.0
  0
LINE
  5
A04E
330
9E8F
100
AcDbEntity
  8
1
  6
Continuous
100
AcDbLine
 10
344.2777689999999
 20
60.237249
 30
0.0
 11
346.7277689999999
 21
60.237249
 31
0.0
  0
LINE
  5
A04F
330
9E8F
100
AcDbEntity
  8
1
  6
Continuous
100
AcDbLine
 10
344.2777689999999
 20
58.03724899999998
 30
0.0
 11
346.7277689999999
 21
58.03724899999998
 31
0.0
  0
LINE
  5
A050
330
9E8F
100
AcDbEntity
  8
1
  6
Continuous
100
AcDbLine
 10
351.328769
 20
58.03724899999998
 30
0.0
 11
353.7777689999999
 21
58.03724899999998
 31
0.0
  0
LINE
  5
A051
330
9E8F
100
AcDbEntity
  8
1
  6
Continuous
100
AcDbLine
 10
351.328769
 20
60.237249
 30
0.0
 11
353.7777689999999
 21
60.237249
 31
0.0
  0
LINE
  5
A052
330
9E8F
100
AcDbEntity
  8
1
  6
Continuous
100
AcDbLine
 10
344.2777689999999
 20
53.737249
 30
0.0
 11
346.5277689999999
 21
53.737249
 31
0.0
  0
LINE
  5
A053
330
9E8F
100
AcDbEntity
  8
1
  6
Continuous
100
AcDbLine
 10
346.5277689999999
 20
40.13724899999997
 30
0.0
 11
346.5277689999999
 21
42.93724899999999
 31
0.0
  0
LINE
  5
A054
330
9E8F
100
AcDbEntity
  8
1
  6
Continuous
100
AcDbLine
 10
346.5277689999999
 20
51.937249
 30
0.0
 11
346.5277689999999
 21
58.03724899999998
 31
0.0
  0
LINE
  5
A055
330
9E8F
100
AcDbEntity
  8
1
  6
Continuous
100
AcDbLine
 10
353.7777689999999
 20
203.013449
 30
0.0
 11
353.7777689999999
 21
185.1134489999998
 31
0.0
  0
LINE
  5
A056
330
9E8F
100
AcDbEntity
  8
1
  6
Continuous
100
AcDbLine
 10
344.2777689999999
 20
203.013449
 30
0.0
 11
344.2777689999999
 21
200.2134489999999
 31
0.0
  0
LINE
  5
A057
330
9E8F
100
AcDbEntity
  8
1
  6
Continuous
100
AcDbLine
 10
353.7777689999999
 20
203.013449
 30
0.0
 11
344.2777689999999
 21
203.013449
 31
0.0
  0
LINE
  5
A058
330
9E8F
100
AcDbEntity
  8
1
  6
Continuous
100
AcDbLine
 10
352.168769
 20
200.2134489999999
 30
0.0
 11
344.2777689999999
 21
200.2134489999999
 31
0.0
  0
LINE
  5
A059
330
9E8F
100
AcDbEntity
  8
1
  6
Continuous
100
AcDbLine
 10
352.2397689999999
 20
191.2134489999999
 30
0.0
 11
344.2777689999999
 21
191.2134489999999
 31
0.0
  0
LINE
  5
A05A
330
9E8F
100
AcDbEntity
  8
1
  6
Continuous
100
AcDbLine
 10
344.2777689999999
 20
191.2134489999999
 30
0.0
 11
344.2777689999999
 21
185.1134489999998
 31
0.0
  0
LINE
  5
A05B
330
9E8F
100
AcDbEntity
  8
1
  6
Continuous
100
AcDbLine
 10
344.7777689999999
 20
200.2134489999999
 30
0.0
 11
344.7777689999999
 21
191.2134489999999
 31
0.0
  0
LINE
  5
A05C
330
9E8F
100
AcDbEntity
  8
1
  6
Continuous
100
AcDbLine
 10
352.427769
 20
185.1134489999998
 30
0.0
 11
352.427769
 21
182.9134489999999
 31
0.0
  0
LINE
  5
A05D
330
9E8F
100
AcDbEntity
  8
1
  6
Continuous
100
AcDbLine
 10
345.627769
 20
185.1134489999998
 30
0.0
 11
345.627769
 21
182.9134489999999
 31
0.0
  0
LINE
  5
A05E
330
9E8F
100
AcDbEntity
  8
1
  6
Continuous
100
AcDbLine
 10
353.7777689999999
 20
182.9134489999999
 30
0.0
 11
351.328769
 21
182.9134489999999
 31
0.0
  0
LINE
  5
A05F
330
9E8F
100
AcDbEntity
  8
1
  6
Continuous
100
AcDbLine
 10
353.7777689999999
 20
185.1134489999998
 30
0.0
 11
351.328769
 21
185.1134489999998
 31
0.0
  0
LINE
  5
A060
330
9E8F
100
AcDbEntity
  8
1
  6
Continuous
100
AcDbLine
 10
346.7277689999999
 20
185.1134489999998
 30
0.0
 11
344.2777689999999
 21
185.1134489999998
 31
0.0
  0
LINE
  5
A061
330
9E8F
100
AcDbEntity
  8
1
  6
Continuous
100
AcDbLine
 10
346.7277689999999
 20
182.9134489999999
 30
0.0
 11
344.2777689999999
 21
182.9134489999999
 31
0.0
  0
LINE
  5
A062
330
9E8F
100
AcDbEntity
  8
1
  6
Continuous
100
AcDbLine
 10
353.7777689999999
 20
189.4134489999999
 30
0.0
 11
351.527769
 21
189.4134489999999
 31
0.0
  0
LINE
  5
A063
330
9E8F
100
AcDbEntity
  8
1
  6
Continuous
100
AcDbLine
 10
351.527769
 20
203.013449
 30
0.0
 11
351.527769
 21
200.2134489999999
 31
0.0
  0
LINE
  5
A064
330
9E8F
100
AcDbEntity
  8
1
  6
Continuous
100
AcDbLine
 10
351.527769
 20
191.2134489999999
 30
0.0
 11
351.527769
 21
185.1134489999998
 31
0.0
  0
LINE
  5
A065
330
9E8F
100
AcDbEntity
  8
1
  6
Continuous
100
AcDbLine
 10
74.566069
 20
167.075449
 30
0.0
 11
54.12906899999999
 21
167.075449
 31
0.0
  0
LINE
  5
A066
330
9E8F
100
AcDbEntity
  8
1
  6
Continuous
100
AcDbLine
 10
74.566069
 20
76.075449
 30
0.0
 11
54.12906899999999
 21
76.075449
 31
0.0
  0
LINE
  5
A067
330
9E8F
100
AcDbEntity
  8
1
  6
Continuous
100
AcDbLine
 10
478.824769
 20
191.013449
 30
0.0
 11
480.824769
 21
191.013449
 31
0.0
  0
LINE
  5
A068
330
9E8F
100
AcDbEntity
  8
1
  6
Continuous
100
AcDbLine
 10
480.824769
 20
191.013449
 30
0.0
 11
480.824769
 21
176.013449
 31
0.0
  0
LINE
  5
A069
330
9E8F
100
AcDbEntity
  8
1
  6
Continuous
100
AcDbLine
 10
476.5247689999998
 20
174.013449
 30
0.0
 11
476.5247689999998
 21
166.5754489999999
 31
0.0
  0
LINE
  5
A06A
330
9E8F
100
AcDbEntity
  8
4
  6
CENTER
100
AcDbLine
 10
472.5027690000001
 20
184.013449
 30
0.0
 11
489.5757689999999
 21
184.013449
 31
0.0
  0
LINE
  5
A06B
330
9E8F
100
AcDbEntity
  8
1
  6
Continuous
100
AcDbLine
 10
478.824769
 20
180.4084489999999
 30
0.0
 11
480.824769
 21
180.4084489999999
 31
0.0
  0
LINE
  5
A06C
330
9E8F
100
AcDbEntity
  8
1
  6
Continuous
100
AcDbLine
 10
478.524769
 20
176.013449
 30
0.0
 11
478.824769
 21
176.013449
 31
0.0
  0
LINE
  5
A06D
330
9E8F
100
AcDbEntity
  8
1
  6
Continuous
100
AcDbLine
 10
478.524769
 20
174.013449
 30
0.0
 11
478.524769
 21
166.5754489999999
 31
0.0
  0
LINE
  5
A06E
330
9E8F
100
AcDbEntity
  8
1
  6
Continuous
100
AcDbLine
 10
478.524769
 20
174.013449
 30
0.0
 11
478.824769
 21
174.013449
 31
0.0
  0
LINE
  5
A06F
330
9E8F
100
AcDbEntity
  8
1
  6
Continuous
100
AcDbLine
 10
478.824769
 20
52.13724899999998
 30
0.0
 11
480.824769
 21
52.13724899999998
 31
0.0
  0
LINE
  5
A070
330
9E8F
100
AcDbEntity
  8
1
  6
Continuous
100
AcDbLine
 10
480.824769
 20
52.13724899999998
 30
0.0
 11
480.824769
 21
67.13724899999999
 31
0.0
  0
LINE
  5
A071
330
9E8F
100
AcDbEntity
  8
1
  6
Continuous
100
AcDbLine
 10
476.5247689999998
 20
69.137249
 30
0.0
 11
476.5247689999998
 21
76.57544900000002
 31
0.0
  0
LINE
  5
A072
330
9E8F
100
AcDbEntity
  8
4
  6
CENTER
100
AcDbLine
 10
473.309769
 20
59.137249
 30
0.0
 11
488.441769
 21
59.137249
 31
0.0
  0
LINE
  5
A073
330
9E8F
100
AcDbEntity
  8
1
  6
Continuous
100
AcDbLine
 10
478.824769
 20
62.742849
 30
0.0
 11
480.824769
 21
62.742849
 31
0.0
  0
LINE
  5
A074
330
9E8F
100
AcDbEntity
  8
1
  6
Continuous
100
AcDbLine
 10
478.524769
 20
67.13724899999999
 30
0.0
 11
478.824769
 21
67.13724899999999
 31
0.0
  0
LINE
  5
A075
330
9E8F
100
AcDbEntity
  8
1
  6
Continuous
100
AcDbLine
 10
478.524769
 20
69.137249
 30
0.0
 11
478.524769
 21
76.57544900000002
 31
0.0
  0
LINE
  5
A076
330
9E8F
100
AcDbEntity
  8
1
  6
Continuous
100
AcDbLine
 10
478.524769
 20
69.137249
 30
0.0
 11
478.824769
 21
69.137249
 31
0.0
  0
LINE
  5
A077
330
9E8F
100
AcDbEntity
  8
1
  6
Continuous
100
AcDbLine
 10
485.924769
 20
56.449249
 30
0.0
 11
485.924769
 21
61.825249
 31
0.0
  0
LINE
  5
A078
330
9E8F
100
AcDbEntity
  8
1
  6
Continuous
100
AcDbLine
 10
471.824769
 20
40.13724899999997
 30
0.0
 11
478.824769
 21
40.13724899999997
 31
0.0
  0
LINE
  5
A079
330
9E8F
100
AcDbEntity
  8
4
  6
CENTER
100
AcDbLine
 10
474.724769
 20
35.687049
 30
0.0
 11
474.724769
 21
57.934549
 31
0.0
  0
LINE
  5
A07A
330
9E8F
100
AcDbEntity
  8
1
  6
Continuous
100
AcDbLine
 10
469.724769
 20
42.93724899999999
 30
0.0
 11
473.324769
 21
42.93724899999999
 31
0.0
  0
LINE
  5
A07B
330
9E8F
100
AcDbEntity
  8
1
  6
Continuous
100
AcDbLine
 10
469.724769
 20
51.937249
 30
0.0
 11
473.324769
 21
51.937249
 31
0.0
  0
LINE
  5
A07C
330
9E8F
100
AcDbEntity
  8
1
  6
Continuous
100
AcDbLine
 10
471.824769
 20
40.13724899999997
 30
0.0
 11
471.824769
 21
42.93724899999999
 31
0.0
  0
LINE
  5
A07D
330
9E8F
100
AcDbEntity
  8
1
  6
Continuous
100
AcDbLine
 10
471.824769
 20
51.937249
 30
0.0
 11
471.824769
 21
53.737249
 31
0.0
  0
LINE
  5
A07E
330
9E8F
100
AcDbEntity
  8
1
  6
Continuous
100
AcDbLine
 10
477.324769
 20
42.93724899999999
 30
0.0
 11
478.824769
 21
42.93724899999999
 31
0.0
  0
LINE
  5
A07F
330
9E8F
100
AcDbEntity
  8
1
  6
Continuous
100
AcDbLine
 10
477.324769
 20
51.937249
 30
0.0
 11
478.824769
 21
51.937249
 31
0.0
  0
LINE
  5
A080
330
9E8F
100
AcDbEntity
  8
1
  6
Continuous
100
AcDbLine
 10
477.324769
 20
64.137249
 30
0.0
 11
478.824769
 21
64.137249
 31
0.0
  0
LINE
  5
A081
330
9E8F
100
AcDbEntity
  8
1
  6
Continuous
100
AcDbLine
 10
477.324769
 20
60.237249
 30
0.0
 11
478.824769
 21
60.237249
 31
0.0
  0
LINE
  5
A082
330
9E8F
100
AcDbEntity
  8
1
  6
Continuous
100
AcDbLine
 10
477.324769
 20
58.03724899999998
 30
0.0
 11
478.824769
 21
58.03724899999998
 31
0.0
  0
LINE
  5
A083
330
9E8F
100
AcDbEntity
  8
1
  6
Continuous
100
AcDbLine
 10
471.824769
 20
53.737249
 30
0.0
 11
473.324769
 21
53.737249
 31
0.0
  0
LINE
  5
A084
330
9E8F
100
AcDbEntity
  8
1
  6
Continuous
100
AcDbLine
 10
480.824769
 20
55.637249
 30
0.0
 11
481.824769
 21
55.637249
 31
0.0
  0
LINE
  5
A085
330
9E8F
100
AcDbEntity
  8
1
  6
Continuous
100
AcDbLine
 10
480.824769
 20
62.63724899999999
 30
0.0
 11
481.824769
 21
62.63724899999999
 31
0.0
  0
LINE
  5
A086
330
9E8F
100
AcDbEntity
  8
1
  6
Continuous
100
AcDbLine
 10
481.824769
 20
63.33724899999999
 30
0.0
 11
482.4247689999999
 21
63.33724899999999
 31
0.0
  0
LINE
  5
A087
330
9E8F
100
AcDbEntity
  8
1
  6
Continuous
100
AcDbLine
 10
481.824769
 20
54.937249
 30
0.0
 11
482.4247689999999
 21
54.937249
 31
0.0
  0
LINE
  5
A088
330
9E8F
100
AcDbEntity
  8
1
  6
Continuous
100
AcDbLine
 10
481.824769
 20
60.042749
 30
0.0
 11
481.824769
 21
63.33724899999999
 31
0.0
  0
LINE
  5
A089
330
9E8F
100
AcDbEntity
  8
1
  6
Continuous
100
AcDbLine
 10
481.824769
 20
54.937249
 30
0.0
 11
481.824769
 21
58.231849
 31
0.0
  0
LINE
  5
A08A
330
9E8F
100
AcDbEntity
  8
1
  6
Continuous
100
AcDbLine
 10
482.4247689999999
 20
54.937249
 30
0.0
 11
485.5807689999998
 21
55.974249
 31
0.0
  0
LINE
  5
A08B
330
9E8F
100
AcDbEntity
  8
1
  6
Continuous
100
AcDbLine
 10
482.4247689999999
 20
63.33724899999999
 30
0.0
 11
485.5807689999998
 21
62.300249
 31
0.0
  0
LINE
  5
A08C
330
9E8F
100
AcDbEntity
  8
1
  6
Continuous
100
AcDbLine
 10
469.724769
 20
42.93724899999999
 30
0.0
 11
469.724769
 21
51.937249
 31
0.0
  0
LINE
  5
A08D
330
9E8F
100
AcDbEntity
  8
1
  6
Continuous
100
AcDbLine
 10
472.353769
 20
42.93724899999999
 30
0.0
 11
472.353769
 21
51.937249
 31
0.0
  0
LINE
  5
A08E
330
9E8F
100
AcDbEntity
  8
1
  6
Continuous
100
AcDbLine
 10
473.324769
 20
42.93724899999999
 30
0.0
 11
473.324769
 21
51.937249
 31
0.0
  0
LINE
  5
A08F
330
9E8F
100
AcDbEntity
  8
1
  6
Continuous
100
AcDbLine
 10
473.324769
 20
53.737249
 30
0.0
 11
477.324769
 21
57.737249
 31
0.0
  0
LINE
  5
A090
330
9E8F
100
AcDbEntity
  8
1
  6
Continuous
100
AcDbLine
 10
478.824769
 20
40.13724899999997
 30
0.0
 11
478.824769
 21
67.15984899999999
 31
0.0
  0
LINE
  5
A091
330
9E8F
100
AcDbEntity
  8
1
  6
Continuous
100
AcDbLine
 10
477.324769
 20
60.237249
 30
0.0
 11
477.324769
 21
64.137249
 31
0.0
  0
LINE
  5
A092
330
9E8F
100
AcDbEntity
  8
1
  6
Continuous
100
AcDbLine
 10
477.324769
 20
40.13724899999997
 30
0.0
 11
477.324769
 21
42.93724899999999
 31
0.0
  0
LINE
  5
A093
330
9E8F
100
AcDbEntity
  8
1
  6
Continuous
100
AcDbLine
 10
477.324769
 20
51.937249
 30
0.0
 11
477.324769
 21
58.03724899999998
 31
0.0
  0
LINE
  5
A094
330
9E8F
100
AcDbEntity
  8
1
  6
Continuous
100
AcDbLine
 10
485.924769
 20
186.701449
 30
0.0
 11
485.924769
 21
181.325449
 31
0.0
  0
LINE
  5
A095
330
9E8F
100
AcDbEntity
  8
1
  6
Continuous
100
AcDbLine
 10
471.824769
 20
203.013449
 30
0.0
 11
478.824769
 21
203.013449
 31
0.0
  0
LINE
  5
A096
330
9E8F
100
AcDbEntity
  8
4
  6
CENTER
100
AcDbLine
 10
474.724769
 20
207.083449
 30
0.0
 11
474.724769
 21
185.608449
 31
0.0
  0
LINE
  5
A097
330
9E8F
100
AcDbEntity
  8
1
  6
Continuous
100
AcDbLine
 10
469.724769
 20
200.2134489999999
 30
0.0
 11
471.824769
 21
200.2134489999999
 31
0.0
  0
LINE
  5
A098
330
9E8F
100
AcDbEntity
  8
1
  6
Continuous
100
AcDbLine
 10
469.724769
 20
191.2134489999999
 30
0.0
 11
471.824769
 21
191.2134489999999
 31
0.0
  0
LINE
  5
A099
330
9E8F
100
AcDbEntity
  8
1
  6
Continuous
100
AcDbLine
 10
471.824769
 20
203.013449
 30
0.0
 11
471.824769
 21
200.2134489999999
 31
0.0
  0
LINE
  5
A09A
330
9E8F
100
AcDbEntity
  8
1
  6
Continuous
100
AcDbLine
 10
471.824769
 20
191.2134489999999
 30
0.0
 11
471.824769
 21
189.4134489999999
 31
0.0
  0
LINE
  5
A09B
330
9E8F
100
AcDbEntity
  8
1
  6
Continuous
100
AcDbLine
 10
477.324769
 20
179.0134489999998
 30
0.0
 11
478.824769
 21
179.0134489999998
 31
0.0
  0
LINE
  5
A09C
330
9E8F
100
AcDbEntity
  8
1
  6
Continuous
100
AcDbLine
 10
477.324769
 20
182.9134489999999
 30
0.0
 11
478.824769
 21
182.9134489999999
 31
0.0
  0
LINE
  5
A09D
330
9E8F
100
AcDbEntity
  8
1
  6
Continuous
100
AcDbLine
 10
477.324769
 20
185.1134489999998
 30
0.0
 11
478.824769
 21
185.1134489999998
 31
0.0
  0
LINE
  5
A09E
330
9E8F
100
AcDbEntity
  8
1
  6
Continuous
100
AcDbLine
 10
471.824769
 20
189.4134489999999
 30
0.0
 11
473.324769
 21
189.4134489999999
 31
0.0
  0
LINE
  5
A09F
330
9E8F
100
AcDbEntity
  8
1
  6
Continuous
100
AcDbLine
 10
480.824769
 20
187.513449
 30
0.0
 11
481.824769
 21
187.513449
 31
0.0
  0
LINE
  5
A0A0
330
9E8F
100
AcDbEntity
  8
1
  6
Continuous
100
AcDbLine
 10
480.824769
 20
180.513449
 30
0.0
 11
481.824769
 21
180.513449
 31
0.0
  0
LINE
  5
A0A1
330
9E8F
100
AcDbEntity
  8
1
  6
Continuous
100
AcDbLine
 10
481.824769
 20
179.8134489999999
 30
0.0
 11
482.4247689999999
 21
179.8134489999999
 31
0.0
  0
LINE
  5
A0A2
330
9E8F
100
AcDbEntity
  8
1
  6
Continuous
100
AcDbLine
 10
481.824769
 20
188.213449
 30
0.0
 11
482.4247689999999
 21
188.213449
 31
0.0
  0
LINE
  5
A0A3
330
9E8F
100
AcDbEntity
  8
1
  6
Continuous
100
AcDbLine
 10
481.824769
 20
183.108449
 30
0.0
 11
481.824769
 21
179.8134489999999
 31
0.0
  0
LINE
  5
A0A4
330
9E8F
100
AcDbEntity
  8
1
  6
Continuous
100
AcDbLine
 10
481.824769
 20
188.213449
 30
0.0
 11
481.824769
 21
184.919449
 31
0.0
  0
LINE
  5
A0A5
330
9E8F
100
AcDbEntity
  8
1
  6
Continuous
100
AcDbLine
 10
482.4247689999999
 20
188.213449
 30
0.0
 11
485.5807689999998
 21
187.1764489999999
 31
0.0
  0
LINE
  5
A0A6
330
9E8F
100
AcDbEntity
  8
1
  6
Continuous
100
AcDbLine
 10
482.4247689999999
 20
179.8134489999999
 30
0.0
 11
485.5807689999998
 21
180.8504489999999
 31
0.0
  0
LINE
  5
A0A7
330
9E8F
100
AcDbEntity
  8
1
  6
Continuous
100
AcDbLine
 10
469.724769
 20
200.2134489999999
 30
0.0
 11
469.724769
 21
191.2134489999999
 31
0.0
  0
LINE
  5
A0A8
330
9E8F
100
AcDbEntity
  8
1
  6
Continuous
100
AcDbLine
 10
473.324769
 20
189.4134489999999
 30
0.0
 11
477.324769
 21
185.4134489999999
 31
0.0
  0
LINE
  5
A0A9
330
9E8F
100
AcDbEntity
  8
1
  6
Continuous
100
AcDbLine
 10
478.824769
 20
203.013449
 30
0.0
 11
478.824769
 21
176.013449
 31
0.0
  0
LINE
  5
A0AA
330
9E8F
100
AcDbEntity
  8
1
  6
Continuous
100
AcDbLine
 10
477.324769
 20
182.9134489999999
 30
0.0
 11
477.324769
 21
179.0134489999998
 31
0.0
  0
LINE
  5
A0AB
330
9E8F
100
AcDbEntity
  8
1
  6
Continuous
100
AcDbLine
 10
477.324769
 20
185.4134489999999
 30
0.0
 11
477.324769
 21
185.1134489999998
 31
0.0
  0
LINE
  5
A0AC
330
9E8F
100
AcDbEntity
  8
1
  6
Continuous
100
AcDbLine
 10
480.824769
 20
183.040449
 30
0.0
 11
483.575769
 21
183.215449
 31
0.0
  0
LINE
  5
A0AD
330
9E8F
100
AcDbEntity
  8
1
  6
Continuous
100
AcDbLine
 10
480.824769
 20
184.9864489999999
 30
0.0
 11
483.575769
 21
184.812449
 31
0.0
  0
LINE
  5
A0AE
330
9E8F
100
AcDbEntity
  8
1
  6
Continuous
100
AcDbLine
 10
480.824769
 20
58.164249
 30
0.0
 11
483.575769
 21
58.33884900000001
 31
0.0
  0
LINE
  5
A0AF
330
9E8F
100
AcDbEntity
  8
1
  6
Continuous
100
AcDbLine
 10
480.824769
 20
60.11024899999998
 30
0.0
 11
483.575769
 21
59.93564899999999
 31
0.0
  0
LINE
  5
A0B0
330
9E8F
100
AcDbEntity
  8
1
  6
Continuous
100
AcDbLine
 10
229.1057689999999
 20
191.013449
 30
0.0
 11
227.1057689999999
 21
191.013449
 31
0.0
  0
LINE
  5
A0B1
330
9E8F
100
AcDbEntity
  8
1
  6
Continuous
100
AcDbLine
 10
229.1057689999999
 20
203.013449
 30
0.0
 11
229.1057689999999
 21
176.013449
 31
0.0
  0
LINE
  5
A0B2
330
9E8F
100
AcDbEntity
  8
1
  6
Continuous
100
AcDbLine
 10
231.4057689999999
 20
174.013449
 30
0.0
 11
231.4057689999999
 21
166.5754489999999
 31
0.0
  0
LINE
  5
A0B3
330
9E8F
100
AcDbEntity
  8
4
  6
CENTER
100
AcDbLine
 10
235.8807689999999
 20
184.013449
 30
0.0
 11
219.505769
 21
184.013449
 31
0.0
  0
LINE
  5
A0B4
330
9E8F
100
AcDbEntity
  8
1
  6
Continuous
100
AcDbLine
 10
229.1057689999999
 20
180.4084489999999
 30
0.0
 11
227.1057689999999
 21
180.4084489999999
 31
0.0
  0
LINE
  5
A0B5
330
9E8F
100
AcDbEntity
  8
1
  6
Continuous
100
AcDbLine
 10
229.4057689999999
 20
176.013449
 30
0.0
 11
229.1057689999999
 21
176.013449
 31
0.0
  0
LINE
  5
A0B6
330
9E8F
100
AcDbEntity
  8
1
  6
Continuous
100
AcDbLine
 10
229.4057689999999
 20
174.013449
 30
0.0
 11
229.4057689999999
 21
166.5754489999999
 31
0.0
  0
LINE
  5
A0B7
330
9E8F
100
AcDbEntity
  8
1
  6
Continuous
100
AcDbLine
 10
229.4057689999999
 20
174.013449
 30
0.0
 11
229.1057689999999
 21
174.013449
 31
0.0
  0
LINE
  5
A0B8
330
9E8F
100
AcDbEntity
  8
1
  6
Continuous
100
AcDbLine
 10
229.1057689999999
 20
52.13724899999998
 30
0.0
 11
227.1057689999999
 21
52.13724899999998
 31
0.0
  0
LINE
  5
A0B9
330
9E8F
100
AcDbEntity
  8
1
  6
Continuous
100
AcDbLine
 10
227.1057689999999
 20
52.13724899999998
 30
0.0
 11
227.1057689999999
 21
67.13724899999999
 31
0.0
  0
LINE
  5
A0BA
330
9E8F
100
AcDbEntity
  8
1
  6
Continuous
100
AcDbLine
 10
231.4057689999999
 20
69.137249
 30
0.0
 11
231.4057689999999
 21
76.57544900000002
 31
0.0
  0
LINE
  5
A0BB
330
9E8F
100
AcDbEntity
  8
4
  6
CENTER
100
AcDbLine
 10
234.6857689999999
 20
59.137249
 30
0.0
 11
219.8357689999999
 21
59.137249
 31
0.0
  0
LINE
  5
A0BC
330
9E8F
100
AcDbEntity
  8
1
  6
Continuous
100
AcDbLine
 10
229.1057689999999
 20
62.742849
 30
0.0
 11
227.1057689999999
 21
62.742849
 31
0.0
  0
LINE
  5
A0BD
330
9E8F
100
AcDbEntity
  8
1
  6
Continuous
100
AcDbLine
 10
229.4057689999999
 20
67.13724899999999
 30
0.0
 11
229.1057689999999
 21
67.13724899999999
 31
0.0
  0
LINE
  5
A0BE
330
9E8F
100
AcDbEntity
  8
1
  6
Continuous
100
AcDbLine
 10
229.4057689999999
 20
69.137249
 30
0.0
 11
229.4057689999999
 21
76.57544900000002
 31
0.0
  0
LINE
  5
A0BF
330
9E8F
100
AcDbEntity
  8
1
  6
Continuous
100
AcDbLine
 10
229.4057689999999
 20
69.137249
 30
0.0
 11
229.1057689999999
 21
69.137249
 31
0.0
  0
LINE
  5
A0C0
330
9E8F
100
AcDbEntity
  8
1
  6
Continuous
100
AcDbLine
 10
222.0057689999999
 20
186.701449
 30
0.0
 11
222.0057689999999
 21
181.325449
 31
0.0
  0
LINE
  5
A0C1
330
9E8F
100
AcDbEntity
  8
1
  6
Continuous
100
AcDbLine
 10
236.1057689999999
 20
203.013449
 30
0.0
 11
229.1057689999999
 21
203.013449
 31
0.0
  0
LINE
  5
A0C2
330
9E8F
100
AcDbEntity
  8
4
  6
CENTER
100
AcDbLine
 10
233.205769
 20
207.083449
 30
0.0
 11
233.205769
 21
186.158449
 31
0.0
  0
LINE
  5
A0C3
330
9E8F
100
AcDbEntity
  8
1
  6
Continuous
100
AcDbLine
 10
238.2057689999999
 20
200.2134489999999
 30
0.0
 11
234.6057689999999
 21
200.2134489999999
 31
0.0
  0
LINE
  5
A0C4
330
9E8F
100
AcDbEntity
  8
1
  6
Continuous
100
AcDbLine
 10
238.2057689999999
 20
191.2134489999999
 30
0.0
 11
234.6057689999999
 21
191.2134489999999
 31
0.0
  0
LINE
  5
A0C5
330
9E8F
100
AcDbEntity
  8
1
  6
Continuous
100
AcDbLine
 10
236.1057689999999
 20
203.013449
 30
0.0
 11
236.1057689999999
 21
200.2134489999999
 31
0.0
  0
LINE
  5
A0C6
330
9E8F
100
AcDbEntity
  8
1
  6
Continuous
100
AcDbLine
 10
236.1057689999999
 20
191.2134489999999
 30
0.0
 11
236.1057689999999
 21
189.4134489999999
 31
0.0
  0
LINE
  5
A0C7
330
9E8F
100
AcDbEntity
  8
1
  6
Continuous
100
AcDbLine
 10
230.6057689999999
 20
200.2134489999999
 30
0.0
 11
229.1057689999999
 21
200.2134489999999
 31
0.0
  0
LINE
  5
A0C8
330
9E8F
100
AcDbEntity
  8
1
  6
Continuous
100
AcDbLine
 10
230.6057689999999
 20
191.2134489999999
 30
0.0
 11
229.1057689999999
 21
191.2134489999999
 31
0.0
  0
LINE
  5
A0C9
330
9E8F
100
AcDbEntity
  8
1
  6
Continuous
100
AcDbLine
 10
230.6057689999999
 20
179.0134489999998
 30
0.0
 11
229.1057689999999
 21
179.0134489999998
 31
0.0
  0
LINE
  5
A0CA
330
9E8F
100
AcDbEntity
  8
1
  6
Continuous
100
AcDbLine
 10
230.6057689999999
 20
182.9134489999999
 30
0.0
 11
229.1057689999999
 21
182.9134489999999
 31
0.0
  0
LINE
  5
A0CB
330
9E8F
100
AcDbEntity
  8
1
  6
Continuous
100
AcDbLine
 10
230.6057689999999
 20
185.1134489999998
 30
0.0
 11
229.1057689999999
 21
185.1134489999998
 31
0.0
  0
LINE
  5
A0CC
330
9E8F
100
AcDbEntity
  8
1
  6
Continuous
100
AcDbLine
 10
236.1057689999999
 20
189.4134489999999
 30
0.0
 11
234.6057689999999
 21
189.4134489999999
 31
0.0
  0
LINE
  5
A0CD
330
9E8F
100
AcDbEntity
  8
1
  6
Continuous
100
AcDbLine
 10
227.1057689999999
 20
187.513449
 30
0.0
 11
226.1057689999999
 21
187.513449
 31
0.0
  0
LINE
  5
A0CE
330
9E8F
100
AcDbEntity
  8
1
  6
Continuous
100
AcDbLine
 10
227.1057689999999
 20
180.513449
 30
0.0
 11
226.1057689999999
 21
180.513449
 31
0.0
  0
LINE
  5
A0CF
330
9E8F
100
AcDbEntity
  8
1
  6
Continuous
100
AcDbLine
 10
226.1057689999999
 20
179.8134489999999
 30
0.0
 11
225.505769
 21
179.8134489999999
 31
0.0
  0
LINE
  5
A0D0
330
9E8F
100
AcDbEntity
  8
1
  6
Continuous
100
AcDbLine
 10
226.1057689999999
 20
188.213449
 30
0.0
 11
225.505769
 21
188.213449
 31
0.0
  0
LINE
  5
A0D1
330
9E8F
100
AcDbEntity
  8
1
  6
Continuous
100
AcDbLine
 10
226.1057689999999
 20
183.108449
 30
0.0
 11
226.1057689999999
 21
179.8134489999999
 31
0.0
  0
LINE
  5
A0D2
330
9E8F
100
AcDbEntity
  8
1
  6
Continuous
100
AcDbLine
 10
226.1057689999999
 20
188.213449
 30
0.0
 11
226.1057689999999
 21
184.919449
 31
0.0
  0
LINE
  5
A0D3
330
9E8F
100
AcDbEntity
  8
1
  6
Continuous
100
AcDbLine
 10
225.505769
 20
188.213449
 30
0.0
 11
222.3497689999999
 21
187.1764489999999
 31
0.0
  0
LINE
  5
A0D4
330
9E8F
100
AcDbEntity
  8
1
  6
Continuous
100
AcDbLine
 10
225.505769
 20
179.8134489999999
 30
0.0
 11
222.3497689999999
 21
180.8504489999999
 31
0.0
  0
LINE
  5
A0D5
330
9E8F
100
AcDbEntity
  8
1
  6
Continuous
100
AcDbLine
 10
238.2057689999999
 20
200.2134489999999
 30
0.0
 11
238.2057689999999
 21
191.2134489999999
 31
0.0
  0
LINE
  5
A0D6
330
9E8F
100
AcDbEntity
  8
1
  6
Continuous
100
AcDbLine
 10
234.6057689999999
 20
200.2134489999999
 30
0.0
 11
234.6057689999999
 21
191.2134489999999
 31
0.0
  0
LINE
  5
A0D7
330
9E8F
100
AcDbEntity
  8
1
  6
Continuous
100
AcDbLine
 10
234.6057689999999
 20
189.4134489999999
 30
0.0
 11
230.6057689999999
 21
185.4134489999999
 31
0.0
  0
LINE
  5
A0D8
330
9E8F
100
AcDbEntity
  8
1
  6
Continuous
100
AcDbLine
 10
230.6057689999999
 20
182.9134489999999
 30
0.0
 11
230.6057689999999
 21
179.0134489999998
 31
0.0
  0
LINE
  5
A0D9
330
9E8F
100
AcDbEntity
  8
1
  6
Continuous
100
AcDbLine
 10
230.6057689999999
 20
203.013449
 30
0.0
 11
230.6057689999999
 21
200.2134489999999
 31
0.0
  0
LINE
  5
A0DA
330
9E8F
100
AcDbEntity
  8
1
  6
Continuous
100
AcDbLine
 10
230.6057689999999
 20
191.2134489999999
 30
0.0
 11
230.6057689999999
 21
185.1134489999998
 31
0.0
  0
LINE
  5
A0DB
330
9E8F
100
AcDbEntity
  8
1
  6
Continuous
100
AcDbLine
 10
222.0057689999999
 20
56.449249
 30
0.0
 11
222.0057689999999
 21
61.825249
 31
0.0
  0
LINE
  5
A0DC
330
9E8F
100
AcDbEntity
  8
1
  6
Continuous
100
AcDbLine
 10
236.1057689999999
 20
40.13724899999997
 30
0.0
 11
229.1057689999999
 21
40.13724899999997
 31
0.0
  0
LINE
  5
A0DD
330
9E8F
100
AcDbEntity
  8
4
  6
CENTER
100
AcDbLine
 10
233.205769
 20
35.687049
 30
0.0
 11
233.205769
 21
57.446549
 31
0.0
  0
LINE
  5
A0DE
330
9E8F
100
AcDbEntity
  8
1
  6
Continuous
100
AcDbLine
 10
238.2057689999999
 20
42.93724899999999
 30
0.0
 11
236.1057689999999
 21
42.93724899999999
 31
0.0
  0
LINE
  5
A0DF
330
9E8F
100
AcDbEntity
  8
1
  6
Continuous
100
AcDbLine
 10
238.2057689999999
 20
51.937249
 30
0.0
 11
236.1057689999999
 21
51.937249
 31
0.0
  0
LINE
  5
A0E0
330
9E8F
100
AcDbEntity
  8
1
  6
Continuous
100
AcDbLine
 10
236.1057689999999
 20
40.13724899999997
 30
0.0
 11
236.1057689999999
 21
42.93724899999999
 31
0.0
  0
LINE
  5
A0E1
330
9E8F
100
AcDbEntity
  8
1
  6
Continuous
100
AcDbLine
 10
236.1057689999999
 20
51.937249
 30
0.0
 11
236.1057689999999
 21
53.737249
 31
0.0
  0
LINE
  5
A0E2
330
9E8F
100
AcDbEntity
  8
1
  6
Continuous
100
AcDbLine
 10
230.6057689999999
 20
64.137249
 30
0.0
 11
229.1057689999999
 21
64.137249
 31
0.0
  0
LINE
  5
A0E3
330
9E8F
100
AcDbEntity
  8
1
  6
Continuous
100
AcDbLine
 10
230.6057689999999
 20
60.237249
 30
0.0
 11
229.1057689999999
 21
60.237249
 31
0.0
  0
LINE
  5
A0E4
330
9E8F
100
AcDbEntity
  8
1
  6
Continuous
100
AcDbLine
 10
230.6057689999999
 20
58.03724899999998
 30
0.0
 11
229.1057689999999
 21
58.03724899999998
 31
0.0
  0
LINE
  5
A0E5
330
9E8F
100
AcDbEntity
  8
1
  6
Continuous
100
AcDbLine
 10
236.1057689999999
 20
53.737249
 30
0.0
 11
234.6057689999999
 21
53.737249
 31
0.0
  0
LINE
  5
A0E6
330
9E8F
100
AcDbEntity
  8
1
  6
Continuous
100
AcDbLine
 10
227.1057689999999
 20
55.637249
 30
0.0
 11
226.1057689999999
 21
55.637249
 31
0.0
  0
LINE
  5
A0E7
330
9E8F
100
AcDbEntity
  8
1
  6
Continuous
100
AcDbLine
 10
227.1057689999999
 20
62.63724899999999
 30
0.0
 11
226.1057689999999
 21
62.63724899999999
 31
0.0
  0
LINE
  5
A0E8
330
9E8F
100
AcDbEntity
  8
1
  6
Continuous
100
AcDbLine
 10
226.1057689999999
 20
63.33724899999999
 30
0.0
 11
225.505769
 21
63.33724899999999
 31
0.0
  0
LINE
  5
A0E9
330
9E8F
100
AcDbEntity
  8
1
  6
Continuous
100
AcDbLine
 10
226.1057689999999
 20
54.937249
 30
0.0
 11
225.505769
 21
54.937249
 31
0.0
  0
LINE
  5
A0EA
330
9E8F
100
AcDbEntity
  8
1
  6
Continuous
100
AcDbLine
 10
226.1057689999999
 20
60.042749
 30
0.0
 11
226.1057689999999
 21
63.33724899999999
 31
0.0
  0
LINE
  5
A0EB
330
9E8F
100
AcDbEntity
  8
1
  6
Continuous
100
AcDbLine
 10
226.1057689999999
 20
54.937249
 30
0.0
 11
226.1057689999999
 21
58.231849
 31
0.0
  0
LINE
  5
A0EC
330
9E8F
100
AcDbEntity
  8
1
  6
Continuous
100
AcDbLine
 10
225.505769
 20
54.937249
 30
0.0
 11
222.3497689999999
 21
55.974249
 31
0.0
  0
LINE
  5
A0ED
330
9E8F
100
AcDbEntity
  8
1
  6
Continuous
100
AcDbLine
 10
225.505769
 20
63.33724899999999
 30
0.0
 11
222.3497689999999
 21
62.300249
 31
0.0
  0
LINE
  5
A0EE
330
9E8F
100
AcDbEntity
  8
1
  6
Continuous
100
AcDbLine
 10
238.2057689999999
 20
42.93724899999999
 30
0.0
 11
238.2057689999999
 21
51.937249
 31
0.0
  0
LINE
  5
A0EF
330
9E8F
100
AcDbEntity
  8
1
  6
Continuous
100
AcDbLine
 10
234.6057689999999
 20
53.737249
 30
0.0
 11
230.6057689999999
 21
57.737249
 31
0.0
  0
LINE
  5
A0F0
330
9E8F
100
AcDbEntity
  8
1
  6
Continuous
100
AcDbLine
 10
229.1057689999999
 20
40.13724899999997
 30
0.0
 11
229.1057689999999
 21
67.13724899999999
 31
0.0
  0
LINE
  5
A0F1
330
9E8F
100
AcDbEntity
  8
1
  6
Continuous
100
AcDbLine
 10
230.6057689999999
 20
60.237249
 30
0.0
 11
230.6057689999999
 21
64.137249
 31
0.0
  0
LINE
  5
A0F2
330
9E8F
100
AcDbEntity
  8
1
  6
Continuous
100
AcDbLine
 10
230.6057689999999
 20
57.737249
 30
0.0
 11
230.6057689999999
 21
58.03724899999998
 31
0.0
  0
LINE
  5
A0F3
330
9E8F
100
AcDbEntity
  8
1
  6
Continuous
100
AcDbLine
 10
227.1057689999999
 20
60.11024899999998
 30
0.0
 11
224.354769
 21
59.93564899999999
 31
0.0
  0
LINE
  5
A0F4
330
9E8F
100
AcDbEntity
  8
1
  6
Continuous
100
AcDbLine
 10
227.1057689999999
 20
58.164249
 30
0.0
 11
224.354769
 21
58.33884900000001
 31
0.0
  0
LINE
  5
A0F5
330
9E8F
100
AcDbEntity
  8
1
  6
Continuous
100
AcDbLine
 10
227.1057689999999
 20
184.9864489999999
 30
0.0
 11
224.354769
 21
184.812449
 31
0.0
  0
LINE
  5
A0F6
330
9E8F
100
AcDbEntity
  8
1
  6
Continuous
100
AcDbLine
 10
227.1057689999999
 20
183.040449
 30
0.0
 11
224.354769
 21
183.215449
 31
0.0
  0
LINE
  5
A0F7
330
9E8F
100
AcDbEntity
  8
1
  6
Continuous
100
AcDbLine
 10
227.1057689999999
 20
191.013449
 30
0.0
 11
227.1057689999999
 21
176.013449
 31
0.0
  0
LINE
  5
A0F8
330
9E8F
100
AcDbEntity
  8
1
  6
Continuous
100
AcDbLine
 10
337.964769
 20
272.7224489999999
 30
0.0
 11
337.964769
 21
274.7224489999999
 31
0.0
  0
LINE
  5
A0F9
330
9E8F
100
AcDbEntity
  8
1
  6
Continuous
100
AcDbLine
 10
337.9657689999999
 20
274.7224489999999
 30
0.0
 11
351.9657689999998
 21
274.7224489999999
 31
0.0
  0
LINE
  5
A0FA
330
9E8F
100
AcDbEntity
  8
1
  6
Continuous
100
AcDbLine
 10
340.2157689999999
 20
269.372449
 30
0.0
 11
339.964769
 21
269.372449
 31
0.0
  0
LINE
  5
A0FB
330
9E8F
100
AcDbEntity
  8
1
  6
Continuous
100
AcDbLine
 10
339.964769
 20
274.7224489999999
 30
0.0
 11
339.964769
 21
274.872449
 31
0.0
  0
LINE
  5
A0FC
330
9E8F
100
AcDbEntity
  8
1
  6
Continuous
100
AcDbLine
 10
341.705769
 20
277.372449
 30
0.0
 11
316.4647689999998
 21
277.372449
 31
0.0
  0
LINE
  5
A0FD
330
9E8F
100
AcDbEntity
  8
1
  6
Continuous
100
AcDbLine
 10
341.8767689999999
 20
279.372449
 30
0.0
 11
316.4647689999998
 21
279.372449
 31
0.0
  0
LINE
  5
A0FE
330
9E8F
100
AcDbEntity
  8
1
  6
Continuous
100
AcDbLine
 10
347.158769
 20
267.1724489999999
 30
0.0
 11
342.771769
 21
267.1724489999999
 31
0.0
  0
LINE
  5
A0FF
330
9E8F
100
AcDbEntity
  8
1
  6
Continuous
100
AcDbLine
 10
340.369769
 20
267.1724489999999
 30
0.0
 11
324.4647689999998
 21
267.1724489999999
 31
0.0
  0
LINE
  5
A100
330
9E8F
100
AcDbEntity
  8
4
  6
CENTER
100
AcDbLine
 10
80.56576900000001
 20
207.083449
 30
0.0
 11
80.56576900000001
 21
160.018449
 31
0.0
  0
LINE
  5
A101
330
9E8F
100
AcDbEntity
  8
1
  6
Continuous
100
AcDbLine
 10
86.56576900000002
 20
180.4084489999999
 30
0.0
 11
86.56576900000002
 21
166.5754489999999
 31
0.0
  0
LINE
  5
A102
330
9E8F
100
AcDbEntity
  8
1
  6
Continuous
100
AcDbLine
 10
74.566069
 20
180.4084489999999
 30
0.0
 11
74.566069
 21
166.5754489999999
 31
0.0
  0
LINE
  5
A103
330
9E8F
100
AcDbEntity
  8
4
  6
CENTER
100
AcDbLine
 10
69.355869
 20
184.013449
 30
0.0
 11
93.07176899999999
 21
184.013449
 31
0.0
  0
LINE
  5
A104
330
9E8F
100
AcDbEntity
  8
1
  6
Continuous
100
AcDbLine
 10
74.566069
 20
176.013449
 30
0.0
 11
86.56576900000002
 21
176.013449
 31
0.0
  0
LINE
  5
A105
330
9E8F
100
AcDbEntity
  8
4
  6
CENTER
100
AcDbLine
 10
80.56576900000001
 20
35.687049
 30
0.0
 11
80.56576900000001
 21
84.74244899999998
 31
0.0
  0
LINE
  5
A106
330
9E8F
100
AcDbEntity
  8
1
  6
Continuous
100
AcDbLine
 10
74.566069
 20
62.742849
 30
0.0
 11
74.566069
 21
76.57544900000002
 31
0.0
  0
LINE
  5
A107
330
9E8F
100
AcDbEntity
  8
1
  6
Continuous
100
AcDbLine
 10
86.56576900000002
 20
62.742849
 30
0.0
 11
86.56576900000002
 21
76.57544900000002
 31
0.0
  0
LINE
  5
A108
330
9E8F
100
AcDbEntity
  8
4
  6
CENTER
100
AcDbLine
 10
91.77676899999999
 20
59.137249
 30
0.0
 11
68.06066899999999
 21
59.137249
 31
0.0
  0
LINE
  5
A109
330
9E8F
100
AcDbEntity
  8
1
  6
Continuous
100
AcDbLine
 10
86.56576900000002
 20
67.13724899999999
 30
0.0
 11
74.566069
 21
67.13724899999999
 31
0.0
  0
LINE
  5
A10A
330
9E8F
100
AcDbEntity
  8
1
  6
Continuous
100
AcDbLine
 10
85.31576900000002
 20
40.13724899999997
 30
0.0
 11
85.31576900000002
 21
53.995549
 31
0.0
  0
LINE
  5
A10B
330
9E8F
100
AcDbEntity
  8
1
  6
Continuous
100
AcDbLine
 10
75.816069
 20
40.13724899999997
 30
0.0
 11
75.816069
 21
42.93724899999999
 31
0.0
  0
LINE
  5
A10C
330
9E8F
100
AcDbEntity
  8
1
  6
Continuous
100
AcDbLine
 10
85.31576900000002
 20
40.13724899999997
 30
0.0
 11
75.816069
 21
40.13724899999997
 31
0.0
  0
LINE
  5
A10D
330
9E8F
100
AcDbEntity
  8
1
  6
Continuous
100
AcDbLine
 10
83.06576900000001
 20
42.93724899999999
 30
0.0
 11
75.816069
 21
42.93724899999999
 31
0.0
  0
LINE
  5
A10E
330
9E8F
100
AcDbEntity
  8
1
  6
Continuous
100
AcDbLine
 10
83.06576900000001
 20
51.937249
 30
0.0
 11
75.816069
 21
51.937249
 31
0.0
  0
LINE
  5
A10F
330
9E8F
100
AcDbEntity
  8
1
  6
Continuous
100
AcDbLine
 10
75.816069
 20
51.937249
 30
0.0
 11
75.816069
 21
53.995549
 31
0.0
  0
LINE
  5
A110
330
9E8F
100
AcDbEntity
  8
1
  6
Continuous
100
AcDbLine
 10
76.316069
 20
42.93724899999999
 30
0.0
 11
76.316069
 21
51.937249
 31
0.0
  0
LINE
  5
A111
330
9E8F
100
AcDbEntity
  8
1
  6
Continuous
100
AcDbLine
 10
83.96576899999997
 20
58.03724899999998
 30
0.0
 11
83.96576899999997
 21
60.237249
 31
0.0
  0
LINE
  5
A112
330
9E8F
100
AcDbEntity
  8
1
  6
Continuous
100
AcDbLine
 10
77.16606899999998
 20
58.03724899999998
 30
0.0
 11
77.16606899999998
 21
60.237249
 31
0.0
  0
LINE
  5
A113
330
9E8F
100
AcDbEntity
  8
1
  6
Continuous
100
AcDbLine
 10
83.06576900000001
 20
42.93724899999999
 30
0.0
 11
83.06576900000001
 21
51.937249
 31
0.0
  0
LINE
  5
A114
330
9E8F
100
AcDbEntity
  8
1
  6
Continuous
100
AcDbLine
 10
75.816069
 20
203.013449
 30
0.0
 11
75.816069
 21
189.155449
 31
0.0
  0
LINE
  5
A115
330
9E8F
100
AcDbEntity
  8
1
  6
Continuous
100
AcDbLine
 10
85.31576900000002
 20
203.013449
 30
0.0
 11
85.31576900000002
 21
200.2134489999999
 31
0.0
  0
LINE
  5
A116
330
9E8F
100
AcDbEntity
  8
1
  6
Continuous
100
AcDbLine
 10
75.816069
 20
203.013449
 30
0.0
 11
85.31576900000002
 21
203.013449
 31
0.0
  0
LINE
  5
A117
330
9E8F
100
AcDbEntity
  8
1
  6
Continuous
100
AcDbLine
 10
78.066069
 20
200.2134489999999
 30
0.0
 11
85.31576900000002
 21
200.2134489999999
 31
0.0
  0
LINE
  5
A118
330
9E8F
100
AcDbEntity
  8
1
  6
Continuous
100
AcDbLine
 10
78.066069
 20
191.2134489999999
 30
0.0
 11
85.31576900000002
 21
191.2134489999999
 31
0.0
  0
LINE
  5
A119
330
9E8F
100
AcDbEntity
  8
1
  6
Continuous
100
AcDbLine
 10
85.31576900000002
 20
191.2134489999999
 30
0.0
 11
85.31576900000002
 21
189.155449
 31
0.0
  0
LINE
  5
A11A
330
9E8F
100
AcDbEntity
  8
1
  6
Continuous
100
AcDbLine
 10
84.81576899999998
 20
200.2134489999999
 30
0.0
 11
84.81576899999998
 21
191.2134489999999
 31
0.0
  0
LINE
  5
A11B
330
9E8F
100
AcDbEntity
  8
1
  6
Continuous
100
AcDbLine
 10
77.16606899999998
 20
185.1134489999998
 30
0.0
 11
77.16606899999998
 21
182.9134489999999
 31
0.0
  0
LINE
  5
A11C
330
9E8F
100
AcDbEntity
  8
1
  6
Continuous
100
AcDbLine
 10
83.96576899999997
 20
185.1134489999998
 30
0.0
 11
83.96576899999997
 21
182.9134489999999
 31
0.0
  0
LINE
  5
A11D
330
9E8F
100
AcDbEntity
  8
1
  6
Continuous
100
AcDbLine
 10
78.066069
 20
200.2134489999999
 30
0.0
 11
78.066069
 21
191.2134489999999
 31
0.0
  0
ARC
  5
A11E
330
9E8F
100
AcDbEntity
  8
1
  6
Continuous
100
AcDbCircle
 10
342.464769
 20
570.5754490000003
 30
0.0
 40
500.0
100
AcDbArc
 50
266.1019999999999
 51
273.8979999999999
  0
ARC
  5
A11F
330
9E8F
100
AcDbEntity
  8
1
  6
Continuous
100
AcDbCircle
 10
342.464769
 20
-327.4245509999999
 30
0.0
 40
500.0
100
AcDbArc
 50
86.102
 51
93.89799999999999
  0
ARC
  5
A120
330
9E8F
100
AcDbEntity
  8
1
  6
Continuous
100
AcDbCircle
 10
809.465769
 20
121.575449
 30
0.0
 40
508.4999999999998
100
AcDbArc
 50
174.993
 51
185.007
  0
ARC
  5
A121
330
9E8F
100
AcDbEntity
  8
1
  6
Continuous
100
AcDbCircle
 10
809.465769
 20
121.575449
 30
0.0
 40
500.0
100
AcDbArc
 50
175.3839999999999
 51
184.6159999999999
  0
ARC
  5
A122
330
9E8F
100
AcDbEntity
  8
1
  6
Continuous
100
AcDbCircle
 10
376.047769
 20
77.718249
 30
0.0
 40
6.0
100
AcDbArc
 50
273.8979999999999
 51
354.9929999999998
  0
ARC
  5
A123
330
9E8F
100
AcDbEntity
  8
1
  6
Continuous
100
AcDbCircle
 10
308.882769
 20
77.718249
 30
0.0
 40
6.0
100
AcDbArc
 50
185.007
 51
266.1019999999999
  0
ARC
  5
A124
330
9E8F
100
AcDbEntity
  8
1
  6
Continuous
100
AcDbCircle
 10
308.882769
 20
165.432449
 30
0.0
 40
6.0
100
AcDbArc
 50
93.89799999999999
 51
174.993
  0
ARC
  5
A125
330
9E8F
100
AcDbEntity
  8
1
  6
Continuous
100
AcDbCircle
 10
376.047769
 20
165.432449
 30
0.0
 40
6.0
100
AcDbArc
 50
5.006969999999999
 51
86.102
  0
ARC
  5
A126
330
9E8F
100
AcDbEntity
  8
1
  6
Continuous
100
AcDbCircle
 10
314.077769
 20
81.57544900000003
 30
0.0
 40
3.0
100
AcDbArc
 50
184.6159999999999
 51
270.0
  0
ARC
  5
A127
330
9E8F
100
AcDbEntity
  8
1
  6
Continuous
100
AcDbCircle
 10
314.077769
 20
161.575449
 30
0.0
 40
3.0
100
AcDbArc
 50
90.0
 51
175.3839999999999
  0
ARC
  5
A128
330
9E8F
100
AcDbEntity
  8
1
  6
Continuous
100
AcDbCircle
 10
808.9657690000001
 20
121.575449
 30
0.0
 40
498.0
100
AcDbArc
 50
183.819
 51
184.577
  0
ARC
  5
A129
330
9E8F
100
AcDbEntity
  8
1
  6
Continuous
100
AcDbCircle
 10
322.048769
 20
89.07544900000003
 30
0.0
 40
10.0
100
AcDbArc
 50
116.8329999999999
 51
183.819
  0
ARC
  5
A12A
330
9E8F
100
AcDbEntity
  8
1
  6
Continuous
100
AcDbCircle
 10
315.5437689999998
 20
82.075449
 30
0.0
 40
3.0
100
AcDbArc
 50
184.577
 51
270.0
  0
ARC
  5
A12B
330
9E8F
100
AcDbEntity
  8
1
  6
Continuous
100
AcDbCircle
 10
294.9647689999998
 20
142.615449
 30
0.0
 40
50.0
100
AcDbArc
 50
296.8329999999999
 51
0.000022
  0
ARC
  5
A12C
330
9E8F
100
AcDbEntity
  8
1
  6
Continuous
100
AcDbCircle
 10
347.964769
 20
161.0754489999998
 30
0.0
 40
3.0
100
AcDbArc
 50
90.0
 51
180.0
  0
CIRCLE
  5
A12D
330
9E8F
100
AcDbEntity
  8
1
  6
Continuous
100
AcDbCircle
 10
364.9657689999998
 20
256.372449
 30
0.0
 40
2.5
  0
CIRCLE
  5
A12E
330
9E8F
100
AcDbEntity
  8
1
  6
Continuous
100
AcDbCircle
 10
364.9657689999998
 20
256.372449
 30
0.0
 40
4.0
  0
ARC
  5
A12F
330
9E8F
100
AcDbEntity
  8
1
  6
Continuous
100
AcDbCircle
 10
324.4647689999998
 20
250.172449
 30
0.0
 40
17.0
100
AcDbArc
 50
90.0
 51
179.326
  0
ARC
  5
A130
330
9E8F
100
AcDbEntity
  8
1
  6
Continuous
100
AcDbCircle
 10
309.4647689999998
 20
268.372449
 30
0.0
 40
2.0
100
AcDbArc
 50
90.0
 51
180.0
  0
ARC
  5
A131
330
9E8F
100
AcDbEntity
  8
1
  6
Continuous
100
AcDbCircle
 10
465.524769
 20
159.0754489999999
 30
0.0
 40
8.0
100
AcDbArc
 50
57.9219
 51
90.0
  0
ARC
  5
A132
330
9E8F
100
AcDbEntity
  8
1
  6
Continuous
100
AcDbCircle
 10
465.524769
 20
84.07544900000003
 30
0.0
 40
8.0
100
AcDbArc
 50
270.0
 51
302.0779999999998
  0
ARC
  5
A133
330
9E8F
100
AcDbEntity
  8
1
  6
Continuous
100
AcDbCircle
 10
397.964769
 20
146.9754489999999
 30
0.0
 40
1.0
100
AcDbArc
 50
0.0
 51
90.0
  0
ARC
  5
A134
330
9E8F
100
AcDbEntity
  8
1
  6
Continuous
100
AcDbCircle
 10
397.964769
 20
156.175449
 30
0.0
 40
1.0
100
AcDbArc
 50
270.0
 51
0.0
  0
ARC
  5
A135
330
9E8F
100
AcDbEntity
  8
1
  6
Continuous
100
AcDbCircle
 10
397.964769
 20
86.975449
 30
0.0
 40
1.0
100
AcDbArc
 50
0.0
 51
90.0
  0
ARC
  5
A136
330
9E8F
100
AcDbEntity
  8
1
  6
Continuous
100
AcDbCircle
 10
397.964769
 20
96.175449
 30
0.0
 40
1.0
100
AcDbArc
 50
270.0
 51
0.0
  0
ARC
  5
A137
330
9E8F
100
AcDbEntity
  8
1
  6
Continuous
100
AcDbCircle
 10
398.9657689999999
 20
277.372449
 30
0.0
 40
2.0
100
AcDbArc
 50
0.0
 51
90.0
  0
ARC
  5
A138
330
9E8F
100
AcDbEntity
  8
1
  6
Continuous
100
AcDbCircle
 10
397.9657689999998
 20
264.7724489999998
 30
0.0
 40
1.0
100
AcDbArc
 50
0.0
 51
90.0
  0
ARC
  5
A139
330
9E8F
100
AcDbEntity
  8
1
  6
Continuous
100
AcDbCircle
 10
397.9657689999998
 20
273.9724489999999
 30
0.0
 40
1.0
100
AcDbArc
 50
270.0
 51
0.0
  0
ARC
  5
A13A
330
9E8F
100
AcDbEntity
  8
1
  6
Continuous
100
AcDbCircle
 10
409.964769
 20
115.575449
 30
0.0
 40
1.0
100
AcDbArc
 50
270.0
 51
0.0
  0
ARC
  5
A13B
330
9E8F
100
AcDbEntity
  8
1
  6
Continuous
100
AcDbCircle
 10
409.964769
 20
127.575449
 30
0.0
 40
1.0
100
AcDbArc
 50
0.0
 51
90.0
  0
ARC
  5
A13C
330
9E8F
100
AcDbEntity
  8
1
  6
Continuous
100
AcDbCircle
 10
409.9657689999999
 20
268.372449
 30
0.0
 40
1.0
100
AcDbArc
 50
270.0
 51
31.0071
  0
ARC
  5
A13D
330
9E8F
100
AcDbEntity
  8
1
  6
Continuous
100
AcDbCircle
 10
471.7247689999998
 20
163.575449
 30
0.0
 40
3.0
100
AcDbArc
 50
90.0
 51
180.0
  0
ARC
  5
A13E
330
9E8F
100
AcDbEntity
  8
1
  6
Continuous
100
AcDbCircle
 10
471.7247689999998
 20
79.57544900000002
 30
0.0
 40
3.0
100
AcDbArc
 50
180.0
 51
270.0
  0
ARC
  5
A13F
330
9E8F
100
AcDbEntity
  8
1
  6
Continuous
100
AcDbCircle
 10
458.7247689999998
 20
80.57544900000001
 30
0.0
 40
1.0
100
AcDbArc
 50
90.0
 51
180.0
  0
ARC
  5
A140
330
9E8F
100
AcDbEntity
  8
1
  6
Continuous
100
AcDbCircle
 10
458.7247689999998
 20
162.575449
 30
0.0
 40
1.0
100
AcDbArc
 50
180.0
 51
270.0
  0
ARC
  5
A141
330
9E8F
100
AcDbEntity
  8
1
  6
Continuous
100
AcDbCircle
 10
457.724769
 20
162.575449
 30
0.0
 40
1.0
100
AcDbArc
 50
180.0
 51
270.0
  0
ARC
  5
A142
330
9E8F
100
AcDbEntity
  8
1
  6
Continuous
100
AcDbCircle
 10
457.724769
 20
80.57544900000001
 30
0.0
 40
1.0
100
AcDbArc
 50
90.0
 51
180.0
  0
ARC
  5
A143
330
9E8F
100
AcDbEntity
  8
1
  6
Continuous
100
AcDbCircle
 10
474.724769
 20
115.575449
 30
0.0
 40
1.0
100
AcDbArc
 50
180.0
 51
270.0
  0
ARC
  5
A144
330
9E8F
100
AcDbEntity
  8
1
  6
Continuous
100
AcDbCircle
 10
474.724769
 20
127.575449
 30
0.0
 40
1.0
100
AcDbArc
 50
90.0
 51
180.0
  0
ARC
  5
A145
330
9E8F
100
AcDbEntity
  8
1
  6
Continuous
100
AcDbCircle
 10
482.724769
 20
127.575449
 30
0.0
 40
1.0
100
AcDbArc
 50
0.0
 51
90.0
  0
ARC
  5
A146
330
9E8F
100
AcDbEntity
  8
1
  6
Continuous
100
AcDbCircle
 10
482.724769
 20
115.575449
 30
0.0
 40
1.0
100
AcDbArc
 50
270.0
 51
0.0
  0
CIRCLE
  5
A147
330
9E8F
100
AcDbEntity
  8
2
  6
Continuous
100
AcDbCircle
 10
475.7247689999998
 20
151.5754489999999
 30
0.0
 40
2.5
  0
CIRCLE
  5
A148
330
9E8F
100
AcDbEntity
  8
2
  6
Continuous
100
AcDbCircle
 10
475.7247689999998
 20
91.57544900000001
 30
0.0
 40
2.5
  0
ARC
  5
A149
330
9E8F
100
AcDbEntity
  8
1
  6
Continuous
100
AcDbCircle
 10
306.5077689999998
 20
301.331449
 30
0.0
 40
2.0
100
AcDbArc
 50
89.99989999999998
 51
180.0
  0
ARC
  5
A14A
330
9E8F
100
AcDbEntity
  8
1
  6
Continuous
100
AcDbCircle
 10
304.5077689999998
 20
283.831449
 30
0.0
 40
2.0
100
AcDbArc
 50
270.0
 51
0.0
  0
ARC
  5
A14B
330
9E8F
100
AcDbEntity
  8
5
  6
PHANTOM
100
AcDbCircle
 10
399.9657689999999
 20
268.372449
 30
0.0
 40
1.0
100
AcDbArc
 50
270.0
 51
31.0071
  0
ARC
  5
A14C
330
9E8F
100
AcDbEntity
  8
1
  6
Continuous
100
AcDbCircle
 10
297.1697689999999
 20
159.575449
 30
0.0
 40
2.0
100
AcDbArc
 50
90.0
 51
180.0
  0
ARC
  5
A14D
330
9E8F
100
AcDbEntity
  8
1
  6
Continuous
100
AcDbCircle
 10
297.1697689999999
 20
83.575449
 30
0.0
 40
2.0
100
AcDbArc
 50
180.0
 51
270.0
  0
ARC
  5
A14E
330
9E8F
100
AcDbEntity
  8
1
  6
Continuous
100
AcDbCircle
 10
102.6741009999999
 20
258.8294209999999
 30
0.0
 40
1.0
100
AcDbArc
 50
315.0
 51
45.0
  0
ARC
  5
A14F
330
9E8F
100
AcDbEntity
  8
1
  6
Continuous
100
AcDbCircle
 10
92.174101
 20
254.8294209999999
 30
0.0
 40
0.5
100
AcDbArc
 50
270.0
 51
0.0
  0
ARC
  5
A150
330
9E8F
100
AcDbEntity
  8
1
  6
Continuous
100
AcDbCircle
 10
92.174101
 20
262.8294209999999
 30
0.0
 40
0.5
100
AcDbArc
 50
0.0
 51
90.0
  0
ARC
  5
A151
330
9E8F
100
AcDbEntity
  8
1
  6
Continuous
100
AcDbCircle
 10
72.17410099999998
 20
261.3294209999998
 30
0.0
 40
0.5
100
AcDbArc
 50
90.0
 51
180.0
  0
ARC
  5
A152
330
9E8F
100
AcDbEntity
  8
1
  6
Continuous
100
AcDbCircle
 10
73.67410099999998
 20
261.3294209999998
 30
0.0
 40
0.5
100
AcDbArc
 50
0.0
 51
90.0
  0
ARC
  5
A153
330
9E8F
100
AcDbEntity
  8
1
  6
Continuous
100
AcDbCircle
 10
70.67410099999998
 20
261.989421
 30
0.0
 40
1.0
100
AcDbArc
 50
142.431
 51
180.0
  0
ARC
  5
A154
330
9E8F
100
AcDbEntity
  8
1
  6
Continuous
100
AcDbCircle
 10
70.67410099999998
 20
255.6694209999998
 30
0.0
 40
1.0
100
AcDbArc
 50
180.0
 51
217.5689999999999
  0
ARC
  5
A155
330
9E8F
100
AcDbEntity
  8
1
  6
Continuous
100
AcDbCircle
 10
75.16650099999998
 20
249.829421
 30
0.0
 40
1.0
100
AcDbArc
 50
217.5689999999999
 51
270.0
  0
ARC
  5
A156
330
9E8F
100
AcDbEntity
  8
1
  6
Continuous
100
AcDbCircle
 10
77.905501
 20
249.829421
 30
0.0
 40
1.0
100
AcDbArc
 50
270.0
 51
300.069
  0
ARC
  5
A157
330
9E8F
100
AcDbEntity
  8
1
  6
Continuous
100
AcDbCircle
 10
75.16650099999998
 20
267.8294209999999
 30
0.0
 40
1.0
100
AcDbArc
 50
90.0
 51
142.431
  0
ARC
  5
A158
330
9E8F
100
AcDbEntity
  8
1
  6
Continuous
100
AcDbCircle
 10
77.905501
 20
267.8294209999999
 30
0.0
 40
1.0
100
AcDbArc
 50
59.9314
 51
90.0
  0
ARC
  5
A159
330
9E8F
100
AcDbEntity
  8
1
  6
Continuous
100
AcDbCircle
 10
79.67410099999998
 20
254.107421
 30
0.0
 40
2.0282
100
AcDbArc
 50
215.5379999999999
 51
256.5369999999999
  0
ARC
  5
A15A
330
9E8F
100
AcDbEntity
  8
1
  6
Continuous
100
AcDbCircle
 10
86.28470099999999
 20
258.8294209999999
 30
0.0
 40
10.1519
100
AcDbArc
 50
144.462
 51
215.5379999999999
  0
ARC
  5
A15B
330
9E8F
100
AcDbEntity
  8
1
  6
Continuous
100
AcDbCircle
 10
79.67410099999998
 20
263.551421
 30
0.0
 40
2.0282
100
AcDbArc
 50
45.6988
 51
144.462
  0
ARC
  5
A15C
330
9E8F
100
AcDbEntity
  8
1
  6
Continuous
100
AcDbCircle
 10
79.67410099999998
 20
254.107421
 30
0.0
 40
2.0282
100
AcDbArc
 50
256.5369999999999
 51
324.4619999999998
  0
ARC
  5
A15D
330
9E8F
100
AcDbEntity
  8
1
  6
Continuous
100
AcDbCircle
 10
73.063601
 20
258.8294209999999
 30
0.0
 40
10.1519
100
AcDbArc
 50
324.4619999999998
 51
35.5377
  0
ARC
  5
A15E
330
9E8F
100
AcDbEntity
  8
1
  6
Continuous
100
AcDbCircle
 10
79.67410099999998
 20
263.551421
 30
0.0
 40
2.0282
100
AcDbArc
 50
35.5377
 51
45.6988
  0
ARC
  5
A15F
330
9E8F
100
AcDbEntity
  8
1
  6
Continuous
100
AcDbCircle
 10
78.222201
 20
254.894421
 30
0.0
 40
0.3935
100
AcDbArc
 50
206.014
 51
270.0
  0
ARC
  5
A160
330
9E8F
100
AcDbEntity
  8
1
  6
Continuous
100
AcDbCircle
 10
86.28470099999999
 20
258.8294209999999
 30
0.0
 40
9.3649
100
AcDbArc
 50
202.944
 51
206.014
  0
ARC
  5
A161
330
9E8F
100
AcDbEntity
  8
1
  6
Continuous
100
AcDbCircle
 10
77.733101
 20
255.2094209999999
 30
0.0
 40
0.0787
100
AcDbArc
 50
90.0
 51
202.944
  0
ARC
  5
A162
330
9E8F
100
AcDbEntity
  8
1
  6
Continuous
100
AcDbCircle
 10
81.615201
 20
255.2094209999999
 30
0.0
 40
0.0787
100
AcDbArc
 50
337.0559999999999
 51
90.0
  0
ARC
  5
A163
330
9E8F
100
AcDbEntity
  8
1
  6
Continuous
100
AcDbCircle
 10
73.063601
 20
258.8294209999999
 30
0.0
 40
9.3649
100
AcDbArc
 50
333.9859999999998
 51
337.0559999999999
  0
ARC
  5
A164
330
9E8F
100
AcDbEntity
  8
1
  6
Continuous
100
AcDbCircle
 10
73.063601
 20
258.8294209999999
 30
0.0
 40
9.3649
100
AcDbArc
 50
333.9859999999998
 51
334.7709999999999
  0
ARC
  5
A165
330
9E8F
100
AcDbEntity
  8
1
  6
Continuous
100
AcDbCircle
 10
81.12610100000003
 20
254.894421
 30
0.0
 40
0.3935
100
AcDbArc
 50
270.0
 51
333.9859999999998
  0
ARC
  5
A166
330
9E8F
100
AcDbEntity
  8
1
  6
Continuous
100
AcDbCircle
 10
77.22670100000001
 20
256.783421
 30
0.0
 40
0.0787
100
AcDbArc
 50
90.0
 51
192.729
  0
ARC
  5
A167
330
9E8F
100
AcDbEntity
  8
1
  6
Continuous
100
AcDbCircle
 10
86.28470099999999
 20
258.8294209999999
 30
0.0
 40
9.3649
100
AcDbArc
 50
192.729
 51
193.2679999999999
  0
ARC
  5
A168
330
9E8F
100
AcDbEntity
  8
1
  6
Continuous
100
AcDbCircle
 10
86.28470099999999
 20
258.8294209999999
 30
0.0
 40
9.3649
100
AcDbArc
 50
193.2679999999999
 51
195.257
  0
ARC
  5
A169
330
9E8F
100
AcDbEntity
  8
1
  6
Continuous
100
AcDbCircle
 10
77.629401
 20
256.4684209999999
 30
0.0
 40
0.3935
100
AcDbArc
 50
195.257
 51
270.0
  0
ARC
  5
A16A
330
9E8F
100
AcDbEntity
  8
1
  6
Continuous
100
AcDbCircle
 10
81.718801
 20
256.4684209999999
 30
0.0
 40
0.3935
100
AcDbArc
 50
270.0
 51
344.7419999999998
  0
ARC
  5
A16B
330
9E8F
100
AcDbEntity
  8
1
  6
Continuous
100
AcDbCircle
 10
73.063601
 20
258.8294209999999
 30
0.0
 40
9.3649
100
AcDbArc
 50
344.7419999999998
 51
344.794
  0
ARC
  5
A16C
330
9E8F
100
AcDbEntity
  8
1
  6
Continuous
100
AcDbCircle
 10
73.063601
 20
258.8294209999999
 30
0.0
 40
9.3649
100
AcDbArc
 50
344.794
 51
347.2709999999998
  0
ARC
  5
A16D
330
9E8F
100
AcDbEntity
  8
1
  6
Continuous
100
AcDbCircle
 10
82.121601
 20
256.783421
 30
0.0
 40
0.0787
100
AcDbArc
 50
347.2709999999998
 51
90.0
  0
ARC
  5
A16E
330
9E8F
100
AcDbEntity
  8
1
  6
Continuous
100
AcDbCircle
 10
77.45240099999998
 20
260.403421
 30
0.0
 40
0.3935
100
AcDbArc
 50
90.0
 51
169.896
  0
ARC
  5
A16F
330
9E8F
100
AcDbEntity
  8
1
  6
Continuous
100
AcDbCircle
 10
86.28470099999999
 20
258.8294209999999
 30
0.0
 40
9.3649
100
AcDbArc
 50
169.896
 51
172.2069999999999
  0
ARC
  5
A170
330
9E8F
100
AcDbEntity
  8
1
  6
Continuous
100
AcDbCircle
 10
77.08420099999997
 20
260.0884209999999
 30
0.0
 40
0.0787
100
AcDbArc
 50
172.2069999999999
 51
270.0
  0
ARC
  5
A171
330
9E8F
100
AcDbEntity
  8
1
  6
Continuous
100
AcDbCircle
 10
82.26410099999998
 20
260.0884209999999
 30
0.0
 40
0.0787
100
AcDbArc
 50
270.0
 51
7.792900000000001
  0
ARC
  5
A172
330
9E8F
100
AcDbEntity
  8
1
  6
Continuous
100
AcDbCircle
 10
73.063601
 20
258.8294209999999
 30
0.0
 40
9.3649
100
AcDbArc
 50
7.792900000000001
 51
10.1042
  0
ARC
  5
A173
330
9E8F
100
AcDbEntity
  8
1
  6
Continuous
100
AcDbCircle
 10
81.89590099999998
 20
260.403421
 30
0.0
 40
0.3935
100
AcDbArc
 50
10.1042
 51
90.0
  0
ARC
  5
A174
330
9E8F
100
AcDbEntity
  8
1
  6
Continuous
100
AcDbCircle
 10
79.28070099999998
 20
262.7644209999999
 30
0.0
 40
0.3935
100
AcDbArc
 50
270.0
 51
90.0
  0
CIRCLE
  5
A175
330
9E8F
100
AcDbEntity
  8
1
  6
Continuous
100
AcDbCircle
 10
350.464769
 20
88.575449
 30
0.0
 40
6.7
  0
ARC
  5
A176
330
9E8F
100
AcDbEntity
  8
1
  6
Continuous
100
AcDbCircle
 10
345.1697689999999
 20
995.2584490000001
 30
0.0
 40
749.3939999999999
100
AcDbArc
 50
266.69
 51
272.8949999999999
  0
ARC
  5
A177
330
9E8F
100
AcDbEntity
  8
1
  6
Continuous
100
AcDbCircle
 10
301.9647689999998
 20
248.115449
 30
0.0
 40
1.0
100
AcDbArc
 50
180.0
 51
266.69
  0
ARC
  5
A178
330
9E8F
100
AcDbEntity
  8
1
  6
Continuous
100
AcDbCircle
 10
382.9657689999999
 20
247.8224490000001
 30
0.0
 40
1.0
100
AcDbArc
 50
272.8949999999999
 51
0.0
  0
ARC
  5
A179
330
9E8F
100
AcDbEntity
  8
1
  6
Continuous
100
AcDbCircle
 10
454.896769
 20
171.5754489999999
 30
0.0
 40
1.0
100
AcDbArc
 50
90.0
 51
176.169
  0
ARC
  5
A17A
330
9E8F
100
AcDbEntity
  8
1
  6
Continuous
100
AcDbCircle
 10
1201.618768999999
 20
121.575449
 30
0.0
 40
749.3939999999999
100
AcDbArc
 50
176.169
 51
183.8309999999999
  0
ARC
  5
A17B
330
9E8F
100
AcDbEntity
  8
1
  6
Continuous
100
AcDbCircle
 10
454.896769
 20
71.57544900000002
 30
0.0
 40
1.0
100
AcDbArc
 50
183.8309999999999
 51
270.0
  0
ARC
  5
A17C
330
9E8F
100
AcDbEntity
  8
5
  6
PHANTOM
100
AcDbCircle
 10
327.956769
 20
221.3494489999999
 30
0.0
 40
2.5
100
AcDbArc
 50
68.517
 51
302.748
  0
ARC
  5
A17D
330
9E8F
100
AcDbEntity
  8
5
  6
PHANTOM
100
AcDbCircle
 10
-76.06863100000002
 20
849.5324489999998
 30
0.0
 40
749.3939999999999
100
AcDbArc
 50
302.748
 51
306.3849999999998
  0
ARC
  5
A17E
330
9E8F
100
AcDbEntity
  8
1
  6
Continuous
100
AcDbCircle
 10
389.394769
 20
256.009449
 30
0.0
 40
25.0
100
AcDbArc
 50
31.0071
 51
58.70879999999999
  0
ARC
  5
A17F
330
9E8F
100
AcDbEntity
  8
5
  6
PHANTOM
100
AcDbCircle
 10
379.3947689999998
 20
256.009449
 30
0.0
 40
25.0
100
AcDbArc
 50
31.0071
 51
58.70879999999999
  0
ARC
  5
A180
330
9E8F
100
AcDbEntity
  8
5
  6
PHANTOM
100
AcDbCircle
 10
-76.06863100000002
 20
849.5324489999998
 30
0.0
 40
749.3939999999999
100
AcDbArc
 50
307.051
 51
307.302
  0
ARC
  5
A181
330
9E8F
100
AcDbEntity
  8
5
  6
PHANTOM
100
AcDbCircle
 10
377.4747689999998
 20
254.2244489999999
 30
0.0
 40
1.0
100
AcDbArc
 50
307.302
 51
35.0974
  0
ARC
  5
A182
330
9E8F
100
AcDbEntity
  8
1
  6
Continuous
100
AcDbCircle
 10
242.405769
 20
159.0754489999999
 30
0.0
 40
8.0
100
AcDbArc
 50
90.00010000000001
 51
180.0
  0
ARC
  5
A183
330
9E8F
100
AcDbEntity
  8
1
  6
Continuous
100
AcDbCircle
 10
242.405769
 20
84.07544900000003
 30
0.0
 40
8.0
100
AcDbArc
 50
180.0
 51
270.0
  0
ARC
  5
A184
330
9E8F
100
AcDbEntity
  8
1
  6
Continuous
100
AcDbCircle
 10
236.2057689999998
 20
163.575449
 30
0.0
 40
3.0
100
AcDbArc
 50
49.4233
 51
90.0
  0
ARC
  5
A185
330
9E8F
100
AcDbEntity
  8
1
  6
Continuous
100
AcDbCircle
 10
236.2057689999998
 20
79.57544900000002
 30
0.0
 40
3.0
100
AcDbArc
 50
270.0
 51
310.577
  0
ARC
  5
A186
330
9E8F
100
AcDbEntity
  8
1
  6
Continuous
100
AcDbCircle
 10
253.033769
 20
171.5754489999999
 30
0.0
 40
1.0
100
AcDbArc
 50
3.830839999999998
 51
90.00010000000001
  0
ARC
  5
A187
330
9E8F
100
AcDbEntity
  8
1
  6
Continuous
100
AcDbCircle
 10
-493.6882309999998
 20
121.575449
 30
0.0
 40
749.3939999999999
100
AcDbArc
 50
356.169
 51
3.830839999999998
  0
ARC
  5
A188
330
9E8F
100
AcDbEntity
  8
1
  6
Continuous
100
AcDbCircle
 10
253.033769
 20
71.57544900000002
 30
0.0
 40
1.0
100
AcDbArc
 50
270.0
 51
356.169
  0
ARC
  5
A189
330
9E8F
100
AcDbEntity
  8
1
  6
Continuous
100
AcDbCircle
 10
175.990769
 20
94.468449
 30
0.0
 40
1.3
100
AcDbArc
 50
195.8809999999998
 51
265.0
  0
ARC
  5
A18A
330
9E8F
100
AcDbEntity
  8
1
  6
Continuous
100
AcDbCircle
 10
183.396769
 20
96.57544900000001
 30
0.0
 40
9.0
100
AcDbArc
 50
164.119
 51
195.8809999999998
  0
ARC
  5
A18B
330
9E8F
100
AcDbEntity
  8
1
  6
Continuous
100
AcDbCircle
 10
175.990769
 20
98.682449
 30
0.0
 40
1.3
100
AcDbArc
 50
95.0
 51
164.119
  0
ARC
  5
A18C
330
9E8F
100
AcDbEntity
  8
1
  6
Continuous
100
AcDbCircle
 10
87.12876899999995
 20
570.5754490000003
 30
0.0
 40
500.0
100
AcDbArc
 50
266.1019999999999
 51
268.5599999999999
  0
ARC
  5
A18D
330
9E8F
100
AcDbEntity
  8
1
  6
Continuous
100
AcDbCircle
 10
87.12876899999995
 20
-327.4245509999999
 30
0.0
 40
500.0
100
AcDbArc
 50
86.102
 51
90.06449999999999
  0
ARC
  5
A18E
330
9E8F
100
AcDbEntity
  8
1
  6
Continuous
100
AcDbCircle
 10
-379.871231
 20
121.575449
 30
0.0
 40
508.4999999999998
100
AcDbArc
 50
354.9929999999998
 51
355.4880000000001
  0
ARC
  5
A18F
330
9E8F
100
AcDbEntity
  8
1
  6
Continuous
100
AcDbCircle
 10
53.54656899999999
 20
77.718249
 30
0.0
 40
6.0
100
AcDbArc
 50
190.9799999999999
 51
266.1019999999999
  0
ARC
  5
A190
330
9E8F
100
AcDbEntity
  8
1
  6
Continuous
100
AcDbCircle
 10
120.711769
 20
77.718249
 30
0.0
 40
6.0
100
AcDbArc
 50
273.8979999999999
 51
354.9929999999998
  0
ARC
  5
A191
330
9E8F
100
AcDbEntity
  8
1
  6
Continuous
100
AcDbCircle
 10
120.711769
 20
165.432449
 30
0.0
 40
6.0
100
AcDbArc
 50
5.007039999999999
 51
86.102
  0
ARC
  5
A192
330
9E8F
100
AcDbEntity
  8
1
  6
Continuous
100
AcDbCircle
 10
53.54656899999999
 20
165.432449
 30
0.0
 40
6.0
100
AcDbArc
 50
93.89809999999998
 51
169.02
  0
ARC
  5
A193
330
9E8F
100
AcDbEntity
  8
1
  6
Continuous
100
AcDbCircle
 10
19.629069
 20
115.575449
 30
0.0
 40
1.0
100
AcDbArc
 50
180.0
 51
270.0
  0
ARC
  5
A194
330
9E8F
100
AcDbEntity
  8
1
  6
Continuous
100
AcDbCircle
 10
19.629069
 20
127.575449
 30
0.0
 40
1.0
100
AcDbArc
 50
90.0
 51
180.0
  0
ARC
  5
A195
330
9E8F
100
AcDbEntity
  8
1
  6
Continuous
100
AcDbCircle
 10
115.9247689999999
 20
83.575449
 30
0.0
 40
2.0
100
AcDbArc
 50
180.0
 51
270.0
  0
ARC
  5
A196
330
9E8F
100
AcDbEntity
  8
1
  6
Continuous
100
AcDbCircle
 10
115.9247689999999
 20
159.575449
 30
0.0
 40
2.0
100
AcDbArc
 50
90.0
 51
180.0
  0
ARC
  5
A197
330
9E8F
100
AcDbEntity
  8
1
  6
Continuous
100
AcDbCircle
 10
132.4247689999999
 20
159.575449
 30
0.0
 40
2.0
100
AcDbArc
 50
0.0
 51
90.0
  0
ARC
  5
A198
330
9E8F
100
AcDbEntity
  8
1
  6
Continuous
100
AcDbCircle
 10
132.4247689999999
 20
83.575449
 30
0.0
 40
2.0
100
AcDbArc
 50
270.0
 51
0.000005
  0
ARC
  5
A199
330
9E8F
100
AcDbEntity
  8
1
  6
Continuous
100
AcDbCircle
 10
115.9247689999999
 20
133.575449
 30
0.0
 40
2.0
100
AcDbArc
 50
180.0
 51
270.0
  0
ARC
  5
A19A
330
9E8F
100
AcDbEntity
  8
1
  6
Continuous
100
AcDbCircle
 10
115.9247689999999
 20
109.575449
 30
0.0
 40
2.0
100
AcDbArc
 50
90.0
 51
180.0
  0
ARC
  5
A19B
330
9E8F
100
AcDbEntity
  8
1
  6
Continuous
100
AcDbCircle
 10
-379.871231
 20
121.575449
 30
0.0
 40
508.4999999999998
100
AcDbArc
 50
4.5117
 51
5.007039999999999
  0
ARC
  5
A19C
330
9E8F
100
AcDbEntity
  8
1
  6
Continuous
100
AcDbCircle
 10
116.1287689999999
 20
82.075449
 30
0.0
 40
6.0
100
AcDbArc
 50
270.0
 51
355.22
  0
ARC
  5
A19D
330
9E8F
100
AcDbEntity
  8
1
  6
Continuous
100
AcDbCircle
 10
116.1287689999999
 20
161.0754489999998
 30
0.0
 40
6.0
100
AcDbArc
 50
4.780199999999998
 51
90.0
  0
ARC
  5
A19E
330
9E8F
100
AcDbEntity
  8
1
  6
Continuous
100
AcDbCircle
 10
119.9247689999999
 20
146.5754489999999
 30
0.0
 40
2.1
100
AcDbArc
 50
168.463
 51
191.5369999999998
  0
ARC
  5
A19F
330
9E8F
100
AcDbEntity
  8
1
  6
Continuous
100
AcDbCircle
 10
119.9247689999999
 20
146.5754489999999
 30
0.0
 40
2.1
100
AcDbArc
 50
258.4629999999999
 51
281.5369999999999
  0
ARC
  5
A1A0
330
9E8F
100
AcDbEntity
  8
1
  6
Continuous
100
AcDbCircle
 10
119.9247689999999
 20
146.5754489999999
 30
0.0
 40
2.1
100
AcDbArc
 50
348.463
 51
11.537
  0
ARC
  5
A1A1
330
9E8F
100
AcDbEntity
  8
1
  6
Continuous
100
AcDbCircle
 10
119.9247689999999
 20
146.5754489999999
 30
0.0
 40
2.1
100
AcDbArc
 50
78.46299999999998
 51
101.537
  0
CIRCLE
  5
A1A2
330
9E8F
100
AcDbEntity
  8
1
  6
Continuous
100
AcDbCircle
 10
119.9247689999999
 20
146.5754489999999
 30
0.0
 40
3.5
  0
ARC
  5
A1A3
330
9E8F
100
AcDbEntity
  8
1
  6
Continuous
100
AcDbCircle
 10
119.9247689999999
 20
96.57544900000001
 30
0.0
 40
2.1
100
AcDbArc
 50
168.463
 51
191.5369999999998
  0
ARC
  5
A1A4
330
9E8F
100
AcDbEntity
  8
1
  6
Continuous
100
AcDbCircle
 10
119.9247689999999
 20
96.57544900000001
 30
0.0
 40
2.1
100
AcDbArc
 50
258.4629999999999
 51
281.5369999999999
  0
ARC
  5
A1A5
330
9E8F
100
AcDbEntity
  8
1
  6
Continuous
100
AcDbCircle
 10
119.9247689999999
 20
96.57544900000001
 30
0.0
 40
2.1
100
AcDbArc
 50
348.463
 51
11.537
  0
ARC
  5
A1A6
330
9E8F
100
AcDbEntity
  8
1
  6
Continuous
100
AcDbCircle
 10
119.9247689999999
 20
96.57544900000001
 30
0.0
 40
2.1
100
AcDbArc
 50
78.46299999999998
 51
101.537
  0
CIRCLE
  5
A1A7
330
9E8F
100
AcDbEntity
  8
1
  6
Continuous
100
AcDbCircle
 10
119.9247689999999
 20
96.57544900000001
 30
0.0
 40
3.5
  0
CIRCLE
  5
A1A8
330
9E8F
100
AcDbEntity
  8
1
  6
Continuous
100
AcDbCircle
 10
119.9247689999999
 20
96.57544900000001
 30
0.0
 40
3.799999999999998
  0
CIRCLE
  5
A1A9
330
9E8F
100
AcDbEntity
  8
1
  6
Continuous
100
AcDbCircle
 10
119.9247689999999
 20
146.5754489999999
 30
0.0
 40
3.799999999999998
  0
CIRCLE
  5
A1AA
330
9E8F
100
AcDbEntity
  8
1
  6
Continuous
100
AcDbCircle
 10
119.9247689999999
 20
96.57544900000001
 30
0.0
 40
5.0
  0
CIRCLE
  5
A1AB
330
9E8F
100
AcDbEntity
  8
1
  6
Continuous
100
AcDbCircle
 10
119.9247689999999
 20
146.5754489999999
 30
0.0
 40
5.0
  0
ARC
  5
A1AC
330
9E8F
100
AcDbEntity
  8
1
  6
Continuous
100
AcDbCircle
 10
110.1287689999999
 20
163.575449
 30
0.0
 40
3.0
100
AcDbArc
 50
0.0
 51
90.0
  0
ARC
  5
A1AD
330
9E8F
100
AcDbEntity
  8
1
  6
Continuous
100
AcDbCircle
 10
110.1287689999999
 20
79.57544900000002
 30
0.0
 40
3.0
100
AcDbArc
 50
270.0
 51
0.000005
  0
ARC
  5
A1AE
330
9E8F
100
AcDbEntity
  8
1
  6
Continuous
100
AcDbCircle
 10
59.12906899999999
 20
151.5754489999999
 30
0.0
 40
2.25
100
AcDbArc
 50
169.242
 51
190.758
  0
ARC
  5
A1AF
330
9E8F
100
AcDbEntity
  8
1
  6
Continuous
100
AcDbCircle
 10
59.12906899999999
 20
151.5754489999999
 30
0.0
 40
2.25
100
AcDbArc
 50
259.242
 51
280.7579999999999
  0
ARC
  5
A1B0
330
9E8F
100
AcDbEntity
  8
1
  6
Continuous
100
AcDbCircle
 10
59.12906899999999
 20
151.5754489999999
 30
0.0
 40
2.25
100
AcDbArc
 50
349.2419999999999
 51
10.7583
  0
ARC
  5
A1B1
330
9E8F
100
AcDbEntity
  8
1
  6
Continuous
100
AcDbCircle
 10
59.12906899999999
 20
151.5754489999999
 30
0.0
 40
2.25
100
AcDbArc
 50
79.24169999999998
 51
100.7579999999999
  0
CIRCLE
  5
A1B2
330
9E8F
100
AcDbEntity
  8
1
  6
Continuous
100
AcDbCircle
 10
59.12906899999999
 20
151.5754489999999
 30
0.0
 40
4.0
  0
ARC
  5
A1B3
330
9E8F
100
AcDbEntity
  8
1
  6
Continuous
100
AcDbCircle
 10
59.12906899999999
 20
91.57544900000001
 30
0.0
 40
2.25
100
AcDbArc
 50
169.242
 51
190.758
  0
ARC
  5
A1B4
330
9E8F
100
AcDbEntity
  8
1
  6
Continuous
100
AcDbCircle
 10
59.12906899999999
 20
91.57544900000001
 30
0.0
 40
2.25
100
AcDbArc
 50
259.242
 51
280.7579999999999
  0
ARC
  5
A1B5
330
9E8F
100
AcDbEntity
  8
1
  6
Continuous
100
AcDbCircle
 10
59.12906899999999
 20
91.57544900000001
 30
0.0
 40
2.25
100
AcDbArc
 50
349.2419999999999
 51
10.7583
  0
ARC
  5
A1B6
330
9E8F
100
AcDbEntity
  8
1
  6
Continuous
100
AcDbCircle
 10
59.12906899999999
 20
91.57544900000001
 30
0.0
 40
2.25
100
AcDbArc
 50
79.24169999999998
 51
100.7579999999999
  0
CIRCLE
  5
A1B7
330
9E8F
100
AcDbEntity
  8
1
  6
Continuous
100
AcDbCircle
 10
59.12906899999999
 20
91.57544900000001
 30
0.0
 40
4.0
  0
CIRCLE
  5
A1B8
330
9E8F
100
AcDbEntity
  8
1
  6
Continuous
100
AcDbCircle
 10
94.62876900000001
 20
139.0754489999999
 30
0.0
 40
2.75
  0
CIRCLE
  5
A1B9
330
9E8F
100
AcDbEntity
  8
1
  6
Continuous
100
AcDbCircle
 10
94.62876900000001
 20
104.075449
 30
0.0
 40
2.75
  0
ARC
  5
A1BA
330
9E8F
100
AcDbEntity
  8
1
  6
Continuous
100
AcDbCircle
 10
107.1287689999999
 20
139.0754489999999
 30
0.0
 40
2.25
100
AcDbArc
 50
169.242
 51
190.758
  0
ARC
  5
A1BB
330
9E8F
100
AcDbEntity
  8
1
  6
Continuous
100
AcDbCircle
 10
107.1287689999999
 20
139.0754489999999
 30
0.0
 40
2.25
100
AcDbArc
 50
259.242
 51
280.7579999999999
  0
ARC
  5
A1BC
330
9E8F
100
AcDbEntity
  8
1
  6
Continuous
100
AcDbCircle
 10
107.1287689999999
 20
139.0754489999999
 30
0.0
 40
2.25
100
AcDbArc
 50
349.2419999999999
 51
10.7583
  0
ARC
  5
A1BD
330
9E8F
100
AcDbEntity
  8
1
  6
Continuous
100
AcDbCircle
 10
107.1287689999999
 20
139.0754489999999
 30
0.0
 40
2.25
100
AcDbArc
 50
79.24169999999998
 51
100.7579999999999
  0
CIRCLE
  5
A1BE
330
9E8F
100
AcDbEntity
  8
1
  6
Continuous
100
AcDbCircle
 10
107.1287689999999
 20
139.0754489999999
 30
0.0
 40
4.0
  0
ARC
  5
A1BF
330
9E8F
100
AcDbEntity
  8
1
  6
Continuous
100
AcDbCircle
 10
107.1287689999999
 20
104.075449
 30
0.0
 40
2.25
100
AcDbArc
 50
169.242
 51
190.758
  0
ARC
  5
A1C0
330
9E8F
100
AcDbEntity
  8
1
  6
Continuous
100
AcDbCircle
 10
107.1287689999999
 20
104.075449
 30
0.0
 40
2.25
100
AcDbArc
 50
259.242
 51
280.7579999999999
  0
ARC
  5
A1C1
330
9E8F
100
AcDbEntity
  8
1
  6
Continuous
100
AcDbCircle
 10
107.1287689999999
 20
104.075449
 30
0.0
 40
2.25
100
AcDbArc
 50
349.2419999999999
 51
10.7583
  0
ARC
  5
A1C2
330
9E8F
100
AcDbEntity
  8
1
  6
Continuous
100
AcDbCircle
 10
107.1287689999999
 20
104.075449
 30
0.0
 40
2.25
100
AcDbArc
 50
79.24169999999998
 51
100.7579999999999
  0
CIRCLE
  5
A1C3
330
9E8F
100
AcDbEntity
  8
1
  6
Continuous
100
AcDbCircle
 10
107.1287689999999
 20
104.075449
 30
0.0
 40
4.0
  0
ARC
  5
A1C4
330
9E8F
100
AcDbEntity
  8
1
  6
Continuous
100
AcDbCircle
 10
-124.5347309999999
 20
121.575449
 30
0.0
 40
508.4999999999998
100
AcDbArc
 50
354.9929999999998
 51
5.00698
  0
CIRCLE
  5
A1C5
330
9E8F
100
AcDbEntity
  8
1
  6
Continuous
100
AcDbCircle
 10
475.7247689999998
 20
151.5754489999999
 30
0.0
 40
2.066999999999997
  0
CIRCLE
  5
A1C6
330
9E8F
100
AcDbEntity
  8
1
  6
Continuous
100
AcDbCircle
 10
475.7247689999998
 20
91.57544900000001
 30
0.0
 40
2.066999999999997
  0
ARC
  5
A1C7
330
9E8F
100
AcDbEntity
  8
1
  6
Continuous
100
AcDbCircle
 10
232.205769
 20
92.575449
 30
0.0
 40
1.0
100
AcDbArc
 50
180.0
 51
270.0
  0
ARC
  5
A1C8
330
9E8F
100
AcDbEntity
  8
1
  6
Continuous
100
AcDbCircle
 10
232.205769
 20
150.5754489999999
 30
0.0
 40
1.0
100
AcDbArc
 50
90.0
 51
180.0
  0
ARC
  5
A1C9
330
9E8F
100
AcDbEntity
  8
1
  6
Continuous
100
AcDbCircle
 10
232.205769
 20
142.5754489999999
 30
0.0
 40
1.0
100
AcDbArc
 50
180.0
 51
270.0
  0
ARC
  5
A1CA
330
9E8F
100
AcDbEntity
  8
1
  6
Continuous
100
AcDbCircle
 10
232.205769
 20
100.575449
 30
0.0
 40
1.0
100
AcDbArc
 50
90.0
 51
180.0
  0
ARC
  5
A1CB
330
9E8F
100
AcDbEntity
  8
1
  6
Continuous
100
AcDbCircle
 10
309.399769
 20
306.1374489999999
 30
0.0
 40
1.3
100
AcDbArc
 50
105.881
 51
175.0
  0
ARC
  5
A1CC
330
9E8F
100
AcDbEntity
  8
1
  6
Continuous
100
AcDbCircle
 10
311.506769
 20
298.731449
 30
0.0
 40
9.0
100
AcDbArc
 50
74.1191
 51
105.881
  0
ARC
  5
A1CD
330
9E8F
100
AcDbEntity
  8
1
  6
Continuous
100
AcDbCircle
 10
313.6137689999998
 20
306.1374489999999
 30
0.0
 40
1.3
100
AcDbArc
 50
4.999979999999999
 51
74.1191
  0
ARC
  5
A1CE
330
9E8F
100
AcDbEntity
  8
1
  6
Continuous
100
AcDbCircle
 10
175.990769
 20
144.468449
 30
0.0
 40
1.3
100
AcDbArc
 50
195.8809999999998
 51
265.0
  0
ARC
  5
A1CF
330
9E8F
100
AcDbEntity
  8
1
  6
Continuous
100
AcDbCircle
 10
183.396769
 20
146.5754489999999
 30
0.0
 40
9.0
100
AcDbArc
 50
164.119
 51
195.8809999999998
  0
ARC
  5
A1D0
330
9E8F
100
AcDbEntity
  8
1
  6
Continuous
100
AcDbCircle
 10
175.990769
 20
148.6824489999999
 30
0.0
 40
1.3
100
AcDbArc
 50
95.0
 51
164.119
  0
ARC
  5
A1D1
330
9E8F
100
AcDbEntity
  8
1
  6
Continuous
100
AcDbCircle
 10
344.9657689999999
 20
268.372449
 30
0.0
 40
2.5
100
AcDbArc
 50
180.0
 51
332.613
  0
ARC
  5
A1D2
330
9E8F
100
AcDbEntity
  8
1
  6
Continuous
100
AcDbCircle
 10
347.555769
 20
279.322449
 30
0.0
 40
0.5
100
AcDbArc
 50
4.879279999999998
 51
90.0
  0
ARC
  5
A1D3
330
9E8F
100
AcDbEntity
  8
1
  6
Continuous
100
AcDbCircle
 10
342.374769
 20
279.322449
 30
0.0
 40
0.5
100
AcDbArc
 50
90.0
 51
175.1209999999999
  0
ARC
  5
A1D4
330
9E8F
100
AcDbEntity
  8
1
  6
Continuous
100
AcDbCircle
 10
344.9657689999999
 20
268.372449
 30
0.0
 40
4.75
100
AcDbArc
 50
180.0
 51
333.475
  0
ARC
  5
A1D5
330
9E8F
100
AcDbEntity
  8
1
  6
Continuous
100
AcDbCircle
 10
341.5467689999999
 20
266.6404490000001
 30
0.0
 40
0.9181510000000001
100
AcDbArc
 50
206.87
 51
0.000005
  0
ARC
  5
A1D6
330
9E8F
100
AcDbEntity
  8
1
  6
Continuous
100
AcDbCircle
 10
349.0277689999999
 20
59.137249
 30
0.0
 40
7.0
100
AcDbArc
 50
148.997
 51
227.268
  0
ARC
  5
A1D7
330
9E8F
100
AcDbEntity
  8
1
  6
Continuous
100
AcDbCircle
 10
349.0277689999999
 20
59.137249
 30
0.0
 40
3.75
100
AcDbArc
 50
162.942
 51
197.057
  0
ARC
  5
A1D8
330
9E8F
100
AcDbEntity
  8
1
  6
Continuous
100
AcDbCircle
 10
349.0277689999999
 20
184.013449
 30
0.0
 40
7.0
100
AcDbArc
 50
328.997
 51
47.2679
  0
ARC
  5
A1D9
330
9E8F
100
AcDbEntity
  8
1
  6
Continuous
100
AcDbCircle
 10
349.0277689999999
 20
184.013449
 30
0.0
 40
3.75
100
AcDbArc
 50
342.9419999999999
 51
17.0575
  0
CIRCLE
  5
A1DA
330
9E8F
100
AcDbEntity
  8
1
  6
Continuous
100
AcDbCircle
 10
349.0277689999999
 20
59.137249
 30
0.0
 40
2.549999999999998
  0
ARC
  5
A1DB
330
9E8F
100
AcDbEntity
  8
1
  6
Continuous
100
AcDbCircle
 10
349.0277689999999
 20
59.294649
 30
0.0
 40
4.842629999999998
100
AcDbArc
 50
11.2244
 51
168.7759999999999
  0
CIRCLE
  5
A1DC
330
9E8F
100
AcDbEntity
  8
1
  6
Continuous
100
AcDbCircle
 10
349.0277689999999
 20
184.013449
 30
0.0
 40
2.549999999999998
  0
ARC
  5
A1DD
330
9E8F
100
AcDbEntity
  8
1
  6
Continuous
100
AcDbCircle
 10
349.0277689999999
 20
183.8564489999999
 30
0.0
 40
4.842629999999998
100
AcDbArc
 50
191.2239999999999
 51
348.776
  0
ARC
  5
A1DE
330
9E8F
100
AcDbEntity
  8
1
  6
Continuous
100
AcDbCircle
 10
349.0277689999999
 20
184.013449
 30
0.0
 40
7.0
100
AcDbArc
 50
132.732
 51
211.003
  0
ARC
  5
A1DF
330
9E8F
100
AcDbEntity
  8
1
  6
Continuous
100
AcDbCircle
 10
349.0277689999999
 20
184.013449
 30
0.0
 40
3.75
100
AcDbArc
 50
162.9429999999999
 51
197.0579999999999
  0
ARC
  5
A1E0
330
9E8F
100
AcDbEntity
  8
1
  6
Continuous
100
AcDbCircle
 10
349.0277689999999
 20
59.137249
 30
0.0
 40
7.0
100
AcDbArc
 50
312.732
 51
31.0027
  0
ARC
  5
A1E1
330
9E8F
100
AcDbEntity
  8
1
  6
Continuous
100
AcDbCircle
 10
349.0277689999999
 20
59.137249
 30
0.0
 40
3.75
100
AcDbArc
 50
342.9429999999999
 51
17.0577
  0
ARC
  5
A1E2
330
9E8F
100
AcDbEntity
  8
1
  6
Continuous
100
AcDbCircle
 10
87.12876899999995
 20
-327.4245509999999
 30
0.0
 40
500.0
100
AcDbArc
 50
91.43980000000002
 51
93.89809999999998
  0
ARC
  5
A1E3
330
9E8F
100
AcDbEntity
  8
1
  6
Continuous
100
AcDbCircle
 10
87.12876899999995
 20
570.5754490000003
 30
0.0
 40
500.0
100
AcDbArc
 50
269.9349999999999
 51
273.8979999999999
  0
ARC
  5
A1E4
330
9E8F
100
AcDbEntity
  8
1
  6
Continuous
100
AcDbCircle
 10
478.524769
 20
174.013449
 30
0.0
 40
2.0
100
AcDbArc
 50
90.0
 51
180.0
  0
ARC
  5
A1E5
330
9E8F
100
AcDbEntity
  8
1
  6
Continuous
100
AcDbCircle
 10
478.824769
 20
176.013449
 30
0.0
 40
2.0
100
AcDbArc
 50
270.0
 51
0.000005
  0
ARC
  5
A1E6
330
9E8F
100
AcDbEntity
  8
1
  6
Continuous
100
AcDbCircle
 10
478.524769
 20
69.137249
 30
0.0
 40
2.0
100
AcDbArc
 50
180.0
 51
270.0
  0
ARC
  5
A1E7
330
9E8F
100
AcDbEntity
  8
1
  6
Continuous
100
AcDbCircle
 10
478.824769
 20
67.13724899999999
 30
0.0
 40
2.0
100
AcDbArc
 50
0.0
 51
90.0
  0
ARC
  5
A1E8
330
9E8F
100
AcDbEntity
  8
1
  6
Continuous
100
AcDbCircle
 10
483.524769
 20
59.137249
 30
0.0
 40
0.8
100
AcDbArc
 50
273.711
 51
86.28950000000001
  0
ARC
  5
A1E9
330
9E8F
100
AcDbEntity
  8
1
  6
Continuous
100
AcDbCircle
 10
485.424769
 20
56.449249
 30
0.0
 40
0.5
100
AcDbArc
 50
288.189
 51
0.0
  0
ARC
  5
A1EA
330
9E8F
100
AcDbEntity
  8
1
  6
Continuous
100
AcDbCircle
 10
485.424769
 20
61.825249
 30
0.0
 40
0.5
100
AcDbArc
 50
0.0
 51
71.81090000000001
  0
ARC
  5
A1EB
330
9E8F
100
AcDbEntity
  8
1
  6
Continuous
100
AcDbCircle
 10
483.524769
 20
184.013449
 30
0.0
 40
0.8
100
AcDbArc
 50
273.6329999999999
 51
86.3673
  0
ARC
  5
A1EC
330
9E8F
100
AcDbEntity
  8
1
  6
Continuous
100
AcDbCircle
 10
485.424769
 20
186.701449
 30
0.0
 40
0.5
100
AcDbArc
 50
0.0
 51
71.81090000000001
  0
ARC
  5
A1ED
330
9E8F
100
AcDbEntity
  8
1
  6
Continuous
100
AcDbCircle
 10
485.424769
 20
181.325449
 30
0.0
 40
0.5
100
AcDbArc
 50
288.189
 51
0.0
  0
ARC
  5
A1EE
330
9E8F
100
AcDbEntity
  8
1
  6
Continuous
100
AcDbCircle
 10
229.4057689999999
 20
174.013449
 30
0.0
 40
2.0
100
AcDbArc
 50
0.0
 51
90.0
  0
ARC
  5
A1EF
330
9E8F
100
AcDbEntity
  8
1
  6
Continuous
100
AcDbCircle
 10
229.1057689999999
 20
176.013449
 30
0.0
 40
2.0
100
AcDbArc
 50
180.0
 51
270.0
  0
ARC
  5
A1F0
330
9E8F
100
AcDbEntity
  8
1
  6
Continuous
100
AcDbCircle
 10
229.4057689999999
 20
69.137249
 30
0.0
 40
2.0
100
AcDbArc
 50
270.0
 51
0.000005
  0
ARC
  5
A1F1
330
9E8F
100
AcDbEntity
  8
1
  6
Continuous
100
AcDbCircle
 10
229.1057689999999
 20
67.13724899999999
 30
0.0
 40
2.0
100
AcDbArc
 50
90.0
 51
180.0
  0
ARC
  5
A1F2
330
9E8F
100
AcDbEntity
  8
1
  6
Continuous
100
AcDbCircle
 10
224.4057689999999
 20
184.013449
 30
0.0
 40
0.8
100
AcDbArc
 50
93.71059999999998
 51
266.2889999999998
  0
ARC
  5
A1F3
330
9E8F
100
AcDbEntity
  8
1
  6
Continuous
100
AcDbCircle
 10
222.5057689999999
 20
186.701449
 30
0.0
 40
0.5
100
AcDbArc
 50
108.189
 51
180.0
  0
ARC
  5
A1F4
330
9E8F
100
AcDbEntity
  8
1
  6
Continuous
100
AcDbCircle
 10
222.5057689999999
 20
181.325449
 30
0.0
 40
0.5
100
AcDbArc
 50
180.0
 51
251.811
  0
ARC
  5
A1F5
330
9E8F
100
AcDbEntity
  8
1
  6
Continuous
100
AcDbCircle
 10
224.4057689999999
 20
59.137249
 30
0.0
 40
0.8
100
AcDbArc
 50
93.63269999999998
 51
266.367
  0
ARC
  5
A1F6
330
9E8F
100
AcDbEntity
  8
1
  6
Continuous
100
AcDbCircle
 10
222.5057689999999
 20
56.449249
 30
0.0
 40
0.5
100
AcDbArc
 50
180.0
 51
251.811
  0
ARC
  5
A1F7
330
9E8F
100
AcDbEntity
  8
1
  6
Continuous
100
AcDbCircle
 10
222.5057689999999
 20
61.825249
 30
0.0
 40
0.5
100
AcDbArc
 50
108.189
 51
180.0
  0
ARC
  5
A1F8
330
9E8F
100
AcDbEntity
  8
1
  6
Continuous
100
AcDbCircle
 10
80.56576900000001
 20
184.013449
 30
0.0
 40
7.0
100
AcDbArc
 50
328.997
 51
211.003
  0
ARC
  5
A1F9
330
9E8F
100
AcDbEntity
  8
1
  6
Continuous
100
AcDbCircle
 10
80.56576900000001
 20
59.137249
 30
0.0
 40
7.0
100
AcDbArc
 50
148.997
 51
31.00299999999999
  0
ARC
  5
A1FA
330
9E8F
100
AcDbEntity
  8
1
  6
Continuous
100
AcDbCircle
 10
80.56576900000001
 20
59.137249
 30
0.0
 40
3.75
100
AcDbArc
 50
149.154
 51
210.8459999999998
  0
CIRCLE
  5
A1FB
330
9E8F
100
AcDbEntity
  8
1
  6
Continuous
100
AcDbCircle
 10
80.56576900000001
 20
59.137249
 30
0.0
 40
2.549999999999998
  0
ARC
  5
A1FC
330
9E8F
100
AcDbEntity
  8
1
  6
Continuous
100
AcDbCircle
 10
80.56576900000001
 20
59.92274899999999
 30
0.0
 40
3.414519999999998
100
AcDbArc
 50
5.28509
 51
174.7149999999998
  0
ARC
  5
A1FD
330
9E8F
100
AcDbEntity
  8
1
  6
Continuous
100
AcDbCircle
 10
80.56576900000001
 20
58.351749
 30
0.0
 40
3.414519999999998
100
AcDbArc
 50
185.285
 51
354.7149999999998
  0
CIRCLE
  5
A1FE
330
9E8F
100
AcDbEntity
  8
1
  6
Continuous
100
AcDbCircle
 10
80.56576900000001
 20
184.013449
 30
0.0
 40
2.549999999999998
  0
ARC
  5
A1FF
330
9E8F
100
AcDbEntity
  8
1
  6
Continuous
100
AcDbCircle
 10
80.56576900000001
 20
183.228449
 30
0.0
 40
3.414519999999998
100
AcDbArc
 50
185.285
 51
354.7149999999998
  0
ARC
  5
A200
330
9E8F
100
AcDbEntity
  8
1
  6
Continuous
100
AcDbCircle
 10
80.56576900000001
 20
184.7994489999999
 30
0.0
 40
3.414519999999998
100
AcDbArc
 50
5.28509
 51
174.7149999999998
  0
ARC
  5
A201
330
9E8F
100
AcDbEntity
  8
1
  6
Continuous
100
AcDbCircle
 10
80.56576900000001
 20
59.137249
 30
0.0
 40
3.75
100
AcDbArc
 50
329.1539999999999
 51
30.8459
  0
ARC
  5
A202
330
9E8F
100
AcDbEntity
  8
1
  6
Continuous
100
AcDbCircle
 10
80.56576900000001
 20
184.013449
 30
0.0
 40
3.75
100
AcDbArc
 50
149.154
 51
210.8459999999998
  0
ARC
  5
A203
330
9E8F
100
AcDbEntity
  8
1
  6
Continuous
100
AcDbCircle
 10
80.56576900000001
 20
184.013449
 30
0.0
 40
3.75
100
AcDbArc
 50
329.1539999999999
 51
30.8459
  0
LINE
  5
A204
330
9E8F
100
AcDbEntity
  8
1
  6
Continuous
100
AcDbLine
 10
28.629069
 20
114.575449
 30
0.0
 11
28.629069
 21
76.57544900000002
 31
0.0
  0
LINE
  5
A205
330
9E8F
100
AcDbEntity
  8
4
  6
CENTER
100
AcDbLine
 10
358.4423689999999
 20
175.227909
 30
0.0
 11
349.442369
 21
175.227909
 31
0.0
  0
LINE
  5
A206
330
9E8F
100
AcDbEntity
  8
4
  6
CENTER
100
AcDbLine
 10
353.942369
 20
179.727909
 30
0.0
 11
353.942369
 21
170.727909
 31
0.0
  0
CIRCLE
  5
A207
330
9E8F
100
AcDbEntity
  8
5
  6
PHANTOM
100
AcDbCircle
 10
353.942369
 20
175.227909
 30
0.0
 40
2.549999999999998
  0
LINE
  5
A208
330
9E8F
100
AcDbEntity
  8
1
  6
Continuous
100
AcDbLine
 10
27.22906899999999
 20
128.5754489999999
 30
0.0
 11
27.22906899999999
 21
114.575449
 31
0.0
  0
LINE
  5
A209
330
9E8F
100
AcDbEntity
  8
4
  6
CENTER
100
AcDbLine
 10
66.36317
 20
258.8294209999999
 30
0.0
 11
106.5464189999999
 21
258.8294209999999
 31
0.0
  0
CIRCLE
  5
A20A
330
9E8F
100
AcDbEntity
  8
5
  6
PHANTOM
100
AcDbCircle
 10
353.942369
 20
67.922989
 30
0.0
 40
2.549999999999998
  0
LINE
  5
A20B
330
9E8F
100
AcDbEntity
  8
4
  6
CENTER
100
AcDbLine
 10
353.942369
 20
63.422989
 30
0.0
 11
353.942369
 21
72.422989
 31
0.0
  0
LINE
  5
A20C
330
9E8F
100
AcDbEntity
  8
4
  6
CENTER
100
AcDbLine
 10
358.4423689999999
 20
67.922989
 30
0.0
 11
349.442369
 21
67.922989
 31
0.0
  0
LINE
  5
A20D
330
9E8F
100
AcDbEntity
  8
4
  6
CENTER
100
AcDbLine
 10
75.65116899999998
 20
179.727909
 30
0.0
 11
75.65116899999998
 21
170.727909
 31
0.0
  0
CIRCLE
  5
A20E
330
9E8F
100
AcDbEntity
  8
5
  6
PHANTOM
100
AcDbCircle
 10
75.65116899999998
 20
175.227909
 30
0.0
 40
2.549999999999998
  0
LINE
  5
A20F
330
9E8F
100
AcDbEntity
  8
4
  6
CENTER
100
AcDbLine
 10
71.151169
 20
175.227909
 30
0.0
 11
80.15116899999998
 21
175.227909
 31
0.0
  0
CIRCLE
  5
A210
330
9E8F
100
AcDbEntity
  8
5
  6
PHANTOM
100
AcDbCircle
 10
75.65116899999998
 20
67.922989
 30
0.0
 40
2.549999999999998
  0
LINE
  5
A211
330
9E8F
100
AcDbEntity
  8
4
  6
CENTER
100
AcDbLine
 10
75.65116899999998
 20
63.422989
 30
0.0
 11
75.65116899999998
 21
72.422989
 31
0.0
  0
LINE
  5
A212
330
9E8F
100
AcDbEntity
  8
4
  6
CENTER
100
AcDbLine
 10
71.151169
 20
67.922989
 30
0.0
 11
80.15116899999998
 21
67.922989
 31
0.0
  0
ARC
  5
A213
330
9E8F
100
AcDbEntity
  8
1
  6
Continuous
100
AcDbCircle
 10
72.17410099999998
 20
256.3294209999999
 30
0.0
 40
0.5
100
AcDbArc
 50
180.0
 51
270.0
  0
LINE
  5
A214
330
9E8F
100
AcDbEntity
  8
1
  6
Continuous
100
AcDbLine
 10
73.67410099999998
 20
255.829421
 30
0.0
 11
72.17410099999998
 21
255.829421
 31
0.0
  0
ARC
  5
A215
330
9E8F
100
AcDbEntity
  8
1
  6
Continuous
100
AcDbCircle
 10
73.67410099999998
 20
256.3294209999999
 30
0.0
 40
0.5
100
AcDbArc
 50
270.0
 51
0.0
  0
LINE
  5
A216
330
9E8F
100
AcDbEntity
  8
4
  6
CENTER
100
AcDbLine
 10
393.3544209999998
 20
269.372449
 30
0.0
 11
404.4439709999998
 21
269.372449
 31
0.0
  0
ENDSEC
  0
SECTION
  2
OBJECTS
  0
DICTIONARY
  5
9E7D
330
0
100
AcDbDictionary
281
     1
  3
ACAD_CIP_PREVIOUS_PRODUCT_INFO
350
A280
  3
ACAD_COLOR
350
A262
  3
ACAD_DETAILVIEWSTYLE
350
A27B
  3
ACAD_GROUP
350
9E7E
  3
ACAD_LAYOUT
350
9E8A
  3
ACAD_MATERIAL
350
A230
  3
ACAD_MLEADERSTYLE
350
A277
  3
ACAD_MLINESTYLE
350
9E87
  3
ACAD_PLOTSETTINGS
350
9E89
  3
ACAD_PLOTSTYLENAME
350
A22E
  3
ACAD_SCALELIST
350
A265
  3
ACAD_SECTIONVIEWSTYLE
350
A279
  3
ACAD_TABLESTYLE
350
A263
  3
ACAD_VISUALSTYLE
350
A249
  3
ACDB_RECOMPOSE_DATA
350
A29E
  3
AcDbVariableDictionary
350
A291
  3
DWGPROPS
350
A29F
  0
DICTIONARY
  5
A281
330
9E81
100
AcDbDictionary
280
     1
281
     1
  3
ADSK_XREC_LAYER_RECONCILED
360
A282
  0
DICTIONARY
  5
A283
330
9E97
100
AcDbDictionary
280
     1
281
     1
  3
ADSK_XREC_LAYER_RECONCILED
360
A284
  0
DICTIONARY
  5
A285
330
9E98
100
AcDbDictionary
280
     1
281
     1
  3
ADSK_XREC_LAYER_RECONCILED
360
A286
  0
DICTIONARY
  5
A287
330
9E99
100
AcDbDictionary
280
     1
281
     1
  3
ADSK_XREC_LAYER_RECONCILED
360
A288
  0
DICTIONARY
  5
A289
330
9E9A
100
AcDbDictionary
280
     1
281
     1
  3
ADSK_XREC_LAYER_RECONCILED
360
A28A
  0
DICTIONARY
  5
A28B
330
9E9B
100
AcDbDictionary
280
     1
281
     1
  3
ADSK_XREC_LAYER_RECONCILED
360
A28C
  0
DICTIONARY
  5
A28D
330
9E9C
100
AcDbDictionary
280
     1
281
     1
  3
ADSK_XREC_LAYER_RECONCILED
360
A28E
  0
DICTIONARY
  5
A28F
330
9E9D
100
AcDbDictionary
280
     1
281
     1
  3
ADSK_XREC_LAYER_RECONCILED
360
A290
  0
DICTIONARY
  5
A229
330
9E8F
100
AcDbDictionary
281
     1
  3
ACAD_LAYOUTSELFREF
350
A22A
  0
DICTIONARY
  5
A227
330
9E8B
100
AcDbDictionary
281
     1
  3
ACAD_LAYOUTSELFREF
350
A228
  0
XRECORD
  5
A280
102
{ACAD_REACTORS
330
9E7D
102
}
330
9E7D
100
AcDbXrecord
280
     1
300
ACDLT
300
2014
300
ACDLT_F_S
  0
DICTIONARY
  5
A262
102
{ACAD_REACTORS
330
9E7D
102
}
330
9E7D
100
AcDbDictionary
281
     1
  0
DICTIONARY
  5
A27B
102
{ACAD_REACTORS
330
9E7D
102
}
330
9E7D
100
AcDbDictionary
281
     1
  3
Imperial24
350
A27C
  0
DICTIONARY
  5
9E7E
102
{ACAD_REACTORS
330
9E7D
102
}
330
9E7D
100
AcDbDictionary
281
     1
  0
DICTIONARY
  5
9E8A
102
{ACAD_REACTORS
330
9E7D
102
}
330
9E7D
100
AcDbDictionary
281
     1
  3
Model
350
A27D
  3
レイアウト1
350
A27E
  0
DICTIONARY
  5
A230
102
{ACAD_REACTORS
330
9E7D
102
}
330
9E7D
100
AcDbDictionary
281
     1
  3
ByBlock
350
A239
  3
ByLayer
350
A231
  3
Global
350
A241
  0
DICTIONARY
  5
A277
102
{ACAD_REACTORS
330
9E7D
102
}
330
9E7D
100
AcDbDictionary
281
     1
  3
Standard
350
A278
  0
DICTIONARY
  5
9E87
102
{ACAD_REACTORS
330
9E7D
102
}
330
9E7D
100
AcDbDictionary
281
     1
  3
STANDARD
350
9E88
  0
DICTIONARY
  5
9E89
102
{ACAD_REACTORS
330
9E7D
102
}
330
9E7D
100
AcDbDictionary
281
     1
  0
ACDBDICTIONARYWDFLT
  5
A22E
102
{ACAD_REACTORS
330
9E7D
102
}
330
9E7D
100
AcDbDictionary
281
     1
  3
Normal
350
A22F
100
AcDbDictionaryWithDefault
340
A22F
  0
DICTIONARY
  5
A265
102
{ACAD_REACTORS
330
9E7D
102
}
330
9E7D
100
AcDbDictionary
281
     1
  3
A0
350
A266
  3
A1
350
A267
  3
A2
350
A268
  3
A3
350
A269
  3
A4
350
A26A
  3
A5
350
A26B
  3
A6
350
A26C
  3
A7
350
A26D
  3
A8
350
A26E
  3
A9
350
A26F
  3
B0
350
A270
  3
B1
350
A271
  3
B2
350
A272
  3
B3
350
A273
  3
B4
350
A274
  3
B5
350
A275
  3
B6
350
A276
  0
DICTIONARY
  5
A279
102
{ACAD_REACTORS
330
9E7D
102
}
330
9E7D
100
AcDbDictionary
281
     1
  3
Imperial24
350
A27A
  0
DICTIONARY
  5
A263
102
{ACAD_REACTORS
330
9E7D
102
}
330
9E7D
100
AcDbDictionary
281
     1
  3
Standard
350
A264
  0
DICTIONARY
  5
A249
102
{ACAD_REACTORS
330
9E7D
102
}
330
9E7D
100
AcDbDictionary
281
     1
  3
2dWireframe
350
A24F
  3
Basic
350
A24E
  3
Brighten
350
A255
  3
ColorChange
350
A259
  3
Conceptual
350
A252
  3
Dim
350
A254
  3
EdgeColorOff
350
A261
  3
Facepattern
350
A258
  3
Flat
350
A24A
  3
FlatWithEdges
350
A24B
  3
Gouraud
350
A24C
  3
GouraudWithEdges
350
A24D
  3
Hidden
350
A251
  3
JitterOff
350
A25F
  3
Linepattern
350
A257
  3
OverhangOff
350
A260
  3
Realistic
350
A253
  3
Shaded
350
A25E
  3
Shaded with edges
350
A25D
  3
Shades of Gray
350
A25A
  3
Sketchy
350
A25B
  3
Thicken
350
A256
  3
Wireframe
350
A250
  3
X-Ray
350
A25C
  0
XRECORD
  5
A29E
102
{ACAD_REACTORS
330
9E7D
102
}
330
9E7D
100
AcDbXrecord
280
     1
 90
        1
330
A264
  0
DICTIONARY
  5
A291
102
{ACAD_REACTORS
330
9E7D
102
}
330
9E7D
100
AcDbDictionary
281
     1
  3
CANNOSCALE
350
A296
  3
CMLEADERSTYLE
350
A293
  3
CTABLESTYLE
350
A292
  3
CVIEWDETAILSTYLE
350
A294
  3
CVIEWSECTIONSTYLE
350
A295
  3
DIMASSOC
350
A299
  3
INDEXCTL
350
A298
  3
SORTENTS
350
A297
  3
XCLIPFRAME
350
A29A
  0
XRECORD
  5
A29F
102
{ACAD_REACTORS
330
9E7D
102
}
330
9E7D
100
AcDbXrecord
280
     1
  1
DWGPROPS COOKIE
  2

  3

  4

  6

  7

  8
Yoshitsune
  9

300
=
301
=
302
=
303
=
304
=
305
=
306
=
307
=
308
=
309
=
 40
0.0003159143518519
 41
2450737.666722338
 42
2457192.640223959
  1

 90
        0
  0
XRECORD
  5
A282
102
{ACAD_REACTORS
330
A281
102
}
330
A281
100
AcDbXrecord
280
     1
290
     1
  0
XRECORD
  5
A284
102
{ACAD_REACTORS
330
A283
102
}
330
A283
100
AcDbXrecord
280
     1
290
     1
  0
XRECORD
  5
A286
102
{ACAD_REACTORS
330
A285
102
}
330
A285
100
AcDbXrecord
280
     1
290
     1
  0
XRECORD
  5
A288
102
{ACAD_REACTORS
330
A287
102
}
330
A287
100
AcDbXrecord
280
     1
290
     1
  0
XRECORD
  5
A28A
102
{ACAD_REACTORS
330
A289
102
}
330
A289
100
AcDbXrecord
280
     1
290
     1
  0
XRECORD
  5
A28C
102
{ACAD_REACTORS
330
A28B
102
}
330
A28B
100
AcDbXrecord
280
     1
290
     1
  0
XRECORD
  5
A28E
102
{ACAD_REACTORS
330
A28D
102
}
330
A28D
100
AcDbXrecord
280
     1
290
     1
  0
XRECORD
  5
A290
102
{ACAD_REACTORS
330
A28F
102
}
330
A28F
100
AcDbXrecord
280
     1
290
     1
  0
XRECORD
  5
A22A
102
{ACAD_REACTORS
330
A229
102
}
330
A229
100
AcDbXrecord
280
     1
340
9E8F
  0
XRECORD
  5
A228
102
{ACAD_REACTORS
330
A227
102
}
330
A227
100
AcDbXrecord
280
     1
340
9E8B
  0
ACDBDETAILVIEWSTYLE
  5
A27C
102
{ACAD_XDICTIONARY
360
A2D7
102
}
102
{ACAD_REACTORS
330
A27B
102
}
330
A27B
100
AcDbModelDocViewStyle
 70
     0
  3
Imperial24
290
     0
100
AcDbDetailViewStyle
 70
     0
 71
     0
 90
        3
 71
     1
340
9E82
 40
0.24
340
0
 40
0.24
300

 40
0.36
280
     3
 71
     2
340
9E86
 90
       25
 71
     3
340
9E82
 40
0.24
 90
        1
 40
0.75
 90
        1
300
%<\AcVar ViewType \f "%tc1">% %<\AcVar ViewDetailId>%\PSCALE %<\AcVar ViewScale \f "%sn">%
 71
     4
340
9E86
 90
       25
340
9E86
 90
       25
280
     0
  0
LAYOUT
  5
A27D
102
{ACAD_XDICTIONARY
360
A2D9
102
}
102
{ACAD_REACTORS
330
9E8A
102
}
330
9E8A
100
AcDbPlotSettings
  1

  2
Canon LBP9100C
  4

  6

 40
0.0
 41
0.0
 42
0.0
 43
0.0
 44
0.0
 45
0.0
 46
0.0
 47
0.0
 48
0.0
 49
0.0
140
0.0
141
0.0
142
1.0
143
1.0
 70
  1712
 72
     0
 73
     0
 74
     0
  7

 75
     0
147
1.0
148
0.0
149
0.0
100
AcDbLayout
  1
Model
 70
     1
 71
     0
 10
0.0
 20
0.0
 11
12.0
 21
9.0
 12
0.0
 22
0.0
 32
0.0
 14
0.0
 24
0.0
 34
0.0
 15
0.0
 25
0.0
 35
0.0
146
0.0
 13
0.0
 23
0.0
 33
0.0
 16
1.0
 26
0.0
 36
0.0
 17
0.0
 27
1.0
 37
0.0
 76
     0
330
9E8F
331
A226
  0
LAYOUT
  5
A27E
102
{ACAD_XDICTIONARY
360
A2DB
102
}
102
{ACAD_REACTORS
330
9E8A
102
}
330
9E8A
100
AcDbPlotSettings
  1

  2
Canon LBP9100C
  4

  6

 40
0.0
 41
0.0
 42
0.0
 43
0.0
 44
0.0
 45
0.0
 46
0.0
 47
0.0
 48
0.0
 49
0.0
140
0.0
141
0.0
142
1.0
143
1.0
 70
   688
 72
     0
 73
     0
 74
     5
  7

 75
    16
147
1.0
148
0.0
149
0.0
100
AcDbLayout
  1
レイアウト1
 70
     0
 71
     1
 10
0.0
 20
0.0
 11
420.0
 21
297.0
 12
0.0
 22
0.0
 32
0.0
 14
1.000000000000000E+20
 24
1.000000000000000E+20
 34
1.000000000000000E+20
 15
-1.000000000000000E+20
 25
-1.000000000000000E+20
 35
-1.000000000000000E+20
146
0.0
 13
0.0
 23
0.0
 33
0.0
 16
1.0
 26
0.0
 36
0.0
 17
0.0
 27
1.0
 37
0.0
 76
     0
330
9E8B
  0
MATERIAL
  5
A239
102
{ACAD_XDICTIONARY
360
A23A
102
}
102
{ACAD_REACTORS
330
A230
102
}
330
A230
100
AcDbMaterial
  1
ByBlock
 72
     0
 43
0.0208333333333333
 43
0.0
 43
0.0
 43
0.0
 43
0.0
 43
0.0208333333333333
 43
0.0
 43
0.0
 43
0.0
 43
0.0
 43
1.0
 43
0.0
 43
0.0
 43
0.0
 43
0.0
 43
1.0
 77
     0
 47
0.0208333333333333
 47
0.0
 47
0.0
 47
0.0
 47
0.0
 47
0.0208333333333333
 47
0.0
 47
0.0
 47
0.0
 47
0.0
 47
1.0
 47
0.0
 47
0.0
 47
0.0
 47
0.0
 47
1.0
171
     0
 49
0.0208333333333333
 49
0.0
 49
0.0
 49
0.0
 49
0.0
 49
0.0208333333333333
 49
0.0
 49
0.0
 49
0.0
 49
0.0
 49
1.0
 49
0.0
 49
0.0
 49
0.0
 49
0.0
 49
1.0
175
     0
142
0.0208333333333333
142
0.0
142
0.0
142
0.0
142
0.0
142
0.0208333333333333
142
0.0
142
0.0
142
0.0
142
0.0
142
1.0
142
0.0
142
0.0
142
0.0
142
0.0
142
1.0
179
     0
144
0.0208333333333333
144
0.0
144
0.0
144
0.0
144
0.0
144
0.0208333333333333
144
0.0
144
0.0
144
0.0
144
0.0
144
1.0
144
0.0
144
0.0
144
0.0
144
0.0
144
1.0
147
0.0208333333333333
147
0.0
147
0.0
147
0.0
147
0.0
147
0.0208333333333333
147
0.0
147
0.0
147
0.0
147
0.0
147
1.0
147
0.0
147
0.0
147
0.0
147
0.0
147
1.0
  0
MATERIAL
  5
A231
102
{ACAD_XDICTIONARY
360
A232
102
}
102
{ACAD_REACTORS
330
A230
102
}
330
A230
100
AcDbMaterial
  1
ByLayer
 72
     0
 43
0.0208333333333333
 43
0.0
 43
0.0
 43
0.0
 43
0.0
 43
0.0208333333333333
 43
0.0
 43
0.0
 43
0.0
 43
0.0
 43
1.0
 43
0.0
 43
0.0
 43
0.0
 43
0.0
 43
1.0
 77
     0
 47
0.0208333333333333
 47
0.0
 47
0.0
 47
0.0
 47
0.0
 47
0.0208333333333333
 47
0.0
 47
0.0
 47
0.0
 47
0.0
 47
1.0
 47
0.0
 47
0.0
 47
0.0
 47
0.0
 47
1.0
171
     0
 49
0.0208333333333333
 49
0.0
 49
0.0
 49
0.0
 49
0.0
 49
0.0208333333333333
 49
0.0
 49
0.0
 49
0.0
 49
0.0
 49
1.0
 49
0.0
 49
0.0
 49
0.0
 49
0.0
 49
1.0
175
     0
142
0.0208333333333333
142
0.0
142
0.0
142
0.0
142
0.0
142
0.0208333333333333
142
0.0
142
0.0
142
0.0
142
0.0
142
1.0
142
0.0
142
0.0
142
0.0
142
0.0
142
1.0
179
     0
144
0.0208333333333333
144
0.0
144
0.0
144
0.0
144
0.0
144
0.0208333333333333
144
0.0
144
0.0
144
0.0
144
0.0
144
1.0
144
0.0
144
0.0
144
0.0
144
0.0
144
1.0
147
0.0208333333333333
147
0.0
147
0.0
147
0.0
147
0.0
147
0.0208333333333333
147
0.0
147
0.0
147
0.0
147
0.0
147
1.0
147
0.0
147
0.0
147
0.0
147
0.0
147
1.0
  0
MATERIAL
  5
A241
102
{ACAD_XDICTIONARY
360
A242
102
}
102
{ACAD_REACTORS
330
A230
102
}
330
A230
100
AcDbMaterial
  1
Global
 72
     0
 43
0.0208333333333333
 43
0.0
 43
0.0
 43
0.0
 43
0.0
 43
0.0208333333333333
 43
0.0
 43
0.0
 43
0.0
 43
0.0
 43
1.0
 43
0.0
 43
0.0
 43
0.0
 43
0.0
 43
1.0
 77
     0
 47
0.0208333333333333
 47
0.0
 47
0.0
 47
0.0
 47
0.0
 47
0.0208333333333333
 47
0.0
 47
0.0
 47
0.0
 47
0.0
 47
1.0
 47
0.0
 47
0.0
 47
0.0
 47
0.0
 47
1.0
171
     0
 49
0.0208333333333333
 49
0.0
 49
0.0
 49
0.0
 49
0.0
 49
0.0208333333333333
 49
0.0
 49
0.0
 49
0.0
 49
0.0
 49
1.0
 49
0.0
 49
0.0
 49
0.0
 49
0.0
 49
1.0
175
     0
142
0.0208333333333333
142
0.0
142
0.0
142
0.0
142
0.0
142
0.0208333333333333
142
0.0
142
0.0
142
0.0
142
0.0
142
1.0
142
0.0
142
0.0
142
0.0
142
0.0
142
1.0
179
     0
144
0.0208333333333333
144
0.0
144
0.0
144
0.0
144
0.0
144
0.0208333333333333
144
0.0
144
0.0
144
0.0
144
0.0
144
1.0
144
0.0
144
0.0
144
0.0
144
0.0
144
1.0
147
0.0208333333333333
147
0.0
147
0.0
147
0.0
147
0.0
147
0.0208333333333333
147
0.0
147
0.0
147
0.0
147
0.0
147
1.0
147
0.0
147
0.0
147
0.0
147
0.0
147
1.0
  0
MLEADERSTYLE
  5
A278
102
{ACAD_REACTORS
330
A277
102
}
330
A277
100
AcDbMLeaderStyle
170
     2
171
     1
172
     0
 90
        2
 40
0.0
 41
0.0
173
     1
 91
-1056964608
340
9E84
 92
       -2
290
     1
 42
0.09
291
     1
 43
0.36
  3
Standard
 44
0.18
300

342
9E82
174
     1
178
     6
175
     1
176
     0
 93
-1056964608
 45
0.18
292
     0
297
     0
 46
0.18
 94
-1056964608
 47
1.0
 49
1.0
140
1.0
293
     1
141
0.0
294
     1
177
     0
142
1.0
295
     0
296
     0
143
0.125
1001
ACAD_MLEADERVER
1070
     2
  0
MLINESTYLE
  5
9E88
102
{ACAD_REACTORS
330
9E87
102
}
330
9E87
100
AcDbMlineStyle
  2
STANDARD
 70
     0
  3

 62
   256
 51
90.0
 52
90.0
 71
     2
 49
0.5
 62
   256
  6
BYLAYER
 49
-0.5
 62
   256
  6
BYLAYER
  0
ACDBPLACEHOLDER
  5
A22F
102
{ACAD_REACTORS
330
A22E
102
}
330
A22E
  0
SCALE
  5
A266
102
{ACAD_REACTORS
330
A265
102
}
330
A265
100
AcDbScale
 70
     0
300
1:1
140
1.0
141
1.0
290
     1
  0
SCALE
  5
A267
102
{ACAD_REACTORS
330
A265
102
}
330
A265
100
AcDbScale
 70
     0
300
1/128" = 1'-0"
140
0.0078125
141
12.0
290
     0
  0
SCALE
  5
A268
102
{ACAD_REACTORS
330
A265
102
}
330
A265
100
AcDbScale
 70
     0
300
1/64" = 1'-0"
140
0.015625
141
12.0
290
     0
  0
SCALE
  5
A269
102
{ACAD_REACTORS
330
A265
102
}
330
A265
100
AcDbScale
 70
     0
300
1/32" = 1'-0"
140
0.03125
141
12.0
290
     0
  0
SCALE
  5
A26A
102
{ACAD_REACTORS
330
A265
102
}
330
A265
100
AcDbScale
 70
     0
300
1/16" = 1'-0"
140
0.0625
141
12.0
290
     0
  0
SCALE
  5
A26B
102
{ACAD_REACTORS
330
A265
102
}
330
A265
100
AcDbScale
 70
     0
300
3/32" = 1'-0"
140
0.09375
141
12.0
290
     0
  0
SCALE
  5
A26C
102
{ACAD_REACTORS
330
A265
102
}
330
A265
100
AcDbScale
 70
     0
300
1/8" = 1'-0"
140
0.125
141
12.0
290
     0
  0
SCALE
  5
A26D
102
{ACAD_REACTORS
330
A265
102
}
330
A265
100
AcDbScale
 70
     0
300
3/16" = 1'-0"
140
0.1875
141
12.0
290
     0
  0
SCALE
  5
A26E
102
{ACAD_REACTORS
330
A265
102
}
330
A265
100
AcDbScale
 70
     0
300
1/4" = 1'-0"
140
0.25
141
12.0
290
     0
  0
SCALE
  5
A26F
102
{ACAD_REACTORS
330
A265
102
}
330
A265
100
AcDbScale
 70
     0
300
3/8" = 1'-0"
140
0.375
141
12.0
290
     0
  0
SCALE
  5
A270
102
{ACAD_REACTORS
330
A265
102
}
330
A265
100
AcDbScale
 70
     0
300
1/2" = 1'-0"
140
0.5
141
12.0
290
     0
  0
SCALE
  5
A271
102
{ACAD_REACTORS
330
A265
102
}
330
A265
100
AcDbScale
 70
     0
300
3/4" = 1'-0"
140
0.75
141
12.0
290
     0
  0
SCALE
  5
A272
102
{ACAD_REACTORS
330
A265
102
}
330
A265
100
AcDbScale
 70
     0
300
1" = 1'-0"
140
1.0
141
12.0
290
     0
  0
SCALE
  5
A273
102
{ACAD_REACTORS
330
A265
102
}
330
A265
100
AcDbScale
 70
     0
300
1-1/2" = 1'-0"
140
1.5
141
12.0
290
     0
  0
SCALE
  5
A274
102
{ACAD_REACTORS
330
A265
102
}
330
A265
100
AcDbScale
 70
     0
300
3" = 1'-0"
140
3.0
141
12.0
290
     0
  0
SCALE
  5
A275
102
{ACAD_REACTORS
330
A265
102
}
330
A265
100
AcDbScale
 70
     0
300
6" = 1'-0"
140
6.0
141
12.0
290
     0
  0
SCALE
  5
A276
102
{ACAD_REACTORS
330
A265
102
}
330
A265
100
AcDbScale
 70
     0
300
1'-0" = 1'-0"
140
12.0
141
12.0
290
     0
  0
ACDBSECTIONVIEWSTYLE
  5
A27A
102
{ACAD_XDICTIONARY
360
A2D5
102
}
102
{ACAD_REACTORS
330
A279
102
}
330
A279
100
AcDbModelDocViewStyle
 70
     0
  3
Imperial24
290
     0
100
AcDbSectionViewStyle
 70
     0
 71
     0
 90
       78
 71
     1
340
9E82
 40
0.24
340
0
340
0
 40
0.24
300
I, O, Q, S, X, Z
 40
0.48
 90
        3
 40
0.18
 90
        1
 71
     2
340
9E86
 90
       25
340
9E86
 90
       50
 40
0.24
 40
0.0
 40
0.24
 71
     3
340
9E82
 40
0.24
 90
        1
 40
0.75
 90
        1
300
%<\AcVar ViewType \f "%tc1">% %<\AcVar ViewSectionStartId>%-%<\AcVar ViewSectionEndId>%\PSCALE %<\AcVar ViewScale \f "%sn">%
 71
     4
300
ANSI31
 40
1.0
 90
        0
290
     0
290
     0
 90
        6
 40
0.0
 40
1.570796326794896
 40
0.2617993877991494
 40
1.308996938995747
 40
-0.2617993877991494
 40
1.832595714594046
  0
TABLESTYLE
  5
A264
102
{ACAD_XDICTIONARY
360
A29C
102
}
102
{ACAD_REACTORS
330
A263
102
}
330
A263
100
AcDbTableStyle
  3
Standard
 70
     0
 71
     0
 40
0.06
 41
0.06
280
     0
281
     0
  7
STANDARD
140
0.18
170
     2
 62
     0
 63
     7
283
     0
274
    -2
284
     1
 64
     0
275
    -2
285
     1
 65
     0
276
    -2
286
     1
 66
     0
277
    -2
287
     1
 67
     0
278
    -2
288
     1
 68
     0
279
    -2
289
     1
 69
     0
  7
STANDARD
140
0.25
170
     5
 62
     0
 63
     7
283
     0
274
    -2
284
     1
 64
     0
275
    -2
285
     1
 65
     0
276
    -2
286
     1
 66
     0
277
    -2
287
     1
 67
     0
278
    -2
288
     1
 68
     0
279
    -2
289
     1
 69
     0
  7
STANDARD
140
0.18
170
     5
 62
     0
 63
     7
283
     0
274
    -2
284
     1
 64
     0
275
    -2
285
     1
 65
     0
276
    -2
286
     1
 66
     0
277
    -2
287
     1
 67
     0
278
    -2
288
     1
 68
     0
279
    -2
289
     1
 69
     0
  0
VISUALSTYLE
  5
A24F
102
{ACAD_XDICTIONARY
360
A2AD
102
}
102
{ACAD_REACTORS
330
A249
102
}
330
A249
100
AcDbVisualStyle
  2
2dWireframe
 70
     4
 71
     0
 72
     2
 73
     0
 90
        0
 40
-0.6
 41
-30.0
 62
     5
 63
     7
 74
     1
 91
        4
 64
     7
 65
   257
 75
     1
175
     1
 42
1.0
 92
        0
 66
   257
 43
1.0
 76
     1
 77
     6
 78
     2
 67
     7
 79
     5
170
     0
171
     0
290
     0
174
     0
 93
        1
 44
0.0
173
     0
291
     0
 45
0.0
1001
ACAD
1000
AcDbSavedByObjectVersion
1070
     0
  0
VISUALSTYLE
  5
A24E
102
{ACAD_XDICTIONARY
360
A2AB
102
}
102
{ACAD_REACTORS
330
A249
102
}
330
A249
100
AcDbVisualStyle
  2
Basic
 70
     7
 71
     1
 72
     0
 73
     1
 90
        0
 40
-0.6
 41
-30.0
 62
     5
 63
     7
 74
     0
 91
        4
 64
     7
 65
   257
 75
     1
175
     1
 42
1.0
 92
        8
 66
     7
 43
1.0
 76
     1
 77
     6
 78
     2
 67
     7
 79
     5
170
     0
171
     0
290
     0
174
     0
 93
        1
 44
0.0
173
     0
291
     1
 45
0.0
1001
ACAD
1000
AcDbSavedByObjectVersion
1070
     0
  0
VISUALSTYLE
  5
A255
102
{ACAD_XDICTIONARY
360
A2B9
102
}
102
{ACAD_REACTORS
330
A249
102
}
330
A249
100
AcDbVisualStyle
  2
Brighten
 70
    12
 71
     2
 72
     2
 73
     0
 90
        0
 40
-0.6
 41
-30.0
 62
     5
 63
     7
 74
     1
 91
        4
 64
     7
 65
   257
 75
     1
175
     1
 42
1.0
 92
        8
 66
     7
 43
1.0
 76
     1
 77
     6
 78
     2
 67
     7
 79
     5
170
     0
171
     0
290
     0
174
     0
 93
        1
 44
50.0
173
     0
291
     1
 45
0.0
1001
ACAD
1000
AcDbSavedByObjectVersion
1070
     0
  0
VISUALSTYLE
  5
A259
102
{ACAD_XDICTIONARY
360
A2C1
102
}
102
{ACAD_REACTORS
330
A249
102
}
330
A249
100
AcDbVisualStyle
  2
ColorChange
 70
    16
 71
     2
 72
     2
 73
     3
 90
        0
 40
-0.6
 41
-30.0
 62
     5
 63
     8
 74
     1
 91
        4
 64
     7
 65
   257
 75
     1
175
     1
 42
1.0
 92
        8
 66
     8
 43
1.0
 76
     1
 77
     6
 78
     2
 67
     7
 79
     5
170
     0
171
     0
290
     0
174
     0
 93
        1
 44
0.0
173
     0
291
     1
 45
0.0
1001
ACAD
1000
AcDbSavedByObjectVersion
1070
     0
  0
VISUALSTYLE
  5
A252
102
{ACAD_XDICTIONARY
360
A2B3
102
}
102
{ACAD_REACTORS
330
A249
102
}
330
A249
100
AcDbVisualStyle
  2
Conceptual
 70
     9
 71
     3
 72
     2
 73
     0
 90
        0
 40
-0.6
 41
-30.0
 62
     5
 63
     7
 74
     2
 91
        2
 64
     7
 65
   257
 75
     1
175
     1
 42
179.0
 92
        8
 66
     7
 43
1.0
 76
     1
 77
     6
 78
     2
 67
     7
 79
     3
170
     0
171
     0
290
     0
174
     0
 93
        1
 44
0.0
173
     0
291
     0
 45
0.0
1001
ACAD
1000
AcDbSavedByObjectVersion
1070
     0
  0
VISUALSTYLE
  5
A254
102
{ACAD_XDICTIONARY
360
A2B7
102
}
102
{ACAD_REACTORS
330
A249
102
}
330
A249
100
AcDbVisualStyle
  2
Dim
 70
    11
 71
     2
 72
     2
 73
     0
 90
        0
 40
-0.6
 41
-30.0
 62
     5
 63
     7
 74
     1
 91
        4
 64
     7
 65
   257
 75
     1
175
     1
 42
1.0
 92
        8
 66
     7
 43
1.0
 76
     1
 77
     6
 78
     2
 67
     7
 79
     5
170
     0
171
     0
290
     0
174
     0
 93
        1
 44
-50.0
173
     0
291
     1
 45
0.0
1001
ACAD
1000
AcDbSavedByObjectVersion
1070
     0
  0
VISUALSTYLE
  5
A261
102
{ACAD_XDICTIONARY
360
A2D1
102
}
102
{ACAD_REACTORS
330
A249
102
}
330
A249
100
AcDbVisualStyle
  2
EdgeColorOff
 70
    22
 71
     2
 72
     2
 73
     0
 90
        0
 40
-0.6
 41
-30.0
 62
     5
 63
     7
 74
     1
 91
        4
 64
     7
 65
   257
 75
     1
175
     1
 42
1.0
 92
        8
 66
     7
 43
1.0
 76
     1
 77
     6
 78
     2
 67
     7
 79
     5
170
     0
171
     0
290
     0
174
     0
 93
        1
 44
0.0
173
     0
291
     1
 45
0.0
1001
ACAD
1000
AcDbSavedByObjectVersion
1070
     0
  0
VISUALSTYLE
  5
A258
102
{ACAD_XDICTIONARY
360
A2BF
102
}
102
{ACAD_REACTORS
330
A249
102
}
330
A249
100
AcDbVisualStyle
  2
Facepattern
 70
    15
 71
     2
 72
     2
 73
     0
 90
        0
 40
-0.6
 41
-30.0
 62
     5
 63
     7
 74
     1
 91
        4
 64
     7
 65
   257
 75
     1
175
     1
 42
1.0
 92
        8
 66
     7
 43
1.0
 76
     1
 77
     6
 78
     2
 67
     7
 79
     5
170
     0
171
     0
290
     0
174
     0
 93
        1
 44
0.0
173
     0
291
     1
 45
0.0
1001
ACAD
1000
AcDbSavedByObjectVersion
1070
     0
  0
VISUALSTYLE
  5
A24A
102
{ACAD_XDICTIONARY
360
A2A3
102
}
102
{ACAD_REACTORS
330
A249
102
}
330
A249
100
AcDbVisualStyle
  2
Flat
 70
     0
 71
     2
 72
     1
 73
     1
 90
        2
 40
-0.6
 41
30.0
 62
     5
 63
     7
 74
     0
 91
        0
 64
     7
 65
   257
 75
     1
175
     1
 42
1.0
 92
        8
 66
     7
 43
1.0
 76
     1
 77
     6
 78
     2
 67
     7
 79
     5
170
     0
171
     0
290
     0
174
     0
 93
       13
 44
0.0
173
     0
291
     1
 45
0.0
1001
ACAD
1000
AcDbSavedByObjectVersion
1070
     0
  0
VISUALSTYLE
  5
A24B
102
{ACAD_XDICTIONARY
360
A2A5
102
}
102
{ACAD_REACTORS
330
A249
102
}
330
A249
100
AcDbVisualStyle
  2
FlatWithEdges
 70
     1
 71
     2
 72
     1
 73
     1
 90
        2
 40
-0.6
 41
30.0
 62
     5
 63
     7
 74
     1
 91
        0
 64
     7
 65
   257
 75
     1
175
     1
 42
1.0
 92
        0
 66
   257
 43
1.0
 76
     1
 77
     6
 78
     2
 67
     7
 79
     5
170
     0
171
     0
290
     0
174
     0
 93
       13
 44
0.0
173
     0
291
     1
 45
0.0
1001
ACAD
1000
AcDbSavedByObjectVersion
1070
     0
  0
VISUALSTYLE
  5
A24C
102
{ACAD_XDICTIONARY
360
A2A7
102
}
102
{ACAD_REACTORS
330
A249
102
}
330
A249
100
AcDbVisualStyle
  2
Gouraud
 70
     2
 71
     2
 72
     2
 73
     1
 90
        2
 40
-0.6
 41
30.0
 62
     5
 63
     7
 74
     0
 91
        0
 64
     7
 65
   257
 75
     1
175
     1
 42
1.0
 92
        0
 66
     7
 43
1.0
 76
     1
 77
     6
 78
     2
 67
     7
 79
     5
170
     0
171
     0
290
     0
174
     0
 93
       13
 44
0.0
173
     0
291
     1
 45
0.0
1001
ACAD
1000
AcDbSavedByObjectVersion
1070
     0
  0
VISUALSTYLE
  5
A24D
102
{ACAD_XDICTIONARY
360
A2A9
102
}
102
{ACAD_REACTORS
330
A249
102
}
330
A249
100
AcDbVisualStyle
  2
GouraudWithEdges
 70
     3
 71
     2
 72
     2
 73
     1
 90
        2
 40
-0.6
 41
30.0
 62
     5
 63
     7
 74
     1
 91
        0
 64
     7
 65
   257
 75
     1
175
     1
 42
1.0
 92
        0
 66
   257
 43
1.0
 76
     1
 77
     6
 78
     2
 67
     7
 79
     5
170
     0
171
     0
290
     0
174
     0
 93
       13
 44
0.0
173
     0
291
     1
 45
0.0
1001
ACAD
1000
AcDbSavedByObjectVersion
1070
     0
  0
VISUALSTYLE
  5
A251
102
{ACAD_XDICTIONARY
360
A2B1
102
}
102
{ACAD_REACTORS
330
A249
102
}
330
A249
100
AcDbVisualStyle
  2
Hidden
 70
     6
 71
     1
 72
     2
 73
     2
 90
        0
 40
-0.6
 41
-30.0
 62
     5
 63
     7
 74
     2
 91
        2
 64
     7
 65
   257
 75
     2
175
     1
 42
40.0
 92
        0
 66
   257
 43
1.0
 76
     1
 77
     6
 78
     2
 67
     7
 79
     3
170
     0
171
     0
290
     0
174
     0
 93
        1
 44
0.0
173
     0
291
     0
 45
0.0
1001
ACAD
1000
AcDbSavedByObjectVersion
1070
     0
  0
VISUALSTYLE
  5
A25F
102
{ACAD_XDICTIONARY
360
A2CD
102
}
102
{ACAD_REACTORS
330
A249
102
}
330
A249
100
AcDbVisualStyle
  2
JitterOff
 70
    20
 71
     2
 72
     2
 73
     0
 90
        0
 40
-0.6
 41
-30.0
 62
     5
 63
     7
 74
     1
 91
        4
 64
     7
 65
   257
 75
     1
175
     1
 42
1.0
 92
       10
 66
     7
 43
1.0
 76
     1
 77
     6
 78
     2
 67
     7
 79
     5
170
     0
171
     0
290
     0
174
     0
 93
        1
 44
0.0
173
     0
291
     1
 45
0.0
1001
ACAD
1000
AcDbSavedByObjectVersion
1070
     0
  0
VISUALSTYLE
  5
A257
102
{ACAD_XDICTIONARY
360
A2BD
102
}
102
{ACAD_REACTORS
330
A249
102
}
330
A249
100
AcDbVisualStyle
  2
Linepattern
 70
    14
 71
     2
 72
     2
 73
     0
 90
        0
 40
-0.6
 41
-30.0
 62
     5
 63
     7
 74
     1
 91
        4
 64
     7
 65
   257
 75
     7
175
     7
 42
1.0
 92
        8
 66
     7
 43
1.0
 76
     1
 77
     6
 78
     2
 67
     7
 79
     5
170
     0
171
     0
290
     0
174
     0
 93
        1
 44
0.0
173
     0
291
     1
 45
0.0
1001
ACAD
1000
AcDbSavedByObjectVersion
1070
     0
  0
VISUALSTYLE
  5
A260
102
{ACAD_XDICTIONARY
360
A2CF
102
}
102
{ACAD_REACTORS
330
A249
102
}
330
A249
100
AcDbVisualStyle
  2
OverhangOff
 70
    21
 71
     2
 72
     2
 73
     0
 90
        0
 40
-0.6
 41
-30.0
 62
     5
 63
     7
 74
     1
 91
        4
 64
     7
 65
   257
 75
     1
175
     1
 42
1.0
 92
        9
 66
     7
 43
1.0
 76
     1
 77
     6
 78
     2
 67
     7
 79
     5
170
     0
171
     0
290
     0
174
     0
 93
        1
 44
0.0
173
     0
291
     1
 45
0.0
1001
ACAD
1000
AcDbSavedByObjectVersion
1070
     0
  0
VISUALSTYLE
  5
A253
102
{ACAD_XDICTIONARY
360
A2B5
102
}
102
{ACAD_REACTORS
330
A249
102
}
330
A249
100
AcDbVisualStyle
  2
Realistic
 70
     8
 71
     2
 72
     3
 73
     0
 90
        2
 40
-0.6
 41
30.0
 62
     5
 63
     7
 74
     0
 91
        0
 64
     7
 65
   257
 75
     1
175
     1
 42
1.0
 92
        8
 66
   257
 43
1.0
 76
     1
 77
     6
 78
     2
 67
     7
 79
     3
170
     0
171
     0
290
     0
174
     0
 93
       13
 44
0.0
173
     0
291
     0
 45
0.0
1001
ACAD
1000
AcDbSavedByObjectVersion
1070
     0
  0
VISUALSTYLE
  5
A25E
102
{ACAD_XDICTIONARY
360
A2CB
102
}
102
{ACAD_REACTORS
330
A249
102
}
330
A249
100
AcDbVisualStyle
  2
Shaded
 70
    27
 71
     2
 72
     2
 73
     1
 90
        2
 40
-0.6
 41
30.0
 62
     5
 63
     7
 74
     0
 91
        4
 64
     7
 65
   257
 75
     1
175
     1
 42
1.0
 92
        8
 66
   257
 43
1.0
 76
     1
 77
     6
 78
     2
 67
     8
 79
     3
170
     0
171
     0
290
     0
174
     0
 93
        5
 44
0.0
173
     0
291
     0
 45
0.0
1001
ACAD
1000
AcDbSavedByObjectVersion
1070
     0
  0
VISUALSTYLE
  5
A25D
102
{ACAD_XDICTIONARY
360
A2C9
102
}
102
{ACAD_REACTORS
330
A249
102
}
330
A249
100
AcDbVisualStyle
  2
Shaded with edges
 70
    26
 71
     2
 72
     2
 73
     1
 90
        2
 40
-0.6
 41
30.0
 62
     5
 63
     7
 74
     1
 91
       10
 64
     7
 65
   257
 75
     2
175
     1
 42
1.0
 92
        8
 66
   257
 43
1.0
 76
     1
 77
     6
 78
     2
 67
     7
 79
     3
170
     0
171
     0
290
     0
174
     0
 93
        5
 44
0.0
173
     0
291
     0
 45
0.0
1001
ACAD
1000
AcDbSavedByObjectVersion
1070
     0
  0
VISUALSTYLE
  5
A25A
102
{ACAD_XDICTIONARY
360
A2C3
102
}
102
{ACAD_REACTORS
330
A249
102
}
330
A249
100
AcDbVisualStyle
  2
Shades of Gray
 70
    23
 71
     2
 72
     2
 73
     3
 90
        0
 40
-0.6
 41
-30.0
 62
     5
 63
     7
 74
     2
 91
        2
 64
     7
 65
     7
 75
     1
175
     1
 42
40.0
 92
        8
 66
     7
 43
1.0
 76
     1
 77
     6
 78
     2
 67
     7
 79
     3
170
     0
171
     0
290
     0
174
     0
 93
        1
 44
0.0
173
     0
291
     0
 45
0.0
1001
ACAD
1000
AcDbSavedByObjectVersion
1070
     0
  0
VISUALSTYLE
  5
A25B
102
{ACAD_XDICTIONARY
360
A2C5
102
}
102
{ACAD_REACTORS
330
A249
102
}
330
A249
100
AcDbVisualStyle
  2
Sketchy
 70
    24
 71
     1
 72
     2
 73
     2
 90
        0
 40
-0.6
 41
-30.0
 62
     5
 63
     7
 74
     2
 91
        2
 64
     7
 65
     7
 75
     1
175
     1
 42
40.0
 92
       11
 66
     7
 43
1.0
 76
     1
 77
     6
 78
     2
 67
     7
 79
     6
170
     0
171
     0
290
     0
174
     0
 93
        1
 44
0.0
173
     0
291
     0
 45
0.0
1001
ACAD
1000
AcDbSavedByObjectVersion
1070
     0
  0
VISUALSTYLE
  5
A256
102
{ACAD_XDICTIONARY
360
A2BB
102
}
102
{ACAD_REACTORS
330
A249
102
}
330
A249
100
AcDbVisualStyle
  2
Thicken
 70
    13
 71
     2
 72
     2
 73
     0
 90
        0
 40
-0.6
 41
-30.0
 62
     5
 63
     7
 74
     1
 91
        4
 64
     7
 65
   257
 75
     1
175
     1
 42
1.0
 92
       12
 66
     7
 43
1.0
 76
     1
 77
     6
 78
     2
 67
     7
 79
     5
170
     0
171
     0
290
     0
174
     0
 93
        1
 44
0.0
173
     0
291
     1
 45
0.0
1001
ACAD
1000
AcDbSavedByObjectVersion
1070
     0
  0
VISUALSTYLE
  5
A250
102
{ACAD_XDICTIONARY
360
A2AF
102
}
102
{ACAD_REACTORS
330
A249
102
}
330
A249
100
AcDbVisualStyle
  2
Wireframe
 70
     5
 71
     0
 72
     2
 73
     0
 90
        0
 40
-0.6
 41
-30.0
 62
     5
 63
     7
 74
     1
 91
        4
 64
     7
 65
   257
 75
     1
175
     1
 42
1.0
 92
        0
 66
   257
 43
1.0
 76
     1
 77
     6
 78
     2
 67
     7
 79
     3
170
     0
171
     0
290
     0
174
     0
 93
        1
 44
0.0
173
     0
291
     0
 45
0.0
1001
ACAD
1000
AcDbSavedByObjectVersion
1070
     0
  0
VISUALSTYLE
  5
A25C
102
{ACAD_XDICTIONARY
360
A2C7
102
}
102
{ACAD_REACTORS
330
A249
102
}
330
A249
100
AcDbVisualStyle
  2
X-Ray
 70
    25
 71
     2
 72
     2
 73
     1
 90
        1
 40
0.5
 41
-30.0
 62
     5
 63
     7
 74
     1
 91
        0
 64
     7
 65
   257
 75
     1
175
     1
 42
1.0
 92
        8
 66
     7
 43
1.0
 76
     1
 77
     6
 78
     2
 67
     7
 79
     3
170
     0
171
     0
290
     0
174
     0
 93
       13
 44
0.0
173
     0
291
     0
 45
0.0
1001
ACAD
1000
AcDbSavedByObjectVersion
1070
     0
  0
DICTIONARYVAR
  5
A296
102
{ACAD_REACTORS
330
A291
102
}
330
A291
100
DictionaryVariables
280
     0
  1
1:1
  0
DICTIONARYVAR
  5
A293
102
{ACAD_REACTORS
330
A291
102
}
330
A291
100
DictionaryVariables
280
     0
  1
STANDARD
  0
DICTIONARYVAR
  5
A292
102
{ACAD_REACTORS
330
A291
102
}
330
A291
100
DictionaryVariables
280
     0
  1
STANDARD
  0
DICTIONARYVAR
  5
A294
102
{ACAD_REACTORS
330
A291
102
}
330
A291
100
DictionaryVariables
280
     0
  1
Imperial24
  0
DICTIONARYVAR
  5
A295
102
{ACAD_REACTORS
330
A291
102
}
330
A291
100
DictionaryVariables
280
     0
  1
Imperial24
  0
DICTIONARYVAR
  5
A299
102
{ACAD_REACTORS
330
A291
102
}
330
A291
100
DictionaryVariables
280
     0
  1
1
  0
DICTIONARYVAR
  5
A298
102
{ACAD_REACTORS
330
A291
102
}
330
A291
100
DictionaryVariables
280
     0
  1
0
  0
DICTIONARYVAR
  5
A297
102
{ACAD_REACTORS
330
A291
102
}
330
A291
100
DictionaryVariables
280
     0
  1
127
  0
DICTIONARYVAR
  5
A29A
102
{ACAD_REACTORS
330
A291
102
}
330
A291
100
DictionaryVariables
280
     0
  1
2
  0
DICTIONARY
  5
A2D7
330
A27C
100
AcDbDictionary
280
     1
281
     1
  3
ACAD_XREC_ROUNDTRIP
360
A2D8
  0
DICTIONARY
  5
A2D9
330
A27D
100
AcDbDictionary
280
     1
281
     1
  3
ACAD_XREC_ROUNDTRIP
360
A2DA
  0
DICTIONARY
  5
A2DB
330
A27E
100
AcDbDictionary
280
     1
281
     1
  3
ACAD_XREC_ROUNDTRIP
360
A2DC
  0
DICTIONARY
  5
A23A
330
A239
100
AcDbDictionary
280
     1
281
     1
  3
ACAD_XREC_ROUNDTRIP
360
A2A1
  3
BUMPTILE
360
A23C
  3
DIFFUSETILE
360
A23B
  3
OPACITYTILE
360
A23F
  3
REFLECTIONTILE
360
A23E
  3
REFRACTIONTILE
360
A240
  3
SPECULARTILE
360
A23D
  0
DICTIONARY
  5
A232
330
A231
100
AcDbDictionary
280
     1
281
     1
  3
ACAD_XREC_ROUNDTRIP
360
A2A0
  3
BUMPTILE
360
A234
  3
DIFFUSETILE
360
A233
  3
OPACITYTILE
360
A237
  3
REFLECTIONTILE
360
A236
  3
REFRACTIONTILE
360
A238
  3
SPECULARTILE
360
A235
  0
DICTIONARY
  5
A242
330
A241
100
AcDbDictionary
280
     1
281
     1
  3
ACAD_XREC_ROUNDTRIP
360
A2A2
  3
BUMPTILE
360
A244
  3
DIFFUSETILE
360
A243
  3
OPACITYTILE
360
A247
  3
REFLECTIONTILE
360
A246
  3
REFRACTIONTILE
360
A248
  3
SPECULARTILE
360
A245
  0
DICTIONARY
  5
A2D5
330
A27A
100
AcDbDictionary
280
     1
281
     1
  3
ACAD_XREC_ROUNDTRIP
360
A2D6
  0
DICTIONARY
  5
A29C
330
A264
100
AcDbDictionary
280
     1
281
     1
  3
ACAD_ROUNDTRIP_2008_TABLESTYLE_CELLSTYLEMAP
360
A29D
  3
ACAD_XREC_ROUNDTRIP
360
A2D3
  0
DICTIONARY
  5
A2AD
330
A24F
100
AcDbDictionary
280
     1
281
     1
  3
ACAD_XREC_ROUNDTRIP
360
A2AE
  0
DICTIONARY
  5
A2AB
330
A24E
100
AcDbDictionary
280
     1
281
     1
  3
ACAD_XREC_ROUNDTRIP
360
A2AC
  0
DICTIONARY
  5
A2B9
330
A255
100
AcDbDictionary
280
     1
281
     1
  3
ACAD_XREC_ROUNDTRIP
360
A2BA
  0
DICTIONARY
  5
A2C1
330
A259
100
AcDbDictionary
280
     1
281
     1
  3
ACAD_XREC_ROUNDTRIP
360
A2C2
  0
DICTIONARY
  5
A2B3
330
A252
100
AcDbDictionary
280
     1
281
     1
  3
ACAD_XREC_ROUNDTRIP
360
A2B4
  0
DICTIONARY
  5
A2B7
330
A254
100
AcDbDictionary
280
     1
281
     1
  3
ACAD_XREC_ROUNDTRIP
360
A2B8
  0
DICTIONARY
  5
A2D1
330
A261
100
AcDbDictionary
280
     1
281
     1
  3
ACAD_XREC_ROUNDTRIP
360
A2D2
  0
DICTIONARY
  5
A2BF
330
A258
100
AcDbDictionary
280
     1
281
     1
  3
ACAD_XREC_ROUNDTRIP
360
A2C0
  0
DICTIONARY
  5
A2A3
330
A24A
100
AcDbDictionary
280
     1
281
     1
  3
ACAD_XREC_ROUNDTRIP
360
A2A4
  0
DICTIONARY
  5
A2A5
330
A24B
100
AcDbDictionary
280
     1
281
     1
  3
ACAD_XREC_ROUNDTRIP
360
A2A6
  0
DICTIONARY
  5
A2A7
330
A24C
100
AcDbDictionary
280
     1
281
     1
  3
ACAD_XREC_ROUNDTRIP
360
A2A8
  0
DICTIONARY
  5
A2A9
330
A24D
100
AcDbDictionary
280
     1
281
     1
  3
ACAD_XREC_ROUNDTRIP
360
A2AA
  0
DICTIONARY
  5
A2B1
330
A251
100
AcDbDictionary
280
     1
281
     1
  3
ACAD_XREC_ROUNDTRIP
360
A2B2
  0
DICTIONARY
  5
A2CD
330
A25F
100
AcDbDictionary
280
     1
281
     1
  3
ACAD_XREC_ROUNDTRIP
360
A2CE
  0
DICTIONARY
  5
A2BD
330
A257
100
AcDbDictionary
280
     1
281
     1
  3
ACAD_XREC_ROUNDTRIP
360
A2BE
  0
DICTIONARY
  5
A2CF
330
A260
100
AcDbDictionary
280
     1
281
     1
  3
ACAD_XREC_ROUNDTRIP
360
A2D0
  0
DICTIONARY
  5
A2B5
330
A253
100
AcDbDictionary
280
     1
281
     1
  3
ACAD_XREC_ROUNDTRIP
360
A2B6
  0
DICTIONARY
  5
A2CB
330
A25E
100
AcDbDictionary
280
     1
281
     1
  3
ACAD_XREC_ROUNDTRIP
360
A2CC
  0
DICTIONARY
  5
A2C9
330
A25D
100
AcDbDictionary
280
     1
281
     1
  3
ACAD_XREC_ROUNDTRIP
360
A2CA
  0
DICTIONARY
  5
A2C3
330
A25A
100
AcDbDictionary
280
     1
281
     1
  3
ACAD_XREC_ROUNDTRIP
360
A2C4
  0
DICTIONARY
  5
A2C5
330
A25B
100
AcDbDictionary
280
     1
281
     1
  3
ACAD_XREC_ROUNDTRIP
360
A2C6
  0
DICTIONARY
  5
A2BB
330
A256
100
AcDbDictionary
280
     1
281
     1
  3
ACAD_XREC_ROUNDTRIP
360
A2BC
  0
DICTIONARY
  5
A2AF
330
A250
100
AcDbDictionary
280
     1
281
     1
  3
ACAD_XREC_ROUNDTRIP
360
A2B0
  0
DICTIONARY
  5
A2C7
330
A25C
100
AcDbDictionary
280
     1
281
     1
  3
ACAD_XREC_ROUNDTRIP
360
A2C8
  0
XRECORD
  5
A2D8
102
{ACAD_REACTORS
330
A2D7
102
}
330
A2D7
100
AcDbXrecord
280
     1
102
DISPLAYNAME
  1
Imperial24
102
FLAGS
 90
        0
  0
XRECORD
  5
A2DA
102
{ACAD_REACTORS
330
A2D9
102
}
330
A2D9
100
AcDbXrecord
280
     1
102
SHADEPLOT
 70
     0
102
SHADEPLOTRESLEVEL
 70
     2
102
SHADEPLOTCUSTOMDPI
 70
   300
  0
XRECORD
  5
A2DC
102
{ACAD_REACTORS
330
A2DB
102
}
330
A2DB
100
AcDbXrecord
280
     1
102
SHADEPLOT
 70
     0
102
SHADEPLOTRESLEVEL
 70
     2
102
SHADEPLOTCUSTOMDPI
 70
   300
  0
XRECORD
  5
A2A1
102
{ACAD_REACTORS
330
A23A
102
}
330
A23A
100
AcDbXrecord
280
     1
102
MATERIAL
148
0.0
149
0.0
149
0.0
 93
        0
 94
      127
282
     0
 72
     0
 77
     0
171
     0
175
     0
179
     0
273
     0
  0
XRECORD
  5
A23C
102
{ACAD_REACTORS
330
A23A
102
}
330
A23A
100
AcDbXrecord
280
     1
270
     1
271
     1
  0
XRECORD
  5
A23B
102
{ACAD_REACTORS
330
A23A
102
}
330
A23A
100
AcDbXrecord
280
     1
270
     1
271
     1
  0
XRECORD
  5
A23F
102
{ACAD_REACTORS
330
A23A
102
}
330
A23A
100
AcDbXrecord
280
     1
270
     1
271
     1
  0
XRECORD
  5
A23E
102
{ACAD_REACTORS
330
A23A
102
}
330
A23A
100
AcDbXrecord
280
     1
270
     1
271
     1
  0
XRECORD
  5
A240
102
{ACAD_REACTORS
330
A23A
102
}
330
A23A
100
AcDbXrecord
280
     1
270
     1
271
     1
  0
XRECORD
  5
A23D
102
{ACAD_REACTORS
330
A23A
102
}
330
A23A
100
AcDbXrecord
280
     1
270
     1
271
     1
  0
XRECORD
  5
A2A0
102
{ACAD_REACTORS
330
A232
102
}
330
A232
100
AcDbXrecord
280
     1
102
MATERIAL
148
0.0
149
0.0
149
0.0
 93
        0
 94
      127
282
     0
 72
     0
 77
     0
171
     0
175
     0
179
     0
273
     0
  0
XRECORD
  5
A234
102
{ACAD_REACTORS
330
A232
102
}
330
A232
100
AcDbXrecord
280
     1
270
     1
271
     1
  0
XRECORD
  5
A233
102
{ACAD_REACTORS
330
A232
102
}
330
A232
100
AcDbXrecord
280
     1
270
     1
271
     1
  0
XRECORD
  5
A237
102
{ACAD_REACTORS
330
A232
102
}
330
A232
100
AcDbXrecord
280
     1
270
     1
271
     1
  0
XRECORD
  5
A236
102
{ACAD_REACTORS
330
A232
102
}
330
A232
100
AcDbXrecord
280
     1
270
     1
271
     1
  0
XRECORD
  5
A238
102
{ACAD_REACTORS
330
A232
102
}
330
A232
100
AcDbXrecord
280
     1
270
     1
271
     1
  0
XRECORD
  5
A235
102
{ACAD_REACTORS
330
A232
102
}
330
A232
100
AcDbXrecord
280
     1
270
     1
271
     1
  0
XRECORD
  5
A2A2
102
{ACAD_REACTORS
330
A242
102
}
330
A242
100
AcDbXrecord
280
     1
102
MATERIAL
148
0.0
149
0.0
149
0.0
 93
        0
 94
      127
282
     0
 72
     0
 77
     0
171
     0
175
     0
179
     0
273
     0
  0
XRECORD
  5
A244
102
{ACAD_REACTORS
330
A242
102
}
330
A242
100
AcDbXrecord
280
     1
270
     1
271
     1
  0
XRECORD
  5
A243
102
{ACAD_REACTORS
330
A242
102
}
330
A242
100
AcDbXrecord
280
     1
270
     1
271
     1
  0
XRECORD
  5
A247
102
{ACAD_REACTORS
330
A242
102
}
330
A242
100
AcDbXrecord
280
     1
270
     1
271
     1
  0
XRECORD
  5
A246
102
{ACAD_REACTORS
330
A242
102
}
330
A242
100
AcDbXrecord
280
     1
270
     1
271
     1
  0
XRECORD
  5
A248
102
{ACAD_REACTORS
330
A242
102
}
330
A242
100
AcDbXrecord
280
     1
270
     1
271
     1
  0
XRECORD
  5
A245
102
{ACAD_REACTORS
330
A242
102
}
330
A242
100
AcDbXrecord
280
     1
270
     1
271
     1
  0
XRECORD
  5
A2D6
102
{ACAD_REACTORS
330
A2D5
102
}
330
A2D5
100
AcDbXrecord
280
     1
102
DISPLAYNAME
  1
Imperial24
102
FLAGS
 90
        0
  0
CELLSTYLEMAP
  5
A29D
102
{ACAD_REACTORS
330
A29C
102
}
330
A29C
100
AcDbCellStyleMap
 90
        3
300
CELLSTYLE
  1
TABLEFORMAT_BEGIN
 90
        5
170
     1
 91
        0
 92
    32768
 62
   257
 93
        1
300
CONTENTFORMAT
  1
CONTENTFORMAT_BEGIN
 90
        0
 91
        0
 92
      512
 93
        0
300

 40
0.0
140
1.0
 94
        5
 62
     0
340
9E82
144
0.25
309
CONTENTFORMAT_END
171
     0
 94
        0
309
TABLEFORMAT_END
  1
CELLSTYLE_BEGIN
 90
        1
 91
        1
300
_TITLE
309
CELLSTYLE_END
300
CELLSTYLE
  1
TABLEFORMAT_BEGIN
 90
        5
170
     1
 91
        0
 92
        0
 62
   257
 93
        1
300
CONTENTFORMAT
  1
CONTENTFORMAT_BEGIN
 90
        0
 91
        0
 92
      512
 93
        0
300

 40
0.0
140
1.0
 94
        5
 62
     0
340
9E82
144
0.18
309
CONTENTFORMAT_END
171
     0
 94
        0
309
TABLEFORMAT_END
  1
CELLSTYLE_BEGIN
 90
        2
 91
        1
300
_HEADER
309
CELLSTYLE_END
300
CELLSTYLE
  1
TABLEFORMAT_BEGIN
 90
        5
170
     1
 91
        0
 92
        0
 62
   257
 93
        1
300
CONTENTFORMAT
  1
CONTENTFORMAT_BEGIN
 90
        0
 91
        0
 92
      512
 93
        0
300

 40
0.0
140
1.0
 94
        2
 62
     0
340
9E82
144
0.18
309
CONTENTFORMAT_END
171
     0
 94
        0
309
TABLEFORMAT_END
  1
CELLSTYLE_BEGIN
 90
        3
 91
        2
300
_DATA
309
CELLSTYLE_END
  0
XRECORD
  5
A2D3
102
{ACAD_REACTORS
330
A29C
102
}
330
A29C
100
AcDbXrecord
280
     1
102
ACAD_ROUNDTRIP_PRE2007_TABLESTYLE
 90
      512
 91
        0
  1

 92
      512
 93
        0
  2

 94
      512
 95
        0
  3

  0
XRECORD
  5
A2AE
102
{ACAD_REACTORS
330
A2AD
102
}
330
A2AD
100
AcDbXrecord
280
     1
102
RTVSPost2010Prop28
280
     1
102
RTVSPost2010PropOp28
 70
     1
102
RTVSPost2010Prop29
280
     1
102
RTVSPost2010PropOp29
 70
     1
102
RTVSPost2010Prop30
280
     0
102
RTVSPost2010PropOp30
 70
     1
102
RTVSPost2010Prop31
280
     0
102
RTVSPost2010PropOp31
 70
     1
102
RTVSPost2010Prop32
280
     0
102
RTVSPost2010PropOp32
 70
     1
102
RTVSPost2010Prop33
280
     0
102
RTVSPost2010PropOp33
 70
     1
102
RTVSPost2010Prop34
280
     0
102
RTVSPost2010PropOp34
 70
     1
102
RTVSPost2010Prop35
280
     0
102
RTVSPost2010PropOp35
 70
     1
102
RTVSPost2010Prop36
280
     0
102
RTVSPost2010PropOp36
 70
     1
102
RTVSPost2010Prop37
 90
       50
102
RTVSPost2010PropOp37
 70
     1
102
RTVSPost2010Prop38
140
0.0
102
RTVSPost2010PropOp38
 70
     1
102
RTVSPost2010Prop39
140
1.0
102
RTVSPost2010PropOp39
 70
     1
102
RTVSPost2010Prop40
 90
        0
102
RTVSPost2010PropOp40
 70
     1
102
RTVSPost2010Prop41ColorIndex
 90
       18
102
RTVSPost2010Prop41ColorRGB
 90
        0
102
RTVSPost2010PropOp41
 70
     1
102
RTVSPost2010Prop42
 90
       50
102
RTVSPost2010PropOp42
 70
     1
102
RTVSPost2010Prop43
 90
        3
102
RTVSPost2010PropOp43
 70
     1
102
RTVSPost2010Prop44ColorIndex
 90
        5
102
RTVSPost2010Prop44ColorRGB
 90
      255
102
RTVSPost2010PropOp44
 70
     1
102
RTVSPost2010Prop45
280
     0
102
RTVSPost2010PropOp45
 70
     1
102
RTVSPost2010Prop46
 90
       50
102
RTVSPost2010PropOp46
 70
     1
102
RTVSPost2010Prop47
 90
       50
102
RTVSPost2010PropOp47
 70
     1
102
RTVSPost2010Prop48
 90
       50
102
RTVSPost2010PropOp48
 70
     1
102
RTVSPost2010Prop49
280
     0
102
RTVSPost2010PropOp49
 70
     1
102
RTVSPost2010Prop50
 90
       50
102
RTVSPost2010PropOp50
 70
     1
102
RTVSPost2010Prop51ColorIndex
 90
      256
102
RTVSPost2010Prop51ColorRGB
 90
-16777216
102
RTVSPost2010PropOp51
 70
     0
102
RTVSPost2010Prop52
140
1.0
102
RTVSPost2010PropOp52
 70
     0
102
RTVSPost2010Prop53
 90
        2
102
RTVSPost2010PropOp53
 70
     1
102
RTVSPost2010Prop54
  1
strokes_ogs.tif
102
RTVSPost2010PropOp54
 70
     1
102
RTVSPost2010Prop55
280
     0
102
RTVSPost2010PropOp55
 70
     1
102
RTVSPost2010Prop56
140
1.0
102
RTVSPost2010PropOp56
 70
     1
102
RTVSPost2010Prop57
140
1.0
102
RTVSPost2010PropOp57
 70
     1
102
RTVSPropertyOp0
 70
     1
102
RTVSPropertyOp1
 70
     1
102
RTVSPropertyOp2
 70
     1
102
RTVSPropertyOp3
 70
     1
102
RTVSPropertyOp4
 70
     1
102
RTVSPropertyOp5
 70
     1
102
RTVSPropertyOp6
 70
     1
102
RTVSPropertyOp7
 70
     1
102
RTVSPropertyOp8
 70
     1
102
RTVSPropertyOp9
 70
     1
102
RTVSPropertyOp10
 70
     1
102
RTVSPropertyOp11
 70
     1
102
RTVSPropertyOp12
 70
     1
102
RTVSPropertyOp13
 70
     1
102
RTVSPropertyOp14
 70
     1
102
RTVSPropertyOp15
 70
     1
102
RTVSPropertyOp16
 70
     1
102
RTVSPropertyOp17
 70
     1
102
RTVSPropertyOp18
 70
     1
102
RTVSPropertyOp19
 70
     1
102
RTVSPropertyOp20
 70
     1
102
RTVSPropertyOp21
 70
     1
102
RTVSPropertyOp22
 70
     1
102
RTVSPropertyOp23
 70
     1
102
RTVSPropertyOp24
 70
     1
102
RTVSPropertyOp25
 70
     1
102
RTVSPropertyOp26
 70
     1
102
RTVSPropertyOp27
 70
     1
102
RTVSPropertyOp28
 70
     1
102
RTVSPropertyOp29
 70
     1
102
RTVSPropertyOp30
 70
     1
102
RTVSPropertyOp31
 70
     1
102
RTVSPropertyOp32
 70
     1
102
RTVSPropertyOp33
 70
     1
102
RTVSPropertyOp34
 70
     1
102
RTVSPropertyOp35
 70
     1
102
RTVSPropertyOp36
 70
     1
102
RTVSPropertyOp37
 70
     1
102
RTVSPropertyOp38
 70
     1
102
RTVSPropertyOp39
 70
     1
102
RTVSPropertyOp40
 70
     1
102
RTVSPropertyOp41
 70
     1
102
RTVSPropertyOp42
 70
     1
102
RTVSPropertyOp43
 70
     1
102
RTVSPropertyOp44
 70
     1
102
RTVSPropertyOp45
 70
     1
102
RTVSPropertyOp46
 70
     1
102
RTVSPropertyOp47
 70
     1
102
RTVSPropertyOp48
 70
     1
102
RTVSPropertyOp49
 70
     1
102
RTVSPropertyOp50
 70
     1
102
RTVSPropertyOp51
 70
     0
102
RTVSPropertyOp52
 70
     0
102
RTVSPropertyOp53
 70
     1
102
RTVSPropertyOp54
 70
     1
102
RTVSPropertyOp55
 70
     1
102
RTVSPropertyOp56
 70
     1
102
RTVSPropertyOp57
 70
     1
102
RTVSPropertyOp58
 70
     1
102
RTVSPropertyOp59
 70
     1
102
RTVSPropertyOp60
 70
     1
102
RTVSPropertyOp61
 70
     1
102
RTVSPropertyOp62
 70
     1
  0
XRECORD
  5
A2AC
102
{ACAD_REACTORS
330
A2AB
102
}
330
A2AB
100
AcDbXrecord
280
     1
102
RTVSPost2010Prop28
280
     0
102
RTVSPost2010PropOp28
 70
     1
102
RTVSPost2010Prop29
280
     1
102
RTVSPost2010PropOp29
 70
     1
102
RTVSPost2010Prop30
280
     1
102
RTVSPost2010PropOp30
 70
     1
102
RTVSPost2010Prop31
280
     0
102
RTVSPost2010PropOp31
 70
     1
102
RTVSPost2010Prop32
280
     0
102
RTVSPost2010PropOp32
 70
     1
102
RTVSPost2010Prop33
280
     0
102
RTVSPost2010PropOp33
 70
     1
102
RTVSPost2010Prop34
280
     0
102
RTVSPost2010PropOp34
 70
     1
102
RTVSPost2010Prop35
280
     0
102
RTVSPost2010PropOp35
 70
     1
102
RTVSPost2010Prop36
280
     0
102
RTVSPost2010PropOp36
 70
     1
102
RTVSPost2010Prop37
 90
       50
102
RTVSPost2010PropOp37
 70
     1
102
RTVSPost2010Prop38
140
0.0
102
RTVSPost2010PropOp38
 70
     1
102
RTVSPost2010Prop39
140
1.0
102
RTVSPost2010PropOp39
 70
     1
102
RTVSPost2010Prop40
 90
        0
102
RTVSPost2010PropOp40
 70
     1
102
RTVSPost2010Prop41ColorIndex
 90
       18
102
RTVSPost2010Prop41ColorRGB
 90
        0
102
RTVSPost2010PropOp41
 70
     1
102
RTVSPost2010Prop42
 90
       50
102
RTVSPost2010PropOp42
 70
     1
102
RTVSPost2010Prop43
 90
        3
102
RTVSPost2010PropOp43
 70
     1
102
RTVSPost2010Prop44ColorIndex
 90
        5
102
RTVSPost2010Prop44ColorRGB
 90
      255
102
RTVSPost2010PropOp44
 70
     1
102
RTVSPost2010Prop45
280
     0
102
RTVSPost2010PropOp45
 70
     1
102
RTVSPost2010Prop46
 90
       50
102
RTVSPost2010PropOp46
 70
     1
102
RTVSPost2010Prop47
 90
       50
102
RTVSPost2010PropOp47
 70
     1
102
RTVSPost2010Prop48
 90
       50
102
RTVSPost2010PropOp48
 70
     1
102
RTVSPost2010Prop49
280
     0
102
RTVSPost2010PropOp49
 70
     1
102
RTVSPost2010Prop50
 90
       50
102
RTVSPost2010PropOp50
 70
     1
102
RTVSPost2010Prop51ColorIndex
 90
      256
102
RTVSPost2010Prop51ColorRGB
 90
-16777216
102
RTVSPost2010PropOp51
 70
     0
102
RTVSPost2010Prop52
140
1.0
102
RTVSPost2010PropOp52
 70
     0
102
RTVSPost2010Prop53
 90
        2
102
RTVSPost2010PropOp53
 70
     1
102
RTVSPost2010Prop54
  1
strokes_ogs.tif
102
RTVSPost2010PropOp54
 70
     1
102
RTVSPost2010Prop55
280
     0
102
RTVSPost2010PropOp55
 70
     1
102
RTVSPost2010Prop56
140
1.0
102
RTVSPost2010PropOp56
 70
     1
102
RTVSPost2010Prop57
140
1.0
102
RTVSPost2010PropOp57
 70
     1
102
RTVSPropertyOp0
 70
     1
102
RTVSPropertyOp1
 70
     1
102
RTVSPropertyOp2
 70
     1
102
RTVSPropertyOp3
 70
     1
102
RTVSPropertyOp4
 70
     1
102
RTVSPropertyOp5
 70
     1
102
RTVSPropertyOp6
 70
     1
102
RTVSPropertyOp7
 70
     1
102
RTVSPropertyOp8
 70
     1
102
RTVSPropertyOp9
 70
     1
102
RTVSPropertyOp10
 70
     1
102
RTVSPropertyOp11
 70
     1
102
RTVSPropertyOp12
 70
     1
102
RTVSPropertyOp13
 70
     1
102
RTVSPropertyOp14
 70
     1
102
RTVSPropertyOp15
 70
     1
102
RTVSPropertyOp16
 70
     1
102
RTVSPropertyOp17
 70
     1
102
RTVSPropertyOp18
 70
     1
102
RTVSPropertyOp19
 70
     1
102
RTVSPropertyOp20
 70
     1
102
RTVSPropertyOp21
 70
     1
102
RTVSPropertyOp22
 70
     1
102
RTVSPropertyOp23
 70
     1
102
RTVSPropertyOp24
 70
     1
102
RTVSPropertyOp25
 70
     1
102
RTVSPropertyOp26
 70
     1
102
RTVSPropertyOp27
 70
     1
102
RTVSPropertyOp28
 70
     1
102
RTVSPropertyOp29
 70
     1
102
RTVSPropertyOp30
 70
     1
102
RTVSPropertyOp31
 70
     1
102
RTVSPropertyOp32
 70
     1
102
RTVSPropertyOp33
 70
     1
102
RTVSPropertyOp34
 70
     1
102
RTVSPropertyOp35
 70
     1
102
RTVSPropertyOp36
 70
     1
102
RTVSPropertyOp37
 70
     1
102
RTVSPropertyOp38
 70
     1
102
RTVSPropertyOp39
 70
     1
102
RTVSPropertyOp40
 70
     1
102
RTVSPropertyOp41
 70
     1
102
RTVSPropertyOp42
 70
     1
102
RTVSPropertyOp43
 70
     1
102
RTVSPropertyOp44
 70
     1
102
RTVSPropertyOp45
 70
     1
102
RTVSPropertyOp46
 70
     1
102
RTVSPropertyOp47
 70
     1
102
RTVSPropertyOp48
 70
     1
102
RTVSPropertyOp49
 70
     1
102
RTVSPropertyOp50
 70
     1
102
RTVSPropertyOp51
 70
     0
102
RTVSPropertyOp52
 70
     0
102
RTVSPropertyOp53
 70
     1
102
RTVSPropertyOp54
 70
     1
102
RTVSPropertyOp55
 70
     1
102
RTVSPropertyOp56
 70
     1
102
RTVSPropertyOp57
 70
     1
102
RTVSPropertyOp58
 70
     1
102
RTVSPropertyOp59
 70
     1
102
RTVSPropertyOp60
 70
     1
102
RTVSPropertyOp61
 70
     1
102
RTVSPropertyOp62
 70
     1
  0
XRECORD
  5
A2BA
102
{ACAD_REACTORS
330
A2B9
102
}
330
A2B9
100
AcDbXrecord
280
     1
102
RTVSPost2010Prop28
280
     0
102
RTVSPost2010PropOp28
 70
     1
102
RTVSPost2010Prop29
280
     1
102
RTVSPost2010PropOp29
 70
     1
102
RTVSPost2010Prop30
280
     1
102
RTVSPost2010PropOp30
 70
     1
102
RTVSPost2010Prop31
280
     0
102
RTVSPost2010PropOp31
 70
     1
102
RTVSPost2010Prop32
280
     0
102
RTVSPost2010PropOp32
 70
     1
102
RTVSPost2010Prop33
280
     0
102
RTVSPost2010PropOp33
 70
     1
102
RTVSPost2010Prop34
280
     0
102
RTVSPost2010PropOp34
 70
     1
102
RTVSPost2010Prop35
280
     0
102
RTVSPost2010PropOp35
 70
     1
102
RTVSPost2010Prop36
280
     0
102
RTVSPost2010PropOp36
 70
     1
102
RTVSPost2010Prop37
 90
       50
102
RTVSPost2010PropOp37
 70
     1
102
RTVSPost2010Prop38
140
0.0
102
RTVSPost2010PropOp38
 70
     1
102
RTVSPost2010Prop39
140
1.0
102
RTVSPost2010PropOp39
 70
     1
102
RTVSPost2010Prop40
 90
        0
102
RTVSPost2010PropOp40
 70
     1
102
RTVSPost2010Prop41ColorIndex
 90
       18
102
RTVSPost2010Prop41ColorRGB
 90
        0
102
RTVSPost2010PropOp41
 70
     1
102
RTVSPost2010Prop42
 90
       50
102
RTVSPost2010PropOp42
 70
     1
102
RTVSPost2010Prop43
 90
        3
102
RTVSPost2010PropOp43
 70
     1
102
RTVSPost2010Prop44ColorIndex
 90
        5
102
RTVSPost2010Prop44ColorRGB
 90
      255
102
RTVSPost2010PropOp44
 70
     1
102
RTVSPost2010Prop45
280
     0
102
RTVSPost2010PropOp45
 70
     1
102
RTVSPost2010Prop46
 90
       50
102
RTVSPost2010PropOp46
 70
     1
102
RTVSPost2010Prop47
 90
       50
102
RTVSPost2010PropOp47
 70
     1
102
RTVSPost2010Prop48
 90
       50
102
RTVSPost2010PropOp48
 70
     1
102
RTVSPost2010Prop49
280
     0
102
RTVSPost2010PropOp49
 70
     1
102
RTVSPost2010Prop50
 90
       50
102
RTVSPost2010PropOp50
 70
     1
102
RTVSPost2010Prop51ColorIndex
 90
      256
102
RTVSPost2010Prop51ColorRGB
 90
-16777216
102
RTVSPost2010PropOp51
 70
     0
102
RTVSPost2010Prop52
140
1.0
102
RTVSPost2010PropOp52
 70
     0
102
RTVSPost2010Prop53
 90
        2
102
RTVSPost2010PropOp53
 70
     1
102
RTVSPost2010Prop54
  1
strokes_ogs.tif
102
RTVSPost2010PropOp54
 70
     1
102
RTVSPost2010Prop55
280
     0
102
RTVSPost2010PropOp55
 70
     1
102
RTVSPost2010Prop56
140
1.0
102
RTVSPost2010PropOp56
 70
     1
102
RTVSPost2010Prop57
140
1.0
102
RTVSPost2010PropOp57
 70
     1
102
RTVSPropertyOp0
 70
     1
102
RTVSPropertyOp1
 70
     1
102
RTVSPropertyOp2
 70
     1
102
RTVSPropertyOp3
 70
     1
102
RTVSPropertyOp4
 70
     1
102
RTVSPropertyOp5
 70
     1
102
RTVSPropertyOp6
 70
     1
102
RTVSPropertyOp7
 70
     1
102
RTVSPropertyOp8
 70
     1
102
RTVSPropertyOp9
 70
     1
102
RTVSPropertyOp10
 70
     1
102
RTVSPropertyOp11
 70
     1
102
RTVSPropertyOp12
 70
     1
102
RTVSPropertyOp13
 70
     1
102
RTVSPropertyOp14
 70
     1
102
RTVSPropertyOp15
 70
     1
102
RTVSPropertyOp16
 70
     1
102
RTVSPropertyOp17
 70
     1
102
RTVSPropertyOp18
 70
     1
102
RTVSPropertyOp19
 70
     1
102
RTVSPropertyOp20
 70
     1
102
RTVSPropertyOp21
 70
     1
102
RTVSPropertyOp22
 70
     1
102
RTVSPropertyOp23
 70
     1
102
RTVSPropertyOp24
 70
     1
102
RTVSPropertyOp25
 70
     1
102
RTVSPropertyOp26
 70
     1
102
RTVSPropertyOp27
 70
     1
102
RTVSPropertyOp28
 70
     1
102
RTVSPropertyOp29
 70
     1
102
RTVSPropertyOp30
 70
     1
102
RTVSPropertyOp31
 70
     1
102
RTVSPropertyOp32
 70
     1
102
RTVSPropertyOp33
 70
     1
102
RTVSPropertyOp34
 70
     1
102
RTVSPropertyOp35
 70
     1
102
RTVSPropertyOp36
 70
     1
102
RTVSPropertyOp37
 70
     1
102
RTVSPropertyOp38
 70
     1
102
RTVSPropertyOp39
 70
     1
102
RTVSPropertyOp40
 70
     1
102
RTVSPropertyOp41
 70
     1
102
RTVSPropertyOp42
 70
     1
102
RTVSPropertyOp43
 70
     1
102
RTVSPropertyOp44
 70
     1
102
RTVSPropertyOp45
 70
     1
102
RTVSPropertyOp46
 70
     1
102
RTVSPropertyOp47
 70
     1
102
RTVSPropertyOp48
 70
     1
102
RTVSPropertyOp49
 70
     1
102
RTVSPropertyOp50
 70
     1
102
RTVSPropertyOp51
 70
     0
102
RTVSPropertyOp52
 70
     0
102
RTVSPropertyOp53
 70
     1
102
RTVSPropertyOp54
 70
     1
102
RTVSPropertyOp55
 70
     1
102
RTVSPropertyOp56
 70
     1
102
RTVSPropertyOp57
 70
     1
102
RTVSPropertyOp58
 70
     1
102
RTVSPropertyOp59
 70
     1
102
RTVSPropertyOp60
 70
     1
102
RTVSPropertyOp61
 70
     1
102
RTVSPropertyOp62
 70
     1
  0
XRECORD
  5
A2C2
102
{ACAD_REACTORS
330
A2C1
102
}
330
A2C1
100
AcDbXrecord
280
     1
102
RTVSPost2010Prop28
280
     0
102
RTVSPost2010PropOp28
 70
     1
102
RTVSPost2010Prop29
280
     1
102
RTVSPost2010PropOp29
 70
     1
102
RTVSPost2010Prop30
280
     1
102
RTVSPost2010PropOp30
 70
     1
102
RTVSPost2010Prop31
280
     0
102
RTVSPost2010PropOp31
 70
     1
102
RTVSPost2010Prop32
280
     0
102
RTVSPost2010PropOp32
 70
     1
102
RTVSPost2010Prop33
280
     0
102
RTVSPost2010PropOp33
 70
     1
102
RTVSPost2010Prop34
280
     0
102
RTVSPost2010PropOp34
 70
     1
102
RTVSPost2010Prop35
280
     0
102
RTVSPost2010PropOp35
 70
     1
102
RTVSPost2010Prop36
280
     0
102
RTVSPost2010PropOp36
 70
     1
102
RTVSPost2010Prop37
 90
       50
102
RTVSPost2010PropOp37
 70
     1
102
RTVSPost2010Prop38
140
0.0
102
RTVSPost2010PropOp38
 70
     1
102
RTVSPost2010Prop39
140
1.0
102
RTVSPost2010PropOp39
 70
     1
102
RTVSPost2010Prop40
 90
        0
102
RTVSPost2010PropOp40
 70
     1
102
RTVSPost2010Prop41ColorIndex
 90
       18
102
RTVSPost2010Prop41ColorRGB
 90
        0
102
RTVSPost2010PropOp41
 70
     1
102
RTVSPost2010Prop42
 90
       50
102
RTVSPost2010PropOp42
 70
     1
102
RTVSPost2010Prop43
 90
        3
102
RTVSPost2010PropOp43
 70
     1
102
RTVSPost2010Prop44ColorIndex
 90
        5
102
RTVSPost2010Prop44ColorRGB
 90
      255
102
RTVSPost2010PropOp44
 70
     1
102
RTVSPost2010Prop45
280
     0
102
RTVSPost2010PropOp45
 70
     1
102
RTVSPost2010Prop46
 90
       50
102
RTVSPost2010PropOp46
 70
     1
102
RTVSPost2010Prop47
 90
       50
102
RTVSPost2010PropOp47
 70
     1
102
RTVSPost2010Prop48
 90
       50
102
RTVSPost2010PropOp48
 70
     1
102
RTVSPost2010Prop49
280
     0
102
RTVSPost2010PropOp49
 70
     1
102
RTVSPost2010Prop50
 90
       50
102
RTVSPost2010PropOp50
 70
     1
102
RTVSPost2010Prop51ColorIndex
 90
      256
102
RTVSPost2010Prop51ColorRGB
 90
-16777216
102
RTVSPost2010PropOp51
 70
     0
102
RTVSPost2010Prop52
140
1.0
102
RTVSPost2010PropOp52
 70
     0
102
RTVSPost2010Prop53
 90
        2
102
RTVSPost2010PropOp53
 70
     1
102
RTVSPost2010Prop54
  1
strokes_ogs.tif
102
RTVSPost2010PropOp54
 70
     1
102
RTVSPost2010Prop55
280
     0
102
RTVSPost2010PropOp55
 70
     1
102
RTVSPost2010Prop56
140
1.0
102
RTVSPost2010PropOp56
 70
     1
102
RTVSPost2010Prop57
140
1.0
102
RTVSPost2010PropOp57
 70
     1
102
RTVSPropertyOp0
 70
     1
102
RTVSPropertyOp1
 70
     1
102
RTVSPropertyOp2
 70
     1
102
RTVSPropertyOp3
 70
     1
102
RTVSPropertyOp4
 70
     1
102
RTVSPropertyOp5
 70
     1
102
RTVSPropertyOp6
 70
     1
102
RTVSPropertyOp7
 70
     1
102
RTVSPropertyOp8
 70
     1
102
RTVSPropertyOp9
 70
     1
102
RTVSPropertyOp10
 70
     1
102
RTVSPropertyOp11
 70
     1
102
RTVSPropertyOp12
 70
     1
102
RTVSPropertyOp13
 70
     1
102
RTVSPropertyOp14
 70
     1
102
RTVSPropertyOp15
 70
     1
102
RTVSPropertyOp16
 70
     1
102
RTVSPropertyOp17
 70
     1
102
RTVSPropertyOp18
 70
     1
102
RTVSPropertyOp19
 70
     1
102
RTVSPropertyOp20
 70
     1
102
RTVSPropertyOp21
 70
     1
102
RTVSPropertyOp22
 70
     1
102
RTVSPropertyOp23
 70
     1
102
RTVSPropertyOp24
 70
     1
102
RTVSPropertyOp25
 70
     1
102
RTVSPropertyOp26
 70
     1
102
RTVSPropertyOp27
 70
     1
102
RTVSPropertyOp28
 70
     1
102
RTVSPropertyOp29
 70
     1
102
RTVSPropertyOp30
 70
     1
102
RTVSPropertyOp31
 70
     1
102
RTVSPropertyOp32
 70
     1
102
RTVSPropertyOp33
 70
     1
102
RTVSPropertyOp34
 70
     1
102
RTVSPropertyOp35
 70
     1
102
RTVSPropertyOp36
 70
     1
102
RTVSPropertyOp37
 70
     1
102
RTVSPropertyOp38
 70
     1
102
RTVSPropertyOp39
 70
     1
102
RTVSPropertyOp40
 70
     1
102
RTVSPropertyOp41
 70
     1
102
RTVSPropertyOp42
 70
     1
102
RTVSPropertyOp43
 70
     1
102
RTVSPropertyOp44
 70
     1
102
RTVSPropertyOp45
 70
     1
102
RTVSPropertyOp46
 70
     1
102
RTVSPropertyOp47
 70
     1
102
RTVSPropertyOp48
 70
     1
102
RTVSPropertyOp49
 70
     1
102
RTVSPropertyOp50
 70
     1
102
RTVSPropertyOp51
 70
     0
102
RTVSPropertyOp52
 70
     0
102
RTVSPropertyOp53
 70
     1
102
RTVSPropertyOp54
 70
     1
102
RTVSPropertyOp55
 70
     1
102
RTVSPropertyOp56
 70
     1
102
RTVSPropertyOp57
 70
     1
102
RTVSPropertyOp58
 70
     1
102
RTVSPropertyOp59
 70
     1
102
RTVSPropertyOp60
 70
     1
102
RTVSPropertyOp61
 70
     1
102
RTVSPropertyOp62
 70
     1
  0
XRECORD
  5
A2B4
102
{ACAD_REACTORS
330
A2B3
102
}
330
A2B3
100
AcDbXrecord
280
     1
102
RTVSPost2010Prop28
280
     0
102
RTVSPost2010PropOp28
 70
     1
102
RTVSPost2010Prop29
280
     1
102
RTVSPost2010PropOp29
 70
     1
102
RTVSPost2010Prop30
280
     1
102
RTVSPost2010PropOp30
 70
     1
102
RTVSPost2010Prop31
280
     0
102
RTVSPost2010PropOp31
 70
     1
102
RTVSPost2010Prop32
280
     0
102
RTVSPost2010PropOp32
 70
     1
102
RTVSPost2010Prop33
280
     0
102
RTVSPost2010PropOp33
 70
     1
102
RTVSPost2010Prop34
280
     0
102
RTVSPost2010PropOp34
 70
     1
102
RTVSPost2010Prop35
280
     0
102
RTVSPost2010PropOp35
 70
     1
102
RTVSPost2010Prop36
280
     0
102
RTVSPost2010PropOp36
 70
     1
102
RTVSPost2010Prop37
 90
       50
102
RTVSPost2010PropOp37
 70
     1
102
RTVSPost2010Prop38
140
0.0
102
RTVSPost2010PropOp38
 70
     1
102
RTVSPost2010Prop39
140
1.0
102
RTVSPost2010PropOp39
 70
     1
102
RTVSPost2010Prop40
 90
        0
102
RTVSPost2010PropOp40
 70
     1
102
RTVSPost2010Prop41ColorIndex
 90
       18
102
RTVSPost2010Prop41ColorRGB
 90
        0
102
RTVSPost2010PropOp41
 70
     1
102
RTVSPost2010Prop42
 90
       50
102
RTVSPost2010PropOp42
 70
     1
102
RTVSPost2010Prop43
 90
        3
102
RTVSPost2010PropOp43
 70
     1
102
RTVSPost2010Prop44ColorIndex
 90
        5
102
RTVSPost2010Prop44ColorRGB
 90
      255
102
RTVSPost2010PropOp44
 70
     1
102
RTVSPost2010Prop45
280
     0
102
RTVSPost2010PropOp45
 70
     1
102
RTVSPost2010Prop46
 90
       50
102
RTVSPost2010PropOp46
 70
     1
102
RTVSPost2010Prop47
 90
       50
102
RTVSPost2010PropOp47
 70
     1
102
RTVSPost2010Prop48
 90
       50
102
RTVSPost2010PropOp48
 70
     1
102
RTVSPost2010Prop49
280
     0
102
RTVSPost2010PropOp49
 70
     1
102
RTVSPost2010Prop50
 90
       50
102
RTVSPost2010PropOp50
 70
     1
102
RTVSPost2010Prop51ColorIndex
 90
      256
102
RTVSPost2010Prop51ColorRGB
 90
-16777216
102
RTVSPost2010PropOp51
 70
     0
102
RTVSPost2010Prop52
140
1.0
102
RTVSPost2010PropOp52
 70
     0
102
RTVSPost2010Prop53
 90
        2
102
RTVSPost2010PropOp53
 70
     1
102
RTVSPost2010Prop54
  1
strokes_ogs.tif
102
RTVSPost2010PropOp54
 70
     1
102
RTVSPost2010Prop55
280
     0
102
RTVSPost2010PropOp55
 70
     1
102
RTVSPost2010Prop56
140
1.0
102
RTVSPost2010PropOp56
 70
     1
102
RTVSPost2010Prop57
140
1.0
102
RTVSPost2010PropOp57
 70
     1
102
RTVSPropertyOp0
 70
     1
102
RTVSPropertyOp1
 70
     1
102
RTVSPropertyOp2
 70
     1
102
RTVSPropertyOp3
 70
     1
102
RTVSPropertyOp4
 70
     1
102
RTVSPropertyOp5
 70
     1
102
RTVSPropertyOp6
 70
     1
102
RTVSPropertyOp7
 70
     1
102
RTVSPropertyOp8
 70
     1
102
RTVSPropertyOp9
 70
     1
102
RTVSPropertyOp10
 70
     1
102
RTVSPropertyOp11
 70
     1
102
RTVSPropertyOp12
 70
     1
102
RTVSPropertyOp13
 70
     1
102
RTVSPropertyOp14
 70
     1
102
RTVSPropertyOp15
 70
     1
102
RTVSPropertyOp16
 70
     1
102
RTVSPropertyOp17
 70
     1
102
RTVSPropertyOp18
 70
     1
102
RTVSPropertyOp19
 70
     1
102
RTVSPropertyOp20
 70
     1
102
RTVSPropertyOp21
 70
     1
102
RTVSPropertyOp22
 70
     1
102
RTVSPropertyOp23
 70
     1
102
RTVSPropertyOp24
 70
     1
102
RTVSPropertyOp25
 70
     1
102
RTVSPropertyOp26
 70
     1
102
RTVSPropertyOp27
 70
     1
102
RTVSPropertyOp28
 70
     1
102
RTVSPropertyOp29
 70
     1
102
RTVSPropertyOp30
 70
     1
102
RTVSPropertyOp31
 70
     1
102
RTVSPropertyOp32
 70
     1
102
RTVSPropertyOp33
 70
     1
102
RTVSPropertyOp34
 70
     1
102
RTVSPropertyOp35
 70
     1
102
RTVSPropertyOp36
 70
     1
102
RTVSPropertyOp37
 70
     1
102
RTVSPropertyOp38
 70
     1
102
RTVSPropertyOp39
 70
     1
102
RTVSPropertyOp40
 70
     1
102
RTVSPropertyOp41
 70
     1
102
RTVSPropertyOp42
 70
     1
102
RTVSPropertyOp43
 70
     1
102
RTVSPropertyOp44
 70
     1
102
RTVSPropertyOp45
 70
     1
102
RTVSPropertyOp46
 70
     1
102
RTVSPropertyOp47
 70
     1
102
RTVSPropertyOp48
 70
     1
102
RTVSPropertyOp49
 70
     1
102
RTVSPropertyOp50
 70
     1
102
RTVSPropertyOp51
 70
     0
102
RTVSPropertyOp52
 70
     0
102
RTVSPropertyOp53
 70
     1
102
RTVSPropertyOp54
 70
     1
102
RTVSPropertyOp55
 70
     1
102
RTVSPropertyOp56
 70
     1
102
RTVSPropertyOp57
 70
     1
102
RTVSPropertyOp58
 70
     1
102
RTVSPropertyOp59
 70
     1
102
RTVSPropertyOp60
 70
     1
102
RTVSPropertyOp61
 70
     1
102
RTVSPropertyOp62
 70
     1
  0
XRECORD
  5
A2B8
102
{ACAD_REACTORS
330
A2B7
102
}
330
A2B7
100
AcDbXrecord
280
     1
102
RTVSPost2010Prop28
280
     0
102
RTVSPost2010PropOp28
 70
     1
102
RTVSPost2010Prop29
280
     1
102
RTVSPost2010PropOp29
 70
     1
102
RTVSPost2010Prop30
280
     1
102
RTVSPost2010PropOp30
 70
     1
102
RTVSPost2010Prop31
280
     0
102
RTVSPost2010PropOp31
 70
     1
102
RTVSPost2010Prop32
280
     0
102
RTVSPost2010PropOp32
 70
     1
102
RTVSPost2010Prop33
280
     0
102
RTVSPost2010PropOp33
 70
     1
102
RTVSPost2010Prop34
280
     0
102
RTVSPost2010PropOp34
 70
     1
102
RTVSPost2010Prop35
280
     0
102
RTVSPost2010PropOp35
 70
     1
102
RTVSPost2010Prop36
280
     0
102
RTVSPost2010PropOp36
 70
     1
102
RTVSPost2010Prop37
 90
       50
102
RTVSPost2010PropOp37
 70
     1
102
RTVSPost2010Prop38
140
0.0
102
RTVSPost2010PropOp38
 70
     1
102
RTVSPost2010Prop39
140
1.0
102
RTVSPost2010PropOp39
 70
     1
102
RTVSPost2010Prop40
 90
        0
102
RTVSPost2010PropOp40
 70
     1
102
RTVSPost2010Prop41ColorIndex
 90
       18
102
RTVSPost2010Prop41ColorRGB
 90
        0
102
RTVSPost2010PropOp41
 70
     1
102
RTVSPost2010Prop42
 90
       50
102
RTVSPost2010PropOp42
 70
     1
102
RTVSPost2010Prop43
 90
        3
102
RTVSPost2010PropOp43
 70
     1
102
RTVSPost2010Prop44ColorIndex
 90
        5
102
RTVSPost2010Prop44ColorRGB
 90
      255
102
RTVSPost2010PropOp44
 70
     1
102
RTVSPost2010Prop45
280
     0
102
RTVSPost2010PropOp45
 70
     1
102
RTVSPost2010Prop46
 90
       50
102
RTVSPost2010PropOp46
 70
     1
102
RTVSPost2010Prop47
 90
       50
102
RTVSPost2010PropOp47
 70
     1
102
RTVSPost2010Prop48
 90
       50
102
RTVSPost2010PropOp48
 70
     1
102
RTVSPost2010Prop49
280
     0
102
RTVSPost2010PropOp49
 70
     1
102
RTVSPost2010Prop50
 90
       50
102
RTVSPost2010PropOp50
 70
     1
102
RTVSPost2010Prop51ColorIndex
 90
      256
102
RTVSPost2010Prop51ColorRGB
 90
-16777216
102
RTVSPost2010PropOp51
 70
     0
102
RTVSPost2010Prop52
140
1.0
102
RTVSPost2010PropOp52
 70
     0
102
RTVSPost2010Prop53
 90
        2
102
RTVSPost2010PropOp53
 70
     1
102
RTVSPost2010Prop54
  1
strokes_ogs.tif
102
RTVSPost2010PropOp54
 70
     1
102
RTVSPost2010Prop55
280
     0
102
RTVSPost2010PropOp55
 70
     1
102
RTVSPost2010Prop56
140
1.0
102
RTVSPost2010PropOp56
 70
     1
102
RTVSPost2010Prop57
140
1.0
102
RTVSPost2010PropOp57
 70
     1
102
RTVSPropertyOp0
 70
     1
102
RTVSPropertyOp1
 70
     1
102
RTVSPropertyOp2
 70
     1
102
RTVSPropertyOp3
 70
     1
102
RTVSPropertyOp4
 70
     1
102
RTVSPropertyOp5
 70
     1
102
RTVSPropertyOp6
 70
     1
102
RTVSPropertyOp7
 70
     1
102
RTVSPropertyOp8
 70
     1
102
RTVSPropertyOp9
 70
     1
102
RTVSPropertyOp10
 70
     1
102
RTVSPropertyOp11
 70
     1
102
RTVSPropertyOp12
 70
     1
102
RTVSPropertyOp13
 70
     1
102
RTVSPropertyOp14
 70
     1
102
RTVSPropertyOp15
 70
     1
102
RTVSPropertyOp16
 70
     1
102
RTVSPropertyOp17
 70
     1
102
RTVSPropertyOp18
 70
     1
102
RTVSPropertyOp19
 70
     1
102
RTVSPropertyOp20
 70
     1
102
RTVSPropertyOp21
 70
     1
102
RTVSPropertyOp22
 70
     1
102
RTVSPropertyOp23
 70
     1
102
RTVSPropertyOp24
 70
     1
102
RTVSPropertyOp25
 70
     1
102
RTVSPropertyOp26
 70
     1
102
RTVSPropertyOp27
 70
     1
102
RTVSPropertyOp28
 70
     1
102
RTVSPropertyOp29
 70
     1
102
RTVSPropertyOp30
 70
     1
102
RTVSPropertyOp31
 70
     1
102
RTVSPropertyOp32
 70
     1
102
RTVSPropertyOp33
 70
     1
102
RTVSPropertyOp34
 70
     1
102
RTVSPropertyOp35
 70
     1
102
RTVSPropertyOp36
 70
     1
102
RTVSPropertyOp37
 70
     1
102
RTVSPropertyOp38
 70
     1
102
RTVSPropertyOp39
 70
     1
102
RTVSPropertyOp40
 70
     1
102
RTVSPropertyOp41
 70
     1
102
RTVSPropertyOp42
 70
     1
102
RTVSPropertyOp43
 70
     1
102
RTVSPropertyOp44
 70
     1
102
RTVSPropertyOp45
 70
     1
102
RTVSPropertyOp46
 70
     1
102
RTVSPropertyOp47
 70
     1
102
RTVSPropertyOp48
 70
     1
102
RTVSPropertyOp49
 70
     1
102
RTVSPropertyOp50
 70
     1
102
RTVSPropertyOp51
 70
     0
102
RTVSPropertyOp52
 70
     0
102
RTVSPropertyOp53
 70
     1
102
RTVSPropertyOp54
 70
     1
102
RTVSPropertyOp55
 70
     1
102
RTVSPropertyOp56
 70
     1
102
RTVSPropertyOp57
 70
     1
102
RTVSPropertyOp58
 70
     1
102
RTVSPropertyOp59
 70
     1
102
RTVSPropertyOp60
 70
     1
102
RTVSPropertyOp61
 70
     1
102
RTVSPropertyOp62
 70
     1
  0
XRECORD
  5
A2D2
102
{ACAD_REACTORS
330
A2D1
102
}
330
A2D1
100
AcDbXrecord
280
     1
102
RTVSPost2010Prop28
280
     0
102
RTVSPost2010PropOp28
 70
     1
102
RTVSPost2010Prop29
280
     1
102
RTVSPost2010PropOp29
 70
     1
102
RTVSPost2010Prop30
280
     1
102
RTVSPost2010PropOp30
 70
     1
102
RTVSPost2010Prop31
280
     0
102
RTVSPost2010PropOp31
 70
     1
102
RTVSPost2010Prop32
280
     0
102
RTVSPost2010PropOp32
 70
     1
102
RTVSPost2010Prop33
280
     0
102
RTVSPost2010PropOp33
 70
     1
102
RTVSPost2010Prop34
280
     0
102
RTVSPost2010PropOp34
 70
     1
102
RTVSPost2010Prop35
280
     0
102
RTVSPost2010PropOp35
 70
     1
102
RTVSPost2010Prop36
280
     0
102
RTVSPost2010PropOp36
 70
     1
102
RTVSPost2010Prop37
 90
       50
102
RTVSPost2010PropOp37
 70
     0
102
RTVSPost2010Prop38
140
0.0
102
RTVSPost2010PropOp38
 70
     0
102
RTVSPost2010Prop39
140
1.0
102
RTVSPost2010PropOp39
 70
     0
102
RTVSPost2010Prop40
 90
        0
102
RTVSPost2010PropOp40
 70
     0
102
RTVSPost2010Prop41ColorIndex
 90
       18
102
RTVSPost2010Prop41ColorRGB
 90
        0
102
RTVSPost2010PropOp41
 70
     0
102
RTVSPost2010Prop42
 90
       50
102
RTVSPost2010PropOp42
 70
     0
102
RTVSPost2010Prop43
 90
        3
102
RTVSPost2010PropOp43
 70
     0
102
RTVSPost2010Prop44ColorIndex
 90
        5
102
RTVSPost2010Prop44ColorRGB
 90
      255
102
RTVSPost2010PropOp44
 70
     0
102
RTVSPost2010Prop45
280
     0
102
RTVSPost2010PropOp45
 70
     1
102
RTVSPost2010Prop46
 90
       50
102
RTVSPost2010PropOp46
 70
     0
102
RTVSPost2010Prop47
 90
       50
102
RTVSPost2010PropOp47
 70
     0
102
RTVSPost2010Prop48
 90
       50
102
RTVSPost2010PropOp48
 70
     0
102
RTVSPost2010Prop49
280
     0
102
RTVSPost2010PropOp49
 70
     1
102
RTVSPost2010Prop50
 90
       50
102
RTVSPost2010PropOp50
 70
     0
102
RTVSPost2010Prop51ColorIndex
 90
      256
102
RTVSPost2010Prop51ColorRGB
 90
-16777216
102
RTVSPost2010PropOp51
 70
     0
102
RTVSPost2010Prop52
140
1.0
102
RTVSPost2010PropOp52
 70
     0
102
RTVSPost2010Prop53
 90
        2
102
RTVSPost2010PropOp53
 70
     0
102
RTVSPost2010Prop54
  1
strokes_ogs.tif
102
RTVSPost2010PropOp54
 70
     0
102
RTVSPost2010Prop55
280
     0
102
RTVSPost2010PropOp55
 70
     1
102
RTVSPost2010Prop56
140
1.0
102
RTVSPost2010PropOp56
 70
     0
102
RTVSPost2010Prop57
140
1.0
102
RTVSPost2010PropOp57
 70
     0
102
RTVSPropertyOp0
 70
     0
102
RTVSPropertyOp1
 70
     0
102
RTVSPropertyOp2
 70
     0
102
RTVSPropertyOp3
 70
     0
102
RTVSPropertyOp4
 70
     0
102
RTVSPropertyOp5
 70
     0
102
RTVSPropertyOp6
 70
     0
102
RTVSPropertyOp7
 70
     0
102
RTVSPropertyOp8
 70
     0
102
RTVSPropertyOp9
 70
     0
102
RTVSPropertyOp10
 70
     0
102
RTVSPropertyOp11
 70
     0
102
RTVSPropertyOp12
 70
     0
102
RTVSPropertyOp13
 70
     0
102
RTVSPropertyOp14
 70
     2
102
RTVSPropertyOp15
 70
     0
102
RTVSPropertyOp16
 70
     0
102
RTVSPropertyOp17
 70
     0
102
RTVSPropertyOp18
 70
     0
102
RTVSPropertyOp19
 70
     0
102
RTVSPropertyOp20
 70
     0
102
RTVSPropertyOp21
 70
     0
102
RTVSPropertyOp22
 70
     0
102
RTVSPropertyOp23
 70
     0
102
RTVSPropertyOp24
 70
     0
102
RTVSPropertyOp25
 70
     0
102
RTVSPropertyOp26
 70
     0
102
RTVSPropertyOp27
 70
     0
102
RTVSPropertyOp28
 70
     1
102
RTVSPropertyOp29
 70
     1
102
RTVSPropertyOp30
 70
     1
102
RTVSPropertyOp31
 70
     1
102
RTVSPropertyOp32
 70
     1
102
RTVSPropertyOp33
 70
     1
102
RTVSPropertyOp34
 70
     1
102
RTVSPropertyOp35
 70
     1
102
RTVSPropertyOp36
 70
     1
102
RTVSPropertyOp37
 70
     0
102
RTVSPropertyOp38
 70
     0
102
RTVSPropertyOp39
 70
     0
102
RTVSPropertyOp40
 70
     0
102
RTVSPropertyOp41
 70
     0
102
RTVSPropertyOp42
 70
     0
102
RTVSPropertyOp43
 70
     0
102
RTVSPropertyOp44
 70
     0
102
RTVSPropertyOp45
 70
     1
102
RTVSPropertyOp46
 70
     0
102
RTVSPropertyOp47
 70
     0
102
RTVSPropertyOp48
 70
     0
102
RTVSPropertyOp49
 70
     1
102
RTVSPropertyOp50
 70
     0
102
RTVSPropertyOp51
 70
     0
102
RTVSPropertyOp52
 70
     0
102
RTVSPropertyOp53
 70
     0
102
RTVSPropertyOp54
 70
     0
102
RTVSPropertyOp55
 70
     1
102
RTVSPropertyOp56
 70
     0
102
RTVSPropertyOp57
 70
     0
102
RTVSPropertyOp58
 70
     0
102
RTVSPropertyOp59
 70
     0
102
RTVSPropertyOp60
 70
     0
102
RTVSPropertyOp61
 70
     0
102
RTVSPropertyOp62
 70
     0
  0
XRECORD
  5
A2C0
102
{ACAD_REACTORS
330
A2BF
102
}
330
A2BF
100
AcDbXrecord
280
     1
102
RTVSPost2010Prop28
280
     0
102
RTVSPost2010PropOp28
 70
     1
102
RTVSPost2010Prop29
280
     1
102
RTVSPost2010PropOp29
 70
     1
102
RTVSPost2010Prop30
280
     1
102
RTVSPost2010PropOp30
 70
     1
102
RTVSPost2010Prop31
280
     0
102
RTVSPost2010PropOp31
 70
     1
102
RTVSPost2010Prop32
280
     0
102
RTVSPost2010PropOp32
 70
     1
102
RTVSPost2010Prop33
280
     0
102
RTVSPost2010PropOp33
 70
     1
102
RTVSPost2010Prop34
280
     0
102
RTVSPost2010PropOp34
 70
     1
102
RTVSPost2010Prop35
280
     0
102
RTVSPost2010PropOp35
 70
     1
102
RTVSPost2010Prop36
280
     0
102
RTVSPost2010PropOp36
 70
     1
102
RTVSPost2010Prop37
 90
       50
102
RTVSPost2010PropOp37
 70
     1
102
RTVSPost2010Prop38
140
0.0
102
RTVSPost2010PropOp38
 70
     1
102
RTVSPost2010Prop39
140
1.0
102
RTVSPost2010PropOp39
 70
     1
102
RTVSPost2010Prop40
 90
        0
102
RTVSPost2010PropOp40
 70
     1
102
RTVSPost2010Prop41ColorIndex
 90
       18
102
RTVSPost2010Prop41ColorRGB
 90
        0
102
RTVSPost2010PropOp41
 70
     1
102
RTVSPost2010Prop42
 90
       50
102
RTVSPost2010PropOp42
 70
     1
102
RTVSPost2010Prop43
 90
        3
102
RTVSPost2010PropOp43
 70
     1
102
RTVSPost2010Prop44ColorIndex
 90
        5
102
RTVSPost2010Prop44ColorRGB
 90
      255
102
RTVSPost2010PropOp44
 70
     1
102
RTVSPost2010Prop45
280
     0
102
RTVSPost2010PropOp45
 70
     1
102
RTVSPost2010Prop46
 90
       50
102
RTVSPost2010PropOp46
 70
     1
102
RTVSPost2010Prop47
 90
       50
102
RTVSPost2010PropOp47
 70
     1
102
RTVSPost2010Prop48
 90
       50
102
RTVSPost2010PropOp48
 70
     1
102
RTVSPost2010Prop49
280
     0
102
RTVSPost2010PropOp49
 70
     1
102
RTVSPost2010Prop50
 90
       50
102
RTVSPost2010PropOp50
 70
     1
102
RTVSPost2010Prop51ColorIndex
 90
      256
102
RTVSPost2010Prop51ColorRGB
 90
-16777216
102
RTVSPost2010PropOp51
 70
     0
102
RTVSPost2010Prop52
140
1.0
102
RTVSPost2010PropOp52
 70
     0
102
RTVSPost2010Prop53
 90
        2
102
RTVSPost2010PropOp53
 70
     1
102
RTVSPost2010Prop54
  1
strokes_ogs.tif
102
RTVSPost2010PropOp54
 70
     1
102
RTVSPost2010Prop55
280
     0
102
RTVSPost2010PropOp55
 70
     1
102
RTVSPost2010Prop56
140
1.0
102
RTVSPost2010PropOp56
 70
     1
102
RTVSPost2010Prop57
140
1.0
102
RTVSPost2010PropOp57
 70
     1
102
RTVSPropertyOp0
 70
     1
102
RTVSPropertyOp1
 70
     1
102
RTVSPropertyOp2
 70
     1
102
RTVSPropertyOp3
 70
     1
102
RTVSPropertyOp4
 70
     1
102
RTVSPropertyOp5
 70
     1
102
RTVSPropertyOp6
 70
     1
102
RTVSPropertyOp7
 70
     1
102
RTVSPropertyOp8
 70
     1
102
RTVSPropertyOp9
 70
     1
102
RTVSPropertyOp10
 70
     1
102
RTVSPropertyOp11
 70
     1
102
RTVSPropertyOp12
 70
     1
102
RTVSPropertyOp13
 70
     1
102
RTVSPropertyOp14
 70
     1
102
RTVSPropertyOp15
 70
     1
102
RTVSPropertyOp16
 70
     1
102
RTVSPropertyOp17
 70
     1
102
RTVSPropertyOp18
 70
     1
102
RTVSPropertyOp19
 70
     1
102
RTVSPropertyOp20
 70
     1
102
RTVSPropertyOp21
 70
     1
102
RTVSPropertyOp22
 70
     1
102
RTVSPropertyOp23
 70
     1
102
RTVSPropertyOp24
 70
     1
102
RTVSPropertyOp25
 70
     1
102
RTVSPropertyOp26
 70
     1
102
RTVSPropertyOp27
 70
     1
102
RTVSPropertyOp28
 70
     1
102
RTVSPropertyOp29
 70
     1
102
RTVSPropertyOp30
 70
     1
102
RTVSPropertyOp31
 70
     1
102
RTVSPropertyOp32
 70
     1
102
RTVSPropertyOp33
 70
     1
102
RTVSPropertyOp34
 70
     1
102
RTVSPropertyOp35
 70
     1
102
RTVSPropertyOp36
 70
     1
102
RTVSPropertyOp37
 70
     1
102
RTVSPropertyOp38
 70
     1
102
RTVSPropertyOp39
 70
     1
102
RTVSPropertyOp40
 70
     1
102
RTVSPropertyOp41
 70
     1
102
RTVSPropertyOp42
 70
     1
102
RTVSPropertyOp43
 70
     1
102
RTVSPropertyOp44
 70
     1
102
RTVSPropertyOp45
 70
     1
102
RTVSPropertyOp46
 70
     1
102
RTVSPropertyOp47
 70
     1
102
RTVSPropertyOp48
 70
     1
102
RTVSPropertyOp49
 70
     1
102
RTVSPropertyOp50
 70
     1
102
RTVSPropertyOp51
 70
     0
102
RTVSPropertyOp52
 70
     0
102
RTVSPropertyOp53
 70
     1
102
RTVSPropertyOp54
 70
     1
102
RTVSPropertyOp55
 70
     1
102
RTVSPropertyOp56
 70
     1
102
RTVSPropertyOp57
 70
     1
102
RTVSPropertyOp58
 70
     1
102
RTVSPropertyOp59
 70
     1
102
RTVSPropertyOp60
 70
     1
102
RTVSPropertyOp61
 70
     1
102
RTVSPropertyOp62
 70
     1
  0
XRECORD
  5
A2A4
102
{ACAD_REACTORS
330
A2A3
102
}
330
A2A3
100
AcDbXrecord
280
     1
102
RTVSPost2010Prop28
280
     0
102
RTVSPost2010PropOp28
 70
     1
102
RTVSPost2010Prop29
280
     1
102
RTVSPost2010PropOp29
 70
     1
102
RTVSPost2010Prop30
280
     1
102
RTVSPost2010PropOp30
 70
     1
102
RTVSPost2010Prop31
280
     0
102
RTVSPost2010PropOp31
 70
     1
102
RTVSPost2010Prop32
280
     0
102
RTVSPost2010PropOp32
 70
     1
102
RTVSPost2010Prop33
280
     0
102
RTVSPost2010PropOp33
 70
     1
102
RTVSPost2010Prop34
280
     0
102
RTVSPost2010PropOp34
 70
     1
102
RTVSPost2010Prop35
280
     0
102
RTVSPost2010PropOp35
 70
     1
102
RTVSPost2010Prop36
280
     0
102
RTVSPost2010PropOp36
 70
     1
102
RTVSPost2010Prop37
 90
       50
102
RTVSPost2010PropOp37
 70
     1
102
RTVSPost2010Prop38
140
0.0
102
RTVSPost2010PropOp38
 70
     1
102
RTVSPost2010Prop39
140
1.0
102
RTVSPost2010PropOp39
 70
     1
102
RTVSPost2010Prop40
 90
        0
102
RTVSPost2010PropOp40
 70
     1
102
RTVSPost2010Prop41ColorIndex
 90
       18
102
RTVSPost2010Prop41ColorRGB
 90
        0
102
RTVSPost2010PropOp41
 70
     1
102
RTVSPost2010Prop42
 90
       50
102
RTVSPost2010PropOp42
 70
     1
102
RTVSPost2010Prop43
 90
        3
102
RTVSPost2010PropOp43
 70
     1
102
RTVSPost2010Prop44ColorIndex
 90
        5
102
RTVSPost2010Prop44ColorRGB
 90
      255
102
RTVSPost2010PropOp44
 70
     1
102
RTVSPost2010Prop45
280
     0
102
RTVSPost2010PropOp45
 70
     1
102
RTVSPost2010Prop46
 90
       50
102
RTVSPost2010PropOp46
 70
     1
102
RTVSPost2010Prop47
 90
       50
102
RTVSPost2010PropOp47
 70
     1
102
RTVSPost2010Prop48
 90
       50
102
RTVSPost2010PropOp48
 70
     1
102
RTVSPost2010Prop49
280
     0
102
RTVSPost2010PropOp49
 70
     1
102
RTVSPost2010Prop50
 90
       50
102
RTVSPost2010PropOp50
 70
     1
102
RTVSPost2010Prop51ColorIndex
 90
      256
102
RTVSPost2010Prop51ColorRGB
 90
-16777216
102
RTVSPost2010PropOp51
 70
     0
102
RTVSPost2010Prop52
140
1.0
102
RTVSPost2010PropOp52
 70
     0
102
RTVSPost2010Prop53
 90
        2
102
RTVSPost2010PropOp53
 70
     1
102
RTVSPost2010Prop54
  1
strokes_ogs.tif
102
RTVSPost2010PropOp54
 70
     1
102
RTVSPost2010Prop55
280
     0
102
RTVSPost2010PropOp55
 70
     1
102
RTVSPost2010Prop56
140
1.0
102
RTVSPost2010PropOp56
 70
     1
102
RTVSPost2010Prop57
140
1.0
102
RTVSPost2010PropOp57
 70
     1
102
RTVSPropertyOp0
 70
     1
102
RTVSPropertyOp1
 70
     1
102
RTVSPropertyOp2
 70
     1
102
RTVSPropertyOp3
 70
     1
102
RTVSPropertyOp4
 70
     1
102
RTVSPropertyOp5
 70
     1
102
RTVSPropertyOp6
 70
     1
102
RTVSPropertyOp7
 70
     1
102
RTVSPropertyOp8
 70
     1
102
RTVSPropertyOp9
 70
     1
102
RTVSPropertyOp10
 70
     1
102
RTVSPropertyOp11
 70
     1
102
RTVSPropertyOp12
 70
     1
102
RTVSPropertyOp13
 70
     1
102
RTVSPropertyOp14
 70
     1
102
RTVSPropertyOp15
 70
     1
102
RTVSPropertyOp16
 70
     1
102
RTVSPropertyOp17
 70
     1
102
RTVSPropertyOp18
 70
     1
102
RTVSPropertyOp19
 70
     1
102
RTVSPropertyOp20
 70
     1
102
RTVSPropertyOp21
 70
     1
102
RTVSPropertyOp22
 70
     1
102
RTVSPropertyOp23
 70
     1
102
RTVSPropertyOp24
 70
     1
102
RTVSPropertyOp25
 70
     1
102
RTVSPropertyOp26
 70
     1
102
RTVSPropertyOp27
 70
     1
102
RTVSPropertyOp28
 70
     1
102
RTVSPropertyOp29
 70
     1
102
RTVSPropertyOp30
 70
     1
102
RTVSPropertyOp31
 70
     1
102
RTVSPropertyOp32
 70
     1
102
RTVSPropertyOp33
 70
     1
102
RTVSPropertyOp34
 70
     1
102
RTVSPropertyOp35
 70
     1
102
RTVSPropertyOp36
 70
     1
102
RTVSPropertyOp37
 70
     1
102
RTVSPropertyOp38
 70
     1
102
RTVSPropertyOp39
 70
     1
102
RTVSPropertyOp40
 70
     1
102
RTVSPropertyOp41
 70
     1
102
RTVSPropertyOp42
 70
     1
102
RTVSPropertyOp43
 70
     1
102
RTVSPropertyOp44
 70
     1
102
RTVSPropertyOp45
 70
     1
102
RTVSPropertyOp46
 70
     1
102
RTVSPropertyOp47
 70
     1
102
RTVSPropertyOp48
 70
     1
102
RTVSPropertyOp49
 70
     1
102
RTVSPropertyOp50
 70
     1
102
RTVSPropertyOp51
 70
     0
102
RTVSPropertyOp52
 70
     0
102
RTVSPropertyOp53
 70
     1
102
RTVSPropertyOp54
 70
     1
102
RTVSPropertyOp55
 70
     1
102
RTVSPropertyOp56
 70
     1
102
RTVSPropertyOp57
 70
     1
102
RTVSPropertyOp58
 70
     1
102
RTVSPropertyOp59
 70
     1
102
RTVSPropertyOp60
 70
     1
102
RTVSPropertyOp61
 70
     1
102
RTVSPropertyOp62
 70
     1
  0
XRECORD
  5
A2A6
102
{ACAD_REACTORS
330
A2A5
102
}
330
A2A5
100
AcDbXrecord
280
     1
102
RTVSPost2010Prop28
280
     0
102
RTVSPost2010PropOp28
 70
     1
102
RTVSPost2010Prop29
280
     1
102
RTVSPost2010PropOp29
 70
     1
102
RTVSPost2010Prop30
280
     1
102
RTVSPost2010PropOp30
 70
     1
102
RTVSPost2010Prop31
280
     0
102
RTVSPost2010PropOp31
 70
     1
102
RTVSPost2010Prop32
280
     0
102
RTVSPost2010PropOp32
 70
     1
102
RTVSPost2010Prop33
280
     0
102
RTVSPost2010PropOp33
 70
     1
102
RTVSPost2010Prop34
280
     0
102
RTVSPost2010PropOp34
 70
     1
102
RTVSPost2010Prop35
280
     0
102
RTVSPost2010PropOp35
 70
     1
102
RTVSPost2010Prop36
280
     0
102
RTVSPost2010PropOp36
 70
     1
102
RTVSPost2010Prop37
 90
       50
102
RTVSPost2010PropOp37
 70
     1
102
RTVSPost2010Prop38
140
0.0
102
RTVSPost2010PropOp38
 70
     1
102
RTVSPost2010Prop39
140
1.0
102
RTVSPost2010PropOp39
 70
     1
102
RTVSPost2010Prop40
 90
        0
102
RTVSPost2010PropOp40
 70
     1
102
RTVSPost2010Prop41ColorIndex
 90
       18
102
RTVSPost2010Prop41ColorRGB
 90
        0
102
RTVSPost2010PropOp41
 70
     1
102
RTVSPost2010Prop42
 90
       50
102
RTVSPost2010PropOp42
 70
     1
102
RTVSPost2010Prop43
 90
        3
102
RTVSPost2010PropOp43
 70
     1
102
RTVSPost2010Prop44ColorIndex
 90
        5
102
RTVSPost2010Prop44ColorRGB
 90
      255
102
RTVSPost2010PropOp44
 70
     1
102
RTVSPost2010Prop45
280
     0
102
RTVSPost2010PropOp45
 70
     1
102
RTVSPost2010Prop46
 90
       50
102
RTVSPost2010PropOp46
 70
     1
102
RTVSPost2010Prop47
 90
       50
102
RTVSPost2010PropOp47
 70
     1
102
RTVSPost2010Prop48
 90
       50
102
RTVSPost2010PropOp48
 70
     1
102
RTVSPost2010Prop49
280
     0
102
RTVSPost2010PropOp49
 70
     1
102
RTVSPost2010Prop50
 90
       50
102
RTVSPost2010PropOp50
 70
     1
102
RTVSPost2010Prop51ColorIndex
 90
      256
102
RTVSPost2010Prop51ColorRGB
 90
-16777216
102
RTVSPost2010PropOp51
 70
     0
102
RTVSPost2010Prop52
140
1.0
102
RTVSPost2010PropOp52
 70
     0
102
RTVSPost2010Prop53
 90
        2
102
RTVSPost2010PropOp53
 70
     1
102
RTVSPost2010Prop54
  1
strokes_ogs.tif
102
RTVSPost2010PropOp54
 70
     1
102
RTVSPost2010Prop55
280
     0
102
RTVSPost2010PropOp55
 70
     1
102
RTVSPost2010Prop56
140
1.0
102
RTVSPost2010PropOp56
 70
     1
102
RTVSPost2010Prop57
140
1.0
102
RTVSPost2010PropOp57
 70
     1
102
RTVSPropertyOp0
 70
     1
102
RTVSPropertyOp1
 70
     1
102
RTVSPropertyOp2
 70
     1
102
RTVSPropertyOp3
 70
     1
102
RTVSPropertyOp4
 70
     1
102
RTVSPropertyOp5
 70
     1
102
RTVSPropertyOp6
 70
     1
102
RTVSPropertyOp7
 70
     1
102
RTVSPropertyOp8
 70
     1
102
RTVSPropertyOp9
 70
     1
102
RTVSPropertyOp10
 70
     1
102
RTVSPropertyOp11
 70
     1
102
RTVSPropertyOp12
 70
     1
102
RTVSPropertyOp13
 70
     1
102
RTVSPropertyOp14
 70
     1
102
RTVSPropertyOp15
 70
     1
102
RTVSPropertyOp16
 70
     1
102
RTVSPropertyOp17
 70
     1
102
RTVSPropertyOp18
 70
     1
102
RTVSPropertyOp19
 70
     1
102
RTVSPropertyOp20
 70
     1
102
RTVSPropertyOp21
 70
     1
102
RTVSPropertyOp22
 70
     1
102
RTVSPropertyOp23
 70
     1
102
RTVSPropertyOp24
 70
     1
102
RTVSPropertyOp25
 70
     1
102
RTVSPropertyOp26
 70
     1
102
RTVSPropertyOp27
 70
     1
102
RTVSPropertyOp28
 70
     1
102
RTVSPropertyOp29
 70
     1
102
RTVSPropertyOp30
 70
     1
102
RTVSPropertyOp31
 70
     1
102
RTVSPropertyOp32
 70
     1
102
RTVSPropertyOp33
 70
     1
102
RTVSPropertyOp34
 70
     1
102
RTVSPropertyOp35
 70
     1
102
RTVSPropertyOp36
 70
     1
102
RTVSPropertyOp37
 70
     1
102
RTVSPropertyOp38
 70
     1
102
RTVSPropertyOp39
 70
     1
102
RTVSPropertyOp40
 70
     1
102
RTVSPropertyOp41
 70
     1
102
RTVSPropertyOp42
 70
     1
102
RTVSPropertyOp43
 70
     1
102
RTVSPropertyOp44
 70
     1
102
RTVSPropertyOp45
 70
     1
102
RTVSPropertyOp46
 70
     1
102
RTVSPropertyOp47
 70
     1
102
RTVSPropertyOp48
 70
     1
102
RTVSPropertyOp49
 70
     1
102
RTVSPropertyOp50
 70
     1
102
RTVSPropertyOp51
 70
     0
102
RTVSPropertyOp52
 70
     0
102
RTVSPropertyOp53
 70
     1
102
RTVSPropertyOp54
 70
     1
102
RTVSPropertyOp55
 70
     1
102
RTVSPropertyOp56
 70
     1
102
RTVSPropertyOp57
 70
     1
102
RTVSPropertyOp58
 70
     1
102
RTVSPropertyOp59
 70
     1
102
RTVSPropertyOp60
 70
     1
102
RTVSPropertyOp61
 70
     1
102
RTVSPropertyOp62
 70
     1
  0
XRECORD
  5
A2A8
102
{ACAD_REACTORS
330
A2A7
102
}
330
A2A7
100
AcDbXrecord
280
     1
102
RTVSPost2010Prop28
280
     0
102
RTVSPost2010PropOp28
 70
     1
102
RTVSPost2010Prop29
280
     1
102
RTVSPost2010PropOp29
 70
     1
102
RTVSPost2010Prop30
280
     1
102
RTVSPost2010PropOp30
 70
     1
102
RTVSPost2010Prop31
280
     0
102
RTVSPost2010PropOp31
 70
     1
102
RTVSPost2010Prop32
280
     0
102
RTVSPost2010PropOp32
 70
     1
102
RTVSPost2010Prop33
280
     0
102
RTVSPost2010PropOp33
 70
     1
102
RTVSPost2010Prop34
280
     0
102
RTVSPost2010PropOp34
 70
     1
102
RTVSPost2010Prop35
280
     0
102
RTVSPost2010PropOp35
 70
     1
102
RTVSPost2010Prop36
280
     0
102
RTVSPost2010PropOp36
 70
     1
102
RTVSPost2010Prop37
 90
       50
102
RTVSPost2010PropOp37
 70
     1
102
RTVSPost2010Prop38
140
0.0
102
RTVSPost2010PropOp38
 70
     1
102
RTVSPost2010Prop39
140
1.0
102
RTVSPost2010PropOp39
 70
     1
102
RTVSPost2010Prop40
 90
        0
102
RTVSPost2010PropOp40
 70
     1
102
RTVSPost2010Prop41ColorIndex
 90
       18
102
RTVSPost2010Prop41ColorRGB
 90
        0
102
RTVSPost2010PropOp41
 70
     1
102
RTVSPost2010Prop42
 90
       50
102
RTVSPost2010PropOp42
 70
     1
102
RTVSPost2010Prop43
 90
        3
102
RTVSPost2010PropOp43
 70
     1
102
RTVSPost2010Prop44ColorIndex
 90
        5
102
RTVSPost2010Prop44ColorRGB
 90
      255
102
RTVSPost2010PropOp44
 70
     1
102
RTVSPost2010Prop45
280
     0
102
RTVSPost2010PropOp45
 70
     1
102
RTVSPost2010Prop46
 90
       50
102
RTVSPost2010PropOp46
 70
     1
102
RTVSPost2010Prop47
 90
       50
102
RTVSPost2010PropOp47
 70
     1
102
RTVSPost2010Prop48
 90
       50
102
RTVSPost2010PropOp48
 70
     1
102
RTVSPost2010Prop49
280
     0
102
RTVSPost2010PropOp49
 70
     1
102
RTVSPost2010Prop50
 90
       50
102
RTVSPost2010PropOp50
 70
     1
102
RTVSPost2010Prop51ColorIndex
 90
      256
102
RTVSPost2010Prop51ColorRGB
 90
-16777216
102
RTVSPost2010PropOp51
 70
     0
102
RTVSPost2010Prop52
140
1.0
102
RTVSPost2010PropOp52
 70
     0
102
RTVSPost2010Prop53
 90
        2
102
RTVSPost2010PropOp53
 70
     1
102
RTVSPost2010Prop54
  1
strokes_ogs.tif
102
RTVSPost2010PropOp54
 70
     1
102
RTVSPost2010Prop55
280
     0
102
RTVSPost2010PropOp55
 70
     1
102
RTVSPost2010Prop56
140
1.0
102
RTVSPost2010PropOp56
 70
     1
102
RTVSPost2010Prop57
140
1.0
102
RTVSPost2010PropOp57
 70
     1
102
RTVSPropertyOp0
 70
     1
102
RTVSPropertyOp1
 70
     1
102
RTVSPropertyOp2
 70
     1
102
RTVSPropertyOp3
 70
     1
102
RTVSPropertyOp4
 70
     1
102
RTVSPropertyOp5
 70
     1
102
RTVSPropertyOp6
 70
     1
102
RTVSPropertyOp7
 70
     1
102
RTVSPropertyOp8
 70
     1
102
RTVSPropertyOp9
 70
     1
102
RTVSPropertyOp10
 70
     1
102
RTVSPropertyOp11
 70
     1
102
RTVSPropertyOp12
 70
     1
102
RTVSPropertyOp13
 70
     1
102
RTVSPropertyOp14
 70
     1
102
RTVSPropertyOp15
 70
     1
102
RTVSPropertyOp16
 70
     1
102
RTVSPropertyOp17
 70
     1
102
RTVSPropertyOp18
 70
     1
102
RTVSPropertyOp19
 70
     1
102
RTVSPropertyOp20
 70
     1
102
RTVSPropertyOp21
 70
     1
102
RTVSPropertyOp22
 70
     1
102
RTVSPropertyOp23
 70
     1
102
RTVSPropertyOp24
 70
     1
102
RTVSPropertyOp25
 70
     1
102
RTVSPropertyOp26
 70
     1
102
RTVSPropertyOp27
 70
     1
102
RTVSPropertyOp28
 70
     1
102
RTVSPropertyOp29
 70
     1
102
RTVSPropertyOp30
 70
     1
102
RTVSPropertyOp31
 70
     1
102
RTVSPropertyOp32
 70
     1
102
RTVSPropertyOp33
 70
     1
102
RTVSPropertyOp34
 70
     1
102
RTVSPropertyOp35
 70
     1
102
RTVSPropertyOp36
 70
     1
102
RTVSPropertyOp37
 70
     1
102
RTVSPropertyOp38
 70
     1
102
RTVSPropertyOp39
 70
     1
102
RTVSPropertyOp40
 70
     1
102
RTVSPropertyOp41
 70
     1
102
RTVSPropertyOp42
 70
     1
102
RTVSPropertyOp43
 70
     1
102
RTVSPropertyOp44
 70
     1
102
RTVSPropertyOp45
 70
     1
102
RTVSPropertyOp46
 70
     1
102
RTVSPropertyOp47
 70
     1
102
RTVSPropertyOp48
 70
     1
102
RTVSPropertyOp49
 70
     1
102
RTVSPropertyOp50
 70
     1
102
RTVSPropertyOp51
 70
     0
102
RTVSPropertyOp52
 70
     0
102
RTVSPropertyOp53
 70
     1
102
RTVSPropertyOp54
 70
     1
102
RTVSPropertyOp55
 70
     1
102
RTVSPropertyOp56
 70
     1
102
RTVSPropertyOp57
 70
     1
102
RTVSPropertyOp58
 70
     1
102
RTVSPropertyOp59
 70
     1
102
RTVSPropertyOp60
 70
     1
102
RTVSPropertyOp61
 70
     1
102
RTVSPropertyOp62
 70
     1
  0
XRECORD
  5
A2AA
102
{ACAD_REACTORS
330
A2A9
102
}
330
A2A9
100
AcDbXrecord
280
     1
102
RTVSPost2010Prop28
280
     0
102
RTVSPost2010PropOp28
 70
     1
102
RTVSPost2010Prop29
280
     1
102
RTVSPost2010PropOp29
 70
     1
102
RTVSPost2010Prop30
280
     1
102
RTVSPost2010PropOp30
 70
     1
102
RTVSPost2010Prop31
280
     0
102
RTVSPost2010PropOp31
 70
     1
102
RTVSPost2010Prop32
280
     0
102
RTVSPost2010PropOp32
 70
     1
102
RTVSPost2010Prop33
280
     0
102
RTVSPost2010PropOp33
 70
     1
102
RTVSPost2010Prop34
280
     0
102
RTVSPost2010PropOp34
 70
     1
102
RTVSPost2010Prop35
280
     0
102
RTVSPost2010PropOp35
 70
     1
102
RTVSPost2010Prop36
280
     0
102
RTVSPost2010PropOp36
 70
     1
102
RTVSPost2010Prop37
 90
       50
102
RTVSPost2010PropOp37
 70
     1
102
RTVSPost2010Prop38
140
0.0
102
RTVSPost2010PropOp38
 70
     1
102
RTVSPost2010Prop39
140
1.0
102
RTVSPost2010PropOp39
 70
     1
102
RTVSPost2010Prop40
 90
        0
102
RTVSPost2010PropOp40
 70
     1
102
RTVSPost2010Prop41ColorIndex
 90
       18
102
RTVSPost2010Prop41ColorRGB
 90
        0
102
RTVSPost2010PropOp41
 70
     1
102
RTVSPost2010Prop42
 90
       50
102
RTVSPost2010PropOp42
 70
     1
102
RTVSPost2010Prop43
 90
        3
102
RTVSPost2010PropOp43
 70
     1
102
RTVSPost2010Prop44ColorIndex
 90
        5
102
RTVSPost2010Prop44ColorRGB
 90
      255
102
RTVSPost2010PropOp44
 70
     1
102
RTVSPost2010Prop45
280
     0
102
RTVSPost2010PropOp45
 70
     1
102
RTVSPost2010Prop46
 90
       50
102
RTVSPost2010PropOp46
 70
     1
102
RTVSPost2010Prop47
 90
       50
102
RTVSPost2010PropOp47
 70
     1
102
RTVSPost2010Prop48
 90
       50
102
RTVSPost2010PropOp48
 70
     1
102
RTVSPost2010Prop49
280
     0
102
RTVSPost2010PropOp49
 70
     1
102
RTVSPost2010Prop50
 90
       50
102
RTVSPost2010PropOp50
 70
     1
102
RTVSPost2010Prop51ColorIndex
 90
      256
102
RTVSPost2010Prop51ColorRGB
 90
-16777216
102
RTVSPost2010PropOp51
 70
     0
102
RTVSPost2010Prop52
140
1.0
102
RTVSPost2010PropOp52
 70
     0
102
RTVSPost2010Prop53
 90
        2
102
RTVSPost2010PropOp53
 70
     1
102
RTVSPost2010Prop54
  1
strokes_ogs.tif
102
RTVSPost2010PropOp54
 70
     1
102
RTVSPost2010Prop55
280
     0
102
RTVSPost2010PropOp55
 70
     1
102
RTVSPost2010Prop56
140
1.0
102
RTVSPost2010PropOp56
 70
     1
102
RTVSPost2010Prop57
140
1.0
102
RTVSPost2010PropOp57
 70
     1
102
RTVSPropertyOp0
 70
     1
102
RTVSPropertyOp1
 70
     1
102
RTVSPropertyOp2
 70
     1
102
RTVSPropertyOp3
 70
     1
102
RTVSPropertyOp4
 70
     1
102
RTVSPropertyOp5
 70
     1
102
RTVSPropertyOp6
 70
     1
102
RTVSPropertyOp7
 70
     1
102
RTVSPropertyOp8
 70
     1
102
RTVSPropertyOp9
 70
     1
102
RTVSPropertyOp10
 70
     1
102
RTVSPropertyOp11
 70
     1
102
RTVSPropertyOp12
 70
     1
102
RTVSPropertyOp13
 70
     1
102
RTVSPropertyOp14
 70
     1
102
RTVSPropertyOp15
 70
     1
102
RTVSPropertyOp16
 70
     1
102
RTVSPropertyOp17
 70
     1
102
RTVSPropertyOp18
 70
     1
102
RTVSPropertyOp19
 70
     1
102
RTVSPropertyOp20
 70
     1
102
RTVSPropertyOp21
 70
     1
102
RTVSPropertyOp22
 70
     1
102
RTVSPropertyOp23
 70
     1
102
RTVSPropertyOp24
 70
     1
102
RTVSPropertyOp25
 70
     1
102
RTVSPropertyOp26
 70
     1
102
RTVSPropertyOp27
 70
     1
102
RTVSPropertyOp28
 70
     1
102
RTVSPropertyOp29
 70
     1
102
RTVSPropertyOp30
 70
     1
102
RTVSPropertyOp31
 70
     1
102
RTVSPropertyOp32
 70
     1
102
RTVSPropertyOp33
 70
     1
102
RTVSPropertyOp34
 70
     1
102
RTVSPropertyOp35
 70
     1
102
RTVSPropertyOp36
 70
     1
102
RTVSPropertyOp37
 70
     1
102
RTVSPropertyOp38
 70
     1
102
RTVSPropertyOp39
 70
     1
102
RTVSPropertyOp40
 70
     1
102
RTVSPropertyOp41
 70
     1
102
RTVSPropertyOp42
 70
     1
102
RTVSPropertyOp43
 70
     1
102
RTVSPropertyOp44
 70
     1
102
RTVSPropertyOp45
 70
     1
102
RTVSPropertyOp46
 70
     1
102
RTVSPropertyOp47
 70
     1
102
RTVSPropertyOp48
 70
     1
102
RTVSPropertyOp49
 70
     1
102
RTVSPropertyOp50
 70
     1
102
RTVSPropertyOp51
 70
     0
102
RTVSPropertyOp52
 70
     0
102
RTVSPropertyOp53
 70
     1
102
RTVSPropertyOp54
 70
     1
102
RTVSPropertyOp55
 70
     1
102
RTVSPropertyOp56
 70
     1
102
RTVSPropertyOp57
 70
     1
102
RTVSPropertyOp58
 70
     1
102
RTVSPropertyOp59
 70
     1
102
RTVSPropertyOp60
 70
     1
102
RTVSPropertyOp61
 70
     1
102
RTVSPropertyOp62
 70
     1
  0
XRECORD
  5
A2B2
102
{ACAD_REACTORS
330
A2B1
102
}
330
A2B1
100
AcDbXrecord
280
     1
102
RTVSPost2010Prop28
280
     0
102
RTVSPost2010PropOp28
 70
     1
102
RTVSPost2010Prop29
280
     1
102
RTVSPost2010PropOp29
 70
     1
102
RTVSPost2010Prop30
280
     1
102
RTVSPost2010PropOp30
 70
     1
102
RTVSPost2010Prop31
280
     0
102
RTVSPost2010PropOp31
 70
     1
102
RTVSPost2010Prop32
280
     0
102
RTVSPost2010PropOp32
 70
     1
102
RTVSPost2010Prop33
280
     0
102
RTVSPost2010PropOp33
 70
     1
102
RTVSPost2010Prop34
280
     0
102
RTVSPost2010PropOp34
 70
     1
102
RTVSPost2010Prop35
280
     0
102
RTVSPost2010PropOp35
 70
     1
102
RTVSPost2010Prop36
280
     0
102
RTVSPost2010PropOp36
 70
     1
102
RTVSPost2010Prop37
 90
       50
102
RTVSPost2010PropOp37
 70
     1
102
RTVSPost2010Prop38
140
0.0
102
RTVSPost2010PropOp38
 70
     1
102
RTVSPost2010Prop39
140
1.0
102
RTVSPost2010PropOp39
 70
     1
102
RTVSPost2010Prop40
 90
        0
102
RTVSPost2010PropOp40
 70
     1
102
RTVSPost2010Prop41ColorIndex
 90
       18
102
RTVSPost2010Prop41ColorRGB
 90
        0
102
RTVSPost2010PropOp41
 70
     1
102
RTVSPost2010Prop42
 90
       50
102
RTVSPost2010PropOp42
 70
     1
102
RTVSPost2010Prop43
 90
        3
102
RTVSPost2010PropOp43
 70
     1
102
RTVSPost2010Prop44ColorIndex
 90
        5
102
RTVSPost2010Prop44ColorRGB
 90
      255
102
RTVSPost2010PropOp44
 70
     1
102
RTVSPost2010Prop45
280
     0
102
RTVSPost2010PropOp45
 70
     1
102
RTVSPost2010Prop46
 90
       50
102
RTVSPost2010PropOp46
 70
     1
102
RTVSPost2010Prop47
 90
       50
102
RTVSPost2010PropOp47
 70
     1
102
RTVSPost2010Prop48
 90
       50
102
RTVSPost2010PropOp48
 70
     1
102
RTVSPost2010Prop49
280
     0
102
RTVSPost2010PropOp49
 70
     1
102
RTVSPost2010Prop50
 90
       50
102
RTVSPost2010PropOp50
 70
     1
102
RTVSPost2010Prop51ColorIndex
 90
      256
102
RTVSPost2010Prop51ColorRGB
 90
-16777216
102
RTVSPost2010PropOp51
 70
     0
102
RTVSPost2010Prop52
140
1.0
102
RTVSPost2010PropOp52
 70
     0
102
RTVSPost2010Prop53
 90
        2
102
RTVSPost2010PropOp53
 70
     1
102
RTVSPost2010Prop54
  1
strokes_ogs.tif
102
RTVSPost2010PropOp54
 70
     1
102
RTVSPost2010Prop55
280
     0
102
RTVSPost2010PropOp55
 70
     1
102
RTVSPost2010Prop56
140
1.0
102
RTVSPost2010PropOp56
 70
     1
102
RTVSPost2010Prop57
140
1.0
102
RTVSPost2010PropOp57
 70
     1
102
RTVSPropertyOp0
 70
     1
102
RTVSPropertyOp1
 70
     1
102
RTVSPropertyOp2
 70
     1
102
RTVSPropertyOp3
 70
     1
102
RTVSPropertyOp4
 70
     1
102
RTVSPropertyOp5
 70
     1
102
RTVSPropertyOp6
 70
     1
102
RTVSPropertyOp7
 70
     1
102
RTVSPropertyOp8
 70
     1
102
RTVSPropertyOp9
 70
     1
102
RTVSPropertyOp10
 70
     1
102
RTVSPropertyOp11
 70
     1
102
RTVSPropertyOp12
 70
     1
102
RTVSPropertyOp13
 70
     1
102
RTVSPropertyOp14
 70
     1
102
RTVSPropertyOp15
 70
     1
102
RTVSPropertyOp16
 70
     1
102
RTVSPropertyOp17
 70
     1
102
RTVSPropertyOp18
 70
     1
102
RTVSPropertyOp19
 70
     1
102
RTVSPropertyOp20
 70
     1
102
RTVSPropertyOp21
 70
     1
102
RTVSPropertyOp22
 70
     1
102
RTVSPropertyOp23
 70
     1
102
RTVSPropertyOp24
 70
     1
102
RTVSPropertyOp25
 70
     1
102
RTVSPropertyOp26
 70
     1
102
RTVSPropertyOp27
 70
     1
102
RTVSPropertyOp28
 70
     1
102
RTVSPropertyOp29
 70
     1
102
RTVSPropertyOp30
 70
     1
102
RTVSPropertyOp31
 70
     1
102
RTVSPropertyOp32
 70
     1
102
RTVSPropertyOp33
 70
     1
102
RTVSPropertyOp34
 70
     1
102
RTVSPropertyOp35
 70
     1
102
RTVSPropertyOp36
 70
     1
102
RTVSPropertyOp37
 70
     1
102
RTVSPropertyOp38
 70
     1
102
RTVSPropertyOp39
 70
     1
102
RTVSPropertyOp40
 70
     1
102
RTVSPropertyOp41
 70
     1
102
RTVSPropertyOp42
 70
     1
102
RTVSPropertyOp43
 70
     1
102
RTVSPropertyOp44
 70
     1
102
RTVSPropertyOp45
 70
     1
102
RTVSPropertyOp46
 70
     1
102
RTVSPropertyOp47
 70
     1
102
RTVSPropertyOp48
 70
     1
102
RTVSPropertyOp49
 70
     1
102
RTVSPropertyOp50
 70
     1
102
RTVSPropertyOp51
 70
     0
102
RTVSPropertyOp52
 70
     0
102
RTVSPropertyOp53
 70
     1
102
RTVSPropertyOp54
 70
     1
102
RTVSPropertyOp55
 70
     1
102
RTVSPropertyOp56
 70
     1
102
RTVSPropertyOp57
 70
     1
102
RTVSPropertyOp58
 70
     1
102
RTVSPropertyOp59
 70
     1
102
RTVSPropertyOp60
 70
     1
102
RTVSPropertyOp61
 70
     1
102
RTVSPropertyOp62
 70
     1
  0
XRECORD
  5
A2CE
102
{ACAD_REACTORS
330
A2CD
102
}
330
A2CD
100
AcDbXrecord
280
     1
102
RTVSPost2010Prop28
280
     0
102
RTVSPost2010PropOp28
 70
     1
102
RTVSPost2010Prop29
280
     1
102
RTVSPost2010PropOp29
 70
     1
102
RTVSPost2010Prop30
280
     1
102
RTVSPost2010PropOp30
 70
     1
102
RTVSPost2010Prop31
280
     0
102
RTVSPost2010PropOp31
 70
     1
102
RTVSPost2010Prop32
280
     0
102
RTVSPost2010PropOp32
 70
     1
102
RTVSPost2010Prop33
280
     0
102
RTVSPost2010PropOp33
 70
     1
102
RTVSPost2010Prop34
280
     0
102
RTVSPost2010PropOp34
 70
     1
102
RTVSPost2010Prop35
280
     0
102
RTVSPost2010PropOp35
 70
     1
102
RTVSPost2010Prop36
280
     0
102
RTVSPost2010PropOp36
 70
     1
102
RTVSPost2010Prop37
 90
       50
102
RTVSPost2010PropOp37
 70
     0
102
RTVSPost2010Prop38
140
0.0
102
RTVSPost2010PropOp38
 70
     0
102
RTVSPost2010Prop39
140
1.0
102
RTVSPost2010PropOp39
 70
     0
102
RTVSPost2010Prop40
 90
        0
102
RTVSPost2010PropOp40
 70
     0
102
RTVSPost2010Prop41ColorIndex
 90
       18
102
RTVSPost2010Prop41ColorRGB
 90
        0
102
RTVSPost2010PropOp41
 70
     0
102
RTVSPost2010Prop42
 90
       50
102
RTVSPost2010PropOp42
 70
     0
102
RTVSPost2010Prop43
 90
        3
102
RTVSPost2010PropOp43
 70
     0
102
RTVSPost2010Prop44ColorIndex
 90
        5
102
RTVSPost2010Prop44ColorRGB
 90
      255
102
RTVSPost2010PropOp44
 70
     0
102
RTVSPost2010Prop45
280
     0
102
RTVSPost2010PropOp45
 70
     1
102
RTVSPost2010Prop46
 90
       50
102
RTVSPost2010PropOp46
 70
     0
102
RTVSPost2010Prop47
 90
       50
102
RTVSPost2010PropOp47
 70
     0
102
RTVSPost2010Prop48
 90
       50
102
RTVSPost2010PropOp48
 70
     0
102
RTVSPost2010Prop49
280
     0
102
RTVSPost2010PropOp49
 70
     1
102
RTVSPost2010Prop50
 90
       50
102
RTVSPost2010PropOp50
 70
     0
102
RTVSPost2010Prop51ColorIndex
 90
      256
102
RTVSPost2010Prop51ColorRGB
 90
-16777216
102
RTVSPost2010PropOp51
 70
     0
102
RTVSPost2010Prop52
140
1.0
102
RTVSPost2010PropOp52
 70
     0
102
RTVSPost2010Prop53
 90
        2
102
RTVSPost2010PropOp53
 70
     0
102
RTVSPost2010Prop54
  1
strokes_ogs.tif
102
RTVSPost2010PropOp54
 70
     0
102
RTVSPost2010Prop55
280
     0
102
RTVSPost2010PropOp55
 70
     1
102
RTVSPost2010Prop56
140
1.0
102
RTVSPost2010PropOp56
 70
     0
102
RTVSPost2010Prop57
140
1.0
102
RTVSPost2010PropOp57
 70
     0
102
RTVSPropertyOp0
 70
     0
102
RTVSPropertyOp1
 70
     0
102
RTVSPropertyOp2
 70
     0
102
RTVSPropertyOp3
 70
     0
102
RTVSPropertyOp4
 70
     0
102
RTVSPropertyOp5
 70
     0
102
RTVSPropertyOp6
 70
     0
102
RTVSPropertyOp7
 70
     0
102
RTVSPropertyOp8
 70
     0
102
RTVSPropertyOp9
 70
     0
102
RTVSPropertyOp10
 70
     0
102
RTVSPropertyOp11
 70
     0
102
RTVSPropertyOp12
 70
     0
102
RTVSPropertyOp13
 70
     0
102
RTVSPropertyOp14
 70
     2
102
RTVSPropertyOp15
 70
     0
102
RTVSPropertyOp16
 70
     0
102
RTVSPropertyOp17
 70
     0
102
RTVSPropertyOp18
 70
     0
102
RTVSPropertyOp19
 70
     0
102
RTVSPropertyOp20
 70
     0
102
RTVSPropertyOp21
 70
     0
102
RTVSPropertyOp22
 70
     0
102
RTVSPropertyOp23
 70
     0
102
RTVSPropertyOp24
 70
     0
102
RTVSPropertyOp25
 70
     0
102
RTVSPropertyOp26
 70
     0
102
RTVSPropertyOp27
 70
     0
102
RTVSPropertyOp28
 70
     1
102
RTVSPropertyOp29
 70
     1
102
RTVSPropertyOp30
 70
     1
102
RTVSPropertyOp31
 70
     1
102
RTVSPropertyOp32
 70
     1
102
RTVSPropertyOp33
 70
     1
102
RTVSPropertyOp34
 70
     1
102
RTVSPropertyOp35
 70
     1
102
RTVSPropertyOp36
 70
     1
102
RTVSPropertyOp37
 70
     0
102
RTVSPropertyOp38
 70
     0
102
RTVSPropertyOp39
 70
     0
102
RTVSPropertyOp40
 70
     0
102
RTVSPropertyOp41
 70
     0
102
RTVSPropertyOp42
 70
     0
102
RTVSPropertyOp43
 70
     0
102
RTVSPropertyOp44
 70
     0
102
RTVSPropertyOp45
 70
     1
102
RTVSPropertyOp46
 70
     0
102
RTVSPropertyOp47
 70
     0
102
RTVSPropertyOp48
 70
     0
102
RTVSPropertyOp49
 70
     1
102
RTVSPropertyOp50
 70
     0
102
RTVSPropertyOp51
 70
     0
102
RTVSPropertyOp52
 70
     0
102
RTVSPropertyOp53
 70
     0
102
RTVSPropertyOp54
 70
     0
102
RTVSPropertyOp55
 70
     1
102
RTVSPropertyOp56
 70
     0
102
RTVSPropertyOp57
 70
     0
102
RTVSPropertyOp58
 70
     0
102
RTVSPropertyOp59
 70
     0
102
RTVSPropertyOp60
 70
     0
102
RTVSPropertyOp61
 70
     0
102
RTVSPropertyOp62
 70
     0
  0
XRECORD
  5
A2BE
102
{ACAD_REACTORS
330
A2BD
102
}
330
A2BD
100
AcDbXrecord
280
     1
102
RTVSPost2010Prop28
280
     0
102
RTVSPost2010PropOp28
 70
     1
102
RTVSPost2010Prop29
280
     1
102
RTVSPost2010PropOp29
 70
     1
102
RTVSPost2010Prop30
280
     1
102
RTVSPost2010PropOp30
 70
     1
102
RTVSPost2010Prop31
280
     0
102
RTVSPost2010PropOp31
 70
     1
102
RTVSPost2010Prop32
280
     0
102
RTVSPost2010PropOp32
 70
     1
102
RTVSPost2010Prop33
280
     0
102
RTVSPost2010PropOp33
 70
     1
102
RTVSPost2010Prop34
280
     0
102
RTVSPost2010PropOp34
 70
     1
102
RTVSPost2010Prop35
280
     0
102
RTVSPost2010PropOp35
 70
     1
102
RTVSPost2010Prop36
280
     0
102
RTVSPost2010PropOp36
 70
     1
102
RTVSPost2010Prop37
 90
       50
102
RTVSPost2010PropOp37
 70
     1
102
RTVSPost2010Prop38
140
0.0
102
RTVSPost2010PropOp38
 70
     1
102
RTVSPost2010Prop39
140
1.0
102
RTVSPost2010PropOp39
 70
     1
102
RTVSPost2010Prop40
 90
        0
102
RTVSPost2010PropOp40
 70
     1
102
RTVSPost2010Prop41ColorIndex
 90
       18
102
RTVSPost2010Prop41ColorRGB
 90
        0
102
RTVSPost2010PropOp41
 70
     1
102
RTVSPost2010Prop42
 90
       50
102
RTVSPost2010PropOp42
 70
     1
102
RTVSPost2010Prop43
 90
        3
102
RTVSPost2010PropOp43
 70
     1
102
RTVSPost2010Prop44ColorIndex
 90
        5
102
RTVSPost2010Prop44ColorRGB
 90
      255
102
RTVSPost2010PropOp44
 70
     1
102
RTVSPost2010Prop45
280
     0
102
RTVSPost2010PropOp45
 70
     1
102
RTVSPost2010Prop46
 90
       50
102
RTVSPost2010PropOp46
 70
     1
102
RTVSPost2010Prop47
 90
       50
102
RTVSPost2010PropOp47
 70
     1
102
RTVSPost2010Prop48
 90
       50
102
RTVSPost2010PropOp48
 70
     1
102
RTVSPost2010Prop49
280
     0
102
RTVSPost2010PropOp49
 70
     1
102
RTVSPost2010Prop50
 90
       50
102
RTVSPost2010PropOp50
 70
     1
102
RTVSPost2010Prop51ColorIndex
 90
      256
102
RTVSPost2010Prop51ColorRGB
 90
-16777216
102
RTVSPost2010PropOp51
 70
     0
102
RTVSPost2010Prop52
140
1.0
102
RTVSPost2010PropOp52
 70
     0
102
RTVSPost2010Prop53
 90
        2
102
RTVSPost2010PropOp53
 70
     1
102
RTVSPost2010Prop54
  1
strokes_ogs.tif
102
RTVSPost2010PropOp54
 70
     1
102
RTVSPost2010Prop55
280
     0
102
RTVSPost2010PropOp55
 70
     1
102
RTVSPost2010Prop56
140
1.0
102
RTVSPost2010PropOp56
 70
     1
102
RTVSPost2010Prop57
140
1.0
102
RTVSPost2010PropOp57
 70
     1
102
RTVSPropertyOp0
 70
     1
102
RTVSPropertyOp1
 70
     1
102
RTVSPropertyOp2
 70
     1
102
RTVSPropertyOp3
 70
     1
102
RTVSPropertyOp4
 70
     1
102
RTVSPropertyOp5
 70
     1
102
RTVSPropertyOp6
 70
     1
102
RTVSPropertyOp7
 70
     1
102
RTVSPropertyOp8
 70
     1
102
RTVSPropertyOp9
 70
     1
102
RTVSPropertyOp10
 70
     1
102
RTVSPropertyOp11
 70
     1
102
RTVSPropertyOp12
 70
     1
102
RTVSPropertyOp13
 70
     1
102
RTVSPropertyOp14
 70
     1
102
RTVSPropertyOp15
 70
     1
102
RTVSPropertyOp16
 70
     1
102
RTVSPropertyOp17
 70
     1
102
RTVSPropertyOp18
 70
     1
102
RTVSPropertyOp19
 70
     1
102
RTVSPropertyOp20
 70
     1
102
RTVSPropertyOp21
 70
     1
102
RTVSPropertyOp22
 70
     1
102
RTVSPropertyOp23
 70
     1
102
RTVSPropertyOp24
 70
     1
102
RTVSPropertyOp25
 70
     1
102
RTVSPropertyOp26
 70
     1
102
RTVSPropertyOp27
 70
     1
102
RTVSPropertyOp28
 70
     1
102
RTVSPropertyOp29
 70
     1
102
RTVSPropertyOp30
 70
     1
102
RTVSPropertyOp31
 70
     1
102
RTVSPropertyOp32
 70
     1
102
RTVSPropertyOp33
 70
     1
102
RTVSPropertyOp34
 70
     1
102
RTVSPropertyOp35
 70
     1
102
RTVSPropertyOp36
 70
     1
102
RTVSPropertyOp37
 70
     1
102
RTVSPropertyOp38
 70
     1
102
RTVSPropertyOp39
 70
     1
102
RTVSPropertyOp40
 70
     1
102
RTVSPropertyOp41
 70
     1
102
RTVSPropertyOp42
 70
     1
102
RTVSPropertyOp43
 70
     1
102
RTVSPropertyOp44
 70
     1
102
RTVSPropertyOp45
 70
     1
102
RTVSPropertyOp46
 70
     1
102
RTVSPropertyOp47
 70
     1
102
RTVSPropertyOp48
 70
     1
102
RTVSPropertyOp49
 70
     1
102
RTVSPropertyOp50
 70
     1
102
RTVSPropertyOp51
 70
     0
102
RTVSPropertyOp52
 70
     0
102
RTVSPropertyOp53
 70
     1
102
RTVSPropertyOp54
 70
     1
102
RTVSPropertyOp55
 70
     1
102
RTVSPropertyOp56
 70
     1
102
RTVSPropertyOp57
 70
     1
102
RTVSPropertyOp58
 70
     1
102
RTVSPropertyOp59
 70
     1
102
RTVSPropertyOp60
 70
     1
102
RTVSPropertyOp61
 70
     1
102
RTVSPropertyOp62
 70
     1
  0
XRECORD
  5
A2D0
102
{ACAD_REACTORS
330
A2CF
102
}
330
A2CF
100
AcDbXrecord
280
     1
102
RTVSPost2010Prop28
280
     0
102
RTVSPost2010PropOp28
 70
     1
102
RTVSPost2010Prop29
280
     1
102
RTVSPost2010PropOp29
 70
     1
102
RTVSPost2010Prop30
280
     1
102
RTVSPost2010PropOp30
 70
     1
102
RTVSPost2010Prop31
280
     0
102
RTVSPost2010PropOp31
 70
     1
102
RTVSPost2010Prop32
280
     0
102
RTVSPost2010PropOp32
 70
     1
102
RTVSPost2010Prop33
280
     0
102
RTVSPost2010PropOp33
 70
     1
102
RTVSPost2010Prop34
280
     0
102
RTVSPost2010PropOp34
 70
     1
102
RTVSPost2010Prop35
280
     0
102
RTVSPost2010PropOp35
 70
     1
102
RTVSPost2010Prop36
280
     0
102
RTVSPost2010PropOp36
 70
     1
102
RTVSPost2010Prop37
 90
       50
102
RTVSPost2010PropOp37
 70
     0
102
RTVSPost2010Prop38
140
0.0
102
RTVSPost2010PropOp38
 70
     0
102
RTVSPost2010Prop39
140
1.0
102
RTVSPost2010PropOp39
 70
     0
102
RTVSPost2010Prop40
 90
        0
102
RTVSPost2010PropOp40
 70
     0
102
RTVSPost2010Prop41ColorIndex
 90
       18
102
RTVSPost2010Prop41ColorRGB
 90
        0
102
RTVSPost2010PropOp41
 70
     0
102
RTVSPost2010Prop42
 90
       50
102
RTVSPost2010PropOp42
 70
     0
102
RTVSPost2010Prop43
 90
        3
102
RTVSPost2010PropOp43
 70
     0
102
RTVSPost2010Prop44ColorIndex
 90
        5
102
RTVSPost2010Prop44ColorRGB
 90
      255
102
RTVSPost2010PropOp44
 70
     0
102
RTVSPost2010Prop45
280
     0
102
RTVSPost2010PropOp45
 70
     1
102
RTVSPost2010Prop46
 90
       50
102
RTVSPost2010PropOp46
 70
     0
102
RTVSPost2010Prop47
 90
       50
102
RTVSPost2010PropOp47
 70
     0
102
RTVSPost2010Prop48
 90
       50
102
RTVSPost2010PropOp48
 70
     0
102
RTVSPost2010Prop49
280
     0
102
RTVSPost2010PropOp49
 70
     1
102
RTVSPost2010Prop50
 90
       50
102
RTVSPost2010PropOp50
 70
     0
102
RTVSPost2010Prop51ColorIndex
 90
      256
102
RTVSPost2010Prop51ColorRGB
 90
-16777216
102
RTVSPost2010PropOp51
 70
     0
102
RTVSPost2010Prop52
140
1.0
102
RTVSPost2010PropOp52
 70
     0
102
RTVSPost2010Prop53
 90
        2
102
RTVSPost2010PropOp53
 70
     0
102
RTVSPost2010Prop54
  1
strokes_ogs.tif
102
RTVSPost2010PropOp54
 70
     0
102
RTVSPost2010Prop55
280
     0
102
RTVSPost2010PropOp55
 70
     1
102
RTVSPost2010Prop56
140
1.0
102
RTVSPost2010PropOp56
 70
     0
102
RTVSPost2010Prop57
140
1.0
102
RTVSPost2010PropOp57
 70
     0
102
RTVSPropertyOp0
 70
     0
102
RTVSPropertyOp1
 70
     0
102
RTVSPropertyOp2
 70
     0
102
RTVSPropertyOp3
 70
     0
102
RTVSPropertyOp4
 70
     0
102
RTVSPropertyOp5
 70
     0
102
RTVSPropertyOp6
 70
     0
102
RTVSPropertyOp7
 70
     0
102
RTVSPropertyOp8
 70
     0
102
RTVSPropertyOp9
 70
     0
102
RTVSPropertyOp10
 70
     0
102
RTVSPropertyOp11
 70
     0
102
RTVSPropertyOp12
 70
     0
102
RTVSPropertyOp13
 70
     0
102
RTVSPropertyOp14
 70
     2
102
RTVSPropertyOp15
 70
     0
102
RTVSPropertyOp16
 70
     0
102
RTVSPropertyOp17
 70
     0
102
RTVSPropertyOp18
 70
     0
102
RTVSPropertyOp19
 70
     0
102
RTVSPropertyOp20
 70
     0
102
RTVSPropertyOp21
 70
     0
102
RTVSPropertyOp22
 70
     0
102
RTVSPropertyOp23
 70
     0
102
RTVSPropertyOp24
 70
     0
102
RTVSPropertyOp25
 70
     0
102
RTVSPropertyOp26
 70
     0
102
RTVSPropertyOp27
 70
     0
102
RTVSPropertyOp28
 70
     1
102
RTVSPropertyOp29
 70
     1
102
RTVSPropertyOp30
 70
     1
102
RTVSPropertyOp31
 70
     1
102
RTVSPropertyOp32
 70
     1
102
RTVSPropertyOp33
 70
     1
102
RTVSPropertyOp34
 70
     1
102
RTVSPropertyOp35
 70
     1
102
RTVSPropertyOp36
 70
     1
102
RTVSPropertyOp37
 70
     0
102
RTVSPropertyOp38
 70
     0
102
RTVSPropertyOp39
 70
     0
102
RTVSPropertyOp40
 70
     0
102
RTVSPropertyOp41
 70
     0
102
RTVSPropertyOp42
 70
     0
102
RTVSPropertyOp43
 70
     0
102
RTVSPropertyOp44
 70
     0
102
RTVSPropertyOp45
 70
     1
102
RTVSPropertyOp46
 70
     0
102
RTVSPropertyOp47
 70
     0
102
RTVSPropertyOp48
 70
     0
102
RTVSPropertyOp49
 70
     1
102
RTVSPropertyOp50
 70
     0
102
RTVSPropertyOp51
 70
     0
102
RTVSPropertyOp52
 70
     0
102
RTVSPropertyOp53
 70
     0
102
RTVSPropertyOp54
 70
     0
102
RTVSPropertyOp55
 70
     1
102
RTVSPropertyOp56
 70
     0
102
RTVSPropertyOp57
 70
     0
102
RTVSPropertyOp58
 70
     0
102
RTVSPropertyOp59
 70
     0
102
RTVSPropertyOp60
 70
     0
102
RTVSPropertyOp61
 70
     0
102
RTVSPropertyOp62
 70
     0
  0
XRECORD
  5
A2B6
102
{ACAD_REACTORS
330
A2B5
102
}
330
A2B5
100
AcDbXrecord
280
     1
102
RTVSPost2010Prop28
280
     0
102
RTVSPost2010PropOp28
 70
     1
102
RTVSPost2010Prop29
280
     1
102
RTVSPost2010PropOp29
 70
     1
102
RTVSPost2010Prop30
280
     1
102
RTVSPost2010PropOp30
 70
     1
102
RTVSPost2010Prop31
280
     0
102
RTVSPost2010PropOp31
 70
     1
102
RTVSPost2010Prop32
280
     0
102
RTVSPost2010PropOp32
 70
     1
102
RTVSPost2010Prop33
280
     0
102
RTVSPost2010PropOp33
 70
     1
102
RTVSPost2010Prop34
280
     0
102
RTVSPost2010PropOp34
 70
     1
102
RTVSPost2010Prop35
280
     0
102
RTVSPost2010PropOp35
 70
     1
102
RTVSPost2010Prop36
280
     0
102
RTVSPost2010PropOp36
 70
     1
102
RTVSPost2010Prop37
 90
       50
102
RTVSPost2010PropOp37
 70
     1
102
RTVSPost2010Prop38
140
0.0
102
RTVSPost2010PropOp38
 70
     1
102
RTVSPost2010Prop39
140
1.0
102
RTVSPost2010PropOp39
 70
     1
102
RTVSPost2010Prop40
 90
        0
102
RTVSPost2010PropOp40
 70
     1
102
RTVSPost2010Prop41ColorIndex
 90
       18
102
RTVSPost2010Prop41ColorRGB
 90
        0
102
RTVSPost2010PropOp41
 70
     1
102
RTVSPost2010Prop42
 90
       50
102
RTVSPost2010PropOp42
 70
     1
102
RTVSPost2010Prop43
 90
        3
102
RTVSPost2010PropOp43
 70
     1
102
RTVSPost2010Prop44ColorIndex
 90
        5
102
RTVSPost2010Prop44ColorRGB
 90
      255
102
RTVSPost2010PropOp44
 70
     1
102
RTVSPost2010Prop45
280
     0
102
RTVSPost2010PropOp45
 70
     1
102
RTVSPost2010Prop46
 90
       50
102
RTVSPost2010PropOp46
 70
     1
102
RTVSPost2010Prop47
 90
       50
102
RTVSPost2010PropOp47
 70
     1
102
RTVSPost2010Prop48
 90
       50
102
RTVSPost2010PropOp48
 70
     1
102
RTVSPost2010Prop49
280
     0
102
RTVSPost2010PropOp49
 70
     1
102
RTVSPost2010Prop50
 90
       50
102
RTVSPost2010PropOp50
 70
     1
102
RTVSPost2010Prop51ColorIndex
 90
      256
102
RTVSPost2010Prop51ColorRGB
 90
-16777216
102
RTVSPost2010PropOp51
 70
     0
102
RTVSPost2010Prop52
140
1.0
102
RTVSPost2010PropOp52
 70
     0
102
RTVSPost2010Prop53
 90
        2
102
RTVSPost2010PropOp53
 70
     1
102
RTVSPost2010Prop54
  1
strokes_ogs.tif
102
RTVSPost2010PropOp54
 70
     1
102
RTVSPost2010Prop55
280
     0
102
RTVSPost2010PropOp55
 70
     1
102
RTVSPost2010Prop56
140
1.0
102
RTVSPost2010PropOp56
 70
     1
102
RTVSPost2010Prop57
140
1.0
102
RTVSPost2010PropOp57
 70
     1
102
RTVSPropertyOp0
 70
     1
102
RTVSPropertyOp1
 70
     1
102
RTVSPropertyOp2
 70
     1
102
RTVSPropertyOp3
 70
     1
102
RTVSPropertyOp4
 70
     1
102
RTVSPropertyOp5
 70
     1
102
RTVSPropertyOp6
 70
     1
102
RTVSPropertyOp7
 70
     1
102
RTVSPropertyOp8
 70
     1
102
RTVSPropertyOp9
 70
     1
102
RTVSPropertyOp10
 70
     1
102
RTVSPropertyOp11
 70
     1
102
RTVSPropertyOp12
 70
     1
102
RTVSPropertyOp13
 70
     1
102
RTVSPropertyOp14
 70
     1
102
RTVSPropertyOp15
 70
     1
102
RTVSPropertyOp16
 70
     1
102
RTVSPropertyOp17
 70
     1
102
RTVSPropertyOp18
 70
     1
102
RTVSPropertyOp19
 70
     1
102
RTVSPropertyOp20
 70
     1
102
RTVSPropertyOp21
 70
     1
102
RTVSPropertyOp22
 70
     1
102
RTVSPropertyOp23
 70
     1
102
RTVSPropertyOp24
 70
     1
102
RTVSPropertyOp25
 70
     1
102
RTVSPropertyOp26
 70
     1
102
RTVSPropertyOp27
 70
     1
102
RTVSPropertyOp28
 70
     1
102
RTVSPropertyOp29
 70
     1
102
RTVSPropertyOp30
 70
     1
102
RTVSPropertyOp31
 70
     1
102
RTVSPropertyOp32
 70
     1
102
RTVSPropertyOp33
 70
     1
102
RTVSPropertyOp34
 70
     1
102
RTVSPropertyOp35
 70
     1
102
RTVSPropertyOp36
 70
     1
102
RTVSPropertyOp37
 70
     1
102
RTVSPropertyOp38
 70
     1
102
RTVSPropertyOp39
 70
     1
102
RTVSPropertyOp40
 70
     1
102
RTVSPropertyOp41
 70
     1
102
RTVSPropertyOp42
 70
     1
102
RTVSPropertyOp43
 70
     1
102
RTVSPropertyOp44
 70
     1
102
RTVSPropertyOp45
 70
     1
102
RTVSPropertyOp46
 70
     1
102
RTVSPropertyOp47
 70
     1
102
RTVSPropertyOp48
 70
     1
102
RTVSPropertyOp49
 70
     1
102
RTVSPropertyOp50
 70
     1
102
RTVSPropertyOp51
 70
     0
102
RTVSPropertyOp52
 70
     0
102
RTVSPropertyOp53
 70
     1
102
RTVSPropertyOp54
 70
     1
102
RTVSPropertyOp55
 70
     1
102
RTVSPropertyOp56
 70
     1
102
RTVSPropertyOp57
 70
     1
102
RTVSPropertyOp58
 70
     1
102
RTVSPropertyOp59
 70
     1
102
RTVSPropertyOp60
 70
     1
102
RTVSPropertyOp61
 70
     1
102
RTVSPropertyOp62
 70
     1
  0
XRECORD
  5
A2CC
102
{ACAD_REACTORS
330
A2CB
102
}
330
A2CB
100
AcDbXrecord
280
     1
102
RTVSPost2010Prop28
280
     0
102
RTVSPost2010PropOp28
 70
     1
102
RTVSPost2010Prop29
280
     1
102
RTVSPost2010PropOp29
 70
     1
102
RTVSPost2010Prop30
280
     1
102
RTVSPost2010PropOp30
 70
     1
102
RTVSPost2010Prop31
280
     0
102
RTVSPost2010PropOp31
 70
     1
102
RTVSPost2010Prop32
280
     0
102
RTVSPost2010PropOp32
 70
     1
102
RTVSPost2010Prop33
280
     0
102
RTVSPost2010PropOp33
 70
     1
102
RTVSPost2010Prop34
280
     0
102
RTVSPost2010PropOp34
 70
     1
102
RTVSPost2010Prop35
280
     0
102
RTVSPost2010PropOp35
 70
     1
102
RTVSPost2010Prop36
280
     0
102
RTVSPost2010PropOp36
 70
     1
102
RTVSPost2010Prop37
 90
       50
102
RTVSPost2010PropOp37
 70
     1
102
RTVSPost2010Prop38
140
0.0
102
RTVSPost2010PropOp38
 70
     1
102
RTVSPost2010Prop39
140
1.0
102
RTVSPost2010PropOp39
 70
     1
102
RTVSPost2010Prop40
 90
        0
102
RTVSPost2010PropOp40
 70
     1
102
RTVSPost2010Prop41ColorIndex
 90
       18
102
RTVSPost2010Prop41ColorRGB
 90
        0
102
RTVSPost2010PropOp41
 70
     1
102
RTVSPost2010Prop42
 90
       50
102
RTVSPost2010PropOp42
 70
     1
102
RTVSPost2010Prop43
 90
        3
102
RTVSPost2010PropOp43
 70
     1
102
RTVSPost2010Prop44ColorIndex
 90
        5
102
RTVSPost2010Prop44ColorRGB
 90
      255
102
RTVSPost2010PropOp44
 70
     1
102
RTVSPost2010Prop45
280
     0
102
RTVSPost2010PropOp45
 70
     1
102
RTVSPost2010Prop46
 90
       50
102
RTVSPost2010PropOp46
 70
     1
102
RTVSPost2010Prop47
 90
       50
102
RTVSPost2010PropOp47
 70
     1
102
RTVSPost2010Prop48
 90
       50
102
RTVSPost2010PropOp48
 70
     1
102
RTVSPost2010Prop49
280
     0
102
RTVSPost2010PropOp49
 70
     1
102
RTVSPost2010Prop50
 90
       50
102
RTVSPost2010PropOp50
 70
     1
102
RTVSPost2010Prop51ColorIndex
 90
      256
102
RTVSPost2010Prop51ColorRGB
 90
-16777216
102
RTVSPost2010PropOp51
 70
     0
102
RTVSPost2010Prop52
140
1.0
102
RTVSPost2010PropOp52
 70
     0
102
RTVSPost2010Prop53
 90
        2
102
RTVSPost2010PropOp53
 70
     1
102
RTVSPost2010Prop54
  1
strokes_ogs.tif
102
RTVSPost2010PropOp54
 70
     1
102
RTVSPost2010Prop55
280
     0
102
RTVSPost2010PropOp55
 70
     1
102
RTVSPost2010Prop56
140
1.0
102
RTVSPost2010PropOp56
 70
     1
102
RTVSPost2010Prop57
140
1.0
102
RTVSPost2010PropOp57
 70
     1
102
RTVSPropertyOp0
 70
     1
102
RTVSPropertyOp1
 70
     1
102
RTVSPropertyOp2
 70
     1
102
RTVSPropertyOp3
 70
     1
102
RTVSPropertyOp4
 70
     1
102
RTVSPropertyOp5
 70
     1
102
RTVSPropertyOp6
 70
     1
102
RTVSPropertyOp7
 70
     1
102
RTVSPropertyOp8
 70
     1
102
RTVSPropertyOp9
 70
     1
102
RTVSPropertyOp10
 70
     1
102
RTVSPropertyOp11
 70
     1
102
RTVSPropertyOp12
 70
     1
102
RTVSPropertyOp13
 70
     1
102
RTVSPropertyOp14
 70
     1
102
RTVSPropertyOp15
 70
     1
102
RTVSPropertyOp16
 70
     1
102
RTVSPropertyOp17
 70
     1
102
RTVSPropertyOp18
 70
     1
102
RTVSPropertyOp19
 70
     1
102
RTVSPropertyOp20
 70
     1
102
RTVSPropertyOp21
 70
     1
102
RTVSPropertyOp22
 70
     1
102
RTVSPropertyOp23
 70
     1
102
RTVSPropertyOp24
 70
     1
102
RTVSPropertyOp25
 70
     1
102
RTVSPropertyOp26
 70
     1
102
RTVSPropertyOp27
 70
     1
102
RTVSPropertyOp28
 70
     1
102
RTVSPropertyOp29
 70
     1
102
RTVSPropertyOp30
 70
     1
102
RTVSPropertyOp31
 70
     1
102
RTVSPropertyOp32
 70
     1
102
RTVSPropertyOp33
 70
     1
102
RTVSPropertyOp34
 70
     1
102
RTVSPropertyOp35
 70
     1
102
RTVSPropertyOp36
 70
     1
102
RTVSPropertyOp37
 70
     1
102
RTVSPropertyOp38
 70
     1
102
RTVSPropertyOp39
 70
     1
102
RTVSPropertyOp40
 70
     1
102
RTVSPropertyOp41
 70
     1
102
RTVSPropertyOp42
 70
     1
102
RTVSPropertyOp43
 70
     1
102
RTVSPropertyOp44
 70
     1
102
RTVSPropertyOp45
 70
     1
102
RTVSPropertyOp46
 70
     1
102
RTVSPropertyOp47
 70
     1
102
RTVSPropertyOp48
 70
     1
102
RTVSPropertyOp49
 70
     1
102
RTVSPropertyOp50
 70
     1
102
RTVSPropertyOp51
 70
     0
102
RTVSPropertyOp52
 70
     0
102
RTVSPropertyOp53
 70
     1
102
RTVSPropertyOp54
 70
     1
102
RTVSPropertyOp55
 70
     1
102
RTVSPropertyOp56
 70
     1
102
RTVSPropertyOp57
 70
     1
102
RTVSPropertyOp58
 70
     1
102
RTVSPropertyOp59
 70
     1
102
RTVSPropertyOp60
 70
     1
102
RTVSPropertyOp61
 70
     1
102
RTVSPropertyOp62
 70
     1
  0
XRECORD
  5
A2CA
102
{ACAD_REACTORS
330
A2C9
102
}
330
A2C9
100
AcDbXrecord
280
     1
102
RTVSPost2010Prop28
280
     0
102
RTVSPost2010PropOp28
 70
     1
102
RTVSPost2010Prop29
280
     1
102
RTVSPost2010PropOp29
 70
     1
102
RTVSPost2010Prop30
280
     1
102
RTVSPost2010PropOp30
 70
     1
102
RTVSPost2010Prop31
280
     0
102
RTVSPost2010PropOp31
 70
     1
102
RTVSPost2010Prop32
280
     0
102
RTVSPost2010PropOp32
 70
     1
102
RTVSPost2010Prop33
280
     0
102
RTVSPost2010PropOp33
 70
     1
102
RTVSPost2010Prop34
280
     0
102
RTVSPost2010PropOp34
 70
     1
102
RTVSPost2010Prop35
280
     0
102
RTVSPost2010PropOp35
 70
     1
102
RTVSPost2010Prop36
280
     0
102
RTVSPost2010PropOp36
 70
     1
102
RTVSPost2010Prop37
 90
       50
102
RTVSPost2010PropOp37
 70
     1
102
RTVSPost2010Prop38
140
0.0
102
RTVSPost2010PropOp38
 70
     1
102
RTVSPost2010Prop39
140
1.0
102
RTVSPost2010PropOp39
 70
     1
102
RTVSPost2010Prop40
 90
        0
102
RTVSPost2010PropOp40
 70
     1
102
RTVSPost2010Prop41ColorIndex
 90
       18
102
RTVSPost2010Prop41ColorRGB
 90
        0
102
RTVSPost2010PropOp41
 70
     1
102
RTVSPost2010Prop42
 90
       50
102
RTVSPost2010PropOp42
 70
     1
102
RTVSPost2010Prop43
 90
        3
102
RTVSPost2010PropOp43
 70
     1
102
RTVSPost2010Prop44ColorIndex
 90
        5
102
RTVSPost2010Prop44ColorRGB
 90
      255
102
RTVSPost2010PropOp44
 70
     1
102
RTVSPost2010Prop45
280
     0
102
RTVSPost2010PropOp45
 70
     1
102
RTVSPost2010Prop46
 90
       50
102
RTVSPost2010PropOp46
 70
     1
102
RTVSPost2010Prop47
 90
       50
102
RTVSPost2010PropOp47
 70
     1
102
RTVSPost2010Prop48
 90
       50
102
RTVSPost2010PropOp48
 70
     1
102
RTVSPost2010Prop49
280
     0
102
RTVSPost2010PropOp49
 70
     1
102
RTVSPost2010Prop50
 90
       50
102
RTVSPost2010PropOp50
 70
     1
102
RTVSPost2010Prop51ColorIndex
 90
      256
102
RTVSPost2010Prop51ColorRGB
 90
-16777216
102
RTVSPost2010PropOp51
 70
     0
102
RTVSPost2010Prop52
140
1.0
102
RTVSPost2010PropOp52
 70
     0
102
RTVSPost2010Prop53
 90
        2
102
RTVSPost2010PropOp53
 70
     1
102
RTVSPost2010Prop54
  1
strokes_ogs.tif
102
RTVSPost2010PropOp54
 70
     1
102
RTVSPost2010Prop55
280
     0
102
RTVSPost2010PropOp55
 70
     1
102
RTVSPost2010Prop56
140
1.0
102
RTVSPost2010PropOp56
 70
     1
102
RTVSPost2010Prop57
140
1.0
102
RTVSPost2010PropOp57
 70
     1
102
RTVSPropertyOp0
 70
     1
102
RTVSPropertyOp1
 70
     1
102
RTVSPropertyOp2
 70
     1
102
RTVSPropertyOp3
 70
     1
102
RTVSPropertyOp4
 70
     1
102
RTVSPropertyOp5
 70
     1
102
RTVSPropertyOp6
 70
     1
102
RTVSPropertyOp7
 70
     1
102
RTVSPropertyOp8
 70
     1
102
RTVSPropertyOp9
 70
     1
102
RTVSPropertyOp10
 70
     1
102
RTVSPropertyOp11
 70
     1
102
RTVSPropertyOp12
 70
     1
102
RTVSPropertyOp13
 70
     1
102
RTVSPropertyOp14
 70
     1
102
RTVSPropertyOp15
 70
     1
102
RTVSPropertyOp16
 70
     1
102
RTVSPropertyOp17
 70
     1
102
RTVSPropertyOp18
 70
     1
102
RTVSPropertyOp19
 70
     1
102
RTVSPropertyOp20
 70
     1
102
RTVSPropertyOp21
 70
     1
102
RTVSPropertyOp22
 70
     1
102
RTVSPropertyOp23
 70
     1
102
RTVSPropertyOp24
 70
     1
102
RTVSPropertyOp25
 70
     1
102
RTVSPropertyOp26
 70
     1
102
RTVSPropertyOp27
 70
     1
102
RTVSPropertyOp28
 70
     1
102
RTVSPropertyOp29
 70
     1
102
RTVSPropertyOp30
 70
     1
102
RTVSPropertyOp31
 70
     1
102
RTVSPropertyOp32
 70
     1
102
RTVSPropertyOp33
 70
     1
102
RTVSPropertyOp34
 70
     1
102
RTVSPropertyOp35
 70
     1
102
RTVSPropertyOp36
 70
     1
102
RTVSPropertyOp37
 70
     1
102
RTVSPropertyOp38
 70
     1
102
RTVSPropertyOp39
 70
     1
102
RTVSPropertyOp40
 70
     1
102
RTVSPropertyOp41
 70
     1
102
RTVSPropertyOp42
 70
     1
102
RTVSPropertyOp43
 70
     1
102
RTVSPropertyOp44
 70
     1
102
RTVSPropertyOp45
 70
     1
102
RTVSPropertyOp46
 70
     1
102
RTVSPropertyOp47
 70
     1
102
RTVSPropertyOp48
 70
     1
102
RTVSPropertyOp49
 70
     1
102
RTVSPropertyOp50
 70
     1
102
RTVSPropertyOp51
 70
     0
102
RTVSPropertyOp52
 70
     0
102
RTVSPropertyOp53
 70
     1
102
RTVSPropertyOp54
 70
     1
102
RTVSPropertyOp55
 70
     1
102
RTVSPropertyOp56
 70
     1
102
RTVSPropertyOp57
 70
     1
102
RTVSPropertyOp58
 70
     1
102
RTVSPropertyOp59
 70
     1
102
RTVSPropertyOp60
 70
     1
102
RTVSPropertyOp61
 70
     1
102
RTVSPropertyOp62
 70
     1
  0
XRECORD
  5
A2C4
102
{ACAD_REACTORS
330
A2C3
102
}
330
A2C3
100
AcDbXrecord
280
     1
102
RTVSPost2010Prop28
280
     0
102
RTVSPost2010PropOp28
 70
     1
102
RTVSPost2010Prop29
280
     1
102
RTVSPost2010PropOp29
 70
     1
102
RTVSPost2010Prop30
280
     1
102
RTVSPost2010PropOp30
 70
     1
102
RTVSPost2010Prop31
280
     0
102
RTVSPost2010PropOp31
 70
     1
102
RTVSPost2010Prop32
280
     0
102
RTVSPost2010PropOp32
 70
     1
102
RTVSPost2010Prop33
280
     0
102
RTVSPost2010PropOp33
 70
     1
102
RTVSPost2010Prop34
280
     0
102
RTVSPost2010PropOp34
 70
     1
102
RTVSPost2010Prop35
280
     0
102
RTVSPost2010PropOp35
 70
     1
102
RTVSPost2010Prop36
280
     0
102
RTVSPost2010PropOp36
 70
     1
102
RTVSPost2010Prop37
 90
       50
102
RTVSPost2010PropOp37
 70
     1
102
RTVSPost2010Prop38
140
0.0
102
RTVSPost2010PropOp38
 70
     1
102
RTVSPost2010Prop39
140
1.0
102
RTVSPost2010PropOp39
 70
     1
102
RTVSPost2010Prop40
 90
        0
102
RTVSPost2010PropOp40
 70
     1
102
RTVSPost2010Prop41ColorIndex
 90
       18
102
RTVSPost2010Prop41ColorRGB
 90
        0
102
RTVSPost2010PropOp41
 70
     1
102
RTVSPost2010Prop42
 90
       50
102
RTVSPost2010PropOp42
 70
     1
102
RTVSPost2010Prop43
 90
        3
102
RTVSPost2010PropOp43
 70
     1
102
RTVSPost2010Prop44ColorIndex
 90
        5
102
RTVSPost2010Prop44ColorRGB
 90
      255
102
RTVSPost2010PropOp44
 70
     1
102
RTVSPost2010Prop45
280
     0
102
RTVSPost2010PropOp45
 70
     1
102
RTVSPost2010Prop46
 90
       50
102
RTVSPost2010PropOp46
 70
     1
102
RTVSPost2010Prop47
 90
       50
102
RTVSPost2010PropOp47
 70
     1
102
RTVSPost2010Prop48
 90
       50
102
RTVSPost2010PropOp48
 70
     1
102
RTVSPost2010Prop49
280
     0
102
RTVSPost2010PropOp49
 70
     1
102
RTVSPost2010Prop50
 90
       50
102
RTVSPost2010PropOp50
 70
     1
102
RTVSPost2010Prop51ColorIndex
 90
      256
102
RTVSPost2010Prop51ColorRGB
 90
-16777216
102
RTVSPost2010PropOp51
 70
     0
102
RTVSPost2010Prop52
140
1.0
102
RTVSPost2010PropOp52
 70
     0
102
RTVSPost2010Prop53
 90
        2
102
RTVSPost2010PropOp53
 70
     1
102
RTVSPost2010Prop54
  1
strokes_ogs.tif
102
RTVSPost2010PropOp54
 70
     1
102
RTVSPost2010Prop55
280
     0
102
RTVSPost2010PropOp55
 70
     1
102
RTVSPost2010Prop56
140
1.0
102
RTVSPost2010PropOp56
 70
     1
102
RTVSPost2010Prop57
140
1.0
102
RTVSPost2010PropOp57
 70
     1
102
RTVSPropertyOp0
 70
     1
102
RTVSPropertyOp1
 70
     1
102
RTVSPropertyOp2
 70
     1
102
RTVSPropertyOp3
 70
     1
102
RTVSPropertyOp4
 70
     1
102
RTVSPropertyOp5
 70
     1
102
RTVSPropertyOp6
 70
     1
102
RTVSPropertyOp7
 70
     1
102
RTVSPropertyOp8
 70
     1
102
RTVSPropertyOp9
 70
     1
102
RTVSPropertyOp10
 70
     1
102
RTVSPropertyOp11
 70
     1
102
RTVSPropertyOp12
 70
     1
102
RTVSPropertyOp13
 70
     1
102
RTVSPropertyOp14
 70
     1
102
RTVSPropertyOp15
 70
     1
102
RTVSPropertyOp16
 70
     1
102
RTVSPropertyOp17
 70
     1
102
RTVSPropertyOp18
 70
     1
102
RTVSPropertyOp19
 70
     1
102
RTVSPropertyOp20
 70
     1
102
RTVSPropertyOp21
 70
     1
102
RTVSPropertyOp22
 70
     1
102
RTVSPropertyOp23
 70
     1
102
RTVSPropertyOp24
 70
     1
102
RTVSPropertyOp25
 70
     1
102
RTVSPropertyOp26
 70
     1
102
RTVSPropertyOp27
 70
     1
102
RTVSPropertyOp28
 70
     1
102
RTVSPropertyOp29
 70
     1
102
RTVSPropertyOp30
 70
     1
102
RTVSPropertyOp31
 70
     1
102
RTVSPropertyOp32
 70
     1
102
RTVSPropertyOp33
 70
     1
102
RTVSPropertyOp34
 70
     1
102
RTVSPropertyOp35
 70
     1
102
RTVSPropertyOp36
 70
     1
102
RTVSPropertyOp37
 70
     1
102
RTVSPropertyOp38
 70
     1
102
RTVSPropertyOp39
 70
     1
102
RTVSPropertyOp40
 70
     1
102
RTVSPropertyOp41
 70
     1
102
RTVSPropertyOp42
 70
     1
102
RTVSPropertyOp43
 70
     1
102
RTVSPropertyOp44
 70
     1
102
RTVSPropertyOp45
 70
     1
102
RTVSPropertyOp46
 70
     1
102
RTVSPropertyOp47
 70
     1
102
RTVSPropertyOp48
 70
     1
102
RTVSPropertyOp49
 70
     1
102
RTVSPropertyOp50
 70
     1
102
RTVSPropertyOp51
 70
     0
102
RTVSPropertyOp52
 70
     0
102
RTVSPropertyOp53
 70
     1
102
RTVSPropertyOp54
 70
     1
102
RTVSPropertyOp55
 70
     1
102
RTVSPropertyOp56
 70
     1
102
RTVSPropertyOp57
 70
     1
102
RTVSPropertyOp58
 70
     1
102
RTVSPropertyOp59
 70
     1
102
RTVSPropertyOp60
 70
     1
102
RTVSPropertyOp61
 70
     1
102
RTVSPropertyOp62
 70
     1
  0
XRECORD
  5
A2C6
102
{ACAD_REACTORS
330
A2C5
102
}
330
A2C5
100
AcDbXrecord
280
     1
102
RTVSPost2010Prop28
280
     0
102
RTVSPost2010PropOp28
 70
     1
102
RTVSPost2010Prop29
280
     1
102
RTVSPost2010PropOp29
 70
     1
102
RTVSPost2010Prop30
280
     1
102
RTVSPost2010PropOp30
 70
     1
102
RTVSPost2010Prop31
280
     0
102
RTVSPost2010PropOp31
 70
     1
102
RTVSPost2010Prop32
280
     0
102
RTVSPost2010PropOp32
 70
     1
102
RTVSPost2010Prop33
280
     0
102
RTVSPost2010PropOp33
 70
     1
102
RTVSPost2010Prop34
280
     0
102
RTVSPost2010PropOp34
 70
     1
102
RTVSPost2010Prop35
280
     0
102
RTVSPost2010PropOp35
 70
     1
102
RTVSPost2010Prop36
280
     0
102
RTVSPost2010PropOp36
 70
     1
102
RTVSPost2010Prop37
 90
       50
102
RTVSPost2010PropOp37
 70
     1
102
RTVSPost2010Prop38
140
0.0
102
RTVSPost2010PropOp38
 70
     1
102
RTVSPost2010Prop39
140
1.0
102
RTVSPost2010PropOp39
 70
     1
102
RTVSPost2010Prop40
 90
        0
102
RTVSPost2010PropOp40
 70
     1
102
RTVSPost2010Prop41ColorIndex
 90
       18
102
RTVSPost2010Prop41ColorRGB
 90
        0
102
RTVSPost2010PropOp41
 70
     1
102
RTVSPost2010Prop42
 90
       50
102
RTVSPost2010PropOp42
 70
     1
102
RTVSPost2010Prop43
 90
        3
102
RTVSPost2010PropOp43
 70
     1
102
RTVSPost2010Prop44ColorIndex
 90
        5
102
RTVSPost2010Prop44ColorRGB
 90
      255
102
RTVSPost2010PropOp44
 70
     1
102
RTVSPost2010Prop45
280
     0
102
RTVSPost2010PropOp45
 70
     1
102
RTVSPost2010Prop46
 90
       50
102
RTVSPost2010PropOp46
 70
     1
102
RTVSPost2010Prop47
 90
       50
102
RTVSPost2010PropOp47
 70
     1
102
RTVSPost2010Prop48
 90
       50
102
RTVSPost2010PropOp48
 70
     1
102
RTVSPost2010Prop49
280
     0
102
RTVSPost2010PropOp49
 70
     1
102
RTVSPost2010Prop50
 90
       50
102
RTVSPost2010PropOp50
 70
     1
102
RTVSPost2010Prop51ColorIndex
 90
      256
102
RTVSPost2010Prop51ColorRGB
 90
-16777216
102
RTVSPost2010PropOp51
 70
     0
102
RTVSPost2010Prop52
140
1.0
102
RTVSPost2010PropOp52
 70
     0
102
RTVSPost2010Prop53
 90
        2
102
RTVSPost2010PropOp53
 70
     1
102
RTVSPost2010Prop54
  1
strokes_ogs.tif
102
RTVSPost2010PropOp54
 70
     1
102
RTVSPost2010Prop55
280
     0
102
RTVSPost2010PropOp55
 70
     1
102
RTVSPost2010Prop56
140
1.0
102
RTVSPost2010PropOp56
 70
     1
102
RTVSPost2010Prop57
140
1.0
102
RTVSPost2010PropOp57
 70
     1
102
RTVSPropertyOp0
 70
     1
102
RTVSPropertyOp1
 70
     1
102
RTVSPropertyOp2
 70
     1
102
RTVSPropertyOp3
 70
     1
102
RTVSPropertyOp4
 70
     1
102
RTVSPropertyOp5
 70
     1
102
RTVSPropertyOp6
 70
     1
102
RTVSPropertyOp7
 70
     1
102
RTVSPropertyOp8
 70
     1
102
RTVSPropertyOp9
 70
     1
102
RTVSPropertyOp10
 70
     1
102
RTVSPropertyOp11
 70
     1
102
RTVSPropertyOp12
 70
     1
102
RTVSPropertyOp13
 70
     1
102
RTVSPropertyOp14
 70
     1
102
RTVSPropertyOp15
 70
     1
102
RTVSPropertyOp16
 70
     1
102
RTVSPropertyOp17
 70
     1
102
RTVSPropertyOp18
 70
     1
102
RTVSPropertyOp19
 70
     1
102
RTVSPropertyOp20
 70
     1
102
RTVSPropertyOp21
 70
     1
102
RTVSPropertyOp22
 70
     1
102
RTVSPropertyOp23
 70
     1
102
RTVSPropertyOp24
 70
     1
102
RTVSPropertyOp25
 70
     1
102
RTVSPropertyOp26
 70
     1
102
RTVSPropertyOp27
 70
     1
102
RTVSPropertyOp28
 70
     1
102
RTVSPropertyOp29
 70
     1
102
RTVSPropertyOp30
 70
     1
102
RTVSPropertyOp31
 70
     1
102
RTVSPropertyOp32
 70
     1
102
RTVSPropertyOp33
 70
     1
102
RTVSPropertyOp34
 70
     1
102
RTVSPropertyOp35
 70
     1
102
RTVSPropertyOp36
 70
     1
102
RTVSPropertyOp37
 70
     1
102
RTVSPropertyOp38
 70
     1
102
RTVSPropertyOp39
 70
     1
102
RTVSPropertyOp40
 70
     1
102
RTVSPropertyOp41
 70
     1
102
RTVSPropertyOp42
 70
     1
102
RTVSPropertyOp43
 70
     1
102
RTVSPropertyOp44
 70
     1
102
RTVSPropertyOp45
 70
     1
102
RTVSPropertyOp46
 70
     1
102
RTVSPropertyOp47
 70
     1
102
RTVSPropertyOp48
 70
     1
102
RTVSPropertyOp49
 70
     1
102
RTVSPropertyOp50
 70
     1
102
RTVSPropertyOp51
 70
     0
102
RTVSPropertyOp52
 70
     0
102
RTVSPropertyOp53
 70
     1
102
RTVSPropertyOp54
 70
     1
102
RTVSPropertyOp55
 70
     1
102
RTVSPropertyOp56
 70
     1
102
RTVSPropertyOp57
 70
     1
102
RTVSPropertyOp58
 70
     1
102
RTVSPropertyOp59
 70
     1
102
RTVSPropertyOp60
 70
     1
102
RTVSPropertyOp61
 70
     1
102
RTVSPropertyOp62
 70
     1
  0
XRECORD
  5
A2BC
102
{ACAD_REACTORS
330
A2BB
102
}
330
A2BB
100
AcDbXrecord
280
     1
102
RTVSPost2010Prop28
280
     0
102
RTVSPost2010PropOp28
 70
     1
102
RTVSPost2010Prop29
280
     1
102
RTVSPost2010PropOp29
 70
     1
102
RTVSPost2010Prop30
280
     1
102
RTVSPost2010PropOp30
 70
     1
102
RTVSPost2010Prop31
280
     0
102
RTVSPost2010PropOp31
 70
     1
102
RTVSPost2010Prop32
280
     0
102
RTVSPost2010PropOp32
 70
     1
102
RTVSPost2010Prop33
280
     0
102
RTVSPost2010PropOp33
 70
     1
102
RTVSPost2010Prop34
280
     0
102
RTVSPost2010PropOp34
 70
     1
102
RTVSPost2010Prop35
280
     0
102
RTVSPost2010PropOp35
 70
     1
102
RTVSPost2010Prop36
280
     0
102
RTVSPost2010PropOp36
 70
     1
102
RTVSPost2010Prop37
 90
       50
102
RTVSPost2010PropOp37
 70
     1
102
RTVSPost2010Prop38
140
0.0
102
RTVSPost2010PropOp38
 70
     1
102
RTVSPost2010Prop39
140
1.0
102
RTVSPost2010PropOp39
 70
     1
102
RTVSPost2010Prop40
 90
        0
102
RTVSPost2010PropOp40
 70
     1
102
RTVSPost2010Prop41ColorIndex
 90
       18
102
RTVSPost2010Prop41ColorRGB
 90
        0
102
RTVSPost2010PropOp41
 70
     1
102
RTVSPost2010Prop42
 90
       50
102
RTVSPost2010PropOp42
 70
     1
102
RTVSPost2010Prop43
 90
        3
102
RTVSPost2010PropOp43
 70
     1
102
RTVSPost2010Prop44ColorIndex
 90
        5
102
RTVSPost2010Prop44ColorRGB
 90
      255
102
RTVSPost2010PropOp44
 70
     1
102
RTVSPost2010Prop45
280
     0
102
RTVSPost2010PropOp45
 70
     1
102
RTVSPost2010Prop46
 90
       50
102
RTVSPost2010PropOp46
 70
     1
102
RTVSPost2010Prop47
 90
       50
102
RTVSPost2010PropOp47
 70
     1
102
RTVSPost2010Prop48
 90
       50
102
RTVSPost2010PropOp48
 70
     1
102
RTVSPost2010Prop49
280
     0
102
RTVSPost2010PropOp49
 70
     1
102
RTVSPost2010Prop50
 90
       50
102
RTVSPost2010PropOp50
 70
     1
102
RTVSPost2010Prop51ColorIndex
 90
      256
102
RTVSPost2010Prop51ColorRGB
 90
-16777216
102
RTVSPost2010PropOp51
 70
     0
102
RTVSPost2010Prop52
140
1.0
102
RTVSPost2010PropOp52
 70
     0
102
RTVSPost2010Prop53
 90
        2
102
RTVSPost2010PropOp53
 70
     1
102
RTVSPost2010Prop54
  1
strokes_ogs.tif
102
RTVSPost2010PropOp54
 70
     1
102
RTVSPost2010Prop55
280
     0
102
RTVSPost2010PropOp55
 70
     1
102
RTVSPost2010Prop56
140
1.0
102
RTVSPost2010PropOp56
 70
     1
102
RTVSPost2010Prop57
140
1.0
102
RTVSPost2010PropOp57
 70
     1
102
RTVSPropertyOp0
 70
     1
102
RTVSPropertyOp1
 70
     1
102
RTVSPropertyOp2
 70
     1
102
RTVSPropertyOp3
 70
     1
102
RTVSPropertyOp4
 70
     1
102
RTVSPropertyOp5
 70
     1
102
RTVSPropertyOp6
 70
     1
102
RTVSPropertyOp7
 70
     1
102
RTVSPropertyOp8
 70
     1
102
RTVSPropertyOp9
 70
     1
102
RTVSPropertyOp10
 70
     1
102
RTVSPropertyOp11
 70
     1
102
RTVSPropertyOp12
 70
     1
102
RTVSPropertyOp13
 70
     1
102
RTVSPropertyOp14
 70
     1
102
RTVSPropertyOp15
 70
     1
102
RTVSPropertyOp16
 70
     1
102
RTVSPropertyOp17
 70
     1
102
RTVSPropertyOp18
 70
     1
102
RTVSPropertyOp19
 70
     1
102
RTVSPropertyOp20
 70
     1
102
RTVSPropertyOp21
 70
     1
102
RTVSPropertyOp22
 70
     1
102
RTVSPropertyOp23
 70
     1
102
RTVSPropertyOp24
 70
     1
102
RTVSPropertyOp25
 70
     1
102
RTVSPropertyOp26
 70
     1
102
RTVSPropertyOp27
 70
     1
102
RTVSPropertyOp28
 70
     1
102
RTVSPropertyOp29
 70
     1
102
RTVSPropertyOp30
 70
     1
102
RTVSPropertyOp31
 70
     1
102
RTVSPropertyOp32
 70
     1
102
RTVSPropertyOp33
 70
     1
102
RTVSPropertyOp34
 70
     1
102
RTVSPropertyOp35
 70
     1
102
RTVSPropertyOp36
 70
     1
102
RTVSPropertyOp37
 70
     1
102
RTVSPropertyOp38
 70
     1
102
RTVSPropertyOp39
 70
     1
102
RTVSPropertyOp40
 70
     1
102
RTVSPropertyOp41
 70
     1
102
RTVSPropertyOp42
 70
     1
102
RTVSPropertyOp43
 70
     1
102
RTVSPropertyOp44
 70
     1
102
RTVSPropertyOp45
 70
     1
102
RTVSPropertyOp46
 70
     1
102
RTVSPropertyOp47
 70
     1
102
RTVSPropertyOp48
 70
     1
102
RTVSPropertyOp49
 70
     1
102
RTVSPropertyOp50
 70
     1
102
RTVSPropertyOp51
 70
     0
102
RTVSPropertyOp52
 70
     0
102
RTVSPropertyOp53
 70
     1
102
RTVSPropertyOp54
 70
     1
102
RTVSPropertyOp55
 70
     1
102
RTVSPropertyOp56
 70
     1
102
RTVSPropertyOp57
 70
     1
102
RTVSPropertyOp58
 70
     1
102
RTVSPropertyOp59
 70
     1
102
RTVSPropertyOp60
 70
     1
102
RTVSPropertyOp61
 70
     1
102
RTVSPropertyOp62
 70
     1
  0
XRECORD
  5
A2B0
102
{ACAD_REACTORS
330
A2AF
102
}
330
A2AF
100
AcDbXrecord
280
     1
102
RTVSPost2010Prop28
280
     0
102
RTVSPost2010PropOp28
 70
     1
102
RTVSPost2010Prop29
280
     1
102
RTVSPost2010PropOp29
 70
     1
102
RTVSPost2010Prop30
280
     1
102
RTVSPost2010PropOp30
 70
     1
102
RTVSPost2010Prop31
280
     0
102
RTVSPost2010PropOp31
 70
     1
102
RTVSPost2010Prop32
280
     0
102
RTVSPost2010PropOp32
 70
     1
102
RTVSPost2010Prop33
280
     0
102
RTVSPost2010PropOp33
 70
     1
102
RTVSPost2010Prop34
280
     0
102
RTVSPost2010PropOp34
 70
     1
102
RTVSPost2010Prop35
280
     0
102
RTVSPost2010PropOp35
 70
     1
102
RTVSPost2010Prop36
280
     0
102
RTVSPost2010PropOp36
 70
     1
102
RTVSPost2010Prop37
 90
       50
102
RTVSPost2010PropOp37
 70
     1
102
RTVSPost2010Prop38
140
0.0
102
RTVSPost2010PropOp38
 70
     1
102
RTVSPost2010Prop39
140
1.0
102
RTVSPost2010PropOp39
 70
     1
102
RTVSPost2010Prop40
 90
        0
102
RTVSPost2010PropOp40
 70
     1
102
RTVSPost2010Prop41ColorIndex
 90
       18
102
RTVSPost2010Prop41ColorRGB
 90
        0
102
RTVSPost2010PropOp41
 70
     1
102
RTVSPost2010Prop42
 90
       50
102
RTVSPost2010PropOp42
 70
     1
102
RTVSPost2010Prop43
 90
        3
102
RTVSPost2010PropOp43
 70
     1
102
RTVSPost2010Prop44ColorIndex
 90
        5
102
RTVSPost2010Prop44ColorRGB
 90
      255
102
RTVSPost2010PropOp44
 70
     1
102
RTVSPost2010Prop45
280
     0
102
RTVSPost2010PropOp45
 70
     1
102
RTVSPost2010Prop46
 90
       50
102
RTVSPost2010PropOp46
 70
     1
102
RTVSPost2010Prop47
 90
       50
102
RTVSPost2010PropOp47
 70
     1
102
RTVSPost2010Prop48
 90
       50
102
RTVSPost2010PropOp48
 70
     1
102
RTVSPost2010Prop49
280
     0
102
RTVSPost2010PropOp49
 70
     1
102
RTVSPost2010Prop50
 90
       50
102
RTVSPost2010PropOp50
 70
     1
102
RTVSPost2010Prop51ColorIndex
 90
      256
102
RTVSPost2010Prop51ColorRGB
 90
-16777216
102
RTVSPost2010PropOp51
 70
     0
102
RTVSPost2010Prop52
140
1.0
102
RTVSPost2010PropOp52
 70
     0
102
RTVSPost2010Prop53
 90
        2
102
RTVSPost2010PropOp53
 70
     1
102
RTVSPost2010Prop54
  1
strokes_ogs.tif
102
RTVSPost2010PropOp54
 70
     1
102
RTVSPost2010Prop55
280
     0
102
RTVSPost2010PropOp55
 70
     1
102
RTVSPost2010Prop56
140
1.0
102
RTVSPost2010PropOp56
 70
     1
102
RTVSPost2010Prop57
140
1.0
102
RTVSPost2010PropOp57
 70
     1
102
RTVSPropertyOp0
 70
     1
102
RTVSPropertyOp1
 70
     1
102
RTVSPropertyOp2
 70
     1
102
RTVSPropertyOp3
 70
     1
102
RTVSPropertyOp4
 70
     1
102
RTVSPropertyOp5
 70
     1
102
RTVSPropertyOp6
 70
     1
102
RTVSPropertyOp7
 70
     1
102
RTVSPropertyOp8
 70
     1
102
RTVSPropertyOp9
 70
     1
102
RTVSPropertyOp10
 70
     1
102
RTVSPropertyOp11
 70
     1
102
RTVSPropertyOp12
 70
     1
102
RTVSPropertyOp13
 70
     1
102
RTVSPropertyOp14
 70
     1
102
RTVSPropertyOp15
 70
     1
102
RTVSPropertyOp16
 70
     1
102
RTVSPropertyOp17
 70
     1
102
RTVSPropertyOp18
 70
     1
102
RTVSPropertyOp19
 70
     1
102
RTVSPropertyOp20
 70
     1
102
RTVSPropertyOp21
 70
     1
102
RTVSPropertyOp22
 70
     1
102
RTVSPropertyOp23
 70
     1
102
RTVSPropertyOp24
 70
     1
102
RTVSPropertyOp25
 70
     1
102
RTVSPropertyOp26
 70
     1
102
RTVSPropertyOp27
 70
     1
102
RTVSPropertyOp28
 70
     1
102
RTVSPropertyOp29
 70
     1
102
RTVSPropertyOp30
 70
     1
102
RTVSPropertyOp31
 70
     1
102
RTVSPropertyOp32
 70
     1
102
RTVSPropertyOp33
 70
     1
102
RTVSPropertyOp34
 70
     1
102
RTVSPropertyOp35
 70
     1
102
RTVSPropertyOp36
 70
     1
102
RTVSPropertyOp37
 70
     1
102
RTVSPropertyOp38
 70
     1
102
RTVSPropertyOp39
 70
     1
102
RTVSPropertyOp40
 70
     1
102
RTVSPropertyOp41
 70
     1
102
RTVSPropertyOp42
 70
     1
102
RTVSPropertyOp43
 70
     1
102
RTVSPropertyOp44
 70
     1
102
RTVSPropertyOp45
 70
     1
102
RTVSPropertyOp46
 70
     1
102
RTVSPropertyOp47
 70
     1
102
RTVSPropertyOp48
 70
     1
102
RTVSPropertyOp49
 70
     1
102
RTVSPropertyOp50
 70
     1
102
RTVSPropertyOp51
 70
     0
102
RTVSPropertyOp52
 70
     0
102
RTVSPropertyOp53
 70
     1
102
RTVSPropertyOp54
 70
     1
102
RTVSPropertyOp55
 70
     1
102
RTVSPropertyOp56
 70
     1
102
RTVSPropertyOp57
 70
     1
102
RTVSPropertyOp58
 70
     1
102
RTVSPropertyOp59
 70
     1
102
RTVSPropertyOp60
 70
     1
102
RTVSPropertyOp61
 70
     1
102
RTVSPropertyOp62
 70
     1
  0
XRECORD
  5
A2C8
102
{ACAD_REACTORS
330
A2C7
102
}
330
A2C7
100
AcDbXrecord
280
     1
102
RTVSPost2010Prop28
280
     0
102
RTVSPost2010PropOp28
 70
     1
102
RTVSPost2010Prop29
280
     1
102
RTVSPost2010PropOp29
 70
     1
102
RTVSPost2010Prop30
280
     1
102
RTVSPost2010PropOp30
 70
     1
102
RTVSPost2010Prop31
280
     0
102
RTVSPost2010PropOp31
 70
     1
102
RTVSPost2010Prop32
280
     0
102
RTVSPost2010PropOp32
 70
     1
102
RTVSPost2010Prop33
280
     0
102
RTVSPost2010PropOp33
 70
     1
102
RTVSPost2010Prop34
280
     0
102
RTVSPost2010PropOp34
 70
     1
102
RTVSPost2010Prop35
280
     0
102
RTVSPost2010PropOp35
 70
     1
102
RTVSPost2010Prop36
280
     0
102
RTVSPost2010PropOp36
 70
     1
102
RTVSPost2010Prop37
 90
       50
102
RTVSPost2010PropOp37
 70
     1
102
RTVSPost2010Prop38
140
0.0
102
RTVSPost2010PropOp38
 70
     1
102
RTVSPost2010Prop39
140
1.0
102
RTVSPost2010PropOp39
 70
     1
102
RTVSPost2010Prop40
 90
        0
102
RTVSPost2010PropOp40
 70
     1
102
RTVSPost2010Prop41ColorIndex
 90
       18
102
RTVSPost2010Prop41ColorRGB
 90
        0
102
RTVSPost2010PropOp41
 70
     1
102
RTVSPost2010Prop42
 90
       50
102
RTVSPost2010PropOp42
 70
     1
102
RTVSPost2010Prop43
 90
        3
102
RTVSPost2010PropOp43
 70
     1
102
RTVSPost2010Prop44ColorIndex
 90
        5
102
RTVSPost2010Prop44ColorRGB
 90
      255
102
RTVSPost2010PropOp44
 70
     1
102
RTVSPost2010Prop45
280
     0
102
RTVSPost2010PropOp45
 70
     1
102
RTVSPost2010Prop46
 90
       50
102
RTVSPost2010PropOp46
 70
     1
102
RTVSPost2010Prop47
 90
       50
102
RTVSPost2010PropOp47
 70
     1
102
RTVSPost2010Prop48
 90
       50
102
RTVSPost2010PropOp48
 70
     1
102
RTVSPost2010Prop49
280
     0
102
RTVSPost2010PropOp49
 70
     1
102
RTVSPost2010Prop50
 90
       50
102
RTVSPost2010PropOp50
 70
     1
102
RTVSPost2010Prop51ColorIndex
 90
      256
102
RTVSPost2010Prop51ColorRGB
 90
-16777216
102
RTVSPost2010PropOp51
 70
     0
102
RTVSPost2010Prop52
140
1.0
102
RTVSPost2010PropOp52
 70
     0
102
RTVSPost2010Prop53
 90
        2
102
RTVSPost2010PropOp53
 70
     1
102
RTVSPost2010Prop54
  1
strokes_ogs.tif
102
RTVSPost2010PropOp54
 70
     1
102
RTVSPost2010Prop55
280
     0
102
RTVSPost2010PropOp55
 70
     1
102
RTVSPost2010Prop56
140
1.0
102
RTVSPost2010PropOp56
 70
     1
102
RTVSPost2010Prop57
140
1.0
102
RTVSPost2010PropOp57
 70
     1
102
RTVSPropertyOp0
 70
     1
102
RTVSPropertyOp1
 70
     1
102
RTVSPropertyOp2
 70
     1
102
RTVSPropertyOp3
 70
     1
102
RTVSPropertyOp4
 70
     1
102
RTVSPropertyOp5
 70
     1
102
RTVSPropertyOp6
 70
     1
102
RTVSPropertyOp7
 70
     1
102
RTVSPropertyOp8
 70
     1
102
RTVSPropertyOp9
 70
     1
102
RTVSPropertyOp10
 70
     1
102
RTVSPropertyOp11
 70
     1
102
RTVSPropertyOp12
 70
     1
102
RTVSPropertyOp13
 70
     1
102
RTVSPropertyOp14
 70
     1
102
RTVSPropertyOp15
 70
     1
102
RTVSPropertyOp16
 70
     1
102
RTVSPropertyOp17
 70
     1
102
RTVSPropertyOp18
 70
     1
102
RTVSPropertyOp19
 70
     1
102
RTVSPropertyOp20
 70
     1
102
RTVSPropertyOp21
 70
     1
102
RTVSPropertyOp22
 70
     1
102
RTVSPropertyOp23
 70
     1
102
RTVSPropertyOp24
 70
     1
102
RTVSPropertyOp25
 70
     1
102
RTVSPropertyOp26
 70
     1
102
RTVSPropertyOp27
 70
     1
102
RTVSPropertyOp28
 70
     1
102
RTVSPropertyOp29
 70
     1
102
RTVSPropertyOp30
 70
     1
102
RTVSPropertyOp31
 70
     1
102
RTVSPropertyOp32
 70
     1
102
RTVSPropertyOp33
 70
     1
102
RTVSPropertyOp34
 70
     1
102
RTVSPropertyOp35
 70
     1
102
RTVSPropertyOp36
 70
     1
102
RTVSPropertyOp37
 70
     1
102
RTVSPropertyOp38
 70
     1
102
RTVSPropertyOp39
 70
     1
102
RTVSPropertyOp40
 70
     1
102
RTVSPropertyOp41
 70
     1
102
RTVSPropertyOp42
 70
     1
102
RTVSPropertyOp43
 70
     1
102
RTVSPropertyOp44
 70
     1
102
RTVSPropertyOp45
 70
     1
102
RTVSPropertyOp46
 70
     1
102
RTVSPropertyOp47
 70
     1
102
RTVSPropertyOp48
 70
     1
102
RTVSPropertyOp49
 70
     1
102
RTVSPropertyOp50
 70
     1
102
RTVSPropertyOp51
 70
     0
102
RTVSPropertyOp52
 70
     0
102
RTVSPropertyOp53
 70
     1
102
RTVSPropertyOp54
 70
     1
102
RTVSPropertyOp55
 70
     1
102
RTVSPropertyOp56
 70
     1
102
RTVSPropertyOp57
 70
     1
102
RTVSPropertyOp58
 70
     1
102
RTVSPropertyOp59
 70
     1
102
RTVSPropertyOp60
 70
     1
102
RTVSPropertyOp61
 70
     1
102
RTVSPropertyOp62
 70
     1
  0
ENDSEC
  0
EOF
