  0
SECTION
  2
HEADER
  9
$ACADVER
  1
AC1015
  9
$ACADMAINTVER
 70
    20
  9
$DWGCODEPAGE
  3
ANSI_932
  9
$INSBASE
 10
0.0
 20
0.0
 30
0.0
  9
$EXTMIN
 10
10.0
 20
9.999999999999998
 30
0.0
  9
$EXTMAX
 10
389.6718839999999
 20
342.542216
 30
0.0
  9
$LIMMIN
 10
0.0
 20
0.0
  9
$LIMMAX
 10
495.0
 20
341.25
  9
$ORTHOMODE
 70
     1
  9
$REGENMODE
 70
     1
  9
$FILLMODE
 70
     1
  9
$QTEXTMODE
 70
     0
  9
$MIRRTEXT
 70
     1
  9
$LTSCALE
 40
20.0
  9
$ATTMODE
 70
     1
  9
$TEXTSIZE
 40
5.0
  9
$TRACEWID
 40
1.0
  9
$TEXTSTYLE
  7
STANDARD
  9
$CLAYER
  8
0
  9
$CELTYPE
  6
BYLAYER
  9
$CECOLOR
 62
   256
  9
$CELTSCALE
 40
1.0
  9
$DISPSILH
 70
     0
  9
$DIMSCALE
 40
1.0
  9
$DIMASZ
 40
2.5
  9
$DIMEXO
 40
1.0
  9
$DIMDLI
 40
10.0
  9
$DIMRND
 40
0.0
  9
$DIMDLE
 40
0.0
  9
$DIMEXE
 40
1.0
  9
$DIMTP
 40
0.0
  9
$DIMTM
 40
0.0
  9
$DIMTXT
 40
2.5
  9
$DIMCEN
 40
0.0
  9
$DIMTSZ
 40
0.0
  9
$DIMTOL
 70
     0
  9
$DIMLIM
 70
     0
  9
$DIMTIH
 70
     0
  9
$DIMTOH
 70
     0
  9
$DIMSE1
 70
     0
  9
$DIMSE2
 70
     0
  9
$DIMTAD
 70
     3
  9
$DIMZIN
 70
     8
  9
$DIMBLK
  1

  9
$DIMASO
 70
     1
  9
$DIMSHO
 70
     1
  9
$DIMPOST
  1

  9
$DIMAPOST
  1

  9
$DIMALT
 70
     0
  9
$DIMALTD
 70
     2
  9
$DIMALTF
 40
0.0394
  9
$DIMLFAC
 40
1.0
  9
$DIMTOFL
 70
     1
  9
$DIMTVP
 40
0.0
  9
$DIMTIX
 70
     1
  9
$DIMSOXD
 70
     1
  9
$DIMSAH
 70
     1
  9
$DIMBLK1
  1
OPEN
  9
$DIMBLK2
  1
OPEN
  9
$DIMSTYLE
  2
STANDARD
  9
$DIMCLRD
 70
     0
  9
$DIMCLRE
 70
     0
  9
$DIMCLRT
 70
     0
  9
$DIMTFAC
 40
1.0
  9
$DIMGAP
 40
1.0
  9
$DIMJUST
 70
     0
  9
$DIMSD1
 70
     0
  9
$DIMSD2
 70
     0
  9
$DIMTOLJ
 70
     1
  9
$DIMTZIN
 70
     0
  9
$DIMALTZ
 70
     0
  9
$DIMALTTZ
 70
     0
  9
$DIMUPT
 70
     0
  9
$DIMDEC
 70
     4
  9
$DIMTDEC
 70
     4
  9
$DIMALTU
 70
     2
  9
$DIMALTTD
 70
     2
  9
$DIMTXSTY
  7
STANDARD
  9
$DIMAUNIT
 70
     0
  9
$DIMADEC
 70
     0
  9
$DIMALTRND
 40
0.0
  9
$DIMAZIN
 70
     0
  9
$DIMDSEP
 70
    46
  9
$DIMATFIT
 70
     3
  9
$DIMFRAC
 70
     0
  9
$DIMLDRBLK
  1
OPEN
  9
$DIMLUNIT
 70
     2
  9
$DIMLWD
 70
    -2
  9
$DIMLWE
 70
    -2
  9
$DIMTMOVE
 70
     0
  9
$LUNITS
 70
     2
  9
$LUPREC
 70
     4
  9
$SKETCHINC
 40
1.0
  9
$FILLETRAD
 40
0.0
  9
$AUNITS
 70
     0
  9
$AUPREC
 70
     2
  9
$MENU
  1
.
  9
$ELEVATION
 40
0.0
  9
$PELEVATION
 40
0.0
  9
$THICKNESS
 40
0.0
  9
$LIMCHECK
 70
     0
  9
$CHAMFERA
 40
10.0
  9
$CHAMFERB
 40
10.0
  9
$CHAMFERC
 40
0.0
  9
$CHAMFERD
 40
0.0
  9
$SKPOLY
 70
     0
  9
$TDCREATE
 40
2450737.701419444
  9
$TDUCREATE
 40
2450737.326419444
  9
$TDUPDATE
 40
2457192.640334977
  9
$TDUUPDATE
 40
2457192.265334977
  9
$TDINDWG
 40
0.0125142014
  9
$TDUSRTIMER
 40
0.0125139005
  9
$USRTIMER
 70
     1
  9
$ANGBASE
 50
0.0
  9
$ANGDIR
 70
     0
  9
$PDMODE
 70
     0
  9
$PDSIZE
 40
0.0
  9
$PLINEWID
 40
0.0
  9
$SPLFRAME
 70
     0
  9
$SPLINETYPE
 70
     6
  9
$SPLINESEGS
 70
     8
  9
$HANDSEED
  5
A19F
  9
$SURFTAB1
 70
     6
  9
$SURFTAB2
 70
     6
  9
$SURFTYPE
 70
     6
  9
$SURFU
 70
     6
  9
$SURFV
 70
     6
  9
$UCSBASE
  2

  9
$UCSNAME
  2

  9
$UCSORG
 10
0.0
 20
0.0
 30
0.0
  9
$UCSXDIR
 10
1.0
 20
0.0
 30
0.0
  9
$UCSYDIR
 10
0.0
 20
1.0
 30
0.0
  9
$UCSORTHOREF
  2

  9
$UCSORTHOVIEW
 70
     0
  9
$UCSORGTOP
 10
0.0
 20
0.0
 30
0.0
  9
$UCSORGBOTTOM
 10
0.0
 20
0.0
 30
0.0
  9
$UCSORGLEFT
 10
0.0
 20
0.0
 30
0.0
  9
$UCSORGRIGHT
 10
0.0
 20
0.0
 30
0.0
  9
$UCSORGFRONT
 10
0.0
 20
0.0
 30
0.0
  9
$UCSORGBACK
 10
0.0
 20
0.0
 30
0.0
  9
$PUCSBASE
  2

  9
$PUCSNAME
  2

  9
$PUCSORG
 10
0.0
 20
0.0
 30
0.0
  9
$PUCSXDIR
 10
1.0
 20
0.0
 30
0.0
  9
$PUCSYDIR
 10
0.0
 20
1.0
 30
0.0
  9
$PUCSORTHOREF
  2

  9
$PUCSORTHOVIEW
 70
     0
  9
$PUCSORGTOP
 10
0.0
 20
0.0
 30
0.0
  9
$PUCSORGBOTTOM
 10
0.0
 20
0.0
 30
0.0
  9
$PUCSORGLEFT
 10
0.0
 20
0.0
 30
0.0
  9
$PUCSORGRIGHT
 10
0.0
 20
0.0
 30
0.0
  9
$PUCSORGFRONT
 10
0.0
 20
0.0
 30
0.0
  9
$PUCSORGBACK
 10
0.0
 20
0.0
 30
0.0
  9
$USERI1
 70
     0
  9
$USERI2
 70
     0
  9
$USERI3
 70
     0
  9
$USERI4
 70
     0
  9
$USERI5
 70
     0
  9
$USERR1
 40
0.0
  9
$USERR2
 40
0.0
  9
$USERR3
 40
0.0
  9
$USERR4
 40
0.0
  9
$USERR5
 40
0.0
  9
$WORLDVIEW
 70
     1
  9
$SHADEDGE
 70
     3
  9
$SHADEDIF
 70
    70
  9
$TILEMODE
 70
     1
  9
$MAXACTVP
 70
    16
  9
$PINSBASE
 10
0.0
 20
0.0
 30
0.0
  9
$PLIMCHECK
 70
     0
  9
$PEXTMIN
 10
1.000000000000000E+20
 20
1.000000000000000E+20
 30
1.000000000000000E+20
  9
$PEXTMAX
 10
-1.000000000000000E+20
 20
-1.000000000000000E+20
 30
-1.000000000000000E+20
  9
$PLIMMIN
 10
0.0
 20
0.0
  9
$PLIMMAX
 10
420.0
 20
297.0
  9
$UNITMODE
 70
     0
  9
$VISRETAIN
 70
     0
  9
$PLINEGEN
 70
     0
  9
$PSLTSCALE
 70
     0
  9
$TREEDEPTH
 70
  3020
  9
$CMLSTYLE
  2
STANDARD
  9
$CMLJUST
 70
     0
  9
$CMLSCALE
 40
1.0
  9
$PROXYGRAPHICS
 70
     1
  9
$MEASUREMENT
 70
     0
  9
$CELWEIGHT
370
    -1
  9
$ENDCAPS
280
     0
  9
$JOINSTYLE
280
     0
  9
$LWDISPLAY
290
     0
  9
$INSUNITS
 70
     0
  9
$HYPERLINKBASE
  1

  9
$STYLESHEET
  1

  9
$XEDIT
290
     1
  9
$CEPSNTYPE
380
     0
  9
$PSTYLEMODE
290
     1
  9
$FINGERPRINTGUID
  2
{D222CCD9-41F0-483B-B418-B825346B3E25}
  9
$VERSIONGUID
  2
{F97C384C-ECF1-4E20-920F-C5612E9618B0}
  9
$EXTNAMES
290
     1
  9
$PSVPSCALE
 40
0.0
  9
$OLESTARTUP
290
     0
  0
ENDSEC
  0
SECTION
  2
CLASSES
  0
CLASS
  1
ACDBDICTIONARYWDFLT
  2
AcDbDictionaryWithDefault
  3
ObjectDBX Classes
 90
        0
280
     0
281
     0
  0
CLASS
  1
ACDBPLACEHOLDER
  2
AcDbPlaceHolder
  3
ObjectDBX Classes
 90
        0
280
     0
281
     0
  0
CLASS
  1
LAYOUT
  2
AcDbLayout
  3
ObjectDBX Classes
 90
        0
280
     0
281
     0
  0
CLASS
  1
DICTIONARYVAR
  2
AcDbDictionaryVar
  3
ObjectDBX Classes
 90
        0
280
     0
281
     0
  0
CLASS
  1
MATERIAL
  2
AcDbMaterial
  3
ObjectDBX Classes
 90
     1153
280
     0
281
     0
  0
CLASS
  1
VISUALSTYLE
  2
AcDbVisualStyle
  3
ObjectDBX Classes
 90
     4095
280
     0
281
     0
  0
CLASS
  1
TABLESTYLE
  2
AcDbTableStyle
  3
ObjectDBX Classes
 90
     4095
280
     0
281
     0
  0
CLASS
  1
SCALE
  2
AcDbScale
  3
ObjectDBX Classes
 90
     1153
280
     0
281
     0
  0
CLASS
  1
MLEADERSTYLE
  2
AcDbMLeaderStyle
  3
ACDB_MLEADERSTYLE_CLASS
 90
     4095
280
     0
281
     0
  0
CLASS
  1
ACDBSECTIONVIEWSTYLE
  2
AcDbSectionViewStyle
  3
ObjectDBX Classes
 90
     1025
280
     0
281
     0
  0
CLASS
  1
ACDBDETAILVIEWSTYLE
  2
AcDbDetailViewStyle
  3
ObjectDBX Classes
 90
     1025
280
     0
281
     0
  0
CLASS
  1
CELLSTYLEMAP
  2
AcDbCellStyleMap
  3
ObjectDBX Classes
 90
     1152
280
     0
281
     0
  0
ENDSEC
  0
SECTION
  2
TABLES
  0
TABLE
  2
VPORT
  5
9D2F
330
0
100
AcDbSymbolTable
 70
     1
  0
VPORT
  5
A0E8
330
9D2F
100
AcDbSymbolTableRecord
100
AcDbViewportTableRecord
  2
*ACTIVE
 70
     0
 10
0.0
 20
0.0
 11
1.0
 21
1.0
 12
300.5709134751902
 22
176.2746628189338
 13
0.0
 23
0.0
 14
10.0
 24
10.0
 15
10.0
 25
10.0
 16
0.0
 26
0.0
 36
1.0
 17
0.0
 27
0.0
 37
0.0
 40
336.2946931877723
 41
1.899603698811096
 42
50.0
 43
0.0
 44
0.0
 50
0.0
 51
0.0
 71
     0
 72
   100
 73
     1
 74
     0
 75
     0
 76
     0
 77
     0
 78
     0
281
     0
 65
     1
110
0.0
120
0.0
130
0.0
111
1.0
121
0.0
131
0.0
112
0.0
122
1.0
132
0.0
 79
     0
146
0.0
1001
ACAD_NAV_VCDISPLAY
1070
     3
  0
ENDTAB
  0
TABLE
  2
LTYPE
  5
9D2C
330
0
100
AcDbSymbolTable
 70
     4
  0
LTYPE
  5
9D3A
330
9D2C
100
AcDbSymbolTableRecord
100
AcDbLinetypeTableRecord
  2
BYBLOCK
 70
     0
  3

 72
    65
 73
     0
 40
0.0
  0
LTYPE
  5
9D3B
330
9D2C
100
AcDbSymbolTableRecord
100
AcDbLinetypeTableRecord
  2
BYLAYER
 70
     0
  3

 72
    65
 73
     0
 40
0.0
  0
LTYPE
  5
9D3C
330
9D2C
100
AcDbSymbolTableRecord
100
AcDbLinetypeTableRecord
  2
CONTINUOUS
 70
     0
  3
Solid line
 72
    65
 73
     0
 40
0.0
  0
LTYPE
  5
9D4A
330
9D2C
100
AcDbSymbolTableRecord
100
AcDbLinetypeTableRecord
  2
DASHED
 70
     0
  3
__ __ __ __ __ __ __ __ __ __ __ __ __ __ __ __
 72
    65
 73
     2
 40
0.75
 49
0.5
 74
     0
 49
-0.25
 74
     0
  0
LTYPE
  5
9D4B
330
9D2C
100
AcDbSymbolTableRecord
100
AcDbLinetypeTableRecord
  2
CENTER
 70
     0
  3
____ _ ____ _ ____ _ ____ _ ____ _ ____ _ ____ 
 72
    65
 73
     4
 40
2.0
 49
1.25
 74
     0
 49
-0.25
 74
     0
 49
0.25
 74
     0
 49
-0.25
 74
     0
  0
LTYPE
  5
9D4C
330
9D2C
100
AcDbSymbolTableRecord
100
AcDbLinetypeTableRecord
  2
PHANTOM
 70
     0
  3
______  __  __  ______  __  __  ______  __  __ 
 72
    65
 73
     6
 40
2.5
 49
1.25
 74
     0
 49
-0.25
 74
     0
 49
0.25
 74
     0
 49
-0.25
 74
     0
 49
0.25
 74
     0
 49
-0.25
 74
     0
  0
ENDTAB
  0
TABLE
  2
LAYER
  5
9D29
330
0
100
AcDbSymbolTable
 70
     8
  0
LAYER
  5
9D37
102
{ACAD_XDICTIONARY
360
A143
102
}
330
9D29
100
AcDbSymbolTableRecord
100
AcDbLayerTableRecord
  2
0
 70
     0
 62
     7
  6
CONTINUOUS
370
    -3
390
A0F1
  0
LAYER
  5
9D4D
102
{ACAD_XDICTIONARY
360
A145
102
}
330
9D29
100
AcDbSymbolTableRecord
100
AcDbLayerTableRecord
  2
4
 70
     0
 62
     1
  6
CENTER
370
    -3
390
A0F1
  0
LAYER
  5
9D4E
102
{ACAD_XDICTIONARY
360
A147
102
}
330
9D29
100
AcDbSymbolTableRecord
100
AcDbLayerTableRecord
  2
5
 70
     0
 62
     6
  6
PHANTOM
370
    -3
390
A0F1
  0
LAYER
  5
9D4F
102
{ACAD_XDICTIONARY
360
A149
102
}
330
9D29
100
AcDbSymbolTableRecord
100
AcDbLayerTableRecord
  2
1
 70
     0
 62
     7
  6
CONTINUOUS
370
    -3
390
A0F1
  0
LAYER
  5
9D50
102
{ACAD_XDICTIONARY
360
A14B
102
}
330
9D29
100
AcDbSymbolTableRecord
100
AcDbLayerTableRecord
  2
2
 70
     0
 62
     4
  6
CONTINUOUS
370
    -3
390
A0F1
  0
LAYER
  5
9D51
102
{ACAD_XDICTIONARY
360
A14D
102
}
330
9D29
100
AcDbSymbolTableRecord
100
AcDbLayerTableRecord
  2
3
 70
     0
 62
     2
  6
DASHED
370
    -3
390
A0F1
  0
LAYER
  5
9D52
102
{ACAD_XDICTIONARY
360
A14F
102
}
330
9D29
100
AcDbSymbolTableRecord
100
AcDbLayerTableRecord
  2
6
 70
     0
 62
     5
  6
CONTINUOUS
370
    -3
390
A0F1
  0
LAYER
  5
9D53
102
{ACAD_XDICTIONARY
360
A151
102
}
330
9D29
100
AcDbSymbolTableRecord
100
AcDbLayerTableRecord
  2
7
 70
     0
 62
     3
  6
CONTINUOUS
370
    -3
390
A0F1
  0
ENDTAB
  0
TABLE
  2
STYLE
  5
9D2A
330
0
100
AcDbSymbolTable
 70
     1
  0
STYLE
  5
9D38
330
9D2A
100
AcDbSymbolTableRecord
100
AcDbTextStyleTableRecord
  2
STANDARD
 70
     0
 40
0.0
 41
1.0
 50
0.0
 71
     0
 42
5.0
  3
txt
  4

  0
ENDTAB
  0
TABLE
  2
VIEW
  5
9D2D
330
0
100
AcDbSymbolTable
 70
     0
  0
ENDTAB
  0
TABLE
  2
UCS
  5
9D2E
330
0
100
AcDbSymbolTable
 70
     0
  0
ENDTAB
  0
TABLE
  2
APPID
  5
9D30
330
0
100
AcDbSymbolTable
 70
     3
  0
APPID
  5
9D39
330
9D30
100
AcDbSymbolTableRecord
100
AcDbRegAppTableRecord
  2
ACAD
 70
     0
  0
APPID
  5
A15D
330
9D30
100
AcDbSymbolTableRecord
100
AcDbRegAppTableRecord
  2
ACAD_NAV_VCDISPLAY
 70
     0
  0
APPID
  5
A196
330
9D30
100
AcDbSymbolTableRecord
100
AcDbRegAppTableRecord
  2
ACAD_MLEADERVER
 70
     0
  0
ENDTAB
  0
TABLE
  2
DIMSTYLE
  5
9D31
330
0
100
AcDbSymbolTable
 70
     1
100
AcDbDimStyleTable
 71
     0
  0
DIMSTYLE
105
9D55
330
9D31
100
AcDbSymbolTableRecord
100
AcDbDimStyleTableRecord
  2
STANDARD
 70
     0
 41
2.5
 42
1.0
 43
10.0
 44
1.0
 73
     0
 74
     0
 77
     3
 78
     8
140
2.5
141
0.0
143
0.0394
147
1.0
172
     1
173
     1
174
     1
175
     1
284
     8
285
     8
286
     8
340
9D38
  0
ENDTAB
  0
TABLE
  2
BLOCK_RECORD
  5
9D28
330
0
100
AcDbSymbolTable
 70
     1
  0
BLOCK_RECORD
  5
9D45
102
{ACAD_XDICTIONARY
360
A0EB
102
}
330
9D28
100
AcDbSymbolTableRecord
100
AcDbBlockTableRecord
  2
*MODEL_SPACE
340
A13F
  0
BLOCK_RECORD
  5
9D41
102
{ACAD_XDICTIONARY
360
A0E9
102
}
330
9D28
100
AcDbSymbolTableRecord
100
AcDbBlockTableRecord
  2
*PAPER_SPACE
340
A140
  0
BLOCK_RECORD
  5
9D5D
330
9D28
100
AcDbSymbolTableRecord
100
AcDbBlockTableRecord
  2
_OPEN
340
0
  0
ENDTAB
  0
ENDSEC
  0
SECTION
  2
BLOCKS
  0
BLOCK
  5
9D46
330
9D45
100
AcDbEntity
  8
0
100
AcDbBlockBegin
  2
*MODEL_SPACE
 70
     0
 10
0.0
 20
0.0
 30
0.0
  3
*MODEL_SPACE
  1

  0
ENDBLK
  5
9D47
330
9D45
100
AcDbEntity
  8
0
100
AcDbBlockEnd
  0
BLOCK
  5
9D42
330
9D41
100
AcDbEntity
 67
     1
  8
0
100
AcDbBlockBegin
  2
*PAPER_SPACE
 70
     0
 10
0.0
 20
0.0
 30
0.0
  3
*PAPER_SPACE
  1

  0
ENDBLK
  5
9D43
330
9D41
100
AcDbEntity
 67
     1
  8
0
100
AcDbBlockEnd
  0
BLOCK
  5
9D5E
330
9D5D
100
AcDbEntity
  8
0
100
AcDbBlockBegin
  2
_OPEN
 70
     0
 10
0.0
 20
0.0
 30
0.0
  3
_OPEN
  1

  0
LINE
  5
9D5F
330
9D5D
100
AcDbEntity
  8
0
  6
ByBlock
 62
     0
100
AcDbLine
 10
-1.0
 20
0.1666666666666666
 30
0.0
 11
0.0
 21
0.0
 31
0.0
  0
LINE
  5
9D60
330
9D5D
100
AcDbEntity
  8
0
  6
ByBlock
 62
     0
100
AcDbLine
 10
0.0
 20
0.0
 30
0.0
 11
-1.0
 21
-0.1666666666666666
 31
0.0
  0
LINE
  5
9D61
330
9D5D
100
AcDbEntity
  8
0
  6
ByBlock
 62
     0
100
AcDbLine
 10
0.0
 20
0.0
 30
0.0
 11
-1.0
 21
0.0
 31
0.0
  0
ENDBLK
  5
9D62
330
9D5D
100
AcDbEntity
  8
0
100
AcDbBlockEnd
  0
ENDSEC
  0
SECTION
  2
ENTITIES
  0
TEXT
  5
9D63
330
9D45
100
AcDbEntity
  8
7
  6
Continuous
100
AcDbText
 10
10.0
 20
18.0
 30
0.0
 40
3.0
  1
TYPE No.THA-295-2L
100
AcDbText
  0
TEXT
  5
9D64
330
9D45
100
AcDbEntity
  8
7
  6
Continuous
100
AcDbText
 10
10.0
 20
26.0
 30
0.0
 40
3.0
  1
CODE No.3262
100
AcDbText
  0
TEXT
  5
9D65
330
9D45
100
AcDbEntity
  8
1
  6
Continuous
100
AcDbText
 10
10.0
 20
10.0
 30
0.0
 40
1.399999999999999
  1
LAYER
100
AcDbText
  0
TEXT
  5
9D66
330
9D45
100
AcDbEntity
  8
1
  6
Continuous
100
AcDbText
 10
17.97951099999998
 20
10.04873699999998
 30
0.0
 40
1.399999999999999
  1
1
100
AcDbText
  0
TEXT
  5
9D67
330
9D45
100
AcDbEntity
  8
7
  6
Continuous
100
AcDbText
 10
29.97951099999999
 20
10.04873699999998
 30
0.0
 40
1.399999999999999
  1
7
100
AcDbText
  0
TEXT
  5
9D68
330
9D45
100
AcDbEntity
  8
4
  6
CENTER
100
AcDbText
 10
23.97951099999999
 20
10.04873699999998
 30
0.0
 40
1.399999999999999
  1
4
100
AcDbText
  0
TEXT
  5
9D69
330
9D45
100
AcDbEntity
  8
3
  6
DASHED
100
AcDbText
 10
21.979511
 20
10.04873699999998
 30
0.0
 40
1.399999999999999
  1
3
100
AcDbText
  0
TEXT
  5
9D6A
330
9D45
100
AcDbEntity
  8
2
  6
Continuous
100
AcDbText
 10
19.97951099999999
 20
10.04873699999998
 30
0.0
 40
1.399999999999999
  1
2
100
AcDbText
  0
TEXT
  5
9D6B
330
9D45
100
AcDbEntity
  8
6
  6
Continuous
100
AcDbText
 10
27.979511
 20
10.04873699999998
 30
0.0
 40
1.399999999999999
  1
6
100
AcDbText
  0
TEXT
  5
9D6C
330
9D45
100
AcDbEntity
  8
5
  6
PHANTOM
100
AcDbText
 10
25.97951099999999
 20
10.04873699999998
 30
0.0
 40
1.399999999999999
  1
5
100
AcDbText
  0
LINE
  5
9D6D
330
9D45
100
AcDbEntity
  8
1
  6
Continuous
100
AcDbLine
 10
126.9848839999998
 20
241.3272159999999
 30
0.0
 11
126.9848839999998
 21
136.3272159999999
 31
0.0
  0
LINE
  5
9D6E
330
9D45
100
AcDbEntity
  8
1
  6
Continuous
100
AcDbLine
 10
129.987884
 20
136.3272159999999
 30
0.0
 11
126.9848839999998
 21
136.3272159999999
 31
0.0
  0
LINE
  5
9D6F
330
9D45
100
AcDbEntity
  8
1
  6
Continuous
100
AcDbLine
 10
129.7578839999999
 20
241.3272159999999
 30
0.0
 11
126.9848839999998
 21
241.3272159999999
 31
0.0
  0
LINE
  5
9D70
330
9D45
100
AcDbEntity
  8
1
  6
Continuous
100
AcDbLine
 10
133.474884
 20
239.6712159999999
 30
0.0
 11
166.198884
 21
203.3112159999999
 31
0.0
  0
LINE
  5
9D71
330
9D45
100
AcDbEntity
  8
1
  6
Continuous
100
AcDbLine
 10
168.220884
 20
198.6672159999999
 30
0.0
 11
171.4068839999999
 21
162.823216
 31
0.0
  0
LINE
  5
9D72
330
9D45
100
AcDbEntity
  8
1
  6
Continuous
100
AcDbLine
 10
165.7378839999998
 20
154.4522159999999
 30
0.0
 11
146.237884
 21
148.603216
 31
0.0
  0
LINE
  5
9D73
330
9D45
100
AcDbEntity
  8
1
  6
Continuous
100
AcDbLine
 10
171.184884
 20
165.327216
 30
0.0
 11
156.4848839999999
 21
165.327216
 31
0.0
  0
LINE
  5
9D74
330
9D45
100
AcDbEntity
  8
1
  6
Continuous
100
AcDbLine
 10
169.211884
 20
163.3272159999999
 30
0.0
 11
157.952884
 21
163.3272159999999
 31
0.0
  0
LINE
  5
9D75
330
9D45
100
AcDbEntity
  8
1
  6
Continuous
100
AcDbLine
 10
150.484884
 20
206.3272159999999
 30
0.0
 11
150.484884
 21
171.3272159999999
 31
0.0
  0
LINE
  5
9D76
330
9D45
100
AcDbEntity
  8
1
  6
Continuous
100
AcDbLine
 10
148.4848839999999
 20
204.656216
 30
0.0
 11
148.4848839999999
 21
190.8982159999999
 31
0.0
  0
LINE
  5
9D77
330
9D45
100
AcDbEntity
  8
1
  6
Continuous
100
AcDbLine
 10
160.784884
 20
209.327216
 30
0.0
 11
153.4848839999999
 21
209.327216
 31
0.0
  0
LINE
  5
9D78
330
9D45
100
AcDbEntity
  8
1
  6
Continuous
100
AcDbLine
 10
158.090884
 20
211.327216
 30
0.0
 11
155.339884
 21
211.327216
 31
0.0
  0
LINE
  5
9D79
330
9D45
100
AcDbEntity
  8
1
  6
Continuous
100
AcDbLine
 10
142.984884
 20
176.3272159999999
 30
0.0
 11
142.984884
 21
159.3272159999999
 31
0.0
  0
LINE
  5
9D7A
330
9D45
100
AcDbEntity
  8
1
  6
Continuous
100
AcDbLine
 10
144.984884
 20
173.7022159999999
 30
0.0
 11
144.984884
 21
161.2062159999998
 31
0.0
  0
LINE
  5
9D7B
330
9D45
100
AcDbEntity
  8
1
  6
Continuous
100
AcDbLine
 10
138.2578839999998
 20
154.3272159999999
 30
0.0
 11
130.9208839999998
 21
154.3272159999999
 31
0.0
  0
LINE
  5
9D7C
330
9D45
100
AcDbEntity
  8
1
  6
Continuous
100
AcDbLine
 10
139.9848839999999
 20
156.3272159999999
 30
0.0
 11
126.9848839999998
 21
156.3272159999999
 31
0.0
  0
LINE
  5
9D7D
330
9D45
100
AcDbEntity
  8
1
  6
Continuous
100
AcDbLine
 10
139.9848839999999
 20
179.3272159999999
 30
0.0
 11
126.9848839999998
 21
179.3272159999999
 31
0.0
  0
LINE
  5
9D7E
330
9D45
100
AcDbEntity
  8
1
  6
Continuous
100
AcDbLine
 10
138.4868839999997
 20
181.3272159999999
 30
0.0
 11
131.1498839999998
 21
181.3272159999999
 31
0.0
  0
LINE
  5
9D7F
330
9D45
100
AcDbEntity
  8
4
  6
CENTER
100
AcDbLine
 10
166.984884
 20
171.3272159999999
 30
0.0
 11
156.9848839999998
 21
171.3272159999999
 31
0.0
  0
LINE
  5
9D80
330
9D45
100
AcDbEntity
  8
1
  6
Continuous
100
AcDbLine
 10
154.9848839999999
 20
187.3272159999999
 30
0.0
 11
151.9848839999999
 21
187.3272159999999
 31
0.0
  0
LINE
  5
9D81
330
9D45
100
AcDbEntity
  8
1
  6
Continuous
100
AcDbLine
 10
154.9848839999999
 20
207.327216
 30
0.0
 11
151.9848839999999
 21
207.327216
 31
0.0
  0
LINE
  5
9D82
330
9D45
100
AcDbEntity
  8
1
  6
Continuous
100
AcDbLine
 10
154.9848839999999
 20
207.327216
 30
0.0
 11
154.9848839999999
 21
187.3272159999999
 31
0.0
  0
LINE
  5
9D83
330
9D45
100
AcDbEntity
  8
1
  6
Continuous
100
AcDbLine
 10
151.9848839999999
 20
207.327216
 30
0.0
 11
151.9848839999999
 21
187.3272159999999
 31
0.0
  0
LINE
  5
9D84
330
9D45
100
AcDbEntity
  8
1
  6
Continuous
100
AcDbLine
 10
140.9848839999999
 20
158.3272159999999
 30
0.0
 11
131.9848839999999
 21
158.3272159999999
 31
0.0
  0
LINE
  5
9D85
330
9D45
100
AcDbEntity
  8
1
  6
Continuous
100
AcDbLine
 10
140.9848839999999
 20
177.3272159999999
 30
0.0
 11
131.9848839999999
 21
177.3272159999999
 31
0.0
  0
LINE
  5
9D86
330
9D45
100
AcDbEntity
  8
1
  6
Continuous
100
AcDbLine
 10
131.9848839999999
 20
177.3272159999999
 30
0.0
 11
131.9848839999999
 21
158.3272159999999
 31
0.0
  0
LINE
  5
9D87
330
9D45
100
AcDbEntity
  8
1
  6
Continuous
100
AcDbLine
 10
140.9848839999999
 20
177.3272159999999
 30
0.0
 11
140.9848839999999
 21
158.3272159999999
 31
0.0
  0
LINE
  5
9D88
330
9D45
100
AcDbEntity
  8
1
  6
Continuous
100
AcDbLine
 10
129.2848839999997
 20
181.3272159999999
 30
0.0
 11
126.9848839999998
 21
179.3272159999999
 31
0.0
  0
LINE
  5
9D89
330
9D45
100
AcDbEntity
  8
1
  6
Continuous
100
AcDbLine
 10
126.9848839999998
 20
156.3272159999999
 30
0.0
 11
129.2848839999997
 21
154.3272159999999
 31
0.0
  0
LINE
  5
9D8A
330
9D45
100
AcDbEntity
  8
1
  6
Continuous
100
AcDbLine
 10
66.98488399999999
 20
241.3272159999999
 30
0.0
 11
66.98488399999999
 21
136.3272159999999
 31
0.0
  0
LINE
  5
9D8B
330
9D45
100
AcDbEntity
  8
1
  6
Continuous
100
AcDbLine
 10
15.484844
 20
210.3272159999999
 30
0.0
 11
15.484844
 21
145.8272159999999
 31
0.0
  0
LINE
  5
9D8C
330
9D45
100
AcDbEntity
  8
1
  6
Continuous
100
AcDbLine
 10
66.98488399999999
 20
136.3272159999999
 30
0.0
 11
24.984884
 21
136.3272159999999
 31
0.0
  0
LINE
  5
9D8D
330
9D45
100
AcDbEntity
  8
1
  6
Continuous
100
AcDbLine
 10
66.98488399999999
 20
241.3272159999999
 30
0.0
 11
55.872884
 21
241.3272159999999
 31
0.0
  0
LINE
  5
9D8E
330
9D45
100
AcDbEntity
  8
1
  6
Continuous
100
AcDbLine
 10
49.117984
 20
238.700216
 30
0.0
 11
31.378684
 21
222.450216
 31
0.0
  0
LINE
  5
9D8F
330
9D45
100
AcDbEntity
  8
4
  6
CENTER
100
AcDbLine
 10
24.984884
 20
215.3272159999999
 30
0.0
 11
24.984884
 21
205.327216
 31
0.0
  0
LINE
  5
9D90
330
9D45
100
AcDbEntity
  8
4
  6
CENTER
100
AcDbLine
 10
29.984884
 20
210.3272159999999
 30
0.0
 11
19.98484399999998
 21
210.3272159999999
 31
0.0
  0
LINE
  5
9D91
330
9D45
100
AcDbEntity
  8
4
  6
CENTER
100
AcDbLine
 10
24.984884
 20
150.3272159999999
 30
0.0
 11
24.984884
 21
140.327216
 31
0.0
  0
LINE
  5
9D92
330
9D45
100
AcDbEntity
  8
4
  6
CENTER
100
AcDbLine
 10
29.984884
 20
145.327216
 30
0.0
 11
19.98484399999998
 21
145.327216
 31
0.0
  0
LINE
  5
9D93
330
9D45
100
AcDbEntity
  8
4
  6
CENTER
100
AcDbLine
 10
54.98488399999999
 20
150.3272159999999
 30
0.0
 11
54.98488399999999
 21
140.327216
 31
0.0
  0
LINE
  5
9D94
330
9D45
100
AcDbEntity
  8
4
  6
CENTER
100
AcDbLine
 10
59.98488399999999
 20
145.327216
 30
0.0
 11
49.984884
 21
145.327216
 31
0.0
  0
LINE
  5
9D95
330
9D45
100
AcDbEntity
  8
1
  6
Continuous
100
AcDbLine
 10
64.98488399999999
 20
179.3272159999999
 30
0.0
 11
64.98488399999999
 21
156.3272159999999
 31
0.0
  0
LINE
  5
9D96
330
9D45
100
AcDbEntity
  8
1
  6
Continuous
100
AcDbLine
 10
66.98478399999999
 20
181.3272159999999
 30
0.0
 11
64.98478399999999
 21
179.3272159999999
 31
0.0
  0
LINE
  5
9D97
330
9D45
100
AcDbEntity
  8
1
  6
Continuous
100
AcDbLine
 10
64.98478399999999
 20
156.3272159999999
 30
0.0
 11
66.98478399999999
 21
154.3272159999999
 31
0.0
  0
LINE
  5
9D98
330
9D45
100
AcDbEntity
  8
4
  6
CENTER
100
AcDbLine
 10
54.98488399999999
 20
237.3272159999999
 30
0.0
 11
54.98488399999999
 21
227.3272159999999
 31
0.0
  0
LINE
  5
9D99
330
9D45
100
AcDbEntity
  8
4
  6
CENTER
100
AcDbLine
 10
59.98488399999999
 20
232.327216
 30
0.0
 11
49.984884
 21
232.327216
 31
0.0
  0
LINE
  5
9D9A
330
9D45
100
AcDbEntity
  8
1
  6
Continuous
100
AcDbLine
 10
34.284784
 20
155.3272159999998
 30
0.0
 11
34.284784
 21
155.127216
 31
0.0
  0
LINE
  5
9D9B
330
9D45
100
AcDbEntity
  8
1
  6
Continuous
100
AcDbLine
 10
148.4848839999999
 20
184.708216
 30
0.0
 11
148.4848839999999
 21
172.798216
 31
0.0
  0
LINE
  5
9D9C
330
9D45
100
AcDbEntity
  8
4
  6
CENTER
100
AcDbLine
 10
131.9848839999999
 20
145.327216
 30
0.0
 11
121.984884
 21
145.327216
 31
0.0
  0
LINE
  5
9D9D
330
9D45
100
AcDbEntity
  8
4
  6
CENTER
100
AcDbLine
 10
160.853884
 20
195.327216
 30
0.0
 11
100.2883839999997
 21
195.327216
 31
0.0
  0
LINE
  5
9D9E
330
9D45
100
AcDbEntity
  8
4
  6
CENTER
100
AcDbLine
 10
71.98488399999998
 20
171.3272159999999
 30
0.0
 11
61.98488399999999
 21
171.3272159999999
 31
0.0
  0
LINE
  5
9D9F
330
9D45
100
AcDbEntity
  8
1
  6
Continuous
100
AcDbLine
 10
133.958884
 20
211.401216
 30
0.0
 11
134.588884
 21
211.401216
 31
0.0
  0
LINE
  5
9DA0
330
9D45
100
AcDbEntity
  8
1
  6
Continuous
100
AcDbLine
 10
134.375884
 20
212.3912159999999
 30
0.0
 11
135.592884
 21
212.3912159999999
 31
0.0
  0
LINE
  5
9DA1
330
9D45
100
AcDbEntity
  8
1
  6
Continuous
100
AcDbLine
 10
135.7988839999999
 20
212.0612159999998
 30
0.0
 11
134.170884
 21
212.0612159999998
 31
0.0
  0
LINE
  5
9DA2
330
9D45
100
AcDbEntity
  8
1
  6
Continuous
100
AcDbLine
 10
135.8408839999998
 20
211.7312159999999
 30
0.0
 11
134.1278839999999
 21
211.7312159999999
 31
0.0
  0
LINE
  5
9DA3
330
9D45
100
AcDbEntity
  8
1
  6
Continuous
100
AcDbLine
 10
135.8898839999999
 20
212.721216
 30
0.0
 11
134.4668839999999
 21
212.721216
 31
0.0
  0
LINE
  5
9DA4
330
9D45
100
AcDbEntity
  8
1
  6
Continuous
100
AcDbLine
 10
135.380884
 20
211.401216
 30
0.0
 11
136.009884
 21
211.401216
 31
0.0
  0
LINE
  5
9DA5
330
9D45
100
AcDbEntity
  8
1
  6
Continuous
100
AcDbLine
 10
134.052884
 20
209.752216
 30
0.0
 11
134.9848839999999
 21
209.752216
 31
0.0
  0
LINE
  5
9DA6
330
9D45
100
AcDbEntity
  8
1
  6
Continuous
100
AcDbLine
 10
134.9848839999999
 20
208.9282159999999
 30
0.0
 11
134.192884
 21
208.9282159999999
 31
0.0
  0
LINE
  5
9DA7
330
9D45
100
AcDbEntity
  8
1
  6
Continuous
100
AcDbLine
 10
134.9848839999999
 20
210.742216
 30
0.0
 11
134.9848839999999
 21
211.072216
 31
0.0
  0
LINE
  5
9DA8
330
9D45
100
AcDbEntity
  8
1
  6
Continuous
100
AcDbLine
 10
134.9848839999999
 20
209.752216
 30
0.0
 11
134.9848839999999
 21
209.917216
 31
0.0
  0
LINE
  5
9DA9
330
9D45
100
AcDbEntity
  8
1
  6
Continuous
100
AcDbLine
 10
134.9848839999999
 20
207.7482159999999
 30
0.0
 11
134.9848839999999
 21
208.4292159999999
 31
0.0
  0
LINE
  5
9DAA
330
9D45
100
AcDbEntity
  8
1
  6
Continuous
100
AcDbLine
 10
134.367884
 20
208.595216
 30
0.0
 11
135.7578839999999
 21
208.222216
 31
0.0
  0
LINE
  5
9DAB
330
9D45
100
AcDbEntity
  8
1
  6
Continuous
100
AcDbLine
 10
136.107884
 20
211.072216
 30
0.0
 11
133.860884
 21
211.072216
 31
0.0
  0
LINE
  5
9DAC
330
9D45
100
AcDbEntity
  8
1
  6
Continuous
100
AcDbLine
 10
136.134884
 20
210.742216
 30
0.0
 11
133.833884
 21
210.742216
 31
0.0
  0
LINE
  5
9DAD
330
9D45
100
AcDbEntity
  8
1
  6
Continuous
100
AcDbLine
 10
136.134884
 20
210.412216
 30
0.0
 11
133.833884
 21
210.412216
 31
0.0
  0
LINE
  5
9DAE
330
9D45
100
AcDbEntity
  8
1
  6
Continuous
100
AcDbLine
 10
136.0698839999997
 20
210.0822159999999
 30
0.0
 11
133.898884
 21
210.0822159999999
 31
0.0
  0
LINE
  5
9DAF
330
9D45
100
AcDbEntity
  8
1
  6
Continuous
100
AcDbLine
 10
136.0688839999999
 20
209.422216
 30
0.0
 11
134.003884
 21
209.422216
 31
0.0
  0
LINE
  5
9DB0
330
9D45
100
AcDbEntity
  8
1
  6
Continuous
100
AcDbLine
 10
135.380884
 20
209.752216
 30
0.0
 11
135.915884
 21
209.752216
 31
0.0
  0
LINE
  5
9DB1
330
9D45
100
AcDbEntity
  8
1
  6
Continuous
100
AcDbLine
 10
135.9138839999999
 20
209.0922159999998
 30
0.0
 11
135.1498839999998
 21
209.0922159999998
 31
0.0
  0
LINE
  5
9DB2
330
9D45
100
AcDbEntity
  8
1
  6
Continuous
100
AcDbLine
 10
135.1498839999998
 20
208.763216
 30
0.0
 11
135.853884
 21
208.763216
 31
0.0
  0
LINE
  5
9DB3
330
9D45
100
AcDbEntity
  8
1
  6
Continuous
100
AcDbLine
 10
222.9848839999999
 20
241.3272159999999
 30
0.0
 11
222.9848839999999
 21
136.3272159999999
 31
0.0
  0
LINE
  5
9DB4
330
9D45
100
AcDbEntity
  8
1
  6
Continuous
100
AcDbLine
 10
274.4848839999999
 20
210.3272159999999
 30
0.0
 11
274.4848839999999
 21
145.8272159999999
 31
0.0
  0
LINE
  5
9DB5
330
9D45
100
AcDbEntity
  8
1
  6
Continuous
100
AcDbLine
 10
222.9848839999999
 20
136.3272159999999
 30
0.0
 11
227.2848839999999
 21
136.3272159999999
 31
0.0
  0
LINE
  5
9DB6
330
9D45
100
AcDbEntity
  8
1
  6
Continuous
100
AcDbLine
 10
222.9848839999999
 20
241.3272159999999
 30
0.0
 11
234.0968839999999
 21
241.3272159999999
 31
0.0
  0
LINE
  5
9DB7
330
9D45
100
AcDbEntity
  8
1
  6
Continuous
100
AcDbLine
 10
240.8518839999999
 20
238.700216
 30
0.0
 11
254.4698839999998
 21
226.225216
 31
0.0
  0
LINE
  5
9DB8
330
9D45
100
AcDbEntity
  8
4
  6
CENTER
100
AcDbLine
 10
250.484884
 20
215.3272159999999
 30
0.0
 11
250.484884
 21
175.3272159999999
 31
0.0
  0
LINE
  5
9DB9
330
9D45
100
AcDbEntity
  8
4
  6
CENTER
100
AcDbLine
 10
230.484884
 20
195.327216
 30
0.0
 11
270.4848839999999
 21
195.327216
 31
0.0
  0
LINE
  5
9DBA
330
9D45
100
AcDbEntity
  8
4
  6
CENTER
100
AcDbLine
 10
264.9848839999999
 20
150.3272159999999
 30
0.0
 11
264.9848839999999
 21
140.327216
 31
0.0
  0
LINE
  5
9DBB
330
9D45
100
AcDbEntity
  8
4
  6
CENTER
100
AcDbLine
 10
259.9848839999999
 20
145.327216
 30
0.0
 11
269.9848839999999
 21
145.327216
 31
0.0
  0
LINE
  5
9DBC
330
9D45
100
AcDbEntity
  8
4
  6
CENTER
100
AcDbLine
 10
234.9848839999999
 20
150.3272159999999
 30
0.0
 11
234.9848839999999
 21
140.327216
 31
0.0
  0
LINE
  5
9DBD
330
9D45
100
AcDbEntity
  8
4
  6
CENTER
100
AcDbLine
 10
229.984884
 20
145.327216
 30
0.0
 11
239.984884
 21
145.327216
 31
0.0
  0
LINE
  5
9DBE
330
9D45
100
AcDbEntity
  8
4
  6
CENTER
100
AcDbLine
 10
234.9848839999999
 20
237.3272159999999
 30
0.0
 11
234.9848839999999
 21
227.3272159999999
 31
0.0
  0
LINE
  5
9DBF
330
9D45
100
AcDbEntity
  8
4
  6
CENTER
100
AcDbLine
 10
229.984884
 20
232.327216
 30
0.0
 11
239.984884
 21
232.327216
 31
0.0
  0
LINE
  5
9DC0
330
9D45
100
AcDbEntity
  8
1
  6
Continuous
100
AcDbLine
 10
270.684884
 20
162.127216
 30
0.0
 11
270.684884
 21
155.127216
 31
0.0
  0
LINE
  5
9DC1
330
9D45
100
AcDbEntity
  8
1
  6
Continuous
100
AcDbLine
 10
255.6848839999999
 20
158.127216
 30
0.0
 11
255.6848839999999
 21
155.127216
 31
0.0
  0
LINE
  5
9DC2
330
9D45
100
AcDbEntity
  8
1
  6
Continuous
100
AcDbLine
 10
255.6848839999999
 20
155.127216
 30
0.0
 11
270.684884
 21
155.127216
 31
0.0
  0
LINE
  5
9DC3
330
9D45
100
AcDbEntity
  8
1
  6
Continuous
100
AcDbLine
 10
255.6848839999999
 20
158.127216
 30
0.0
 11
267.684884
 21
158.127216
 31
0.0
  0
LINE
  5
9DC4
330
9D45
100
AcDbEntity
  8
1
  6
Continuous
100
AcDbLine
 10
267.684884
 20
162.127216
 30
0.0
 11
267.684884
 21
158.127216
 31
0.0
  0
LINE
  5
9DC5
330
9D45
100
AcDbEntity
  8
1
  6
Continuous
100
AcDbLine
 10
267.684884
 20
162.127216
 30
0.0
 11
270.684884
 21
162.127216
 31
0.0
  0
LINE
  5
9DC6
330
9D45
100
AcDbEntity
  8
1
  6
Continuous
100
AcDbLine
 10
232.2848839999998
 20
162.127216
 30
0.0
 11
232.2848839999998
 21
155.127216
 31
0.0
  0
LINE
  5
9DC7
330
9D45
100
AcDbEntity
  8
1
  6
Continuous
100
AcDbLine
 10
235.2848839999999
 20
162.127216
 30
0.0
 11
235.2848839999999
 21
155.127216
 31
0.0
  0
LINE
  5
9DC8
330
9D45
100
AcDbEntity
  8
1
  6
Continuous
100
AcDbLine
 10
232.2848839999998
 20
162.127216
 30
0.0
 11
235.2848839999999
 21
162.127216
 31
0.0
  0
LINE
  5
9DC9
330
9D45
100
AcDbEntity
  8
1
  6
Continuous
100
AcDbLine
 10
232.2848839999998
 20
155.127216
 30
0.0
 11
235.2848839999999
 21
155.127216
 31
0.0
  0
LINE
  5
9DCA
330
9D45
100
AcDbEntity
  8
1
  6
Continuous
100
AcDbLine
 10
267.684884
 20
183.127216
 30
0.0
 11
270.684884
 21
183.127216
 31
0.0
  0
LINE
  5
9DCB
330
9D45
100
AcDbEntity
  8
1
  6
Continuous
100
AcDbLine
 10
267.684884
 20
194.127216
 30
0.0
 11
270.684884
 21
194.127216
 31
0.0
  0
LINE
  5
9DCC
330
9D45
100
AcDbEntity
  8
1
  6
Continuous
100
AcDbLine
 10
270.684884
 20
194.127216
 30
0.0
 11
270.684884
 21
183.127216
 31
0.0
  0
LINE
  5
9DCD
330
9D45
100
AcDbEntity
  8
1
  6
Continuous
100
AcDbLine
 10
267.684884
 20
183.127216
 30
0.0
 11
267.684884
 21
194.127216
 31
0.0
  0
LINE
  5
9DCE
330
9D45
100
AcDbEntity
  8
1
  6
Continuous
100
AcDbLine
 10
243.745884
 20
208.8272159999999
 30
0.0
 11
250.7388839999999
 21
212.323216
 31
0.0
  0
LINE
  5
9DCF
330
9D45
100
AcDbEntity
  8
1
  6
Continuous
100
AcDbLine
 10
242.241884
 20
211.429216
 30
0.0
 11
249.3968839999999
 21
215.006216
 31
0.0
  0
LINE
  5
9DD0
330
9D45
100
AcDbEntity
  8
1
  6
Continuous
100
AcDbLine
 10
242.241884
 20
211.429216
 30
0.0
 11
243.541884
 21
208.8272159999999
 31
0.0
  0
LINE
  5
9DD1
330
9D45
100
AcDbEntity
  8
1
  6
Continuous
100
AcDbLine
 10
249.3968839999999
 20
215.006216
 30
0.0
 11
250.7388839999999
 21
212.323216
 31
0.0
  0
LINE
  5
9DD2
330
9D45
100
AcDbEntity
  8
4
  6
CENTER
100
AcDbLine
 10
217.984884
 20
171.3272159999999
 30
0.0
 11
235.3028839999999
 21
171.3272159999999
 31
0.0
  0
LINE
  5
9DD3
330
9D45
100
AcDbEntity
  8
1
  6
Continuous
100
AcDbLine
 10
363.9848839999999
 20
241.3272159999999
 30
0.0
 11
363.9848839999999
 21
136.3272159999999
 31
0.0
  0
LINE
  5
9DD4
330
9D45
100
AcDbEntity
  8
1
  6
Continuous
100
AcDbLine
 10
360.9818839999999
 20
136.3272159999999
 30
0.0
 11
363.9848839999999
 21
136.3272159999999
 31
0.0
  0
LINE
  5
9DD5
330
9D45
100
AcDbEntity
  8
1
  6
Continuous
100
AcDbLine
 10
361.2118839999998
 20
241.3272159999999
 30
0.0
 11
363.9848839999999
 21
241.3272159999999
 31
0.0
  0
LINE
  5
9DD6
330
9D45
100
AcDbEntity
  8
1
  6
Continuous
100
AcDbLine
 10
357.494884
 20
239.6712159999999
 30
0.0
 11
349.3158839999999
 21
230.584216
 31
0.0
  0
LINE
  5
9DD7
330
9D45
100
AcDbEntity
  8
1
  6
Continuous
100
AcDbLine
 10
322.7488839999999
 20
198.6672159999999
 30
0.0
 11
319.5618839999997
 21
162.823216
 31
0.0
  0
LINE
  5
9DD8
330
9D45
100
AcDbEntity
  8
1
  6
Continuous
100
AcDbLine
 10
325.231884
 20
154.4522159999999
 30
0.0
 11
328.1268839999999
 21
153.584216
 31
0.0
  0
LINE
  5
9DD9
330
9D45
100
AcDbEntity
  8
1
  6
Continuous
100
AcDbLine
 10
340.4848839999999
 20
184.1682159999997
 30
0.0
 11
340.4848839999999
 21
182.8692159999999
 31
0.0
  0
LINE
  5
9DDA
330
9D45
100
AcDbEntity
  8
1
  6
Continuous
100
AcDbLine
 10
335.9848839999999
 20
187.3272159999999
 30
0.0
 11
338.9848839999999
 21
187.3272159999999
 31
0.0
  0
LINE
  5
9DDB
330
9D45
100
AcDbEntity
  8
1
  6
Continuous
100
AcDbLine
 10
335.9848839999999
 20
190.0352159999999
 30
0.0
 11
335.9848839999999
 21
187.3272159999999
 31
0.0
  0
LINE
  5
9DDC
330
9D45
100
AcDbEntity
  8
1
  6
Continuous
100
AcDbLine
 10
338.9848839999999
 20
190.0252159999998
 30
0.0
 11
338.9848839999999
 21
187.3272159999999
 31
0.0
  0
LINE
  5
9DDD
330
9D45
100
AcDbEntity
  8
1
  6
Continuous
100
AcDbLine
 10
361.684884
 20
241.3272159999999
 30
0.0
 11
361.684884
 21
136.3272159999999
 31
0.0
  0
LINE
  5
9DDE
330
9D45
100
AcDbEntity
  8
4
  6
CENTER
100
AcDbLine
 10
357.370884
 20
145.327216
 30
0.0
 11
368.9848839999998
 21
145.327216
 31
0.0
  0
LINE
  5
9DDF
330
9D45
100
AcDbEntity
  8
4
  6
CENTER
100
AcDbLine
 10
335.7838839999997
 20
171.8272159999999
 30
0.0
 11
368.9848839999998
 21
171.8272159999999
 31
0.0
  0
LINE
  5
9DE0
330
9D45
100
AcDbEntity
  8
4
  6
CENTER
100
AcDbLine
 10
339.747884
 20
195.327216
 30
0.0
 11
389.6718839999999
 21
195.327216
 31
0.0
  0
LINE
  5
9DE1
330
9D45
100
AcDbEntity
  8
4
  6
CENTER
100
AcDbLine
 10
347.9868839999999
 20
210.3272159999999
 30
0.0
 11
368.9848839999998
 21
210.3272159999999
 31
0.0
  0
LINE
  5
9DE2
330
9D45
100
AcDbEntity
  8
4
  6
CENTER
100
AcDbLine
 10
351.6678839999997
 20
232.327216
 30
0.0
 11
368.9848839999998
 21
232.327216
 31
0.0
  0
LINE
  5
9DE3
330
9D45
100
AcDbEntity
  8
1
  6
Continuous
100
AcDbLine
 10
264.0848839999998
 20
176.7452159999999
 30
0.0
 11
264.0848839999998
 21
166.9082159999998
 31
0.0
  0
LINE
  5
9DE4
330
9D45
100
AcDbEntity
  8
1
  6
Continuous
100
AcDbLine
 10
265.884884
 20
176.7452159999999
 30
0.0
 11
265.884884
 21
166.9082159999998
 31
0.0
  0
LINE
  5
9DE5
330
9D45
100
AcDbEntity
  8
1
  6
Continuous
100
AcDbLine
 10
224.9848839999999
 20
209.327216
 30
0.0
 11
224.9848839999999
 21
165.327216
 31
0.0
  0
LINE
  5
9DE6
330
9D45
100
AcDbEntity
  8
1
  6
Continuous
100
AcDbLine
 10
227.2848839999999
 20
209.3265248065418
 30
0.0
 11
227.2848839999999
 21
130.7122159999997
 31
0.0
  0
LINE
  5
9DE7
330
9D45
100
AcDbEntity
  8
1
  6
Continuous
100
AcDbLine
 10
224.9848839999999
 20
209.327216
 30
0.0
 11
223.6585384032709
 21
210.6535615967291
 31
0.0
  0
LINE
  5
9DE8
330
9D45
100
AcDbEntity
  8
1
  6
Continuous
100
AcDbLine
 10
226.6112295967289
 20
210.9528704032707
 30
0.0
 11
225.2848839999999
 21
212.2792159999999
 31
0.0
  0
LINE
  5
9DE9
330
9D45
100
AcDbEntity
  8
1
  6
Continuous
100
AcDbLine
 10
225.2848839999999
 20
241.3272159999999
 30
0.0
 11
225.2848839999999
 21
212.2792159999999
 31
0.0
  0
LINE
  5
9DEA
330
9D45
100
AcDbEntity
  8
1
  6
Continuous
100
AcDbLine
 10
224.9848839999999
 20
165.327216
 30
0.0
 11
223.6585384032709
 21
164.0008704032709
 31
0.0
  0
LINE
  5
9DEB
330
9D45
100
AcDbEntity
  8
1
  6
Continuous
100
AcDbLine
 10
226.6112295967289
 20
163.7005615967288
 30
0.0
 11
225.2848839999999
 21
162.3742159999999
 31
0.0
  0
LINE
  5
9DEC
330
9D45
100
AcDbEntity
  8
1
  6
Continuous
100
AcDbLine
 10
358.9848839999998
 20
205.827216
 30
0.0
 11
358.9848839999998
 21
166.5092159999999
 31
0.0
  0
LINE
  5
9DED
330
9D45
100
AcDbEntity
  8
1
  6
Continuous
100
AcDbLine
 10
339.7848839999999
 20
176.8272159999999
 30
0.0
 11
339.7848839999999
 21
166.8272159999999
 31
0.0
  0
LINE
  5
9DEE
330
9D45
100
AcDbEntity
  8
1
  6
Continuous
100
AcDbLine
 10
339.7848839999999
 20
176.8272159999999
 30
0.0
 11
341.2848839999999
 21
176.8272159999999
 31
0.0
  0
LINE
  5
9DEF
330
9D45
100
AcDbEntity
  8
1
  6
Continuous
100
AcDbLine
 10
339.7848839999999
 20
166.8272159999999
 30
0.0
 11
341.2848839999999
 21
166.8272159999999
 31
0.0
  0
LINE
  5
9DF0
330
9D45
100
AcDbEntity
  8
1
  6
Continuous
100
AcDbLine
 10
357.684884
 20
175.8272159999999
 30
0.0
 11
358.9848839999998
 21
175.8272159999999
 31
0.0
  0
LINE
  5
9DF1
330
9D45
100
AcDbEntity
  8
1
  6
Continuous
100
AcDbLine
 10
357.684884
 20
167.8272159999998
 30
0.0
 11
358.9848839999998
 21
167.8272159999998
 31
0.0
  0
LINE
  5
9DF2
330
9D45
100
AcDbEntity
  8
1
  6
Continuous
100
AcDbLine
 10
255.412884
 20
157.7552159999999
 30
0.0
 11
258.2698839999998
 21
168.964216
 31
0.0
  0
LINE
  5
9DF3
330
9D45
100
AcDbEntity
  8
1
  6
Continuous
100
AcDbLine
 10
253.959884
 20
158.125216
 30
0.0
 11
257.9108839999999
 21
173.6302159999999
 31
0.0
  0
LINE
  5
9DF4
330
9D45
100
AcDbEntity
  8
1
  6
Continuous
100
AcDbLine
 10
265.7348839999999
 20
176.8272159999999
 30
0.0
 11
265.7348839999999
 21
167.3572159999999
 31
0.0
  0
LINE
  5
9DF5
330
9D45
100
AcDbEntity
  8
1
  6
Continuous
100
AcDbLine
 10
264.2348839999999
 20
176.8272159999999
 30
0.0
 11
264.2348839999999
 21
166.9082159999998
 31
0.0
  0
LINE
  5
9DF6
330
9D45
100
AcDbEntity
  8
1
  6
Continuous
100
AcDbLine
 10
265.7348839999999
 20
176.8272159999999
 30
0.0
 11
264.2348839999999
 21
176.8272159999999
 31
0.0
  0
LINE
  5
9DF7
330
9D45
100
AcDbEntity
  8
1
  6
Continuous
100
AcDbLine
 10
341.2848839999999
 20
178.377216
 30
0.0
 11
341.2848839999999
 21
165.2772159999998
 31
0.0
  0
LINE
  5
9DF8
330
9D45
100
AcDbEntity
  8
1
  6
Continuous
100
AcDbLine
 10
342.7848839999999
 20
178.377216
 30
0.0
 11
342.7848839999999
 21
165.2772159999998
 31
0.0
  0
LINE
  5
9DF9
330
9D45
100
AcDbEntity
  8
1
  6
Continuous
100
AcDbLine
 10
344.2678839999999
 20
178.377216
 30
0.0
 11
344.2678839999999
 21
165.2772159999998
 31
0.0
  0
LINE
  5
9DFA
330
9D45
100
AcDbEntity
  8
1
  6
Continuous
100
AcDbLine
 10
345.7518839999997
 20
178.377216
 30
0.0
 11
345.7518839999997
 21
165.2772159999998
 31
0.0
  0
LINE
  5
9DFB
330
9D45
100
AcDbEntity
  8
1
  6
Continuous
100
AcDbLine
 10
347.2348839999999
 20
178.377216
 30
0.0
 11
347.2348839999999
 21
165.2772159999998
 31
0.0
  0
LINE
  5
9DFC
330
9D45
100
AcDbEntity
  8
1
  6
Continuous
100
AcDbLine
 10
348.7178839999999
 20
178.377216
 30
0.0
 11
348.7178839999999
 21
165.2772159999998
 31
0.0
  0
LINE
  5
9DFD
330
9D45
100
AcDbEntity
  8
1
  6
Continuous
100
AcDbLine
 10
350.201884
 20
176.8272159999999
 30
0.0
 11
350.9848839999999
 21
176.8272159999999
 31
0.0
  0
LINE
  5
9DFE
330
9D45
100
AcDbEntity
  8
1
  6
Continuous
100
AcDbLine
 10
350.201884
 20
166.8272159999999
 30
0.0
 11
350.9848839999999
 21
166.8272159999999
 31
0.0
  0
LINE
  5
9DFF
330
9D45
100
AcDbEntity
  8
1
  6
Continuous
100
AcDbLine
 10
336.725884
 20
134.2722159999997
 30
0.0
 11
321.6768839999998
 21
168.0732159999998
 31
0.0
  0
LINE
  5
9E00
330
9D45
100
AcDbEntity
  8
1
  6
Continuous
100
AcDbLine
 10
351.271884
 20
185.9012159999998
 30
0.0
 11
347.4488839999998
 21
184.827216
 31
0.0
  0
LINE
  5
9E01
330
9D45
100
AcDbEntity
  8
1
  6
Continuous
100
AcDbLine
 10
341.0738839999999
 20
161.1702159999999
 30
0.0
 11
347.949884
 21
138.4502159999997
 31
0.0
  0
LINE
  5
9E02
330
9D45
100
AcDbEntity
  8
1
  6
Continuous
100
AcDbLine
 10
341.9458839999999
 20
164.532216
 30
0.0
 11
341.1308839999999
 21
162.4922159999998
 31
0.0
  0
LINE
  5
9E03
330
9D45
100
AcDbEntity
  8
1
  6
Continuous
100
AcDbLine
 10
229.2848839999999
 20
185.976216
 30
0.0
 11
229.2848839999999
 21
130.7122159999997
 31
0.0
  0
LINE
  5
9E04
330
9D45
100
AcDbEntity
  8
1
  6
Continuous
100
AcDbLine
 10
227.2848839999999
 20
130.7122159999997
 30
0.0
 11
229.2848839999999
 21
130.7122159999997
 31
0.0
  0
LINE
  5
9E05
330
9D45
100
AcDbEntity
  8
1
  6
Continuous
100
AcDbLine
 10
229.2848839999999
 20
136.3272159999999
 30
0.0
 11
264.9848839999999
 21
136.3272159999999
 31
0.0
  0
LINE
  5
9E06
330
9D45
100
AcDbEntity
  8
1
  6
Continuous
100
AcDbLine
 10
231.284884
 20
178.3272159999999
 30
0.0
 11
231.284884
 21
164.3272159999999
 31
0.0
  0
LINE
  5
9E07
330
9D45
100
AcDbEntity
  8
1
  6
Continuous
100
AcDbLine
 10
229.2848839999999
 20
163.8272159999999
 30
0.0
 11
230.7848839999997
 21
163.8272159999999
 31
0.0
  0
LINE
  5
9E08
330
9D45
100
AcDbEntity
  8
1
  6
Continuous
100
AcDbLine
 10
229.2848839999999
 20
178.8272159999999
 30
0.0
 11
230.7848839999997
 21
178.8272159999999
 31
0.0
  0
LINE
  5
9E09
330
9D45
100
AcDbEntity
  8
1
  6
Continuous
100
AcDbLine
 10
230.7848839999997
 20
163.8272159999999
 30
0.0
 11
231.284884
 21
164.3272159999999
 31
0.0
  0
LINE
  5
9E0A
330
9D45
100
AcDbEntity
  8
1
  6
Continuous
100
AcDbLine
 10
230.7848839999997
 20
178.8272159999999
 30
0.0
 11
231.284884
 21
178.3272159999999
 31
0.0
  0
LINE
  5
9E0B
330
9D45
100
AcDbEntity
  8
1
  6
Continuous
100
AcDbLine
 10
230.7848839999997
 20
178.8272159999999
 30
0.0
 11
230.7848839999997
 21
163.8272159999999
 31
0.0
  0
LINE
  5
9E0C
330
9D45
100
AcDbEntity
  8
1
  6
Continuous
100
AcDbLine
 10
227.2848839999999
 20
185.976216
 30
0.0
 11
229.2848839999999
 21
185.976216
 31
0.0
  0
LINE
  5
9E0D
330
9D45
100
AcDbEntity
  8
1
  6
Continuous
100
AcDbLine
 10
242.7488839999998
 20
182.102216
 30
0.0
 11
235.062884
 21
181.5182159999999
 31
0.0
  0
LINE
  5
9E0E
330
9D45
100
AcDbEntity
  8
1
  6
Continuous
100
AcDbLine
 10
254.0858839999999
 20
158.6222159999999
 30
0.0
 11
246.151884
 21
157.5982159999998
 31
0.0
  0
LINE
  5
9E0F
330
9D45
100
AcDbEntity
  8
1
  6
Continuous
100
AcDbLine
 10
266.0088839999999
 20
163.8922159999999
 30
0.0
 11
256.6698839999999
 21
162.6872159999997
 31
0.0
  0
LINE
  5
9E10
330
9D45
100
AcDbEntity
  8
1
  6
Continuous
100
AcDbLine
 10
253.5098839999998
 20
163.085216
 30
0.0
 11
254.0858839999999
 21
158.6222159999999
 31
0.0
  0
LINE
  5
9E11
330
9D45
100
AcDbEntity
  8
1
  6
Continuous
100
AcDbLine
 10
245.5758839999997
 20
162.061216
 30
0.0
 11
246.151884
 21
157.5982159999998
 31
0.0
  0
LINE
  5
9E12
330
9D45
100
AcDbEntity
  8
1
  6
Continuous
100
AcDbLine
 10
253.5098839999998
 20
163.085216
 30
0.0
 11
245.5758839999997
 21
162.061216
 31
0.0
  0
LINE
  5
9E13
330
9D45
100
AcDbEntity
  8
1
  6
Continuous
100
AcDbLine
 10
231.284884
 20
168.8512159999999
 30
0.0
 11
236.7888839999999
 21
163.7472159999999
 31
0.0
  0
LINE
  5
9E14
330
9D45
100
AcDbEntity
  8
1
  6
Continuous
100
AcDbLine
 10
233.4738839999999
 20
180.5092159999999
 30
0.0
 11
232.1348839999997
 21
178.144216
 31
0.0
  0
LINE
  5
9E15
330
9D45
100
AcDbEntity
  8
1
  6
Continuous
100
AcDbLine
 10
245.6778839999997
 20
161.2672159999999
 30
0.0
 11
244.8688839999999
 21
161.163216
 31
0.0
  0
LINE
  5
9E16
330
9D45
100
AcDbEntity
  8
1
  6
Continuous
100
AcDbLine
 10
359.4848839999999
 20
215.3912159999999
 30
0.0
 11
359.4848839999999
 21
178.5002159999999
 31
0.0
  0
LINE
  5
9E17
330
9D45
100
AcDbEntity
  8
4
  6
CENTER
100
AcDbLine
 10
358.9848839999998
 20
180.3272159999999
 30
0.0
 11
368.9848839999998
 21
180.3272159999999
 31
0.0
  0
LINE
  5
9E18
330
9D45
100
AcDbEntity
  8
1
  6
Continuous
100
AcDbLine
 10
382.684884
 20
215.3272159999999
 30
0.0
 11
363.9848839999999
 21
215.3272159999999
 31
0.0
  0
LINE
  5
9E19
330
9D45
100
AcDbEntity
  8
1
  6
Continuous
100
AcDbLine
 10
384.9848839999999
 20
213.027216
 30
0.0
 11
384.9848839999999
 21
157.627216
 31
0.0
  0
LINE
  5
9E1A
330
9D45
100
AcDbEntity
  8
1
  6
Continuous
100
AcDbLine
 10
382.684884
 20
155.3272159999998
 30
0.0
 11
363.9848839999999
 21
155.3272159999998
 31
0.0
  0
LINE
  5
9E1B
330
9D45
100
AcDbEntity
  8
1
  6
Continuous
100
AcDbLine
 10
358.9848839999998
 20
217.370216
 30
0.0
 11
358.9848839999998
 21
214.8272159999999
 31
0.0
  0
LINE
  5
9E1C
330
9D45
100
AcDbEntity
  8
1
  6
Continuous
100
AcDbLine
 10
358.9848839999998
 20
201.577216
 30
0.0
 11
359.4848839999999
 21
201.577216
 31
0.0
  0
LINE
  5
9E1D
330
9D45
100
AcDbEntity
  8
1
  6
Continuous
100
AcDbLine
 10
358.9848839999998
 20
189.077216
 30
0.0
 11
359.4848839999999
 21
189.077216
 31
0.0
  0
LINE
  5
9E1E
330
9D45
100
AcDbEntity
  8
1
  6
Continuous
100
AcDbLine
 10
354.4848839999998
 20
217.370216
 30
0.0
 11
354.4848839999998
 21
215.284216
 31
0.0
  0
LINE
  5
9E1F
330
9D45
100
AcDbEntity
  8
1
  6
Continuous
100
AcDbLine
 10
240.2368839999998
 20
216.5502159999999
 30
0.0
 11
241.5438839999999
 21
209.3692159999999
 31
0.0
  0
LINE
  5
9E20
330
9D45
100
AcDbEntity
  8
1
  6
Continuous
100
AcDbLine
 10
239.007884
 20
217.340216
 30
0.0
 11
234.5508839999999
 21
216.212216
 31
0.0
  0
LINE
  5
9E21
330
9D45
100
AcDbEntity
  8
1
  6
Continuous
100
AcDbLine
 10
358.9848839999998
 20
217.370216
 30
0.0
 11
354.4848839999998
 21
217.370216
 31
0.0
  0
LINE
  5
9E22
330
9D45
100
AcDbEntity
  8
1
  6
Continuous
100
AcDbLine
 10
358.9848839999998
 20
183.720216
 30
0.0
 11
354.4848839999998
 21
183.720216
 31
0.0
  0
LINE
  5
9E23
330
9D45
100
AcDbEntity
  8
1
  6
Continuous
100
AcDbLine
 10
353.184884
 20
158.6222159999999
 30
0.0
 11
350.9678839999998
 21
158.6222159999999
 31
0.0
  0
LINE
  5
9E24
330
9D45
100
AcDbEntity
  8
1
  6
Continuous
100
AcDbLine
 10
353.184884
 20
157.8542159999997
 30
0.0
 11
350.9678839999998
 21
157.8542159999997
 31
0.0
  0
LINE
  5
9E25
330
9D45
100
AcDbEntity
  8
1
  6
Continuous
100
AcDbLine
 10
357.684884
 20
179.8272159999999
 30
0.0
 11
352.9848839999999
 21
179.8272159999999
 31
0.0
  0
LINE
  5
9E26
330
9D45
100
AcDbEntity
  8
1
  6
Continuous
100
AcDbLine
 10
344.684884
 20
163.085216
 30
0.0
 11
344.684884
 21
157.5982159999998
 31
0.0
  0
LINE
  5
9E27
330
9D45
100
AcDbEntity
  8
1
  6
Continuous
100
AcDbLine
 10
357.684884
 20
179.8272159999999
 30
0.0
 11
357.684884
 21
162.2922159999999
 31
0.0
  0
LINE
  5
9E28
330
9D45
100
AcDbEntity
  8
1
  6
Continuous
100
AcDbLine
 10
353.184884
 20
179.8272159999999
 30
0.0
 11
353.184884
 21
162.2922159999999
 31
0.0
  0
LINE
  5
9E29
330
9D45
100
AcDbEntity
  8
1
  6
Continuous
100
AcDbLine
 10
348.184884
 20
157.8542159999997
 30
0.0
 11
344.684884
 21
157.5982159999998
 31
0.0
  0
LINE
  5
9E2A
330
9D45
100
AcDbEntity
  8
4
  6
CENTER
100
AcDbLine
 10
342.206884
 20
141.7122159999999
 30
0.0
 11
342.206884
 21
131.7122159999997
 31
0.0
  0
LINE
  5
9E2B
330
9D45
100
AcDbEntity
  8
4
  6
CENTER
100
AcDbLine
 10
347.2068839999997
 20
136.7122159999997
 30
0.0
 11
337.206884
 21
136.7122159999997
 31
0.0
  0
LINE
  5
9E2C
330
9D45
100
AcDbEntity
  8
1
  6
Continuous
100
AcDbLine
 10
353.184884
 20
163.085216
 30
0.0
 11
350.9678839999998
 21
163.085216
 31
0.0
  0
LINE
  5
9E2D
330
9D45
100
AcDbEntity
  8
1
  6
Continuous
100
AcDbLine
 10
349.4678839999999
 20
158.6222159999999
 30
0.0
 11
344.684884
 21
158.6222159999999
 31
0.0
  0
LINE
  5
9E2E
330
9D45
100
AcDbEntity
  8
1
  6
Continuous
100
AcDbLine
 10
352.9848839999999
 20
181.827216
 30
0.0
 11
352.9848839999999
 21
163.085216
 31
0.0
  0
LINE
  5
9E2F
330
9D45
100
AcDbEntity
  8
1
  6
Continuous
100
AcDbLine
 10
350.9848839999999
 20
181.827216
 30
0.0
 11
350.9848839999999
 21
163.085216
 31
0.0
  0
LINE
  5
9E30
330
9D45
100
AcDbEntity
  8
1
  6
Continuous
100
AcDbLine
 10
350.9848839999999
 20
177.827216
 30
0.0
 11
352.9848839999999
 21
177.827216
 31
0.0
  0
LINE
  5
9E31
330
9D45
100
AcDbEntity
  8
1
  6
Continuous
100
AcDbLine
 10
342.9848839999999
 20
184.827216
 30
0.0
 11
349.9848839999998
 21
184.827216
 31
0.0
  0
LINE
  5
9E32
330
9D45
100
AcDbEntity
  8
1
  6
Continuous
100
AcDbLine
 10
342.9848839999999
 20
182.827216
 30
0.0
 11
349.9848839999998
 21
182.827216
 31
0.0
  0
LINE
  5
9E33
330
9D45
100
AcDbEntity
  8
1
  6
Continuous
100
AcDbLine
 10
341.9848839999999
 20
208.750216
 30
0.0
 11
341.9848839999999
 21
185.827216
 31
0.0
  0
LINE
  5
9E34
330
9D45
100
AcDbEntity
  8
1
  6
Continuous
100
AcDbLine
 10
339.9848839999999
 20
190.0252159999998
 30
0.0
 11
339.9848839999999
 21
185.827216
 31
0.0
  0
LINE
  5
9E35
330
9D45
100
AcDbEntity
  8
1
  6
Continuous
100
AcDbLine
 10
349.4848839999999
 20
236.827216
 30
0.0
 11
339.6528839999998
 21
235.6922159999998
 31
0.0
  0
LINE
  5
9E36
330
9D45
100
AcDbEntity
  8
1
  6
Continuous
100
AcDbLine
 10
334.833884
 20
190.0252159999998
 30
0.0
 11
339.9848839999999
 21
190.0252159999998
 31
0.0
  0
LINE
  5
9E37
330
9D45
100
AcDbEntity
  8
1
  6
Continuous
100
AcDbLine
 10
336.134884
 20
232.157216
 30
0.0
 11
331.8518839999999
 21
193.3542159999998
 31
0.0
  0
LINE
  5
9E38
330
9D45
100
AcDbEntity
  8
1
  6
Continuous
100
AcDbLine
 10
349.0308839999997
 20
220.044216
 30
0.0
 11
349.4848839999999
 21
236.827216
 31
0.0
  0
LINE
  5
9E39
330
9D45
100
AcDbEntity
  8
1
  6
Continuous
100
AcDbLine
 10
347.892884
 20
217.000216
 30
0.0
 11
342.668884
 21
210.657216
 31
0.0
  0
LINE
  5
9E3A
330
9D45
100
AcDbEntity
  8
1
  6
Continuous
100
AcDbLine
 10
334.0948839999999
 20
213.671216
 30
0.0
 11
324.7708839999999
 21
203.3112159999999
 31
0.0
  0
LINE
  5
9E3B
330
9D45
100
AcDbEntity
  8
1
  6
Continuous
100
AcDbLine
 10
341.5788839999997
 20
183.1772159999999
 30
0.0
 11
326.819884
 21
179.0282159999999
 31
0.0
  0
LINE
  5
9E3C
330
9D45
100
AcDbEntity
  8
4
  6
CENTER
100
AcDbLine
 10
328.9848839999997
 20
181.3272159999999
 30
0.0
 11
328.9848839999997
 21
161.3272159999999
 31
0.0
  0
LINE
  5
9E3D
330
9D45
100
AcDbEntity
  8
4
  6
CENTER
100
AcDbLine
 10
338.9848839999999
 20
171.3272159999999
 30
0.0
 11
318.9848839999999
 21
171.3272159999999
 31
0.0
  0
LINE
  5
9E3E
330
9D45
100
AcDbEntity
  8
1
  6
Continuous
100
AcDbLine
 10
361.684884
 20
218.627216
 30
0.0
 11
360.216884
 21
217.1592159999999
 31
0.0
  0
LINE
  5
9E3F
330
9D45
100
AcDbEntity
  8
1
  6
Continuous
100
AcDbLine
 10
354.9848839999999
 20
214.8272159999999
 30
0.0
 11
359.4848839999999
 21
214.8272159999999
 31
0.0
  0
LINE
  5
9E40
330
9D45
100
AcDbEntity
  8
1
  6
Continuous
100
AcDbLine
 10
354.9848839999999
 20
205.827216
 30
0.0
 11
359.4848839999999
 21
205.827216
 31
0.0
  0
LINE
  5
9E41
330
9D45
100
AcDbEntity
  8
1
  6
Continuous
100
AcDbLine
 10
354.9848839999999
 20
214.8272159999999
 30
0.0
 11
354.9848839999999
 21
205.827216
 31
0.0
  0
LINE
  5
9E42
330
9D45
100
AcDbEntity
  8
1
  6
Continuous
100
AcDbLine
 10
352.6848839999997
 20
214.2112159999999
 30
0.0
 11
352.6848839999997
 21
206.4422159999999
 31
0.0
  0
LINE
  5
9E43
330
9D45
100
AcDbEntity
  8
1
  6
Continuous
100
AcDbLine
 10
351.184884
 20
214.2112159999999
 30
0.0
 11
351.184884
 21
206.4422159999999
 31
0.0
  0
LINE
  5
9E44
330
9D45
100
AcDbEntity
  8
1
  6
Continuous
100
AcDbLine
 10
352.6848839999997
 20
213.3272159999999
 30
0.0
 11
353.4728839999999
 21
213.3272159999999
 31
0.0
  0
LINE
  5
9E45
330
9D45
100
AcDbEntity
  8
1
  6
Continuous
100
AcDbLine
 10
352.6848839999997
 20
207.327216
 30
0.0
 11
353.141884
 21
207.327216
 31
0.0
  0
LINE
  5
9E46
330
9D45
100
AcDbEntity
  8
1
  6
Continuous
100
AcDbLine
 10
354.4848839999998
 20
205.827216
 30
0.0
 11
354.4848839999998
 21
179.8272159999999
 31
0.0
  0
LINE
  5
9E47
330
9D45
100
AcDbEntity
  8
1
  6
Continuous
100
AcDbLine
 10
264.218884
 20
206.4012159999998
 30
0.0
 11
257.5278839999999
 21
204.634216
 31
0.0
  0
LINE
  5
9E48
330
9D45
100
AcDbEntity
  8
1
  6
Continuous
100
AcDbLine
 10
266.2618839999999
 20
205.4922159999999
 30
0.0
 11
257.6658839999999
 21
203.2222159999999
 31
0.0
  0
LINE
  5
9E49
330
9D45
100
AcDbEntity
  8
1
  6
Continuous
100
AcDbLine
 10
263.707884
 20
215.161216
 30
0.0
 11
263.9638839999999
 21
214.194216
 31
0.0
  0
LINE
  5
9E4A
330
9D45
100
AcDbEntity
  8
4
  6
CENTER
100
AcDbLine
 10
258.4848839999997
 20
210.3272159999999
 30
0.0
 11
271.4848839999999
 21
210.3272159999999
 31
0.0
  0
LINE
  5
9E4B
330
9D45
100
AcDbEntity
  8
4
  6
CENTER
100
AcDbLine
 10
264.9848839999999
 20
216.8272159999999
 30
0.0
 11
264.9848839999999
 21
203.8272159999999
 31
0.0
  0
LINE
  5
9E4C
330
9D45
100
AcDbEntity
  8
1
  6
Continuous
100
AcDbLine
 10
257.9848839999999
 20
236.827216
 30
0.0
 11
261.9848839999999
 21
236.827216
 31
0.0
  0
LINE
  5
9E4D
330
9D45
100
AcDbEntity
  8
1
  6
Continuous
100
AcDbLine
 10
242.984884
 20
192.6842159999999
 30
0.0
 11
242.984884
 21
182.454216
 31
0.0
  0
LINE
  5
9E4E
330
9D45
100
AcDbEntity
  8
1
  6
Continuous
100
AcDbLine
 10
267.4848839999999
 20
186.5032159999999
 30
0.0
 11
267.4848839999999
 21
182.5392159999999
 31
0.0
  0
LINE
  5
9E4F
330
9D45
100
AcDbEntity
  8
1
  6
Continuous
100
AcDbLine
 10
261.9848839999999
 20
236.827216
 30
0.0
 11
257.624884
 21
206.310216
 31
0.0
  0
LINE
  5
9E50
330
9D45
100
AcDbEntity
  8
1
  6
Continuous
100
AcDbLine
 10
259.9318839999999
 20
198.388216
 30
0.0
 11
265.9848839999999
 21
191.3272159999999
 31
0.0
  0
LINE
  5
9E51
330
9D45
100
AcDbEntity
  8
1
  6
Continuous
100
AcDbLine
 10
265.9848839999999
 20
191.3272159999999
 30
0.0
 11
264.4658839999999
 21
190.0252159999998
 31
0.0
  0
LINE
  5
9E52
330
9D45
100
AcDbEntity
  8
1
  6
Continuous
100
AcDbLine
 10
254.4198839999999
 20
225.8752159999999
 30
0.0
 11
252.9658839999999
 21
215.6952159999999
 31
0.0
  0
LINE
  5
9E53
330
9D45
100
AcDbEntity
  8
1
  6
Continuous
100
AcDbLine
 10
243.8018839999998
 20
162.1172159999999
 30
0.0
 11
255.3458839999999
 21
163.5642159999999
 31
0.0
  0
LINE
  5
9E54
330
9D45
100
AcDbEntity
  8
5
  6
PHANTOM
100
AcDbLine
 10
219.342884
 20
185.513216
 30
0.0
 11
233.0388839999999
 21
189.9162159999999
 31
0.0
  0
LINE
  5
9E55
330
9D45
100
AcDbEntity
  8
5
  6
PHANTOM
100
AcDbLine
 10
222.609884
 20
197.067216
 30
0.0
 11
234.6778839999998
 21
200.947216
 31
0.0
  0
LINE
  5
9E56
330
9D45
100
AcDbEntity
  8
5
  6
PHANTOM
100
AcDbLine
 10
219.151884
 20
192.6542159999999
 30
0.0
 11
218.691884
 21
186.0232159999999
 31
0.0
  0
LINE
  5
9E57
330
9D45
100
AcDbEntity
  8
1
  6
Continuous
100
AcDbLine
 10
259.9648839999999
 20
236.827216
 30
0.0
 11
255.6458839999999
 21
206.593216
 31
0.0
  0
LINE
  5
9E58
330
9D45
100
AcDbEntity
  8
1
  6
Continuous
100
AcDbLine
 10
258.413884
 20
197.0862159999999
 30
0.0
 11
264.4658839999999
 21
190.0252159999998
 31
0.0
  0
LINE
  5
9E59
330
9D45
100
AcDbEntity
  8
1
  6
Continuous
100
AcDbLine
 10
264.4658839999999
 20
190.0252159999998
 30
0.0
 11
267.4848839999999
 21
186.5032159999999
 31
0.0
  0
LINE
  5
9E5A
330
9D45
100
AcDbEntity
  8
1
  6
Continuous
100
AcDbLine
 10
242.984884
 20
182.827216
 30
0.0
 11
267.4848839999999
 21
182.827216
 31
0.0
  0
LINE
  5
9E5B
330
9D45
100
AcDbEntity
  8
1
  6
Continuous
100
AcDbLine
 10
256.944884
 20
163.764216
 30
0.0
 11
263.7998839999997
 21
164.6232159999998
 31
0.0
  0
LINE
  5
9E5C
330
9D45
100
AcDbEntity
  8
1
  6
Continuous
100
AcDbLine
 10
225.2848839999999
 20
162.3742159999999
 30
0.0
 11
225.2848839999999
 21
136.3272159999999
 31
0.0
  0
LINE
  5
9E5D
330
9D45
100
AcDbEntity
  8
1
  6
Continuous
100
AcDbLine
 10
227.727884
 20
205.6842159999999
 30
0.0
 11
227.2848839999999
 21
204.5772159999999
 31
0.0
  0
LINE
  5
9E5E
330
9D45
100
AcDbEntity
  8
3
  6
DASHED
100
AcDbLine
 10
225.7228839999999
 20
198.8272159999999
 30
0.0
 11
227.2848839999999
 21
198.8272159999999
 31
0.0
  0
LINE
  5
9E5F
330
9D45
100
AcDbEntity
  8
1
  6
Continuous
100
AcDbLine
 10
255.0688839999998
 20
162.4802159999999
 30
0.0
 11
253.6118839999998
 21
162.2922159999999
 31
0.0
  0
LINE
  5
9E60
330
9D45
100
AcDbEntity
  8
1
  6
Continuous
100
AcDbLine
 10
343.4848839999999
 20
198.8272159999999
 30
0.0
 11
343.4848839999999
 21
191.8272159999999
 31
0.0
  0
LINE
  5
9E61
330
9D45
100
AcDbEntity
  8
1
  6
Continuous
100
AcDbLine
 10
343.4848839999999
 20
198.8272159999999
 30
0.0
 11
345.6618839999999
 21
198.8272159999999
 31
0.0
  0
LINE
  5
9E62
330
9D45
100
AcDbEntity
  8
1
  6
Continuous
100
AcDbLine
 10
343.4848839999999
 20
191.8272159999999
 30
0.0
 11
345.2758839999999
 21
191.8272159999999
 31
0.0
  0
LINE
  5
9E63
330
9D45
100
AcDbEntity
  8
1
  6
Continuous
100
AcDbLine
 10
354.1578839999999
 20
200.3272159999999
 30
0.0
 11
354.4848839999998
 21
200.3272159999999
 31
0.0
  0
LINE
  5
9E64
330
9D45
100
AcDbEntity
  8
1
  6
Continuous
100
AcDbLine
 10
353.6058839999997
 20
190.327216
 30
0.0
 11
354.4848839999998
 21
190.327216
 31
0.0
  0
LINE
  5
9E65
330
9D45
100
AcDbEntity
  8
1
  6
Continuous
100
AcDbLine
 10
231.284884
 20
177.6222159999999
 30
0.0
 11
237.8588839999999
 21
177.4562159999999
 31
0.0
  0
LINE
  5
9E66
330
9D45
100
AcDbEntity
  8
1
  6
Continuous
100
AcDbLine
 10
354.9438839999999
 20
214.5882159999999
 30
0.0
 11
353.5208839999999
 21
188.788216
 31
0.0
  0
LINE
  5
9E67
330
9D45
100
AcDbEntity
  8
1
  6
Continuous
100
AcDbLine
 10
353.5458839999997
 20
214.6652159999999
 30
0.0
 11
352.1238839999999
 21
188.865216
 31
0.0
  0
LINE
  5
9E68
330
9D45
100
AcDbEntity
  8
1
  6
Continuous
100
AcDbLine
 10
345.8298839999998
 20
201.865216
 30
0.0
 11
345.1168839999998
 21
188.942216
 31
0.0
  0
LINE
  5
9E69
330
9D45
100
AcDbEntity
  8
1
  6
Continuous
100
AcDbLine
 10
351.437884
 20
201.865216
 30
0.0
 11
350.7258839999997
 21
188.942216
 31
0.0
  0
LINE
  5
9E6A
330
9D45
100
AcDbEntity
  8
1
  6
Continuous
100
AcDbLine
 10
350.035884
 20
201.865216
 30
0.0
 11
349.3238839999999
 21
188.942216
 31
0.0
  0
LINE
  5
9E6B
330
9D45
100
AcDbEntity
  8
1
  6
Continuous
100
AcDbLine
 10
348.6338839999998
 20
201.865216
 30
0.0
 11
347.920884
 21
188.942216
 31
0.0
  0
LINE
  5
9E6C
330
9D45
100
AcDbEntity
  8
1
  6
Continuous
100
AcDbLine
 10
347.2318839999999
 20
201.865216
 30
0.0
 11
346.5188839999997
 21
188.942216
 31
0.0
  0
LINE
  5
9E6D
330
9D45
100
AcDbEntity
  8
1
  6
Continuous
100
AcDbLine
 10
354.543884
 20
207.327216
 30
0.0
 11
354.9848839999999
 21
207.327216
 31
0.0
  0
LINE
  5
9E6E
330
9D45
100
AcDbEntity
  8
1
  6
Continuous
100
AcDbLine
 10
354.874884
 20
213.3272159999999
 30
0.0
 11
354.9848839999999
 21
213.3272159999999
 31
0.0
  0
LINE
  5
9E6F
330
9D45
100
AcDbEntity
  8
1
  6
Continuous
100
AcDbLine
 10
108.284884
 20
215.3272159999999
 30
0.0
 11
126.9848839999998
 21
215.3272159999999
 31
0.0
  0
LINE
  5
9E70
330
9D45
100
AcDbEntity
  8
1
  6
Continuous
100
AcDbLine
 10
105.9848839999998
 20
213.027216
 30
0.0
 11
105.9848839999998
 21
157.627216
 31
0.0
  0
LINE
  5
9E71
330
9D45
100
AcDbEntity
  8
1
  6
Continuous
100
AcDbLine
 10
108.284884
 20
155.3272159999998
 30
0.0
 11
126.9848839999998
 21
155.3272159999998
 31
0.0
  0
LINE
  5
9E72
330
9D45
100
AcDbEntity
  8
1
  6
Continuous
100
AcDbLine
 10
105.9848839999998
 20
162.3272159999999
 30
0.0
 11
126.9848839999998
 21
162.3272159999999
 31
0.0
  0
LINE
  5
9E73
330
9D45
100
AcDbEntity
  8
1
  6
Continuous
100
AcDbLine
 10
105.9848839999998
 20
167.3272159999999
 30
0.0
 11
108.284884
 21
167.3272159999999
 31
0.0
  0
LINE
  5
9E74
330
9D45
100
AcDbEntity
  8
1
  6
Continuous
100
AcDbLine
 10
108.284884
 20
207.3542159999997
 30
0.0
 11
108.284884
 21
162.3272159999999
 31
0.0
  0
LINE
  5
9E75
330
9D45
100
AcDbEntity
  8
1
  6
Continuous
100
AcDbLine
 10
126.9848839999998
 20
209.327216
 30
0.0
 11
108.284884
 21
209.327216
 31
0.0
  0
LINE
  5
9E76
330
9D45
100
AcDbEntity
  8
1
  6
Continuous
100
AcDbLine
 10
126.9848839999998
 20
207.3542159999997
 30
0.0
 11
108.284884
 21
207.3542159999997
 31
0.0
  0
LINE
  5
9E77
330
9D45
100
AcDbEntity
  8
1
  6
Continuous
100
AcDbLine
 10
108.284884
 20
204.8542159999998
 30
0.0
 11
105.9848839999998
 21
204.8542159999998
 31
0.0
  0
LINE
  5
9E78
330
9D45
100
AcDbEntity
  8
1
  6
Continuous
100
AcDbLine
 10
137.784884
 20
171.407216
 30
0.0
 11
133.284884
 21
171.407216
 31
0.0
  0
LINE
  5
9E79
330
9D45
100
AcDbEntity
  8
1
  6
Continuous
100
AcDbLine
 10
137.784884
 20
177.3272159999999
 30
0.0
 11
137.784884
 21
161.0802159999998
 31
0.0
  0
LINE
  5
9E7A
330
9D45
100
AcDbEntity
  8
1
  6
Continuous
100
AcDbLine
 10
139.9848839999999
 20
161.827216
 30
0.0
 11
137.9848839999999
 21
161.827216
 31
0.0
  0
LINE
  5
9E7B
330
9D45
100
AcDbEntity
  8
1
  6
Continuous
100
AcDbLine
 10
139.9848839999999
 20
171.8272159999999
 30
0.0
 11
137.9848839999999
 21
171.8272159999999
 31
0.0
  0
LINE
  5
9E7C
330
9D45
100
AcDbEntity
  8
1
  6
Continuous
100
AcDbLine
 10
154.484884
 20
198.8272159999999
 30
0.0
 11
152.4848839999999
 21
198.8272159999999
 31
0.0
  0
LINE
  5
9E7D
330
9D45
100
AcDbEntity
  8
1
  6
Continuous
100
AcDbLine
 10
137.784884
 20
161.0802159999998
 30
0.0
 11
133.284884
 21
161.0802159999998
 31
0.0
  0
LINE
  5
9E7E
330
9D45
100
AcDbEntity
  8
1
  6
Continuous
100
AcDbLine
 10
57.48488399999999
 20
155.3272159999998
 30
0.0
 11
19.48484399999999
 21
155.3272159999998
 31
0.0
  0
LINE
  5
9E7F
330
9D45
100
AcDbEntity
  8
1
  6
Continuous
100
AcDbLine
 10
57.48488399999999
 20
162.3272159999999
 30
0.0
 11
57.48488399999999
 21
155.3272159999998
 31
0.0
  0
LINE
  5
9E80
330
9D45
100
AcDbEntity
  8
1
  6
Continuous
100
AcDbLine
 10
19.48484399999999
 20
195.327216
 30
0.0
 11
19.48484399999999
 21
155.3272159999998
 31
0.0
  0
LINE
  5
9E81
330
9D45
100
AcDbEntity
  8
1
  6
Continuous
100
AcDbLine
 10
57.48488399999999
 20
162.3272159999999
 30
0.0
 11
55.18488399999998
 21
162.3272159999999
 31
0.0
  0
LINE
  5
9E82
330
9D45
100
AcDbEntity
  8
1
  6
Continuous
100
AcDbLine
 10
49.48478399999999
 20
167.3272159999999
 30
0.0
 11
55.18478399999999
 21
162.3272159999999
 31
0.0
  0
LINE
  5
9E83
330
9D45
100
AcDbEntity
  8
1
  6
Continuous
100
AcDbLine
 10
49.484884
 20
167.3272159999999
 30
0.0
 11
36.120784
 21
168.877216
 31
0.0
  0
LINE
  5
9E84
330
9D45
100
AcDbEntity
  8
1
  6
Continuous
100
AcDbLine
 10
53.060884
 20
185.7412159999999
 30
0.0
 11
36.120784
 21
183.7772159999999
 31
0.0
  0
LINE
  5
9E85
330
9D45
100
AcDbEntity
  8
1
  6
Continuous
100
AcDbLine
 10
51.484884
 20
209.327216
 30
0.0
 11
39.484884
 21
215.3272159999999
 31
0.0
  0
LINE
  5
9E86
330
9D45
100
AcDbEntity
  8
1
  6
Continuous
100
AcDbLine
 10
51.484884
 20
209.327216
 30
0.0
 11
49.248784
 21
204.8542159999998
 31
0.0
  0
LINE
  5
9E87
330
9D45
100
AcDbEntity
  8
5
  6
PHANTOM
100
AcDbLine
 10
33.128984
 20
182.8532159999998
 30
0.0
 11
54.95868399999999
 21
171.7302159999999
 31
0.0
  0
LINE
  5
9E88
330
9D45
100
AcDbEntity
  8
5
  6
PHANTOM
100
AcDbLine
 10
66.515484
 20
186.864216
 30
0.0
 11
70.514584
 21
187.9302159999998
 31
0.0
  0
LINE
  5
9E89
330
9D45
100
AcDbEntity
  8
5
  6
PHANTOM
100
AcDbLine
 10
64.493884
 20
187.4822159999999
 30
0.0
 11
61.385684
 21
191.0422159999999
 31
0.0
  0
LINE
  5
9E8A
330
9D45
100
AcDbEntity
  8
5
  6
PHANTOM
100
AcDbLine
 10
55.93278399999999
 20
177.2172159999998
 30
0.0
 11
51.442284
 21
182.3602159999999
 31
0.0
  0
LINE
  5
9E8B
330
9D45
100
AcDbEntity
  8
1
  6
Continuous
100
AcDbLine
 10
108.284884
 20
199.327216
 30
0.0
 11
108.9848839999998
 21
199.327216
 31
0.0
  0
LINE
  5
9E8C
330
9D45
100
AcDbEntity
  8
1
  6
Continuous
100
AcDbLine
 10
108.284884
 20
191.3272159999999
 30
0.0
 11
108.9848839999998
 21
191.3272159999999
 31
0.0
  0
LINE
  5
9E8D
330
9D45
100
AcDbEntity
  8
1
  6
Continuous
100
AcDbLine
 10
108.9848839999998
 20
207.3542159999997
 30
0.0
 11
108.9848839999998
 21
163.657216
 31
0.0
  0
LINE
  5
9E8E
330
9D45
100
AcDbEntity
  8
1
  6
Continuous
100
AcDbLine
 10
113.4848839999998
 20
207.3542159999997
 30
0.0
 11
113.4848839999998
 21
163.657216
 31
0.0
  0
LINE
  5
9E8F
330
9D45
100
AcDbEntity
  8
1
  6
Continuous
100
AcDbLine
 10
126.9848839999998
 20
203.327216
 30
0.0
 11
113.4848839999998
 21
203.327216
 31
0.0
  0
LINE
  5
9E90
330
9D45
100
AcDbEntity
  8
1
  6
Continuous
100
AcDbLine
 10
126.9848839999998
 20
187.3272159999999
 30
0.0
 11
113.4848839999998
 21
187.3272159999999
 31
0.0
  0
LINE
  5
9E91
330
9D45
100
AcDbEntity
  8
1
  6
Continuous
100
AcDbLine
 10
113.4848839999998
 20
163.657216
 30
0.0
 11
108.9848839999998
 21
163.657216
 31
0.0
  0
LINE
  5
9E92
330
9D45
100
AcDbEntity
  8
1
  6
Continuous
100
AcDbLine
 10
108.484884
 20
199.327216
 30
0.0
 11
108.484884
 21
191.3272159999999
 31
0.0
  0
LINE
  5
9E93
330
9D45
100
AcDbEntity
  8
1
  6
Continuous
100
AcDbLine
 10
125.9848839999998
 20
187.3272159999999
 30
0.0
 11
125.9848839999998
 21
171.3272159999999
 31
0.0
  0
LINE
  5
9E94
330
9D45
100
AcDbEntity
  8
1
  6
Continuous
100
AcDbLine
 10
114.9848839999998
 20
187.3272159999999
 30
0.0
 11
114.9848839999998
 21
171.3272159999999
 31
0.0
  0
LINE
  5
9E95
330
9D45
100
AcDbEntity
  8
1
  6
Continuous
100
AcDbLine
 10
125.9848839999998
 20
171.3272159999999
 30
0.0
 11
113.4848839999998
 21
171.3272159999999
 31
0.0
  0
LINE
  5
9E96
330
9D45
100
AcDbEntity
  8
1
  6
Continuous
100
AcDbLine
 10
232.7528839999999
 20
169.947216
 30
0.0
 11
239.7748839999999
 21
163.417216
 31
0.0
  0
LINE
  5
9E97
330
9D45
100
AcDbEntity
  8
1
  6
Continuous
100
AcDbLine
 10
43.84868400000001
 20
169.482216
 30
0.0
 11
45.60958399999999
 21
173.8672159999999
 31
0.0
  0
LINE
  5
9E98
330
9D45
100
AcDbEntity
  8
1
  6
Continuous
100
AcDbLine
 10
30.718184
 20
172.2062159999999
 30
0.0
 11
33.360084
 21
178.7862159999999
 31
0.0
  0
LINE
  5
9E99
330
9D45
100
AcDbEntity
  8
1
  6
Continuous
100
AcDbLine
 10
245.0468839999998
 20
208.8272159999999
 30
0.0
 11
232.369884
 21
208.8272159999999
 31
0.0
  0
LINE
  5
9E9A
330
9D45
100
AcDbEntity
  8
1
  6
Continuous
100
AcDbLine
 10
274.4848839999999
 20
315.400216
 30
0.0
 11
225.2848839999999
 21
315.400216
 31
0.0
  0
LINE
  5
9E9B
330
9D45
100
AcDbEntity
  8
1
  6
Continuous
100
AcDbLine
 10
222.9848839999999
 20
313.1002159999998
 30
0.0
 11
222.9848839999999
 21
270.4002159999999
 31
0.0
  0
LINE
  5
9E9C
330
9D45
100
AcDbEntity
  8
1
  6
Continuous
100
AcDbLine
 10
225.2848839999999
 20
313.1002159999998
 30
0.0
 11
225.2848839999999
 21
270.4002159999999
 31
0.0
  0
LINE
  5
9E9D
330
9D45
100
AcDbEntity
  8
1
  6
Continuous
100
AcDbLine
 10
274.4848839999999
 20
313.1002159999998
 30
0.0
 11
225.2848839999999
 21
313.1002159999998
 31
0.0
  0
LINE
  5
9E9E
330
9D45
100
AcDbEntity
  8
1
  6
Continuous
100
AcDbLine
 10
274.4848839999999
 20
315.400216
 30
0.0
 11
274.4848839999999
 21
313.1002159999998
 31
0.0
  0
LINE
  5
9E9F
330
9D45
100
AcDbEntity
  8
1
  6
Continuous
100
AcDbLine
 10
227.484884
 20
270.4002159999999
 30
0.0
 11
222.9848839999999
 21
270.4002159999999
 31
0.0
  0
LINE
  5
9EA0
330
9D45
100
AcDbEntity
  8
1
  6
Continuous
100
AcDbLine
 10
266.184884
 20
336.400216
 30
0.0
 11
232.3318839999997
 21
336.400216
 31
0.0
  0
LINE
  5
9EA1
330
9D45
100
AcDbEntity
  8
1
  6
Continuous
100
AcDbLine
 10
268.4848839999999
 20
334.1002159999998
 30
0.0
 11
268.4848839999999
 21
315.400216
 31
0.0
  0
LINE
  5
9EA2
330
9D45
100
AcDbEntity
  8
1
  6
Continuous
100
AcDbLine
 10
230.484884
 20
334.1002159999998
 30
0.0
 11
230.484884
 21
315.400216
 31
0.0
  0
LINE
  5
9EA3
330
9D45
100
AcDbEntity
  8
1
  6
Continuous
100
AcDbLine
 10
232.7848839999997
 20
334.1002159999998
 30
0.0
 11
232.7848839999997
 21
333.400216
 31
0.0
  0
LINE
  5
9EA4
330
9D45
100
AcDbEntity
  8
4
  6
CENTER
100
AcDbLine
 10
250.484884
 20
342.542216
 30
0.0
 11
250.484884
 21
287.8002159999999
 31
0.0
  0
LINE
  5
9EA5
330
9D45
100
AcDbEntity
  8
1
  6
Continuous
100
AcDbLine
 10
238.484884
 20
334.1002159999998
 30
0.0
 11
232.3318839999997
 21
334.1002159999998
 31
0.0
  0
LINE
  5
9EA6
330
9D45
100
AcDbEntity
  8
1
  6
Continuous
100
AcDbLine
 10
238.484884
 20
336.400216
 30
0.0
 11
238.484884
 21
315.400216
 31
0.0
  0
LINE
  5
9EA7
330
9D45
100
AcDbEntity
  8
1
  6
Continuous
100
AcDbLine
 10
250.484884
 20
336.027216
 30
0.0
 11
250.484884
 21
315.400216
 31
0.0
  0
LINE
  5
9EA8
330
9D45
100
AcDbEntity
  8
1
  6
Continuous
100
AcDbLine
 10
232.3318839999997
 20
334.1002159999998
 30
0.0
 11
232.3318839999997
 21
336.400216
 31
0.0
  0
LINE
  5
9EA9
330
9D45
100
AcDbEntity
  8
1
  6
Continuous
100
AcDbLine
 10
231.4058839999999
 20
328.9002159999999
 30
0.0
 11
231.4058839999999
 21
333.400216
 31
0.0
  0
LINE
  5
9EAA
330
9D45
100
AcDbEntity
  8
1
  6
Continuous
100
AcDbLine
 10
238.484884
 20
333.400216
 30
0.0
 11
231.4058839999999
 21
333.400216
 31
0.0
  0
LINE
  5
9EAB
330
9D45
100
AcDbEntity
  8
1
  6
Continuous
100
AcDbLine
 10
238.484884
 20
328.9002159999999
 30
0.0
 11
231.4058839999999
 21
328.9002159999999
 31
0.0
  0
LINE
  5
9EAC
330
9D45
100
AcDbEntity
  8
1
  6
Continuous
100
AcDbLine
 10
232.7848839999997
 20
328.9002159999999
 30
0.0
 11
232.7848839999997
 21
315.400216
 31
0.0
  0
LINE
  5
9EAD
330
9D45
100
AcDbEntity
  8
1
  6
Continuous
100
AcDbLine
 10
267.4848839999999
 20
302.400216
 30
0.0
 11
271.9848839999999
 21
302.400216
 31
0.0
  0
LINE
  5
9EAE
330
9D45
100
AcDbEntity
  8
1
  6
Continuous
100
AcDbLine
 10
265.9848839999999
 20
291.200216
 30
0.0
 11
269.9848839999999
 21
291.200216
 31
0.0
  0
LINE
  5
9EAF
330
9D45
100
AcDbEntity
  8
1
  6
Continuous
100
AcDbLine
 10
269.9848839999999
 20
291.200216
 30
0.0
 11
269.9848839999999
 21
292.700216
 31
0.0
  0
LINE
  5
9EB0
330
9D45
100
AcDbEntity
  8
1
  6
Continuous
100
AcDbLine
 10
268.9848839999999
 20
302.400216
 30
0.0
 11
268.9848839999999
 21
303.800216
 31
0.0
  0
LINE
  5
9EB1
330
9D45
100
AcDbEntity
  8
1
  6
Continuous
100
AcDbLine
 10
267.4848839999999
 20
292.700216
 30
0.0
 11
271.5348839999999
 21
292.700216
 31
0.0
  0
LINE
  5
9EB2
330
9D45
100
AcDbEntity
  8
1
  6
Continuous
100
AcDbLine
 10
267.4848839999999
 20
301.6172159999999
 30
0.0
 11
271.5348839999999
 21
301.6172159999999
 31
0.0
  0
LINE
  5
9EB3
330
9D45
100
AcDbEntity
  8
1
  6
Continuous
100
AcDbLine
 10
267.4848839999999
 20
294.200216
 30
0.0
 11
271.5348839999999
 21
294.200216
 31
0.0
  0
LINE
  5
9EB4
330
9D45
100
AcDbEntity
  8
1
  6
Continuous
100
AcDbLine
 10
267.4848839999999
 20
295.683216
 30
0.0
 11
271.5348839999999
 21
295.683216
 31
0.0
  0
LINE
  5
9EB5
330
9D45
100
AcDbEntity
  8
1
  6
Continuous
100
AcDbLine
 10
267.4848839999999
 20
297.167216
 30
0.0
 11
271.5348839999999
 21
297.167216
 31
0.0
  0
LINE
  5
9EB6
330
9D45
100
AcDbEntity
  8
1
  6
Continuous
100
AcDbLine
 10
267.4848839999999
 20
298.650216
 30
0.0
 11
271.5348839999999
 21
298.650216
 31
0.0
  0
LINE
  5
9EB7
330
9D45
100
AcDbEntity
  8
1
  6
Continuous
100
AcDbLine
 10
269.9848839999999
 20
301.6172159999999
 30
0.0
 11
269.9848839999999
 21
302.400216
 31
0.0
  0
LINE
  5
9EB8
330
9D45
100
AcDbEntity
  8
1
  6
Continuous
100
AcDbLine
 10
272.9848839999997
 20
309.1002159999998
 30
0.0
 11
272.9848839999997
 21
304.600216
 31
0.0
  0
LINE
  5
9EB9
330
9D45
100
AcDbEntity
  8
1
  6
Continuous
100
AcDbLine
 10
232.8398839999999
 20
306.400216
 30
0.0
 11
232.8398839999999
 21
305.9002159999999
 31
0.0
  0
LINE
  5
9EBA
330
9D45
100
AcDbEntity
  8
1
  6
Continuous
100
AcDbLine
 10
240.1898839999998
 20
308.852216
 30
0.0
 11
240.1898839999998
 21
305.9002159999999
 31
0.0
  0
LINE
  5
9EBB
330
9D45
100
AcDbEntity
  8
1
  6
Continuous
100
AcDbLine
 10
269.4848839999999
 20
306.400216
 30
0.0
 11
269.4848839999999
 21
310.900216
 31
0.0
  0
LINE
  5
9EBC
330
9D45
100
AcDbEntity
  8
1
  6
Continuous
100
AcDbLine
 10
260.4848839999997
 20
306.400216
 30
0.0
 11
269.4848839999999
 21
306.400216
 31
0.0
  0
LINE
  5
9EBD
330
9D45
100
AcDbEntity
  8
1
  6
Continuous
100
AcDbLine
 10
267.9848839999999
 20
304.100216
 30
0.0
 11
267.9848839999999
 21
304.832216
 31
0.0
  0
LINE
  5
9EBE
330
9D45
100
AcDbEntity
  8
1
  6
Continuous
100
AcDbLine
 10
261.0998839999999
 20
304.100216
 30
0.0
 11
268.869884
 21
304.100216
 31
0.0
  0
LINE
  5
9EBF
330
9D45
100
AcDbEntity
  8
1
  6
Continuous
100
AcDbLine
 10
261.0998839999999
 20
302.6002159999998
 30
0.0
 11
268.869884
 21
302.6002159999998
 31
0.0
  0
LINE
  5
9EC0
330
9D45
100
AcDbEntity
  8
1
  6
Continuous
100
AcDbLine
 10
260.4848839999997
 20
306.400216
 30
0.0
 11
260.4848839999997
 21
310.900216
 31
0.0
  0
LINE
  5
9EC1
330
9D45
100
AcDbEntity
  8
1
  6
Continuous
100
AcDbLine
 10
261.9848839999999
 20
288.7612159999998
 30
0.0
 11
261.9848839999999
 21
298.900216
 31
0.0
  0
LINE
  5
9EC2
330
9D45
100
AcDbEntity
  8
1
  6
Continuous
100
AcDbLine
 10
252.984884
 20
298.661216
 30
0.0
 11
252.984884
 21
300.900216
 31
0.0
  0
LINE
  5
9EC3
330
9D45
100
AcDbEntity
  8
1
  6
Continuous
100
AcDbLine
 10
259.9648839999999
 20
288.7612159999998
 30
0.0
 11
259.9648839999999
 21
298.893216
 31
0.0
  0
LINE
  5
9EC4
330
9D45
100
AcDbEntity
  8
1
  6
Continuous
100
AcDbLine
 10
252.984884
 20
300.900216
 30
0.0
 11
259.9848839999999
 21
300.900216
 31
0.0
  0
LINE
  5
9EC5
330
9D45
100
AcDbEntity
  8
1
  6
Continuous
100
AcDbLine
 10
252.984884
 20
298.893216
 30
0.0
 11
259.9648839999999
 21
298.893216
 31
0.0
  0
LINE
  5
9EC6
330
9D45
100
AcDbEntity
  8
1
  6
Continuous
100
AcDbLine
 10
229.4848839999999
 20
304.400216
 30
0.0
 11
243.358884
 21
304.400216
 31
0.0
  0
LINE
  5
9EC7
330
9D45
100
AcDbEntity
  8
1
  6
Continuous
100
AcDbLine
 10
229.4848839999999
 20
302.400216
 30
0.0
 11
242.984884
 21
302.400216
 31
0.0
  0
LINE
  5
9EC8
330
9D45
100
AcDbEntity
  8
1
  6
Continuous
100
AcDbLine
 10
271.9848839999999
 20
302.400216
 30
0.0
 11
271.9848839999999
 21
304.600216
 31
0.0
  0
LINE
  5
9EC9
330
9D45
100
AcDbEntity
  8
4
  6
CENTER
100
AcDbLine
 10
264.9848839999999
 20
288.1392159999998
 30
0.0
 11
264.9848839999999
 21
317.775216
 31
0.0
  0
LINE
  5
9ECA
330
9D45
100
AcDbEntity
  8
1
  6
Continuous
100
AcDbLine
 10
243.7838839999999
 20
291.4002159999999
 30
0.0
 11
255.5248839999999
 21
291.4002159999999
 31
0.0
  0
LINE
  5
9ECB
330
9D45
100
AcDbEntity
  8
1
  6
Continuous
100
AcDbLine
 10
240.7838839999997
 20
293.400216
 30
0.0
 11
246.3038839999999
 21
293.400216
 31
0.0
  0
LINE
  5
9ECC
330
9D45
100
AcDbEntity
  8
1
  6
Continuous
100
AcDbLine
 10
242.984884
 20
293.400216
 30
0.0
 11
242.984884
 21
304.400216
 31
0.0
  0
LINE
  5
9ECD
330
9D45
100
AcDbEntity
  8
1
  6
Continuous
100
AcDbLine
 10
259.9648839999999
 20
287.900216
 30
0.0
 11
261.531884
 21
287.900216
 31
0.0
  0
LINE
  5
9ECE
330
9D45
100
AcDbEntity
  8
1
  6
Continuous
100
AcDbLine
 10
255.5248839999999
 20
283.6992159999999
 30
0.0
 11
255.5248839999999
 21
291.4002159999999
 31
0.0
  0
LINE
  5
9ECF
330
9D45
100
AcDbEntity
  8
1
  6
Continuous
100
AcDbLine
 10
255.5248839999999
 20
283.6992159999999
 30
0.0
 11
259.338884
 21
287.308216
 31
0.0
  0
LINE
  5
9ED0
330
9D45
100
AcDbEntity
  8
1
  6
Continuous
100
AcDbLine
 10
257.5448839999999
 20
283.6992159999999
 30
0.0
 11
261.3598839999997
 21
287.308216
 31
0.0
  0
LINE
  5
9ED1
330
9D45
100
AcDbEntity
  8
1
  6
Continuous
100
AcDbLine
 10
265.9848839999999
 20
286.3942159999999
 30
0.0
 11
265.9848839999999
 21
293.400216
 31
0.0
  0
LINE
  5
9ED2
330
9D45
100
AcDbEntity
  8
1
  6
Continuous
100
AcDbLine
 10
255.5248839999999
 20
283.6992159999999
 30
0.0
 11
262.860884
 21
283.396216
 31
0.0
  0
LINE
  5
9ED3
330
9D45
100
AcDbEntity
  8
1
  6
Continuous
100
AcDbLine
 10
252.984884
 20
298.661216
 30
0.0
 11
255.9218839999997
 21
298.661216
 31
0.0
  0
LINE
  5
9ED4
330
9D45
100
AcDbEntity
  8
1
  6
Continuous
100
AcDbLine
 10
254.013884
 20
295.0312159999999
 30
0.0
 11
255.9218839999997
 21
298.661216
 31
0.0
  0
LINE
  5
9ED5
330
9D45
100
AcDbEntity
  8
1
  6
Continuous
100
AcDbLine
 10
254.013884
 20
297.0312159999998
 30
0.0
 11
254.8708839999999
 21
298.661216
 31
0.0
  0
LINE
  5
9ED6
330
9D45
100
AcDbEntity
  8
1
  6
Continuous
100
AcDbLine
 10
258.9798839999999
 20
297.188216
 30
0.0
 11
256.2658839999999
 21
292.489216
 31
0.0
  0
LINE
  5
9ED7
330
9D45
100
AcDbEntity
  8
1
  6
Continuous
100
AcDbLine
 10
261.9848839999999
 20
293.400216
 30
0.0
 11
267.4848839999999
 21
293.400216
 31
0.0
  0
LINE
  5
9ED8
330
9D45
100
AcDbEntity
  8
1
  6
Continuous
100
AcDbLine
 10
265.9848839999999
 20
291.4002159999999
 30
0.0
 11
267.4848839999999
 21
291.4002159999999
 31
0.0
  0
LINE
  5
9ED9
330
9D45
100
AcDbEntity
  8
1
  6
Continuous
100
AcDbLine
 10
267.4848839999999
 20
291.4002159999999
 30
0.0
 11
267.4848839999999
 21
302.6002159999998
 31
0.0
  0
LINE
  5
9EDA
330
9D45
100
AcDbEntity
  8
1
  6
Continuous
100
AcDbLine
 10
270.901884
 20
310.900216
 30
0.0
 11
242.2378839999999
 21
310.900216
 31
0.0
  0
LINE
  5
9EDB
330
9D45
100
AcDbEntity
  8
1
  6
Continuous
100
AcDbLine
 10
261.9848839999999
 20
304.100216
 30
0.0
 11
261.9848839999999
 21
306.400216
 31
0.0
  0
LINE
  5
9EDC
330
9D45
100
AcDbEntity
  8
1
  6
Continuous
100
AcDbLine
 10
267.4848839999999
 20
300.133216
 30
0.0
 11
271.5348839999999
 21
300.133216
 31
0.0
  0
LINE
  5
9EDD
330
9D45
100
AcDbEntity
  8
1
  6
Continuous
100
AcDbLine
 10
244.234884
 20
310.400216
 30
0.0
 11
244.234884
 21
310.900216
 31
0.0
  0
LINE
  5
9EDE
330
9D45
100
AcDbEntity
  8
1
  6
Continuous
100
AcDbLine
 10
256.7348839999999
 20
310.400216
 30
0.0
 11
256.7348839999999
 21
310.900216
 31
0.0
  0
LINE
  5
9EDF
330
9D45
100
AcDbEntity
  8
1
  6
Continuous
100
AcDbLine
 10
246.984884
 20
294.900216
 30
0.0
 11
251.5718839999999
 21
294.900216
 31
0.0
  0
LINE
  5
9EE0
330
9D45
100
AcDbEntity
  8
1
  6
Continuous
100
AcDbLine
 10
246.984884
 20
294.900216
 30
0.0
 11
246.984884
 21
297.6032159999999
 31
0.0
  0
LINE
  5
9EE1
330
9D45
100
AcDbEntity
  8
1
  6
Continuous
100
AcDbLine
 10
245.4848839999999
 20
304.696216
 30
0.0
 11
245.4848839999999
 21
305.9002159999999
 31
0.0
  0
LINE
  5
9EE2
330
9D45
100
AcDbEntity
  8
1
  6
Continuous
100
AcDbLine
 10
255.484884
 20
304.1452159999999
 30
0.0
 11
255.484884
 21
305.9002159999999
 31
0.0
  0
LINE
  5
9EE3
330
9D45
100
AcDbEntity
  8
1
  6
Continuous
100
AcDbLine
 10
244.0188839999999
 20
304.777216
 30
0.0
 11
256.9418839999999
 21
304.065216
 31
0.0
  0
LINE
  5
9EE4
330
9D45
100
AcDbEntity
  8
1
  6
Continuous
100
AcDbLine
 10
243.941884
 20
297.7712159999999
 30
0.0
 11
254.1078839999999
 21
297.210216
 31
0.0
  0
LINE
  5
9EE5
330
9D45
100
AcDbEntity
  8
1
  6
Continuous
100
AcDbLine
 10
243.941884
 20
303.3792159999998
 30
0.0
 11
256.9418839999999
 21
302.662216
 31
0.0
  0
LINE
  5
9EE6
330
9D45
100
AcDbEntity
  8
1
  6
Continuous
100
AcDbLine
 10
243.941884
 20
301.977216
 30
0.0
 11
256.9418839999999
 21
301.260216
 31
0.0
  0
LINE
  5
9EE7
330
9D45
100
AcDbEntity
  8
1
  6
Continuous
100
AcDbLine
 10
243.941884
 20
300.575216
 30
0.0
 11
252.984884
 21
300.0762159999998
 31
0.0
  0
LINE
  5
9EE8
330
9D45
100
AcDbEntity
  8
1
  6
Continuous
100
AcDbLine
 10
243.941884
 20
299.173216
 30
0.0
 11
254.8238839999999
 21
298.5732159999999
 31
0.0
  0
LINE
  5
9EE9
330
9D45
100
AcDbEntity
  8
1
  6
Continuous
100
AcDbLine
 10
261.980884
 20
305.760216
 30
0.0
 11
255.484884
 21
305.402216
 31
0.0
  0
LINE
  5
9EEA
330
9D45
100
AcDbEntity
  8
1
  6
Continuous
100
AcDbLine
 10
269.2808839999999
 20
304.7612159999999
 30
0.0
 11
267.980884
 21
304.689216
 31
0.0
  0
LINE
  5
9EEB
330
9D45
100
AcDbEntity
  8
1
  6
Continuous
100
AcDbLine
 10
245.4808839999997
 20
304.8502159999998
 30
0.0
 11
244.0198839999999
 21
304.770216
 31
0.0
  0
LINE
  5
9EEC
330
9D45
100
AcDbEntity
  8
1
  6
Continuous
100
AcDbLine
 10
267.9848839999999
 20
304.400216
 30
0.0
 11
271.9848839999999
 21
304.400216
 31
0.0
  0
LINE
  5
9EED
330
9D45
100
AcDbEntity
  8
1
  6
Continuous
100
AcDbLine
 10
269.2418839999999
 20
304.763216
 30
0.0
 11
264.9078839999999
 21
305.0022159999999
 31
0.0
  0
LINE
  5
9EEE
330
9D45
100
AcDbEntity
  8
1
  6
Continuous
100
AcDbLine
 10
269.3188839999999
 20
306.161216
 30
0.0
 11
264.9848839999999
 21
306.400216
 31
0.0
  0
LINE
  5
9EEF
330
9D45
100
AcDbEntity
  8
1
  6
Continuous
100
AcDbLine
 10
264.9848839999999
 20
306.400216
 30
0.0
 11
264.9078839999999
 21
305.0022159999999
 31
0.0
  0
LINE
  5
9EF0
330
9D45
100
AcDbEntity
  8
1
  6
Continuous
100
AcDbLine
 10
267.9848839999999
 20
306.234216
 30
0.0
 11
267.9848839999999
 21
306.400216
 31
0.0
  0
LINE
  5
9EF1
330
9D45
100
AcDbEntity
  8
1
  6
Continuous
100
AcDbLine
 10
261.9848839999999
 20
304.3582160000001
 30
0.0
 11
256.7988839999998
 21
304.072216
 31
0.0
  0
LINE
  5
9EF2
330
9D45
100
AcDbEntity
  8
1
  6
Continuous
100
AcDbLine
 10
274.1378839999998
 20
313.1002159999998
 30
0.0
 11
272.6698839999999
 21
311.6322160000001
 31
0.0
  0
LINE
  5
9EF3
330
9D45
100
AcDbEntity
  8
4
  6
CENTER
100
AcDbLine
 10
233.936884
 20
280.4002159999999
 30
0.0
 11
219.633884
 21
280.4002159999999
 31
0.0
  0
LINE
  5
9EF4
330
9D45
100
AcDbEntity
  8
1
  6
Continuous
100
AcDbLine
 10
227.484884
 20
311.147216
 30
0.0
 11
227.484884
 21
270.4002159999999
 31
0.0
  0
LINE
  5
9EF5
330
9D45
100
AcDbEntity
  8
1
  6
Continuous
100
AcDbLine
 10
226.752884
 20
293.385216
 30
0.0
 11
225.2848839999999
 21
294.8532159999999
 31
0.0
  0
LINE
  5
9EF6
330
9D45
100
AcDbEntity
  8
1
  6
Continuous
100
AcDbLine
 10
226.752884
 20
301.1682159999998
 30
0.0
 11
225.2848839999999
 21
299.700216
 31
0.0
  0
LINE
  5
9EF7
330
9D45
100
AcDbEntity
  8
1
  6
Continuous
100
AcDbLine
 10
229.4848839999999
 20
307.462216
 30
0.0
 11
229.4848839999999
 21
272.4002159999999
 31
0.0
  0
LINE
  5
9EF8
330
9D45
100
AcDbEntity
  8
1
  6
Continuous
100
AcDbLine
 10
231.4848839999999
 20
287.4002159999997
 30
0.0
 11
231.4848839999999
 21
273.400216
 31
0.0
  0
LINE
  5
9EF9
330
9D45
100
AcDbEntity
  8
1
  6
Continuous
100
AcDbLine
 10
229.4848839999999
 20
272.9002159999997
 30
0.0
 11
230.9848839999999
 21
272.9002159999997
 31
0.0
  0
LINE
  5
9EFA
330
9D45
100
AcDbEntity
  8
1
  6
Continuous
100
AcDbLine
 10
230.9848839999999
 20
272.9002159999997
 30
0.0
 11
231.4848839999999
 21
273.400216
 31
0.0
  0
LINE
  5
9EFB
330
9D45
100
AcDbEntity
  8
1
  6
Continuous
100
AcDbLine
 10
230.9848839999999
 20
287.900216
 30
0.0
 11
231.4848839999999
 21
287.4002159999997
 31
0.0
  0
LINE
  5
9EFC
330
9D45
100
AcDbEntity
  8
1
  6
Continuous
100
AcDbLine
 10
230.9848839999999
 20
287.900216
 30
0.0
 11
230.9848839999999
 21
272.9002159999997
 31
0.0
  0
LINE
  5
9EFD
330
9D45
100
AcDbEntity
  8
1
  6
Continuous
100
AcDbLine
 10
229.4848839999999
 20
272.4002159999999
 30
0.0
 11
227.484884
 21
272.4002159999999
 31
0.0
  0
LINE
  5
9EFE
330
9D45
100
AcDbEntity
  8
1
  6
Continuous
100
AcDbLine
 10
229.4848839999999
 20
307.462216
 30
0.0
 11
227.484884
 21
307.462216
 31
0.0
  0
LINE
  5
9EFF
330
9D45
100
AcDbEntity
  8
1
  6
Continuous
100
AcDbLine
 10
274.4848839999999
 20
60.253516
 30
0.0
 11
225.2848839999999
 21
60.253516
 31
0.0
  0
LINE
  5
9F00
330
9D45
100
AcDbEntity
  8
1
  6
Continuous
100
AcDbLine
 10
222.9848839999999
 20
62.553516
 30
0.0
 11
222.9848839999999
 21
105.2532159999999
 31
0.0
  0
LINE
  5
9F01
330
9D45
100
AcDbEntity
  8
1
  6
Continuous
100
AcDbLine
 10
225.2848839999999
 20
62.553516
 30
0.0
 11
225.2848839999999
 21
105.2532159999999
 31
0.0
  0
LINE
  5
9F02
330
9D45
100
AcDbEntity
  8
1
  6
Continuous
100
AcDbLine
 10
274.4848839999999
 20
62.553516
 30
0.0
 11
225.2848839999999
 21
62.553516
 31
0.0
  0
LINE
  5
9F03
330
9D45
100
AcDbEntity
  8
1
  6
Continuous
100
AcDbLine
 10
274.4848839999999
 20
60.253516
 30
0.0
 11
274.4848839999999
 21
62.553516
 31
0.0
  0
LINE
  5
9F04
330
9D45
100
AcDbEntity
  8
1
  6
Continuous
100
AcDbLine
 10
227.484884
 20
105.2532159999999
 30
0.0
 11
222.9848839999999
 21
105.2532159999999
 31
0.0
  0
LINE
  5
9F05
330
9D45
100
AcDbEntity
  8
1
  6
Continuous
100
AcDbLine
 10
266.184884
 20
39.25351599999999
 30
0.0
 11
232.3318839999997
 21
39.25351599999999
 31
0.0
  0
LINE
  5
9F06
330
9D45
100
AcDbEntity
  8
1
  6
Continuous
100
AcDbLine
 10
268.4848839999999
 20
41.55351599999997
 30
0.0
 11
268.4848839999999
 21
60.253516
 31
0.0
  0
LINE
  5
9F07
330
9D45
100
AcDbEntity
  8
1
  6
Continuous
100
AcDbLine
 10
230.484884
 20
41.55351599999997
 30
0.0
 11
230.484884
 21
60.253516
 31
0.0
  0
LINE
  5
9F08
330
9D45
100
AcDbEntity
  8
4
  6
CENTER
100
AcDbLine
 10
250.484884
 20
32.66611599999999
 30
0.0
 11
250.484884
 21
89.924216
 31
0.0
  0
LINE
  5
9F09
330
9D45
100
AcDbEntity
  8
1
  6
Continuous
100
AcDbLine
 10
259.9848839999999
 20
84.45351599999998
 30
0.0
 11
269.9848839999999
 21
84.45351599999998
 31
0.0
  0
LINE
  5
9F0A
330
9D45
100
AcDbEntity
  8
1
  6
Continuous
100
AcDbLine
 10
259.9848839999999
 20
84.45351599999998
 30
0.0
 11
259.9848839999999
 21
82.95351599999998
 31
0.0
  0
LINE
  5
9F0B
330
9D45
100
AcDbEntity
  8
1
  6
Continuous
100
AcDbLine
 10
269.9848839999999
 20
84.45351599999998
 30
0.0
 11
269.9848839999999
 21
82.95351599999998
 31
0.0
  0
LINE
  5
9F0C
330
9D45
100
AcDbEntity
  8
1
  6
Continuous
100
AcDbLine
 10
258.434884
 20
82.95351599999998
 30
0.0
 11
271.5348839999999
 21
82.95351599999998
 31
0.0
  0
LINE
  5
9F0D
330
9D45
100
AcDbEntity
  8
1
  6
Continuous
100
AcDbLine
 10
258.2778839999999
 20
81.45351599999996
 30
0.0
 11
271.5348839999999
 21
81.45351599999996
 31
0.0
  0
LINE
  5
9F0E
330
9D45
100
AcDbEntity
  8
1
  6
Continuous
100
AcDbLine
 10
258.2778839999999
 20
79.97021599999998
 30
0.0
 11
271.5348839999999
 21
79.97021599999998
 31
0.0
  0
LINE
  5
9F0F
330
9D45
100
AcDbEntity
  8
1
  6
Continuous
100
AcDbLine
 10
258.2778839999999
 20
78.48691599999998
 30
0.0
 11
271.5348839999999
 21
78.48691599999998
 31
0.0
  0
LINE
  5
9F10
330
9D45
100
AcDbEntity
  8
1
  6
Continuous
100
AcDbLine
 10
269.9848839999999
 20
74.03691600000001
 30
0.0
 11
269.9848839999999
 21
73.25351600000002
 31
0.0
  0
LINE
  5
9F11
330
9D45
100
AcDbEntity
  8
1
  6
Continuous
100
AcDbLine
 10
272.9848839999997
 20
66.553516
 30
0.0
 11
272.9848839999997
 21
71.25351600000001
 31
0.0
  0
LINE
  5
9F12
330
9D45
100
AcDbEntity
  8
1
  6
Continuous
100
AcDbLine
 10
227.484884
 20
71.25351600000001
 30
0.0
 11
247.5588839999999
 21
71.25351600000001
 31
0.0
  0
LINE
  5
9F13
330
9D45
100
AcDbEntity
  8
1
  6
Continuous
100
AcDbLine
 10
227.484884
 20
73.25351600000002
 30
0.0
 11
247.5588839999999
 21
73.25351600000002
 31
0.0
  0
LINE
  5
9F14
330
9D45
100
AcDbEntity
  8
1
  6
Continuous
100
AcDbLine
 10
271.9848839999999
 20
73.25351600000002
 30
0.0
 11
271.9848839999999
 21
71.25351600000001
 31
0.0
  0
LINE
  5
9F15
330
9D45
100
AcDbEntity
  8
4
  6
CENTER
100
AcDbLine
 10
264.9848839999999
 20
87.51441599999997
 30
0.0
 11
264.9848839999999
 21
54.10091600000001
 31
0.0
  0
LINE
  5
9F16
330
9D45
100
AcDbEntity
  8
1
  6
Continuous
100
AcDbLine
 10
239.650884
 20
82.25351600000001
 30
0.0
 11
242.984884
 21
82.25351600000001
 31
0.0
  0
LINE
  5
9F17
330
9D45
100
AcDbEntity
  8
1
  6
Continuous
100
AcDbLine
 10
242.984884
 20
84.253516
 30
0.0
 11
242.984884
 21
73.25351600000002
 31
0.0
  0
LINE
  5
9F18
330
9D45
100
AcDbEntity
  8
1
  6
Continuous
100
AcDbLine
 10
255.5248839999999
 20
91.95421600000001
 30
0.0
 11
255.5248839999999
 21
84.253516
 31
0.0
  0
LINE
  5
9F19
330
9D45
100
AcDbEntity
  8
1
  6
Continuous
100
AcDbLine
 10
265.9848839999999
 20
89.25971599999998
 30
0.0
 11
265.9848839999999
 21
84.45351599999998
 31
0.0
  0
LINE
  5
9F1A
330
9D45
100
AcDbEntity
  8
1
  6
Continuous
100
AcDbLine
 10
255.5248839999999
 20
91.95421600000001
 30
0.0
 11
262.860884
 21
92.257116
 31
0.0
  0
LINE
  5
9F1B
330
9D45
100
AcDbEntity
  8
1
  6
Continuous
100
AcDbLine
 10
239.650884
 20
84.253516
 30
0.0
 11
259.9848839999999
 21
84.253516
 31
0.0
  0
LINE
  5
9F1C
330
9D45
100
AcDbEntity
  8
1
  6
Continuous
100
AcDbLine
 10
258.2318839999999
 20
64.753516
 30
0.0
 11
237.7678839999999
 21
64.753516
 31
0.0
  0
LINE
  5
9F1D
330
9D45
100
AcDbEntity
  8
1
  6
Continuous
100
AcDbLine
 10
246.3178839999999
 20
74.770216
 30
0.0
 11
257.684884
 21
74.770216
 31
0.0
  0
LINE
  5
9F1E
330
9D45
100
AcDbEntity
  8
1
  6
Continuous
100
AcDbLine
 10
244.234884
 20
65.253516
 30
0.0
 11
244.234884
 21
64.753516
 31
0.0
  0
LINE
  5
9F1F
330
9D45
100
AcDbEntity
  8
1
  6
Continuous
100
AcDbLine
 10
256.7348839999999
 20
65.253516
 30
0.0
 11
256.7348839999999
 21
64.753516
 31
0.0
  0
LINE
  5
9F20
330
9D45
100
AcDbEntity
  8
1
  6
Continuous
100
AcDbLine
 10
227.484884
 20
66.553516
 30
0.0
 11
272.9848839999997
 21
66.553516
 31
0.0
  0
LINE
  5
9F21
330
9D45
100
AcDbEntity
  8
4
  6
CENTER
100
AcDbLine
 10
233.936884
 20
95.25321600000003
 30
0.0
 11
219.633884
 21
95.25321600000003
 31
0.0
  0
LINE
  5
9F22
330
9D45
100
AcDbEntity
  8
1
  6
Continuous
100
AcDbLine
 10
227.484884
 20
76.03131600000001
 30
0.0
 11
227.484884
 21
105.2532159999999
 31
0.0
  0
LINE
  5
9F23
330
9D45
100
AcDbEntity
  8
1
  6
Continuous
100
AcDbLine
 10
226.752884
 20
82.26861600000002
 30
0.0
 11
225.2848839999999
 21
80.80081599999997
 31
0.0
  0
LINE
  5
9F24
330
9D45
100
AcDbEntity
  8
1
  6
Continuous
100
AcDbLine
 10
226.752884
 20
74.48571599999998
 30
0.0
 11
225.2848839999999
 21
75.95351599999998
 31
0.0
  0
LINE
  5
9F25
330
9D45
100
AcDbEntity
  8
1
  6
Continuous
100
AcDbLine
 10
227.484884
 20
62.553516
 30
0.0
 11
227.484884
 21
72.718016
 31
0.0
  0
LINE
  5
9F26
330
9D45
100
AcDbEntity
  8
1
  6
Continuous
100
AcDbLine
 10
229.4848839999999
 20
76.03131600000001
 30
0.0
 11
229.4848839999999
 21
103.2532159999999
 31
0.0
  0
LINE
  5
9F27
330
9D45
100
AcDbEntity
  8
1
  6
Continuous
100
AcDbLine
 10
231.4848839999999
 20
88.25351600000002
 30
0.0
 11
231.4848839999999
 21
102.2532159999999
 31
0.0
  0
LINE
  5
9F28
330
9D45
100
AcDbEntity
  8
1
  6
Continuous
100
AcDbLine
 10
229.4848839999999
 20
102.753216
 30
0.0
 11
230.9848839999999
 21
102.753216
 31
0.0
  0
LINE
  5
9F29
330
9D45
100
AcDbEntity
  8
1
  6
Continuous
100
AcDbLine
 10
230.9848839999999
 20
102.753216
 30
0.0
 11
231.4848839999999
 21
102.2532159999999
 31
0.0
  0
LINE
  5
9F2A
330
9D45
100
AcDbEntity
  8
1
  6
Continuous
100
AcDbLine
 10
230.9848839999999
 20
87.753516
 30
0.0
 11
230.9848839999999
 21
102.753216
 31
0.0
  0
LINE
  5
9F2B
330
9D45
100
AcDbEntity
  8
1
  6
Continuous
100
AcDbLine
 10
229.4848839999999
 20
103.2532159999999
 30
0.0
 11
227.484884
 21
103.2532159999999
 31
0.0
  0
LINE
  5
9F2C
330
9D45
100
AcDbEntity
  8
1
  6
Continuous
100
AcDbLine
 10
232.7848839999997
 20
41.55351599999997
 30
0.0
 11
232.7848839999997
 21
60.253516
 31
0.0
  0
LINE
  5
9F2D
330
9D45
100
AcDbEntity
  8
1
  6
Continuous
100
AcDbLine
 10
268.4848839999999
 20
41.55351599999997
 30
0.0
 11
263.884884
 21
41.55351599999997
 31
0.0
  0
LINE
  5
9F2E
330
9D45
100
AcDbEntity
  8
1
  6
Continuous
100
AcDbLine
 10
266.184884
 20
41.55351599999997
 30
0.0
 11
266.184884
 21
60.253516
 31
0.0
  0
LINE
  5
9F2F
330
9D45
100
AcDbEntity
  8
1
  6
Continuous
100
AcDbLine
 10
235.0848839999999
 20
41.55351599999997
 30
0.0
 11
230.484884
 21
41.55351599999997
 31
0.0
  0
LINE
  5
9F30
330
9D45
100
AcDbEntity
  8
1
  6
Continuous
100
AcDbLine
 10
273.937884
 20
62.553516
 30
0.0
 11
271.9698839999999
 21
64.521316
 31
0.0
  0
LINE
  5
9F31
330
9D45
100
AcDbEntity
  8
1
  6
Continuous
100
AcDbLine
 10
257.999884
 20
64.521316
 30
0.0
 11
256.0318839999998
 21
62.553516
 31
0.0
  0
LINE
  5
9F32
330
9D45
100
AcDbEntity
  8
1
  6
Continuous
100
AcDbLine
 10
253.959884
 20
79.553516
 30
0.0
 11
253.959884
 21
74.770216
 31
0.0
  0
LINE
  5
9F33
330
9D45
100
AcDbEntity
  8
1
  6
Continuous
100
AcDbLine
 10
245.5758839999997
 20
79.553516
 30
0.0
 11
253.959884
 21
79.553516
 31
0.0
  0
LINE
  5
9F34
330
9D45
100
AcDbEntity
  8
1
  6
Continuous
100
AcDbLine
 10
253.959884
 20
71.053516
 30
0.0
 11
272.9848839999997
 21
71.053516
 31
0.0
  0
LINE
  5
9F35
330
9D45
100
AcDbEntity
  8
1
  6
Continuous
100
AcDbLine
 10
259.9848839999999
 20
74.03691600000001
 30
0.0
 11
259.9848839999999
 21
73.25351600000002
 31
0.0
  0
LINE
  5
9F36
330
9D45
100
AcDbEntity
  8
1
  6
Continuous
100
AcDbLine
 10
253.959884
 20
73.25351600000002
 30
0.0
 11
271.9848839999999
 21
73.25351600000002
 31
0.0
  0
LINE
  5
9F37
330
9D45
100
AcDbEntity
  8
1
  6
Continuous
100
AcDbLine
 10
253.959884
 20
71.25351600000001
 30
0.0
 11
272.9848839999997
 21
71.25351600000001
 31
0.0
  0
LINE
  5
9F38
330
9D45
100
AcDbEntity
  8
1
  6
Continuous
100
AcDbLine
 10
253.959884
 20
73.27021600000001
 30
0.0
 11
253.959884
 21
66.553516
 31
0.0
  0
LINE
  5
9F39
330
9D45
100
AcDbEntity
  8
1
  6
Continuous
100
AcDbLine
 10
229.4848839999999
 20
76.03131600000001
 30
0.0
 11
227.484884
 21
76.03131600000001
 31
0.0
  0
LINE
  5
9F3A
330
9D45
100
AcDbEntity
  8
1
  6
Continuous
100
AcDbLine
 10
323.3228839999998
 20
164.3742159999999
 30
0.0
 11
319.699884
 21
164.3742159999999
 31
0.0
  0
LINE
  5
9F3B
330
9D45
100
AcDbEntity
  8
1
  6
Continuous
100
AcDbLine
 10
324.3468839999998
 20
162.0742159999998
 30
0.0
 11
319.4958839999998
 21
162.0742159999998
 31
0.0
  0
LINE
  5
9F3C
330
9D45
100
AcDbEntity
  8
1
  6
Continuous
100
AcDbLine
 10
333.9408839999999
 20
212.2792159999999
 30
0.0
 11
332.8418839999998
 21
212.2792159999999
 31
0.0
  0
LINE
  5
9F3D
330
9D45
100
AcDbEntity
  8
1
  6
Continuous
100
AcDbLine
 10
333.7198839999999
 20
210.2792159999999
 30
0.0
 11
331.041884
 21
210.2792159999999
 31
0.0
  0
LINE
  5
9F3E
330
9D45
100
AcDbEntity
  8
1
  6
Continuous
100
AcDbLine
 10
361.684884
 20
180.8792159999999
 30
0.0
 11
359.716884
 21
178.9122159999998
 31
0.0
  0
LINE
  5
9F3F
330
9D45
100
AcDbEntity
  8
1
  6
Continuous
100
AcDbLine
 10
361.684884
 20
162.7742159999999
 30
0.0
 11
359.716884
 21
164.7422159999998
 31
0.0
  0
LINE
  5
9F40
330
9D45
100
AcDbEntity
  8
1
  6
Continuous
100
AcDbLine
 10
340.4848839999999
 20
191.3272159999999
 30
0.0
 11
334.833884
 21
191.3272159999999
 31
0.0
  0
LINE
  5
9F41
330
9D45
100
AcDbEntity
  8
3
  6
DASHED
100
AcDbLine
 10
227.2848839999999
 20
204.5772159999999
 30
0.0
 11
225.258884
 21
199.512216
 31
0.0
  0
LINE
  5
9F42
330
9D45
100
AcDbEntity
  8
1
  6
Continuous
100
AcDbLine
 10
227.2848839999999
 20
198.8272159999999
 30
0.0
 11
240.1098839999999
 21
198.8272159999999
 31
0.0
  0
LINE
  5
9F43
330
9D45
100
AcDbEntity
  8
1
  6
Continuous
100
AcDbLine
 10
55.18488399999998
 20
157.627216
 30
0.0
 11
55.18488399999998
 21
155.3272159999998
 31
0.0
  0
LINE
  5
9F44
330
9D45
100
AcDbEntity
  8
1
  6
Continuous
100
AcDbLine
 10
21.78478399999999
 20
157.627216
 30
0.0
 11
21.78478399999999
 21
155.3272159999998
 31
0.0
  0
LINE
  5
9F45
330
9D45
100
AcDbEntity
  8
4
  6
CENTER
100
AcDbLine
 10
32.984884
 20
195.327216
 30
0.0
 11
45.98488399999999
 21
195.327216
 31
0.0
  0
LINE
  5
9F46
330
9D45
100
AcDbEntity
  8
4
  6
CENTER
100
AcDbLine
 10
39.484884
 20
201.8272159999999
 30
0.0
 11
39.484884
 21
188.8272159999999
 31
0.0
  0
LINE
  5
9F47
330
9D45
100
AcDbEntity
  8
4
  6
CENTER
100
AcDbLine
 10
254.984884
 20
171.8272159999999
 30
0.0
 11
274.9848839999997
 21
171.8272159999999
 31
0.0
  0
LINE
  5
9F48
330
9D45
100
AcDbEntity
  8
4
  6
CENTER
100
AcDbLine
 10
264.9848839999999
 20
181.827216
 30
0.0
 11
264.9848839999999
 21
161.827216
 31
0.0
  0
LINE
  5
9F49
330
9D45
100
AcDbEntity
  8
4
  6
CENTER
100
AcDbLine
 10
161.9848839999999
 20
181.3272159999999
 30
0.0
 11
161.9848839999999
 21
161.3272159999999
 31
0.0
  0
LINE
  5
9F4A
330
9D45
100
AcDbEntity
  8
1
  6
Continuous
100
AcDbLine
 10
146.077884
 20
148.555216
 30
0.0
 11
143.0198839999999
 21
138.4502159999997
 31
0.0
  0
LINE
  5
9F4B
330
9D45
100
AcDbEntity
  8
1
  6
Continuous
100
AcDbLine
 10
154.243884
 20
134.2722159999997
 30
0.0
 11
162.8418839999999
 21
153.584216
 31
0.0
  0
LINE
  5
9F4C
330
9D45
100
AcDbEntity
  8
4
  6
CENTER
100
AcDbLine
 10
148.762884
 20
141.7122159999999
 30
0.0
 11
148.762884
 21
131.7122159999997
 31
0.0
  0
LINE
  5
9F4D
330
9D45
100
AcDbEntity
  8
4
  6
CENTER
100
AcDbLine
 10
143.762884
 20
136.7122159999997
 30
0.0
 11
153.762884
 21
136.7122159999997
 31
0.0
  0
LINE
  5
9F4E
330
9D45
100
AcDbEntity
  8
4
  6
CENTER
100
AcDbLine
 10
231.1268839999999
 20
82.031316
 30
0.0
 11
225.929884
 21
82.031316
 31
0.0
  0
LINE
  5
9F4F
330
9D45
100
AcDbEntity
  8
1
  6
Continuous
100
AcDbLine
 10
258.2778839999999
 20
77.02021600000001
 30
0.0
 11
271.5348839999999
 21
77.02021600000001
 31
0.0
  0
LINE
  5
9F50
330
9D45
100
AcDbEntity
  8
1
  6
Continuous
100
AcDbLine
 10
246.3178839999999
 20
73.27021600000001
 30
0.0
 11
260.9848839999999
 21
73.27021600000001
 31
0.0
  0
LINE
  5
9F51
330
9D45
100
AcDbEntity
  8
1
  6
Continuous
100
AcDbLine
 10
258.434884
 20
75.520216
 30
0.0
 11
271.5348839999999
 21
75.520216
 31
0.0
  0
LINE
  5
9F52
330
9D45
100
AcDbEntity
  8
1
  6
Continuous
100
AcDbLine
 10
258.434884
 20
74.02021600000002
 30
0.0
 11
271.5348839999999
 21
74.02021600000002
 31
0.0
  0
LINE
  5
9F53
330
9D45
100
AcDbEntity
  8
1
  6
Continuous
100
AcDbLine
 10
350.2178839999999
 20
178.377216
 30
0.0
 11
350.2178839999999
 21
165.226216
 31
0.0
  0
LINE
  5
9F54
330
9D45
100
AcDbEntity
  8
1
  6
Continuous
100
AcDbLine
 10
349.4678839999999
 20
164.5272159999999
 30
0.0
 11
349.4678839999999
 21
154.740216
 31
0.0
  0
LINE
  5
9F55
330
9D45
100
AcDbEntity
  8
1
  6
Continuous
100
AcDbLine
 10
350.9678839999998
 20
166.8272159999999
 30
0.0
 11
350.9678839999998
 21
154.740216
 31
0.0
  0
LINE
  5
9F56
330
9D45
100
AcDbEntity
  8
1
  6
Continuous
100
AcDbLine
 10
357.684884
 20
162.2922159999999
 30
0.0
 11
353.184884
 21
162.2922159999999
 31
0.0
  0
LINE
  5
9F57
330
9D45
100
AcDbEntity
  8
1
  6
Continuous
100
AcDbLine
 10
248.1358839999999
 20
76.053516
 30
0.0
 11
248.1358839999999
 21
74.770216
 31
0.0
  0
LINE
  5
9F58
330
9D45
100
AcDbEntity
  8
1
  6
Continuous
100
AcDbLine
 10
246.151884
 20
79.553516
 30
0.0
 11
248.1358839999999
 21
76.070216
 31
0.0
  0
LINE
  5
9F59
330
9D45
100
AcDbEntity
  8
1
  6
Continuous
100
AcDbLine
 10
245.5758839999997
 20
79.553516
 30
0.0
 11
247.5588839999999
 21
76.070216
 31
0.0
  0
LINE
  5
9F5A
330
9D45
100
AcDbEntity
  8
1
  6
Continuous
100
AcDbLine
 10
247.5588839999999
 20
76.053516
 30
0.0
 11
247.5588839999999
 21
74.770216
 31
0.0
  0
LINE
  5
9F5B
330
9D45
100
AcDbEntity
  8
4
  6
CENTER
100
AcDbLine
 10
39.484884
 20
183.8272159999999
 30
0.0
 11
39.484884
 21
168.8272159999999
 31
0.0
  0
LINE
  5
9F5C
330
9D45
100
AcDbEntity
  8
4
  6
CENTER
100
AcDbLine
 10
46.984884
 20
176.3272159999999
 30
0.0
 11
31.984884
 21
176.3272159999999
 31
0.0
  0
LINE
  5
9F5D
330
9D45
100
AcDbEntity
  8
4
  6
CENTER
100
AcDbLine
 10
117.782884
 20
176.3272159999999
 30
0.0
 11
104.979384
 21
176.3272159999999
 31
0.0
  0
LINE
  5
9F5E
330
9D45
100
AcDbEntity
  8
1
  6
Continuous
100
AcDbLine
 10
141.4848839999999
 20
236.827216
 30
0.0
 11
151.3168839999998
 21
235.6922159999998
 31
0.0
  0
LINE
  5
9F5F
330
9D45
100
AcDbEntity
  8
1
  6
Continuous
100
AcDbLine
 10
154.8348839999999
 20
232.157216
 30
0.0
 11
156.874884
 21
213.671216
 31
0.0
  0
LINE
  5
9F60
330
9D45
100
AcDbEntity
  8
1
  6
Continuous
100
AcDbLine
 10
141.653884
 20
230.584216
 30
0.0
 11
141.4848839999999
 21
236.827216
 31
0.0
  0
LINE
  5
9F61
330
9D45
100
AcDbEntity
  8
1
  6
Continuous
100
AcDbLine
 10
143.7158839999999
 20
228.292216
 30
0.0
 11
143.4918839999999
 21
236.5952159999999
 31
0.0
  0
LINE
  5
9F62
330
9D45
100
AcDbEntity
  8
1
  6
Continuous
100
AcDbLine
 10
31.984884
 20
236.827216
 30
0.0
 11
27.984884
 21
236.827216
 31
0.0
  0
LINE
  5
9F63
330
9D45
100
AcDbEntity
  8
1
  6
Continuous
100
AcDbLine
 10
27.984884
 20
236.827216
 30
0.0
 11
30.173684
 21
221.5052159999999
 31
0.0
  0
LINE
  5
9F64
330
9D45
100
AcDbEntity
  8
4
  6
CENTER
100
AcDbLine
 10
234.9848839999999
 20
67.79141599999999
 30
0.0
 11
234.9848839999999
 21
56.314916
 31
0.0
  0
LINE
  5
9F65
330
9D45
100
AcDbEntity
  8
4
  6
CENTER
100
AcDbLine
 10
234.9848839999999
 20
303.487296
 30
0.0
 11
234.9848839999999
 21
317.775216
 31
0.0
  0
LINE
  5
9F66
330
9D45
100
AcDbEntity
  8
5
  6
PHANTOM
100
AcDbLine
 10
242.2318839999999
 20
232.788216
 30
0.0
 11
245.9128839999999
 21
211.243216
 31
0.0
  0
LINE
  5
9F67
330
9D45
100
AcDbEntity
  8
5
  6
PHANTOM
100
AcDbLine
 10
240.3088839999998
 20
232.170216
 30
0.0
 11
243.9518839999998
 21
210.8422159999999
 31
0.0
  0
LINE
  5
9F68
330
9D45
100
AcDbEntity
  8
5
  6
PHANTOM
100
AcDbLine
 10
238.382884
 20
220.0472159999999
 30
0.0
 11
240.1148839999999
 21
209.911216
 31
0.0
  0
LINE
  5
9F69
330
9D45
100
AcDbEntity
  8
5
  6
PHANTOM
100
AcDbLine
 10
238.423884
 20
231.5642159999999
 30
0.0
 11
242.2318839999999
 21
232.788216
 31
0.0
  0
LINE
  5
9F6A
330
9D45
100
AcDbEntity
  8
1
  6
Continuous
100
AcDbLine
 10
349.4678839999999
 20
157.8542159999997
 30
0.0
 11
348.184884
 21
157.8542159999997
 31
0.0
  0
LINE
  5
9F6B
330
9D45
100
AcDbEntity
  8
1
  6
Continuous
100
AcDbLine
 10
349.4678839999999
 20
163.085216
 30
0.0
 11
344.684884
 21
163.085216
 31
0.0
  0
LINE
  5
9F6C
330
9D45
100
AcDbEntity
  8
1
  6
Continuous
100
AcDbLine
 10
354.4848839999998
 20
182.8932159999999
 30
0.0
 11
353.6408839999999
 21
184.7902159999999
 31
0.0
  0
LINE
  5
9F6D
330
9D45
100
AcDbEntity
  8
1
  6
Continuous
100
AcDbLine
 10
137.9848839999999
 20
177.3272159999999
 30
0.0
 11
137.9848839999999
 21
161.827216
 31
0.0
  0
LINE
  5
9F6E
330
9D45
100
AcDbEntity
  8
1
  6
Continuous
100
AcDbLine
 10
139.9848839999999
 20
177.3272159999999
 30
0.0
 11
139.9848839999999
 21
161.827216
 31
0.0
  0
LINE
  5
9F6F
330
9D45
100
AcDbEntity
  8
1
  6
Continuous
100
AcDbLine
 10
133.284884
 20
177.3272159999999
 30
0.0
 11
133.284884
 21
161.0802159999998
 31
0.0
  0
LINE
  5
9F70
330
9D45
100
AcDbEntity
  8
1
  6
Continuous
100
AcDbLine
 10
154.484884
 20
207.327216
 30
0.0
 11
154.484884
 21
198.8272159999999
 31
0.0
  0
LINE
  5
9F71
330
9D45
100
AcDbEntity
  8
1
  6
Continuous
100
AcDbLine
 10
152.4848839999999
 20
207.327216
 30
0.0
 11
152.4848839999999
 21
198.8272159999999
 31
0.0
  0
LINE
  5
9F72
330
9D45
100
AcDbEntity
  8
1
  6
Continuous
100
AcDbLine
 10
229.4848839999999
 20
304.600216
 30
0.0
 11
243.513884
 21
304.600216
 31
0.0
  0
LINE
  5
9F73
330
9D45
100
AcDbEntity
  8
1
  6
Continuous
100
AcDbLine
 10
269.4848839999999
 20
309.1002159999998
 30
0.0
 11
272.9848839999997
 21
309.1002159999998
 31
0.0
  0
LINE
  5
9F74
330
9D45
100
AcDbEntity
  8
1
  6
Continuous
100
AcDbLine
 10
270.201884
 20
310.400216
 30
0.0
 11
269.4848839999999
 21
310.400216
 31
0.0
  0
LINE
  5
9F75
330
9D45
100
AcDbEntity
  8
1
  6
Continuous
100
AcDbLine
 10
352.9848839999999
 20
163.8272159999999
 30
0.0
 11
353.184884
 21
163.8272159999999
 31
0.0
  0
LINE
  5
9F76
330
9D45
100
AcDbEntity
  8
1
  6
Continuous
100
AcDbLine
 10
267.9848839999999
 20
304.600216
 30
0.0
 11
272.9848839999997
 21
304.600216
 31
0.0
  0
LINE
  5
9F77
330
9D45
100
AcDbEntity
  8
1
  6
Continuous
100
AcDbLine
 10
227.484884
 20
309.1002159999998
 30
0.0
 11
229.5318839999999
 21
309.1002159999998
 31
0.0
  0
LINE
  5
9F78
330
9D45
100
AcDbEntity
  8
1
  6
Continuous
100
AcDbLine
 10
242.1368839999999
 20
310.400216
 30
0.0
 11
242.1368839999999
 21
305.9002159999999
 31
0.0
  0
LINE
  5
9F79
330
9D45
100
AcDbEntity
  8
1
  6
Continuous
100
AcDbLine
 10
260.4848839999997
 20
310.400216
 30
0.0
 11
241.737884
 21
310.400216
 31
0.0
  0
LINE
  5
9F7A
330
9D45
100
AcDbEntity
  8
1
  6
Continuous
100
AcDbLine
 10
261.9848839999999
 20
305.9002159999999
 30
0.0
 11
232.8398839999999
 21
305.9002159999999
 31
0.0
  0
LINE
  5
9F7B
330
9D45
100
AcDbEntity
  8
1
  6
Continuous
100
AcDbLine
 10
229.4848839999999
 20
287.900216
 30
0.0
 11
239.4188839999999
 21
287.900216
 31
0.0
  0
LINE
  5
9F7C
330
9D45
100
AcDbEntity
  8
1
  6
Continuous
100
AcDbLine
 10
229.4848839999999
 20
289.900216
 30
0.0
 11
239.4188839999999
 21
289.900216
 31
0.0
  0
LINE
  5
9F7D
330
9D45
100
AcDbEntity
  8
1
  6
Continuous
100
AcDbLine
 10
237.2758839999999
 20
290.3852159999999
 30
0.0
 11
238.2108839999999
 21
291.9432159999999
 31
0.0
  0
LINE
  5
9F7E
330
9D45
100
AcDbEntity
  8
1
  6
Continuous
100
AcDbLine
 10
240.275884
 20
290.3852159999999
 30
0.0
 11
241.210884
 21
291.9432159999999
 31
0.0
  0
LINE
  5
9F7F
330
9D45
100
AcDbEntity
  8
1
  6
Continuous
100
AcDbLine
 10
241.990884
 20
289.356216
 30
0.0
 11
242.925884
 21
290.914216
 31
0.0
  0
LINE
  5
9F80
330
9D45
100
AcDbEntity
  8
1
  6
Continuous
100
AcDbLine
 10
241.0988839999999
 20
208.7812159999999
 30
0.0
 11
237.116884
 21
198.8272159999999
 31
0.0
  0
LINE
  5
9F81
330
9D45
100
AcDbEntity
  8
1
  6
Continuous
100
AcDbLine
 10
243.216884
 20
208.8272159999999
 30
0.0
 11
239.216884
 21
198.8272159999999
 31
0.0
  0
LINE
  5
9F82
330
9D45
100
AcDbEntity
  8
1
  6
Continuous
100
AcDbLine
 10
256.9848839999999
 20
71.25351600000001
 30
0.0
 11
256.9848839999999
 21
71.053516
 31
0.0
  0
LINE
  5
9F83
330
9D45
100
AcDbEntity
  8
1
  6
Continuous
100
AcDbLine
 10
270.201884
 20
65.253516
 30
0.0
 11
232.8398839999999
 21
65.253516
 31
0.0
  0
LINE
  5
9F84
330
9D45
100
AcDbEntity
  8
1
  6
Continuous
100
AcDbLine
 10
260.9848839999999
 20
66.553516
 30
0.0
 11
260.9848839999999
 21
65.253516
 31
0.0
  0
LINE
  5
9F85
330
9D45
100
AcDbEntity
  8
1
  6
Continuous
100
AcDbLine
 10
268.9848839999999
 20
66.553516
 30
0.0
 11
268.9848839999999
 21
65.253516
 31
0.0
  0
LINE
  5
9F86
330
9D45
100
AcDbEntity
  8
1
  6
Continuous
100
AcDbLine
 10
227.484884
 20
71.053516
 30
0.0
 11
247.5588839999999
 21
71.053516
 31
0.0
  0
LINE
  5
9F87
330
9D45
100
AcDbEntity
  8
1
  6
Continuous
100
AcDbLine
 10
247.568884
 20
76.053516
 30
0.0
 11
248.144884
 21
76.053516
 31
0.0
  0
LINE
  5
9F88
330
9D45
100
AcDbEntity
  8
1
  6
Continuous
100
AcDbLine
 10
248.1358839999999
 20
73.27021600000001
 30
0.0
 11
248.1358839999999
 21
66.553516
 31
0.0
  0
LINE
  5
9F89
330
9D45
100
AcDbEntity
  8
1
  6
Continuous
100
AcDbLine
 10
247.5588839999999
 20
73.27021600000001
 30
0.0
 11
247.5588839999999
 21
71.053516
 31
0.0
  0
LINE
  5
9F8A
330
9D45
100
AcDbEntity
  8
1
  6
Continuous
100
AcDbLine
 10
229.4848839999999
 20
85.75351600000002
 30
0.0
 11
235.2858839999999
 21
85.75351600000002
 31
0.0
  0
LINE
  5
9F8B
330
9D45
100
AcDbEntity
  8
1
  6
Continuous
100
AcDbLine
 10
229.4848839999999
 20
87.753516
 30
0.0
 11
239.4188839999999
 21
87.753516
 31
0.0
  0
LINE
  5
9F8C
330
9D45
100
AcDbEntity
  8
1
  6
Continuous
100
AcDbLine
 10
237.8588839999999
 20
86.297016
 30
0.0
 11
238.7938839999999
 21
84.73901600000003
 31
0.0
  0
LINE
  5
9F8D
330
9D45
100
AcDbEntity
  8
1
  6
Continuous
100
AcDbLine
 10
236.1438839999999
 20
85.268016
 30
0.0
 11
237.0788839999999
 21
83.71001600000003
 31
0.0
  0
LINE
  5
9F8E
330
9D45
100
AcDbEntity
  8
1
  6
Continuous
100
AcDbLine
 10
230.9848839999999
 20
87.753516
 30
0.0
 11
231.4848839999999
 21
88.25351600000002
 31
0.0
  0
LINE
  5
9F8F
330
9D45
100
AcDbEntity
  8
1
  6
Continuous
100
AcDbLine
 10
241.990884
 20
86.297016
 30
0.0
 11
242.925884
 21
84.73901600000003
 31
0.0
  0
LINE
  5
9F90
330
9D45
100
AcDbEntity
  8
1
  6
Continuous
100
AcDbLine
 10
232.8398839999999
 20
66.553516
 30
0.0
 11
232.8398839999999
 21
65.253516
 31
0.0
  0
LINE
  5
9F91
330
9D45
100
AcDbEntity
  8
1
  6
Continuous
100
AcDbLine
 10
354.9848839999999
 20
236.827216
 30
0.0
 11
356.7318839999999
 21
236.827216
 31
0.0
  0
LINE
  5
9F92
330
9D45
100
AcDbEntity
  8
1
  6
Continuous
100
AcDbLine
 10
361.2318839999999
 20
241.3272159999999
 30
0.0
 11
356.7318839999999
 21
236.827216
 31
0.0
  0
LINE
  5
9F93
330
9D45
100
AcDbEntity
  8
1
  6
Continuous
100
AcDbLine
 10
354.9848839999999
 20
236.827216
 30
0.0
 11
354.9848839999999
 21
227.8272159999999
 31
0.0
  0
LINE
  5
9F94
330
9D45
100
AcDbEntity
  8
1
  6
Continuous
100
AcDbLine
 10
356.7318839999999
 20
236.827216
 30
0.0
 11
356.7318839999999
 21
227.8272159999999
 31
0.0
  0
LINE
  5
9F95
330
9D45
100
AcDbEntity
  8
1
  6
Continuous
100
AcDbLine
 10
361.684884
 20
222.8742159999999
 30
0.0
 11
356.7318839999999
 21
227.8272159999999
 31
0.0
  0
LINE
  5
9F96
330
9D45
100
AcDbEntity
  8
1
  6
Continuous
100
AcDbLine
 10
354.9848839999999
 20
227.8272159999999
 30
0.0
 11
356.7318839999999
 21
227.8272159999999
 31
0.0
  0
LINE
  5
9F97
330
9D45
100
AcDbEntity
  8
1
  6
Continuous
100
AcDbLine
 10
134.9848839999999
 20
205.4082159999999
 30
0.0
 11
134.9848839999999
 21
204.4692159999999
 31
0.0
  0
LINE
  5
9F98
330
9D45
100
AcDbEntity
  8
1
  6
Continuous
100
AcDbLine
 10
134.9848839999999
 20
202.174216
 30
0.0
 11
134.9848839999999
 21
201.7042159999999
 31
0.0
  0
LINE
  5
9F99
330
9D45
100
AcDbEntity
  8
1
  6
Continuous
100
AcDbLine
 10
134.9848839999999
 20
196.0742159999998
 30
0.0
 11
134.9848839999999
 21
195.6042159999999
 31
0.0
  0
LINE
  5
9F9A
330
9D45
100
AcDbEntity
  8
1
  6
Continuous
100
AcDbLine
 10
134.688884
 20
203.8402159999999
 30
0.0
 11
134.688884
 21
203.0502159999997
 31
0.0
  0
LINE
  5
9F9B
330
9D45
100
AcDbEntity
  8
1
  6
Continuous
100
AcDbLine
 10
135.735884
 20
203.4392159999999
 30
0.0
 11
134.2358839999999
 21
202.8842159999999
 31
0.0
  0
LINE
  5
9F9C
330
9D45
100
AcDbEntity
  8
1
  6
Continuous
100
AcDbLine
 10
135.7458839999999
 20
204.4692159999999
 30
0.0
 11
134.2458839999999
 21
204.4692159999999
 31
0.0
  0
LINE
  5
9F9D
330
9D45
100
AcDbEntity
  8
1
  6
Continuous
100
AcDbLine
 10
135.7338839999999
 20
203.4392159999999
 30
0.0
 11
134.2358839999999
 21
204.020216
 31
0.0
  0
LINE
  5
9F9E
330
9D45
100
AcDbEntity
  8
1
  6
Continuous
100
AcDbLine
 10
135.734884
 20
207.027216
 30
0.0
 11
135.734884
 21
205.8452159999999
 31
0.0
  0
LINE
  5
9F9F
330
9D45
100
AcDbEntity
  8
1
  6
Continuous
100
AcDbLine
 10
135.734884
 20
206.4392159999999
 30
0.0
 11
134.2348839999999
 21
206.4392159999999
 31
0.0
  0
LINE
  5
9FA0
330
9D45
100
AcDbEntity
  8
1
  6
Continuous
100
AcDbLine
 10
135.7458839999999
 20
205.4082159999999
 30
0.0
 11
134.2458839999999
 21
205.4082159999999
 31
0.0
  0
LINE
  5
9FA1
330
9D45
100
AcDbEntity
  8
1
  6
Continuous
100
AcDbLine
 10
135.342884
 20
194.145216
 30
0.0
 11
135.2808839999999
 21
194.145216
 31
0.0
  0
LINE
  5
9FA2
330
9D45
100
AcDbEntity
  8
1
  6
Continuous
100
AcDbLine
 10
135.734884
 20
197.8792159999999
 30
0.0
 11
135.734884
 21
197.0922159999999
 31
0.0
  0
LINE
  5
9FA3
330
9D45
100
AcDbEntity
  8
1
  6
Continuous
100
AcDbLine
 10
135.734884
 20
198.993216
 30
0.0
 11
135.734884
 21
198.9272159999999
 31
0.0
  0
LINE
  5
9FA4
330
9D45
100
AcDbEntity
  8
1
  6
Continuous
100
AcDbLine
 10
135.342884
 20
194.9322159999999
 30
0.0
 11
135.2808839999999
 21
194.9322159999999
 31
0.0
  0
LINE
  5
9FA5
330
9D45
100
AcDbEntity
  8
1
  6
Continuous
100
AcDbLine
 10
135.732884
 20
192.987216
 30
0.0
 11
134.232884
 21
192.987216
 31
0.0
  0
LINE
  5
9FA6
330
9D45
100
AcDbEntity
  8
1
  6
Continuous
100
AcDbLine
 10
135.341884
 20
199.3562159999999
 30
0.0
 11
135.278884
 21
199.3562159999999
 31
0.0
  0
LINE
  5
9FA7
330
9D45
100
AcDbEntity
  8
1
  6
Continuous
100
AcDbLine
 10
135.341884
 20
198.5692159999999
 30
0.0
 11
134.5968839999999
 21
198.5692159999999
 31
0.0
  0
LINE
  5
9FA8
330
9D45
100
AcDbEntity
  8
1
  6
Continuous
100
AcDbLine
 10
134.839884
 20
197.0922159999999
 30
0.0
 11
134.594884
 21
197.0922159999999
 31
0.0
  0
LINE
  5
9FA9
330
9D45
100
AcDbEntity
  8
1
  6
Continuous
100
AcDbLine
 10
134.2348839999999
 20
194.9322159999999
 30
0.0
 11
134.2348839999999
 21
194.145216
 31
0.0
  0
LINE
  5
9FAA
330
9D45
100
AcDbEntity
  8
1
  6
Continuous
100
AcDbLine
 10
134.2348839999999
 20
194.9322159999999
 30
0.0
 11
135.0218839999998
 21
194.2432159999999
 31
0.0
  0
LINE
  5
9FAB
330
9D45
100
AcDbEntity
  8
1
  6
Continuous
100
AcDbLine
 10
134.690884
 20
199.3562159999999
 30
0.0
 11
134.5968839999999
 21
199.3562159999999
 31
0.0
  0
LINE
  5
9FAC
330
9D45
100
AcDbEntity
  8
1
  6
Continuous
100
AcDbLine
 10
135.734884
 20
197.8792159999999
 30
0.0
 11
134.839884
 21
197.8792159999999
 31
0.0
  0
LINE
  5
9FAD
330
9D45
100
AcDbEntity
  8
1
  6
Continuous
100
AcDbLine
 10
134.232884
 20
192.987216
 30
0.0
 11
134.232884
 21
192.0272159999999
 31
0.0
  0
LINE
  5
9FAE
330
9D45
100
AcDbEntity
  8
1
  6
Continuous
100
AcDbLine
 10
135.342884
 20
200.832216
 30
0.0
 11
135.2808839999999
 21
200.832216
 31
0.0
  0
LINE
  5
9FAF
330
9D45
100
AcDbEntity
  8
1
  6
Continuous
100
AcDbLine
 10
135.342884
 20
200.045216
 30
0.0
 11
135.2808839999999
 21
200.045216
 31
0.0
  0
LINE
  5
9FB0
330
9D45
100
AcDbEntity
  8
1
  6
Continuous
100
AcDbLine
 10
134.2348839999999
 20
200.832216
 30
0.0
 11
134.2348839999999
 21
200.045216
 31
0.0
  0
LINE
  5
9FB1
330
9D45
100
AcDbEntity
  8
1
  6
Continuous
100
AcDbLine
 10
134.2348839999999
 20
200.832216
 30
0.0
 11
135.0218839999998
 21
200.1432159999999
 31
0.0
  0
ARC
  5
9FB2
330
9D45
100
AcDbEntity
  8
1
  6
Continuous
100
AcDbCircle
 10
129.7578839999999
 20
236.327216
 30
0.0
 40
5.0
100
AcDbArc
 50
41.9872
 51
90.0
  0
ARC
  5
9FB3
330
9D45
100
AcDbEntity
  8
1
  6
Continuous
100
AcDbCircle
 10
160.2528839999999
 20
197.9592159999999
 30
0.0
 40
8.0
100
AcDbArc
 50
5.079609999999999
 51
41.9872
  0
ARC
  5
9FB4
330
9D45
100
AcDbEntity
  8
1
  6
Continuous
100
AcDbCircle
 10
163.4388839999997
 20
162.115216
 30
0.0
 40
8.0
100
AcDbArc
 50
286.699
 51
5.079609999999999
  0
ARC
  5
9FB5
330
9D45
100
AcDbEntity
  8
1
  6
Continuous
100
AcDbCircle
 10
151.9848839999999
 20
129.4462159999999
 30
0.0
 40
20.0
100
AcDbArc
 50
106.6989999999997
 51
151.626
  0
ARC
  5
9FB6
330
9D45
100
AcDbEntity
  8
1
  6
Continuous
100
AcDbCircle
 10
129.987884
 20
141.3272159999999
 30
0.0
 40
5.0
100
AcDbArc
 50
270.0
 51
331.6259999999999
  0
ARC
  5
9FB7
330
9D45
100
AcDbEntity
  8
1
  6
Continuous
100
AcDbCircle
 10
153.4848839999999
 20
206.3272159999999
 30
0.0
 40
3.0
100
AcDbArc
 50
90.0
 51
180.0
  0
ARC
  5
9FB8
330
9D45
100
AcDbEntity
  8
1
  6
Continuous
100
AcDbCircle
 10
153.4848839999999
 20
206.3272159999999
 30
0.0
 40
5.0
100
AcDbArc
 50
90.0
 51
169.3549999999999
  0
ARC
  5
9FB9
330
9D45
100
AcDbEntity
  8
1
  6
Continuous
100
AcDbCircle
 10
139.9848839999999
 20
176.3272159999999
 30
0.0
 40
3.0
100
AcDbArc
 50
0.0
 51
90.0
  0
ARC
  5
9FBA
330
9D45
100
AcDbEntity
  8
1
  6
Continuous
100
AcDbCircle
 10
139.9848839999999
 20
159.3272159999999
 30
0.0
 40
3.0
100
AcDbArc
 50
270.0
 51
0.000009
  0
ARC
  5
9FBB
330
9D45
100
AcDbEntity
  8
1
  6
Continuous
100
AcDbCircle
 10
139.9848839999999
 20
159.3272159999999
 30
0.0
 40
5.0
100
AcDbArc
 50
270.0
 51
0.000009
  0
ARC
  5
9FBC
330
9D45
100
AcDbEntity
  8
1
  6
Continuous
100
AcDbCircle
 10
139.9848839999999
 20
176.3272159999999
 30
0.0
 40
5.0
100
AcDbArc
 50
0.0
 51
90.0
  0
CIRCLE
  5
9FBD
330
9D45
100
AcDbEntity
  8
1
  6
Continuous
100
AcDbCircle
 10
144.984884
 20
196.3272159999999
 30
0.0
 40
1.0
  0
ARC
  5
9FBE
330
9D45
100
AcDbEntity
  8
1
  6
Continuous
100
AcDbCircle
 10
24.984884
 20
210.3272159999999
 30
0.0
 40
9.5
100
AcDbArc
 50
91.0609
 51
180.0
  0
ARC
  5
9FBF
330
9D45
100
AcDbEntity
  8
1
  6
Continuous
100
AcDbCircle
 10
55.872884
 20
231.3272159999999
 30
0.0
 40
10.0
100
AcDbArc
 50
90.0
 51
132.4919999999998
  0
ARC
  5
9FC0
330
9D45
100
AcDbEntity
  8
1
  6
Continuous
100
AcDbCircle
 10
24.623784
 20
229.8232159999999
 30
0.0
 40
10.0
100
AcDbArc
 50
271.0609999999999
 51
312.492
  0
ARC
  5
9FC1
330
9D45
100
AcDbEntity
  8
1
  6
Continuous
100
AcDbCircle
 10
24.984884
 20
145.8272159999999
 30
0.0
 40
9.5
100
AcDbArc
 50
180.0
 51
270.0
  0
ARC
  5
9FC2
330
9D45
100
AcDbEntity
  8
1
  6
Continuous
100
AcDbCircle
 10
24.984884
 20
210.3272159999999
 30
0.0
 40
2.1
100
AcDbArc
 50
17.1171
 51
250.9409999999999
  0
ARC
  5
9FC3
330
9D45
100
AcDbEntity
  8
1
  6
Continuous
100
AcDbCircle
 10
24.984884
 20
210.3272159999999
 30
0.0
 40
6.0
100
AcDbArc
 50
42.85379999999999
 51
225.204
  0
CIRCLE
  5
9FC4
330
9D45
100
AcDbEntity
  8
2
  6
Continuous
100
AcDbCircle
 10
54.98488399999999
 20
145.327216
 30
0.0
 40
3.0
  0
CIRCLE
  5
9FC5
330
9D45
100
AcDbEntity
  8
2
  6
Continuous
100
AcDbCircle
 10
24.984884
 20
145.327216
 30
0.0
 40
3.0
  0
CIRCLE
  5
9FC6
330
9D45
100
AcDbEntity
  8
2
  6
Continuous
100
AcDbCircle
 10
54.98488399999999
 20
232.327216
 30
0.0
 40
3.0
  0
ARC
  5
9FC7
330
9D45
100
AcDbEntity
  8
1
  6
Continuous
100
AcDbCircle
 10
6.665694
 20
191.8762159999999
 30
0.0
 40
20.0
100
AcDbArc
 50
40.41279999999999
 51
45.2042
  0
ARC
  5
9FC8
330
9D45
100
AcDbEntity
  8
1
  6
Continuous
100
AcDbCircle
 10
44.045284
 20
228.010216
 30
0.0
 40
20.0
100
AcDbArc
 50
222.854
 51
227.645
  0
ARC
  5
9FC9
330
9D45
100
AcDbEntity
  8
1
  6
Continuous
100
AcDbCircle
 10
156.4848839999999
 20
171.3272159999999
 30
0.0
 40
6.0
100
AcDbArc
 50
180.0
 51
270.0
  0
ARC
  5
9FCA
330
9D45
100
AcDbEntity
  8
1
  6
Continuous
100
AcDbCircle
 10
156.4848839999999
 20
171.3272159999999
 30
0.0
 40
8.0
100
AcDbArc
 50
180.0
 51
255.018
  0
CIRCLE
  5
9FCB
330
9D45
100
AcDbEntity
  8
1
  6
Continuous
100
AcDbCircle
 10
54.98488399999999
 20
232.327216
 30
0.0
 40
2.458499999999999
  0
CIRCLE
  5
9FCC
330
9D45
100
AcDbEntity
  8
1
  6
Continuous
100
AcDbCircle
 10
54.98488399999999
 20
145.327216
 30
0.0
 40
2.458499999999999
  0
CIRCLE
  5
9FCD
330
9D45
100
AcDbEntity
  8
1
  6
Continuous
100
AcDbCircle
 10
24.984884
 20
145.327216
 30
0.0
 40
2.458499999999999
  0
ARC
  5
9FCE
330
9D45
100
AcDbEntity
  8
1
  6
Continuous
100
AcDbCircle
 10
132.213884
 20
210.5772159999999
 30
0.0
 40
3.925309999999998
100
AcDbArc
 50
12.7289
 51
13.2681
  0
ARC
  5
9FCF
330
9D45
100
AcDbEntity
  8
1
  6
Continuous
100
AcDbCircle
 10
132.213884
 20
210.5772159999999
 30
0.0
 40
3.925309999999998
100
AcDbArc
 50
13.2681
 51
15.2575
  0
ARC
  5
9FD0
330
9D45
100
AcDbEntity
  8
1
  6
Continuous
100
AcDbCircle
 10
135.8408839999998
 20
211.566216
 30
0.0
 40
0.165003
100
AcDbArc
 50
15.2575
 51
90.0
  0
ARC
  5
9FD1
330
9D45
100
AcDbEntity
  8
1
  6
Continuous
100
AcDbCircle
 10
134.1278839999999
 20
211.566216
 30
0.0
 40
0.165003
100
AcDbArc
 50
90.0
 51
164.7419999999998
  0
ARC
  5
9FD2
330
9D45
100
AcDbEntity
  8
1
  6
Continuous
100
AcDbCircle
 10
137.7548839999997
 20
210.5772159999999
 30
0.0
 40
3.925309999999998
100
AcDbArc
 50
164.7419999999998
 51
164.794
  0
ARC
  5
9FD3
330
9D45
100
AcDbEntity
  8
1
  6
Continuous
100
AcDbCircle
 10
137.7548839999997
 20
210.5772159999999
 30
0.0
 40
3.925309999999998
100
AcDbArc
 50
164.794
 51
167.2709999999999
  0
ARC
  5
9FD4
330
9D45
100
AcDbEntity
  8
1
  6
Continuous
100
AcDbCircle
 10
134.9848839999999
 20
212.556216
 30
0.0
 40
0.850059
100
AcDbArc
 50
35.5311
 51
144.462
  0
ARC
  5
9FD5
330
9D45
100
AcDbEntity
  8
1
  6
Continuous
100
AcDbCircle
 10
134.375884
 20
212.226216
 30
0.0
 40
0.165003
100
AcDbArc
 50
90.0
 51
153.986
  0
ARC
  5
9FD6
330
9D45
100
AcDbEntity
  8
1
  6
Continuous
100
AcDbCircle
 10
134.170884
 20
212.0942159999999
 30
0.0
 40
0.033014
100
AcDbArc
 50
157.056
 51
270.0
  0
ARC
  5
9FD7
330
9D45
100
AcDbEntity
  8
1
  6
Continuous
100
AcDbCircle
 10
137.7548839999997
 20
210.5772159999999
 30
0.0
 40
3.925309999999998
100
AcDbArc
 50
153.986
 51
157.056
  0
ARC
  5
9FD8
330
9D45
100
AcDbEntity
  8
1
  6
Continuous
100
AcDbCircle
 10
137.7548839999997
 20
210.5772159999999
 30
0.0
 40
3.925309999999998
100
AcDbArc
 50
153.986
 51
154.7719999999999
  0
ARC
  5
9FD9
330
9D45
100
AcDbEntity
  8
1
  6
Continuous
100
AcDbCircle
 10
135.592884
 20
212.226216
 30
0.0
 40
0.165003
100
AcDbArc
 50
26.0144
 51
90.0
  0
ARC
  5
9FDA
330
9D45
100
AcDbEntity
  8
1
  6
Continuous
100
AcDbCircle
 10
135.7988839999999
 20
212.0942159999999
 30
0.0
 40
0.033014
100
AcDbArc
 50
270.0
 51
22.94399999999999
  0
ARC
  5
9FDB
330
9D45
100
AcDbEntity
  8
1
  6
Continuous
100
AcDbCircle
 10
132.213884
 20
210.5772159999999
 30
0.0
 40
3.925309999999998
100
AcDbArc
 50
22.94399999999999
 51
26.0144
  0
ARC
  5
9FDC
330
9D45
100
AcDbEntity
  8
1
  6
Continuous
100
AcDbCircle
 10
135.915884
 20
209.917216
 30
0.0
 40
0.165003
100
AcDbArc
 50
270.0
 51
349.8959999999998
  0
ARC
  5
9FDD
330
9D45
100
AcDbEntity
  8
1
  6
Continuous
100
AcDbCircle
 10
132.213884
 20
210.5772159999999
 30
0.0
 40
3.925309999999998
100
AcDbArc
 50
349.8959999999998
 51
352.2069999999998
  0
ARC
  5
9FDE
330
9D45
100
AcDbEntity
  8
1
  6
Continuous
100
AcDbCircle
 10
136.0698839999997
 20
210.0492159999999
 30
0.0
 40
0.033014
100
AcDbArc
 50
352.2069999999998
 51
90.0
  0
ARC
  5
9FDF
330
9D45
100
AcDbEntity
  8
1
  6
Continuous
100
AcDbCircle
 10
134.052884
 20
209.917216
 30
0.0
 40
0.165003
100
AcDbArc
 50
190.1039999999999
 51
270.0
  0
ARC
  5
9FE0
330
9D45
100
AcDbEntity
  8
1
  6
Continuous
100
AcDbCircle
 10
133.898884
 20
210.0492159999999
 30
0.0
 40
0.033014
100
AcDbArc
 50
90.0
 51
187.793
  0
ARC
  5
9FE1
330
9D45
100
AcDbEntity
  8
1
  6
Continuous
100
AcDbCircle
 10
137.7548839999997
 20
210.5772159999999
 30
0.0
 40
3.925309999999998
100
AcDbArc
 50
187.793
 51
190.1039999999999
  0
ARC
  5
9FE2
330
9D45
100
AcDbEntity
  8
1
  6
Continuous
100
AcDbCircle
 10
135.1498839999998
 20
208.9282159999999
 30
0.0
 40
0.165003
100
AcDbArc
 50
90.0
 51
270.0
  0
ARC
  5
9FE3
330
9D45
100
AcDbEntity
  8
1
  6
Continuous
100
AcDbCircle
 10
134.9848839999999
 20
208.5972159999998
 30
0.0
 40
0.850126
100
AcDbArc
 50
215.5469999999997
 51
324.4619999999998
  0
ARC
  5
9FE4
330
9D45
100
AcDbEntity
  8
1
  6
Continuous
100
AcDbCircle
 10
137.7548839999997
 20
210.5772159999999
 30
0.0
 40
4.25518
100
AcDbArc
 50
144.462
 51
215.5379999999999
  0
ARC
  5
9FE5
330
9D45
100
AcDbEntity
  8
1
  6
Continuous
100
AcDbCircle
 10
133.958884
 20
211.435216
 30
0.0
 40
0.033014
100
AcDbArc
 50
167.2709999999999
 51
270.0
  0
ARC
  5
9FE6
330
9D45
100
AcDbEntity
  8
1
  6
Continuous
100
AcDbCircle
 10
136.009884
 20
211.435216
 30
0.0
 40
0.033014
100
AcDbArc
 50
270.0
 51
12.7289
  0
ARC
  5
9FE7
330
9D45
100
AcDbEntity
  8
1
  6
Continuous
100
AcDbCircle
 10
132.213884
 20
210.5772159999999
 30
0.0
 40
4.25518
100
AcDbArc
 50
324.4619999999998
 51
35.5377
  0
ARC
  5
9FE8
330
9D45
100
AcDbEntity
  8
1
  6
Continuous
100
AcDbCircle
 10
264.9848839999999
 20
210.3272159999999
 30
0.0
 40
9.5
100
AcDbArc
 50
0.0
 51
88.93919999999999
  0
ARC
  5
9FE9
330
9D45
100
AcDbEntity
  8
1
  6
Continuous
100
AcDbCircle
 10
234.0968839999999
 20
231.3272159999999
 30
0.0
 40
10.0
100
AcDbArc
 50
47.50759999999999
 51
90.0
  0
ARC
  5
9FEA
330
9D45
100
AcDbEntity
  8
1
  6
Continuous
100
AcDbCircle
 10
265.345884
 20
229.8232159999999
 30
0.0
 40
10.0
100
AcDbArc
 50
236.29
 51
268.939
  0
ARC
  5
9FEB
330
9D45
100
AcDbEntity
  8
1
  6
Continuous
100
AcDbCircle
 10
264.9848839999999
 20
145.8272159999999
 30
0.0
 40
9.5
100
AcDbArc
 50
270.0
 51
0.0
  0
CIRCLE
  5
9FEC
330
9D45
100
AcDbEntity
  8
2
  6
Continuous
100
AcDbCircle
 10
234.9848839999999
 20
145.327216
 30
0.0
 40
3.0
  0
CIRCLE
  5
9FED
330
9D45
100
AcDbEntity
  8
2
  6
Continuous
100
AcDbCircle
 10
264.9848839999999
 20
145.327216
 30
0.0
 40
3.0
  0
CIRCLE
  5
9FEE
330
9D45
100
AcDbEntity
  8
2
  6
Continuous
100
AcDbCircle
 10
234.9848839999999
 20
232.327216
 30
0.0
 40
3.0
  0
CIRCLE
  5
9FEF
330
9D45
100
AcDbEntity
  8
1
  6
Continuous
100
AcDbCircle
 10
234.9848839999999
 20
232.327216
 30
0.0
 40
2.458499999999999
  0
CIRCLE
  5
9FF0
330
9D45
100
AcDbEntity
  8
1
  6
Continuous
100
AcDbCircle
 10
234.9848839999999
 20
145.327216
 30
0.0
 40
2.458499999999999
  0
CIRCLE
  5
9FF1
330
9D45
100
AcDbEntity
  8
1
  6
Continuous
100
AcDbCircle
 10
264.9848839999999
 20
145.327216
 30
0.0
 40
2.458499999999999
  0
ARC
  5
9FF2
330
9D45
100
AcDbEntity
  8
1
  6
Continuous
100
AcDbCircle
 10
361.2118839999998
 20
236.327216
 30
0.0
 40
5.0
100
AcDbArc
 50
90.0
 51
138.013
  0
ARC
  5
9FF3
330
9D45
100
AcDbEntity
  8
1
  6
Continuous
100
AcDbCircle
 10
330.716884
 20
197.9592159999999
 30
0.0
 40
8.0
100
AcDbArc
 50
138.013
 51
174.9199999999999
  0
ARC
  5
9FF4
330
9D45
100
AcDbEntity
  8
1
  6
Continuous
100
AcDbCircle
 10
327.5308839999999
 20
162.115216
 30
0.0
 40
8.0
100
AcDbArc
 50
174.9199999999999
 51
253.301
  0
ARC
  5
9FF5
330
9D45
100
AcDbEntity
  8
1
  6
Continuous
100
AcDbCircle
 10
338.9848839999999
 20
129.4462159999999
 30
0.0
 40
20.0
100
AcDbArc
 50
28.37399999999999
 51
72.82129999999998
  0
ARC
  5
9FF6
330
9D45
100
AcDbEntity
  8
1
  6
Continuous
100
AcDbCircle
 10
360.9818839999999
 20
141.3272159999999
 30
0.0
 40
5.0
100
AcDbArc
 50
208.374
 51
270.0
  0
ARC
  5
9FF7
330
9D45
100
AcDbEntity
  8
1
  6
Continuous
100
AcDbCircle
 10
264.9848839999999
 20
171.8272159999999
 30
0.0
 40
5.0
100
AcDbArc
 50
98.6269
 51
261.913
  0
CIRCLE
  5
9FF8
330
9D45
100
AcDbEntity
  8
1
  6
Continuous
100
AcDbCircle
 10
264.9848839999999
 20
210.3272159999999
 30
0.0
 40
4.0
  0
CIRCLE
  5
9FF9
330
9D45
100
AcDbEntity
  8
1
  6
Continuous
100
AcDbCircle
 10
264.9848839999999
 20
171.8272159999999
 30
0.0
 40
7.299999999999998
  0
ARC
  5
9FFA
330
9D45
100
AcDbEntity
  8
1
  6
Continuous
100
AcDbCircle
 10
250.5678839999999
 20
158.990216
 30
0.0
 40
5.0
100
AcDbArc
 50
165.701
 51
345.7009999999999
  0
ARC
  5
9FFB
330
9D45
100
AcDbEntity
  8
1
  6
Continuous
100
AcDbCircle
 10
250.5678839999999
 20
158.990216
 30
0.0
 40
3.5
100
AcDbArc
 50
200.821
 51
345.7009999999999
  0
ARC
  5
9FFC
330
9D45
100
AcDbEntity
  8
1
  6
Continuous
100
AcDbCircle
 10
264.9848839999999
 20
171.8272159999999
 30
0.0
 40
5.799999999999998
100
AcDbArc
 50
291.382
 51
266.3009999999998
  0
ARC
  5
9FFD
330
9D45
100
AcDbEntity
  8
1
  6
Continuous
100
AcDbCircle
 10
266.7348839999997
 20
167.3572159999999
 30
0.0
 40
1.0
100
AcDbArc
 50
180.0
 51
291.382
  0
ARC
  5
9FFE
330
9D45
100
AcDbEntity
  8
1
  6
Continuous
100
AcDbCircle
 10
266.7348839999997
 20
167.3572159999999
 30
0.0
 40
2.5
100
AcDbArc
 50
180.0
 51
291.382
  0
ARC
  5
9FFF
330
9D45
100
AcDbEntity
  8
1
  6
Continuous
100
AcDbCircle
 10
264.9848839999999
 20
171.8272159999999
 30
0.0
 40
5.0
100
AcDbArc
 50
279.904
 51
81.37309999999997
  0
ARC
  5
A000
330
9D45
100
AcDbEntity
  8
1
  6
Continuous
100
AcDbCircle
 10
349.451884
 20
178.377216
 30
0.0
 40
0.75
100
AcDbArc
 50
0.0
 51
180.0
  0
ARC
  5
A001
330
9D45
100
AcDbEntity
  8
1
  6
Continuous
100
AcDbCircle
 10
349.451884
 20
165.2772159999998
 30
0.0
 40
0.75
100
AcDbArc
 50
180.0
 51
0.0
  0
ARC
  5
A002
330
9D45
100
AcDbEntity
  8
1
  6
Continuous
100
AcDbCircle
 10
342.0348839999999
 20
178.377216
 30
0.0
 40
0.75
100
AcDbArc
 50
0.0
 51
180.0
  0
ARC
  5
A003
330
9D45
100
AcDbEntity
  8
1
  6
Continuous
100
AcDbCircle
 10
342.0348839999999
 20
165.2772159999998
 30
0.0
 40
0.75
100
AcDbArc
 50
180.0
 51
0.0
  0
ARC
  5
A004
330
9D45
100
AcDbEntity
  8
1
  6
Continuous
100
AcDbCircle
 10
343.5178839999999
 20
178.377216
 30
0.0
 40
0.75
100
AcDbArc
 50
0.0
 51
180.0
  0
ARC
  5
A005
330
9D45
100
AcDbEntity
  8
1
  6
Continuous
100
AcDbCircle
 10
343.5178839999999
 20
165.2772159999998
 30
0.0
 40
0.75
100
AcDbArc
 50
180.0
 51
0.0
  0
ARC
  5
A006
330
9D45
100
AcDbEntity
  8
1
  6
Continuous
100
AcDbCircle
 10
345.0018839999998
 20
178.377216
 30
0.0
 40
0.75
100
AcDbArc
 50
0.0
 51
180.0
  0
ARC
  5
A007
330
9D45
100
AcDbEntity
  8
1
  6
Continuous
100
AcDbCircle
 10
345.0018839999998
 20
165.2772159999998
 30
0.0
 40
0.75
100
AcDbArc
 50
180.0
 51
0.0
  0
ARC
  5
A008
330
9D45
100
AcDbEntity
  8
1
  6
Continuous
100
AcDbCircle
 10
346.4848839999998
 20
178.377216
 30
0.0
 40
0.75
100
AcDbArc
 50
0.0
 51
180.0
  0
ARC
  5
A009
330
9D45
100
AcDbEntity
  8
1
  6
Continuous
100
AcDbCircle
 10
346.4848839999998
 20
165.2772159999998
 30
0.0
 40
0.75
100
AcDbArc
 50
180.0
 51
0.0
  0
ARC
  5
A00A
330
9D45
100
AcDbEntity
  8
1
  6
Continuous
100
AcDbCircle
 10
347.9678839999999
 20
178.377216
 30
0.0
 40
0.75
100
AcDbArc
 50
0.0
 51
180.0
  0
ARC
  5
A00B
330
9D45
100
AcDbEntity
  8
1
  6
Continuous
100
AcDbCircle
 10
347.9678839999999
 20
165.2772159999998
 30
0.0
 40
0.75
100
AcDbArc
 50
180.0
 51
0.0
  0
CIRCLE
  5
A00C
330
9D45
100
AcDbEntity
  8
1
  6
Continuous
100
AcDbCircle
 10
328.9848839999997
 20
171.3272159999999
 30
0.0
 40
7.5
  0
ARC
  5
A00D
330
9D45
100
AcDbEntity
  8
1
  6
Continuous
100
AcDbCircle
 10
328.9848839999997
 20
171.3272159999999
 30
0.0
 40
8.0
100
AcDbArc
 50
105.6999999999999
 51
203.9999999999998
  0
ARC
  5
A00E
330
9D45
100
AcDbEntity
  8
1
  6
Continuous
100
AcDbCircle
 10
342.206884
 20
136.7122159999997
 30
0.0
 40
6.0
100
AcDbArc
 50
203.9999999999998
 51
16.8382
  0
ARC
  5
A00F
330
9D45
100
AcDbEntity
  8
1
  6
Continuous
100
AcDbCircle
 10
342.987884
 20
161.7502159999999
 30
0.0
 40
2.0
100
AcDbArc
 50
158.22
 51
196.8379999999999
  0
CIRCLE
  5
A010
330
9D45
100
AcDbEntity
  8
1
  6
Continuous
100
AcDbCircle
 10
342.206884
 20
136.7122159999997
 30
0.0
 40
3.25
  0
ARC
  5
A011
330
9D45
100
AcDbEntity
  8
1
  6
Continuous
100
AcDbCircle
 10
351.8138839999999
 20
183.976216
 30
0.0
 40
2.0
100
AcDbArc
 50
24.0
 51
105.6999999999999
  0
ARC
  5
A012
330
9D45
100
AcDbEntity
  8
1
  6
Continuous
100
AcDbCircle
 10
264.9848839999999
 20
171.8272159999999
 30
0.0
 40
8.0
100
AcDbArc
 50
277.3579999999999
 51
65.9371
  0
ARC
  5
A013
330
9D45
100
AcDbEntity
  8
1
  6
Continuous
100
AcDbCircle
 10
242.7868839999999
 20
181.6042159999998
 30
0.0
 40
0.5
100
AcDbArc
 50
68.5067
 51
94.3448
  0
ARC
  5
A014
330
9D45
100
AcDbEntity
  8
1
  6
Continuous
100
AcDbCircle
 10
243.5878839999999
 20
171.0802159999998
 30
0.0
 40
10.0
100
AcDbArc
 50
227.163
 51
277.3579999999999
  0
ARC
  5
A015
330
9D45
100
AcDbEntity
  8
1
  6
Continuous
100
AcDbCircle
 10
235.2138839999998
 20
179.5242159999999
 30
0.0
 40
2.0
100
AcDbArc
 50
94.3448
 51
150.492
  0
ARC
  5
A016
330
9D45
100
AcDbEntity
  8
1
  6
Continuous
100
AcDbCircle
 10
230.3938839999999
 20
179.1292159999999
 30
0.0
 40
2.0
100
AcDbArc
 50
310.6449999999999
 51
330.4919999999999
  0
ARC
  5
A017
330
9D45
100
AcDbEntity
  8
1
  6
Continuous
100
AcDbCircle
 10
382.684884
 20
213.027216
 30
0.0
 40
2.299999999999998
100
AcDbArc
 50
0.0
 51
90.0
  0
ARC
  5
A018
330
9D45
100
AcDbEntity
  8
1
  6
Continuous
100
AcDbCircle
 10
382.684884
 20
157.627216
 30
0.0
 40
2.299999999999998
100
AcDbArc
 50
270.0
 51
0.000009
  0
CIRCLE
  5
A019
330
9D45
100
AcDbEntity
  8
1
  6
Continuous
100
AcDbCircle
 10
372.9848839999998
 20
179.3272159999999
 30
0.0
 40
2.9
  0
ARC
  5
A01A
330
9D45
100
AcDbEntity
  8
1
  6
Continuous
100
AcDbCircle
 10
384.9848839999999
 20
155.3272159999998
 30
0.0
 40
2.299999999999998
100
AcDbArc
 50
90.0
 51
180.0
  0
ARC
  5
A01B
330
9D45
100
AcDbEntity
  8
1
  6
Continuous
100
AcDbCircle
 10
250.484884
 20
195.327216
 30
0.0
 40
14.0
100
AcDbArc
 50
45.7445
 51
58.6688
  0
ARC
  5
A01C
330
9D45
100
AcDbEntity
  8
1
  6
Continuous
100
AcDbCircle
 10
243.5118839999999
 20
209.727216
 30
0.0
 40
2.0
100
AcDbArc
 50
190.315
 51
206.7579999999999
  0
ARC
  5
A01D
330
9D45
100
AcDbEntity
  8
1
  6
Continuous
100
AcDbCircle
 10
239.252884
 20
216.370216
 30
0.0
 40
1.0
100
AcDbArc
 50
10.31549999999998
 51
104.203
  0
ARC
  5
A01E
330
9D45
100
AcDbEntity
  8
1
  6
Continuous
100
AcDbCircle
 10
267.8398839999999
 20
207.232216
 30
0.0
 40
35.0
100
AcDbArc
 50
193.8959999999999
 51
214.619
  0
ARC
  5
A01F
330
9D45
100
AcDbEntity
  8
1
  6
Continuous
100
AcDbCircle
 10
251.3808839999999
 20
195.8702159999999
 30
0.0
 40
15.0
100
AcDbArc
 50
214.619
 51
235.963
  0
ARC
  5
A020
330
9D45
100
AcDbEntity
  8
1
  6
Continuous
100
AcDbCircle
 10
234.7968839999999
 20
215.243216
 30
0.0
 40
1.0
100
AcDbArc
 50
104.203
 51
166.3729999999999
  0
ARC
  5
A021
330
9D45
100
AcDbEntity
  8
1
  6
Continuous
100
AcDbCircle
 10
349.9848839999998
 20
181.827216
 30
0.0
 40
1.0
100
AcDbArc
 50
0.0
 51
90.0
  0
ARC
  5
A022
330
9D45
100
AcDbEntity
  8
1
  6
Continuous
100
AcDbCircle
 10
349.9848839999998
 20
181.827216
 30
0.0
 40
3.0
100
AcDbArc
 50
0.0
 51
90.0
  0
ARC
  5
A023
330
9D45
100
AcDbEntity
  8
1
  6
Continuous
100
AcDbCircle
 10
342.9848839999999
 20
185.827216
 30
0.0
 40
1.0
100
AcDbArc
 50
180.0
 51
270.0
  0
ARC
  5
A024
330
9D45
100
AcDbEntity
  8
1
  6
Continuous
100
AcDbCircle
 10
342.9848839999999
 20
185.827216
 30
0.0
 40
3.0
100
AcDbArc
 50
180.0
 51
270.0
  0
ARC
  5
A025
330
9D45
100
AcDbEntity
  8
1
  6
Continuous
100
AcDbCircle
 10
334.833884
 20
194.327216
 30
0.0
 40
3.0
100
AcDbArc
 50
191.4499999999999
 51
270.0
  0
ARC
  5
A026
330
9D45
100
AcDbEntity
  8
1
  6
Continuous
100
AcDbCircle
 10
340.110884
 20
231.718216
 30
0.0
 40
4.0
100
AcDbArc
 50
96.58200000000002
 51
173.702
  0
ARC
  5
A027
330
9D45
100
AcDbEntity
  8
1
  6
Continuous
100
AcDbCircle
 10
344.9848839999999
 20
208.750216
 30
0.0
 40
3.0
100
AcDbArc
 50
140.5279999999999
 51
180.0
  0
ARC
  5
A028
330
9D45
100
AcDbEntity
  8
1
  6
Continuous
100
AcDbCircle
 10
344.0328839999998
 20
220.179216
 30
0.0
 40
5.0
100
AcDbArc
 50
320.528
 51
358.4519999999998
  0
ARC
  5
A029
330
9D45
100
AcDbEntity
  8
1
  6
Continuous
100
AcDbCircle
 10
264.9848839999999
 20
210.3272159999999
 30
0.0
 40
8.3
100
AcDbArc
 50
314.796
 51
137.1459999999999
  0
ARC
  5
A02A
330
9D45
100
AcDbEntity
  8
1
  6
Continuous
100
AcDbCircle
 10
283.303884
 20
191.8762159999999
 30
0.0
 40
17.7
100
AcDbArc
 50
134.796
 51
180.1939999999999
  0
ARC
  5
A02B
330
9D45
100
AcDbEntity
  8
1
  6
Continuous
100
AcDbCircle
 10
361.9848839999999
 20
215.3912159999999
 30
0.0
 40
2.5
100
AcDbArc
 50
135.0
 51
180.0
  0
ARC
  5
A02C
330
9D45
100
AcDbEntity
  8
1
  6
Continuous
100
AcDbCircle
 10
351.934884
 20
211.827216
 30
0.0
 40
2.5
100
AcDbArc
 50
72.5424
 51
107.458
  0
ARC
  5
A02D
330
9D45
100
AcDbEntity
  8
1
  6
Continuous
100
AcDbCircle
 10
351.934884
 20
208.8272159999999
 30
0.0
 40
2.5
100
AcDbArc
 50
252.5419999999999
 51
287.4579999999999
  0
ARC
  5
A02E
330
9D45
100
AcDbEntity
  8
1
  6
Continuous
100
AcDbCircle
 10
264.9848839999999
 20
210.3272159999999
 30
0.0
 40
5.0
100
AcDbArc
 50
284.795
 51
104.7949999999999
  0
ARC
  5
A02F
330
9D45
100
AcDbEntity
  8
1
  6
Continuous
100
AcDbCircle
 10
267.524884
 20
204.8962159999999
 30
0.0
 40
10.0
100
AcDbArc
 50
171.87
 51
220.601
  0
ARC
  5
A030
330
9D45
100
AcDbEntity
  8
1
  6
Continuous
100
AcDbCircle
 10
275.4848839999999
 20
182.5392159999999
 30
0.0
 40
8.0
100
AcDbArc
 50
180.0
 51
214.7229999999999
  0
ARC
  5
A031
330
9D45
100
AcDbEntity
  8
1
  6
Continuous
100
AcDbCircle
 10
243.1798839999999
 20
167.0782159999999
 30
0.0
 40
5.0
100
AcDbArc
 50
227.0769999999998
 51
277.144
  0
ARC
  5
A032
330
9D45
100
AcDbEntity
  8
1
  6
Continuous
100
AcDbCircle
 10
229.347884
 20
166.2862159999999
 30
0.0
 40
5.0
100
AcDbArc
 50
47.0772
 51
67.21129999999999
  0
ARC
  5
A033
330
9D45
100
AcDbEntity
  8
1
  6
Continuous
100
AcDbCircle
 10
237.984884
 20
182.454216
 30
0.0
 40
5.0
100
AcDbArc
 50
268.5529999999999
 51
0.0
  0
ARC
  5
A034
330
9D45
100
AcDbEntity
  8
5
  6
PHANTOM
100
AcDbCircle
 10
224.139884
 20
192.3072159999999
 30
0.0
 40
5.0
100
AcDbArc
 50
107.824
 51
176.0229999999999
  0
ARC
  5
A035
330
9D45
100
AcDbEntity
  8
5
  6
PHANTOM
100
AcDbCircle
 10
219.1898839999999
 20
185.989216
 30
0.0
 40
0.5
100
AcDbArc
 50
176.0229999999999
 51
287.824
  0
ARC
  5
A036
330
9D45
100
AcDbEntity
  8
1
  6
Continuous
100
AcDbCircle
 10
245.0468839999998
 20
216.8272159999999
 30
0.0
 40
8.0
100
AcDbArc
 50
270.0
 51
351.8699999999997
  0
ARC
  5
A037
330
9D45
100
AcDbEntity
  8
1
  6
Continuous
100
AcDbCircle
 10
257.9848839999999
 20
231.8272159999999
 30
0.0
 40
5.0
100
AcDbArc
 50
90.0
 51
211.633
  0
ARC
  5
A038
330
9D45
100
AcDbEntity
  8
1
  6
Continuous
100
AcDbCircle
 10
249.4708839999999
 20
226.5822159999999
 30
0.0
 40
5.0
100
AcDbArc
 50
351.8699999999997
 51
31.6326
  0
ARC
  5
A039
330
9D45
100
AcDbEntity
  8
1
  6
Continuous
100
AcDbCircle
 10
234.9848839999999
 20
192.6842159999999
 30
0.0
 40
8.0
100
AcDbArc
 50
0.0
 51
50.16399999999999
  0
ARC
  5
A03A
330
9D45
100
AcDbEntity
  8
1
  6
Continuous
100
AcDbCircle
 10
267.524884
 20
204.8962159999999
 30
0.0
 40
12.0
100
AcDbArc
 50
171.87
 51
220.601
  0
ARC
  5
A03B
330
9D45
100
AcDbEntity
  8
1
  6
Continuous
100
AcDbCircle
 10
250.484884
 20
195.327216
 30
0.0
 40
14.0
100
AcDbArc
 50
351.4959999999998
 51
39.26919999999999
  0
ARC
  5
A03C
330
9D45
100
AcDbEntity
  8
1
  6
Continuous
100
AcDbCircle
 10
267.8398839999999
 20
207.232216
 30
0.0
 40
35.0
100
AcDbArc
 50
166.3729999999999
 51
177.389
  0
ARC
  5
A03D
330
9D45
100
AcDbEntity
  8
1
  6
Continuous
100
AcDbCircle
 10
232.369884
 20
203.8272159999999
 30
0.0
 40
5.0
100
AcDbArc
 50
90.0
 51
158.1989999999999
  0
ARC
  5
A03E
330
9D45
100
AcDbEntity
  8
3
  6
DASHED
100
AcDbCircle
 10
225.7228839999999
 20
199.327216
 30
0.0
 40
0.5
100
AcDbArc
 50
158.1989999999999
 51
270.0
  0
ARC
  5
A03F
330
9D45
100
AcDbEntity
  8
1
  6
Continuous
100
AcDbCircle
 10
354.244884
 20
214.627216
 30
0.0
 40
0.7
100
AcDbArc
 50
356.843
 51
176.844
  0
ARC
  5
A040
330
9D45
100
AcDbEntity
  8
1
  6
Continuous
100
AcDbCircle
 10
345.8118839999999
 20
188.8272159999999
 30
0.0
 40
0.7
100
AcDbArc
 50
176.844
 51
356.843
  0
ARC
  5
A041
330
9D45
100
AcDbEntity
  8
1
  6
Continuous
100
AcDbCircle
 10
346.5288839999997
 20
201.8272159999999
 30
0.0
 40
0.7
100
AcDbArc
 50
356.843
 51
176.844
  0
ARC
  5
A042
330
9D45
100
AcDbEntity
  8
1
  6
Continuous
100
AcDbCircle
 10
352.136884
 20
201.8272159999999
 30
0.0
 40
0.7
100
AcDbArc
 50
356.843
 51
176.844
  0
ARC
  5
A043
330
9D45
100
AcDbEntity
  8
1
  6
Continuous
100
AcDbCircle
 10
352.821884
 20
188.8272159999999
 30
0.0
 40
0.7
100
AcDbArc
 50
176.844
 51
356.843
  0
ARC
  5
A044
330
9D45
100
AcDbEntity
  8
1
  6
Continuous
100
AcDbCircle
 10
350.7348839999999
 20
201.8272159999999
 30
0.0
 40
0.7
100
AcDbArc
 50
356.843
 51
176.844
  0
ARC
  5
A045
330
9D45
100
AcDbEntity
  8
1
  6
Continuous
100
AcDbCircle
 10
351.4198839999999
 20
188.8272159999999
 30
0.0
 40
0.7
100
AcDbArc
 50
176.844
 51
356.843
  0
ARC
  5
A046
330
9D45
100
AcDbEntity
  8
1
  6
Continuous
100
AcDbCircle
 10
349.3328839999999
 20
201.8272159999999
 30
0.0
 40
0.7
100
AcDbArc
 50
356.843
 51
176.844
  0
ARC
  5
A047
330
9D45
100
AcDbEntity
  8
1
  6
Continuous
100
AcDbCircle
 10
350.0178839999999
 20
188.8272159999999
 30
0.0
 40
0.7
100
AcDbArc
 50
176.844
 51
356.843
  0
ARC
  5
A048
330
9D45
100
AcDbEntity
  8
1
  6
Continuous
100
AcDbCircle
 10
347.9308839999998
 20
201.8272159999999
 30
0.0
 40
0.7
100
AcDbArc
 50
356.843
 51
176.844
  0
ARC
  5
A049
330
9D45
100
AcDbEntity
  8
1
  6
Continuous
100
AcDbCircle
 10
348.6158839999998
 20
188.8272159999999
 30
0.0
 40
0.7
100
AcDbArc
 50
176.844
 51
356.843
  0
ARC
  5
A04A
330
9D45
100
AcDbEntity
  8
1
  6
Continuous
100
AcDbCircle
 10
347.2138839999997
 20
188.8272159999999
 30
0.0
 40
0.7
100
AcDbArc
 50
176.844
 51
356.843
  0
ARC
  5
A04B
330
9D45
100
AcDbEntity
  8
1
  6
Continuous
100
AcDbCircle
 10
108.284884
 20
213.027216
 30
0.0
 40
2.299999999999998
100
AcDbArc
 50
90.0
 51
180.0
  0
ARC
  5
A04C
330
9D45
100
AcDbEntity
  8
1
  6
Continuous
100
AcDbCircle
 10
108.284884
 20
157.627216
 30
0.0
 40
2.299999999999998
100
AcDbArc
 50
180.0
 51
270.0
  0
ARC
  5
A04D
330
9D45
100
AcDbEntity
  8
1
  6
Continuous
100
AcDbCircle
 10
105.9848839999998
 20
155.3272159999998
 30
0.0
 40
2.299999999999998
100
AcDbArc
 50
0.0
 51
90.0
  0
ARC
  5
A04E
330
9D45
100
AcDbEntity
  8
1
  6
Continuous
100
AcDbCircle
 10
108.284884
 20
207.027216
 30
0.0
 40
2.299999999999998
100
AcDbArc
 50
90.0
 51
180.0
  0
CIRCLE
  5
A04F
330
9D45
100
AcDbEntity
  8
1
  6
Continuous
100
AcDbCircle
 10
161.9848839999999
 20
171.3272159999999
 30
0.0
 40
3.6
  0
ARC
  5
A050
330
9D45
100
AcDbEntity
  8
1
  6
Continuous
100
AcDbCircle
 10
39.484884
 20
195.327216
 30
0.0
 40
20.0
100
AcDbArc
 50
90.0
 51
180.0
  0
CIRCLE
  5
A051
330
9D45
100
AcDbEntity
  8
1
  6
Continuous
100
AcDbCircle
 10
39.484884
 20
195.327216
 30
0.0
 40
4.099999999999996
  0
ARC
  5
A052
330
9D45
100
AcDbEntity
  8
1
  6
Continuous
100
AcDbCircle
 10
36.984884
 20
176.3272159999999
 30
0.0
 40
7.5
100
AcDbArc
 50
96.61549999999998
 51
263.384
  0
ARC
  5
A053
330
9D45
100
AcDbEntity
  8
1
  6
Continuous
100
AcDbCircle
 10
52.48488399999999
 20
190.7082159999999
 30
0.0
 40
5.0
100
AcDbArc
 50
276.615
 51
13.5949
  0
ARC
  5
A054
330
9D45
100
AcDbEntity
  8
1
  6
Continuous
100
AcDbCircle
 10
21.78478399999999
 20
155.3272159999998
 30
0.0
 40
2.299999999999998
100
AcDbArc
 50
0.0
 51
180.0
  0
ARC
  5
A055
330
9D45
100
AcDbEntity
  8
1
  6
Continuous
100
AcDbCircle
 10
55.18488399999998
 20
155.3272159999998
 30
0.0
 40
2.299999999999998
100
AcDbArc
 50
0.0
 51
180.0
  0
ARC
  5
A056
330
9D45
100
AcDbEntity
  8
1
  6
Continuous
100
AcDbCircle
 10
37.638084
 20
188.5702159999999
 30
0.0
 40
20.0
100
AcDbArc
 50
8.19547
 51
54.51170000000001
  0
ARC
  5
A057
330
9D45
100
AcDbEntity
  8
5
  6
PHANTOM
100
AcDbCircle
 10
56.41398399999999
 20
186.7012159999999
 30
0.0
 40
6.599999999999997
100
AcDbArc
 50
41.1237
 51
221.124
  0
ARC
  5
A058
330
9D45
100
AcDbEntity
  8
5
  6
PHANTOM
100
AcDbCircle
 10
39.484884
 20
195.327216
 30
0.0
 40
33.0
100
AcDbArc
 50
349.848
 51
356.036
  0
ARC
  5
A059
330
9D45
100
AcDbEntity
  8
5
  6
PHANTOM
100
AcDbCircle
 10
62.429784
 20
193.7362159999999
 30
0.0
 40
10.0
100
AcDbArc
 50
356.036
 51
63.0
  0
ARC
  5
A05A
330
9D45
100
AcDbEntity
  8
5
  6
PHANTOM
100
AcDbCircle
 10
35.809984
 20
134.4372159999997
 30
0.0
 40
75.0
100
AcDbArc
 50
65.82429999999999
 51
78.4824
  0
ARC
  5
A05B
330
9D45
100
AcDbEntity
  8
5
  6
PHANTOM
100
AcDbCircle
 10
69.999484
 20
189.863216
 30
0.0
 40
2.0
100
AcDbArc
 50
284.923
 51
349.848
  0
ARC
  5
A05C
330
9D45
100
AcDbEntity
  8
5
  6
PHANTOM
100
AcDbCircle
 10
66.000484
 20
188.7972159999999
 30
0.0
 40
2.0
100
AcDbArc
 50
221.124
 51
284.923
  0
ARC
  5
A05D
330
9D45
100
AcDbEntity
  8
5
  6
PHANTOM
100
AcDbCircle
 10
55.86658400000001
 20
173.5122159999999
 30
0.0
 40
2.0
100
AcDbArc
 50
243.0
 51
21.0381
  0
ARC
  5
A05E
330
9D45
100
AcDbEntity
  8
5
  6
PHANTOM
100
AcDbCircle
 10
48.399884
 20
170.6402159999998
 30
0.0
 40
10.0
100
AcDbArc
 50
21.0381
 51
41.1237
  0
CIRCLE
  5
A05F
330
9D45
100
AcDbEntity
  8
1
  6
Continuous
100
AcDbCircle
 10
39.484884
 20
195.327216
 30
0.0
 40
4.0
  0
ARC
  5
A060
330
9D45
100
AcDbEntity
  8
1
  6
Continuous
100
AcDbCircle
 10
48.484884
 20
174.161216
 30
0.0
 40
10.0
100
AcDbArc
 50
293.0359999999997
 51
0.000009
  0
ARC
  5
A061
330
9D45
100
AcDbEntity
  8
1
  6
Continuous
100
AcDbCircle
 10
45.704684
 20
168.7372159999999
 30
0.0
 40
2.0
100
AcDbArc
 50
158.124
 51
202.237
  0
ARC
  5
A062
330
9D45
100
AcDbEntity
  8
1
  6
Continuous
100
AcDbCircle
 10
39.484884
 20
176.3272159999999
 30
0.0
 40
6.599999999999997
100
AcDbArc
 50
338.124
 51
158.124
  0
ARC
  5
A063
330
9D45
100
AcDbEntity
  8
1
  6
Continuous
100
AcDbCircle
 10
-16.436216
 20
170.958216
 30
0.0
 40
75.0
100
AcDbArc
 50
2.824279999999998
 51
13.0584
  0
ARC
  5
A064
330
9D45
100
AcDbEntity
  8
1
  6
Continuous
100
AcDbCircle
 10
225.2848839999999
 20
313.1002159999998
 30
0.0
 40
2.299999999999998
100
AcDbArc
 50
90.0
 51
180.0
  0
ARC
  5
A065
330
9D45
100
AcDbEntity
  8
1
  6
Continuous
100
AcDbCircle
 10
232.7848839999997
 20
334.1002159999998
 30
0.0
 40
2.299999999999998
100
AcDbArc
 50
342.281
 51
358.1179999999998
  0
ARC
  5
A066
330
9D45
100
AcDbEntity
  8
1
  6
Continuous
100
AcDbCircle
 10
266.184884
 20
334.1002159999998
 30
0.0
 40
2.299999999999998
100
AcDbArc
 50
0.0
 51
90.0
  0
ARC
  5
A067
330
9D45
100
AcDbEntity
  8
1
  6
Continuous
100
AcDbCircle
 10
232.7848839999997
 20
334.1002159999998
 30
0.0
 40
2.299999999999998
100
AcDbArc
 50
101.3639999999997
 51
180.0
  0
ARC
  5
A068
330
9D45
100
AcDbEntity
  8
1
  6
Continuous
100
AcDbCircle
 10
271.5348839999999
 20
300.8672159999999
 30
0.0
 40
0.75
100
AcDbArc
 50
270.0
 51
90.0
  0
ARC
  5
A069
330
9D45
100
AcDbEntity
  8
1
  6
Continuous
100
AcDbCircle
 10
271.5348839999999
 20
293.450216
 30
0.0
 40
0.75
100
AcDbArc
 50
270.0
 51
90.0
  0
ARC
  5
A06A
330
9D45
100
AcDbEntity
  8
1
  6
Continuous
100
AcDbCircle
 10
271.5348839999999
 20
294.933216
 30
0.0
 40
0.75
100
AcDbArc
 50
270.0
 51
90.0
  0
ARC
  5
A06B
330
9D45
100
AcDbEntity
  8
1
  6
Continuous
100
AcDbCircle
 10
271.5348839999999
 20
296.417216
 30
0.0
 40
0.75
100
AcDbArc
 50
270.0
 51
90.0
  0
ARC
  5
A06C
330
9D45
100
AcDbEntity
  8
1
  6
Continuous
100
AcDbCircle
 10
271.5348839999999
 20
297.9002159999997
 30
0.0
 40
0.75
100
AcDbArc
 50
270.0
 51
90.0
  0
ARC
  5
A06D
330
9D45
100
AcDbEntity
  8
1
  6
Continuous
100
AcDbCircle
 10
271.5348839999999
 20
299.383216
 30
0.0
 40
0.75
100
AcDbArc
 50
270.0
 51
90.0
  0
ARC
  5
A06E
330
9D45
100
AcDbEntity
  8
1
  6
Continuous
100
AcDbCircle
 10
259.7678839999999
 20
312.900216
 30
0.0
 40
2.5
100
AcDbArc
 50
233.13
 51
270.0
  0
ARC
  5
A06F
330
9D45
100
AcDbEntity
  8
1
  6
Continuous
100
AcDbCircle
 10
270.201884
 20
312.900216
 30
0.0
 40
2.5
100
AcDbArc
 50
270.0
 51
315.445
  0
ARC
  5
A070
330
9D45
100
AcDbEntity
  8
1
  6
Continuous
100
AcDbCircle
 10
266.4848839999997
 20
303.3502159999998
 30
0.0
 40
2.5
100
AcDbArc
 50
342.5419999999999
 51
17.45759999999998
  0
ARC
  5
A071
330
9D45
100
AcDbEntity
  8
1
  6
Continuous
100
AcDbCircle
 10
263.4848839999999
 20
303.3502159999998
 30
0.0
 40
2.5
100
AcDbArc
 50
162.542
 51
197.4579999999999
  0
ARC
  5
A072
330
9D45
100
AcDbEntity
  8
1
  6
Continuous
100
AcDbCircle
 10
246.3038839999999
 20
301.4002159999999
 30
0.0
 40
10.0
100
AcDbArc
 50
270.0
 51
320.437
  0
ARC
  5
A073
330
9D45
100
AcDbEntity
  8
1
  6
Continuous
100
AcDbCircle
 10
246.3038839999999
 20
303.400216
 30
0.0
 40
10.0
100
AcDbArc
 50
270.0
 51
320.437
  0
ARC
  5
A074
330
9D45
100
AcDbEntity
  8
1
  6
Continuous
100
AcDbCircle
 10
259.9848839999999
 20
298.900216
 30
0.0
 40
2.0
100
AcDbArc
 50
0.0
 51
90.0
  0
ARC
  5
A075
330
9D45
100
AcDbEntity
  8
1
  6
Continuous
100
AcDbCircle
 10
262.9848839999999
 20
286.3942159999999
 30
0.0
 40
3.0
100
AcDbArc
 50
267.6359999999998
 51
0.000005
  0
ARC
  5
A076
330
9D45
100
AcDbEntity
  8
1
  6
Continuous
100
AcDbCircle
 10
243.9808839999999
 20
304.078216
 30
0.0
 40
0.7
100
AcDbArc
 50
86.8435
 51
266.843
  0
ARC
  5
A077
330
9D45
100
AcDbEntity
  8
1
  6
Continuous
100
AcDbCircle
 10
243.9808839999999
 20
299.8722159999999
 30
0.0
 40
0.7
100
AcDbArc
 50
86.8435
 51
266.843
  0
ARC
  5
A078
330
9D45
100
AcDbEntity
  8
1
  6
Continuous
100
AcDbCircle
 10
256.9808839999997
 20
300.5572159999999
 30
0.0
 40
0.7
100
AcDbArc
 50
29.31640000000001
 51
86.8435
  0
ARC
  5
A079
330
9D45
100
AcDbEntity
  8
1
  6
Continuous
100
AcDbCircle
 10
243.9808839999999
 20
302.676216
 30
0.0
 40
0.7
100
AcDbArc
 50
86.8435
 51
266.843
  0
ARC
  5
A07A
330
9D45
100
AcDbEntity
  8
1
  6
Continuous
100
AcDbCircle
 10
243.9808839999999
 20
301.274216
 30
0.0
 40
0.7
100
AcDbArc
 50
86.8435
 51
266.843
  0
ARC
  5
A07B
330
9D45
100
AcDbEntity
  8
1
  6
Continuous
100
AcDbCircle
 10
243.9808839999999
 20
298.4702159999999
 30
0.0
 40
0.7
100
AcDbArc
 50
86.8435
 51
266.843
  0
ARC
  5
A07C
330
9D45
100
AcDbEntity
  8
1
  6
Continuous
100
AcDbCircle
 10
269.2808839999999
 20
305.462216
 30
0.0
 40
0.700005
100
AcDbArc
 50
273.1559999999999
 51
93.15649999999999
  0
ARC
  5
A07D
330
9D45
100
AcDbEntity
  8
1
  6
Continuous
100
AcDbCircle
 10
256.9808839999997
 20
303.361216
 30
0.0
 40
0.7
100
AcDbArc
 50
266.843
 51
86.8435
  0
ARC
  5
A07E
330
9D45
100
AcDbEntity
  8
1
  6
Continuous
100
AcDbCircle
 10
270.901884
 20
313.400216
 30
0.0
 40
2.5
100
AcDbArc
 50
270.0
 51
315.0
  0
ARC
  5
A07F
330
9D45
100
AcDbEntity
  8
1
  6
Continuous
100
AcDbCircle
 10
224.9848839999999
 20
291.6172159999998
 30
0.0
 40
2.5
100
AcDbArc
 50
0.0
 51
45.0
  0
ARC
  5
A080
330
9D45
100
AcDbEntity
  8
1
  6
Continuous
100
AcDbCircle
 10
224.9848839999999
 20
302.9352160000001
 30
0.0
 40
2.5
100
AcDbArc
 50
315.0
 51
0.000005
  0
ARC
  5
A081
330
9D45
100
AcDbEntity
  8
1
  6
Continuous
100
AcDbCircle
 10
225.2848839999999
 20
62.553516
 30
0.0
 40
2.299999999999998
100
AcDbArc
 50
180.0
 51
270.0
  0
ARC
  5
A082
330
9D45
100
AcDbEntity
  8
1
  6
Continuous
100
AcDbCircle
 10
266.184884
 20
41.55351599999997
 30
0.0
 40
2.299999999999998
100
AcDbArc
 50
90.00029999999998
 51
0.0
  0
ARC
  5
A083
330
9D45
100
AcDbEntity
  8
1
  6
Continuous
100
AcDbCircle
 10
232.7848839999997
 20
41.55351599999997
 30
0.0
 40
2.299999999999998
100
AcDbArc
 50
180.0
 51
90.0
  0
ARC
  5
A084
330
9D45
100
AcDbEntity
  8
1
  6
Continuous
100
AcDbCircle
 10
271.5348839999999
 20
74.78691600000002
 30
0.0
 40
0.75
100
AcDbArc
 50
270.0
 51
90.0
  0
ARC
  5
A085
330
9D45
100
AcDbEntity
  8
1
  6
Continuous
100
AcDbCircle
 10
271.5348839999999
 20
82.20351599999998
 30
0.0
 40
0.75
100
AcDbArc
 50
270.0
 51
90.0
  0
ARC
  5
A086
330
9D45
100
AcDbEntity
  8
1
  6
Continuous
100
AcDbCircle
 10
271.5348839999999
 20
80.72021599999997
 30
0.0
 40
0.75
100
AcDbArc
 50
270.0
 51
90.0
  0
ARC
  5
A087
330
9D45
100
AcDbEntity
  8
1
  6
Continuous
100
AcDbCircle
 10
271.5348839999999
 20
79.23691599999997
 30
0.0
 40
0.75
100
AcDbArc
 50
270.0
 51
90.0
  0
ARC
  5
A088
330
9D45
100
AcDbEntity
  8
1
  6
Continuous
100
AcDbCircle
 10
271.5348839999999
 20
77.753516
 30
0.0
 40
0.75
100
AcDbArc
 50
270.0
 51
90.0
  0
ARC
  5
A089
330
9D45
100
AcDbEntity
  8
1
  6
Continuous
100
AcDbCircle
 10
271.5348839999999
 20
76.270216
 30
0.0
 40
0.75
100
AcDbArc
 50
270.0
 51
90.0
  0
ARC
  5
A08A
330
9D45
100
AcDbEntity
  8
1
  6
Continuous
100
AcDbCircle
 10
259.7678839999999
 20
62.753516
 30
0.0
 40
2.5
100
AcDbArc
 50
90.0
 51
135.0
  0
ARC
  5
A08B
330
9D45
100
AcDbEntity
  8
1
  6
Continuous
100
AcDbCircle
 10
270.201884
 20
62.753516
 30
0.0
 40
2.5
100
AcDbArc
 50
44.55519999999999
 51
90.0
  0
ARC
  5
A08C
330
9D45
100
AcDbEntity
  8
1
  6
Continuous
100
AcDbCircle
 10
262.9848839999999
 20
89.25971599999998
 30
0.0
 40
3.0
100
AcDbArc
 50
0.0
 51
92.3643
  0
ARC
  5
A08D
330
9D45
100
AcDbEntity
  8
1
  6
Continuous
100
AcDbCircle
 10
237.7678839999999
 20
62.25351599999999
 30
0.0
 40
2.5
100
AcDbArc
 50
90.0
 51
126.8699999999999
  0
ARC
  5
A08E
330
9D45
100
AcDbEntity
  8
1
  6
Continuous
100
AcDbCircle
 10
224.9848839999999
 20
84.036416
 30
0.0
 40
2.5
100
AcDbArc
 50
315.0
 51
0.000005
  0
ARC
  5
A08F
330
9D45
100
AcDbEntity
  8
1
  6
Continuous
100
AcDbCircle
 10
224.9848839999999
 20
72.718016
 30
0.0
 40
2.5
100
AcDbArc
 50
0.0
 51
45.0
  0
ARC
  5
A090
330
9D45
100
AcDbEntity
  8
1
  6
Continuous
100
AcDbCircle
 10
258.434884
 20
82.20351599999998
 30
0.0
 40
0.75
100
AcDbArc
 50
90.0
 51
270.0
  0
ARC
  5
A091
330
9D45
100
AcDbEntity
  8
1
  6
Continuous
100
AcDbCircle
 10
258.434884
 20
80.72021599999997
 30
0.0
 40
0.75
100
AcDbArc
 50
90.0
 51
270.0
  0
ARC
  5
A092
330
9D45
100
AcDbEntity
  8
1
  6
Continuous
100
AcDbCircle
 10
258.434884
 20
79.23691599999997
 30
0.0
 40
0.75
100
AcDbArc
 50
90.0
 51
270.0
  0
ARC
  5
A093
330
9D45
100
AcDbEntity
  8
1
  6
Continuous
100
AcDbCircle
 10
258.434884
 20
77.753516
 30
0.0
 40
0.75
100
AcDbArc
 50
90.0
 51
270.0
  0
ARC
  5
A094
330
9D45
100
AcDbEntity
  8
1
  6
Continuous
100
AcDbCircle
 10
258.434884
 20
76.270216
 30
0.0
 40
0.75
100
AcDbArc
 50
90.0
 51
270.0
  0
ARC
  5
A095
330
9D45
100
AcDbEntity
  8
1
  6
Continuous
100
AcDbCircle
 10
361.4848839999999
 20
177.144216
 30
0.0
 40
2.5
100
AcDbArc
 50
135.0
 51
180.0
  0
ARC
  5
A096
330
9D45
100
AcDbEntity
  8
1
  6
Continuous
100
AcDbCircle
 10
361.4848839999999
 20
166.5092159999999
 30
0.0
 40
2.5
100
AcDbArc
 50
180.0
 51
225.0
  0
ARC
  5
A097
330
9D45
100
AcDbEntity
  8
1
  6
Continuous
100
AcDbCircle
 10
353.184884
 20
162.3542159999998
 30
0.0
 40
4.5
100
AcDbArc
 50
270.0
 51
359.209
  0
ARC
  5
A098
330
9D45
100
AcDbEntity
  8
1
  6
Continuous
100
AcDbCircle
 10
334.833884
 20
193.025216
 30
0.0
 40
3.0
100
AcDbArc
 50
173.702
 51
270.0
  0
ARC
  5
A099
330
9D45
100
AcDbEntity
  8
1
  6
Continuous
100
AcDbCircle
 10
340.4848839999999
 20
189.8272159999999
 30
0.0
 40
1.5
100
AcDbArc
 50
0.0
 51
90.0
  0
ARC
  5
A09A
330
9D45
100
AcDbEntity
  8
1
  6
Continuous
100
AcDbCircle
 10
257.9648839999999
 20
288.7612159999998
 30
0.0
 40
2.0
100
AcDbArc
 50
313.415
 51
0.000005
  0
ARC
  5
A09B
330
9D45
100
AcDbEntity
  8
1
  6
Continuous
100
AcDbCircle
 10
259.9848839999999
 20
288.7612159999998
 30
0.0
 40
2.0
100
AcDbArc
 50
313.415
 51
0.000005
  0
ARC
  5
A09C
330
9D45
100
AcDbEntity
  8
1
  6
Continuous
100
AcDbCircle
 10
258.434884
 20
74.770216
 30
0.0
 40
0.75
100
AcDbArc
 50
90.0
 51
270.0
  0
CIRCLE
  5
A09D
330
9D45
100
AcDbEntity
  8
1
  6
Continuous
100
AcDbCircle
 10
148.762884
 20
136.7122159999997
 30
0.0
 40
3.25
  0
ARC
  5
A09E
330
9D45
100
AcDbEntity
  8
1
  6
Continuous
100
AcDbCircle
 10
148.762884
 20
136.7122159999997
 30
0.0
 40
6.0
100
AcDbArc
 50
163.162
 51
336.0
  0
ARC
  5
A09F
330
9D45
100
AcDbEntity
  8
1
  6
Continuous
100
AcDbCircle
 10
246.3178839999999
 20
74.02021600000002
 30
0.0
 40
0.75
100
AcDbArc
 50
90.0
 51
270.0
  0
ARC
  5
A0A0
330
9D45
100
AcDbEntity
  8
1
  6
Continuous
100
AcDbCircle
 10
350.2178839999999
 20
154.740216
 30
0.0
 40
0.75
100
AcDbArc
 50
180.0
 51
0.0
  0
ARC
  5
A0A1
330
9D45
100
AcDbEntity
  8
1
  6
Continuous
100
AcDbCircle
 10
353.184884
 20
163.1222159999999
 30
0.0
 40
4.5
100
AcDbArc
 50
270.0
 51
349.365
  0
ARC
  5
A0A2
330
9D45
100
AcDbEntity
  8
1
  6
Continuous
100
AcDbCircle
 10
150.8588839999999
 20
231.718216
 30
0.0
 40
4.0
100
AcDbArc
 50
6.298319999999998
 51
83.41809999999998
  0
ARC
  5
A0A3
330
9D45
100
AcDbEntity
  8
1
  6
Continuous
100
AcDbCircle
 10
40.499184
 20
226.5822159999999
 30
0.0
 40
5.0
100
AcDbArc
 50
148.3669999999999
 51
183.975
  0
ARC
  5
A0A4
330
9D45
100
AcDbEntity
  8
1
  6
Continuous
100
AcDbCircle
 10
31.984884
 20
231.8272159999999
 30
0.0
 40
5.0
100
AcDbArc
 50
328.3669999999997
 51
90.0
  0
ARC
  5
A0A5
330
9D45
100
AcDbEntity
  8
5
  6
PHANTOM
100
AcDbCircle
 10
233.454884
 20
219.205216
 30
0.0
 40
5.0
100
AcDbArc
 50
9.694269999999999
 51
49.45689999999999
  0
ARC
  5
A0A6
330
9D45
100
AcDbEntity
  8
5
  6
PHANTOM
100
AcDbCircle
 10
239.954884
 20
226.804216
 30
0.0
 40
5.0
100
AcDbArc
 50
107.824
 51
229.457
  0
ARC
  5
A0A7
330
9D45
100
AcDbEntity
  8
1
  6
Continuous
100
AcDbCircle
 10
256.9808839999997
 20
301.9592160000001
 30
0.0
 40
0.7
100
AcDbArc
 50
266.843
 51
86.8435
  0
ARC
  5
A0A8
330
9D45
100
AcDbEntity
  8
1
  6
Continuous
100
AcDbCircle
 10
239.4188839999999
 20
290.900216
 30
0.0
 40
3.0
100
AcDbArc
 50
270.0
 51
329.036
  0
ARC
  5
A0A9
330
9D45
100
AcDbEntity
  8
1
  6
Continuous
100
AcDbCircle
 10
239.4188839999999
 20
290.900216
 30
0.0
 40
1.0
100
AcDbArc
 50
270.0
 51
329.036
  0
ARC
  5
A0AA
330
9D45
100
AcDbEntity
  8
1
  6
Continuous
100
AcDbCircle
 10
236.418884
 20
290.900216
 30
0.0
 40
1.0
100
AcDbArc
 50
270.0
 51
329.036
  0
ARC
  5
A0AB
330
9D45
100
AcDbEntity
  8
1
  6
Continuous
100
AcDbCircle
 10
243.7838839999999
 20
290.400216
 30
0.0
 40
1.0
100
AcDbArc
 50
90.0
 51
149.036
  0
ARC
  5
A0AC
330
9D45
100
AcDbEntity
  8
1
  6
Continuous
100
AcDbCircle
 10
243.7838839999999
 20
290.400216
 30
0.0
 40
3.0
100
AcDbArc
 50
90.0
 51
149.036
  0
ARC
  5
A0AD
330
9D45
100
AcDbEntity
  8
1
  6
Continuous
100
AcDbCircle
 10
240.7838839999997
 20
290.400216
 30
0.0
 40
3.0
100
AcDbArc
 50
90.0
 51
149.036
  0
ARC
  5
A0AE
330
9D45
100
AcDbEntity
  8
1
  6
Continuous
100
AcDbCircle
 10
264.9848839999999
 20
210.3272159999999
 30
0.0
 40
4.5
100
AcDbArc
 50
104.7949999999999
 51
247.9249999999999
  0
ARC
  5
A0AF
330
9D45
100
AcDbEntity
  8
1
  6
Continuous
100
AcDbCircle
 10
235.2858839999999
 20
84.75351600000001
 30
0.0
 40
1.0
100
AcDbArc
 50
30.9638
 51
90.0
  0
ARC
  5
A0B0
330
9D45
100
AcDbEntity
  8
1
  6
Continuous
100
AcDbCircle
 10
235.2858839999999
 20
84.75351600000001
 30
0.0
 40
3.0
100
AcDbArc
 50
30.9638
 51
90.0
  0
ARC
  5
A0B1
330
9D45
100
AcDbEntity
  8
1
  6
Continuous
100
AcDbCircle
 10
239.650884
 20
85.253516
 30
0.0
 40
3.0
100
AcDbArc
 50
210.964
 51
270.0
  0
ARC
  5
A0B2
330
9D45
100
AcDbEntity
  8
1
  6
Continuous
100
AcDbCircle
 10
239.650884
 20
85.253516
 30
0.0
 40
1.0
100
AcDbArc
 50
210.964
 51
270.0
  0
ARC
  5
A0B3
330
9D45
100
AcDbEntity
  8
1
  6
Continuous
100
AcDbCircle
 10
239.4188839999999
 20
84.75351600000001
 30
0.0
 40
3.0
100
AcDbArc
 50
30.9638
 51
90.0
  0
ARC
  5
A0B4
330
9D45
100
AcDbEntity
  8
1
  6
Continuous
100
AcDbCircle
 10
243.7838839999999
 20
85.253516
 30
0.0
 40
1.0
100
AcDbArc
 50
210.964
 51
270.0
  0
ARC
  5
A0B5
330
9D45
100
AcDbEntity
  8
1
  6
Continuous
100
AcDbCircle
 10
135.342884
 20
194.5392159999999
 30
0.0
 40
0.393389
100
AcDbArc
 50
270.0
 51
90.0
  0
ARC
  5
A0B6
330
9D45
100
AcDbEntity
  8
1
  6
Continuous
100
AcDbCircle
 10
135.2808839999999
 20
194.5392159999999
 30
0.0
 40
0.393389
100
AcDbArc
 50
228.7749999999999
 51
270.0
  0
ARC
  5
A0B7
330
9D45
100
AcDbEntity
  8
1
  6
Continuous
100
AcDbCircle
 10
135.278884
 20
198.9622159999999
 30
0.0
 40
0.393389
100
AcDbArc
 50
90.0
 51
270.0
  0
ARC
  5
A0B8
330
9D45
100
AcDbEntity
  8
1
  6
Continuous
100
AcDbCircle
 10
135.341884
 20
198.9622159999999
 30
0.0
 40
0.393389
100
AcDbArc
 50
270.0
 51
90.0
  0
ARC
  5
A0B9
330
9D45
100
AcDbEntity
  8
1
  6
Continuous
100
AcDbCircle
 10
134.6278839999999
 20
198.9622159999999
 30
0.0
 40
0.393389
100
AcDbArc
 50
90.0
 51
270.0
  0
ARC
  5
A0BA
330
9D45
100
AcDbEntity
  8
1
  6
Continuous
100
AcDbCircle
 10
134.626884
 20
197.4862159999999
 30
0.0
 40
0.393389
100
AcDbArc
 50
90.0
 51
270.0
  0
ARC
  5
A0BB
330
9D45
100
AcDbEntity
  8
1
  6
Continuous
100
AcDbCircle
 10
134.839884
 20
197.4862159999999
 30
0.0
 40
0.393389
100
AcDbArc
 50
270.0
 51
90.0
  0
ARC
  5
A0BC
330
9D45
100
AcDbEntity
  8
1
  6
Continuous
100
AcDbCircle
 10
135.342884
 20
200.439216
 30
0.0
 40
0.393389
100
AcDbArc
 50
270.0
 51
90.0
  0
ARC
  5
A0BD
330
9D45
100
AcDbEntity
  8
1
  6
Continuous
100
AcDbCircle
 10
135.2808839999999
 20
200.439216
 30
0.0
 40
0.393389
100
AcDbArc
 50
228.7749999999999
 51
270.0
  0
LINE
  5
A0BE
330
9D45
100
AcDbEntity
  8
1
  6
Continuous
100
AcDbLine
 10
239.4848839999999
 20
306.400216
 30
0.0
 11
239.4848839999999
 21
308.147216
 31
0.0
  0
LINE
  5
A0BF
330
9D45
100
AcDbEntity
  8
1
  6
Continuous
100
AcDbLine
 10
230.484884
 20
308.147216
 30
0.0
 11
239.4848839999999
 21
308.147216
 31
0.0
  0
LINE
  5
A0C0
330
9D45
100
AcDbEntity
  8
1
  6
Continuous
100
AcDbLine
 10
230.484884
 20
306.400216
 30
0.0
 11
239.4848839999999
 21
306.400216
 31
0.0
  0
LINE
  5
A0C1
330
9D45
100
AcDbEntity
  8
1
  6
Continuous
100
AcDbLine
 10
230.484884
 20
306.400216
 30
0.0
 11
230.484884
 21
308.147216
 31
0.0
  0
LINE
  5
A0C2
330
9D45
100
AcDbEntity
  8
1
  6
Continuous
100
AcDbLine
 10
244.437884
 20
313.1002159999998
 30
0.0
 11
239.4848839999999
 21
308.147216
 31
0.0
  0
LINE
  5
A0C3
330
9D45
100
AcDbEntity
  8
1
  6
Continuous
100
AcDbLine
 10
225.531884
 20
313.1002159999998
 30
0.0
 11
230.484884
 21
308.147216
 31
0.0
  0
LINE
  5
A0C4
330
9D45
100
AcDbEntity
  8
1
  6
Continuous
100
AcDbLine
 10
268.9848839999999
 20
64.25351600000002
 30
0.0
 11
260.9848839999999
 21
64.25351600000002
 31
0.0
  0
LINE
  5
A0C5
330
9D45
100
AcDbEntity
  8
1
  6
Continuous
100
AcDbLine
 10
268.9848839999999
 20
64.25351600000002
 30
0.0
 11
269.9663794576222
 21
62.55351600000003
 31
0.0
  0
LINE
  5
A0C6
330
9D45
100
AcDbEntity
  8
1
  6
Continuous
100
AcDbLine
 10
260.9848839999999
 20
64.25351600000002
 30
0.0
 11
260.0033885423775
 21
62.55351600000003
 31
0.0
  0
LINE
  5
A0C7
330
9D45
100
AcDbEntity
  8
1
  6
Continuous
100
AcDbLine
 10
238.9848839999999
 20
64.25351600000002
 30
0.0
 11
230.9848839999999
 21
64.25351600000002
 31
0.0
  0
LINE
  5
A0C8
330
9D45
100
AcDbEntity
  8
1
  6
Continuous
100
AcDbLine
 10
238.9848839999999
 20
64.25351600000002
 30
0.0
 11
239.9663794576223
 21
62.55351600000003
 31
0.0
  0
LINE
  5
A0C9
330
9D45
100
AcDbEntity
  8
1
  6
Continuous
100
AcDbLine
 10
230.9848839999999
 20
64.25351600000002
 30
0.0
 11
230.0033885423776
 21
62.55351600000003
 31
0.0
  0
ARC
  5
A0CA
330
9D45
100
AcDbEntity
  8
1
  6
Continuous
100
AcDbCircle
 10
234.9848839999999
 20
232.327216
 30
0.0
 40
8.99998
100
AcDbArc
 50
90.0
 51
31.77399999999944
  0
CIRCLE
  5
A0CB
330
9D45
100
AcDbEntity
  8
1
  6
Continuous
100
AcDbCircle
 10
234.9848839999999
 20
232.327216
 30
0.0
 40
4.5
  0
ARC
  5
A0CC
330
9D45
100
AcDbEntity
  8
1
  6
Continuous
100
AcDbCircle
 10
54.98488399999999
 20
232.327216
 30
0.0
 40
8.5
100
AcDbArc
 50
153.6019270550212
 51
233.5249349143597
  0
ARC
  5
A0CD
330
9D45
100
AcDbEntity
  8
1
  6
Continuous
100
AcDbCircle
 10
54.98488399999999
 20
232.327216
 30
0.0
 40
8.5
100
AcDbArc
 50
252.130367775186
 51
310.5533209276492
  0
ARC
  5
A0CE
330
9D45
100
AcDbEntity
  8
1
  6
Continuous
100
AcDbCircle
 10
54.98488399999999
 20
232.327216
 30
0.0
 40
4.5
100
AcDbArc
 50
65.68307225830769
 51
126.0676847014751
  0
ARC
  5
A0CF
330
9D45
100
AcDbEntity
  8
1
  6
Continuous
100
AcDbCircle
 10
54.98488399999999
 20
232.327216
 30
0.0
 40
8.5
100
AcDbArc
 50
67.45913492549277
 51
132.1578621538681
  0
ARC
  5
A0D0
330
9D45
100
AcDbEntity
  8
1
  6
Continuous
100
AcDbCircle
 10
54.98488399999999
 20
232.327216
 30
0.0
 40
4.5
100
AcDbArc
 50
253.1027849826084
 51
314.6859941662286
  0
ARC
  5
A0D1
330
9D45
100
AcDbEntity
  8
1
  6
Continuous
100
AcDbCircle
 10
54.98488399999999
 20
232.327216
 30
0.0
 40
4.5
100
AcDbArc
 50
339.4982728840776
 51
42.50791594752557
  0
ARC
  5
A0D2
330
9D45
100
AcDbEntity
  8
1
  6
Continuous
100
AcDbCircle
 10
54.98488399999999
 20
232.327216
 30
0.0
 40
8.5
100
AcDbArc
 50
339.24153943823
 51
43.65100423608184
  0
ARC
  5
A0D3
330
9D45
100
AcDbEntity
  8
1
  6
Continuous
100
AcDbCircle
 10
54.98488399999999
 20
232.327216
 30
0.0
 40
4.5
100
AcDbArc
 50
149.265839813654
 51
224.6507933080144
  0
LINE
  5
A0D4
330
9D45
100
AcDbEntity
  8
1
  6
Continuous
100
AcDbLine
 10
359.9848839999999
 20
149.3272159999999
 30
0.0
 11
361.684884
 21
150.3087114576223
 31
0.0
  0
LINE
  5
A0D5
330
9D45
100
AcDbEntity
  8
1
  6
Continuous
100
AcDbLine
 10
359.9848839999999
 20
149.3272159999999
 30
0.0
 11
359.9848839999999
 21
141.3272159999999
 31
0.0
  0
LINE
  5
A0D6
330
9D45
100
AcDbEntity
  8
1
  6
Continuous
100
AcDbLine
 10
359.9848839999999
 20
141.3272159999999
 30
0.0
 11
361.684884
 21
140.3457205423775
 31
0.0
  0
CIRCLE
  5
A0D7
330
9D45
100
AcDbEntity
  8
1
  6
Continuous
100
AcDbCircle
 10
264.9848839999999
 20
145.327216
 30
0.0
 40
4.0
  0
CIRCLE
  5
A0D8
330
9D45
100
AcDbEntity
  8
1
  6
Continuous
100
AcDbCircle
 10
234.9848839999999
 20
145.327216
 30
0.0
 40
4.0
  0
ARC
  5
A0D9
330
9D45
100
AcDbEntity
  8
1
  6
Continuous
100
AcDbCircle
 10
225.2848839999999
 20
212.2799071934581
 30
0.0
 40
2.299999999999998
100
AcDbArc
 50
180.0
 51
224.9999999999996
  0
ARC
  5
A0DA
330
9D45
100
AcDbEntity
  8
1
  6
Continuous
100
AcDbCircle
 10
224.9848839999999
 20
209.3265248065418
 30
0.0
 40
2.299999999999998
100
AcDbArc
 50
0.0
 51
45.0
  0
ARC
  5
A0DB
330
9D45
100
AcDbEntity
  8
1
  6
Continuous
100
AcDbCircle
 10
224.9848839999999
 20
165.3269071934581
 30
0.0
 40
2.299999999999998
100
AcDbArc
 50
315.0000000000003
 51
0.0
  0
ARC
  5
A0DC
330
9D45
100
AcDbEntity
  8
1
  6
Continuous
100
AcDbCircle
 10
225.2848839999999
 20
162.3745248065418
 30
0.0
 40
2.299999999999998
100
AcDbArc
 50
135.0
 51
180.0
  0
ENDSEC
  0
SECTION
  2
OBJECTS
  0
DICTIONARY
  5
9D33
330
0
100
AcDbDictionary
281
     1
  3
ACAD_CIP_PREVIOUS_PRODUCT_INFO
350
A142
  3
ACAD_COLOR
350
A124
  3
ACAD_DETAILVIEWSTYLE
350
A13D
  3
ACAD_GROUP
350
9D34
  3
ACAD_LAYOUT
350
9D40
  3
ACAD_MATERIAL
350
A0F2
  3
ACAD_MLEADERSTYLE
350
A139
  3
ACAD_MLINESTYLE
350
9D3D
  3
ACAD_PLOTSETTINGS
350
9D3F
  3
ACAD_PLOTSTYLENAME
350
A0F0
  3
ACAD_SCALELIST
350
A127
  3
ACAD_SECTIONVIEWSTYLE
350
A13B
  3
ACAD_TABLESTYLE
350
A125
  3
ACAD_VISUALSTYLE
350
A10B
  3
ACDB_RECOMPOSE_DATA
350
A160
  3
AcDbVariableDictionary
350
A153
  3
DWGPROPS
350
A161
  0
DICTIONARY
  5
A143
330
9D37
100
AcDbDictionary
280
     1
281
     1
  3
ADSK_XREC_LAYER_RECONCILED
360
A144
  0
DICTIONARY
  5
A145
330
9D4D
100
AcDbDictionary
280
     1
281
     1
  3
ADSK_XREC_LAYER_RECONCILED
360
A146
  0
DICTIONARY
  5
A147
330
9D4E
100
AcDbDictionary
280
     1
281
     1
  3
ADSK_XREC_LAYER_RECONCILED
360
A148
  0
DICTIONARY
  5
A149
330
9D4F
100
AcDbDictionary
280
     1
281
     1
  3
ADSK_XREC_LAYER_RECONCILED
360
A14A
  0
DICTIONARY
  5
A14B
330
9D50
100
AcDbDictionary
280
     1
281
     1
  3
ADSK_XREC_LAYER_RECONCILED
360
A14C
  0
DICTIONARY
  5
A14D
330
9D51
100
AcDbDictionary
280
     1
281
     1
  3
ADSK_XREC_LAYER_RECONCILED
360
A14E
  0
DICTIONARY
  5
A14F
330
9D52
100
AcDbDictionary
280
     1
281
     1
  3
ADSK_XREC_LAYER_RECONCILED
360
A150
  0
DICTIONARY
  5
A151
330
9D53
100
AcDbDictionary
280
     1
281
     1
  3
ADSK_XREC_LAYER_RECONCILED
360
A152
  0
DICTIONARY
  5
A0EB
330
9D45
100
AcDbDictionary
281
     1
  3
ACAD_LAYOUTSELFREF
350
A0EC
  0
DICTIONARY
  5
A0E9
330
9D41
100
AcDbDictionary
281
     1
  3
ACAD_LAYOUTSELFREF
350
A0EA
  0
XRECORD
  5
A142
102
{ACAD_REACTORS
330
9D33
102
}
330
9D33
100
AcDbXrecord
280
     1
300
ACDLT
300
2014
300
ACDLT_F_S
  0
DICTIONARY
  5
A124
102
{ACAD_REACTORS
330
9D33
102
}
330
9D33
100
AcDbDictionary
281
     1
  0
DICTIONARY
  5
A13D
102
{ACAD_REACTORS
330
9D33
102
}
330
9D33
100
AcDbDictionary
281
     1
  3
Imperial24
350
A13E
  0
DICTIONARY
  5
9D34
102
{ACAD_REACTORS
330
9D33
102
}
330
9D33
100
AcDbDictionary
281
     1
  0
DICTIONARY
  5
9D40
102
{ACAD_REACTORS
330
9D33
102
}
330
9D33
100
AcDbDictionary
281
     1
  3
Model
350
A13F
  3
レイアウト1
350
A140
  0
DICTIONARY
  5
A0F2
102
{ACAD_REACTORS
330
9D33
102
}
330
9D33
100
AcDbDictionary
281
     1
  3
ByBlock
350
A0FB
  3
ByLayer
350
A0F3
  3
Global
350
A103
  0
DICTIONARY
  5
A139
102
{ACAD_REACTORS
330
9D33
102
}
330
9D33
100
AcDbDictionary
281
     1
  3
Standard
350
A13A
  0
DICTIONARY
  5
9D3D
102
{ACAD_REACTORS
330
9D33
102
}
330
9D33
100
AcDbDictionary
281
     1
  3
STANDARD
350
9D3E
  0
DICTIONARY
  5
9D3F
102
{ACAD_REACTORS
330
9D33
102
}
330
9D33
100
AcDbDictionary
281
     1
  0
ACDBDICTIONARYWDFLT
  5
A0F0
102
{ACAD_REACTORS
330
9D33
102
}
330
9D33
100
AcDbDictionary
281
     1
  3
Normal
350
A0F1
100
AcDbDictionaryWithDefault
340
A0F1
  0
DICTIONARY
  5
A127
102
{ACAD_REACTORS
330
9D33
102
}
330
9D33
100
AcDbDictionary
281
     1
  3
A0
350
A128
  3
A1
350
A129
  3
A2
350
A12A
  3
A3
350
A12B
  3
A4
350
A12C
  3
A5
350
A12D
  3
A6
350
A12E
  3
A7
350
A12F
  3
A8
350
A130
  3
A9
350
A131
  3
B0
350
A132
  3
B1
350
A133
  3
B2
350
A134
  3
B3
350
A135
  3
B4
350
A136
  3
B5
350
A137
  3
B6
350
A138
  0
DICTIONARY
  5
A13B
102
{ACAD_REACTORS
330
9D33
102
}
330
9D33
100
AcDbDictionary
281
     1
  3
Imperial24
350
A13C
  0
DICTIONARY
  5
A125
102
{ACAD_REACTORS
330
9D33
102
}
330
9D33
100
AcDbDictionary
281
     1
  3
Standard
350
A126
  0
DICTIONARY
  5
A10B
102
{ACAD_REACTORS
330
9D33
102
}
330
9D33
100
AcDbDictionary
281
     1
  3
2dWireframe
350
A111
  3
Basic
350
A110
  3
Brighten
350
A117
  3
ColorChange
350
A11B
  3
Conceptual
350
A114
  3
Dim
350
A116
  3
EdgeColorOff
350
A123
  3
Facepattern
350
A11A
  3
Flat
350
A10C
  3
FlatWithEdges
350
A10D
  3
Gouraud
350
A10E
  3
GouraudWithEdges
350
A10F
  3
Hidden
350
A113
  3
JitterOff
350
A121
  3
Linepattern
350
A119
  3
OverhangOff
350
A122
  3
Realistic
350
A115
  3
Shaded
350
A120
  3
Shaded with edges
350
A11F
  3
Shades of Gray
350
A11C
  3
Sketchy
350
A11D
  3
Thicken
350
A118
  3
Wireframe
350
A112
  3
X-Ray
350
A11E
  0
XRECORD
  5
A160
102
{ACAD_REACTORS
330
9D33
102
}
330
9D33
100
AcDbXrecord
280
     1
 90
        1
330
A126
  0
DICTIONARY
  5
A153
102
{ACAD_REACTORS
330
9D33
102
}
330
9D33
100
AcDbDictionary
281
     1
  3
CANNOSCALE
350
A158
  3
CMLEADERSTYLE
350
A155
  3
CTABLESTYLE
350
A154
  3
CVIEWDETAILSTYLE
350
A156
  3
CVIEWSECTIONSTYLE
350
A157
  3
DIMASSOC
350
A15B
  3
INDEXCTL
350
A15A
  3
SORTENTS
350
A159
  3
XCLIPFRAME
350
A15C
  0
XRECORD
  5
A161
102
{ACAD_REACTORS
330
9D33
102
}
330
9D33
100
AcDbXrecord
280
     1
  1
DWGPROPS COOKIE
  2

  3

  4

  6

  7

  8
Yoshitsune
  9

300
=
301
=
302
=
303
=
304
=
305
=
306
=
307
=
308
=
309
=
 40
0.0125135300925926
 41
2450737.701419444
 42
2457192.640334977
  1

 90
        0
  0
XRECORD
  5
A144
102
{ACAD_REACTORS
330
A143
102
}
330
A143
100
AcDbXrecord
280
     1
290
     1
  0
XRECORD
  5
A146
102
{ACAD_REACTORS
330
A145
102
}
330
A145
100
AcDbXrecord
280
     1
290
     1
  0
XRECORD
  5
A148
102
{ACAD_REACTORS
330
A147
102
}
330
A147
100
AcDbXrecord
280
     1
290
     1
  0
XRECORD
  5
A14A
102
{ACAD_REACTORS
330
A149
102
}
330
A149
100
AcDbXrecord
280
     1
290
     1
  0
XRECORD
  5
A14C
102
{ACAD_REACTORS
330
A14B
102
}
330
A14B
100
AcDbXrecord
280
     1
290
     1
  0
XRECORD
  5
A14E
102
{ACAD_REACTORS
330
A14D
102
}
330
A14D
100
AcDbXrecord
280
     1
290
     1
  0
XRECORD
  5
A150
102
{ACAD_REACTORS
330
A14F
102
}
330
A14F
100
AcDbXrecord
280
     1
290
     1
  0
XRECORD
  5
A152
102
{ACAD_REACTORS
330
A151
102
}
330
A151
100
AcDbXrecord
280
     1
290
     1
  0
XRECORD
  5
A0EC
102
{ACAD_REACTORS
330
A0EB
102
}
330
A0EB
100
AcDbXrecord
280
     1
340
9D45
  0
XRECORD
  5
A0EA
102
{ACAD_REACTORS
330
A0E9
102
}
330
A0E9
100
AcDbXrecord
280
     1
340
9D41
  0
ACDBDETAILVIEWSTYLE
  5
A13E
102
{ACAD_XDICTIONARY
360
A199
102
}
102
{ACAD_REACTORS
330
A13D
102
}
330
A13D
100
AcDbModelDocViewStyle
 70
     0
  3
Imperial24
290
     0
100
AcDbDetailViewStyle
 70
     0
 71
     0
 90
        3
 71
     1
340
9D38
 40
0.24
340
0
 40
0.24
300

 40
0.36
280
     3
 71
     2
340
9D3C
 90
       25
 71
     3
340
9D38
 40
0.24
 90
        1
 40
0.75
 90
        1
300
%<\AcVar ViewType \f "%tc1">% %<\AcVar ViewDetailId>%\PSCALE %<\AcVar ViewScale \f "%sn">%
 71
     4
340
9D3C
 90
       25
340
9D3C
 90
       25
280
     0
  0
LAYOUT
  5
A13F
102
{ACAD_XDICTIONARY
360
A19B
102
}
102
{ACAD_REACTORS
330
9D40
102
}
330
9D40
100
AcDbPlotSettings
  1

  2
Canon LBP9100C
  4

  6

 40
0.0
 41
0.0
 42
0.0
 43
0.0
 44
0.0
 45
0.0
 46
0.0
 47
0.0
 48
0.0
 49
0.0
140
0.0
141
0.0
142
1.0
143
1.0
 70
  1712
 72
     0
 73
     0
 74
     0
  7

 75
     0
147
1.0
148
0.0
149
0.0
100
AcDbLayout
  1
Model
 70
     1
 71
     0
 10
0.0
 20
0.0
 11
12.0
 21
9.0
 12
0.0
 22
0.0
 32
0.0
 14
0.0
 24
0.0
 34
0.0
 15
0.0
 25
0.0
 35
0.0
146
0.0
 13
0.0
 23
0.0
 33
0.0
 16
1.0
 26
0.0
 36
0.0
 17
0.0
 27
1.0
 37
0.0
 76
     0
330
9D45
331
A0E8
  0
LAYOUT
  5
A140
102
{ACAD_XDICTIONARY
360
A19D
102
}
102
{ACAD_REACTORS
330
9D40
102
}
330
9D40
100
AcDbPlotSettings
  1

  2
Canon LBP9100C
  4

  6

 40
0.0
 41
0.0
 42
0.0
 43
0.0
 44
0.0
 45
0.0
 46
0.0
 47
0.0
 48
0.0
 49
0.0
140
0.0
141
0.0
142
1.0
143
1.0
 70
   688
 72
     0
 73
     0
 74
     5
  7

 75
    16
147
1.0
148
0.0
149
0.0
100
AcDbLayout
  1
レイアウト1
 70
     0
 71
     1
 10
0.0
 20
0.0
 11
420.0
 21
297.0
 12
0.0
 22
0.0
 32
0.0
 14
1.000000000000000E+20
 24
1.000000000000000E+20
 34
1.000000000000000E+20
 15
-1.000000000000000E+20
 25
-1.000000000000000E+20
 35
-1.000000000000000E+20
146
0.0
 13
0.0
 23
0.0
 33
0.0
 16
1.0
 26
0.0
 36
0.0
 17
0.0
 27
1.0
 37
0.0
 76
     0
330
9D41
  0
MATERIAL
  5
A0FB
102
{ACAD_XDICTIONARY
360
A0FC
102
}
102
{ACAD_REACTORS
330
A0F2
102
}
330
A0F2
100
AcDbMaterial
  1
ByBlock
 72
     0
 43
0.0208333333333333
 43
0.0
 43
0.0
 43
0.0
 43
0.0
 43
0.0208333333333333
 43
0.0
 43
0.0
 43
0.0
 43
0.0
 43
1.0
 43
0.0
 43
0.0
 43
0.0
 43
0.0
 43
1.0
 77
     0
 47
0.0208333333333333
 47
0.0
 47
0.0
 47
0.0
 47
0.0
 47
0.0208333333333333
 47
0.0
 47
0.0
 47
0.0
 47
0.0
 47
1.0
 47
0.0
 47
0.0
 47
0.0
 47
0.0
 47
1.0
171
     0
 49
0.0208333333333333
 49
0.0
 49
0.0
 49
0.0
 49
0.0
 49
0.0208333333333333
 49
0.0
 49
0.0
 49
0.0
 49
0.0
 49
1.0
 49
0.0
 49
0.0
 49
0.0
 49
0.0
 49
1.0
175
     0
142
0.0208333333333333
142
0.0
142
0.0
142
0.0
142
0.0
142
0.0208333333333333
142
0.0
142
0.0
142
0.0
142
0.0
142
1.0
142
0.0
142
0.0
142
0.0
142
0.0
142
1.0
179
     0
144
0.0208333333333333
144
0.0
144
0.0
144
0.0
144
0.0
144
0.0208333333333333
144
0.0
144
0.0
144
0.0
144
0.0
144
1.0
144
0.0
144
0.0
144
0.0
144
0.0
144
1.0
147
0.0208333333333333
147
0.0
147
0.0
147
0.0
147
0.0
147
0.0208333333333333
147
0.0
147
0.0
147
0.0
147
0.0
147
1.0
147
0.0
147
0.0
147
0.0
147
0.0
147
1.0
  0
MATERIAL
  5
A0F3
102
{ACAD_XDICTIONARY
360
A0F4
102
}
102
{ACAD_REACTORS
330
A0F2
102
}
330
A0F2
100
AcDbMaterial
  1
ByLayer
 72
     0
 43
0.0208333333333333
 43
0.0
 43
0.0
 43
0.0
 43
0.0
 43
0.0208333333333333
 43
0.0
 43
0.0
 43
0.0
 43
0.0
 43
1.0
 43
0.0
 43
0.0
 43
0.0
 43
0.0
 43
1.0
 77
     0
 47
0.0208333333333333
 47
0.0
 47
0.0
 47
0.0
 47
0.0
 47
0.0208333333333333
 47
0.0
 47
0.0
 47
0.0
 47
0.0
 47
1.0
 47
0.0
 47
0.0
 47
0.0
 47
0.0
 47
1.0
171
     0
 49
0.0208333333333333
 49
0.0
 49
0.0
 49
0.0
 49
0.0
 49
0.0208333333333333
 49
0.0
 49
0.0
 49
0.0
 49
0.0
 49
1.0
 49
0.0
 49
0.0
 49
0.0
 49
0.0
 49
1.0
175
     0
142
0.0208333333333333
142
0.0
142
0.0
142
0.0
142
0.0
142
0.0208333333333333
142
0.0
142
0.0
142
0.0
142
0.0
142
1.0
142
0.0
142
0.0
142
0.0
142
0.0
142
1.0
179
     0
144
0.0208333333333333
144
0.0
144
0.0
144
0.0
144
0.0
144
0.0208333333333333
144
0.0
144
0.0
144
0.0
144
0.0
144
1.0
144
0.0
144
0.0
144
0.0
144
0.0
144
1.0
147
0.0208333333333333
147
0.0
147
0.0
147
0.0
147
0.0
147
0.0208333333333333
147
0.0
147
0.0
147
0.0
147
0.0
147
1.0
147
0.0
147
0.0
147
0.0
147
0.0
147
1.0
  0
MATERIAL
  5
A103
102
{ACAD_XDICTIONARY
360
A104
102
}
102
{ACAD_REACTORS
330
A0F2
102
}
330
A0F2
100
AcDbMaterial
  1
Global
 72
     0
 43
0.0208333333333333
 43
0.0
 43
0.0
 43
0.0
 43
0.0
 43
0.0208333333333333
 43
0.0
 43
0.0
 43
0.0
 43
0.0
 43
1.0
 43
0.0
 43
0.0
 43
0.0
 43
0.0
 43
1.0
 77
     0
 47
0.0208333333333333
 47
0.0
 47
0.0
 47
0.0
 47
0.0
 47
0.0208333333333333
 47
0.0
 47
0.0
 47
0.0
 47
0.0
 47
1.0
 47
0.0
 47
0.0
 47
0.0
 47
0.0
 47
1.0
171
     0
 49
0.0208333333333333
 49
0.0
 49
0.0
 49
0.0
 49
0.0
 49
0.0208333333333333
 49
0.0
 49
0.0
 49
0.0
 49
0.0
 49
1.0
 49
0.0
 49
0.0
 49
0.0
 49
0.0
 49
1.0
175
     0
142
0.0208333333333333
142
0.0
142
0.0
142
0.0
142
0.0
142
0.0208333333333333
142
0.0
142
0.0
142
0.0
142
0.0
142
1.0
142
0.0
142
0.0
142
0.0
142
0.0
142
1.0
179
     0
144
0.0208333333333333
144
0.0
144
0.0
144
0.0
144
0.0
144
0.0208333333333333
144
0.0
144
0.0
144
0.0
144
0.0
144
1.0
144
0.0
144
0.0
144
0.0
144
0.0
144
1.0
147
0.0208333333333333
147
0.0
147
0.0
147
0.0
147
0.0
147
0.0208333333333333
147
0.0
147
0.0
147
0.0
147
0.0
147
1.0
147
0.0
147
0.0
147
0.0
147
0.0
147
1.0
  0
MLEADERSTYLE
  5
A13A
102
{ACAD_REACTORS
330
A139
102
}
330
A139
100
AcDbMLeaderStyle
170
     2
171
     1
172
     0
 90
        2
 40
0.0
 41
0.0
173
     1
 91
-1056964608
340
9D3A
 92
       -2
290
     1
 42
0.09
291
     1
 43
0.36
  3
Standard
 44
0.18
300

342
9D38
174
     1
178
     6
175
     1
176
     0
 93
-1056964608
 45
0.18
292
     0
297
     0
 46
0.18
 94
-1056964608
 47
1.0
 49
1.0
140
1.0
293
     1
141
0.0
294
     1
177
     0
142
1.0
295
     0
296
     0
143
0.125
1001
ACAD_MLEADERVER
1070
     2
  0
MLINESTYLE
  5
9D3E
102
{ACAD_REACTORS
330
9D3D
102
}
330
9D3D
100
AcDbMlineStyle
  2
STANDARD
 70
     0
  3

 62
   256
 51
90.0
 52
90.0
 71
     2
 49
0.5
 62
   256
  6
BYLAYER
 49
-0.5
 62
   256
  6
BYLAYER
  0
ACDBPLACEHOLDER
  5
A0F1
102
{ACAD_REACTORS
330
A0F0
102
}
330
A0F0
  0
SCALE
  5
A128
102
{ACAD_REACTORS
330
A127
102
}
330
A127
100
AcDbScale
 70
     0
300
1:1
140
1.0
141
1.0
290
     1
  0
SCALE
  5
A129
102
{ACAD_REACTORS
330
A127
102
}
330
A127
100
AcDbScale
 70
     0
300
1/128" = 1'-0"
140
0.0078125
141
12.0
290
     0
  0
SCALE
  5
A12A
102
{ACAD_REACTORS
330
A127
102
}
330
A127
100
AcDbScale
 70
     0
300
1/64" = 1'-0"
140
0.015625
141
12.0
290
     0
  0
SCALE
  5
A12B
102
{ACAD_REACTORS
330
A127
102
}
330
A127
100
AcDbScale
 70
     0
300
1/32" = 1'-0"
140
0.03125
141
12.0
290
     0
  0
SCALE
  5
A12C
102
{ACAD_REACTORS
330
A127
102
}
330
A127
100
AcDbScale
 70
     0
300
1/16" = 1'-0"
140
0.0625
141
12.0
290
     0
  0
SCALE
  5
A12D
102
{ACAD_REACTORS
330
A127
102
}
330
A127
100
AcDbScale
 70
     0
300
3/32" = 1'-0"
140
0.09375
141
12.0
290
     0
  0
SCALE
  5
A12E
102
{ACAD_REACTORS
330
A127
102
}
330
A127
100
AcDbScale
 70
     0
300
1/8" = 1'-0"
140
0.125
141
12.0
290
     0
  0
SCALE
  5
A12F
102
{ACAD_REACTORS
330
A127
102
}
330
A127
100
AcDbScale
 70
     0
300
3/16" = 1'-0"
140
0.1875
141
12.0
290
     0
  0
SCALE
  5
A130
102
{ACAD_REACTORS
330
A127
102
}
330
A127
100
AcDbScale
 70
     0
300
1/4" = 1'-0"
140
0.25
141
12.0
290
     0
  0
SCALE
  5
A131
102
{ACAD_REACTORS
330
A127
102
}
330
A127
100
AcDbScale
 70
     0
300
3/8" = 1'-0"
140
0.375
141
12.0
290
     0
  0
SCALE
  5
A132
102
{ACAD_REACTORS
330
A127
102
}
330
A127
100
AcDbScale
 70
     0
300
1/2" = 1'-0"
140
0.5
141
12.0
290
     0
  0
SCALE
  5
A133
102
{ACAD_REACTORS
330
A127
102
}
330
A127
100
AcDbScale
 70
     0
300
3/4" = 1'-0"
140
0.75
141
12.0
290
     0
  0
SCALE
  5
A134
102
{ACAD_REACTORS
330
A127
102
}
330
A127
100
AcDbScale
 70
     0
300
1" = 1'-0"
140
1.0
141
12.0
290
     0
  0
SCALE
  5
A135
102
{ACAD_REACTORS
330
A127
102
}
330
A127
100
AcDbScale
 70
     0
300
1-1/2" = 1'-0"
140
1.5
141
12.0
290
     0
  0
SCALE
  5
A136
102
{ACAD_REACTORS
330
A127
102
}
330
A127
100
AcDbScale
 70
     0
300
3" = 1'-0"
140
3.0
141
12.0
290
     0
  0
SCALE
  5
A137
102
{ACAD_REACTORS
330
A127
102
}
330
A127
100
AcDbScale
 70
     0
300
6" = 1'-0"
140
6.0
141
12.0
290
     0
  0
SCALE
  5
A138
102
{ACAD_REACTORS
330
A127
102
}
330
A127
100
AcDbScale
 70
     0
300
1'-0" = 1'-0"
140
12.0
141
12.0
290
     0
  0
ACDBSECTIONVIEWSTYLE
  5
A13C
102
{ACAD_XDICTIONARY
360
A197
102
}
102
{ACAD_REACTORS
330
A13B
102
}
330
A13B
100
AcDbModelDocViewStyle
 70
     0
  3
Imperial24
290
     0
100
AcDbSectionViewStyle
 70
     0
 71
     0
 90
       78
 71
     1
340
9D38
 40
0.24
340
0
340
0
 40
0.24
300
I, O, Q, S, X, Z
 40
0.48
 90
        3
 40
0.18
 90
        1
 71
     2
340
9D3C
 90
       25
340
9D3C
 90
       50
 40
0.24
 40
0.0
 40
0.24
 71
     3
340
9D38
 40
0.24
 90
        1
 40
0.75
 90
        1
300
%<\AcVar ViewType \f "%tc1">% %<\AcVar ViewSectionStartId>%-%<\AcVar ViewSectionEndId>%\PSCALE %<\AcVar ViewScale \f "%sn">%
 71
     4
300
ANSI31
 40
1.0
 90
        0
290
     0
290
     0
 90
        6
 40
0.0
 40
1.570796326794896
 40
0.2617993877991494
 40
1.308996938995747
 40
-0.2617993877991494
 40
1.832595714594046
  0
TABLESTYLE
  5
A126
102
{ACAD_XDICTIONARY
360
A15E
102
}
102
{ACAD_REACTORS
330
A125
102
}
330
A125
100
AcDbTableStyle
  3
Standard
 70
     0
 71
     0
 40
0.06
 41
0.06
280
     0
281
     0
  7
STANDARD
140
0.18
170
     2
 62
     0
 63
     7
283
     0
274
    -2
284
     1
 64
     0
275
    -2
285
     1
 65
     0
276
    -2
286
     1
 66
     0
277
    -2
287
     1
 67
     0
278
    -2
288
     1
 68
     0
279
    -2
289
     1
 69
     0
  7
STANDARD
140
0.25
170
     5
 62
     0
 63
     7
283
     0
274
    -2
284
     1
 64
     0
275
    -2
285
     1
 65
     0
276
    -2
286
     1
 66
     0
277
    -2
287
     1
 67
     0
278
    -2
288
     1
 68
     0
279
    -2
289
     1
 69
     0
  7
STANDARD
140
0.18
170
     5
 62
     0
 63
     7
283
     0
274
    -2
284
     1
 64
     0
275
    -2
285
     1
 65
     0
276
    -2
286
     1
 66
     0
277
    -2
287
     1
 67
     0
278
    -2
288
     1
 68
     0
279
    -2
289
     1
 69
     0
  0
VISUALSTYLE
  5
A111
102
{ACAD_XDICTIONARY
360
A16F
102
}
102
{ACAD_REACTORS
330
A10B
102
}
330
A10B
100
AcDbVisualStyle
  2
2dWireframe
 70
     4
 71
     0
 72
     2
 73
     0
 90
        0
 40
-0.6
 41
-30.0
 62
     5
 63
     7
 74
     1
 91
        4
 64
     7
 65
   257
 75
     1
175
     1
 42
1.0
 92
        0
 66
   257
 43
1.0
 76
     1
 77
     6
 78
     2
 67
     7
 79
     5
170
     0
171
     0
290
     0
174
     0
 93
        1
 44
0.0
173
     0
291
     0
 45
0.0
1001
ACAD
1000
AcDbSavedByObjectVersion
1070
     0
  0
VISUALSTYLE
  5
A110
102
{ACAD_XDICTIONARY
360
A16D
102
}
102
{ACAD_REACTORS
330
A10B
102
}
330
A10B
100
AcDbVisualStyle
  2
Basic
 70
     7
 71
     1
 72
     0
 73
     1
 90
        0
 40
-0.6
 41
-30.0
 62
     5
 63
     7
 74
     0
 91
        4
 64
     7
 65
   257
 75
     1
175
     1
 42
1.0
 92
        8
 66
     7
 43
1.0
 76
     1
 77
     6
 78
     2
 67
     7
 79
     5
170
     0
171
     0
290
     0
174
     0
 93
        1
 44
0.0
173
     0
291
     1
 45
0.0
1001
ACAD
1000
AcDbSavedByObjectVersion
1070
     0
  0
VISUALSTYLE
  5
A117
102
{ACAD_XDICTIONARY
360
A17B
102
}
102
{ACAD_REACTORS
330
A10B
102
}
330
A10B
100
AcDbVisualStyle
  2
Brighten
 70
    12
 71
     2
 72
     2
 73
     0
 90
        0
 40
-0.6
 41
-30.0
 62
     5
 63
     7
 74
     1
 91
        4
 64
     7
 65
   257
 75
     1
175
     1
 42
1.0
 92
        8
 66
     7
 43
1.0
 76
     1
 77
     6
 78
     2
 67
     7
 79
     5
170
     0
171
     0
290
     0
174
     0
 93
        1
 44
50.0
173
     0
291
     1
 45
0.0
1001
ACAD
1000
AcDbSavedByObjectVersion
1070
     0
  0
VISUALSTYLE
  5
A11B
102
{ACAD_XDICTIONARY
360
A183
102
}
102
{ACAD_REACTORS
330
A10B
102
}
330
A10B
100
AcDbVisualStyle
  2
ColorChange
 70
    16
 71
     2
 72
     2
 73
     3
 90
        0
 40
-0.6
 41
-30.0
 62
     5
 63
     8
 74
     1
 91
        4
 64
     7
 65
   257
 75
     1
175
     1
 42
1.0
 92
        8
 66
     8
 43
1.0
 76
     1
 77
     6
 78
     2
 67
     7
 79
     5
170
     0
171
     0
290
     0
174
     0
 93
        1
 44
0.0
173
     0
291
     1
 45
0.0
1001
ACAD
1000
AcDbSavedByObjectVersion
1070
     0
  0
VISUALSTYLE
  5
A114
102
{ACAD_XDICTIONARY
360
A175
102
}
102
{ACAD_REACTORS
330
A10B
102
}
330
A10B
100
AcDbVisualStyle
  2
Conceptual
 70
     9
 71
     3
 72
     2
 73
     0
 90
        0
 40
-0.6
 41
-30.0
 62
     5
 63
     7
 74
     2
 91
        2
 64
     7
 65
   257
 75
     1
175
     1
 42
179.0
 92
        8
 66
     7
 43
1.0
 76
     1
 77
     6
 78
     2
 67
     7
 79
     3
170
     0
171
     0
290
     0
174
     0
 93
        1
 44
0.0
173
     0
291
     0
 45
0.0
1001
ACAD
1000
AcDbSavedByObjectVersion
1070
     0
  0
VISUALSTYLE
  5
A116
102
{ACAD_XDICTIONARY
360
A179
102
}
102
{ACAD_REACTORS
330
A10B
102
}
330
A10B
100
AcDbVisualStyle
  2
Dim
 70
    11
 71
     2
 72
     2
 73
     0
 90
        0
 40
-0.6
 41
-30.0
 62
     5
 63
     7
 74
     1
 91
        4
 64
     7
 65
   257
 75
     1
175
     1
 42
1.0
 92
        8
 66
     7
 43
1.0
 76
     1
 77
     6
 78
     2
 67
     7
 79
     5
170
     0
171
     0
290
     0
174
     0
 93
        1
 44
-50.0
173
     0
291
     1
 45
0.0
1001
ACAD
1000
AcDbSavedByObjectVersion
1070
     0
  0
VISUALSTYLE
  5
A123
102
{ACAD_XDICTIONARY
360
A193
102
}
102
{ACAD_REACTORS
330
A10B
102
}
330
A10B
100
AcDbVisualStyle
  2
EdgeColorOff
 70
    22
 71
     2
 72
     2
 73
     0
 90
        0
 40
-0.6
 41
-30.0
 62
     5
 63
     7
 74
     1
 91
        4
 64
     7
 65
   257
 75
     1
175
     1
 42
1.0
 92
        8
 66
     7
 43
1.0
 76
     1
 77
     6
 78
     2
 67
     7
 79
     5
170
     0
171
     0
290
     0
174
     0
 93
        1
 44
0.0
173
     0
291
     1
 45
0.0
1001
ACAD
1000
AcDbSavedByObjectVersion
1070
     0
  0
VISUALSTYLE
  5
A11A
102
{ACAD_XDICTIONARY
360
A181
102
}
102
{ACAD_REACTORS
330
A10B
102
}
330
A10B
100
AcDbVisualStyle
  2
Facepattern
 70
    15
 71
     2
 72
     2
 73
     0
 90
        0
 40
-0.6
 41
-30.0
 62
     5
 63
     7
 74
     1
 91
        4
 64
     7
 65
   257
 75
     1
175
     1
 42
1.0
 92
        8
 66
     7
 43
1.0
 76
     1
 77
     6
 78
     2
 67
     7
 79
     5
170
     0
171
     0
290
     0
174
     0
 93
        1
 44
0.0
173
     0
291
     1
 45
0.0
1001
ACAD
1000
AcDbSavedByObjectVersion
1070
     0
  0
VISUALSTYLE
  5
A10C
102
{ACAD_XDICTIONARY
360
A165
102
}
102
{ACAD_REACTORS
330
A10B
102
}
330
A10B
100
AcDbVisualStyle
  2
Flat
 70
     0
 71
     2
 72
     1
 73
     1
 90
        2
 40
-0.6
 41
30.0
 62
     5
 63
     7
 74
     0
 91
        0
 64
     7
 65
   257
 75
     1
175
     1
 42
1.0
 92
        8
 66
     7
 43
1.0
 76
     1
 77
     6
 78
     2
 67
     7
 79
     5
170
     0
171
     0
290
     0
174
     0
 93
       13
 44
0.0
173
     0
291
     1
 45
0.0
1001
ACAD
1000
AcDbSavedByObjectVersion
1070
     0
  0
VISUALSTYLE
  5
A10D
102
{ACAD_XDICTIONARY
360
A167
102
}
102
{ACAD_REACTORS
330
A10B
102
}
330
A10B
100
AcDbVisualStyle
  2
FlatWithEdges
 70
     1
 71
     2
 72
     1
 73
     1
 90
        2
 40
-0.6
 41
30.0
 62
     5
 63
     7
 74
     1
 91
        0
 64
     7
 65
   257
 75
     1
175
     1
 42
1.0
 92
        0
 66
   257
 43
1.0
 76
     1
 77
     6
 78
     2
 67
     7
 79
     5
170
     0
171
     0
290
     0
174
     0
 93
       13
 44
0.0
173
     0
291
     1
 45
0.0
1001
ACAD
1000
AcDbSavedByObjectVersion
1070
     0
  0
VISUALSTYLE
  5
A10E
102
{ACAD_XDICTIONARY
360
A169
102
}
102
{ACAD_REACTORS
330
A10B
102
}
330
A10B
100
AcDbVisualStyle
  2
Gouraud
 70
     2
 71
     2
 72
     2
 73
     1
 90
        2
 40
-0.6
 41
30.0
 62
     5
 63
     7
 74
     0
 91
        0
 64
     7
 65
   257
 75
     1
175
     1
 42
1.0
 92
        0
 66
     7
 43
1.0
 76
     1
 77
     6
 78
     2
 67
     7
 79
     5
170
     0
171
     0
290
     0
174
     0
 93
       13
 44
0.0
173
     0
291
     1
 45
0.0
1001
ACAD
1000
AcDbSavedByObjectVersion
1070
     0
  0
VISUALSTYLE
  5
A10F
102
{ACAD_XDICTIONARY
360
A16B
102
}
102
{ACAD_REACTORS
330
A10B
102
}
330
A10B
100
AcDbVisualStyle
  2
GouraudWithEdges
 70
     3
 71
     2
 72
     2
 73
     1
 90
        2
 40
-0.6
 41
30.0
 62
     5
 63
     7
 74
     1
 91
        0
 64
     7
 65
   257
 75
     1
175
     1
 42
1.0
 92
        0
 66
   257
 43
1.0
 76
     1
 77
     6
 78
     2
 67
     7
 79
     5
170
     0
171
     0
290
     0
174
     0
 93
       13
 44
0.0
173
     0
291
     1
 45
0.0
1001
ACAD
1000
AcDbSavedByObjectVersion
1070
     0
  0
VISUALSTYLE
  5
A113
102
{ACAD_XDICTIONARY
360
A173
102
}
102
{ACAD_REACTORS
330
A10B
102
}
330
A10B
100
AcDbVisualStyle
  2
Hidden
 70
     6
 71
     1
 72
     2
 73
     2
 90
        0
 40
-0.6
 41
-30.0
 62
     5
 63
     7
 74
     2
 91
        2
 64
     7
 65
   257
 75
     2
175
     1
 42
40.0
 92
        0
 66
   257
 43
1.0
 76
     1
 77
     6
 78
     2
 67
     7
 79
     3
170
     0
171
     0
290
     0
174
     0
 93
        1
 44
0.0
173
     0
291
     0
 45
0.0
1001
ACAD
1000
AcDbSavedByObjectVersion
1070
     0
  0
VISUALSTYLE
  5
A121
102
{ACAD_XDICTIONARY
360
A18F
102
}
102
{ACAD_REACTORS
330
A10B
102
}
330
A10B
100
AcDbVisualStyle
  2
JitterOff
 70
    20
 71
     2
 72
     2
 73
     0
 90
        0
 40
-0.6
 41
-30.0
 62
     5
 63
     7
 74
     1
 91
        4
 64
     7
 65
   257
 75
     1
175
     1
 42
1.0
 92
       10
 66
     7
 43
1.0
 76
     1
 77
     6
 78
     2
 67
     7
 79
     5
170
     0
171
     0
290
     0
174
     0
 93
        1
 44
0.0
173
     0
291
     1
 45
0.0
1001
ACAD
1000
AcDbSavedByObjectVersion
1070
     0
  0
VISUALSTYLE
  5
A119
102
{ACAD_XDICTIONARY
360
A17F
102
}
102
{ACAD_REACTORS
330
A10B
102
}
330
A10B
100
AcDbVisualStyle
  2
Linepattern
 70
    14
 71
     2
 72
     2
 73
     0
 90
        0
 40
-0.6
 41
-30.0
 62
     5
 63
     7
 74
     1
 91
        4
 64
     7
 65
   257
 75
     7
175
     7
 42
1.0
 92
        8
 66
     7
 43
1.0
 76
     1
 77
     6
 78
     2
 67
     7
 79
     5
170
     0
171
     0
290
     0
174
     0
 93
        1
 44
0.0
173
     0
291
     1
 45
0.0
1001
ACAD
1000
AcDbSavedByObjectVersion
1070
     0
  0
VISUALSTYLE
  5
A122
102
{ACAD_XDICTIONARY
360
A191
102
}
102
{ACAD_REACTORS
330
A10B
102
}
330
A10B
100
AcDbVisualStyle
  2
OverhangOff
 70
    21
 71
     2
 72
     2
 73
     0
 90
        0
 40
-0.6
 41
-30.0
 62
     5
 63
     7
 74
     1
 91
        4
 64
     7
 65
   257
 75
     1
175
     1
 42
1.0
 92
        9
 66
     7
 43
1.0
 76
     1
 77
     6
 78
     2
 67
     7
 79
     5
170
     0
171
     0
290
     0
174
     0
 93
        1
 44
0.0
173
     0
291
     1
 45
0.0
1001
ACAD
1000
AcDbSavedByObjectVersion
1070
     0
  0
VISUALSTYLE
  5
A115
102
{ACAD_XDICTIONARY
360
A177
102
}
102
{ACAD_REACTORS
330
A10B
102
}
330
A10B
100
AcDbVisualStyle
  2
Realistic
 70
     8
 71
     2
 72
     3
 73
     0
 90
        2
 40
-0.6
 41
30.0
 62
     5
 63
     7
 74
     0
 91
        0
 64
     7
 65
   257
 75
     1
175
     1
 42
1.0
 92
        8
 66
   257
 43
1.0
 76
     1
 77
     6
 78
     2
 67
     7
 79
     3
170
     0
171
     0
290
     0
174
     0
 93
       13
 44
0.0
173
     0
291
     0
 45
0.0
1001
ACAD
1000
AcDbSavedByObjectVersion
1070
     0
  0
VISUALSTYLE
  5
A120
102
{ACAD_XDICTIONARY
360
A18D
102
}
102
{ACAD_REACTORS
330
A10B
102
}
330
A10B
100
AcDbVisualStyle
  2
Shaded
 70
    27
 71
     2
 72
     2
 73
     1
 90
        2
 40
-0.6
 41
30.0
 62
     5
 63
     7
 74
     0
 91
        4
 64
     7
 65
   257
 75
     1
175
     1
 42
1.0
 92
        8
 66
   257
 43
1.0
 76
     1
 77
     6
 78
     2
 67
     8
 79
     3
170
     0
171
     0
290
     0
174
     0
 93
        5
 44
0.0
173
     0
291
     0
 45
0.0
1001
ACAD
1000
AcDbSavedByObjectVersion
1070
     0
  0
VISUALSTYLE
  5
A11F
102
{ACAD_XDICTIONARY
360
A18B
102
}
102
{ACAD_REACTORS
330
A10B
102
}
330
A10B
100
AcDbVisualStyle
  2
Shaded with edges
 70
    26
 71
     2
 72
     2
 73
     1
 90
        2
 40
-0.6
 41
30.0
 62
     5
 63
     7
 74
     1
 91
       10
 64
     7
 65
   257
 75
     2
175
     1
 42
1.0
 92
        8
 66
   257
 43
1.0
 76
     1
 77
     6
 78
     2
 67
     7
 79
     3
170
     0
171
     0
290
     0
174
     0
 93
        5
 44
0.0
173
     0
291
     0
 45
0.0
1001
ACAD
1000
AcDbSavedByObjectVersion
1070
     0
  0
VISUALSTYLE
  5
A11C
102
{ACAD_XDICTIONARY
360
A185
102
}
102
{ACAD_REACTORS
330
A10B
102
}
330
A10B
100
AcDbVisualStyle
  2
Shades of Gray
 70
    23
 71
     2
 72
     2
 73
     3
 90
        0
 40
-0.6
 41
-30.0
 62
     5
 63
     7
 74
     2
 91
        2
 64
     7
 65
     7
 75
     1
175
     1
 42
40.0
 92
        8
 66
     7
 43
1.0
 76
     1
 77
     6
 78
     2
 67
     7
 79
     3
170
     0
171
     0
290
     0
174
     0
 93
        1
 44
0.0
173
     0
291
     0
 45
0.0
1001
ACAD
1000
AcDbSavedByObjectVersion
1070
     0
  0
VISUALSTYLE
  5
A11D
102
{ACAD_XDICTIONARY
360
A187
102
}
102
{ACAD_REACTORS
330
A10B
102
}
330
A10B
100
AcDbVisualStyle
  2
Sketchy
 70
    24
 71
     1
 72
     2
 73
     2
 90
        0
 40
-0.6
 41
-30.0
 62
     5
 63
     7
 74
     2
 91
        2
 64
     7
 65
     7
 75
     1
175
     1
 42
40.0
 92
       11
 66
     7
 43
1.0
 76
     1
 77
     6
 78
     2
 67
     7
 79
     6
170
     0
171
     0
290
     0
174
     0
 93
        1
 44
0.0
173
     0
291
     0
 45
0.0
1001
ACAD
1000
AcDbSavedByObjectVersion
1070
     0
  0
VISUALSTYLE
  5
A118
102
{ACAD_XDICTIONARY
360
A17D
102
}
102
{ACAD_REACTORS
330
A10B
102
}
330
A10B
100
AcDbVisualStyle
  2
Thicken
 70
    13
 71
     2
 72
     2
 73
     0
 90
        0
 40
-0.6
 41
-30.0
 62
     5
 63
     7
 74
     1
 91
        4
 64
     7
 65
   257
 75
     1
175
     1
 42
1.0
 92
       12
 66
     7
 43
1.0
 76
     1
 77
     6
 78
     2
 67
     7
 79
     5
170
     0
171
     0
290
     0
174
     0
 93
        1
 44
0.0
173
     0
291
     1
 45
0.0
1001
ACAD
1000
AcDbSavedByObjectVersion
1070
     0
  0
VISUALSTYLE
  5
A112
102
{ACAD_XDICTIONARY
360
A171
102
}
102
{ACAD_REACTORS
330
A10B
102
}
330
A10B
100
AcDbVisualStyle
  2
Wireframe
 70
     5
 71
     0
 72
     2
 73
     0
 90
        0
 40
-0.6
 41
-30.0
 62
     5
 63
     7
 74
     1
 91
        4
 64
     7
 65
   257
 75
     1
175
     1
 42
1.0
 92
        0
 66
   257
 43
1.0
 76
     1
 77
     6
 78
     2
 67
     7
 79
     3
170
     0
171
     0
290
     0
174
     0
 93
        1
 44
0.0
173
     0
291
     0
 45
0.0
1001
ACAD
1000
AcDbSavedByObjectVersion
1070
     0
  0
VISUALSTYLE
  5
A11E
102
{ACAD_XDICTIONARY
360
A189
102
}
102
{ACAD_REACTORS
330
A10B
102
}
330
A10B
100
AcDbVisualStyle
  2
X-Ray
 70
    25
 71
     2
 72
     2
 73
     1
 90
        1
 40
0.5
 41
-30.0
 62
     5
 63
     7
 74
     1
 91
        0
 64
     7
 65
   257
 75
     1
175
     1
 42
1.0
 92
        8
 66
     7
 43
1.0
 76
     1
 77
     6
 78
     2
 67
     7
 79
     3
170
     0
171
     0
290
     0
174
     0
 93
       13
 44
0.0
173
     0
291
     0
 45
0.0
1001
ACAD
1000
AcDbSavedByObjectVersion
1070
     0
  0
DICTIONARYVAR
  5
A158
102
{ACAD_REACTORS
330
A153
102
}
330
A153
100
DictionaryVariables
280
     0
  1
1:1
  0
DICTIONARYVAR
  5
A155
102
{ACAD_REACTORS
330
A153
102
}
330
A153
100
DictionaryVariables
280
     0
  1
STANDARD
  0
DICTIONARYVAR
  5
A154
102
{ACAD_REACTORS
330
A153
102
}
330
A153
100
DictionaryVariables
280
     0
  1
STANDARD
  0
DICTIONARYVAR
  5
A156
102
{ACAD_REACTORS
330
A153
102
}
330
A153
100
DictionaryVariables
280
     0
  1
Imperial24
  0
DICTIONARYVAR
  5
A157
102
{ACAD_REACTORS
330
A153
102
}
330
A153
100
DictionaryVariables
280
     0
  1
Imperial24
  0
DICTIONARYVAR
  5
A15B
102
{ACAD_REACTORS
330
A153
102
}
330
A153
100
DictionaryVariables
280
     0
  1
1
  0
DICTIONARYVAR
  5
A15A
102
{ACAD_REACTORS
330
A153
102
}
330
A153
100
DictionaryVariables
280
     0
  1
0
  0
DICTIONARYVAR
  5
A159
102
{ACAD_REACTORS
330
A153
102
}
330
A153
100
DictionaryVariables
280
     0
  1
127
  0
DICTIONARYVAR
  5
A15C
102
{ACAD_REACTORS
330
A153
102
}
330
A153
100
DictionaryVariables
280
     0
  1
2
  0
DICTIONARY
  5
A199
330
A13E
100
AcDbDictionary
280
     1
281
     1
  3
ACAD_XREC_ROUNDTRIP
360
A19A
  0
DICTIONARY
  5
A19B
330
A13F
100
AcDbDictionary
280
     1
281
     1
  3
ACAD_XREC_ROUNDTRIP
360
A19C
  0
DICTIONARY
  5
A19D
330
A140
100
AcDbDictionary
280
     1
281
     1
  3
ACAD_XREC_ROUNDTRIP
360
A19E
  0
DICTIONARY
  5
A0FC
330
A0FB
100
AcDbDictionary
280
     1
281
     1
  3
ACAD_XREC_ROUNDTRIP
360
A163
  3
BUMPTILE
360
A0FE
  3
DIFFUSETILE
360
A0FD
  3
OPACITYTILE
360
A101
  3
REFLECTIONTILE
360
A100
  3
REFRACTIONTILE
360
A102
  3
SPECULARTILE
360
A0FF
  0
DICTIONARY
  5
A0F4
330
A0F3
100
AcDbDictionary
280
     1
281
     1
  3
ACAD_XREC_ROUNDTRIP
360
A162
  3
BUMPTILE
360
A0F6
  3
DIFFUSETILE
360
A0F5
  3
OPACITYTILE
360
A0F9
  3
REFLECTIONTILE
360
A0F8
  3
REFRACTIONTILE
360
A0FA
  3
SPECULARTILE
360
A0F7
  0
DICTIONARY
  5
A104
330
A103
100
AcDbDictionary
280
     1
281
     1
  3
ACAD_XREC_ROUNDTRIP
360
A164
  3
BUMPTILE
360
A106
  3
DIFFUSETILE
360
A105
  3
OPACITYTILE
360
A109
  3
REFLECTIONTILE
360
A108
  3
REFRACTIONTILE
360
A10A
  3
SPECULARTILE
360
A107
  0
DICTIONARY
  5
A197
330
A13C
100
AcDbDictionary
280
     1
281
     1
  3
ACAD_XREC_ROUNDTRIP
360
A198
  0
DICTIONARY
  5
A15E
330
A126
100
AcDbDictionary
280
     1
281
     1
  3
ACAD_ROUNDTRIP_2008_TABLESTYLE_CELLSTYLEMAP
360
A15F
  3
ACAD_XREC_ROUNDTRIP
360
A195
  0
DICTIONARY
  5
A16F
330
A111
100
AcDbDictionary
280
     1
281
     1
  3
ACAD_XREC_ROUNDTRIP
360
A170
  0
DICTIONARY
  5
A16D
330
A110
100
AcDbDictionary
280
     1
281
     1
  3
ACAD_XREC_ROUNDTRIP
360
A16E
  0
DICTIONARY
  5
A17B
330
A117
100
AcDbDictionary
280
     1
281
     1
  3
ACAD_XREC_ROUNDTRIP
360
A17C
  0
DICTIONARY
  5
A183
330
A11B
100
AcDbDictionary
280
     1
281
     1
  3
ACAD_XREC_ROUNDTRIP
360
A184
  0
DICTIONARY
  5
A175
330
A114
100
AcDbDictionary
280
     1
281
     1
  3
ACAD_XREC_ROUNDTRIP
360
A176
  0
DICTIONARY
  5
A179
330
A116
100
AcDbDictionary
280
     1
281
     1
  3
ACAD_XREC_ROUNDTRIP
360
A17A
  0
DICTIONARY
  5
A193
330
A123
100
AcDbDictionary
280
     1
281
     1
  3
ACAD_XREC_ROUNDTRIP
360
A194
  0
DICTIONARY
  5
A181
330
A11A
100
AcDbDictionary
280
     1
281
     1
  3
ACAD_XREC_ROUNDTRIP
360
A182
  0
DICTIONARY
  5
A165
330
A10C
100
AcDbDictionary
280
     1
281
     1
  3
ACAD_XREC_ROUNDTRIP
360
A166
  0
DICTIONARY
  5
A167
330
A10D
100
AcDbDictionary
280
     1
281
     1
  3
ACAD_XREC_ROUNDTRIP
360
A168
  0
DICTIONARY
  5
A169
330
A10E
100
AcDbDictionary
280
     1
281
     1
  3
ACAD_XREC_ROUNDTRIP
360
A16A
  0
DICTIONARY
  5
A16B
330
A10F
100
AcDbDictionary
280
     1
281
     1
  3
ACAD_XREC_ROUNDTRIP
360
A16C
  0
DICTIONARY
  5
A173
330
A113
100
AcDbDictionary
280
     1
281
     1
  3
ACAD_XREC_ROUNDTRIP
360
A174
  0
DICTIONARY
  5
A18F
330
A121
100
AcDbDictionary
280
     1
281
     1
  3
ACAD_XREC_ROUNDTRIP
360
A190
  0
DICTIONARY
  5
A17F
330
A119
100
AcDbDictionary
280
     1
281
     1
  3
ACAD_XREC_ROUNDTRIP
360
A180
  0
DICTIONARY
  5
A191
330
A122
100
AcDbDictionary
280
     1
281
     1
  3
ACAD_XREC_ROUNDTRIP
360
A192
  0
DICTIONARY
  5
A177
330
A115
100
AcDbDictionary
280
     1
281
     1
  3
ACAD_XREC_ROUNDTRIP
360
A178
  0
DICTIONARY
  5
A18D
330
A120
100
AcDbDictionary
280
     1
281
     1
  3
ACAD_XREC_ROUNDTRIP
360
A18E
  0
DICTIONARY
  5
A18B
330
A11F
100
AcDbDictionary
280
     1
281
     1
  3
ACAD_XREC_ROUNDTRIP
360
A18C
  0
DICTIONARY
  5
A185
330
A11C
100
AcDbDictionary
280
     1
281
     1
  3
ACAD_XREC_ROUNDTRIP
360
A186
  0
DICTIONARY
  5
A187
330
A11D
100
AcDbDictionary
280
     1
281
     1
  3
ACAD_XREC_ROUNDTRIP
360
A188
  0
DICTIONARY
  5
A17D
330
A118
100
AcDbDictionary
280
     1
281
     1
  3
ACAD_XREC_ROUNDTRIP
360
A17E
  0
DICTIONARY
  5
A171
330
A112
100
AcDbDictionary
280
     1
281
     1
  3
ACAD_XREC_ROUNDTRIP
360
A172
  0
DICTIONARY
  5
A189
330
A11E
100
AcDbDictionary
280
     1
281
     1
  3
ACAD_XREC_ROUNDTRIP
360
A18A
  0
XRECORD
  5
A19A
102
{ACAD_REACTORS
330
A199
102
}
330
A199
100
AcDbXrecord
280
     1
102
DISPLAYNAME
  1
Imperial24
102
FLAGS
 90
        0
  0
XRECORD
  5
A19C
102
{ACAD_REACTORS
330
A19B
102
}
330
A19B
100
AcDbXrecord
280
     1
102
SHADEPLOT
 70
     0
102
SHADEPLOTRESLEVEL
 70
     2
102
SHADEPLOTCUSTOMDPI
 70
   300
  0
XRECORD
  5
A19E
102
{ACAD_REACTORS
330
A19D
102
}
330
A19D
100
AcDbXrecord
280
     1
102
SHADEPLOT
 70
     0
102
SHADEPLOTRESLEVEL
 70
     2
102
SHADEPLOTCUSTOMDPI
 70
   300
  0
XRECORD
  5
A163
102
{ACAD_REACTORS
330
A0FC
102
}
330
A0FC
100
AcDbXrecord
280
     1
102
MATERIAL
148
0.0
149
0.0
149
0.0
 93
        0
 94
      127
282
     0
 72
     0
 77
     0
171
     0
175
     0
179
     0
273
     0
  0
XRECORD
  5
A0FE
102
{ACAD_REACTORS
330
A0FC
102
}
330
A0FC
100
AcDbXrecord
280
     1
270
     1
271
     1
  0
XRECORD
  5
A0FD
102
{ACAD_REACTORS
330
A0FC
102
}
330
A0FC
100
AcDbXrecord
280
     1
270
     1
271
     1
  0
XRECORD
  5
A101
102
{ACAD_REACTORS
330
A0FC
102
}
330
A0FC
100
AcDbXrecord
280
     1
270
     1
271
     1
  0
XRECORD
  5
A100
102
{ACAD_REACTORS
330
A0FC
102
}
330
A0FC
100
AcDbXrecord
280
     1
270
     1
271
     1
  0
XRECORD
  5
A102
102
{ACAD_REACTORS
330
A0FC
102
}
330
A0FC
100
AcDbXrecord
280
     1
270
     1
271
     1
  0
XRECORD
  5
A0FF
102
{ACAD_REACTORS
330
A0FC
102
}
330
A0FC
100
AcDbXrecord
280
     1
270
     1
271
     1
  0
XRECORD
  5
A162
102
{ACAD_REACTORS
330
A0F4
102
}
330
A0F4
100
AcDbXrecord
280
     1
102
MATERIAL
148
0.0
149
0.0
149
0.0
 93
        0
 94
      127
282
     0
 72
     0
 77
     0
171
     0
175
     0
179
     0
273
     0
  0
XRECORD
  5
A0F6
102
{ACAD_REACTORS
330
A0F4
102
}
330
A0F4
100
AcDbXrecord
280
     1
270
     1
271
     1
  0
XRECORD
  5
A0F5
102
{ACAD_REACTORS
330
A0F4
102
}
330
A0F4
100
AcDbXrecord
280
     1
270
     1
271
     1
  0
XRECORD
  5
A0F9
102
{ACAD_REACTORS
330
A0F4
102
}
330
A0F4
100
AcDbXrecord
280
     1
270
     1
271
     1
  0
XRECORD
  5
A0F8
102
{ACAD_REACTORS
330
A0F4
102
}
330
A0F4
100
AcDbXrecord
280
     1
270
     1
271
     1
  0
XRECORD
  5
A0FA
102
{ACAD_REACTORS
330
A0F4
102
}
330
A0F4
100
AcDbXrecord
280
     1
270
     1
271
     1
  0
XRECORD
  5
A0F7
102
{ACAD_REACTORS
330
A0F4
102
}
330
A0F4
100
AcDbXrecord
280
     1
270
     1
271
     1
  0
XRECORD
  5
A164
102
{ACAD_REACTORS
330
A104
102
}
330
A104
100
AcDbXrecord
280
     1
102
MATERIAL
148
0.0
149
0.0
149
0.0
 93
        0
 94
      127
282
     0
 72
     0
 77
     0
171
     0
175
     0
179
     0
273
     0
  0
XRECORD
  5
A106
102
{ACAD_REACTORS
330
A104
102
}
330
A104
100
AcDbXrecord
280
     1
270
     1
271
     1
  0
XRECORD
  5
A105
102
{ACAD_REACTORS
330
A104
102
}
330
A104
100
AcDbXrecord
280
     1
270
     1
271
     1
  0
XRECORD
  5
A109
102
{ACAD_REACTORS
330
A104
102
}
330
A104
100
AcDbXrecord
280
     1
270
     1
271
     1
  0
XRECORD
  5
A108
102
{ACAD_REACTORS
330
A104
102
}
330
A104
100
AcDbXrecord
280
     1
270
     1
271
     1
  0
XRECORD
  5
A10A
102
{ACAD_REACTORS
330
A104
102
}
330
A104
100
AcDbXrecord
280
     1
270
     1
271
     1
  0
XRECORD
  5
A107
102
{ACAD_REACTORS
330
A104
102
}
330
A104
100
AcDbXrecord
280
     1
270
     1
271
     1
  0
XRECORD
  5
A198
102
{ACAD_REACTORS
330
A197
102
}
330
A197
100
AcDbXrecord
280
     1
102
DISPLAYNAME
  1
Imperial24
102
FLAGS
 90
        0
  0
CELLSTYLEMAP
  5
A15F
102
{ACAD_REACTORS
330
A15E
102
}
330
A15E
100
AcDbCellStyleMap
 90
        3
300
CELLSTYLE
  1
TABLEFORMAT_BEGIN
 90
        5
170
     1
 91
        0
 92
    32768
 62
   257
 93
        1
300
CONTENTFORMAT
  1
CONTENTFORMAT_BEGIN
 90
        0
 91
        0
 92
      512
 93
        0
300

 40
0.0
140
1.0
 94
        5
 62
     0
340
9D38
144
0.25
309
CONTENTFORMAT_END
171
     0
 94
        0
309
TABLEFORMAT_END
  1
CELLSTYLE_BEGIN
 90
        1
 91
        1
300
_TITLE
309
CELLSTYLE_END
300
CELLSTYLE
  1
TABLEFORMAT_BEGIN
 90
        5
170
     1
 91
        0
 92
        0
 62
   257
 93
        1
300
CONTENTFORMAT
  1
CONTENTFORMAT_BEGIN
 90
        0
 91
        0
 92
      512
 93
        0
300

 40
0.0
140
1.0
 94
        5
 62
     0
340
9D38
144
0.18
309
CONTENTFORMAT_END
171
     0
 94
        0
309
TABLEFORMAT_END
  1
CELLSTYLE_BEGIN
 90
        2
 91
        1
300
_HEADER
309
CELLSTYLE_END
300
CELLSTYLE
  1
TABLEFORMAT_BEGIN
 90
        5
170
     1
 91
        0
 92
        0
 62
   257
 93
        1
300
CONTENTFORMAT
  1
CONTENTFORMAT_BEGIN
 90
        0
 91
        0
 92
      512
 93
        0
300

 40
0.0
140
1.0
 94
        2
 62
     0
340
9D38
144
0.18
309
CONTENTFORMAT_END
171
     0
 94
        0
309
TABLEFORMAT_END
  1
CELLSTYLE_BEGIN
 90
        3
 91
        2
300
_DATA
309
CELLSTYLE_END
  0
XRECORD
  5
A195
102
{ACAD_REACTORS
330
A15E
102
}
330
A15E
100
AcDbXrecord
280
     1
102
ACAD_ROUNDTRIP_PRE2007_TABLESTYLE
 90
      512
 91
        0
  1

 92
      512
 93
        0
  2

 94
      512
 95
        0
  3

  0
XRECORD
  5
A170
102
{ACAD_REACTORS
330
A16F
102
}
330
A16F
100
AcDbXrecord
280
     1
102
RTVSPost2010Prop28
280
     1
102
RTVSPost2010PropOp28
 70
     1
102
RTVSPost2010Prop29
280
     1
102
RTVSPost2010PropOp29
 70
     1
102
RTVSPost2010Prop30
280
     0
102
RTVSPost2010PropOp30
 70
     1
102
RTVSPost2010Prop31
280
     0
102
RTVSPost2010PropOp31
 70
     1
102
RTVSPost2010Prop32
280
     0
102
RTVSPost2010PropOp32
 70
     1
102
RTVSPost2010Prop33
280
     0
102
RTVSPost2010PropOp33
 70
     1
102
RTVSPost2010Prop34
280
     0
102
RTVSPost2010PropOp34
 70
     1
102
RTVSPost2010Prop35
280
     0
102
RTVSPost2010PropOp35
 70
     1
102
RTVSPost2010Prop36
280
     0
102
RTVSPost2010PropOp36
 70
     1
102
RTVSPost2010Prop37
 90
       50
102
RTVSPost2010PropOp37
 70
     1
102
RTVSPost2010Prop38
140
0.0
102
RTVSPost2010PropOp38
 70
     1
102
RTVSPost2010Prop39
140
1.0
102
RTVSPost2010PropOp39
 70
     1
102
RTVSPost2010Prop40
 90
        0
102
RTVSPost2010PropOp40
 70
     1
102
RTVSPost2010Prop41ColorIndex
 90
       18
102
RTVSPost2010Prop41ColorRGB
 90
        0
102
RTVSPost2010PropOp41
 70
     1
102
RTVSPost2010Prop42
 90
       50
102
RTVSPost2010PropOp42
 70
     1
102
RTVSPost2010Prop43
 90
        3
102
RTVSPost2010PropOp43
 70
     1
102
RTVSPost2010Prop44ColorIndex
 90
        5
102
RTVSPost2010Prop44ColorRGB
 90
      255
102
RTVSPost2010PropOp44
 70
     1
102
RTVSPost2010Prop45
280
     0
102
RTVSPost2010PropOp45
 70
     1
102
RTVSPost2010Prop46
 90
       50
102
RTVSPost2010PropOp46
 70
     1
102
RTVSPost2010Prop47
 90
       50
102
RTVSPost2010PropOp47
 70
     1
102
RTVSPost2010Prop48
 90
       50
102
RTVSPost2010PropOp48
 70
     1
102
RTVSPost2010Prop49
280
     0
102
RTVSPost2010PropOp49
 70
     1
102
RTVSPost2010Prop50
 90
       50
102
RTVSPost2010PropOp50
 70
     1
102
RTVSPost2010Prop51ColorIndex
 90
      256
102
RTVSPost2010Prop51ColorRGB
 90
-16777216
102
RTVSPost2010PropOp51
 70
     0
102
RTVSPost2010Prop52
140
1.0
102
RTVSPost2010PropOp52
 70
     0
102
RTVSPost2010Prop53
 90
        2
102
RTVSPost2010PropOp53
 70
     1
102
RTVSPost2010Prop54
  1
strokes_ogs.tif
102
RTVSPost2010PropOp54
 70
     1
102
RTVSPost2010Prop55
280
     0
102
RTVSPost2010PropOp55
 70
     1
102
RTVSPost2010Prop56
140
1.0
102
RTVSPost2010PropOp56
 70
     1
102
RTVSPost2010Prop57
140
1.0
102
RTVSPost2010PropOp57
 70
     1
102
RTVSPropertyOp0
 70
     1
102
RTVSPropertyOp1
 70
     1
102
RTVSPropertyOp2
 70
     1
102
RTVSPropertyOp3
 70
     1
102
RTVSPropertyOp4
 70
     1
102
RTVSPropertyOp5
 70
     1
102
RTVSPropertyOp6
 70
     1
102
RTVSPropertyOp7
 70
     1
102
RTVSPropertyOp8
 70
     1
102
RTVSPropertyOp9
 70
     1
102
RTVSPropertyOp10
 70
     1
102
RTVSPropertyOp11
 70
     1
102
RTVSPropertyOp12
 70
     1
102
RTVSPropertyOp13
 70
     1
102
RTVSPropertyOp14
 70
     1
102
RTVSPropertyOp15
 70
     1
102
RTVSPropertyOp16
 70
     1
102
RTVSPropertyOp17
 70
     1
102
RTVSPropertyOp18
 70
     1
102
RTVSPropertyOp19
 70
     1
102
RTVSPropertyOp20
 70
     1
102
RTVSPropertyOp21
 70
     1
102
RTVSPropertyOp22
 70
     1
102
RTVSPropertyOp23
 70
     1
102
RTVSPropertyOp24
 70
     1
102
RTVSPropertyOp25
 70
     1
102
RTVSPropertyOp26
 70
     1
102
RTVSPropertyOp27
 70
     1
102
RTVSPropertyOp28
 70
     1
102
RTVSPropertyOp29
 70
     1
102
RTVSPropertyOp30
 70
     1
102
RTVSPropertyOp31
 70
     1
102
RTVSPropertyOp32
 70
     1
102
RTVSPropertyOp33
 70
     1
102
RTVSPropertyOp34
 70
     1
102
RTVSPropertyOp35
 70
     1
102
RTVSPropertyOp36
 70
     1
102
RTVSPropertyOp37
 70
     1
102
RTVSPropertyOp38
 70
     1
102
RTVSPropertyOp39
 70
     1
102
RTVSPropertyOp40
 70
     1
102
RTVSPropertyOp41
 70
     1
102
RTVSPropertyOp42
 70
     1
102
RTVSPropertyOp43
 70
     1
102
RTVSPropertyOp44
 70
     1
102
RTVSPropertyOp45
 70
     1
102
RTVSPropertyOp46
 70
     1
102
RTVSPropertyOp47
 70
     1
102
RTVSPropertyOp48
 70
     1
102
RTVSPropertyOp49
 70
     1
102
RTVSPropertyOp50
 70
     1
102
RTVSPropertyOp51
 70
     0
102
RTVSPropertyOp52
 70
     0
102
RTVSPropertyOp53
 70
     1
102
RTVSPropertyOp54
 70
     1
102
RTVSPropertyOp55
 70
     1
102
RTVSPropertyOp56
 70
     1
102
RTVSPropertyOp57
 70
     1
102
RTVSPropertyOp58
 70
     1
102
RTVSPropertyOp59
 70
     1
102
RTVSPropertyOp60
 70
     1
102
RTVSPropertyOp61
 70
     1
102
RTVSPropertyOp62
 70
     1
  0
XRECORD
  5
A16E
102
{ACAD_REACTORS
330
A16D
102
}
330
A16D
100
AcDbXrecord
280
     1
102
RTVSPost2010Prop28
280
     0
102
RTVSPost2010PropOp28
 70
     1
102
RTVSPost2010Prop29
280
     1
102
RTVSPost2010PropOp29
 70
     1
102
RTVSPost2010Prop30
280
     1
102
RTVSPost2010PropOp30
 70
     1
102
RTVSPost2010Prop31
280
     0
102
RTVSPost2010PropOp31
 70
     1
102
RTVSPost2010Prop32
280
     0
102
RTVSPost2010PropOp32
 70
     1
102
RTVSPost2010Prop33
280
     0
102
RTVSPost2010PropOp33
 70
     1
102
RTVSPost2010Prop34
280
     0
102
RTVSPost2010PropOp34
 70
     1
102
RTVSPost2010Prop35
280
     0
102
RTVSPost2010PropOp35
 70
     1
102
RTVSPost2010Prop36
280
     0
102
RTVSPost2010PropOp36
 70
     1
102
RTVSPost2010Prop37
 90
       50
102
RTVSPost2010PropOp37
 70
     1
102
RTVSPost2010Prop38
140
0.0
102
RTVSPost2010PropOp38
 70
     1
102
RTVSPost2010Prop39
140
1.0
102
RTVSPost2010PropOp39
 70
     1
102
RTVSPost2010Prop40
 90
        0
102
RTVSPost2010PropOp40
 70
     1
102
RTVSPost2010Prop41ColorIndex
 90
       18
102
RTVSPost2010Prop41ColorRGB
 90
        0
102
RTVSPost2010PropOp41
 70
     1
102
RTVSPost2010Prop42
 90
       50
102
RTVSPost2010PropOp42
 70
     1
102
RTVSPost2010Prop43
 90
        3
102
RTVSPost2010PropOp43
 70
     1
102
RTVSPost2010Prop44ColorIndex
 90
        5
102
RTVSPost2010Prop44ColorRGB
 90
      255
102
RTVSPost2010PropOp44
 70
     1
102
RTVSPost2010Prop45
280
     0
102
RTVSPost2010PropOp45
 70
     1
102
RTVSPost2010Prop46
 90
       50
102
RTVSPost2010PropOp46
 70
     1
102
RTVSPost2010Prop47
 90
       50
102
RTVSPost2010PropOp47
 70
     1
102
RTVSPost2010Prop48
 90
       50
102
RTVSPost2010PropOp48
 70
     1
102
RTVSPost2010Prop49
280
     0
102
RTVSPost2010PropOp49
 70
     1
102
RTVSPost2010Prop50
 90
       50
102
RTVSPost2010PropOp50
 70
     1
102
RTVSPost2010Prop51ColorIndex
 90
      256
102
RTVSPost2010Prop51ColorRGB
 90
-16777216
102
RTVSPost2010PropOp51
 70
     0
102
RTVSPost2010Prop52
140
1.0
102
RTVSPost2010PropOp52
 70
     0
102
RTVSPost2010Prop53
 90
        2
102
RTVSPost2010PropOp53
 70
     1
102
RTVSPost2010Prop54
  1
strokes_ogs.tif
102
RTVSPost2010PropOp54
 70
     1
102
RTVSPost2010Prop55
280
     0
102
RTVSPost2010PropOp55
 70
     1
102
RTVSPost2010Prop56
140
1.0
102
RTVSPost2010PropOp56
 70
     1
102
RTVSPost2010Prop57
140
1.0
102
RTVSPost2010PropOp57
 70
     1
102
RTVSPropertyOp0
 70
     1
102
RTVSPropertyOp1
 70
     1
102
RTVSPropertyOp2
 70
     1
102
RTVSPropertyOp3
 70
     1
102
RTVSPropertyOp4
 70
     1
102
RTVSPropertyOp5
 70
     1
102
RTVSPropertyOp6
 70
     1
102
RTVSPropertyOp7
 70
     1
102
RTVSPropertyOp8
 70
     1
102
RTVSPropertyOp9
 70
     1
102
RTVSPropertyOp10
 70
     1
102
RTVSPropertyOp11
 70
     1
102
RTVSPropertyOp12
 70
     1
102
RTVSPropertyOp13
 70
     1
102
RTVSPropertyOp14
 70
     1
102
RTVSPropertyOp15
 70
     1
102
RTVSPropertyOp16
 70
     1
102
RTVSPropertyOp17
 70
     1
102
RTVSPropertyOp18
 70
     1
102
RTVSPropertyOp19
 70
     1
102
RTVSPropertyOp20
 70
     1
102
RTVSPropertyOp21
 70
     1
102
RTVSPropertyOp22
 70
     1
102
RTVSPropertyOp23
 70
     1
102
RTVSPropertyOp24
 70
     1
102
RTVSPropertyOp25
 70
     1
102
RTVSPropertyOp26
 70
     1
102
RTVSPropertyOp27
 70
     1
102
RTVSPropertyOp28
 70
     1
102
RTVSPropertyOp29
 70
     1
102
RTVSPropertyOp30
 70
     1
102
RTVSPropertyOp31
 70
     1
102
RTVSPropertyOp32
 70
     1
102
RTVSPropertyOp33
 70
     1
102
RTVSPropertyOp34
 70
     1
102
RTVSPropertyOp35
 70
     1
102
RTVSPropertyOp36
 70
     1
102
RTVSPropertyOp37
 70
     1
102
RTVSPropertyOp38
 70
     1
102
RTVSPropertyOp39
 70
     1
102
RTVSPropertyOp40
 70
     1
102
RTVSPropertyOp41
 70
     1
102
RTVSPropertyOp42
 70
     1
102
RTVSPropertyOp43
 70
     1
102
RTVSPropertyOp44
 70
     1
102
RTVSPropertyOp45
 70
     1
102
RTVSPropertyOp46
 70
     1
102
RTVSPropertyOp47
 70
     1
102
RTVSPropertyOp48
 70
     1
102
RTVSPropertyOp49
 70
     1
102
RTVSPropertyOp50
 70
     1
102
RTVSPropertyOp51
 70
     0
102
RTVSPropertyOp52
 70
     0
102
RTVSPropertyOp53
 70
     1
102
RTVSPropertyOp54
 70
     1
102
RTVSPropertyOp55
 70
     1
102
RTVSPropertyOp56
 70
     1
102
RTVSPropertyOp57
 70
     1
102
RTVSPropertyOp58
 70
     1
102
RTVSPropertyOp59
 70
     1
102
RTVSPropertyOp60
 70
     1
102
RTVSPropertyOp61
 70
     1
102
RTVSPropertyOp62
 70
     1
  0
XRECORD
  5
A17C
102
{ACAD_REACTORS
330
A17B
102
}
330
A17B
100
AcDbXrecord
280
     1
102
RTVSPost2010Prop28
280
     0
102
RTVSPost2010PropOp28
 70
     1
102
RTVSPost2010Prop29
280
     1
102
RTVSPost2010PropOp29
 70
     1
102
RTVSPost2010Prop30
280
     1
102
RTVSPost2010PropOp30
 70
     1
102
RTVSPost2010Prop31
280
     0
102
RTVSPost2010PropOp31
 70
     1
102
RTVSPost2010Prop32
280
     0
102
RTVSPost2010PropOp32
 70
     1
102
RTVSPost2010Prop33
280
     0
102
RTVSPost2010PropOp33
 70
     1
102
RTVSPost2010Prop34
280
     0
102
RTVSPost2010PropOp34
 70
     1
102
RTVSPost2010Prop35
280
     0
102
RTVSPost2010PropOp35
 70
     1
102
RTVSPost2010Prop36
280
     0
102
RTVSPost2010PropOp36
 70
     1
102
RTVSPost2010Prop37
 90
       50
102
RTVSPost2010PropOp37
 70
     1
102
RTVSPost2010Prop38
140
0.0
102
RTVSPost2010PropOp38
 70
     1
102
RTVSPost2010Prop39
140
1.0
102
RTVSPost2010PropOp39
 70
     1
102
RTVSPost2010Prop40
 90
        0
102
RTVSPost2010PropOp40
 70
     1
102
RTVSPost2010Prop41ColorIndex
 90
       18
102
RTVSPost2010Prop41ColorRGB
 90
        0
102
RTVSPost2010PropOp41
 70
     1
102
RTVSPost2010Prop42
 90
       50
102
RTVSPost2010PropOp42
 70
     1
102
RTVSPost2010Prop43
 90
        3
102
RTVSPost2010PropOp43
 70
     1
102
RTVSPost2010Prop44ColorIndex
 90
        5
102
RTVSPost2010Prop44ColorRGB
 90
      255
102
RTVSPost2010PropOp44
 70
     1
102
RTVSPost2010Prop45
280
     0
102
RTVSPost2010PropOp45
 70
     1
102
RTVSPost2010Prop46
 90
       50
102
RTVSPost2010PropOp46
 70
     1
102
RTVSPost2010Prop47
 90
       50
102
RTVSPost2010PropOp47
 70
     1
102
RTVSPost2010Prop48
 90
       50
102
RTVSPost2010PropOp48
 70
     1
102
RTVSPost2010Prop49
280
     0
102
RTVSPost2010PropOp49
 70
     1
102
RTVSPost2010Prop50
 90
       50
102
RTVSPost2010PropOp50
 70
     1
102
RTVSPost2010Prop51ColorIndex
 90
      256
102
RTVSPost2010Prop51ColorRGB
 90
-16777216
102
RTVSPost2010PropOp51
 70
     0
102
RTVSPost2010Prop52
140
1.0
102
RTVSPost2010PropOp52
 70
     0
102
RTVSPost2010Prop53
 90
        2
102
RTVSPost2010PropOp53
 70
     1
102
RTVSPost2010Prop54
  1
strokes_ogs.tif
102
RTVSPost2010PropOp54
 70
     1
102
RTVSPost2010Prop55
280
     0
102
RTVSPost2010PropOp55
 70
     1
102
RTVSPost2010Prop56
140
1.0
102
RTVSPost2010PropOp56
 70
     1
102
RTVSPost2010Prop57
140
1.0
102
RTVSPost2010PropOp57
 70
     1
102
RTVSPropertyOp0
 70
     1
102
RTVSPropertyOp1
 70
     1
102
RTVSPropertyOp2
 70
     1
102
RTVSPropertyOp3
 70
     1
102
RTVSPropertyOp4
 70
     1
102
RTVSPropertyOp5
 70
     1
102
RTVSPropertyOp6
 70
     1
102
RTVSPropertyOp7
 70
     1
102
RTVSPropertyOp8
 70
     1
102
RTVSPropertyOp9
 70
     1
102
RTVSPropertyOp10
 70
     1
102
RTVSPropertyOp11
 70
     1
102
RTVSPropertyOp12
 70
     1
102
RTVSPropertyOp13
 70
     1
102
RTVSPropertyOp14
 70
     1
102
RTVSPropertyOp15
 70
     1
102
RTVSPropertyOp16
 70
     1
102
RTVSPropertyOp17
 70
     1
102
RTVSPropertyOp18
 70
     1
102
RTVSPropertyOp19
 70
     1
102
RTVSPropertyOp20
 70
     1
102
RTVSPropertyOp21
 70
     1
102
RTVSPropertyOp22
 70
     1
102
RTVSPropertyOp23
 70
     1
102
RTVSPropertyOp24
 70
     1
102
RTVSPropertyOp25
 70
     1
102
RTVSPropertyOp26
 70
     1
102
RTVSPropertyOp27
 70
     1
102
RTVSPropertyOp28
 70
     1
102
RTVSPropertyOp29
 70
     1
102
RTVSPropertyOp30
 70
     1
102
RTVSPropertyOp31
 70
     1
102
RTVSPropertyOp32
 70
     1
102
RTVSPropertyOp33
 70
     1
102
RTVSPropertyOp34
 70
     1
102
RTVSPropertyOp35
 70
     1
102
RTVSPropertyOp36
 70
     1
102
RTVSPropertyOp37
 70
     1
102
RTVSPropertyOp38
 70
     1
102
RTVSPropertyOp39
 70
     1
102
RTVSPropertyOp40
 70
     1
102
RTVSPropertyOp41
 70
     1
102
RTVSPropertyOp42
 70
     1
102
RTVSPropertyOp43
 70
     1
102
RTVSPropertyOp44
 70
     1
102
RTVSPropertyOp45
 70
     1
102
RTVSPropertyOp46
 70
     1
102
RTVSPropertyOp47
 70
     1
102
RTVSPropertyOp48
 70
     1
102
RTVSPropertyOp49
 70
     1
102
RTVSPropertyOp50
 70
     1
102
RTVSPropertyOp51
 70
     0
102
RTVSPropertyOp52
 70
     0
102
RTVSPropertyOp53
 70
     1
102
RTVSPropertyOp54
 70
     1
102
RTVSPropertyOp55
 70
     1
102
RTVSPropertyOp56
 70
     1
102
RTVSPropertyOp57
 70
     1
102
RTVSPropertyOp58
 70
     1
102
RTVSPropertyOp59
 70
     1
102
RTVSPropertyOp60
 70
     1
102
RTVSPropertyOp61
 70
     1
102
RTVSPropertyOp62
 70
     1
  0
XRECORD
  5
A184
102
{ACAD_REACTORS
330
A183
102
}
330
A183
100
AcDbXrecord
280
     1
102
RTVSPost2010Prop28
280
     0
102
RTVSPost2010PropOp28
 70
     1
102
RTVSPost2010Prop29
280
     1
102
RTVSPost2010PropOp29
 70
     1
102
RTVSPost2010Prop30
280
     1
102
RTVSPost2010PropOp30
 70
     1
102
RTVSPost2010Prop31
280
     0
102
RTVSPost2010PropOp31
 70
     1
102
RTVSPost2010Prop32
280
     0
102
RTVSPost2010PropOp32
 70
     1
102
RTVSPost2010Prop33
280
     0
102
RTVSPost2010PropOp33
 70
     1
102
RTVSPost2010Prop34
280
     0
102
RTVSPost2010PropOp34
 70
     1
102
RTVSPost2010Prop35
280
     0
102
RTVSPost2010PropOp35
 70
     1
102
RTVSPost2010Prop36
280
     0
102
RTVSPost2010PropOp36
 70
     1
102
RTVSPost2010Prop37
 90
       50
102
RTVSPost2010PropOp37
 70
     1
102
RTVSPost2010Prop38
140
0.0
102
RTVSPost2010PropOp38
 70
     1
102
RTVSPost2010Prop39
140
1.0
102
RTVSPost2010PropOp39
 70
     1
102
RTVSPost2010Prop40
 90
        0
102
RTVSPost2010PropOp40
 70
     1
102
RTVSPost2010Prop41ColorIndex
 90
       18
102
RTVSPost2010Prop41ColorRGB
 90
        0
102
RTVSPost2010PropOp41
 70
     1
102
RTVSPost2010Prop42
 90
       50
102
RTVSPost2010PropOp42
 70
     1
102
RTVSPost2010Prop43
 90
        3
102
RTVSPost2010PropOp43
 70
     1
102
RTVSPost2010Prop44ColorIndex
 90
        5
102
RTVSPost2010Prop44ColorRGB
 90
      255
102
RTVSPost2010PropOp44
 70
     1
102
RTVSPost2010Prop45
280
     0
102
RTVSPost2010PropOp45
 70
     1
102
RTVSPost2010Prop46
 90
       50
102
RTVSPost2010PropOp46
 70
     1
102
RTVSPost2010Prop47
 90
       50
102
RTVSPost2010PropOp47
 70
     1
102
RTVSPost2010Prop48
 90
       50
102
RTVSPost2010PropOp48
 70
     1
102
RTVSPost2010Prop49
280
     0
102
RTVSPost2010PropOp49
 70
     1
102
RTVSPost2010Prop50
 90
       50
102
RTVSPost2010PropOp50
 70
     1
102
RTVSPost2010Prop51ColorIndex
 90
      256
102
RTVSPost2010Prop51ColorRGB
 90
-16777216
102
RTVSPost2010PropOp51
 70
     0
102
RTVSPost2010Prop52
140
1.0
102
RTVSPost2010PropOp52
 70
     0
102
RTVSPost2010Prop53
 90
        2
102
RTVSPost2010PropOp53
 70
     1
102
RTVSPost2010Prop54
  1
strokes_ogs.tif
102
RTVSPost2010PropOp54
 70
     1
102
RTVSPost2010Prop55
280
     0
102
RTVSPost2010PropOp55
 70
     1
102
RTVSPost2010Prop56
140
1.0
102
RTVSPost2010PropOp56
 70
     1
102
RTVSPost2010Prop57
140
1.0
102
RTVSPost2010PropOp57
 70
     1
102
RTVSPropertyOp0
 70
     1
102
RTVSPropertyOp1
 70
     1
102
RTVSPropertyOp2
 70
     1
102
RTVSPropertyOp3
 70
     1
102
RTVSPropertyOp4
 70
     1
102
RTVSPropertyOp5
 70
     1
102
RTVSPropertyOp6
 70
     1
102
RTVSPropertyOp7
 70
     1
102
RTVSPropertyOp8
 70
     1
102
RTVSPropertyOp9
 70
     1
102
RTVSPropertyOp10
 70
     1
102
RTVSPropertyOp11
 70
     1
102
RTVSPropertyOp12
 70
     1
102
RTVSPropertyOp13
 70
     1
102
RTVSPropertyOp14
 70
     1
102
RTVSPropertyOp15
 70
     1
102
RTVSPropertyOp16
 70
     1
102
RTVSPropertyOp17
 70
     1
102
RTVSPropertyOp18
 70
     1
102
RTVSPropertyOp19
 70
     1
102
RTVSPropertyOp20
 70
     1
102
RTVSPropertyOp21
 70
     1
102
RTVSPropertyOp22
 70
     1
102
RTVSPropertyOp23
 70
     1
102
RTVSPropertyOp24
 70
     1
102
RTVSPropertyOp25
 70
     1
102
RTVSPropertyOp26
 70
     1
102
RTVSPropertyOp27
 70
     1
102
RTVSPropertyOp28
 70
     1
102
RTVSPropertyOp29
 70
     1
102
RTVSPropertyOp30
 70
     1
102
RTVSPropertyOp31
 70
     1
102
RTVSPropertyOp32
 70
     1
102
RTVSPropertyOp33
 70
     1
102
RTVSPropertyOp34
 70
     1
102
RTVSPropertyOp35
 70
     1
102
RTVSPropertyOp36
 70
     1
102
RTVSPropertyOp37
 70
     1
102
RTVSPropertyOp38
 70
     1
102
RTVSPropertyOp39
 70
     1
102
RTVSPropertyOp40
 70
     1
102
RTVSPropertyOp41
 70
     1
102
RTVSPropertyOp42
 70
     1
102
RTVSPropertyOp43
 70
     1
102
RTVSPropertyOp44
 70
     1
102
RTVSPropertyOp45
 70
     1
102
RTVSPropertyOp46
 70
     1
102
RTVSPropertyOp47
 70
     1
102
RTVSPropertyOp48
 70
     1
102
RTVSPropertyOp49
 70
     1
102
RTVSPropertyOp50
 70
     1
102
RTVSPropertyOp51
 70
     0
102
RTVSPropertyOp52
 70
     0
102
RTVSPropertyOp53
 70
     1
102
RTVSPropertyOp54
 70
     1
102
RTVSPropertyOp55
 70
     1
102
RTVSPropertyOp56
 70
     1
102
RTVSPropertyOp57
 70
     1
102
RTVSPropertyOp58
 70
     1
102
RTVSPropertyOp59
 70
     1
102
RTVSPropertyOp60
 70
     1
102
RTVSPropertyOp61
 70
     1
102
RTVSPropertyOp62
 70
     1
  0
XRECORD
  5
A176
102
{ACAD_REACTORS
330
A175
102
}
330
A175
100
AcDbXrecord
280
     1
102
RTVSPost2010Prop28
280
     0
102
RTVSPost2010PropOp28
 70
     1
102
RTVSPost2010Prop29
280
     1
102
RTVSPost2010PropOp29
 70
     1
102
RTVSPost2010Prop30
280
     1
102
RTVSPost2010PropOp30
 70
     1
102
RTVSPost2010Prop31
280
     0
102
RTVSPost2010PropOp31
 70
     1
102
RTVSPost2010Prop32
280
     0
102
RTVSPost2010PropOp32
 70
     1
102
RTVSPost2010Prop33
280
     0
102
RTVSPost2010PropOp33
 70
     1
102
RTVSPost2010Prop34
280
     0
102
RTVSPost2010PropOp34
 70
     1
102
RTVSPost2010Prop35
280
     0
102
RTVSPost2010PropOp35
 70
     1
102
RTVSPost2010Prop36
280
     0
102
RTVSPost2010PropOp36
 70
     1
102
RTVSPost2010Prop37
 90
       50
102
RTVSPost2010PropOp37
 70
     1
102
RTVSPost2010Prop38
140
0.0
102
RTVSPost2010PropOp38
 70
     1
102
RTVSPost2010Prop39
140
1.0
102
RTVSPost2010PropOp39
 70
     1
102
RTVSPost2010Prop40
 90
        0
102
RTVSPost2010PropOp40
 70
     1
102
RTVSPost2010Prop41ColorIndex
 90
       18
102
RTVSPost2010Prop41ColorRGB
 90
        0
102
RTVSPost2010PropOp41
 70
     1
102
RTVSPost2010Prop42
 90
       50
102
RTVSPost2010PropOp42
 70
     1
102
RTVSPost2010Prop43
 90
        3
102
RTVSPost2010PropOp43
 70
     1
102
RTVSPost2010Prop44ColorIndex
 90
        5
102
RTVSPost2010Prop44ColorRGB
 90
      255
102
RTVSPost2010PropOp44
 70
     1
102
RTVSPost2010Prop45
280
     0
102
RTVSPost2010PropOp45
 70
     1
102
RTVSPost2010Prop46
 90
       50
102
RTVSPost2010PropOp46
 70
     1
102
RTVSPost2010Prop47
 90
       50
102
RTVSPost2010PropOp47
 70
     1
102
RTVSPost2010Prop48
 90
       50
102
RTVSPost2010PropOp48
 70
     1
102
RTVSPost2010Prop49
280
     0
102
RTVSPost2010PropOp49
 70
     1
102
RTVSPost2010Prop50
 90
       50
102
RTVSPost2010PropOp50
 70
     1
102
RTVSPost2010Prop51ColorIndex
 90
      256
102
RTVSPost2010Prop51ColorRGB
 90
-16777216
102
RTVSPost2010PropOp51
 70
     0
102
RTVSPost2010Prop52
140
1.0
102
RTVSPost2010PropOp52
 70
     0
102
RTVSPost2010Prop53
 90
        2
102
RTVSPost2010PropOp53
 70
     1
102
RTVSPost2010Prop54
  1
strokes_ogs.tif
102
RTVSPost2010PropOp54
 70
     1
102
RTVSPost2010Prop55
280
     0
102
RTVSPost2010PropOp55
 70
     1
102
RTVSPost2010Prop56
140
1.0
102
RTVSPost2010PropOp56
 70
     1
102
RTVSPost2010Prop57
140
1.0
102
RTVSPost2010PropOp57
 70
     1
102
RTVSPropertyOp0
 70
     1
102
RTVSPropertyOp1
 70
     1
102
RTVSPropertyOp2
 70
     1
102
RTVSPropertyOp3
 70
     1
102
RTVSPropertyOp4
 70
     1
102
RTVSPropertyOp5
 70
     1
102
RTVSPropertyOp6
 70
     1
102
RTVSPropertyOp7
 70
     1
102
RTVSPropertyOp8
 70
     1
102
RTVSPropertyOp9
 70
     1
102
RTVSPropertyOp10
 70
     1
102
RTVSPropertyOp11
 70
     1
102
RTVSPropertyOp12
 70
     1
102
RTVSPropertyOp13
 70
     1
102
RTVSPropertyOp14
 70
     1
102
RTVSPropertyOp15
 70
     1
102
RTVSPropertyOp16
 70
     1
102
RTVSPropertyOp17
 70
     1
102
RTVSPropertyOp18
 70
     1
102
RTVSPropertyOp19
 70
     1
102
RTVSPropertyOp20
 70
     1
102
RTVSPropertyOp21
 70
     1
102
RTVSPropertyOp22
 70
     1
102
RTVSPropertyOp23
 70
     1
102
RTVSPropertyOp24
 70
     1
102
RTVSPropertyOp25
 70
     1
102
RTVSPropertyOp26
 70
     1
102
RTVSPropertyOp27
 70
     1
102
RTVSPropertyOp28
 70
     1
102
RTVSPropertyOp29
 70
     1
102
RTVSPropertyOp30
 70
     1
102
RTVSPropertyOp31
 70
     1
102
RTVSPropertyOp32
 70
     1
102
RTVSPropertyOp33
 70
     1
102
RTVSPropertyOp34
 70
     1
102
RTVSPropertyOp35
 70
     1
102
RTVSPropertyOp36
 70
     1
102
RTVSPropertyOp37
 70
     1
102
RTVSPropertyOp38
 70
     1
102
RTVSPropertyOp39
 70
     1
102
RTVSPropertyOp40
 70
     1
102
RTVSPropertyOp41
 70
     1
102
RTVSPropertyOp42
 70
     1
102
RTVSPropertyOp43
 70
     1
102
RTVSPropertyOp44
 70
     1
102
RTVSPropertyOp45
 70
     1
102
RTVSPropertyOp46
 70
     1
102
RTVSPropertyOp47
 70
     1
102
RTVSPropertyOp48
 70
     1
102
RTVSPropertyOp49
 70
     1
102
RTVSPropertyOp50
 70
     1
102
RTVSPropertyOp51
 70
     0
102
RTVSPropertyOp52
 70
     0
102
RTVSPropertyOp53
 70
     1
102
RTVSPropertyOp54
 70
     1
102
RTVSPropertyOp55
 70
     1
102
RTVSPropertyOp56
 70
     1
102
RTVSPropertyOp57
 70
     1
102
RTVSPropertyOp58
 70
     1
102
RTVSPropertyOp59
 70
     1
102
RTVSPropertyOp60
 70
     1
102
RTVSPropertyOp61
 70
     1
102
RTVSPropertyOp62
 70
     1
  0
XRECORD
  5
A17A
102
{ACAD_REACTORS
330
A179
102
}
330
A179
100
AcDbXrecord
280
     1
102
RTVSPost2010Prop28
280
     0
102
RTVSPost2010PropOp28
 70
     1
102
RTVSPost2010Prop29
280
     1
102
RTVSPost2010PropOp29
 70
     1
102
RTVSPost2010Prop30
280
     1
102
RTVSPost2010PropOp30
 70
     1
102
RTVSPost2010Prop31
280
     0
102
RTVSPost2010PropOp31
 70
     1
102
RTVSPost2010Prop32
280
     0
102
RTVSPost2010PropOp32
 70
     1
102
RTVSPost2010Prop33
280
     0
102
RTVSPost2010PropOp33
 70
     1
102
RTVSPost2010Prop34
280
     0
102
RTVSPost2010PropOp34
 70
     1
102
RTVSPost2010Prop35
280
     0
102
RTVSPost2010PropOp35
 70
     1
102
RTVSPost2010Prop36
280
     0
102
RTVSPost2010PropOp36
 70
     1
102
RTVSPost2010Prop37
 90
       50
102
RTVSPost2010PropOp37
 70
     1
102
RTVSPost2010Prop38
140
0.0
102
RTVSPost2010PropOp38
 70
     1
102
RTVSPost2010Prop39
140
1.0
102
RTVSPost2010PropOp39
 70
     1
102
RTVSPost2010Prop40
 90
        0
102
RTVSPost2010PropOp40
 70
     1
102
RTVSPost2010Prop41ColorIndex
 90
       18
102
RTVSPost2010Prop41ColorRGB
 90
        0
102
RTVSPost2010PropOp41
 70
     1
102
RTVSPost2010Prop42
 90
       50
102
RTVSPost2010PropOp42
 70
     1
102
RTVSPost2010Prop43
 90
        3
102
RTVSPost2010PropOp43
 70
     1
102
RTVSPost2010Prop44ColorIndex
 90
        5
102
RTVSPost2010Prop44ColorRGB
 90
      255
102
RTVSPost2010PropOp44
 70
     1
102
RTVSPost2010Prop45
280
     0
102
RTVSPost2010PropOp45
 70
     1
102
RTVSPost2010Prop46
 90
       50
102
RTVSPost2010PropOp46
 70
     1
102
RTVSPost2010Prop47
 90
       50
102
RTVSPost2010PropOp47
 70
     1
102
RTVSPost2010Prop48
 90
       50
102
RTVSPost2010PropOp48
 70
     1
102
RTVSPost2010Prop49
280
     0
102
RTVSPost2010PropOp49
 70
     1
102
RTVSPost2010Prop50
 90
       50
102
RTVSPost2010PropOp50
 70
     1
102
RTVSPost2010Prop51ColorIndex
 90
      256
102
RTVSPost2010Prop51ColorRGB
 90
-16777216
102
RTVSPost2010PropOp51
 70
     0
102
RTVSPost2010Prop52
140
1.0
102
RTVSPost2010PropOp52
 70
     0
102
RTVSPost2010Prop53
 90
        2
102
RTVSPost2010PropOp53
 70
     1
102
RTVSPost2010Prop54
  1
strokes_ogs.tif
102
RTVSPost2010PropOp54
 70
     1
102
RTVSPost2010Prop55
280
     0
102
RTVSPost2010PropOp55
 70
     1
102
RTVSPost2010Prop56
140
1.0
102
RTVSPost2010PropOp56
 70
     1
102
RTVSPost2010Prop57
140
1.0
102
RTVSPost2010PropOp57
 70
     1
102
RTVSPropertyOp0
 70
     1
102
RTVSPropertyOp1
 70
     1
102
RTVSPropertyOp2
 70
     1
102
RTVSPropertyOp3
 70
     1
102
RTVSPropertyOp4
 70
     1
102
RTVSPropertyOp5
 70
     1
102
RTVSPropertyOp6
 70
     1
102
RTVSPropertyOp7
 70
     1
102
RTVSPropertyOp8
 70
     1
102
RTVSPropertyOp9
 70
     1
102
RTVSPropertyOp10
 70
     1
102
RTVSPropertyOp11
 70
     1
102
RTVSPropertyOp12
 70
     1
102
RTVSPropertyOp13
 70
     1
102
RTVSPropertyOp14
 70
     1
102
RTVSPropertyOp15
 70
     1
102
RTVSPropertyOp16
 70
     1
102
RTVSPropertyOp17
 70
     1
102
RTVSPropertyOp18
 70
     1
102
RTVSPropertyOp19
 70
     1
102
RTVSPropertyOp20
 70
     1
102
RTVSPropertyOp21
 70
     1
102
RTVSPropertyOp22
 70
     1
102
RTVSPropertyOp23
 70
     1
102
RTVSPropertyOp24
 70
     1
102
RTVSPropertyOp25
 70
     1
102
RTVSPropertyOp26
 70
     1
102
RTVSPropertyOp27
 70
     1
102
RTVSPropertyOp28
 70
     1
102
RTVSPropertyOp29
 70
     1
102
RTVSPropertyOp30
 70
     1
102
RTVSPropertyOp31
 70
     1
102
RTVSPropertyOp32
 70
     1
102
RTVSPropertyOp33
 70
     1
102
RTVSPropertyOp34
 70
     1
102
RTVSPropertyOp35
 70
     1
102
RTVSPropertyOp36
 70
     1
102
RTVSPropertyOp37
 70
     1
102
RTVSPropertyOp38
 70
     1
102
RTVSPropertyOp39
 70
     1
102
RTVSPropertyOp40
 70
     1
102
RTVSPropertyOp41
 70
     1
102
RTVSPropertyOp42
 70
     1
102
RTVSPropertyOp43
 70
     1
102
RTVSPropertyOp44
 70
     1
102
RTVSPropertyOp45
 70
     1
102
RTVSPropertyOp46
 70
     1
102
RTVSPropertyOp47
 70
     1
102
RTVSPropertyOp48
 70
     1
102
RTVSPropertyOp49
 70
     1
102
RTVSPropertyOp50
 70
     1
102
RTVSPropertyOp51
 70
     0
102
RTVSPropertyOp52
 70
     0
102
RTVSPropertyOp53
 70
     1
102
RTVSPropertyOp54
 70
     1
102
RTVSPropertyOp55
 70
     1
102
RTVSPropertyOp56
 70
     1
102
RTVSPropertyOp57
 70
     1
102
RTVSPropertyOp58
 70
     1
102
RTVSPropertyOp59
 70
     1
102
RTVSPropertyOp60
 70
     1
102
RTVSPropertyOp61
 70
     1
102
RTVSPropertyOp62
 70
     1
  0
XRECORD
  5
A194
102
{ACAD_REACTORS
330
A193
102
}
330
A193
100
AcDbXrecord
280
     1
102
RTVSPost2010Prop28
280
     0
102
RTVSPost2010PropOp28
 70
     1
102
RTVSPost2010Prop29
280
     1
102
RTVSPost2010PropOp29
 70
     1
102
RTVSPost2010Prop30
280
     1
102
RTVSPost2010PropOp30
 70
     1
102
RTVSPost2010Prop31
280
     0
102
RTVSPost2010PropOp31
 70
     1
102
RTVSPost2010Prop32
280
     0
102
RTVSPost2010PropOp32
 70
     1
102
RTVSPost2010Prop33
280
     0
102
RTVSPost2010PropOp33
 70
     1
102
RTVSPost2010Prop34
280
     0
102
RTVSPost2010PropOp34
 70
     1
102
RTVSPost2010Prop35
280
     0
102
RTVSPost2010PropOp35
 70
     1
102
RTVSPost2010Prop36
280
     0
102
RTVSPost2010PropOp36
 70
     1
102
RTVSPost2010Prop37
 90
       50
102
RTVSPost2010PropOp37
 70
     0
102
RTVSPost2010Prop38
140
0.0
102
RTVSPost2010PropOp38
 70
     0
102
RTVSPost2010Prop39
140
1.0
102
RTVSPost2010PropOp39
 70
     0
102
RTVSPost2010Prop40
 90
        0
102
RTVSPost2010PropOp40
 70
     0
102
RTVSPost2010Prop41ColorIndex
 90
       18
102
RTVSPost2010Prop41ColorRGB
 90
        0
102
RTVSPost2010PropOp41
 70
     0
102
RTVSPost2010Prop42
 90
       50
102
RTVSPost2010PropOp42
 70
     0
102
RTVSPost2010Prop43
 90
        3
102
RTVSPost2010PropOp43
 70
     0
102
RTVSPost2010Prop44ColorIndex
 90
        5
102
RTVSPost2010Prop44ColorRGB
 90
      255
102
RTVSPost2010PropOp44
 70
     0
102
RTVSPost2010Prop45
280
     0
102
RTVSPost2010PropOp45
 70
     1
102
RTVSPost2010Prop46
 90
       50
102
RTVSPost2010PropOp46
 70
     0
102
RTVSPost2010Prop47
 90
       50
102
RTVSPost2010PropOp47
 70
     0
102
RTVSPost2010Prop48
 90
       50
102
RTVSPost2010PropOp48
 70
     0
102
RTVSPost2010Prop49
280
     0
102
RTVSPost2010PropOp49
 70
     1
102
RTVSPost2010Prop50
 90
       50
102
RTVSPost2010PropOp50
 70
     0
102
RTVSPost2010Prop51ColorIndex
 90
      256
102
RTVSPost2010Prop51ColorRGB
 90
-16777216
102
RTVSPost2010PropOp51
 70
     0
102
RTVSPost2010Prop52
140
1.0
102
RTVSPost2010PropOp52
 70
     0
102
RTVSPost2010Prop53
 90
        2
102
RTVSPost2010PropOp53
 70
     0
102
RTVSPost2010Prop54
  1
strokes_ogs.tif
102
RTVSPost2010PropOp54
 70
     0
102
RTVSPost2010Prop55
280
     0
102
RTVSPost2010PropOp55
 70
     1
102
RTVSPost2010Prop56
140
1.0
102
RTVSPost2010PropOp56
 70
     0
102
RTVSPost2010Prop57
140
1.0
102
RTVSPost2010PropOp57
 70
     0
102
RTVSPropertyOp0
 70
     0
102
RTVSPropertyOp1
 70
     0
102
RTVSPropertyOp2
 70
     0
102
RTVSPropertyOp3
 70
     0
102
RTVSPropertyOp4
 70
     0
102
RTVSPropertyOp5
 70
     0
102
RTVSPropertyOp6
 70
     0
102
RTVSPropertyOp7
 70
     0
102
RTVSPropertyOp8
 70
     0
102
RTVSPropertyOp9
 70
     0
102
RTVSPropertyOp10
 70
     0
102
RTVSPropertyOp11
 70
     0
102
RTVSPropertyOp12
 70
     0
102
RTVSPropertyOp13
 70
     0
102
RTVSPropertyOp14
 70
     2
102
RTVSPropertyOp15
 70
     0
102
RTVSPropertyOp16
 70
     0
102
RTVSPropertyOp17
 70
     0
102
RTVSPropertyOp18
 70
     0
102
RTVSPropertyOp19
 70
     0
102
RTVSPropertyOp20
 70
     0
102
RTVSPropertyOp21
 70
     0
102
RTVSPropertyOp22
 70
     0
102
RTVSPropertyOp23
 70
     0
102
RTVSPropertyOp24
 70
     0
102
RTVSPropertyOp25
 70
     0
102
RTVSPropertyOp26
 70
     0
102
RTVSPropertyOp27
 70
     0
102
RTVSPropertyOp28
 70
     1
102
RTVSPropertyOp29
 70
     1
102
RTVSPropertyOp30
 70
     1
102
RTVSPropertyOp31
 70
     1
102
RTVSPropertyOp32
 70
     1
102
RTVSPropertyOp33
 70
     1
102
RTVSPropertyOp34
 70
     1
102
RTVSPropertyOp35
 70
     1
102
RTVSPropertyOp36
 70
     1
102
RTVSPropertyOp37
 70
     0
102
RTVSPropertyOp38
 70
     0
102
RTVSPropertyOp39
 70
     0
102
RTVSPropertyOp40
 70
     0
102
RTVSPropertyOp41
 70
     0
102
RTVSPropertyOp42
 70
     0
102
RTVSPropertyOp43
 70
     0
102
RTVSPropertyOp44
 70
     0
102
RTVSPropertyOp45
 70
     1
102
RTVSPropertyOp46
 70
     0
102
RTVSPropertyOp47
 70
     0
102
RTVSPropertyOp48
 70
     0
102
RTVSPropertyOp49
 70
     1
102
RTVSPropertyOp50
 70
     0
102
RTVSPropertyOp51
 70
     0
102
RTVSPropertyOp52
 70
     0
102
RTVSPropertyOp53
 70
     0
102
RTVSPropertyOp54
 70
     0
102
RTVSPropertyOp55
 70
     1
102
RTVSPropertyOp56
 70
     0
102
RTVSPropertyOp57
 70
     0
102
RTVSPropertyOp58
 70
     0
102
RTVSPropertyOp59
 70
     0
102
RTVSPropertyOp60
 70
     0
102
RTVSPropertyOp61
 70
     0
102
RTVSPropertyOp62
 70
     0
  0
XRECORD
  5
A182
102
{ACAD_REACTORS
330
A181
102
}
330
A181
100
AcDbXrecord
280
     1
102
RTVSPost2010Prop28
280
     0
102
RTVSPost2010PropOp28
 70
     1
102
RTVSPost2010Prop29
280
     1
102
RTVSPost2010PropOp29
 70
     1
102
RTVSPost2010Prop30
280
     1
102
RTVSPost2010PropOp30
 70
     1
102
RTVSPost2010Prop31
280
     0
102
RTVSPost2010PropOp31
 70
     1
102
RTVSPost2010Prop32
280
     0
102
RTVSPost2010PropOp32
 70
     1
102
RTVSPost2010Prop33
280
     0
102
RTVSPost2010PropOp33
 70
     1
102
RTVSPost2010Prop34
280
     0
102
RTVSPost2010PropOp34
 70
     1
102
RTVSPost2010Prop35
280
     0
102
RTVSPost2010PropOp35
 70
     1
102
RTVSPost2010Prop36
280
     0
102
RTVSPost2010PropOp36
 70
     1
102
RTVSPost2010Prop37
 90
       50
102
RTVSPost2010PropOp37
 70
     1
102
RTVSPost2010Prop38
140
0.0
102
RTVSPost2010PropOp38
 70
     1
102
RTVSPost2010Prop39
140
1.0
102
RTVSPost2010PropOp39
 70
     1
102
RTVSPost2010Prop40
 90
        0
102
RTVSPost2010PropOp40
 70
     1
102
RTVSPost2010Prop41ColorIndex
 90
       18
102
RTVSPost2010Prop41ColorRGB
 90
        0
102
RTVSPost2010PropOp41
 70
     1
102
RTVSPost2010Prop42
 90
       50
102
RTVSPost2010PropOp42
 70
     1
102
RTVSPost2010Prop43
 90
        3
102
RTVSPost2010PropOp43
 70
     1
102
RTVSPost2010Prop44ColorIndex
 90
        5
102
RTVSPost2010Prop44ColorRGB
 90
      255
102
RTVSPost2010PropOp44
 70
     1
102
RTVSPost2010Prop45
280
     0
102
RTVSPost2010PropOp45
 70
     1
102
RTVSPost2010Prop46
 90
       50
102
RTVSPost2010PropOp46
 70
     1
102
RTVSPost2010Prop47
 90
       50
102
RTVSPost2010PropOp47
 70
     1
102
RTVSPost2010Prop48
 90
       50
102
RTVSPost2010PropOp48
 70
     1
102
RTVSPost2010Prop49
280
     0
102
RTVSPost2010PropOp49
 70
     1
102
RTVSPost2010Prop50
 90
       50
102
RTVSPost2010PropOp50
 70
     1
102
RTVSPost2010Prop51ColorIndex
 90
      256
102
RTVSPost2010Prop51ColorRGB
 90
-16777216
102
RTVSPost2010PropOp51
 70
     0
102
RTVSPost2010Prop52
140
1.0
102
RTVSPost2010PropOp52
 70
     0
102
RTVSPost2010Prop53
 90
        2
102
RTVSPost2010PropOp53
 70
     1
102
RTVSPost2010Prop54
  1
strokes_ogs.tif
102
RTVSPost2010PropOp54
 70
     1
102
RTVSPost2010Prop55
280
     0
102
RTVSPost2010PropOp55
 70
     1
102
RTVSPost2010Prop56
140
1.0
102
RTVSPost2010PropOp56
 70
     1
102
RTVSPost2010Prop57
140
1.0
102
RTVSPost2010PropOp57
 70
     1
102
RTVSPropertyOp0
 70
     1
102
RTVSPropertyOp1
 70
     1
102
RTVSPropertyOp2
 70
     1
102
RTVSPropertyOp3
 70
     1
102
RTVSPropertyOp4
 70
     1
102
RTVSPropertyOp5
 70
     1
102
RTVSPropertyOp6
 70
     1
102
RTVSPropertyOp7
 70
     1
102
RTVSPropertyOp8
 70
     1
102
RTVSPropertyOp9
 70
     1
102
RTVSPropertyOp10
 70
     1
102
RTVSPropertyOp11
 70
     1
102
RTVSPropertyOp12
 70
     1
102
RTVSPropertyOp13
 70
     1
102
RTVSPropertyOp14
 70
     1
102
RTVSPropertyOp15
 70
     1
102
RTVSPropertyOp16
 70
     1
102
RTVSPropertyOp17
 70
     1
102
RTVSPropertyOp18
 70
     1
102
RTVSPropertyOp19
 70
     1
102
RTVSPropertyOp20
 70
     1
102
RTVSPropertyOp21
 70
     1
102
RTVSPropertyOp22
 70
     1
102
RTVSPropertyOp23
 70
     1
102
RTVSPropertyOp24
 70
     1
102
RTVSPropertyOp25
 70
     1
102
RTVSPropertyOp26
 70
     1
102
RTVSPropertyOp27
 70
     1
102
RTVSPropertyOp28
 70
     1
102
RTVSPropertyOp29
 70
     1
102
RTVSPropertyOp30
 70
     1
102
RTVSPropertyOp31
 70
     1
102
RTVSPropertyOp32
 70
     1
102
RTVSPropertyOp33
 70
     1
102
RTVSPropertyOp34
 70
     1
102
RTVSPropertyOp35
 70
     1
102
RTVSPropertyOp36
 70
     1
102
RTVSPropertyOp37
 70
     1
102
RTVSPropertyOp38
 70
     1
102
RTVSPropertyOp39
 70
     1
102
RTVSPropertyOp40
 70
     1
102
RTVSPropertyOp41
 70
     1
102
RTVSPropertyOp42
 70
     1
102
RTVSPropertyOp43
 70
     1
102
RTVSPropertyOp44
 70
     1
102
RTVSPropertyOp45
 70
     1
102
RTVSPropertyOp46
 70
     1
102
RTVSPropertyOp47
 70
     1
102
RTVSPropertyOp48
 70
     1
102
RTVSPropertyOp49
 70
     1
102
RTVSPropertyOp50
 70
     1
102
RTVSPropertyOp51
 70
     0
102
RTVSPropertyOp52
 70
     0
102
RTVSPropertyOp53
 70
     1
102
RTVSPropertyOp54
 70
     1
102
RTVSPropertyOp55
 70
     1
102
RTVSPropertyOp56
 70
     1
102
RTVSPropertyOp57
 70
     1
102
RTVSPropertyOp58
 70
     1
102
RTVSPropertyOp59
 70
     1
102
RTVSPropertyOp60
 70
     1
102
RTVSPropertyOp61
 70
     1
102
RTVSPropertyOp62
 70
     1
  0
XRECORD
  5
A166
102
{ACAD_REACTORS
330
A165
102
}
330
A165
100
AcDbXrecord
280
     1
102
RTVSPost2010Prop28
280
     0
102
RTVSPost2010PropOp28
 70
     1
102
RTVSPost2010Prop29
280
     1
102
RTVSPost2010PropOp29
 70
     1
102
RTVSPost2010Prop30
280
     1
102
RTVSPost2010PropOp30
 70
     1
102
RTVSPost2010Prop31
280
     0
102
RTVSPost2010PropOp31
 70
     1
102
RTVSPost2010Prop32
280
     0
102
RTVSPost2010PropOp32
 70
     1
102
RTVSPost2010Prop33
280
     0
102
RTVSPost2010PropOp33
 70
     1
102
RTVSPost2010Prop34
280
     0
102
RTVSPost2010PropOp34
 70
     1
102
RTVSPost2010Prop35
280
     0
102
RTVSPost2010PropOp35
 70
     1
102
RTVSPost2010Prop36
280
     0
102
RTVSPost2010PropOp36
 70
     1
102
RTVSPost2010Prop37
 90
       50
102
RTVSPost2010PropOp37
 70
     1
102
RTVSPost2010Prop38
140
0.0
102
RTVSPost2010PropOp38
 70
     1
102
RTVSPost2010Prop39
140
1.0
102
RTVSPost2010PropOp39
 70
     1
102
RTVSPost2010Prop40
 90
        0
102
RTVSPost2010PropOp40
 70
     1
102
RTVSPost2010Prop41ColorIndex
 90
       18
102
RTVSPost2010Prop41ColorRGB
 90
        0
102
RTVSPost2010PropOp41
 70
     1
102
RTVSPost2010Prop42
 90
       50
102
RTVSPost2010PropOp42
 70
     1
102
RTVSPost2010Prop43
 90
        3
102
RTVSPost2010PropOp43
 70
     1
102
RTVSPost2010Prop44ColorIndex
 90
        5
102
RTVSPost2010Prop44ColorRGB
 90
      255
102
RTVSPost2010PropOp44
 70
     1
102
RTVSPost2010Prop45
280
     0
102
RTVSPost2010PropOp45
 70
     1
102
RTVSPost2010Prop46
 90
       50
102
RTVSPost2010PropOp46
 70
     1
102
RTVSPost2010Prop47
 90
       50
102
RTVSPost2010PropOp47
 70
     1
102
RTVSPost2010Prop48
 90
       50
102
RTVSPost2010PropOp48
 70
     1
102
RTVSPost2010Prop49
280
     0
102
RTVSPost2010PropOp49
 70
     1
102
RTVSPost2010Prop50
 90
       50
102
RTVSPost2010PropOp50
 70
     1
102
RTVSPost2010Prop51ColorIndex
 90
      256
102
RTVSPost2010Prop51ColorRGB
 90
-16777216
102
RTVSPost2010PropOp51
 70
     0
102
RTVSPost2010Prop52
140
1.0
102
RTVSPost2010PropOp52
 70
     0
102
RTVSPost2010Prop53
 90
        2
102
RTVSPost2010PropOp53
 70
     1
102
RTVSPost2010Prop54
  1
strokes_ogs.tif
102
RTVSPost2010PropOp54
 70
     1
102
RTVSPost2010Prop55
280
     0
102
RTVSPost2010PropOp55
 70
     1
102
RTVSPost2010Prop56
140
1.0
102
RTVSPost2010PropOp56
 70
     1
102
RTVSPost2010Prop57
140
1.0
102
RTVSPost2010PropOp57
 70
     1
102
RTVSPropertyOp0
 70
     1
102
RTVSPropertyOp1
 70
     1
102
RTVSPropertyOp2
 70
     1
102
RTVSPropertyOp3
 70
     1
102
RTVSPropertyOp4
 70
     1
102
RTVSPropertyOp5
 70
     1
102
RTVSPropertyOp6
 70
     1
102
RTVSPropertyOp7
 70
     1
102
RTVSPropertyOp8
 70
     1
102
RTVSPropertyOp9
 70
     1
102
RTVSPropertyOp10
 70
     1
102
RTVSPropertyOp11
 70
     1
102
RTVSPropertyOp12
 70
     1
102
RTVSPropertyOp13
 70
     1
102
RTVSPropertyOp14
 70
     1
102
RTVSPropertyOp15
 70
     1
102
RTVSPropertyOp16
 70
     1
102
RTVSPropertyOp17
 70
     1
102
RTVSPropertyOp18
 70
     1
102
RTVSPropertyOp19
 70
     1
102
RTVSPropertyOp20
 70
     1
102
RTVSPropertyOp21
 70
     1
102
RTVSPropertyOp22
 70
     1
102
RTVSPropertyOp23
 70
     1
102
RTVSPropertyOp24
 70
     1
102
RTVSPropertyOp25
 70
     1
102
RTVSPropertyOp26
 70
     1
102
RTVSPropertyOp27
 70
     1
102
RTVSPropertyOp28
 70
     1
102
RTVSPropertyOp29
 70
     1
102
RTVSPropertyOp30
 70
     1
102
RTVSPropertyOp31
 70
     1
102
RTVSPropertyOp32
 70
     1
102
RTVSPropertyOp33
 70
     1
102
RTVSPropertyOp34
 70
     1
102
RTVSPropertyOp35
 70
     1
102
RTVSPropertyOp36
 70
     1
102
RTVSPropertyOp37
 70
     1
102
RTVSPropertyOp38
 70
     1
102
RTVSPropertyOp39
 70
     1
102
RTVSPropertyOp40
 70
     1
102
RTVSPropertyOp41
 70
     1
102
RTVSPropertyOp42
 70
     1
102
RTVSPropertyOp43
 70
     1
102
RTVSPropertyOp44
 70
     1
102
RTVSPropertyOp45
 70
     1
102
RTVSPropertyOp46
 70
     1
102
RTVSPropertyOp47
 70
     1
102
RTVSPropertyOp48
 70
     1
102
RTVSPropertyOp49
 70
     1
102
RTVSPropertyOp50
 70
     1
102
RTVSPropertyOp51
 70
     0
102
RTVSPropertyOp52
 70
     0
102
RTVSPropertyOp53
 70
     1
102
RTVSPropertyOp54
 70
     1
102
RTVSPropertyOp55
 70
     1
102
RTVSPropertyOp56
 70
     1
102
RTVSPropertyOp57
 70
     1
102
RTVSPropertyOp58
 70
     1
102
RTVSPropertyOp59
 70
     1
102
RTVSPropertyOp60
 70
     1
102
RTVSPropertyOp61
 70
     1
102
RTVSPropertyOp62
 70
     1
  0
XRECORD
  5
A168
102
{ACAD_REACTORS
330
A167
102
}
330
A167
100
AcDbXrecord
280
     1
102
RTVSPost2010Prop28
280
     0
102
RTVSPost2010PropOp28
 70
     1
102
RTVSPost2010Prop29
280
     1
102
RTVSPost2010PropOp29
 70
     1
102
RTVSPost2010Prop30
280
     1
102
RTVSPost2010PropOp30
 70
     1
102
RTVSPost2010Prop31
280
     0
102
RTVSPost2010PropOp31
 70
     1
102
RTVSPost2010Prop32
280
     0
102
RTVSPost2010PropOp32
 70
     1
102
RTVSPost2010Prop33
280
     0
102
RTVSPost2010PropOp33
 70
     1
102
RTVSPost2010Prop34
280
     0
102
RTVSPost2010PropOp34
 70
     1
102
RTVSPost2010Prop35
280
     0
102
RTVSPost2010PropOp35
 70
     1
102
RTVSPost2010Prop36
280
     0
102
RTVSPost2010PropOp36
 70
     1
102
RTVSPost2010Prop37
 90
       50
102
RTVSPost2010PropOp37
 70
     1
102
RTVSPost2010Prop38
140
0.0
102
RTVSPost2010PropOp38
 70
     1
102
RTVSPost2010Prop39
140
1.0
102
RTVSPost2010PropOp39
 70
     1
102
RTVSPost2010Prop40
 90
        0
102
RTVSPost2010PropOp40
 70
     1
102
RTVSPost2010Prop41ColorIndex
 90
       18
102
RTVSPost2010Prop41ColorRGB
 90
        0
102
RTVSPost2010PropOp41
 70
     1
102
RTVSPost2010Prop42
 90
       50
102
RTVSPost2010PropOp42
 70
     1
102
RTVSPost2010Prop43
 90
        3
102
RTVSPost2010PropOp43
 70
     1
102
RTVSPost2010Prop44ColorIndex
 90
        5
102
RTVSPost2010Prop44ColorRGB
 90
      255
102
RTVSPost2010PropOp44
 70
     1
102
RTVSPost2010Prop45
280
     0
102
RTVSPost2010PropOp45
 70
     1
102
RTVSPost2010Prop46
 90
       50
102
RTVSPost2010PropOp46
 70
     1
102
RTVSPost2010Prop47
 90
       50
102
RTVSPost2010PropOp47
 70
     1
102
RTVSPost2010Prop48
 90
       50
102
RTVSPost2010PropOp48
 70
     1
102
RTVSPost2010Prop49
280
     0
102
RTVSPost2010PropOp49
 70
     1
102
RTVSPost2010Prop50
 90
       50
102
RTVSPost2010PropOp50
 70
     1
102
RTVSPost2010Prop51ColorIndex
 90
      256
102
RTVSPost2010Prop51ColorRGB
 90
-16777216
102
RTVSPost2010PropOp51
 70
     0
102
RTVSPost2010Prop52
140
1.0
102
RTVSPost2010PropOp52
 70
     0
102
RTVSPost2010Prop53
 90
        2
102
RTVSPost2010PropOp53
 70
     1
102
RTVSPost2010Prop54
  1
strokes_ogs.tif
102
RTVSPost2010PropOp54
 70
     1
102
RTVSPost2010Prop55
280
     0
102
RTVSPost2010PropOp55
 70
     1
102
RTVSPost2010Prop56
140
1.0
102
RTVSPost2010PropOp56
 70
     1
102
RTVSPost2010Prop57
140
1.0
102
RTVSPost2010PropOp57
 70
     1
102
RTVSPropertyOp0
 70
     1
102
RTVSPropertyOp1
 70
     1
102
RTVSPropertyOp2
 70
     1
102
RTVSPropertyOp3
 70
     1
102
RTVSPropertyOp4
 70
     1
102
RTVSPropertyOp5
 70
     1
102
RTVSPropertyOp6
 70
     1
102
RTVSPropertyOp7
 70
     1
102
RTVSPropertyOp8
 70
     1
102
RTVSPropertyOp9
 70
     1
102
RTVSPropertyOp10
 70
     1
102
RTVSPropertyOp11
 70
     1
102
RTVSPropertyOp12
 70
     1
102
RTVSPropertyOp13
 70
     1
102
RTVSPropertyOp14
 70
     1
102
RTVSPropertyOp15
 70
     1
102
RTVSPropertyOp16
 70
     1
102
RTVSPropertyOp17
 70
     1
102
RTVSPropertyOp18
 70
     1
102
RTVSPropertyOp19
 70
     1
102
RTVSPropertyOp20
 70
     1
102
RTVSPropertyOp21
 70
     1
102
RTVSPropertyOp22
 70
     1
102
RTVSPropertyOp23
 70
     1
102
RTVSPropertyOp24
 70
     1
102
RTVSPropertyOp25
 70
     1
102
RTVSPropertyOp26
 70
     1
102
RTVSPropertyOp27
 70
     1
102
RTVSPropertyOp28
 70
     1
102
RTVSPropertyOp29
 70
     1
102
RTVSPropertyOp30
 70
     1
102
RTVSPropertyOp31
 70
     1
102
RTVSPropertyOp32
 70
     1
102
RTVSPropertyOp33
 70
     1
102
RTVSPropertyOp34
 70
     1
102
RTVSPropertyOp35
 70
     1
102
RTVSPropertyOp36
 70
     1
102
RTVSPropertyOp37
 70
     1
102
RTVSPropertyOp38
 70
     1
102
RTVSPropertyOp39
 70
     1
102
RTVSPropertyOp40
 70
     1
102
RTVSPropertyOp41
 70
     1
102
RTVSPropertyOp42
 70
     1
102
RTVSPropertyOp43
 70
     1
102
RTVSPropertyOp44
 70
     1
102
RTVSPropertyOp45
 70
     1
102
RTVSPropertyOp46
 70
     1
102
RTVSPropertyOp47
 70
     1
102
RTVSPropertyOp48
 70
     1
102
RTVSPropertyOp49
 70
     1
102
RTVSPropertyOp50
 70
     1
102
RTVSPropertyOp51
 70
     0
102
RTVSPropertyOp52
 70
     0
102
RTVSPropertyOp53
 70
     1
102
RTVSPropertyOp54
 70
     1
102
RTVSPropertyOp55
 70
     1
102
RTVSPropertyOp56
 70
     1
102
RTVSPropertyOp57
 70
     1
102
RTVSPropertyOp58
 70
     1
102
RTVSPropertyOp59
 70
     1
102
RTVSPropertyOp60
 70
     1
102
RTVSPropertyOp61
 70
     1
102
RTVSPropertyOp62
 70
     1
  0
XRECORD
  5
A16A
102
{ACAD_REACTORS
330
A169
102
}
330
A169
100
AcDbXrecord
280
     1
102
RTVSPost2010Prop28
280
     0
102
RTVSPost2010PropOp28
 70
     1
102
RTVSPost2010Prop29
280
     1
102
RTVSPost2010PropOp29
 70
     1
102
RTVSPost2010Prop30
280
     1
102
RTVSPost2010PropOp30
 70
     1
102
RTVSPost2010Prop31
280
     0
102
RTVSPost2010PropOp31
 70
     1
102
RTVSPost2010Prop32
280
     0
102
RTVSPost2010PropOp32
 70
     1
102
RTVSPost2010Prop33
280
     0
102
RTVSPost2010PropOp33
 70
     1
102
RTVSPost2010Prop34
280
     0
102
RTVSPost2010PropOp34
 70
     1
102
RTVSPost2010Prop35
280
     0
102
RTVSPost2010PropOp35
 70
     1
102
RTVSPost2010Prop36
280
     0
102
RTVSPost2010PropOp36
 70
     1
102
RTVSPost2010Prop37
 90
       50
102
RTVSPost2010PropOp37
 70
     1
102
RTVSPost2010Prop38
140
0.0
102
RTVSPost2010PropOp38
 70
     1
102
RTVSPost2010Prop39
140
1.0
102
RTVSPost2010PropOp39
 70
     1
102
RTVSPost2010Prop40
 90
        0
102
RTVSPost2010PropOp40
 70
     1
102
RTVSPost2010Prop41ColorIndex
 90
       18
102
RTVSPost2010Prop41ColorRGB
 90
        0
102
RTVSPost2010PropOp41
 70
     1
102
RTVSPost2010Prop42
 90
       50
102
RTVSPost2010PropOp42
 70
     1
102
RTVSPost2010Prop43
 90
        3
102
RTVSPost2010PropOp43
 70
     1
102
RTVSPost2010Prop44ColorIndex
 90
        5
102
RTVSPost2010Prop44ColorRGB
 90
      255
102
RTVSPost2010PropOp44
 70
     1
102
RTVSPost2010Prop45
280
     0
102
RTVSPost2010PropOp45
 70
     1
102
RTVSPost2010Prop46
 90
       50
102
RTVSPost2010PropOp46
 70
     1
102
RTVSPost2010Prop47
 90
       50
102
RTVSPost2010PropOp47
 70
     1
102
RTVSPost2010Prop48
 90
       50
102
RTVSPost2010PropOp48
 70
     1
102
RTVSPost2010Prop49
280
     0
102
RTVSPost2010PropOp49
 70
     1
102
RTVSPost2010Prop50
 90
       50
102
RTVSPost2010PropOp50
 70
     1
102
RTVSPost2010Prop51ColorIndex
 90
      256
102
RTVSPost2010Prop51ColorRGB
 90
-16777216
102
RTVSPost2010PropOp51
 70
     0
102
RTVSPost2010Prop52
140
1.0
102
RTVSPost2010PropOp52
 70
     0
102
RTVSPost2010Prop53
 90
        2
102
RTVSPost2010PropOp53
 70
     1
102
RTVSPost2010Prop54
  1
strokes_ogs.tif
102
RTVSPost2010PropOp54
 70
     1
102
RTVSPost2010Prop55
280
     0
102
RTVSPost2010PropOp55
 70
     1
102
RTVSPost2010Prop56
140
1.0
102
RTVSPost2010PropOp56
 70
     1
102
RTVSPost2010Prop57
140
1.0
102
RTVSPost2010PropOp57
 70
     1
102
RTVSPropertyOp0
 70
     1
102
RTVSPropertyOp1
 70
     1
102
RTVSPropertyOp2
 70
     1
102
RTVSPropertyOp3
 70
     1
102
RTVSPropertyOp4
 70
     1
102
RTVSPropertyOp5
 70
     1
102
RTVSPropertyOp6
 70
     1
102
RTVSPropertyOp7
 70
     1
102
RTVSPropertyOp8
 70
     1
102
RTVSPropertyOp9
 70
     1
102
RTVSPropertyOp10
 70
     1
102
RTVSPropertyOp11
 70
     1
102
RTVSPropertyOp12
 70
     1
102
RTVSPropertyOp13
 70
     1
102
RTVSPropertyOp14
 70
     1
102
RTVSPropertyOp15
 70
     1
102
RTVSPropertyOp16
 70
     1
102
RTVSPropertyOp17
 70
     1
102
RTVSPropertyOp18
 70
     1
102
RTVSPropertyOp19
 70
     1
102
RTVSPropertyOp20
 70
     1
102
RTVSPropertyOp21
 70
     1
102
RTVSPropertyOp22
 70
     1
102
RTVSPropertyOp23
 70
     1
102
RTVSPropertyOp24
 70
     1
102
RTVSPropertyOp25
 70
     1
102
RTVSPropertyOp26
 70
     1
102
RTVSPropertyOp27
 70
     1
102
RTVSPropertyOp28
 70
     1
102
RTVSPropertyOp29
 70
     1
102
RTVSPropertyOp30
 70
     1
102
RTVSPropertyOp31
 70
     1
102
RTVSPropertyOp32
 70
     1
102
RTVSPropertyOp33
 70
     1
102
RTVSPropertyOp34
 70
     1
102
RTVSPropertyOp35
 70
     1
102
RTVSPropertyOp36
 70
     1
102
RTVSPropertyOp37
 70
     1
102
RTVSPropertyOp38
 70
     1
102
RTVSPropertyOp39
 70
     1
102
RTVSPropertyOp40
 70
     1
102
RTVSPropertyOp41
 70
     1
102
RTVSPropertyOp42
 70
     1
102
RTVSPropertyOp43
 70
     1
102
RTVSPropertyOp44
 70
     1
102
RTVSPropertyOp45
 70
     1
102
RTVSPropertyOp46
 70
     1
102
RTVSPropertyOp47
 70
     1
102
RTVSPropertyOp48
 70
     1
102
RTVSPropertyOp49
 70
     1
102
RTVSPropertyOp50
 70
     1
102
RTVSPropertyOp51
 70
     0
102
RTVSPropertyOp52
 70
     0
102
RTVSPropertyOp53
 70
     1
102
RTVSPropertyOp54
 70
     1
102
RTVSPropertyOp55
 70
     1
102
RTVSPropertyOp56
 70
     1
102
RTVSPropertyOp57
 70
     1
102
RTVSPropertyOp58
 70
     1
102
RTVSPropertyOp59
 70
     1
102
RTVSPropertyOp60
 70
     1
102
RTVSPropertyOp61
 70
     1
102
RTVSPropertyOp62
 70
     1
  0
XRECORD
  5
A16C
102
{ACAD_REACTORS
330
A16B
102
}
330
A16B
100
AcDbXrecord
280
     1
102
RTVSPost2010Prop28
280
     0
102
RTVSPost2010PropOp28
 70
     1
102
RTVSPost2010Prop29
280
     1
102
RTVSPost2010PropOp29
 70
     1
102
RTVSPost2010Prop30
280
     1
102
RTVSPost2010PropOp30
 70
     1
102
RTVSPost2010Prop31
280
     0
102
RTVSPost2010PropOp31
 70
     1
102
RTVSPost2010Prop32
280
     0
102
RTVSPost2010PropOp32
 70
     1
102
RTVSPost2010Prop33
280
     0
102
RTVSPost2010PropOp33
 70
     1
102
RTVSPost2010Prop34
280
     0
102
RTVSPost2010PropOp34
 70
     1
102
RTVSPost2010Prop35
280
     0
102
RTVSPost2010PropOp35
 70
     1
102
RTVSPost2010Prop36
280
     0
102
RTVSPost2010PropOp36
 70
     1
102
RTVSPost2010Prop37
 90
       50
102
RTVSPost2010PropOp37
 70
     1
102
RTVSPost2010Prop38
140
0.0
102
RTVSPost2010PropOp38
 70
     1
102
RTVSPost2010Prop39
140
1.0
102
RTVSPost2010PropOp39
 70
     1
102
RTVSPost2010Prop40
 90
        0
102
RTVSPost2010PropOp40
 70
     1
102
RTVSPost2010Prop41ColorIndex
 90
       18
102
RTVSPost2010Prop41ColorRGB
 90
        0
102
RTVSPost2010PropOp41
 70
     1
102
RTVSPost2010Prop42
 90
       50
102
RTVSPost2010PropOp42
 70
     1
102
RTVSPost2010Prop43
 90
        3
102
RTVSPost2010PropOp43
 70
     1
102
RTVSPost2010Prop44ColorIndex
 90
        5
102
RTVSPost2010Prop44ColorRGB
 90
      255
102
RTVSPost2010PropOp44
 70
     1
102
RTVSPost2010Prop45
280
     0
102
RTVSPost2010PropOp45
 70
     1
102
RTVSPost2010Prop46
 90
       50
102
RTVSPost2010PropOp46
 70
     1
102
RTVSPost2010Prop47
 90
       50
102
RTVSPost2010PropOp47
 70
     1
102
RTVSPost2010Prop48
 90
       50
102
RTVSPost2010PropOp48
 70
     1
102
RTVSPost2010Prop49
280
     0
102
RTVSPost2010PropOp49
 70
     1
102
RTVSPost2010Prop50
 90
       50
102
RTVSPost2010PropOp50
 70
     1
102
RTVSPost2010Prop51ColorIndex
 90
      256
102
RTVSPost2010Prop51ColorRGB
 90
-16777216
102
RTVSPost2010PropOp51
 70
     0
102
RTVSPost2010Prop52
140
1.0
102
RTVSPost2010PropOp52
 70
     0
102
RTVSPost2010Prop53
 90
        2
102
RTVSPost2010PropOp53
 70
     1
102
RTVSPost2010Prop54
  1
strokes_ogs.tif
102
RTVSPost2010PropOp54
 70
     1
102
RTVSPost2010Prop55
280
     0
102
RTVSPost2010PropOp55
 70
     1
102
RTVSPost2010Prop56
140
1.0
102
RTVSPost2010PropOp56
 70
     1
102
RTVSPost2010Prop57
140
1.0
102
RTVSPost2010PropOp57
 70
     1
102
RTVSPropertyOp0
 70
     1
102
RTVSPropertyOp1
 70
     1
102
RTVSPropertyOp2
 70
     1
102
RTVSPropertyOp3
 70
     1
102
RTVSPropertyOp4
 70
     1
102
RTVSPropertyOp5
 70
     1
102
RTVSPropertyOp6
 70
     1
102
RTVSPropertyOp7
 70
     1
102
RTVSPropertyOp8
 70
     1
102
RTVSPropertyOp9
 70
     1
102
RTVSPropertyOp10
 70
     1
102
RTVSPropertyOp11
 70
     1
102
RTVSPropertyOp12
 70
     1
102
RTVSPropertyOp13
 70
     1
102
RTVSPropertyOp14
 70
     1
102
RTVSPropertyOp15
 70
     1
102
RTVSPropertyOp16
 70
     1
102
RTVSPropertyOp17
 70
     1
102
RTVSPropertyOp18
 70
     1
102
RTVSPropertyOp19
 70
     1
102
RTVSPropertyOp20
 70
     1
102
RTVSPropertyOp21
 70
     1
102
RTVSPropertyOp22
 70
     1
102
RTVSPropertyOp23
 70
     1
102
RTVSPropertyOp24
 70
     1
102
RTVSPropertyOp25
 70
     1
102
RTVSPropertyOp26
 70
     1
102
RTVSPropertyOp27
 70
     1
102
RTVSPropertyOp28
 70
     1
102
RTVSPropertyOp29
 70
     1
102
RTVSPropertyOp30
 70
     1
102
RTVSPropertyOp31
 70
     1
102
RTVSPropertyOp32
 70
     1
102
RTVSPropertyOp33
 70
     1
102
RTVSPropertyOp34
 70
     1
102
RTVSPropertyOp35
 70
     1
102
RTVSPropertyOp36
 70
     1
102
RTVSPropertyOp37
 70
     1
102
RTVSPropertyOp38
 70
     1
102
RTVSPropertyOp39
 70
     1
102
RTVSPropertyOp40
 70
     1
102
RTVSPropertyOp41
 70
     1
102
RTVSPropertyOp42
 70
     1
102
RTVSPropertyOp43
 70
     1
102
RTVSPropertyOp44
 70
     1
102
RTVSPropertyOp45
 70
     1
102
RTVSPropertyOp46
 70
     1
102
RTVSPropertyOp47
 70
     1
102
RTVSPropertyOp48
 70
     1
102
RTVSPropertyOp49
 70
     1
102
RTVSPropertyOp50
 70
     1
102
RTVSPropertyOp51
 70
     0
102
RTVSPropertyOp52
 70
     0
102
RTVSPropertyOp53
 70
     1
102
RTVSPropertyOp54
 70
     1
102
RTVSPropertyOp55
 70
     1
102
RTVSPropertyOp56
 70
     1
102
RTVSPropertyOp57
 70
     1
102
RTVSPropertyOp58
 70
     1
102
RTVSPropertyOp59
 70
     1
102
RTVSPropertyOp60
 70
     1
102
RTVSPropertyOp61
 70
     1
102
RTVSPropertyOp62
 70
     1
  0
XRECORD
  5
A174
102
{ACAD_REACTORS
330
A173
102
}
330
A173
100
AcDbXrecord
280
     1
102
RTVSPost2010Prop28
280
     0
102
RTVSPost2010PropOp28
 70
     1
102
RTVSPost2010Prop29
280
     1
102
RTVSPost2010PropOp29
 70
     1
102
RTVSPost2010Prop30
280
     1
102
RTVSPost2010PropOp30
 70
     1
102
RTVSPost2010Prop31
280
     0
102
RTVSPost2010PropOp31
 70
     1
102
RTVSPost2010Prop32
280
     0
102
RTVSPost2010PropOp32
 70
     1
102
RTVSPost2010Prop33
280
     0
102
RTVSPost2010PropOp33
 70
     1
102
RTVSPost2010Prop34
280
     0
102
RTVSPost2010PropOp34
 70
     1
102
RTVSPost2010Prop35
280
     0
102
RTVSPost2010PropOp35
 70
     1
102
RTVSPost2010Prop36
280
     0
102
RTVSPost2010PropOp36
 70
     1
102
RTVSPost2010Prop37
 90
       50
102
RTVSPost2010PropOp37
 70
     1
102
RTVSPost2010Prop38
140
0.0
102
RTVSPost2010PropOp38
 70
     1
102
RTVSPost2010Prop39
140
1.0
102
RTVSPost2010PropOp39
 70
     1
102
RTVSPost2010Prop40
 90
        0
102
RTVSPost2010PropOp40
 70
     1
102
RTVSPost2010Prop41ColorIndex
 90
       18
102
RTVSPost2010Prop41ColorRGB
 90
        0
102
RTVSPost2010PropOp41
 70
     1
102
RTVSPost2010Prop42
 90
       50
102
RTVSPost2010PropOp42
 70
     1
102
RTVSPost2010Prop43
 90
        3
102
RTVSPost2010PropOp43
 70
     1
102
RTVSPost2010Prop44ColorIndex
 90
        5
102
RTVSPost2010Prop44ColorRGB
 90
      255
102
RTVSPost2010PropOp44
 70
     1
102
RTVSPost2010Prop45
280
     0
102
RTVSPost2010PropOp45
 70
     1
102
RTVSPost2010Prop46
 90
       50
102
RTVSPost2010PropOp46
 70
     1
102
RTVSPost2010Prop47
 90
       50
102
RTVSPost2010PropOp47
 70
     1
102
RTVSPost2010Prop48
 90
       50
102
RTVSPost2010PropOp48
 70
     1
102
RTVSPost2010Prop49
280
     0
102
RTVSPost2010PropOp49
 70
     1
102
RTVSPost2010Prop50
 90
       50
102
RTVSPost2010PropOp50
 70
     1
102
RTVSPost2010Prop51ColorIndex
 90
      256
102
RTVSPost2010Prop51ColorRGB
 90
-16777216
102
RTVSPost2010PropOp51
 70
     0
102
RTVSPost2010Prop52
140
1.0
102
RTVSPost2010PropOp52
 70
     0
102
RTVSPost2010Prop53
 90
        2
102
RTVSPost2010PropOp53
 70
     1
102
RTVSPost2010Prop54
  1
strokes_ogs.tif
102
RTVSPost2010PropOp54
 70
     1
102
RTVSPost2010Prop55
280
     0
102
RTVSPost2010PropOp55
 70
     1
102
RTVSPost2010Prop56
140
1.0
102
RTVSPost2010PropOp56
 70
     1
102
RTVSPost2010Prop57
140
1.0
102
RTVSPost2010PropOp57
 70
     1
102
RTVSPropertyOp0
 70
     1
102
RTVSPropertyOp1
 70
     1
102
RTVSPropertyOp2
 70
     1
102
RTVSPropertyOp3
 70
     1
102
RTVSPropertyOp4
 70
     1
102
RTVSPropertyOp5
 70
     1
102
RTVSPropertyOp6
 70
     1
102
RTVSPropertyOp7
 70
     1
102
RTVSPropertyOp8
 70
     1
102
RTVSPropertyOp9
 70
     1
102
RTVSPropertyOp10
 70
     1
102
RTVSPropertyOp11
 70
     1
102
RTVSPropertyOp12
 70
     1
102
RTVSPropertyOp13
 70
     1
102
RTVSPropertyOp14
 70
     1
102
RTVSPropertyOp15
 70
     1
102
RTVSPropertyOp16
 70
     1
102
RTVSPropertyOp17
 70
     1
102
RTVSPropertyOp18
 70
     1
102
RTVSPropertyOp19
 70
     1
102
RTVSPropertyOp20
 70
     1
102
RTVSPropertyOp21
 70
     1
102
RTVSPropertyOp22
 70
     1
102
RTVSPropertyOp23
 70
     1
102
RTVSPropertyOp24
 70
     1
102
RTVSPropertyOp25
 70
     1
102
RTVSPropertyOp26
 70
     1
102
RTVSPropertyOp27
 70
     1
102
RTVSPropertyOp28
 70
     1
102
RTVSPropertyOp29
 70
     1
102
RTVSPropertyOp30
 70
     1
102
RTVSPropertyOp31
 70
     1
102
RTVSPropertyOp32
 70
     1
102
RTVSPropertyOp33
 70
     1
102
RTVSPropertyOp34
 70
     1
102
RTVSPropertyOp35
 70
     1
102
RTVSPropertyOp36
 70
     1
102
RTVSPropertyOp37
 70
     1
102
RTVSPropertyOp38
 70
     1
102
RTVSPropertyOp39
 70
     1
102
RTVSPropertyOp40
 70
     1
102
RTVSPropertyOp41
 70
     1
102
RTVSPropertyOp42
 70
     1
102
RTVSPropertyOp43
 70
     1
102
RTVSPropertyOp44
 70
     1
102
RTVSPropertyOp45
 70
     1
102
RTVSPropertyOp46
 70
     1
102
RTVSPropertyOp47
 70
     1
102
RTVSPropertyOp48
 70
     1
102
RTVSPropertyOp49
 70
     1
102
RTVSPropertyOp50
 70
     1
102
RTVSPropertyOp51
 70
     0
102
RTVSPropertyOp52
 70
     0
102
RTVSPropertyOp53
 70
     1
102
RTVSPropertyOp54
 70
     1
102
RTVSPropertyOp55
 70
     1
102
RTVSPropertyOp56
 70
     1
102
RTVSPropertyOp57
 70
     1
102
RTVSPropertyOp58
 70
     1
102
RTVSPropertyOp59
 70
     1
102
RTVSPropertyOp60
 70
     1
102
RTVSPropertyOp61
 70
     1
102
RTVSPropertyOp62
 70
     1
  0
XRECORD
  5
A190
102
{ACAD_REACTORS
330
A18F
102
}
330
A18F
100
AcDbXrecord
280
     1
102
RTVSPost2010Prop28
280
     0
102
RTVSPost2010PropOp28
 70
     1
102
RTVSPost2010Prop29
280
     1
102
RTVSPost2010PropOp29
 70
     1
102
RTVSPost2010Prop30
280
     1
102
RTVSPost2010PropOp30
 70
     1
102
RTVSPost2010Prop31
280
     0
102
RTVSPost2010PropOp31
 70
     1
102
RTVSPost2010Prop32
280
     0
102
RTVSPost2010PropOp32
 70
     1
102
RTVSPost2010Prop33
280
     0
102
RTVSPost2010PropOp33
 70
     1
102
RTVSPost2010Prop34
280
     0
102
RTVSPost2010PropOp34
 70
     1
102
RTVSPost2010Prop35
280
     0
102
RTVSPost2010PropOp35
 70
     1
102
RTVSPost2010Prop36
280
     0
102
RTVSPost2010PropOp36
 70
     1
102
RTVSPost2010Prop37
 90
       50
102
RTVSPost2010PropOp37
 70
     0
102
RTVSPost2010Prop38
140
0.0
102
RTVSPost2010PropOp38
 70
     0
102
RTVSPost2010Prop39
140
1.0
102
RTVSPost2010PropOp39
 70
     0
102
RTVSPost2010Prop40
 90
        0
102
RTVSPost2010PropOp40
 70
     0
102
RTVSPost2010Prop41ColorIndex
 90
       18
102
RTVSPost2010Prop41ColorRGB
 90
        0
102
RTVSPost2010PropOp41
 70
     0
102
RTVSPost2010Prop42
 90
       50
102
RTVSPost2010PropOp42
 70
     0
102
RTVSPost2010Prop43
 90
        3
102
RTVSPost2010PropOp43
 70
     0
102
RTVSPost2010Prop44ColorIndex
 90
        5
102
RTVSPost2010Prop44ColorRGB
 90
      255
102
RTVSPost2010PropOp44
 70
     0
102
RTVSPost2010Prop45
280
     0
102
RTVSPost2010PropOp45
 70
     1
102
RTVSPost2010Prop46
 90
       50
102
RTVSPost2010PropOp46
 70
     0
102
RTVSPost2010Prop47
 90
       50
102
RTVSPost2010PropOp47
 70
     0
102
RTVSPost2010Prop48
 90
       50
102
RTVSPost2010PropOp48
 70
     0
102
RTVSPost2010Prop49
280
     0
102
RTVSPost2010PropOp49
 70
     1
102
RTVSPost2010Prop50
 90
       50
102
RTVSPost2010PropOp50
 70
     0
102
RTVSPost2010Prop51ColorIndex
 90
      256
102
RTVSPost2010Prop51ColorRGB
 90
-16777216
102
RTVSPost2010PropOp51
 70
     0
102
RTVSPost2010Prop52
140
1.0
102
RTVSPost2010PropOp52
 70
     0
102
RTVSPost2010Prop53
 90
        2
102
RTVSPost2010PropOp53
 70
     0
102
RTVSPost2010Prop54
  1
strokes_ogs.tif
102
RTVSPost2010PropOp54
 70
     0
102
RTVSPost2010Prop55
280
     0
102
RTVSPost2010PropOp55
 70
     1
102
RTVSPost2010Prop56
140
1.0
102
RTVSPost2010PropOp56
 70
     0
102
RTVSPost2010Prop57
140
1.0
102
RTVSPost2010PropOp57
 70
     0
102
RTVSPropertyOp0
 70
     0
102
RTVSPropertyOp1
 70
     0
102
RTVSPropertyOp2
 70
     0
102
RTVSPropertyOp3
 70
     0
102
RTVSPropertyOp4
 70
     0
102
RTVSPropertyOp5
 70
     0
102
RTVSPropertyOp6
 70
     0
102
RTVSPropertyOp7
 70
     0
102
RTVSPropertyOp8
 70
     0
102
RTVSPropertyOp9
 70
     0
102
RTVSPropertyOp10
 70
     0
102
RTVSPropertyOp11
 70
     0
102
RTVSPropertyOp12
 70
     0
102
RTVSPropertyOp13
 70
     0
102
RTVSPropertyOp14
 70
     2
102
RTVSPropertyOp15
 70
     0
102
RTVSPropertyOp16
 70
     0
102
RTVSPropertyOp17
 70
     0
102
RTVSPropertyOp18
 70
     0
102
RTVSPropertyOp19
 70
     0
102
RTVSPropertyOp20
 70
     0
102
RTVSPropertyOp21
 70
     0
102
RTVSPropertyOp22
 70
     0
102
RTVSPropertyOp23
 70
     0
102
RTVSPropertyOp24
 70
     0
102
RTVSPropertyOp25
 70
     0
102
RTVSPropertyOp26
 70
     0
102
RTVSPropertyOp27
 70
     0
102
RTVSPropertyOp28
 70
     1
102
RTVSPropertyOp29
 70
     1
102
RTVSPropertyOp30
 70
     1
102
RTVSPropertyOp31
 70
     1
102
RTVSPropertyOp32
 70
     1
102
RTVSPropertyOp33
 70
     1
102
RTVSPropertyOp34
 70
     1
102
RTVSPropertyOp35
 70
     1
102
RTVSPropertyOp36
 70
     1
102
RTVSPropertyOp37
 70
     0
102
RTVSPropertyOp38
 70
     0
102
RTVSPropertyOp39
 70
     0
102
RTVSPropertyOp40
 70
     0
102
RTVSPropertyOp41
 70
     0
102
RTVSPropertyOp42
 70
     0
102
RTVSPropertyOp43
 70
     0
102
RTVSPropertyOp44
 70
     0
102
RTVSPropertyOp45
 70
     1
102
RTVSPropertyOp46
 70
     0
102
RTVSPropertyOp47
 70
     0
102
RTVSPropertyOp48
 70
     0
102
RTVSPropertyOp49
 70
     1
102
RTVSPropertyOp50
 70
     0
102
RTVSPropertyOp51
 70
     0
102
RTVSPropertyOp52
 70
     0
102
RTVSPropertyOp53
 70
     0
102
RTVSPropertyOp54
 70
     0
102
RTVSPropertyOp55
 70
     1
102
RTVSPropertyOp56
 70
     0
102
RTVSPropertyOp57
 70
     0
102
RTVSPropertyOp58
 70
     0
102
RTVSPropertyOp59
 70
     0
102
RTVSPropertyOp60
 70
     0
102
RTVSPropertyOp61
 70
     0
102
RTVSPropertyOp62
 70
     0
  0
XRECORD
  5
A180
102
{ACAD_REACTORS
330
A17F
102
}
330
A17F
100
AcDbXrecord
280
     1
102
RTVSPost2010Prop28
280
     0
102
RTVSPost2010PropOp28
 70
     1
102
RTVSPost2010Prop29
280
     1
102
RTVSPost2010PropOp29
 70
     1
102
RTVSPost2010Prop30
280
     1
102
RTVSPost2010PropOp30
 70
     1
102
RTVSPost2010Prop31
280
     0
102
RTVSPost2010PropOp31
 70
     1
102
RTVSPost2010Prop32
280
     0
102
RTVSPost2010PropOp32
 70
     1
102
RTVSPost2010Prop33
280
     0
102
RTVSPost2010PropOp33
 70
     1
102
RTVSPost2010Prop34
280
     0
102
RTVSPost2010PropOp34
 70
     1
102
RTVSPost2010Prop35
280
     0
102
RTVSPost2010PropOp35
 70
     1
102
RTVSPost2010Prop36
280
     0
102
RTVSPost2010PropOp36
 70
     1
102
RTVSPost2010Prop37
 90
       50
102
RTVSPost2010PropOp37
 70
     1
102
RTVSPost2010Prop38
140
0.0
102
RTVSPost2010PropOp38
 70
     1
102
RTVSPost2010Prop39
140
1.0
102
RTVSPost2010PropOp39
 70
     1
102
RTVSPost2010Prop40
 90
        0
102
RTVSPost2010PropOp40
 70
     1
102
RTVSPost2010Prop41ColorIndex
 90
       18
102
RTVSPost2010Prop41ColorRGB
 90
        0
102
RTVSPost2010PropOp41
 70
     1
102
RTVSPost2010Prop42
 90
       50
102
RTVSPost2010PropOp42
 70
     1
102
RTVSPost2010Prop43
 90
        3
102
RTVSPost2010PropOp43
 70
     1
102
RTVSPost2010Prop44ColorIndex
 90
        5
102
RTVSPost2010Prop44ColorRGB
 90
      255
102
RTVSPost2010PropOp44
 70
     1
102
RTVSPost2010Prop45
280
     0
102
RTVSPost2010PropOp45
 70
     1
102
RTVSPost2010Prop46
 90
       50
102
RTVSPost2010PropOp46
 70
     1
102
RTVSPost2010Prop47
 90
       50
102
RTVSPost2010PropOp47
 70
     1
102
RTVSPost2010Prop48
 90
       50
102
RTVSPost2010PropOp48
 70
     1
102
RTVSPost2010Prop49
280
     0
102
RTVSPost2010PropOp49
 70
     1
102
RTVSPost2010Prop50
 90
       50
102
RTVSPost2010PropOp50
 70
     1
102
RTVSPost2010Prop51ColorIndex
 90
      256
102
RTVSPost2010Prop51ColorRGB
 90
-16777216
102
RTVSPost2010PropOp51
 70
     0
102
RTVSPost2010Prop52
140
1.0
102
RTVSPost2010PropOp52
 70
     0
102
RTVSPost2010Prop53
 90
        2
102
RTVSPost2010PropOp53
 70
     1
102
RTVSPost2010Prop54
  1
strokes_ogs.tif
102
RTVSPost2010PropOp54
 70
     1
102
RTVSPost2010Prop55
280
     0
102
RTVSPost2010PropOp55
 70
     1
102
RTVSPost2010Prop56
140
1.0
102
RTVSPost2010PropOp56
 70
     1
102
RTVSPost2010Prop57
140
1.0
102
RTVSPost2010PropOp57
 70
     1
102
RTVSPropertyOp0
 70
     1
102
RTVSPropertyOp1
 70
     1
102
RTVSPropertyOp2
 70
     1
102
RTVSPropertyOp3
 70
     1
102
RTVSPropertyOp4
 70
     1
102
RTVSPropertyOp5
 70
     1
102
RTVSPropertyOp6
 70
     1
102
RTVSPropertyOp7
 70
     1
102
RTVSPropertyOp8
 70
     1
102
RTVSPropertyOp9
 70
     1
102
RTVSPropertyOp10
 70
     1
102
RTVSPropertyOp11
 70
     1
102
RTVSPropertyOp12
 70
     1
102
RTVSPropertyOp13
 70
     1
102
RTVSPropertyOp14
 70
     1
102
RTVSPropertyOp15
 70
     1
102
RTVSPropertyOp16
 70
     1
102
RTVSPropertyOp17
 70
     1
102
RTVSPropertyOp18
 70
     1
102
RTVSPropertyOp19
 70
     1
102
RTVSPropertyOp20
 70
     1
102
RTVSPropertyOp21
 70
     1
102
RTVSPropertyOp22
 70
     1
102
RTVSPropertyOp23
 70
     1
102
RTVSPropertyOp24
 70
     1
102
RTVSPropertyOp25
 70
     1
102
RTVSPropertyOp26
 70
     1
102
RTVSPropertyOp27
 70
     1
102
RTVSPropertyOp28
 70
     1
102
RTVSPropertyOp29
 70
     1
102
RTVSPropertyOp30
 70
     1
102
RTVSPropertyOp31
 70
     1
102
RTVSPropertyOp32
 70
     1
102
RTVSPropertyOp33
 70
     1
102
RTVSPropertyOp34
 70
     1
102
RTVSPropertyOp35
 70
     1
102
RTVSPropertyOp36
 70
     1
102
RTVSPropertyOp37
 70
     1
102
RTVSPropertyOp38
 70
     1
102
RTVSPropertyOp39
 70
     1
102
RTVSPropertyOp40
 70
     1
102
RTVSPropertyOp41
 70
     1
102
RTVSPropertyOp42
 70
     1
102
RTVSPropertyOp43
 70
     1
102
RTVSPropertyOp44
 70
     1
102
RTVSPropertyOp45
 70
     1
102
RTVSPropertyOp46
 70
     1
102
RTVSPropertyOp47
 70
     1
102
RTVSPropertyOp48
 70
     1
102
RTVSPropertyOp49
 70
     1
102
RTVSPropertyOp50
 70
     1
102
RTVSPropertyOp51
 70
     0
102
RTVSPropertyOp52
 70
     0
102
RTVSPropertyOp53
 70
     1
102
RTVSPropertyOp54
 70
     1
102
RTVSPropertyOp55
 70
     1
102
RTVSPropertyOp56
 70
     1
102
RTVSPropertyOp57
 70
     1
102
RTVSPropertyOp58
 70
     1
102
RTVSPropertyOp59
 70
     1
102
RTVSPropertyOp60
 70
     1
102
RTVSPropertyOp61
 70
     1
102
RTVSPropertyOp62
 70
     1
  0
XRECORD
  5
A192
102
{ACAD_REACTORS
330
A191
102
}
330
A191
100
AcDbXrecord
280
     1
102
RTVSPost2010Prop28
280
     0
102
RTVSPost2010PropOp28
 70
     1
102
RTVSPost2010Prop29
280
     1
102
RTVSPost2010PropOp29
 70
     1
102
RTVSPost2010Prop30
280
     1
102
RTVSPost2010PropOp30
 70
     1
102
RTVSPost2010Prop31
280
     0
102
RTVSPost2010PropOp31
 70
     1
102
RTVSPost2010Prop32
280
     0
102
RTVSPost2010PropOp32
 70
     1
102
RTVSPost2010Prop33
280
     0
102
RTVSPost2010PropOp33
 70
     1
102
RTVSPost2010Prop34
280
     0
102
RTVSPost2010PropOp34
 70
     1
102
RTVSPost2010Prop35
280
     0
102
RTVSPost2010PropOp35
 70
     1
102
RTVSPost2010Prop36
280
     0
102
RTVSPost2010PropOp36
 70
     1
102
RTVSPost2010Prop37
 90
       50
102
RTVSPost2010PropOp37
 70
     0
102
RTVSPost2010Prop38
140
0.0
102
RTVSPost2010PropOp38
 70
     0
102
RTVSPost2010Prop39
140
1.0
102
RTVSPost2010PropOp39
 70
     0
102
RTVSPost2010Prop40
 90
        0
102
RTVSPost2010PropOp40
 70
     0
102
RTVSPost2010Prop41ColorIndex
 90
       18
102
RTVSPost2010Prop41ColorRGB
 90
        0
102
RTVSPost2010PropOp41
 70
     0
102
RTVSPost2010Prop42
 90
       50
102
RTVSPost2010PropOp42
 70
     0
102
RTVSPost2010Prop43
 90
        3
102
RTVSPost2010PropOp43
 70
     0
102
RTVSPost2010Prop44ColorIndex
 90
        5
102
RTVSPost2010Prop44ColorRGB
 90
      255
102
RTVSPost2010PropOp44
 70
     0
102
RTVSPost2010Prop45
280
     0
102
RTVSPost2010PropOp45
 70
     1
102
RTVSPost2010Prop46
 90
       50
102
RTVSPost2010PropOp46
 70
     0
102
RTVSPost2010Prop47
 90
       50
102
RTVSPost2010PropOp47
 70
     0
102
RTVSPost2010Prop48
 90
       50
102
RTVSPost2010PropOp48
 70
     0
102
RTVSPost2010Prop49
280
     0
102
RTVSPost2010PropOp49
 70
     1
102
RTVSPost2010Prop50
 90
       50
102
RTVSPost2010PropOp50
 70
     0
102
RTVSPost2010Prop51ColorIndex
 90
      256
102
RTVSPost2010Prop51ColorRGB
 90
-16777216
102
RTVSPost2010PropOp51
 70
     0
102
RTVSPost2010Prop52
140
1.0
102
RTVSPost2010PropOp52
 70
     0
102
RTVSPost2010Prop53
 90
        2
102
RTVSPost2010PropOp53
 70
     0
102
RTVSPost2010Prop54
  1
strokes_ogs.tif
102
RTVSPost2010PropOp54
 70
     0
102
RTVSPost2010Prop55
280
     0
102
RTVSPost2010PropOp55
 70
     1
102
RTVSPost2010Prop56
140
1.0
102
RTVSPost2010PropOp56
 70
     0
102
RTVSPost2010Prop57
140
1.0
102
RTVSPost2010PropOp57
 70
     0
102
RTVSPropertyOp0
 70
     0
102
RTVSPropertyOp1
 70
     0
102
RTVSPropertyOp2
 70
     0
102
RTVSPropertyOp3
 70
     0
102
RTVSPropertyOp4
 70
     0
102
RTVSPropertyOp5
 70
     0
102
RTVSPropertyOp6
 70
     0
102
RTVSPropertyOp7
 70
     0
102
RTVSPropertyOp8
 70
     0
102
RTVSPropertyOp9
 70
     0
102
RTVSPropertyOp10
 70
     0
102
RTVSPropertyOp11
 70
     0
102
RTVSPropertyOp12
 70
     0
102
RTVSPropertyOp13
 70
     0
102
RTVSPropertyOp14
 70
     2
102
RTVSPropertyOp15
 70
     0
102
RTVSPropertyOp16
 70
     0
102
RTVSPropertyOp17
 70
     0
102
RTVSPropertyOp18
 70
     0
102
RTVSPropertyOp19
 70
     0
102
RTVSPropertyOp20
 70
     0
102
RTVSPropertyOp21
 70
     0
102
RTVSPropertyOp22
 70
     0
102
RTVSPropertyOp23
 70
     0
102
RTVSPropertyOp24
 70
     0
102
RTVSPropertyOp25
 70
     0
102
RTVSPropertyOp26
 70
     0
102
RTVSPropertyOp27
 70
     0
102
RTVSPropertyOp28
 70
     1
102
RTVSPropertyOp29
 70
     1
102
RTVSPropertyOp30
 70
     1
102
RTVSPropertyOp31
 70
     1
102
RTVSPropertyOp32
 70
     1
102
RTVSPropertyOp33
 70
     1
102
RTVSPropertyOp34
 70
     1
102
RTVSPropertyOp35
 70
     1
102
RTVSPropertyOp36
 70
     1
102
RTVSPropertyOp37
 70
     0
102
RTVSPropertyOp38
 70
     0
102
RTVSPropertyOp39
 70
     0
102
RTVSPropertyOp40
 70
     0
102
RTVSPropertyOp41
 70
     0
102
RTVSPropertyOp42
 70
     0
102
RTVSPropertyOp43
 70
     0
102
RTVSPropertyOp44
 70
     0
102
RTVSPropertyOp45
 70
     1
102
RTVSPropertyOp46
 70
     0
102
RTVSPropertyOp47
 70
     0
102
RTVSPropertyOp48
 70
     0
102
RTVSPropertyOp49
 70
     1
102
RTVSPropertyOp50
 70
     0
102
RTVSPropertyOp51
 70
     0
102
RTVSPropertyOp52
 70
     0
102
RTVSPropertyOp53
 70
     0
102
RTVSPropertyOp54
 70
     0
102
RTVSPropertyOp55
 70
     1
102
RTVSPropertyOp56
 70
     0
102
RTVSPropertyOp57
 70
     0
102
RTVSPropertyOp58
 70
     0
102
RTVSPropertyOp59
 70
     0
102
RTVSPropertyOp60
 70
     0
102
RTVSPropertyOp61
 70
     0
102
RTVSPropertyOp62
 70
     0
  0
XRECORD
  5
A178
102
{ACAD_REACTORS
330
A177
102
}
330
A177
100
AcDbXrecord
280
     1
102
RTVSPost2010Prop28
280
     0
102
RTVSPost2010PropOp28
 70
     1
102
RTVSPost2010Prop29
280
     1
102
RTVSPost2010PropOp29
 70
     1
102
RTVSPost2010Prop30
280
     1
102
RTVSPost2010PropOp30
 70
     1
102
RTVSPost2010Prop31
280
     0
102
RTVSPost2010PropOp31
 70
     1
102
RTVSPost2010Prop32
280
     0
102
RTVSPost2010PropOp32
 70
     1
102
RTVSPost2010Prop33
280
     0
102
RTVSPost2010PropOp33
 70
     1
102
RTVSPost2010Prop34
280
     0
102
RTVSPost2010PropOp34
 70
     1
102
RTVSPost2010Prop35
280
     0
102
RTVSPost2010PropOp35
 70
     1
102
RTVSPost2010Prop36
280
     0
102
RTVSPost2010PropOp36
 70
     1
102
RTVSPost2010Prop37
 90
       50
102
RTVSPost2010PropOp37
 70
     1
102
RTVSPost2010Prop38
140
0.0
102
RTVSPost2010PropOp38
 70
     1
102
RTVSPost2010Prop39
140
1.0
102
RTVSPost2010PropOp39
 70
     1
102
RTVSPost2010Prop40
 90
        0
102
RTVSPost2010PropOp40
 70
     1
102
RTVSPost2010Prop41ColorIndex
 90
       18
102
RTVSPost2010Prop41ColorRGB
 90
        0
102
RTVSPost2010PropOp41
 70
     1
102
RTVSPost2010Prop42
 90
       50
102
RTVSPost2010PropOp42
 70
     1
102
RTVSPost2010Prop43
 90
        3
102
RTVSPost2010PropOp43
 70
     1
102
RTVSPost2010Prop44ColorIndex
 90
        5
102
RTVSPost2010Prop44ColorRGB
 90
      255
102
RTVSPost2010PropOp44
 70
     1
102
RTVSPost2010Prop45
280
     0
102
RTVSPost2010PropOp45
 70
     1
102
RTVSPost2010Prop46
 90
       50
102
RTVSPost2010PropOp46
 70
     1
102
RTVSPost2010Prop47
 90
       50
102
RTVSPost2010PropOp47
 70
     1
102
RTVSPost2010Prop48
 90
       50
102
RTVSPost2010PropOp48
 70
     1
102
RTVSPost2010Prop49
280
     0
102
RTVSPost2010PropOp49
 70
     1
102
RTVSPost2010Prop50
 90
       50
102
RTVSPost2010PropOp50
 70
     1
102
RTVSPost2010Prop51ColorIndex
 90
      256
102
RTVSPost2010Prop51ColorRGB
 90
-16777216
102
RTVSPost2010PropOp51
 70
     0
102
RTVSPost2010Prop52
140
1.0
102
RTVSPost2010PropOp52
 70
     0
102
RTVSPost2010Prop53
 90
        2
102
RTVSPost2010PropOp53
 70
     1
102
RTVSPost2010Prop54
  1
strokes_ogs.tif
102
RTVSPost2010PropOp54
 70
     1
102
RTVSPost2010Prop55
280
     0
102
RTVSPost2010PropOp55
 70
     1
102
RTVSPost2010Prop56
140
1.0
102
RTVSPost2010PropOp56
 70
     1
102
RTVSPost2010Prop57
140
1.0
102
RTVSPost2010PropOp57
 70
     1
102
RTVSPropertyOp0
 70
     1
102
RTVSPropertyOp1
 70
     1
102
RTVSPropertyOp2
 70
     1
102
RTVSPropertyOp3
 70
     1
102
RTVSPropertyOp4
 70
     1
102
RTVSPropertyOp5
 70
     1
102
RTVSPropertyOp6
 70
     1
102
RTVSPropertyOp7
 70
     1
102
RTVSPropertyOp8
 70
     1
102
RTVSPropertyOp9
 70
     1
102
RTVSPropertyOp10
 70
     1
102
RTVSPropertyOp11
 70
     1
102
RTVSPropertyOp12
 70
     1
102
RTVSPropertyOp13
 70
     1
102
RTVSPropertyOp14
 70
     1
102
RTVSPropertyOp15
 70
     1
102
RTVSPropertyOp16
 70
     1
102
RTVSPropertyOp17
 70
     1
102
RTVSPropertyOp18
 70
     1
102
RTVSPropertyOp19
 70
     1
102
RTVSPropertyOp20
 70
     1
102
RTVSPropertyOp21
 70
     1
102
RTVSPropertyOp22
 70
     1
102
RTVSPropertyOp23
 70
     1
102
RTVSPropertyOp24
 70
     1
102
RTVSPropertyOp25
 70
     1
102
RTVSPropertyOp26
 70
     1
102
RTVSPropertyOp27
 70
     1
102
RTVSPropertyOp28
 70
     1
102
RTVSPropertyOp29
 70
     1
102
RTVSPropertyOp30
 70
     1
102
RTVSPropertyOp31
 70
     1
102
RTVSPropertyOp32
 70
     1
102
RTVSPropertyOp33
 70
     1
102
RTVSPropertyOp34
 70
     1
102
RTVSPropertyOp35
 70
     1
102
RTVSPropertyOp36
 70
     1
102
RTVSPropertyOp37
 70
     1
102
RTVSPropertyOp38
 70
     1
102
RTVSPropertyOp39
 70
     1
102
RTVSPropertyOp40
 70
     1
102
RTVSPropertyOp41
 70
     1
102
RTVSPropertyOp42
 70
     1
102
RTVSPropertyOp43
 70
     1
102
RTVSPropertyOp44
 70
     1
102
RTVSPropertyOp45
 70
     1
102
RTVSPropertyOp46
 70
     1
102
RTVSPropertyOp47
 70
     1
102
RTVSPropertyOp48
 70
     1
102
RTVSPropertyOp49
 70
     1
102
RTVSPropertyOp50
 70
     1
102
RTVSPropertyOp51
 70
     0
102
RTVSPropertyOp52
 70
     0
102
RTVSPropertyOp53
 70
     1
102
RTVSPropertyOp54
 70
     1
102
RTVSPropertyOp55
 70
     1
102
RTVSPropertyOp56
 70
     1
102
RTVSPropertyOp57
 70
     1
102
RTVSPropertyOp58
 70
     1
102
RTVSPropertyOp59
 70
     1
102
RTVSPropertyOp60
 70
     1
102
RTVSPropertyOp61
 70
     1
102
RTVSPropertyOp62
 70
     1
  0
XRECORD
  5
A18E
102
{ACAD_REACTORS
330
A18D
102
}
330
A18D
100
AcDbXrecord
280
     1
102
RTVSPost2010Prop28
280
     0
102
RTVSPost2010PropOp28
 70
     1
102
RTVSPost2010Prop29
280
     1
102
RTVSPost2010PropOp29
 70
     1
102
RTVSPost2010Prop30
280
     1
102
RTVSPost2010PropOp30
 70
     1
102
RTVSPost2010Prop31
280
     0
102
RTVSPost2010PropOp31
 70
     1
102
RTVSPost2010Prop32
280
     0
102
RTVSPost2010PropOp32
 70
     1
102
RTVSPost2010Prop33
280
     0
102
RTVSPost2010PropOp33
 70
     1
102
RTVSPost2010Prop34
280
     0
102
RTVSPost2010PropOp34
 70
     1
102
RTVSPost2010Prop35
280
     0
102
RTVSPost2010PropOp35
 70
     1
102
RTVSPost2010Prop36
280
     0
102
RTVSPost2010PropOp36
 70
     1
102
RTVSPost2010Prop37
 90
       50
102
RTVSPost2010PropOp37
 70
     1
102
RTVSPost2010Prop38
140
0.0
102
RTVSPost2010PropOp38
 70
     1
102
RTVSPost2010Prop39
140
1.0
102
RTVSPost2010PropOp39
 70
     1
102
RTVSPost2010Prop40
 90
        0
102
RTVSPost2010PropOp40
 70
     1
102
RTVSPost2010Prop41ColorIndex
 90
       18
102
RTVSPost2010Prop41ColorRGB
 90
        0
102
RTVSPost2010PropOp41
 70
     1
102
RTVSPost2010Prop42
 90
       50
102
RTVSPost2010PropOp42
 70
     1
102
RTVSPost2010Prop43
 90
        3
102
RTVSPost2010PropOp43
 70
     1
102
RTVSPost2010Prop44ColorIndex
 90
        5
102
RTVSPost2010Prop44ColorRGB
 90
      255
102
RTVSPost2010PropOp44
 70
     1
102
RTVSPost2010Prop45
280
     0
102
RTVSPost2010PropOp45
 70
     1
102
RTVSPost2010Prop46
 90
       50
102
RTVSPost2010PropOp46
 70
     1
102
RTVSPost2010Prop47
 90
       50
102
RTVSPost2010PropOp47
 70
     1
102
RTVSPost2010Prop48
 90
       50
102
RTVSPost2010PropOp48
 70
     1
102
RTVSPost2010Prop49
280
     0
102
RTVSPost2010PropOp49
 70
     1
102
RTVSPost2010Prop50
 90
       50
102
RTVSPost2010PropOp50
 70
     1
102
RTVSPost2010Prop51ColorIndex
 90
      256
102
RTVSPost2010Prop51ColorRGB
 90
-16777216
102
RTVSPost2010PropOp51
 70
     0
102
RTVSPost2010Prop52
140
1.0
102
RTVSPost2010PropOp52
 70
     0
102
RTVSPost2010Prop53
 90
        2
102
RTVSPost2010PropOp53
 70
     1
102
RTVSPost2010Prop54
  1
strokes_ogs.tif
102
RTVSPost2010PropOp54
 70
     1
102
RTVSPost2010Prop55
280
     0
102
RTVSPost2010PropOp55
 70
     1
102
RTVSPost2010Prop56
140
1.0
102
RTVSPost2010PropOp56
 70
     1
102
RTVSPost2010Prop57
140
1.0
102
RTVSPost2010PropOp57
 70
     1
102
RTVSPropertyOp0
 70
     1
102
RTVSPropertyOp1
 70
     1
102
RTVSPropertyOp2
 70
     1
102
RTVSPropertyOp3
 70
     1
102
RTVSPropertyOp4
 70
     1
102
RTVSPropertyOp5
 70
     1
102
RTVSPropertyOp6
 70
     1
102
RTVSPropertyOp7
 70
     1
102
RTVSPropertyOp8
 70
     1
102
RTVSPropertyOp9
 70
     1
102
RTVSPropertyOp10
 70
     1
102
RTVSPropertyOp11
 70
     1
102
RTVSPropertyOp12
 70
     1
102
RTVSPropertyOp13
 70
     1
102
RTVSPropertyOp14
 70
     1
102
RTVSPropertyOp15
 70
     1
102
RTVSPropertyOp16
 70
     1
102
RTVSPropertyOp17
 70
     1
102
RTVSPropertyOp18
 70
     1
102
RTVSPropertyOp19
 70
     1
102
RTVSPropertyOp20
 70
     1
102
RTVSPropertyOp21
 70
     1
102
RTVSPropertyOp22
 70
     1
102
RTVSPropertyOp23
 70
     1
102
RTVSPropertyOp24
 70
     1
102
RTVSPropertyOp25
 70
     1
102
RTVSPropertyOp26
 70
     1
102
RTVSPropertyOp27
 70
     1
102
RTVSPropertyOp28
 70
     1
102
RTVSPropertyOp29
 70
     1
102
RTVSPropertyOp30
 70
     1
102
RTVSPropertyOp31
 70
     1
102
RTVSPropertyOp32
 70
     1
102
RTVSPropertyOp33
 70
     1
102
RTVSPropertyOp34
 70
     1
102
RTVSPropertyOp35
 70
     1
102
RTVSPropertyOp36
 70
     1
102
RTVSPropertyOp37
 70
     1
102
RTVSPropertyOp38
 70
     1
102
RTVSPropertyOp39
 70
     1
102
RTVSPropertyOp40
 70
     1
102
RTVSPropertyOp41
 70
     1
102
RTVSPropertyOp42
 70
     1
102
RTVSPropertyOp43
 70
     1
102
RTVSPropertyOp44
 70
     1
102
RTVSPropertyOp45
 70
     1
102
RTVSPropertyOp46
 70
     1
102
RTVSPropertyOp47
 70
     1
102
RTVSPropertyOp48
 70
     1
102
RTVSPropertyOp49
 70
     1
102
RTVSPropertyOp50
 70
     1
102
RTVSPropertyOp51
 70
     0
102
RTVSPropertyOp52
 70
     0
102
RTVSPropertyOp53
 70
     1
102
RTVSPropertyOp54
 70
     1
102
RTVSPropertyOp55
 70
     1
102
RTVSPropertyOp56
 70
     1
102
RTVSPropertyOp57
 70
     1
102
RTVSPropertyOp58
 70
     1
102
RTVSPropertyOp59
 70
     1
102
RTVSPropertyOp60
 70
     1
102
RTVSPropertyOp61
 70
     1
102
RTVSPropertyOp62
 70
     1
  0
XRECORD
  5
A18C
102
{ACAD_REACTORS
330
A18B
102
}
330
A18B
100
AcDbXrecord
280
     1
102
RTVSPost2010Prop28
280
     0
102
RTVSPost2010PropOp28
 70
     1
102
RTVSPost2010Prop29
280
     1
102
RTVSPost2010PropOp29
 70
     1
102
RTVSPost2010Prop30
280
     1
102
RTVSPost2010PropOp30
 70
     1
102
RTVSPost2010Prop31
280
     0
102
RTVSPost2010PropOp31
 70
     1
102
RTVSPost2010Prop32
280
     0
102
RTVSPost2010PropOp32
 70
     1
102
RTVSPost2010Prop33
280
     0
102
RTVSPost2010PropOp33
 70
     1
102
RTVSPost2010Prop34
280
     0
102
RTVSPost2010PropOp34
 70
     1
102
RTVSPost2010Prop35
280
     0
102
RTVSPost2010PropOp35
 70
     1
102
RTVSPost2010Prop36
280
     0
102
RTVSPost2010PropOp36
 70
     1
102
RTVSPost2010Prop37
 90
       50
102
RTVSPost2010PropOp37
 70
     1
102
RTVSPost2010Prop38
140
0.0
102
RTVSPost2010PropOp38
 70
     1
102
RTVSPost2010Prop39
140
1.0
102
RTVSPost2010PropOp39
 70
     1
102
RTVSPost2010Prop40
 90
        0
102
RTVSPost2010PropOp40
 70
     1
102
RTVSPost2010Prop41ColorIndex
 90
       18
102
RTVSPost2010Prop41ColorRGB
 90
        0
102
RTVSPost2010PropOp41
 70
     1
102
RTVSPost2010Prop42
 90
       50
102
RTVSPost2010PropOp42
 70
     1
102
RTVSPost2010Prop43
 90
        3
102
RTVSPost2010PropOp43
 70
     1
102
RTVSPost2010Prop44ColorIndex
 90
        5
102
RTVSPost2010Prop44ColorRGB
 90
      255
102
RTVSPost2010PropOp44
 70
     1
102
RTVSPost2010Prop45
280
     0
102
RTVSPost2010PropOp45
 70
     1
102
RTVSPost2010Prop46
 90
       50
102
RTVSPost2010PropOp46
 70
     1
102
RTVSPost2010Prop47
 90
       50
102
RTVSPost2010PropOp47
 70
     1
102
RTVSPost2010Prop48
 90
       50
102
RTVSPost2010PropOp48
 70
     1
102
RTVSPost2010Prop49
280
     0
102
RTVSPost2010PropOp49
 70
     1
102
RTVSPost2010Prop50
 90
       50
102
RTVSPost2010PropOp50
 70
     1
102
RTVSPost2010Prop51ColorIndex
 90
      256
102
RTVSPost2010Prop51ColorRGB
 90
-16777216
102
RTVSPost2010PropOp51
 70
     0
102
RTVSPost2010Prop52
140
1.0
102
RTVSPost2010PropOp52
 70
     0
102
RTVSPost2010Prop53
 90
        2
102
RTVSPost2010PropOp53
 70
     1
102
RTVSPost2010Prop54
  1
strokes_ogs.tif
102
RTVSPost2010PropOp54
 70
     1
102
RTVSPost2010Prop55
280
     0
102
RTVSPost2010PropOp55
 70
     1
102
RTVSPost2010Prop56
140
1.0
102
RTVSPost2010PropOp56
 70
     1
102
RTVSPost2010Prop57
140
1.0
102
RTVSPost2010PropOp57
 70
     1
102
RTVSPropertyOp0
 70
     1
102
RTVSPropertyOp1
 70
     1
102
RTVSPropertyOp2
 70
     1
102
RTVSPropertyOp3
 70
     1
102
RTVSPropertyOp4
 70
     1
102
RTVSPropertyOp5
 70
     1
102
RTVSPropertyOp6
 70
     1
102
RTVSPropertyOp7
 70
     1
102
RTVSPropertyOp8
 70
     1
102
RTVSPropertyOp9
 70
     1
102
RTVSPropertyOp10
 70
     1
102
RTVSPropertyOp11
 70
     1
102
RTVSPropertyOp12
 70
     1
102
RTVSPropertyOp13
 70
     1
102
RTVSPropertyOp14
 70
     1
102
RTVSPropertyOp15
 70
     1
102
RTVSPropertyOp16
 70
     1
102
RTVSPropertyOp17
 70
     1
102
RTVSPropertyOp18
 70
     1
102
RTVSPropertyOp19
 70
     1
102
RTVSPropertyOp20
 70
     1
102
RTVSPropertyOp21
 70
     1
102
RTVSPropertyOp22
 70
     1
102
RTVSPropertyOp23
 70
     1
102
RTVSPropertyOp24
 70
     1
102
RTVSPropertyOp25
 70
     1
102
RTVSPropertyOp26
 70
     1
102
RTVSPropertyOp27
 70
     1
102
RTVSPropertyOp28
 70
     1
102
RTVSPropertyOp29
 70
     1
102
RTVSPropertyOp30
 70
     1
102
RTVSPropertyOp31
 70
     1
102
RTVSPropertyOp32
 70
     1
102
RTVSPropertyOp33
 70
     1
102
RTVSPropertyOp34
 70
     1
102
RTVSPropertyOp35
 70
     1
102
RTVSPropertyOp36
 70
     1
102
RTVSPropertyOp37
 70
     1
102
RTVSPropertyOp38
 70
     1
102
RTVSPropertyOp39
 70
     1
102
RTVSPropertyOp40
 70
     1
102
RTVSPropertyOp41
 70
     1
102
RTVSPropertyOp42
 70
     1
102
RTVSPropertyOp43
 70
     1
102
RTVSPropertyOp44
 70
     1
102
RTVSPropertyOp45
 70
     1
102
RTVSPropertyOp46
 70
     1
102
RTVSPropertyOp47
 70
     1
102
RTVSPropertyOp48
 70
     1
102
RTVSPropertyOp49
 70
     1
102
RTVSPropertyOp50
 70
     1
102
RTVSPropertyOp51
 70
     0
102
RTVSPropertyOp52
 70
     0
102
RTVSPropertyOp53
 70
     1
102
RTVSPropertyOp54
 70
     1
102
RTVSPropertyOp55
 70
     1
102
RTVSPropertyOp56
 70
     1
102
RTVSPropertyOp57
 70
     1
102
RTVSPropertyOp58
 70
     1
102
RTVSPropertyOp59
 70
     1
102
RTVSPropertyOp60
 70
     1
102
RTVSPropertyOp61
 70
     1
102
RTVSPropertyOp62
 70
     1
  0
XRECORD
  5
A186
102
{ACAD_REACTORS
330
A185
102
}
330
A185
100
AcDbXrecord
280
     1
102
RTVSPost2010Prop28
280
     0
102
RTVSPost2010PropOp28
 70
     1
102
RTVSPost2010Prop29
280
     1
102
RTVSPost2010PropOp29
 70
     1
102
RTVSPost2010Prop30
280
     1
102
RTVSPost2010PropOp30
 70
     1
102
RTVSPost2010Prop31
280
     0
102
RTVSPost2010PropOp31
 70
     1
102
RTVSPost2010Prop32
280
     0
102
RTVSPost2010PropOp32
 70
     1
102
RTVSPost2010Prop33
280
     0
102
RTVSPost2010PropOp33
 70
     1
102
RTVSPost2010Prop34
280
     0
102
RTVSPost2010PropOp34
 70
     1
102
RTVSPost2010Prop35
280
     0
102
RTVSPost2010PropOp35
 70
     1
102
RTVSPost2010Prop36
280
     0
102
RTVSPost2010PropOp36
 70
     1
102
RTVSPost2010Prop37
 90
       50
102
RTVSPost2010PropOp37
 70
     1
102
RTVSPost2010Prop38
140
0.0
102
RTVSPost2010PropOp38
 70
     1
102
RTVSPost2010Prop39
140
1.0
102
RTVSPost2010PropOp39
 70
     1
102
RTVSPost2010Prop40
 90
        0
102
RTVSPost2010PropOp40
 70
     1
102
RTVSPost2010Prop41ColorIndex
 90
       18
102
RTVSPost2010Prop41ColorRGB
 90
        0
102
RTVSPost2010PropOp41
 70
     1
102
RTVSPost2010Prop42
 90
       50
102
RTVSPost2010PropOp42
 70
     1
102
RTVSPost2010Prop43
 90
        3
102
RTVSPost2010PropOp43
 70
     1
102
RTVSPost2010Prop44ColorIndex
 90
        5
102
RTVSPost2010Prop44ColorRGB
 90
      255
102
RTVSPost2010PropOp44
 70
     1
102
RTVSPost2010Prop45
280
     0
102
RTVSPost2010PropOp45
 70
     1
102
RTVSPost2010Prop46
 90
       50
102
RTVSPost2010PropOp46
 70
     1
102
RTVSPost2010Prop47
 90
       50
102
RTVSPost2010PropOp47
 70
     1
102
RTVSPost2010Prop48
 90
       50
102
RTVSPost2010PropOp48
 70
     1
102
RTVSPost2010Prop49
280
     0
102
RTVSPost2010PropOp49
 70
     1
102
RTVSPost2010Prop50
 90
       50
102
RTVSPost2010PropOp50
 70
     1
102
RTVSPost2010Prop51ColorIndex
 90
      256
102
RTVSPost2010Prop51ColorRGB
 90
-16777216
102
RTVSPost2010PropOp51
 70
     0
102
RTVSPost2010Prop52
140
1.0
102
RTVSPost2010PropOp52
 70
     0
102
RTVSPost2010Prop53
 90
        2
102
RTVSPost2010PropOp53
 70
     1
102
RTVSPost2010Prop54
  1
strokes_ogs.tif
102
RTVSPost2010PropOp54
 70
     1
102
RTVSPost2010Prop55
280
     0
102
RTVSPost2010PropOp55
 70
     1
102
RTVSPost2010Prop56
140
1.0
102
RTVSPost2010PropOp56
 70
     1
102
RTVSPost2010Prop57
140
1.0
102
RTVSPost2010PropOp57
 70
     1
102
RTVSPropertyOp0
 70
     1
102
RTVSPropertyOp1
 70
     1
102
RTVSPropertyOp2
 70
     1
102
RTVSPropertyOp3
 70
     1
102
RTVSPropertyOp4
 70
     1
102
RTVSPropertyOp5
 70
     1
102
RTVSPropertyOp6
 70
     1
102
RTVSPropertyOp7
 70
     1
102
RTVSPropertyOp8
 70
     1
102
RTVSPropertyOp9
 70
     1
102
RTVSPropertyOp10
 70
     1
102
RTVSPropertyOp11
 70
     1
102
RTVSPropertyOp12
 70
     1
102
RTVSPropertyOp13
 70
     1
102
RTVSPropertyOp14
 70
     1
102
RTVSPropertyOp15
 70
     1
102
RTVSPropertyOp16
 70
     1
102
RTVSPropertyOp17
 70
     1
102
RTVSPropertyOp18
 70
     1
102
RTVSPropertyOp19
 70
     1
102
RTVSPropertyOp20
 70
     1
102
RTVSPropertyOp21
 70
     1
102
RTVSPropertyOp22
 70
     1
102
RTVSPropertyOp23
 70
     1
102
RTVSPropertyOp24
 70
     1
102
RTVSPropertyOp25
 70
     1
102
RTVSPropertyOp26
 70
     1
102
RTVSPropertyOp27
 70
     1
102
RTVSPropertyOp28
 70
     1
102
RTVSPropertyOp29
 70
     1
102
RTVSPropertyOp30
 70
     1
102
RTVSPropertyOp31
 70
     1
102
RTVSPropertyOp32
 70
     1
102
RTVSPropertyOp33
 70
     1
102
RTVSPropertyOp34
 70
     1
102
RTVSPropertyOp35
 70
     1
102
RTVSPropertyOp36
 70
     1
102
RTVSPropertyOp37
 70
     1
102
RTVSPropertyOp38
 70
     1
102
RTVSPropertyOp39
 70
     1
102
RTVSPropertyOp40
 70
     1
102
RTVSPropertyOp41
 70
     1
102
RTVSPropertyOp42
 70
     1
102
RTVSPropertyOp43
 70
     1
102
RTVSPropertyOp44
 70
     1
102
RTVSPropertyOp45
 70
     1
102
RTVSPropertyOp46
 70
     1
102
RTVSPropertyOp47
 70
     1
102
RTVSPropertyOp48
 70
     1
102
RTVSPropertyOp49
 70
     1
102
RTVSPropertyOp50
 70
     1
102
RTVSPropertyOp51
 70
     0
102
RTVSPropertyOp52
 70
     0
102
RTVSPropertyOp53
 70
     1
102
RTVSPropertyOp54
 70
     1
102
RTVSPropertyOp55
 70
     1
102
RTVSPropertyOp56
 70
     1
102
RTVSPropertyOp57
 70
     1
102
RTVSPropertyOp58
 70
     1
102
RTVSPropertyOp59
 70
     1
102
RTVSPropertyOp60
 70
     1
102
RTVSPropertyOp61
 70
     1
102
RTVSPropertyOp62
 70
     1
  0
XRECORD
  5
A188
102
{ACAD_REACTORS
330
A187
102
}
330
A187
100
AcDbXrecord
280
     1
102
RTVSPost2010Prop28
280
     0
102
RTVSPost2010PropOp28
 70
     1
102
RTVSPost2010Prop29
280
     1
102
RTVSPost2010PropOp29
 70
     1
102
RTVSPost2010Prop30
280
     1
102
RTVSPost2010PropOp30
 70
     1
102
RTVSPost2010Prop31
280
     0
102
RTVSPost2010PropOp31
 70
     1
102
RTVSPost2010Prop32
280
     0
102
RTVSPost2010PropOp32
 70
     1
102
RTVSPost2010Prop33
280
     0
102
RTVSPost2010PropOp33
 70
     1
102
RTVSPost2010Prop34
280
     0
102
RTVSPost2010PropOp34
 70
     1
102
RTVSPost2010Prop35
280
     0
102
RTVSPost2010PropOp35
 70
     1
102
RTVSPost2010Prop36
280
     0
102
RTVSPost2010PropOp36
 70
     1
102
RTVSPost2010Prop37
 90
       50
102
RTVSPost2010PropOp37
 70
     1
102
RTVSPost2010Prop38
140
0.0
102
RTVSPost2010PropOp38
 70
     1
102
RTVSPost2010Prop39
140
1.0
102
RTVSPost2010PropOp39
 70
     1
102
RTVSPost2010Prop40
 90
        0
102
RTVSPost2010PropOp40
 70
     1
102
RTVSPost2010Prop41ColorIndex
 90
       18
102
RTVSPost2010Prop41ColorRGB
 90
        0
102
RTVSPost2010PropOp41
 70
     1
102
RTVSPost2010Prop42
 90
       50
102
RTVSPost2010PropOp42
 70
     1
102
RTVSPost2010Prop43
 90
        3
102
RTVSPost2010PropOp43
 70
     1
102
RTVSPost2010Prop44ColorIndex
 90
        5
102
RTVSPost2010Prop44ColorRGB
 90
      255
102
RTVSPost2010PropOp44
 70
     1
102
RTVSPost2010Prop45
280
     0
102
RTVSPost2010PropOp45
 70
     1
102
RTVSPost2010Prop46
 90
       50
102
RTVSPost2010PropOp46
 70
     1
102
RTVSPost2010Prop47
 90
       50
102
RTVSPost2010PropOp47
 70
     1
102
RTVSPost2010Prop48
 90
       50
102
RTVSPost2010PropOp48
 70
     1
102
RTVSPost2010Prop49
280
     0
102
RTVSPost2010PropOp49
 70
     1
102
RTVSPost2010Prop50
 90
       50
102
RTVSPost2010PropOp50
 70
     1
102
RTVSPost2010Prop51ColorIndex
 90
      256
102
RTVSPost2010Prop51ColorRGB
 90
-16777216
102
RTVSPost2010PropOp51
 70
     0
102
RTVSPost2010Prop52
140
1.0
102
RTVSPost2010PropOp52
 70
     0
102
RTVSPost2010Prop53
 90
        2
102
RTVSPost2010PropOp53
 70
     1
102
RTVSPost2010Prop54
  1
strokes_ogs.tif
102
RTVSPost2010PropOp54
 70
     1
102
RTVSPost2010Prop55
280
     0
102
RTVSPost2010PropOp55
 70
     1
102
RTVSPost2010Prop56
140
1.0
102
RTVSPost2010PropOp56
 70
     1
102
RTVSPost2010Prop57
140
1.0
102
RTVSPost2010PropOp57
 70
     1
102
RTVSPropertyOp0
 70
     1
102
RTVSPropertyOp1
 70
     1
102
RTVSPropertyOp2
 70
     1
102
RTVSPropertyOp3
 70
     1
102
RTVSPropertyOp4
 70
     1
102
RTVSPropertyOp5
 70
     1
102
RTVSPropertyOp6
 70
     1
102
RTVSPropertyOp7
 70
     1
102
RTVSPropertyOp8
 70
     1
102
RTVSPropertyOp9
 70
     1
102
RTVSPropertyOp10
 70
     1
102
RTVSPropertyOp11
 70
     1
102
RTVSPropertyOp12
 70
     1
102
RTVSPropertyOp13
 70
     1
102
RTVSPropertyOp14
 70
     1
102
RTVSPropertyOp15
 70
     1
102
RTVSPropertyOp16
 70
     1
102
RTVSPropertyOp17
 70
     1
102
RTVSPropertyOp18
 70
     1
102
RTVSPropertyOp19
 70
     1
102
RTVSPropertyOp20
 70
     1
102
RTVSPropertyOp21
 70
     1
102
RTVSPropertyOp22
 70
     1
102
RTVSPropertyOp23
 70
     1
102
RTVSPropertyOp24
 70
     1
102
RTVSPropertyOp25
 70
     1
102
RTVSPropertyOp26
 70
     1
102
RTVSPropertyOp27
 70
     1
102
RTVSPropertyOp28
 70
     1
102
RTVSPropertyOp29
 70
     1
102
RTVSPropertyOp30
 70
     1
102
RTVSPropertyOp31
 70
     1
102
RTVSPropertyOp32
 70
     1
102
RTVSPropertyOp33
 70
     1
102
RTVSPropertyOp34
 70
     1
102
RTVSPropertyOp35
 70
     1
102
RTVSPropertyOp36
 70
     1
102
RTVSPropertyOp37
 70
     1
102
RTVSPropertyOp38
 70
     1
102
RTVSPropertyOp39
 70
     1
102
RTVSPropertyOp40
 70
     1
102
RTVSPropertyOp41
 70
     1
102
RTVSPropertyOp42
 70
     1
102
RTVSPropertyOp43
 70
     1
102
RTVSPropertyOp44
 70
     1
102
RTVSPropertyOp45
 70
     1
102
RTVSPropertyOp46
 70
     1
102
RTVSPropertyOp47
 70
     1
102
RTVSPropertyOp48
 70
     1
102
RTVSPropertyOp49
 70
     1
102
RTVSPropertyOp50
 70
     1
102
RTVSPropertyOp51
 70
     0
102
RTVSPropertyOp52
 70
     0
102
RTVSPropertyOp53
 70
     1
102
RTVSPropertyOp54
 70
     1
102
RTVSPropertyOp55
 70
     1
102
RTVSPropertyOp56
 70
     1
102
RTVSPropertyOp57
 70
     1
102
RTVSPropertyOp58
 70
     1
102
RTVSPropertyOp59
 70
     1
102
RTVSPropertyOp60
 70
     1
102
RTVSPropertyOp61
 70
     1
102
RTVSPropertyOp62
 70
     1
  0
XRECORD
  5
A17E
102
{ACAD_REACTORS
330
A17D
102
}
330
A17D
100
AcDbXrecord
280
     1
102
RTVSPost2010Prop28
280
     0
102
RTVSPost2010PropOp28
 70
     1
102
RTVSPost2010Prop29
280
     1
102
RTVSPost2010PropOp29
 70
     1
102
RTVSPost2010Prop30
280
     1
102
RTVSPost2010PropOp30
 70
     1
102
RTVSPost2010Prop31
280
     0
102
RTVSPost2010PropOp31
 70
     1
102
RTVSPost2010Prop32
280
     0
102
RTVSPost2010PropOp32
 70
     1
102
RTVSPost2010Prop33
280
     0
102
RTVSPost2010PropOp33
 70
     1
102
RTVSPost2010Prop34
280
     0
102
RTVSPost2010PropOp34
 70
     1
102
RTVSPost2010Prop35
280
     0
102
RTVSPost2010PropOp35
 70
     1
102
RTVSPost2010Prop36
280
     0
102
RTVSPost2010PropOp36
 70
     1
102
RTVSPost2010Prop37
 90
       50
102
RTVSPost2010PropOp37
 70
     1
102
RTVSPost2010Prop38
140
0.0
102
RTVSPost2010PropOp38
 70
     1
102
RTVSPost2010Prop39
140
1.0
102
RTVSPost2010PropOp39
 70
     1
102
RTVSPost2010Prop40
 90
        0
102
RTVSPost2010PropOp40
 70
     1
102
RTVSPost2010Prop41ColorIndex
 90
       18
102
RTVSPost2010Prop41ColorRGB
 90
        0
102
RTVSPost2010PropOp41
 70
     1
102
RTVSPost2010Prop42
 90
       50
102
RTVSPost2010PropOp42
 70
     1
102
RTVSPost2010Prop43
 90
        3
102
RTVSPost2010PropOp43
 70
     1
102
RTVSPost2010Prop44ColorIndex
 90
        5
102
RTVSPost2010Prop44ColorRGB
 90
      255
102
RTVSPost2010PropOp44
 70
     1
102
RTVSPost2010Prop45
280
     0
102
RTVSPost2010PropOp45
 70
     1
102
RTVSPost2010Prop46
 90
       50
102
RTVSPost2010PropOp46
 70
     1
102
RTVSPost2010Prop47
 90
       50
102
RTVSPost2010PropOp47
 70
     1
102
RTVSPost2010Prop48
 90
       50
102
RTVSPost2010PropOp48
 70
     1
102
RTVSPost2010Prop49
280
     0
102
RTVSPost2010PropOp49
 70
     1
102
RTVSPost2010Prop50
 90
       50
102
RTVSPost2010PropOp50
 70
     1
102
RTVSPost2010Prop51ColorIndex
 90
      256
102
RTVSPost2010Prop51ColorRGB
 90
-16777216
102
RTVSPost2010PropOp51
 70
     0
102
RTVSPost2010Prop52
140
1.0
102
RTVSPost2010PropOp52
 70
     0
102
RTVSPost2010Prop53
 90
        2
102
RTVSPost2010PropOp53
 70
     1
102
RTVSPost2010Prop54
  1
strokes_ogs.tif
102
RTVSPost2010PropOp54
 70
     1
102
RTVSPost2010Prop55
280
     0
102
RTVSPost2010PropOp55
 70
     1
102
RTVSPost2010Prop56
140
1.0
102
RTVSPost2010PropOp56
 70
     1
102
RTVSPost2010Prop57
140
1.0
102
RTVSPost2010PropOp57
 70
     1
102
RTVSPropertyOp0
 70
     1
102
RTVSPropertyOp1
 70
     1
102
RTVSPropertyOp2
 70
     1
102
RTVSPropertyOp3
 70
     1
102
RTVSPropertyOp4
 70
     1
102
RTVSPropertyOp5
 70
     1
102
RTVSPropertyOp6
 70
     1
102
RTVSPropertyOp7
 70
     1
102
RTVSPropertyOp8
 70
     1
102
RTVSPropertyOp9
 70
     1
102
RTVSPropertyOp10
 70
     1
102
RTVSPropertyOp11
 70
     1
102
RTVSPropertyOp12
 70
     1
102
RTVSPropertyOp13
 70
     1
102
RTVSPropertyOp14
 70
     1
102
RTVSPropertyOp15
 70
     1
102
RTVSPropertyOp16
 70
     1
102
RTVSPropertyOp17
 70
     1
102
RTVSPropertyOp18
 70
     1
102
RTVSPropertyOp19
 70
     1
102
RTVSPropertyOp20
 70
     1
102
RTVSPropertyOp21
 70
     1
102
RTVSPropertyOp22
 70
     1
102
RTVSPropertyOp23
 70
     1
102
RTVSPropertyOp24
 70
     1
102
RTVSPropertyOp25
 70
     1
102
RTVSPropertyOp26
 70
     1
102
RTVSPropertyOp27
 70
     1
102
RTVSPropertyOp28
 70
     1
102
RTVSPropertyOp29
 70
     1
102
RTVSPropertyOp30
 70
     1
102
RTVSPropertyOp31
 70
     1
102
RTVSPropertyOp32
 70
     1
102
RTVSPropertyOp33
 70
     1
102
RTVSPropertyOp34
 70
     1
102
RTVSPropertyOp35
 70
     1
102
RTVSPropertyOp36
 70
     1
102
RTVSPropertyOp37
 70
     1
102
RTVSPropertyOp38
 70
     1
102
RTVSPropertyOp39
 70
     1
102
RTVSPropertyOp40
 70
     1
102
RTVSPropertyOp41
 70
     1
102
RTVSPropertyOp42
 70
     1
102
RTVSPropertyOp43
 70
     1
102
RTVSPropertyOp44
 70
     1
102
RTVSPropertyOp45
 70
     1
102
RTVSPropertyOp46
 70
     1
102
RTVSPropertyOp47
 70
     1
102
RTVSPropertyOp48
 70
     1
102
RTVSPropertyOp49
 70
     1
102
RTVSPropertyOp50
 70
     1
102
RTVSPropertyOp51
 70
     0
102
RTVSPropertyOp52
 70
     0
102
RTVSPropertyOp53
 70
     1
102
RTVSPropertyOp54
 70
     1
102
RTVSPropertyOp55
 70
     1
102
RTVSPropertyOp56
 70
     1
102
RTVSPropertyOp57
 70
     1
102
RTVSPropertyOp58
 70
     1
102
RTVSPropertyOp59
 70
     1
102
RTVSPropertyOp60
 70
     1
102
RTVSPropertyOp61
 70
     1
102
RTVSPropertyOp62
 70
     1
  0
XRECORD
  5
A172
102
{ACAD_REACTORS
330
A171
102
}
330
A171
100
AcDbXrecord
280
     1
102
RTVSPost2010Prop28
280
     0
102
RTVSPost2010PropOp28
 70
     1
102
RTVSPost2010Prop29
280
     1
102
RTVSPost2010PropOp29
 70
     1
102
RTVSPost2010Prop30
280
     1
102
RTVSPost2010PropOp30
 70
     1
102
RTVSPost2010Prop31
280
     0
102
RTVSPost2010PropOp31
 70
     1
102
RTVSPost2010Prop32
280
     0
102
RTVSPost2010PropOp32
 70
     1
102
RTVSPost2010Prop33
280
     0
102
RTVSPost2010PropOp33
 70
     1
102
RTVSPost2010Prop34
280
     0
102
RTVSPost2010PropOp34
 70
     1
102
RTVSPost2010Prop35
280
     0
102
RTVSPost2010PropOp35
 70
     1
102
RTVSPost2010Prop36
280
     0
102
RTVSPost2010PropOp36
 70
     1
102
RTVSPost2010Prop37
 90
       50
102
RTVSPost2010PropOp37
 70
     1
102
RTVSPost2010Prop38
140
0.0
102
RTVSPost2010PropOp38
 70
     1
102
RTVSPost2010Prop39
140
1.0
102
RTVSPost2010PropOp39
 70
     1
102
RTVSPost2010Prop40
 90
        0
102
RTVSPost2010PropOp40
 70
     1
102
RTVSPost2010Prop41ColorIndex
 90
       18
102
RTVSPost2010Prop41ColorRGB
 90
        0
102
RTVSPost2010PropOp41
 70
     1
102
RTVSPost2010Prop42
 90
       50
102
RTVSPost2010PropOp42
 70
     1
102
RTVSPost2010Prop43
 90
        3
102
RTVSPost2010PropOp43
 70
     1
102
RTVSPost2010Prop44ColorIndex
 90
        5
102
RTVSPost2010Prop44ColorRGB
 90
      255
102
RTVSPost2010PropOp44
 70
     1
102
RTVSPost2010Prop45
280
     0
102
RTVSPost2010PropOp45
 70
     1
102
RTVSPost2010Prop46
 90
       50
102
RTVSPost2010PropOp46
 70
     1
102
RTVSPost2010Prop47
 90
       50
102
RTVSPost2010PropOp47
 70
     1
102
RTVSPost2010Prop48
 90
       50
102
RTVSPost2010PropOp48
 70
     1
102
RTVSPost2010Prop49
280
     0
102
RTVSPost2010PropOp49
 70
     1
102
RTVSPost2010Prop50
 90
       50
102
RTVSPost2010PropOp50
 70
     1
102
RTVSPost2010Prop51ColorIndex
 90
      256
102
RTVSPost2010Prop51ColorRGB
 90
-16777216
102
RTVSPost2010PropOp51
 70
     0
102
RTVSPost2010Prop52
140
1.0
102
RTVSPost2010PropOp52
 70
     0
102
RTVSPost2010Prop53
 90
        2
102
RTVSPost2010PropOp53
 70
     1
102
RTVSPost2010Prop54
  1
strokes_ogs.tif
102
RTVSPost2010PropOp54
 70
     1
102
RTVSPost2010Prop55
280
     0
102
RTVSPost2010PropOp55
 70
     1
102
RTVSPost2010Prop56
140
1.0
102
RTVSPost2010PropOp56
 70
     1
102
RTVSPost2010Prop57
140
1.0
102
RTVSPost2010PropOp57
 70
     1
102
RTVSPropertyOp0
 70
     1
102
RTVSPropertyOp1
 70
     1
102
RTVSPropertyOp2
 70
     1
102
RTVSPropertyOp3
 70
     1
102
RTVSPropertyOp4
 70
     1
102
RTVSPropertyOp5
 70
     1
102
RTVSPropertyOp6
 70
     1
102
RTVSPropertyOp7
 70
     1
102
RTVSPropertyOp8
 70
     1
102
RTVSPropertyOp9
 70
     1
102
RTVSPropertyOp10
 70
     1
102
RTVSPropertyOp11
 70
     1
102
RTVSPropertyOp12
 70
     1
102
RTVSPropertyOp13
 70
     1
102
RTVSPropertyOp14
 70
     1
102
RTVSPropertyOp15
 70
     1
102
RTVSPropertyOp16
 70
     1
102
RTVSPropertyOp17
 70
     1
102
RTVSPropertyOp18
 70
     1
102
RTVSPropertyOp19
 70
     1
102
RTVSPropertyOp20
 70
     1
102
RTVSPropertyOp21
 70
     1
102
RTVSPropertyOp22
 70
     1
102
RTVSPropertyOp23
 70
     1
102
RTVSPropertyOp24
 70
     1
102
RTVSPropertyOp25
 70
     1
102
RTVSPropertyOp26
 70
     1
102
RTVSPropertyOp27
 70
     1
102
RTVSPropertyOp28
 70
     1
102
RTVSPropertyOp29
 70
     1
102
RTVSPropertyOp30
 70
     1
102
RTVSPropertyOp31
 70
     1
102
RTVSPropertyOp32
 70
     1
102
RTVSPropertyOp33
 70
     1
102
RTVSPropertyOp34
 70
     1
102
RTVSPropertyOp35
 70
     1
102
RTVSPropertyOp36
 70
     1
102
RTVSPropertyOp37
 70
     1
102
RTVSPropertyOp38
 70
     1
102
RTVSPropertyOp39
 70
     1
102
RTVSPropertyOp40
 70
     1
102
RTVSPropertyOp41
 70
     1
102
RTVSPropertyOp42
 70
     1
102
RTVSPropertyOp43
 70
     1
102
RTVSPropertyOp44
 70
     1
102
RTVSPropertyOp45
 70
     1
102
RTVSPropertyOp46
 70
     1
102
RTVSPropertyOp47
 70
     1
102
RTVSPropertyOp48
 70
     1
102
RTVSPropertyOp49
 70
     1
102
RTVSPropertyOp50
 70
     1
102
RTVSPropertyOp51
 70
     0
102
RTVSPropertyOp52
 70
     0
102
RTVSPropertyOp53
 70
     1
102
RTVSPropertyOp54
 70
     1
102
RTVSPropertyOp55
 70
     1
102
RTVSPropertyOp56
 70
     1
102
RTVSPropertyOp57
 70
     1
102
RTVSPropertyOp58
 70
     1
102
RTVSPropertyOp59
 70
     1
102
RTVSPropertyOp60
 70
     1
102
RTVSPropertyOp61
 70
     1
102
RTVSPropertyOp62
 70
     1
  0
XRECORD
  5
A18A
102
{ACAD_REACTORS
330
A189
102
}
330
A189
100
AcDbXrecord
280
     1
102
RTVSPost2010Prop28
280
     0
102
RTVSPost2010PropOp28
 70
     1
102
RTVSPost2010Prop29
280
     1
102
RTVSPost2010PropOp29
 70
     1
102
RTVSPost2010Prop30
280
     1
102
RTVSPost2010PropOp30
 70
     1
102
RTVSPost2010Prop31
280
     0
102
RTVSPost2010PropOp31
 70
     1
102
RTVSPost2010Prop32
280
     0
102
RTVSPost2010PropOp32
 70
     1
102
RTVSPost2010Prop33
280
     0
102
RTVSPost2010PropOp33
 70
     1
102
RTVSPost2010Prop34
280
     0
102
RTVSPost2010PropOp34
 70
     1
102
RTVSPost2010Prop35
280
     0
102
RTVSPost2010PropOp35
 70
     1
102
RTVSPost2010Prop36
280
     0
102
RTVSPost2010PropOp36
 70
     1
102
RTVSPost2010Prop37
 90
       50
102
RTVSPost2010PropOp37
 70
     1
102
RTVSPost2010Prop38
140
0.0
102
RTVSPost2010PropOp38
 70
     1
102
RTVSPost2010Prop39
140
1.0
102
RTVSPost2010PropOp39
 70
     1
102
RTVSPost2010Prop40
 90
        0
102
RTVSPost2010PropOp40
 70
     1
102
RTVSPost2010Prop41ColorIndex
 90
       18
102
RTVSPost2010Prop41ColorRGB
 90
        0
102
RTVSPost2010PropOp41
 70
     1
102
RTVSPost2010Prop42
 90
       50
102
RTVSPost2010PropOp42
 70
     1
102
RTVSPost2010Prop43
 90
        3
102
RTVSPost2010PropOp43
 70
     1
102
RTVSPost2010Prop44ColorIndex
 90
        5
102
RTVSPost2010Prop44ColorRGB
 90
      255
102
RTVSPost2010PropOp44
 70
     1
102
RTVSPost2010Prop45
280
     0
102
RTVSPost2010PropOp45
 70
     1
102
RTVSPost2010Prop46
 90
       50
102
RTVSPost2010PropOp46
 70
     1
102
RTVSPost2010Prop47
 90
       50
102
RTVSPost2010PropOp47
 70
     1
102
RTVSPost2010Prop48
 90
       50
102
RTVSPost2010PropOp48
 70
     1
102
RTVSPost2010Prop49
280
     0
102
RTVSPost2010PropOp49
 70
     1
102
RTVSPost2010Prop50
 90
       50
102
RTVSPost2010PropOp50
 70
     1
102
RTVSPost2010Prop51ColorIndex
 90
      256
102
RTVSPost2010Prop51ColorRGB
 90
-16777216
102
RTVSPost2010PropOp51
 70
     0
102
RTVSPost2010Prop52
140
1.0
102
RTVSPost2010PropOp52
 70
     0
102
RTVSPost2010Prop53
 90
        2
102
RTVSPost2010PropOp53
 70
     1
102
RTVSPost2010Prop54
  1
strokes_ogs.tif
102
RTVSPost2010PropOp54
 70
     1
102
RTVSPost2010Prop55
280
     0
102
RTVSPost2010PropOp55
 70
     1
102
RTVSPost2010Prop56
140
1.0
102
RTVSPost2010PropOp56
 70
     1
102
RTVSPost2010Prop57
140
1.0
102
RTVSPost2010PropOp57
 70
     1
102
RTVSPropertyOp0
 70
     1
102
RTVSPropertyOp1
 70
     1
102
RTVSPropertyOp2
 70
     1
102
RTVSPropertyOp3
 70
     1
102
RTVSPropertyOp4
 70
     1
102
RTVSPropertyOp5
 70
     1
102
RTVSPropertyOp6
 70
     1
102
RTVSPropertyOp7
 70
     1
102
RTVSPropertyOp8
 70
     1
102
RTVSPropertyOp9
 70
     1
102
RTVSPropertyOp10
 70
     1
102
RTVSPropertyOp11
 70
     1
102
RTVSPropertyOp12
 70
     1
102
RTVSPropertyOp13
 70
     1
102
RTVSPropertyOp14
 70
     1
102
RTVSPropertyOp15
 70
     1
102
RTVSPropertyOp16
 70
     1
102
RTVSPropertyOp17
 70
     1
102
RTVSPropertyOp18
 70
     1
102
RTVSPropertyOp19
 70
     1
102
RTVSPropertyOp20
 70
     1
102
RTVSPropertyOp21
 70
     1
102
RTVSPropertyOp22
 70
     1
102
RTVSPropertyOp23
 70
     1
102
RTVSPropertyOp24
 70
     1
102
RTVSPropertyOp25
 70
     1
102
RTVSPropertyOp26
 70
     1
102
RTVSPropertyOp27
 70
     1
102
RTVSPropertyOp28
 70
     1
102
RTVSPropertyOp29
 70
     1
102
RTVSPropertyOp30
 70
     1
102
RTVSPropertyOp31
 70
     1
102
RTVSPropertyOp32
 70
     1
102
RTVSPropertyOp33
 70
     1
102
RTVSPropertyOp34
 70
     1
102
RTVSPropertyOp35
 70
     1
102
RTVSPropertyOp36
 70
     1
102
RTVSPropertyOp37
 70
     1
102
RTVSPropertyOp38
 70
     1
102
RTVSPropertyOp39
 70
     1
102
RTVSPropertyOp40
 70
     1
102
RTVSPropertyOp41
 70
     1
102
RTVSPropertyOp42
 70
     1
102
RTVSPropertyOp43
 70
     1
102
RTVSPropertyOp44
 70
     1
102
RTVSPropertyOp45
 70
     1
102
RTVSPropertyOp46
 70
     1
102
RTVSPropertyOp47
 70
     1
102
RTVSPropertyOp48
 70
     1
102
RTVSPropertyOp49
 70
     1
102
RTVSPropertyOp50
 70
     1
102
RTVSPropertyOp51
 70
     0
102
RTVSPropertyOp52
 70
     0
102
RTVSPropertyOp53
 70
     1
102
RTVSPropertyOp54
 70
     1
102
RTVSPropertyOp55
 70
     1
102
RTVSPropertyOp56
 70
     1
102
RTVSPropertyOp57
 70
     1
102
RTVSPropertyOp58
 70
     1
102
RTVSPropertyOp59
 70
     1
102
RTVSPropertyOp60
 70
     1
102
RTVSPropertyOp61
 70
     1
102
RTVSPropertyOp62
 70
     1
  0
ENDSEC
  0
EOF
