  0
SECTION
  2
HEADER
  9
$ACADVER
  1
AC1015
  9
$ACADMAINTVER
 70
    20
  9
$DWGCODEPAGE
  3
ANSI_932
  9
$INSBASE
 10
0.0
 20
0.0
 30
0.0
  9
$EXTMIN
 10
9.684125999999999
 20
9.999999999999998
 30
0.0
  9
$EXTMAX
 10
383.870843
 20
340.5168489999998
 30
0.0
  9
$LIMMIN
 10
0.0
 20
0.0
  9
$LIMMAX
 10
495.0
 20
341.25
  9
$ORTHOMODE
 70
     1
  9
$REGENMODE
 70
     1
  9
$FILLMODE
 70
     1
  9
$QTEXTMODE
 70
     0
  9
$MIRRTEXT
 70
     1
  9
$LTSCALE
 40
20.0
  9
$ATTMODE
 70
     1
  9
$TEXTSIZE
 40
5.0
  9
$TRACEWID
 40
1.0
  9
$TEXTSTYLE
  7
STANDARD
  9
$CLAYER
  8
0
  9
$CELTYPE
  6
BYLAYER
  9
$CECOLOR
 62
   256
  9
$CELTSCALE
 40
1.0
  9
$DISPSILH
 70
     0
  9
$DIMSCALE
 40
1.0
  9
$DIMASZ
 40
2.5
  9
$DIMEXO
 40
1.0
  9
$DIMDLI
 40
10.0
  9
$DIMRND
 40
0.0
  9
$DIMDLE
 40
0.0
  9
$DIMEXE
 40
1.0
  9
$DIMTP
 40
0.0
  9
$DIMTM
 40
0.0
  9
$DIMTXT
 40
2.5
  9
$DIMCEN
 40
0.0
  9
$DIMTSZ
 40
0.0
  9
$DIMTOL
 70
     0
  9
$DIMLIM
 70
     0
  9
$DIMTIH
 70
     0
  9
$DIMTOH
 70
     0
  9
$DIMSE1
 70
     0
  9
$DIMSE2
 70
     0
  9
$DIMTAD
 70
     3
  9
$DIMZIN
 70
     8
  9
$DIMBLK
  1

  9
$DIMASO
 70
     1
  9
$DIMSHO
 70
     1
  9
$DIMPOST
  1

  9
$DIMAPOST
  1

  9
$DIMALT
 70
     0
  9
$DIMALTD
 70
     2
  9
$DIMALTF
 40
0.0394
  9
$DIMLFAC
 40
1.0
  9
$DIMTOFL
 70
     1
  9
$DIMTVP
 40
0.0
  9
$DIMTIX
 70
     1
  9
$DIMSOXD
 70
     1
  9
$DIMSAH
 70
     1
  9
$DIMBLK1
  1
OPEN
  9
$DIMBLK2
  1
OPEN
  9
$DIMSTYLE
  2
STANDARD
  9
$DIMCLRD
 70
     0
  9
$DIMCLRE
 70
     0
  9
$DIMCLRT
 70
     0
  9
$DIMTFAC
 40
1.0
  9
$DIMGAP
 40
1.0
  9
$DIMJUST
 70
     0
  9
$DIMSD1
 70
     0
  9
$DIMSD2
 70
     0
  9
$DIMTOLJ
 70
     1
  9
$DIMTZIN
 70
     0
  9
$DIMALTZ
 70
     0
  9
$DIMALTTZ
 70
     0
  9
$DIMUPT
 70
     0
  9
$DIMDEC
 70
     4
  9
$DIMTDEC
 70
     4
  9
$DIMALTU
 70
     2
  9
$DIMALTTD
 70
     2
  9
$DIMTXSTY
  7
STANDARD
  9
$DIMAUNIT
 70
     0
  9
$DIMADEC
 70
     0
  9
$DIMALTRND
 40
0.0
  9
$DIMAZIN
 70
     0
  9
$DIMDSEP
 70
    46
  9
$DIMATFIT
 70
     3
  9
$DIMFRAC
 70
     0
  9
$DIMLDRBLK
  1
OPEN
  9
$DIMLUNIT
 70
     2
  9
$DIMLWD
 70
    -2
  9
$DIMLWE
 70
    -2
  9
$DIMTMOVE
 70
     0
  9
$LUNITS
 70
     2
  9
$LUPREC
 70
     4
  9
$SKETCHINC
 40
1.0
  9
$FILLETRAD
 40
0.0
  9
$AUNITS
 70
     0
  9
$AUPREC
 70
     2
  9
$MENU
  1
.
  9
$ELEVATION
 40
0.0
  9
$PELEVATION
 40
0.0
  9
$THICKNESS
 40
0.0
  9
$LIMCHECK
 70
     0
  9
$CHAMFERA
 40
10.0
  9
$CHAMFERB
 40
10.0
  9
$CHAMFERC
 40
0.0
  9
$CHAMFERD
 40
0.0
  9
$SKPOLY
 70
     0
  9
$TDCREATE
 40
2450737.701945255
  9
$TDUCREATE
 40
2450737.326945255
  9
$TDUPDATE
 40
2457192.640346088
  9
$TDUUPDATE
 40
2457192.265346088
  9
$TDINDWG
 40
0.0104502083
  9
$TDUSRTIMER
 40
0.0104498958
  9
$USRTIMER
 70
     1
  9
$ANGBASE
 50
0.0
  9
$ANGDIR
 70
     0
  9
$PDMODE
 70
     0
  9
$PDSIZE
 40
0.0
  9
$PLINEWID
 40
0.0
  9
$SPLFRAME
 70
     0
  9
$SPLINETYPE
 70
     6
  9
$SPLINESEGS
 70
     8
  9
$HANDSEED
  5
A1F1
  9
$SURFTAB1
 70
     6
  9
$SURFTAB2
 70
     6
  9
$SURFTYPE
 70
     6
  9
$SURFU
 70
     6
  9
$SURFV
 70
     6
  9
$UCSBASE
  2

  9
$UCSNAME
  2

  9
$UCSORG
 10
0.0
 20
0.0
 30
0.0
  9
$UCSXDIR
 10
1.0
 20
0.0
 30
0.0
  9
$UCSYDIR
 10
0.0
 20
1.0
 30
0.0
  9
$UCSORTHOREF
  2

  9
$UCSORTHOVIEW
 70
     0
  9
$UCSORGTOP
 10
0.0
 20
0.0
 30
0.0
  9
$UCSORGBOTTOM
 10
0.0
 20
0.0
 30
0.0
  9
$UCSORGLEFT
 10
0.0
 20
0.0
 30
0.0
  9
$UCSORGRIGHT
 10
0.0
 20
0.0
 30
0.0
  9
$UCSORGFRONT
 10
0.0
 20
0.0
 30
0.0
  9
$UCSORGBACK
 10
0.0
 20
0.0
 30
0.0
  9
$PUCSBASE
  2

  9
$PUCSNAME
  2

  9
$PUCSORG
 10
0.0
 20
0.0
 30
0.0
  9
$PUCSXDIR
 10
1.0
 20
0.0
 30
0.0
  9
$PUCSYDIR
 10
0.0
 20
1.0
 30
0.0
  9
$PUCSORTHOREF
  2

  9
$PUCSORTHOVIEW
 70
     0
  9
$PUCSORGTOP
 10
0.0
 20
0.0
 30
0.0
  9
$PUCSORGBOTTOM
 10
0.0
 20
0.0
 30
0.0
  9
$PUCSORGLEFT
 10
0.0
 20
0.0
 30
0.0
  9
$PUCSORGRIGHT
 10
0.0
 20
0.0
 30
0.0
  9
$PUCSORGFRONT
 10
0.0
 20
0.0
 30
0.0
  9
$PUCSORGBACK
 10
0.0
 20
0.0
 30
0.0
  9
$USERI1
 70
     0
  9
$USERI2
 70
     0
  9
$USERI3
 70
     0
  9
$USERI4
 70
     0
  9
$USERI5
 70
     0
  9
$USERR1
 40
0.0
  9
$USERR2
 40
0.0
  9
$USERR3
 40
0.0
  9
$USERR4
 40
0.0
  9
$USERR5
 40
0.0
  9
$WORLDVIEW
 70
     1
  9
$SHADEDGE
 70
     3
  9
$SHADEDIF
 70
    70
  9
$TILEMODE
 70
     1
  9
$MAXACTVP
 70
    16
  9
$PINSBASE
 10
0.0
 20
0.0
 30
0.0
  9
$PLIMCHECK
 70
     0
  9
$PEXTMIN
 10
1.000000000000000E+20
 20
1.000000000000000E+20
 30
1.000000000000000E+20
  9
$PEXTMAX
 10
-1.000000000000000E+20
 20
-1.000000000000000E+20
 30
-1.000000000000000E+20
  9
$PLIMMIN
 10
0.0
 20
0.0
  9
$PLIMMAX
 10
420.0
 20
297.0
  9
$UNITMODE
 70
     0
  9
$VISRETAIN
 70
     0
  9
$PLINEGEN
 70
     0
  9
$PSLTSCALE
 70
     0
  9
$TREEDEPTH
 70
  3020
  9
$CMLSTYLE
  2
STANDARD
  9
$CMLJUST
 70
     0
  9
$CMLSCALE
 40
1.0
  9
$PROXYGRAPHICS
 70
     1
  9
$MEASUREMENT
 70
     0
  9
$CELWEIGHT
370
    -1
  9
$ENDCAPS
280
     0
  9
$JOINSTYLE
280
     0
  9
$LWDISPLAY
290
     0
  9
$INSUNITS
 70
     0
  9
$HYPERLINKBASE
  1

  9
$STYLESHEET
  1

  9
$XEDIT
290
     1
  9
$CEPSNTYPE
380
     0
  9
$PSTYLEMODE
290
     1
  9
$FINGERPRINTGUID
  2
{0A2198E1-67ED-406E-83A4-0CA49D0C4DBD}
  9
$VERSIONGUID
  2
{5E892E4F-A516-4370-BA60-C2884301F87B}
  9
$EXTNAMES
290
     1
  9
$PSVPSCALE
 40
0.0
  9
$OLESTARTUP
290
     0
  0
ENDSEC
  0
SECTION
  2
CLASSES
  0
CLASS
  1
ACDBDICTIONARYWDFLT
  2
AcDbDictionaryWithDefault
  3
ObjectDBX Classes
 90
        0
280
     0
281
     0
  0
CLASS
  1
ACDBPLACEHOLDER
  2
AcDbPlaceHolder
  3
ObjectDBX Classes
 90
        0
280
     0
281
     0
  0
CLASS
  1
LAYOUT
  2
AcDbLayout
  3
ObjectDBX Classes
 90
        0
280
     0
281
     0
  0
CLASS
  1
DICTIONARYVAR
  2
AcDbDictionaryVar
  3
ObjectDBX Classes
 90
        0
280
     0
281
     0
  0
CLASS
  1
MATERIAL
  2
AcDbMaterial
  3
ObjectDBX Classes
 90
     1153
280
     0
281
     0
  0
CLASS
  1
VISUALSTYLE
  2
AcDbVisualStyle
  3
ObjectDBX Classes
 90
     4095
280
     0
281
     0
  0
CLASS
  1
TABLESTYLE
  2
AcDbTableStyle
  3
ObjectDBX Classes
 90
     4095
280
     0
281
     0
  0
CLASS
  1
SCALE
  2
AcDbScale
  3
ObjectDBX Classes
 90
     1153
280
     0
281
     0
  0
CLASS
  1
MLEADERSTYLE
  2
AcDbMLeaderStyle
  3
ACDB_MLEADERSTYLE_CLASS
 90
     4095
280
     0
281
     0
  0
CLASS
  1
ACDBSECTIONVIEWSTYLE
  2
AcDbSectionViewStyle
  3
ObjectDBX Classes
 90
     1025
280
     0
281
     0
  0
CLASS
  1
ACDBDETAILVIEWSTYLE
  2
AcDbDetailViewStyle
  3
ObjectDBX Classes
 90
     1025
280
     0
281
     0
  0
CLASS
  1
CELLSTYLEMAP
  2
AcDbCellStyleMap
  3
ObjectDBX Classes
 90
     1152
280
     0
281
     0
  0
ENDSEC
  0
SECTION
  2
TABLES
  0
TABLE
  2
VPORT
  5
9D7C
330
0
100
AcDbSymbolTable
 70
     1
  0
VPORT
  5
A13A
330
9D7C
100
AcDbSymbolTableRecord
100
AcDbViewportTableRecord
  2
*ACTIVE
 70
     0
 10
0.0
 20
0.0
 11
1.0
 21
1.0
 12
296.8779462117973
 22
175.259285773074
 13
0.0
 23
0.0
 14
10.0
 24
10.0
 15
10.0
 25
10.0
 16
0.0
 26
0.0
 36
1.0
 17
0.0
 27
0.0
 37
0.0
 40
334.2412262940835
 41
1.899603698811096
 42
50.0
 43
0.0
 44
0.0
 50
0.0
 51
0.0
 71
     0
 72
   100
 73
     1
 74
     0
 75
     0
 76
     0
 77
     0
 78
     0
281
     0
 65
     1
110
0.0
120
0.0
130
0.0
111
1.0
121
0.0
131
0.0
112
0.0
122
1.0
132
0.0
 79
     0
146
0.0
1001
ACAD_NAV_VCDISPLAY
1070
     3
  0
ENDTAB
  0
TABLE
  2
LTYPE
  5
9D79
330
0
100
AcDbSymbolTable
 70
     4
  0
LTYPE
  5
9D87
330
9D79
100
AcDbSymbolTableRecord
100
AcDbLinetypeTableRecord
  2
BYBLOCK
 70
     0
  3

 72
    65
 73
     0
 40
0.0
  0
LTYPE
  5
9D88
330
9D79
100
AcDbSymbolTableRecord
100
AcDbLinetypeTableRecord
  2
BYLAYER
 70
     0
  3

 72
    65
 73
     0
 40
0.0
  0
LTYPE
  5
9D89
330
9D79
100
AcDbSymbolTableRecord
100
AcDbLinetypeTableRecord
  2
CONTINUOUS
 70
     0
  3
Solid line
 72
    65
 73
     0
 40
0.0
  0
LTYPE
  5
9D97
330
9D79
100
AcDbSymbolTableRecord
100
AcDbLinetypeTableRecord
  2
DASHED
 70
     0
  3
__ __ __ __ __ __ __ __ __ __ __ __ __ __ __ __
 72
    65
 73
     2
 40
0.75
 49
0.5
 74
     0
 49
-0.25
 74
     0
  0
LTYPE
  5
9D98
330
9D79
100
AcDbSymbolTableRecord
100
AcDbLinetypeTableRecord
  2
CENTER
 70
     0
  3
____ _ ____ _ ____ _ ____ _ ____ _ ____ _ ____ 
 72
    65
 73
     4
 40
2.0
 49
1.25
 74
     0
 49
-0.25
 74
     0
 49
0.25
 74
     0
 49
-0.25
 74
     0
  0
LTYPE
  5
9D99
330
9D79
100
AcDbSymbolTableRecord
100
AcDbLinetypeTableRecord
  2
PHANTOM
 70
     0
  3
______  __  __  ______  __  __  ______  __  __ 
 72
    65
 73
     6
 40
2.5
 49
1.25
 74
     0
 49
-0.25
 74
     0
 49
0.25
 74
     0
 49
-0.25
 74
     0
 49
0.25
 74
     0
 49
-0.25
 74
     0
  0
ENDTAB
  0
TABLE
  2
LAYER
  5
9D76
330
0
100
AcDbSymbolTable
 70
     8
  0
LAYER
  5
9D84
102
{ACAD_XDICTIONARY
360
A195
102
}
330
9D76
100
AcDbSymbolTableRecord
100
AcDbLayerTableRecord
  2
0
 70
     0
 62
     7
  6
CONTINUOUS
370
    -3
390
A143
  0
LAYER
  5
9D9A
102
{ACAD_XDICTIONARY
360
A197
102
}
330
9D76
100
AcDbSymbolTableRecord
100
AcDbLayerTableRecord
  2
4
 70
     0
 62
     1
  6
CENTER
370
    -3
390
A143
  0
LAYER
  5
9D9B
102
{ACAD_XDICTIONARY
360
A199
102
}
330
9D76
100
AcDbSymbolTableRecord
100
AcDbLayerTableRecord
  2
5
 70
     0
 62
     6
  6
PHANTOM
370
    -3
390
A143
  0
LAYER
  5
9D9C
102
{ACAD_XDICTIONARY
360
A19B
102
}
330
9D76
100
AcDbSymbolTableRecord
100
AcDbLayerTableRecord
  2
1
 70
     0
 62
     7
  6
CONTINUOUS
370
    -3
390
A143
  0
LAYER
  5
9D9D
102
{ACAD_XDICTIONARY
360
A19D
102
}
330
9D76
100
AcDbSymbolTableRecord
100
AcDbLayerTableRecord
  2
2
 70
     0
 62
     4
  6
CONTINUOUS
370
    -3
390
A143
  0
LAYER
  5
9D9E
102
{ACAD_XDICTIONARY
360
A19F
102
}
330
9D76
100
AcDbSymbolTableRecord
100
AcDbLayerTableRecord
  2
3
 70
     0
 62
     2
  6
DASHED
370
    -3
390
A143
  0
LAYER
  5
9D9F
102
{ACAD_XDICTIONARY
360
A1A1
102
}
330
9D76
100
AcDbSymbolTableRecord
100
AcDbLayerTableRecord
  2
6
 70
     0
 62
     5
  6
CONTINUOUS
370
    -3
390
A143
  0
LAYER
  5
9DA0
102
{ACAD_XDICTIONARY
360
A1A3
102
}
330
9D76
100
AcDbSymbolTableRecord
100
AcDbLayerTableRecord
  2
7
 70
     0
 62
     3
  6
CONTINUOUS
370
    -3
390
A143
  0
ENDTAB
  0
TABLE
  2
STYLE
  5
9D77
330
0
100
AcDbSymbolTable
 70
     1
  0
STYLE
  5
9D85
330
9D77
100
AcDbSymbolTableRecord
100
AcDbTextStyleTableRecord
  2
STANDARD
 70
     0
 40
0.0
 41
1.0
 50
0.0
 71
     0
 42
5.0
  3
txt
  4

  0
ENDTAB
  0
TABLE
  2
VIEW
  5
9D7A
330
0
100
AcDbSymbolTable
 70
     0
  0
ENDTAB
  0
TABLE
  2
UCS
  5
9D7B
330
0
100
AcDbSymbolTable
 70
     0
  0
ENDTAB
  0
TABLE
  2
APPID
  5
9D7D
330
0
100
AcDbSymbolTable
 70
     3
  0
APPID
  5
9D86
330
9D7D
100
AcDbSymbolTableRecord
100
AcDbRegAppTableRecord
  2
ACAD
 70
     0
  0
APPID
  5
A1AF
330
9D7D
100
AcDbSymbolTableRecord
100
AcDbRegAppTableRecord
  2
ACAD_NAV_VCDISPLAY
 70
     0
  0
APPID
  5
A1E8
330
9D7D
100
AcDbSymbolTableRecord
100
AcDbRegAppTableRecord
  2
ACAD_MLEADERVER
 70
     0
  0
ENDTAB
  0
TABLE
  2
DIMSTYLE
  5
9D7E
330
0
100
AcDbSymbolTable
 70
     1
100
AcDbDimStyleTable
 71
     0
  0
DIMSTYLE
105
9DA2
330
9D7E
100
AcDbSymbolTableRecord
100
AcDbDimStyleTableRecord
  2
STANDARD
 70
     0
 41
2.5
 42
1.0
 43
10.0
 44
1.0
 73
     0
 74
     0
 77
     3
 78
     8
140
2.5
141
0.0
143
0.0394
147
1.0
172
     1
173
     1
174
     1
175
     1
284
     8
285
     8
286
     8
340
9D85
  0
ENDTAB
  0
TABLE
  2
BLOCK_RECORD
  5
9D75
330
0
100
AcDbSymbolTable
 70
     1
  0
BLOCK_RECORD
  5
9D92
102
{ACAD_XDICTIONARY
360
A13D
102
}
330
9D75
100
AcDbSymbolTableRecord
100
AcDbBlockTableRecord
  2
*MODEL_SPACE
340
A191
  0
BLOCK_RECORD
  5
9D8E
102
{ACAD_XDICTIONARY
360
A13B
102
}
330
9D75
100
AcDbSymbolTableRecord
100
AcDbBlockTableRecord
  2
*PAPER_SPACE
340
A192
  0
BLOCK_RECORD
  5
9DAA
330
9D75
100
AcDbSymbolTableRecord
100
AcDbBlockTableRecord
  2
_OPEN
340
0
  0
ENDTAB
  0
ENDSEC
  0
SECTION
  2
BLOCKS
  0
BLOCK
  5
9D93
330
9D92
100
AcDbEntity
  8
0
100
AcDbBlockBegin
  2
*MODEL_SPACE
 70
     0
 10
0.0
 20
0.0
 30
0.0
  3
*MODEL_SPACE
  1

  0
ENDBLK
  5
9D94
330
9D92
100
AcDbEntity
  8
0
100
AcDbBlockEnd
  0
BLOCK
  5
9D8F
330
9D8E
100
AcDbEntity
 67
     1
  8
0
100
AcDbBlockBegin
  2
*PAPER_SPACE
 70
     0
 10
0.0
 20
0.0
 30
0.0
  3
*PAPER_SPACE
  1

  0
ENDBLK
  5
9D90
330
9D8E
100
AcDbEntity
 67
     1
  8
0
100
AcDbBlockEnd
  0
BLOCK
  5
9DAB
330
9DAA
100
AcDbEntity
  8
0
100
AcDbBlockBegin
  2
_OPEN
 70
     0
 10
0.0
 20
0.0
 30
0.0
  3
_OPEN
  1

  0
LINE
  5
9DAC
330
9DAA
100
AcDbEntity
  8
0
  6
ByBlock
 62
     0
100
AcDbLine
 10
-1.0
 20
0.1666666666666666
 30
0.0
 11
0.0
 21
0.0
 31
0.0
  0
LINE
  5
9DAD
330
9DAA
100
AcDbEntity
  8
0
  6
ByBlock
 62
     0
100
AcDbLine
 10
0.0
 20
0.0
 30
0.0
 11
-1.0
 21
-0.1666666666666666
 31
0.0
  0
LINE
  5
9DAE
330
9DAA
100
AcDbEntity
  8
0
  6
ByBlock
 62
     0
100
AcDbLine
 10
0.0
 20
0.0
 30
0.0
 11
-1.0
 21
0.0
 31
0.0
  0
ENDBLK
  5
9DAF
330
9DAA
100
AcDbEntity
  8
0
100
AcDbBlockEnd
  0
ENDSEC
  0
SECTION
  2
ENTITIES
  0
TEXT
  5
9DB0
330
9D92
100
AcDbEntity
  8
7
  6
Continuous
100
AcDbText
 10
10.0
 20
18.0
 30
0.0
 40
3.0
  1
TYPE No.THA-295-2R
100
AcDbText
  0
TEXT
  5
9DB1
330
9D92
100
AcDbEntity
  8
7
  6
Continuous
100
AcDbText
 10
10.0
 20
26.0
 30
0.0
 40
3.0
  1
CODE No.3261
100
AcDbText
  0
TEXT
  5
9DB2
330
9D92
100
AcDbEntity
  8
1
  6
Continuous
100
AcDbText
 10
10.0
 20
10.0
 30
0.0
 40
1.399999999999999
  1
LAYER
100
AcDbText
  0
TEXT
  5
9DB3
330
9D92
100
AcDbEntity
  8
1
  6
Continuous
100
AcDbText
 10
17.97951099999998
 20
10.04873699999998
 30
0.0
 40
1.399999999999999
  1
1
100
AcDbText
  0
TEXT
  5
9DB4
330
9D92
100
AcDbEntity
  8
7
  6
Continuous
100
AcDbText
 10
29.97951099999999
 20
10.04873699999998
 30
0.0
 40
1.399999999999999
  1
7
100
AcDbText
  0
TEXT
  5
9DB5
330
9D92
100
AcDbEntity
  8
4
  6
CENTER
100
AcDbText
 10
23.97951099999999
 20
10.04873699999998
 30
0.0
 40
1.399999999999999
  1
4
100
AcDbText
  0
TEXT
  5
9DB6
330
9D92
100
AcDbEntity
  8
3
  6
DASHED
100
AcDbText
 10
21.979511
 20
10.04873699999998
 30
0.0
 40
1.399999999999999
  1
3
100
AcDbText
  0
TEXT
  5
9DB7
330
9D92
100
AcDbEntity
  8
2
  6
Continuous
100
AcDbText
 10
19.97951099999999
 20
10.04873699999998
 30
0.0
 40
1.399999999999999
  1
2
100
AcDbText
  0
TEXT
  5
9DB8
330
9D92
100
AcDbEntity
  8
6
  6
Continuous
100
AcDbText
 10
27.979511
 20
10.04873699999998
 30
0.0
 40
1.399999999999999
  1
6
100
AcDbText
  0
TEXT
  5
9DB9
330
9D92
100
AcDbEntity
  8
5
  6
PHANTOM
100
AcDbText
 10
25.97951099999999
 20
10.04873699999998
 30
0.0
 40
1.399999999999999
  1
5
100
AcDbText
  0
LINE
  5
9DBA
330
9D92
100
AcDbEntity
  8
1
  6
Continuous
100
AcDbLine
 10
272.3708429999999
 20
239.301849
 30
0.0
 11
272.3708429999999
 21
134.301849
 31
0.0
  0
LINE
  5
9DBB
330
9D92
100
AcDbEntity
  8
1
  6
Continuous
100
AcDbLine
 10
269.3678429999998
 20
134.301849
 30
0.0
 11
272.3708429999999
 21
134.301849
 31
0.0
  0
LINE
  5
9DBC
330
9D92
100
AcDbEntity
  8
1
  6
Continuous
100
AcDbLine
 10
269.597843
 20
239.301849
 30
0.0
 11
272.3708429999999
 21
239.301849
 31
0.0
  0
LINE
  5
9DBD
330
9D92
100
AcDbEntity
  8
1
  6
Continuous
100
AcDbLine
 10
265.880843
 20
237.645849
 30
0.0
 11
233.156843
 21
201.285849
 31
0.0
  0
LINE
  5
9DBE
330
9D92
100
AcDbEntity
  8
1
  6
Continuous
100
AcDbLine
 10
231.1348429999999
 20
196.641849
 30
0.0
 11
227.947843
 21
160.7978489999998
 31
0.0
  0
LINE
  5
9DBF
330
9D92
100
AcDbEntity
  8
1
  6
Continuous
100
AcDbLine
 10
233.6178429999999
 20
152.426849
 30
0.0
 11
253.117843
 21
146.5778489999999
 31
0.0
  0
LINE
  5
9DC0
330
9D92
100
AcDbEntity
  8
1
  6
Continuous
100
AcDbLine
 10
228.170843
 20
163.3018489999997
 30
0.0
 11
242.8708429999999
 21
163.3018489999997
 31
0.0
  0
LINE
  5
9DC1
330
9D92
100
AcDbEntity
  8
1
  6
Continuous
100
AcDbLine
 10
230.143843
 20
161.3018489999998
 30
0.0
 11
241.402843
 21
161.3018489999998
 31
0.0
  0
LINE
  5
9DC2
330
9D92
100
AcDbEntity
  8
1
  6
Continuous
100
AcDbLine
 10
248.8708429999999
 20
204.301849
 30
0.0
 11
248.8708429999999
 21
169.301849
 31
0.0
  0
LINE
  5
9DC3
330
9D92
100
AcDbEntity
  8
1
  6
Continuous
100
AcDbLine
 10
250.8708429999999
 20
202.630849
 30
0.0
 11
250.8708429999999
 21
188.872849
 31
0.0
  0
LINE
  5
9DC4
330
9D92
100
AcDbEntity
  8
1
  6
Continuous
100
AcDbLine
 10
238.570843
 20
207.3018489999999
 30
0.0
 11
245.870843
 21
207.3018489999999
 31
0.0
  0
LINE
  5
9DC5
330
9D92
100
AcDbEntity
  8
1
  6
Continuous
100
AcDbLine
 10
241.264843
 20
209.3018489999999
 30
0.0
 11
244.0158429999999
 21
209.3018489999999
 31
0.0
  0
LINE
  5
9DC6
330
9D92
100
AcDbEntity
  8
1
  6
Continuous
100
AcDbLine
 10
256.3708429999999
 20
174.301849
 30
0.0
 11
256.3708429999999
 21
157.301849
 31
0.0
  0
LINE
  5
9DC7
330
9D92
100
AcDbEntity
  8
1
  6
Continuous
100
AcDbLine
 10
254.370843
 20
171.6768489999997
 30
0.0
 11
254.370843
 21
159.180849
 31
0.0
  0
LINE
  5
9DC8
330
9D92
100
AcDbEntity
  8
1
  6
Continuous
100
AcDbLine
 10
261.097843
 20
152.301849
 30
0.0
 11
268.434843
 21
152.301849
 31
0.0
  0
LINE
  5
9DC9
330
9D92
100
AcDbEntity
  8
1
  6
Continuous
100
AcDbLine
 10
259.3708429999999
 20
154.301849
 30
0.0
 11
272.3708429999999
 21
154.301849
 31
0.0
  0
LINE
  5
9DCA
330
9D92
100
AcDbEntity
  8
1
  6
Continuous
100
AcDbLine
 10
259.3708429999999
 20
177.301849
 30
0.0
 11
272.3708429999999
 21
177.301849
 31
0.0
  0
LINE
  5
9DCB
330
9D92
100
AcDbEntity
  8
1
  6
Continuous
100
AcDbLine
 10
260.868843
 20
179.301849
 30
0.0
 11
268.205843
 21
179.301849
 31
0.0
  0
LINE
  5
9DCC
330
9D92
100
AcDbEntity
  8
4
  6
CENTER
100
AcDbLine
 10
232.3708429999999
 20
169.301849
 30
0.0
 11
242.370843
 21
169.301849
 31
0.0
  0
LINE
  5
9DCD
330
9D92
100
AcDbEntity
  8
1
  6
Continuous
100
AcDbLine
 10
244.370843
 20
185.301849
 30
0.0
 11
247.370843
 21
185.301849
 31
0.0
  0
LINE
  5
9DCE
330
9D92
100
AcDbEntity
  8
1
  6
Continuous
100
AcDbLine
 10
244.370843
 20
205.3018489999999
 30
0.0
 11
247.370843
 21
205.3018489999999
 31
0.0
  0
LINE
  5
9DCF
330
9D92
100
AcDbEntity
  8
1
  6
Continuous
100
AcDbLine
 10
244.370843
 20
205.3018489999999
 30
0.0
 11
244.370843
 21
185.301849
 31
0.0
  0
LINE
  5
9DD0
330
9D92
100
AcDbEntity
  8
1
  6
Continuous
100
AcDbLine
 10
247.370843
 20
205.3018489999999
 30
0.0
 11
247.370843
 21
185.301849
 31
0.0
  0
LINE
  5
9DD1
330
9D92
100
AcDbEntity
  8
1
  6
Continuous
100
AcDbLine
 10
258.3708429999999
 20
156.301849
 30
0.0
 11
267.370843
 21
156.301849
 31
0.0
  0
LINE
  5
9DD2
330
9D92
100
AcDbEntity
  8
1
  6
Continuous
100
AcDbLine
 10
258.3708429999999
 20
175.301849
 30
0.0
 11
267.370843
 21
175.301849
 31
0.0
  0
LINE
  5
9DD3
330
9D92
100
AcDbEntity
  8
1
  6
Continuous
100
AcDbLine
 10
267.370843
 20
175.301849
 30
0.0
 11
267.370843
 21
156.301849
 31
0.0
  0
LINE
  5
9DD4
330
9D92
100
AcDbEntity
  8
1
  6
Continuous
100
AcDbLine
 10
258.3708429999999
 20
175.301849
 30
0.0
 11
258.3708429999999
 21
156.301849
 31
0.0
  0
LINE
  5
9DD5
330
9D92
100
AcDbEntity
  8
1
  6
Continuous
100
AcDbLine
 10
270.070843
 20
179.301849
 30
0.0
 11
272.3708429999999
 21
177.301849
 31
0.0
  0
LINE
  5
9DD6
330
9D92
100
AcDbEntity
  8
1
  6
Continuous
100
AcDbLine
 10
272.3708429999999
 20
154.301849
 30
0.0
 11
270.070843
 21
152.301849
 31
0.0
  0
LINE
  5
9DD7
330
9D92
100
AcDbEntity
  8
1
  6
Continuous
100
AcDbLine
 10
332.3708429999999
 20
239.301849
 30
0.0
 11
332.3708429999999
 21
134.301849
 31
0.0
  0
LINE
  5
9DD8
330
9D92
100
AcDbEntity
  8
1
  6
Continuous
100
AcDbLine
 10
383.870843
 20
208.301849
 30
0.0
 11
383.870843
 21
143.801849
 31
0.0
  0
LINE
  5
9DD9
330
9D92
100
AcDbEntity
  8
1
  6
Continuous
100
AcDbLine
 10
332.3708429999999
 20
134.301849
 30
0.0
 11
374.3708429999998
 21
134.301849
 31
0.0
  0
LINE
  5
9DDA
330
9D92
100
AcDbEntity
  8
1
  6
Continuous
100
AcDbLine
 10
332.3708429999999
 20
239.301849
 30
0.0
 11
343.482843
 21
239.301849
 31
0.0
  0
LINE
  5
9DDB
330
9D92
100
AcDbEntity
  8
1
  6
Continuous
100
AcDbLine
 10
350.237843
 20
236.6748489999999
 30
0.0
 11
367.9768429999999
 21
220.4248489999999
 31
0.0
  0
LINE
  5
9DDC
330
9D92
100
AcDbEntity
  8
4
  6
CENTER
100
AcDbLine
 10
374.3708429999998
 20
213.301849
 30
0.0
 11
374.3708429999998
 21
203.3018489999999
 31
0.0
  0
LINE
  5
9DDD
330
9D92
100
AcDbEntity
  8
4
  6
CENTER
100
AcDbLine
 10
369.370843
 20
208.301849
 30
0.0
 11
379.3708429999999
 21
208.301849
 31
0.0
  0
LINE
  5
9DDE
330
9D92
100
AcDbEntity
  8
4
  6
CENTER
100
AcDbLine
 10
374.3708429999998
 20
148.301849
 30
0.0
 11
374.3708429999998
 21
138.3018489999997
 31
0.0
  0
LINE
  5
9DDF
330
9D92
100
AcDbEntity
  8
4
  6
CENTER
100
AcDbLine
 10
369.370843
 20
143.301849
 30
0.0
 11
379.3708429999999
 21
143.301849
 31
0.0
  0
LINE
  5
9DE0
330
9D92
100
AcDbEntity
  8
4
  6
CENTER
100
AcDbLine
 10
344.370843
 20
148.301849
 30
0.0
 11
344.370843
 21
138.3018489999997
 31
0.0
  0
LINE
  5
9DE1
330
9D92
100
AcDbEntity
  8
4
  6
CENTER
100
AcDbLine
 10
339.3708429999999
 20
143.301849
 30
0.0
 11
349.3708429999998
 21
143.301849
 31
0.0
  0
LINE
  5
9DE2
330
9D92
100
AcDbEntity
  8
1
  6
Continuous
100
AcDbLine
 10
334.3708429999999
 20
177.301849
 30
0.0
 11
334.3708429999999
 21
154.301849
 31
0.0
  0
LINE
  5
9DE3
330
9D92
100
AcDbEntity
  8
1
  6
Continuous
100
AcDbLine
 10
332.3708429999999
 20
179.301849
 30
0.0
 11
334.3708429999999
 21
177.301849
 31
0.0
  0
LINE
  5
9DE4
330
9D92
100
AcDbEntity
  8
1
  6
Continuous
100
AcDbLine
 10
334.3708429999999
 20
154.301849
 30
0.0
 11
332.3708429999999
 21
152.301849
 31
0.0
  0
LINE
  5
9DE5
330
9D92
100
AcDbEntity
  8
4
  6
CENTER
100
AcDbLine
 10
344.370843
 20
235.301849
 30
0.0
 11
344.370843
 21
225.301849
 31
0.0
  0
LINE
  5
9DE6
330
9D92
100
AcDbEntity
  8
4
  6
CENTER
100
AcDbLine
 10
339.3708429999999
 20
230.301849
 30
0.0
 11
349.3708429999998
 21
230.301849
 31
0.0
  0
LINE
  5
9DE7
330
9D92
100
AcDbEntity
  8
1
  6
Continuous
100
AcDbLine
 10
365.070843
 20
153.301849
 30
0.0
 11
365.070843
 21
153.1018489999999
 31
0.0
  0
LINE
  5
9DE8
330
9D92
100
AcDbEntity
  8
1
  6
Continuous
100
AcDbLine
 10
250.8708429999999
 20
182.682849
 30
0.0
 11
250.8708429999999
 21
170.772849
 31
0.0
  0
LINE
  5
9DE9
330
9D92
100
AcDbEntity
  8
4
  6
CENTER
100
AcDbLine
 10
267.370843
 20
143.301849
 30
0.0
 11
277.3708429999999
 21
143.301849
 31
0.0
  0
LINE
  5
9DEA
330
9D92
100
AcDbEntity
  8
4
  6
CENTER
100
AcDbLine
 10
238.500843
 20
193.301849
 30
0.0
 11
299.0668429999999
 21
193.301849
 31
0.0
  0
LINE
  5
9DEB
330
9D92
100
AcDbEntity
  8
4
  6
CENTER
100
AcDbLine
 10
327.3708429999999
 20
169.301849
 30
0.0
 11
337.3708429999999
 21
169.301849
 31
0.0
  0
LINE
  5
9DEC
330
9D92
100
AcDbEntity
  8
1
  6
Continuous
100
AcDbLine
 10
265.3968429999998
 20
192.4768489999999
 30
0.0
 11
264.7668429999999
 21
192.4768489999999
 31
0.0
  0
LINE
  5
9DED
330
9D92
100
AcDbEntity
  8
1
  6
Continuous
100
AcDbLine
 10
264.979843
 20
191.486849
 30
0.0
 11
263.7628429999999
 21
191.486849
 31
0.0
  0
LINE
  5
9DEE
330
9D92
100
AcDbEntity
  8
1
  6
Continuous
100
AcDbLine
 10
263.556843
 20
191.816849
 30
0.0
 11
265.184843
 21
191.816849
 31
0.0
  0
LINE
  5
9DEF
330
9D92
100
AcDbEntity
  8
1
  6
Continuous
100
AcDbLine
 10
263.513843
 20
192.146849
 30
0.0
 11
265.2278429999999
 21
192.146849
 31
0.0
  0
LINE
  5
9DF0
330
9D92
100
AcDbEntity
  8
1
  6
Continuous
100
AcDbLine
 10
263.4658429999999
 20
191.156849
 30
0.0
 11
264.8888429999999
 21
191.156849
 31
0.0
  0
LINE
  5
9DF1
330
9D92
100
AcDbEntity
  8
1
  6
Continuous
100
AcDbLine
 10
263.974843
 20
192.4768489999999
 30
0.0
 11
263.345843
 21
192.4768489999999
 31
0.0
  0
LINE
  5
9DF2
330
9D92
100
AcDbEntity
  8
1
  6
Continuous
100
AcDbLine
 10
265.301843
 20
194.1258489999999
 30
0.0
 11
264.3708429999999
 21
194.1258489999999
 31
0.0
  0
LINE
  5
9DF3
330
9D92
100
AcDbEntity
  8
1
  6
Continuous
100
AcDbLine
 10
264.3708429999999
 20
194.950849
 30
0.0
 11
265.1618429999999
 21
194.950849
 31
0.0
  0
LINE
  5
9DF4
330
9D92
100
AcDbEntity
  8
1
  6
Continuous
100
AcDbLine
 10
264.3708429999999
 20
193.136849
 30
0.0
 11
264.3708429999999
 21
192.8058489999999
 31
0.0
  0
LINE
  5
9DF5
330
9D92
100
AcDbEntity
  8
1
  6
Continuous
100
AcDbLine
 10
264.3708429999999
 20
194.1258489999999
 30
0.0
 11
264.3708429999999
 21
193.9608489999999
 31
0.0
  0
LINE
  5
9DF6
330
9D92
100
AcDbEntity
  8
1
  6
Continuous
100
AcDbLine
 10
264.3708429999999
 20
196.130849
 30
0.0
 11
264.3708429999999
 21
195.4488489999999
 31
0.0
  0
LINE
  5
9DF7
330
9D92
100
AcDbEntity
  8
1
  6
Continuous
100
AcDbLine
 10
264.987843
 20
195.282849
 30
0.0
 11
263.597843
 21
195.6558489999999
 31
0.0
  0
LINE
  5
9DF8
330
9D92
100
AcDbEntity
  8
1
  6
Continuous
100
AcDbLine
 10
263.2478429999998
 20
192.8058489999999
 30
0.0
 11
265.494843
 21
192.8058489999999
 31
0.0
  0
LINE
  5
9DF9
330
9D92
100
AcDbEntity
  8
1
  6
Continuous
100
AcDbLine
 10
263.2208429999999
 20
193.136849
 30
0.0
 11
265.521843
 21
193.136849
 31
0.0
  0
LINE
  5
9DFA
330
9D92
100
AcDbEntity
  8
1
  6
Continuous
100
AcDbLine
 10
263.2208429999999
 20
193.4668489999999
 30
0.0
 11
265.521843
 21
193.4668489999999
 31
0.0
  0
LINE
  5
9DFB
330
9D92
100
AcDbEntity
  8
1
  6
Continuous
100
AcDbLine
 10
263.284843
 20
193.7958489999998
 30
0.0
 11
265.4568429999998
 21
193.7958489999998
 31
0.0
  0
LINE
  5
9DFC
330
9D92
100
AcDbEntity
  8
1
  6
Continuous
100
AcDbLine
 10
263.2868429999999
 20
194.455849
 30
0.0
 11
265.3518429999999
 21
194.455849
 31
0.0
  0
LINE
  5
9DFD
330
9D92
100
AcDbEntity
  8
1
  6
Continuous
100
AcDbLine
 10
263.974843
 20
194.1258489999999
 30
0.0
 11
263.439843
 21
194.1258489999999
 31
0.0
  0
LINE
  5
9DFE
330
9D92
100
AcDbEntity
  8
1
  6
Continuous
100
AcDbLine
 10
263.441843
 20
194.785849
 30
0.0
 11
264.205843
 21
194.785849
 31
0.0
  0
LINE
  5
9DFF
330
9D92
100
AcDbEntity
  8
1
  6
Continuous
100
AcDbLine
 10
264.205843
 20
195.1148489999999
 30
0.0
 11
263.501843
 21
195.1148489999999
 31
0.0
  0
LINE
  5
9E00
330
9D92
100
AcDbEntity
  8
1
  6
Continuous
100
AcDbLine
 10
176.3708429999998
 20
239.301849
 30
0.0
 11
176.3708429999998
 21
134.301849
 31
0.0
  0
LINE
  5
9E01
330
9D92
100
AcDbEntity
  8
1
  6
Continuous
100
AcDbLine
 10
124.8708429999997
 20
208.301849
 30
0.0
 11
124.8708429999997
 21
143.801849
 31
0.0
  0
LINE
  5
9E02
330
9D92
100
AcDbEntity
  8
1
  6
Continuous
100
AcDbLine
 10
176.3708429999998
 20
134.301849
 30
0.0
 11
172.0708429999999
 21
134.301849
 31
0.0
  0
LINE
  5
9E03
330
9D92
100
AcDbEntity
  8
1
  6
Continuous
100
AcDbLine
 10
176.3708429999998
 20
239.301849
 30
0.0
 11
165.2588429999999
 21
239.301849
 31
0.0
  0
LINE
  5
9E04
330
9D92
100
AcDbEntity
  8
1
  6
Continuous
100
AcDbLine
 10
158.5038429999999
 20
236.6748489999999
 30
0.0
 11
144.885843
 21
224.199849
 31
0.0
  0
LINE
  5
9E05
330
9D92
100
AcDbEntity
  8
4
  6
CENTER
100
AcDbLine
 10
148.8708429999998
 20
213.301849
 30
0.0
 11
148.8708429999998
 21
173.301849
 31
0.0
  0
LINE
  5
9E06
330
9D92
100
AcDbEntity
  8
4
  6
CENTER
100
AcDbLine
 10
168.8708429999998
 20
193.301849
 30
0.0
 11
128.8708429999997
 21
193.301849
 31
0.0
  0
LINE
  5
9E07
330
9D92
100
AcDbEntity
  8
4
  6
CENTER
100
AcDbLine
 10
134.3708429999997
 20
148.301849
 30
0.0
 11
134.3708429999997
 21
138.3018489999997
 31
0.0
  0
LINE
  5
9E08
330
9D92
100
AcDbEntity
  8
4
  6
CENTER
100
AcDbLine
 10
139.3708429999997
 20
143.301849
 30
0.0
 11
129.3708429999997
 21
143.301849
 31
0.0
  0
LINE
  5
9E09
330
9D92
100
AcDbEntity
  8
4
  6
CENTER
100
AcDbLine
 10
164.3708429999998
 20
148.301849
 30
0.0
 11
164.3708429999998
 21
138.3018489999997
 31
0.0
  0
LINE
  5
9E0A
330
9D92
100
AcDbEntity
  8
4
  6
CENTER
100
AcDbLine
 10
169.3708429999998
 20
143.301849
 30
0.0
 11
159.3708429999998
 21
143.301849
 31
0.0
  0
LINE
  5
9E0B
330
9D92
100
AcDbEntity
  8
4
  6
CENTER
100
AcDbLine
 10
164.3708429999998
 20
235.301849
 30
0.0
 11
164.3708429999998
 21
225.301849
 31
0.0
  0
LINE
  5
9E0C
330
9D92
100
AcDbEntity
  8
4
  6
CENTER
100
AcDbLine
 10
169.3708429999998
 20
230.301849
 30
0.0
 11
159.3708429999998
 21
230.301849
 31
0.0
  0
LINE
  5
9E0D
330
9D92
100
AcDbEntity
  8
1
  6
Continuous
100
AcDbLine
 10
128.670843
 20
160.1018489999999
 30
0.0
 11
128.670843
 21
153.1018489999999
 31
0.0
  0
LINE
  5
9E0E
330
9D92
100
AcDbEntity
  8
1
  6
Continuous
100
AcDbLine
 10
143.6708429999999
 20
156.1018489999999
 30
0.0
 11
143.6708429999999
 21
153.1018489999999
 31
0.0
  0
LINE
  5
9E0F
330
9D92
100
AcDbEntity
  8
1
  6
Continuous
100
AcDbLine
 10
143.6708429999999
 20
153.1018489999999
 30
0.0
 11
128.670843
 21
153.1018489999999
 31
0.0
  0
LINE
  5
9E10
330
9D92
100
AcDbEntity
  8
1
  6
Continuous
100
AcDbLine
 10
143.6708429999999
 20
156.1018489999999
 30
0.0
 11
131.670843
 21
156.1018489999999
 31
0.0
  0
LINE
  5
9E11
330
9D92
100
AcDbEntity
  8
1
  6
Continuous
100
AcDbLine
 10
131.670843
 20
160.1018489999999
 30
0.0
 11
131.670843
 21
156.1018489999999
 31
0.0
  0
LINE
  5
9E12
330
9D92
100
AcDbEntity
  8
1
  6
Continuous
100
AcDbLine
 10
131.670843
 20
160.1018489999999
 30
0.0
 11
128.670843
 21
160.1018489999999
 31
0.0
  0
LINE
  5
9E13
330
9D92
100
AcDbEntity
  8
1
  6
Continuous
100
AcDbLine
 10
167.0708429999999
 20
160.1018489999999
 30
0.0
 11
167.0708429999999
 21
153.1018489999999
 31
0.0
  0
LINE
  5
9E14
330
9D92
100
AcDbEntity
  8
1
  6
Continuous
100
AcDbLine
 10
164.070843
 20
160.1018489999999
 30
0.0
 11
164.070843
 21
153.1018489999999
 31
0.0
  0
LINE
  5
9E15
330
9D92
100
AcDbEntity
  8
1
  6
Continuous
100
AcDbLine
 10
167.0708429999999
 20
160.1018489999999
 30
0.0
 11
164.070843
 21
160.1018489999999
 31
0.0
  0
LINE
  5
9E16
330
9D92
100
AcDbEntity
  8
1
  6
Continuous
100
AcDbLine
 10
167.0708429999999
 20
153.1018489999999
 30
0.0
 11
164.070843
 21
153.1018489999999
 31
0.0
  0
LINE
  5
9E17
330
9D92
100
AcDbEntity
  8
1
  6
Continuous
100
AcDbLine
 10
131.670843
 20
181.101849
 30
0.0
 11
128.670843
 21
181.101849
 31
0.0
  0
LINE
  5
9E18
330
9D92
100
AcDbEntity
  8
1
  6
Continuous
100
AcDbLine
 10
131.670843
 20
192.1018489999999
 30
0.0
 11
128.670843
 21
192.1018489999999
 31
0.0
  0
LINE
  5
9E19
330
9D92
100
AcDbEntity
  8
1
  6
Continuous
100
AcDbLine
 10
128.670843
 20
192.1018489999999
 30
0.0
 11
128.670843
 21
181.101849
 31
0.0
  0
LINE
  5
9E1A
330
9D92
100
AcDbEntity
  8
1
  6
Continuous
100
AcDbLine
 10
131.670843
 20
181.101849
 30
0.0
 11
131.670843
 21
192.1018489999999
 31
0.0
  0
LINE
  5
9E1B
330
9D92
100
AcDbEntity
  8
1
  6
Continuous
100
AcDbLine
 10
155.6098429999998
 20
206.801849
 30
0.0
 11
148.616843
 21
210.297849
 31
0.0
  0
LINE
  5
9E1C
330
9D92
100
AcDbEntity
  8
1
  6
Continuous
100
AcDbLine
 10
157.1138429999997
 20
209.4038489999999
 30
0.0
 11
149.958843
 21
212.980849
 31
0.0
  0
LINE
  5
9E1D
330
9D92
100
AcDbEntity
  8
1
  6
Continuous
100
AcDbLine
 10
157.1138429999997
 20
209.4038489999999
 30
0.0
 11
155.812843
 21
206.801849
 31
0.0
  0
LINE
  5
9E1E
330
9D92
100
AcDbEntity
  8
1
  6
Continuous
100
AcDbLine
 10
149.958843
 20
212.980849
 30
0.0
 11
148.616843
 21
210.297849
 31
0.0
  0
LINE
  5
9E1F
330
9D92
100
AcDbEntity
  8
4
  6
CENTER
100
AcDbLine
 10
181.3708429999999
 20
169.301849
 30
0.0
 11
164.0528429999999
 21
169.301849
 31
0.0
  0
LINE
  5
9E20
330
9D92
100
AcDbEntity
  8
1
  6
Continuous
100
AcDbLine
 10
35.370843
 20
239.301849
 30
0.0
 11
35.370843
 21
134.301849
 31
0.0
  0
LINE
  5
9E21
330
9D92
100
AcDbEntity
  8
1
  6
Continuous
100
AcDbLine
 10
38.37414299999998
 20
134.301849
 30
0.0
 11
35.370843
 21
134.301849
 31
0.0
  0
LINE
  5
9E22
330
9D92
100
AcDbEntity
  8
1
  6
Continuous
100
AcDbLine
 10
38.14404299999999
 20
239.301849
 30
0.0
 11
35.370843
 21
239.301849
 31
0.0
  0
LINE
  5
9E23
330
9D92
100
AcDbEntity
  8
1
  6
Continuous
100
AcDbLine
 10
41.86044299999998
 20
237.645849
 30
0.0
 11
50.039543
 21
228.558849
 31
0.0
  0
LINE
  5
9E24
330
9D92
100
AcDbEntity
  8
1
  6
Continuous
100
AcDbLine
 10
76.60714299999998
 20
196.641849
 30
0.0
 11
79.79334299999996
 21
160.7978489999998
 31
0.0
  0
LINE
  5
9E25
330
9D92
100
AcDbEntity
  8
1
  6
Continuous
100
AcDbLine
 10
74.12354300000001
 20
152.426849
 30
0.0
 11
71.228343
 21
151.558849
 31
0.0
  0
LINE
  5
9E26
330
9D92
100
AcDbEntity
  8
1
  6
Continuous
100
AcDbLine
 10
58.87084300000001
 20
182.142849
 30
0.0
 11
58.87084300000001
 21
180.843849
 31
0.0
  0
LINE
  5
9E27
330
9D92
100
AcDbEntity
  8
1
  6
Continuous
100
AcDbLine
 10
63.370843
 20
185.301849
 30
0.0
 11
60.370843
 21
185.301849
 31
0.0
  0
LINE
  5
9E28
330
9D92
100
AcDbEntity
  8
1
  6
Continuous
100
AcDbLine
 10
63.370843
 20
188.0098489999998
 30
0.0
 11
63.370843
 21
185.301849
 31
0.0
  0
LINE
  5
9E29
330
9D92
100
AcDbEntity
  8
1
  6
Continuous
100
AcDbLine
 10
60.370843
 20
187.999849
 30
0.0
 11
60.370843
 21
185.301849
 31
0.0
  0
LINE
  5
9E2A
330
9D92
100
AcDbEntity
  8
1
  6
Continuous
100
AcDbLine
 10
37.670743
 20
239.301849
 30
0.0
 11
37.670743
 21
134.301849
 31
0.0
  0
LINE
  5
9E2B
330
9D92
100
AcDbEntity
  8
4
  6
CENTER
100
AcDbLine
 10
41.98504299999997
 20
143.301849
 30
0.0
 11
30.370843
 21
143.301849
 31
0.0
  0
LINE
  5
9E2C
330
9D92
100
AcDbEntity
  8
4
  6
CENTER
100
AcDbLine
 10
63.571443
 20
169.801849
 30
0.0
 11
30.370843
 21
169.801849
 31
0.0
  0
LINE
  5
9E2D
330
9D92
100
AcDbEntity
  8
4
  6
CENTER
100
AcDbLine
 10
59.607443
 20
193.301849
 30
0.0
 11
9.684125999999999
 21
193.301849
 31
0.0
  0
LINE
  5
9E2E
330
9D92
100
AcDbEntity
  8
4
  6
CENTER
100
AcDbLine
 10
51.368843
 20
208.301849
 30
0.0
 11
30.370843
 21
208.301849
 31
0.0
  0
LINE
  5
9E2F
330
9D92
100
AcDbEntity
  8
4
  6
CENTER
100
AcDbLine
 10
47.68764299999999
 20
230.301849
 30
0.0
 11
30.370843
 21
230.301849
 31
0.0
  0
LINE
  5
9E30
330
9D92
100
AcDbEntity
  8
1
  6
Continuous
100
AcDbLine
 10
135.2708429999997
 20
174.719849
 30
0.0
 11
135.2708429999997
 21
164.8828489999999
 31
0.0
  0
LINE
  5
9E31
330
9D92
100
AcDbEntity
  8
1
  6
Continuous
100
AcDbLine
 10
133.470843
 20
174.719849
 30
0.0
 11
133.470843
 21
164.8828489999999
 31
0.0
  0
LINE
  5
9E32
330
9D92
100
AcDbEntity
  8
1
  6
Continuous
100
AcDbLine
 10
174.3708429999998
 20
207.3018489999999
 30
0.0
 11
174.3708429999998
 21
163.3018489999997
 31
0.0
  0
LINE
  5
9E33
330
9D92
100
AcDbEntity
  8
1
  6
Continuous
100
AcDbLine
 10
172.0708429999999
 20
207.3011578065418
 30
0.0
 11
172.0708429999999
 21
128.686849
 31
0.0
  0
LINE
  5
9E34
330
9D92
100
AcDbEntity
  8
1
  6
Continuous
100
AcDbLine
 10
174.3708429999998
 20
207.3018489999999
 30
0.0
 11
175.6971885967288
 21
208.6281945967288
 31
0.0
  0
LINE
  5
9E35
330
9D92
100
AcDbEntity
  8
1
  6
Continuous
100
AcDbLine
 10
172.7444974032709
 20
208.9275034032707
 30
0.0
 11
174.0708429999999
 21
210.253849
 31
0.0
  0
LINE
  5
9E36
330
9D92
100
AcDbEntity
  8
1
  6
Continuous
100
AcDbLine
 10
174.0708429999999
 20
239.301849
 30
0.0
 11
174.0708429999999
 21
210.253849
 31
0.0
  0
LINE
  5
9E37
330
9D92
100
AcDbEntity
  8
1
  6
Continuous
100
AcDbLine
 10
174.3708429999998
 20
163.3018489999997
 30
0.0
 11
175.6971885967288
 21
161.9755034032707
 31
0.0
  0
LINE
  5
9E38
330
9D92
100
AcDbEntity
  8
1
  6
Continuous
100
AcDbLine
 10
172.7444974032709
 20
161.675194596729
 30
0.0
 11
174.0708429999999
 21
160.348849
 31
0.0
  0
LINE
  5
9E39
330
9D92
100
AcDbEntity
  8
1
  6
Continuous
100
AcDbLine
 10
40.370843
 20
203.801849
 30
0.0
 11
40.370843
 21
164.4838489999998
 31
0.0
  0
LINE
  5
9E3A
330
9D92
100
AcDbEntity
  8
1
  6
Continuous
100
AcDbLine
 10
59.570843
 20
174.8018489999997
 30
0.0
 11
59.570843
 21
164.801849
 31
0.0
  0
LINE
  5
9E3B
330
9D92
100
AcDbEntity
  8
1
  6
Continuous
100
AcDbLine
 10
59.570843
 20
174.8018489999997
 30
0.0
 11
58.070843
 21
174.8018489999997
 31
0.0
  0
LINE
  5
9E3C
330
9D92
100
AcDbEntity
  8
1
  6
Continuous
100
AcDbLine
 10
59.570843
 20
164.801849
 30
0.0
 11
58.070843
 21
164.801849
 31
0.0
  0
LINE
  5
9E3D
330
9D92
100
AcDbEntity
  8
1
  6
Continuous
100
AcDbLine
 10
41.670743
 20
173.8018489999998
 30
0.0
 11
40.370843
 21
173.8018489999998
 31
0.0
  0
LINE
  5
9E3E
330
9D92
100
AcDbEntity
  8
1
  6
Continuous
100
AcDbLine
 10
41.670743
 20
165.801849
 30
0.0
 11
40.370843
 21
165.801849
 31
0.0
  0
LINE
  5
9E3F
330
9D92
100
AcDbEntity
  8
1
  6
Continuous
100
AcDbLine
 10
143.9428429999999
 20
155.7298489999998
 30
0.0
 11
141.0858429999999
 21
166.938849
 31
0.0
  0
LINE
  5
9E40
330
9D92
100
AcDbEntity
  8
1
  6
Continuous
100
AcDbLine
 10
145.3958429999999
 20
156.099849
 30
0.0
 11
141.444843
 21
171.604849
 31
0.0
  0
LINE
  5
9E41
330
9D92
100
AcDbEntity
  8
1
  6
Continuous
100
AcDbLine
 10
133.6208429999997
 20
174.8018489999997
 30
0.0
 11
133.6208429999997
 21
165.331849
 31
0.0
  0
LINE
  5
9E42
330
9D92
100
AcDbEntity
  8
1
  6
Continuous
100
AcDbLine
 10
135.1208429999997
 20
174.8018489999997
 30
0.0
 11
135.1208429999997
 21
164.8828489999999
 31
0.0
  0
LINE
  5
9E43
330
9D92
100
AcDbEntity
  8
1
  6
Continuous
100
AcDbLine
 10
133.6208429999997
 20
174.8018489999997
 30
0.0
 11
135.1208429999997
 21
174.8018489999997
 31
0.0
  0
LINE
  5
9E44
330
9D92
100
AcDbEntity
  8
1
  6
Continuous
100
AcDbLine
 10
58.070843
 20
176.3518489999999
 30
0.0
 11
58.070843
 21
163.2518489999999
 31
0.0
  0
LINE
  5
9E45
330
9D92
100
AcDbEntity
  8
1
  6
Continuous
100
AcDbLine
 10
56.57084300000001
 20
176.3518489999999
 30
0.0
 11
56.57084300000001
 21
163.2518489999999
 31
0.0
  0
LINE
  5
9E46
330
9D92
100
AcDbEntity
  8
1
  6
Continuous
100
AcDbLine
 10
55.087443
 20
176.3518489999999
 30
0.0
 11
55.087443
 21
163.2518489999999
 31
0.0
  0
LINE
  5
9E47
330
9D92
100
AcDbEntity
  8
1
  6
Continuous
100
AcDbLine
 10
53.60414300000001
 20
176.3518489999999
 30
0.0
 11
53.60414300000001
 21
163.2518489999999
 31
0.0
  0
LINE
  5
9E48
330
9D92
100
AcDbEntity
  8
1
  6
Continuous
100
AcDbLine
 10
52.120843
 20
176.3518489999999
 30
0.0
 11
52.120843
 21
163.2518489999999
 31
0.0
  0
LINE
  5
9E49
330
9D92
100
AcDbEntity
  8
1
  6
Continuous
100
AcDbLine
 10
50.63744299999999
 20
176.3518489999999
 30
0.0
 11
50.63744299999999
 21
163.2518489999999
 31
0.0
  0
LINE
  5
9E4A
330
9D92
100
AcDbEntity
  8
1
  6
Continuous
100
AcDbLine
 10
49.154143
 20
174.8018489999997
 30
0.0
 11
48.370843
 21
174.8018489999997
 31
0.0
  0
LINE
  5
9E4B
330
9D92
100
AcDbEntity
  8
1
  6
Continuous
100
AcDbLine
 10
49.154143
 20
164.801849
 30
0.0
 11
48.370843
 21
164.801849
 31
0.0
  0
LINE
  5
9E4C
330
9D92
100
AcDbEntity
  8
1
  6
Continuous
100
AcDbLine
 10
62.62994299999999
 20
132.246849
 30
0.0
 11
77.67914300000002
 21
166.0478489999999
 31
0.0
  0
LINE
  5
9E4D
330
9D92
100
AcDbEntity
  8
1
  6
Continuous
100
AcDbLine
 10
48.083343
 20
183.875849
 30
0.0
 11
51.90714299999999
 21
182.801849
 31
0.0
  0
LINE
  5
9E4E
330
9D92
100
AcDbEntity
  8
1
  6
Continuous
100
AcDbLine
 10
58.282043
 20
159.1448489999999
 30
0.0
 11
51.405843
 21
136.424849
 31
0.0
  0
LINE
  5
9E4F
330
9D92
100
AcDbEntity
  8
1
  6
Continuous
100
AcDbLine
 10
57.409843
 20
162.5068489999998
 30
0.0
 11
58.22504300000001
 21
160.4668489999999
 31
0.0
  0
LINE
  5
9E50
330
9D92
100
AcDbEntity
  8
1
  6
Continuous
100
AcDbLine
 10
170.0708429999999
 20
183.950849
 30
0.0
 11
170.0708429999999
 21
128.686849
 31
0.0
  0
LINE
  5
9E51
330
9D92
100
AcDbEntity
  8
1
  6
Continuous
100
AcDbLine
 10
172.0708429999999
 20
128.686849
 30
0.0
 11
170.0708429999999
 21
128.686849
 31
0.0
  0
LINE
  5
9E52
330
9D92
100
AcDbEntity
  8
1
  6
Continuous
100
AcDbLine
 10
170.0708429999999
 20
134.301849
 30
0.0
 11
134.3708429999997
 21
134.301849
 31
0.0
  0
LINE
  5
9E53
330
9D92
100
AcDbEntity
  8
1
  6
Continuous
100
AcDbLine
 10
168.0708429999999
 20
176.301849
 30
0.0
 11
168.0708429999999
 21
162.3018489999997
 31
0.0
  0
LINE
  5
9E54
330
9D92
100
AcDbEntity
  8
1
  6
Continuous
100
AcDbLine
 10
170.0708429999999
 20
161.801849
 30
0.0
 11
168.570843
 21
161.801849
 31
0.0
  0
LINE
  5
9E55
330
9D92
100
AcDbEntity
  8
1
  6
Continuous
100
AcDbLine
 10
170.0708429999999
 20
176.801849
 30
0.0
 11
168.570843
 21
176.801849
 31
0.0
  0
LINE
  5
9E56
330
9D92
100
AcDbEntity
  8
1
  6
Continuous
100
AcDbLine
 10
168.570843
 20
161.801849
 30
0.0
 11
168.0708429999999
 21
162.3018489999997
 31
0.0
  0
LINE
  5
9E57
330
9D92
100
AcDbEntity
  8
1
  6
Continuous
100
AcDbLine
 10
168.570843
 20
176.801849
 30
0.0
 11
168.0708429999999
 21
176.301849
 31
0.0
  0
LINE
  5
9E58
330
9D92
100
AcDbEntity
  8
1
  6
Continuous
100
AcDbLine
 10
168.570843
 20
176.801849
 30
0.0
 11
168.570843
 21
161.801849
 31
0.0
  0
LINE
  5
9E59
330
9D92
100
AcDbEntity
  8
1
  6
Continuous
100
AcDbLine
 10
172.0708429999999
 20
183.950849
 30
0.0
 11
170.0708429999999
 21
183.950849
 31
0.0
  0
LINE
  5
9E5A
330
9D92
100
AcDbEntity
  8
1
  6
Continuous
100
AcDbLine
 10
156.606843
 20
180.076849
 30
0.0
 11
164.2928429999997
 21
179.492849
 31
0.0
  0
LINE
  5
9E5B
330
9D92
100
AcDbEntity
  8
1
  6
Continuous
100
AcDbLine
 10
145.2698429999998
 20
156.5968489999999
 30
0.0
 11
153.203843
 21
155.5728489999999
 31
0.0
  0
LINE
  5
9E5C
330
9D92
100
AcDbEntity
  8
1
  6
Continuous
100
AcDbLine
 10
133.345843
 20
161.866849
 30
0.0
 11
142.685843
 21
160.6618489999999
 31
0.0
  0
LINE
  5
9E5D
330
9D92
100
AcDbEntity
  8
1
  6
Continuous
100
AcDbLine
 10
145.845843
 20
161.0598489999999
 30
0.0
 11
145.2698429999998
 21
156.5968489999999
 31
0.0
  0
LINE
  5
9E5E
330
9D92
100
AcDbEntity
  8
1
  6
Continuous
100
AcDbLine
 10
153.779843
 20
160.035849
 30
0.0
 11
153.203843
 21
155.5728489999999
 31
0.0
  0
LINE
  5
9E5F
330
9D92
100
AcDbEntity
  8
1
  6
Continuous
100
AcDbLine
 10
145.845843
 20
161.0598489999999
 30
0.0
 11
153.779843
 21
160.035849
 31
0.0
  0
LINE
  5
9E60
330
9D92
100
AcDbEntity
  8
1
  6
Continuous
100
AcDbLine
 10
168.0708429999999
 20
166.825849
 30
0.0
 11
162.566843
 21
161.7218489999999
 31
0.0
  0
LINE
  5
9E61
330
9D92
100
AcDbEntity
  8
1
  6
Continuous
100
AcDbLine
 10
165.881843
 20
178.483849
 30
0.0
 11
167.2208429999997
 21
176.118849
 31
0.0
  0
LINE
  5
9E62
330
9D92
100
AcDbEntity
  8
1
  6
Continuous
100
AcDbLine
 10
153.677843
 20
159.241849
 30
0.0
 11
154.486843
 21
159.1378489999998
 31
0.0
  0
LINE
  5
9E63
330
9D92
100
AcDbEntity
  8
1
  6
Continuous
100
AcDbLine
 10
39.870843
 20
213.365849
 30
0.0
 11
39.870843
 21
176.474849
 31
0.0
  0
LINE
  5
9E64
330
9D92
100
AcDbEntity
  8
4
  6
CENTER
100
AcDbLine
 10
40.370843
 20
178.301849
 30
0.0
 11
30.370843
 21
178.301849
 31
0.0
  0
LINE
  5
9E65
330
9D92
100
AcDbEntity
  8
1
  6
Continuous
100
AcDbLine
 10
16.670793
 20
213.301849
 30
0.0
 11
35.370843
 21
213.301849
 31
0.0
  0
LINE
  5
9E66
330
9D92
100
AcDbEntity
  8
1
  6
Continuous
100
AcDbLine
 10
14.370803
 20
211.0018489999999
 30
0.0
 11
14.370803
 21
155.6018489999999
 31
0.0
  0
LINE
  5
9E67
330
9D92
100
AcDbEntity
  8
1
  6
Continuous
100
AcDbLine
 10
16.670793
 20
153.301849
 30
0.0
 11
35.370843
 21
153.301849
 31
0.0
  0
LINE
  5
9E68
330
9D92
100
AcDbEntity
  8
1
  6
Continuous
100
AcDbLine
 10
40.370843
 20
215.344849
 30
0.0
 11
40.370843
 21
212.801849
 31
0.0
  0
LINE
  5
9E69
330
9D92
100
AcDbEntity
  8
1
  6
Continuous
100
AcDbLine
 10
40.370843
 20
199.551849
 30
0.0
 11
39.870843
 21
199.551849
 31
0.0
  0
LINE
  5
9E6A
330
9D92
100
AcDbEntity
  8
1
  6
Continuous
100
AcDbLine
 10
40.370843
 20
187.051849
 30
0.0
 11
39.870843
 21
187.051849
 31
0.0
  0
LINE
  5
9E6B
330
9D92
100
AcDbEntity
  8
1
  6
Continuous
100
AcDbLine
 10
44.870843
 20
215.344849
 30
0.0
 11
44.870843
 21
213.258849
 31
0.0
  0
LINE
  5
9E6C
330
9D92
100
AcDbEntity
  8
1
  6
Continuous
100
AcDbLine
 10
159.118843
 20
214.5248489999999
 30
0.0
 11
157.8118429999999
 21
207.343849
 31
0.0
  0
LINE
  5
9E6D
330
9D92
100
AcDbEntity
  8
1
  6
Continuous
100
AcDbLine
 10
160.3478429999999
 20
215.3148489999999
 30
0.0
 11
164.804843
 21
214.186849
 31
0.0
  0
LINE
  5
9E6E
330
9D92
100
AcDbEntity
  8
1
  6
Continuous
100
AcDbLine
 10
40.370843
 20
215.344849
 30
0.0
 11
44.870843
 21
215.344849
 31
0.0
  0
LINE
  5
9E6F
330
9D92
100
AcDbEntity
  8
1
  6
Continuous
100
AcDbLine
 10
40.370843
 20
181.694849
 30
0.0
 11
44.870843
 21
181.694849
 31
0.0
  0
LINE
  5
9E70
330
9D92
100
AcDbEntity
  8
1
  6
Continuous
100
AcDbLine
 10
46.170743
 20
156.5968489999999
 30
0.0
 11
48.387443
 21
156.5968489999999
 31
0.0
  0
LINE
  5
9E71
330
9D92
100
AcDbEntity
  8
1
  6
Continuous
100
AcDbLine
 10
46.170743
 20
155.8288489999999
 30
0.0
 11
48.387443
 21
155.8288489999999
 31
0.0
  0
LINE
  5
9E72
330
9D92
100
AcDbEntity
  8
1
  6
Continuous
100
AcDbLine
 10
41.670743
 20
177.801849
 30
0.0
 11
46.370843
 21
177.801849
 31
0.0
  0
LINE
  5
9E73
330
9D92
100
AcDbEntity
  8
1
  6
Continuous
100
AcDbLine
 10
54.670743
 20
161.0598489999999
 30
0.0
 11
54.670743
 21
155.5728489999999
 31
0.0
  0
LINE
  5
9E74
330
9D92
100
AcDbEntity
  8
1
  6
Continuous
100
AcDbLine
 10
41.670743
 20
177.801849
 30
0.0
 11
41.670743
 21
160.266849
 31
0.0
  0
LINE
  5
9E75
330
9D92
100
AcDbEntity
  8
1
  6
Continuous
100
AcDbLine
 10
46.170743
 20
177.801849
 30
0.0
 11
46.170743
 21
160.266849
 31
0.0
  0
LINE
  5
9E76
330
9D92
100
AcDbEntity
  8
1
  6
Continuous
100
AcDbLine
 10
51.170743
 20
155.8288489999999
 30
0.0
 11
54.67084299999999
 21
155.5728489999999
 31
0.0
  0
LINE
  5
9E77
330
9D92
100
AcDbEntity
  8
4
  6
CENTER
100
AcDbLine
 10
57.14864300000001
 20
139.6868489999999
 30
0.0
 11
57.14864300000001
 21
129.686849
 31
0.0
  0
LINE
  5
9E78
330
9D92
100
AcDbEntity
  8
4
  6
CENTER
100
AcDbLine
 10
52.148643
 20
134.686849
 30
0.0
 11
62.14864300000001
 21
134.686849
 31
0.0
  0
LINE
  5
9E79
330
9D92
100
AcDbEntity
  8
1
  6
Continuous
100
AcDbLine
 10
46.170743
 20
161.0598489999999
 30
0.0
 11
48.387443
 21
161.0598489999999
 31
0.0
  0
LINE
  5
9E7A
330
9D92
100
AcDbEntity
  8
1
  6
Continuous
100
AcDbLine
 10
49.887443
 20
156.5968489999999
 30
0.0
 11
54.670743
 21
156.5968489999999
 31
0.0
  0
LINE
  5
9E7B
330
9D92
100
AcDbEntity
  8
1
  6
Continuous
100
AcDbLine
 10
46.370843
 20
179.801849
 30
0.0
 11
46.370843
 21
161.0598489999999
 31
0.0
  0
LINE
  5
9E7C
330
9D92
100
AcDbEntity
  8
1
  6
Continuous
100
AcDbLine
 10
48.370843
 20
179.801849
 30
0.0
 11
48.370843
 21
161.0598489999999
 31
0.0
  0
LINE
  5
9E7D
330
9D92
100
AcDbEntity
  8
1
  6
Continuous
100
AcDbLine
 10
48.370843
 20
175.8018489999997
 30
0.0
 11
46.370843
 21
175.8018489999997
 31
0.0
  0
LINE
  5
9E7E
330
9D92
100
AcDbEntity
  8
1
  6
Continuous
100
AcDbLine
 10
56.37084300000001
 20
182.801849
 30
0.0
 11
49.370843
 21
182.801849
 31
0.0
  0
LINE
  5
9E7F
330
9D92
100
AcDbEntity
  8
1
  6
Continuous
100
AcDbLine
 10
56.37084300000001
 20
180.801849
 30
0.0
 11
49.370843
 21
180.801849
 31
0.0
  0
LINE
  5
9E80
330
9D92
100
AcDbEntity
  8
1
  6
Continuous
100
AcDbLine
 10
57.37084300000001
 20
206.7248489999998
 30
0.0
 11
57.37084300000001
 21
183.8018489999998
 31
0.0
  0
LINE
  5
9E81
330
9D92
100
AcDbEntity
  8
1
  6
Continuous
100
AcDbLine
 10
59.37084300000001
 20
187.999849
 30
0.0
 11
59.37084300000001
 21
183.8018489999998
 31
0.0
  0
LINE
  5
9E82
330
9D92
100
AcDbEntity
  8
1
  6
Continuous
100
AcDbLine
 10
49.870843
 20
234.801849
 30
0.0
 11
59.70324300000001
 21
233.666849
 31
0.0
  0
LINE
  5
9E83
330
9D92
100
AcDbEntity
  8
1
  6
Continuous
100
AcDbLine
 10
64.521443
 20
187.999849
 30
0.0
 11
59.37084300000001
 21
187.999849
 31
0.0
  0
LINE
  5
9E84
330
9D92
100
AcDbEntity
  8
1
  6
Continuous
100
AcDbLine
 10
63.220643
 20
230.1318489999999
 30
0.0
 11
67.503343
 21
191.328849
 31
0.0
  0
LINE
  5
9E85
330
9D92
100
AcDbEntity
  8
1
  6
Continuous
100
AcDbLine
 10
50.324343
 20
218.0188489999999
 30
0.0
 11
49.870843
 21
234.801849
 31
0.0
  0
LINE
  5
9E86
330
9D92
100
AcDbEntity
  8
1
  6
Continuous
100
AcDbLine
 10
51.462943
 20
214.9748489999999
 30
0.0
 11
56.686543
 21
208.631849
 31
0.0
  0
LINE
  5
9E87
330
9D92
100
AcDbEntity
  8
1
  6
Continuous
100
AcDbLine
 10
65.26094300000001
 20
211.645849
 30
0.0
 11
74.58494300000002
 21
201.285849
 31
0.0
  0
LINE
  5
9E88
330
9D92
100
AcDbEntity
  8
1
  6
Continuous
100
AcDbLine
 10
57.77704299999999
 20
181.151849
 30
0.0
 11
72.53564299999998
 21
177.002849
 31
0.0
  0
LINE
  5
9E89
330
9D92
100
AcDbEntity
  8
4
  6
CENTER
100
AcDbLine
 10
70.370843
 20
179.301849
 30
0.0
 11
70.370843
 21
159.301849
 31
0.0
  0
LINE
  5
9E8A
330
9D92
100
AcDbEntity
  8
4
  6
CENTER
100
AcDbLine
 10
60.370843
 20
169.301849
 30
0.0
 11
80.37084299999998
 21
169.301849
 31
0.0
  0
LINE
  5
9E8B
330
9D92
100
AcDbEntity
  8
1
  6
Continuous
100
AcDbLine
 10
37.670843
 20
216.6018489999999
 30
0.0
 11
39.138543
 21
215.133849
 31
0.0
  0
LINE
  5
9E8C
330
9D92
100
AcDbEntity
  8
1
  6
Continuous
100
AcDbLine
 10
44.370843
 20
212.801849
 30
0.0
 11
39.870843
 21
212.801849
 31
0.0
  0
LINE
  5
9E8D
330
9D92
100
AcDbEntity
  8
1
  6
Continuous
100
AcDbLine
 10
44.370843
 20
203.801849
 30
0.0
 11
39.870843
 21
203.801849
 31
0.0
  0
LINE
  5
9E8E
330
9D92
100
AcDbEntity
  8
1
  6
Continuous
100
AcDbLine
 10
44.370843
 20
212.801849
 30
0.0
 11
44.370843
 21
203.801849
 31
0.0
  0
LINE
  5
9E8F
330
9D92
100
AcDbEntity
  8
1
  6
Continuous
100
AcDbLine
 10
46.67084299999999
 20
212.185849
 30
0.0
 11
46.67084299999999
 21
204.4168489999999
 31
0.0
  0
LINE
  5
9E90
330
9D92
100
AcDbEntity
  8
1
  6
Continuous
100
AcDbLine
 10
48.170843
 20
212.185849
 30
0.0
 11
48.170843
 21
204.4168489999999
 31
0.0
  0
LINE
  5
9E91
330
9D92
100
AcDbEntity
  8
1
  6
Continuous
100
AcDbLine
 10
46.67084299999999
 20
211.301849
 30
0.0
 11
45.883243
 21
211.301849
 31
0.0
  0
LINE
  5
9E92
330
9D92
100
AcDbEntity
  8
1
  6
Continuous
100
AcDbLine
 10
46.67084299999999
 20
205.3018489999999
 30
0.0
 11
46.214143
 21
205.3018489999999
 31
0.0
  0
LINE
  5
9E93
330
9D92
100
AcDbEntity
  8
1
  6
Continuous
100
AcDbLine
 10
44.870843
 20
203.801849
 30
0.0
 11
44.870843
 21
177.801849
 31
0.0
  0
LINE
  5
9E94
330
9D92
100
AcDbEntity
  8
1
  6
Continuous
100
AcDbLine
 10
135.1368429999999
 20
204.375849
 30
0.0
 11
141.8278429999998
 21
202.6088489999999
 31
0.0
  0
LINE
  5
9E95
330
9D92
100
AcDbEntity
  8
1
  6
Continuous
100
AcDbLine
 10
133.093843
 20
203.466849
 30
0.0
 11
141.6898429999999
 21
201.196849
 31
0.0
  0
LINE
  5
9E96
330
9D92
100
AcDbEntity
  8
1
  6
Continuous
100
AcDbLine
 10
135.6478429999999
 20
213.135849
 30
0.0
 11
135.391843
 21
212.1688489999999
 31
0.0
  0
LINE
  5
9E97
330
9D92
100
AcDbEntity
  8
4
  6
CENTER
100
AcDbLine
 10
140.8708429999998
 20
208.301849
 30
0.0
 11
127.870843
 21
208.301849
 31
0.0
  0
LINE
  5
9E98
330
9D92
100
AcDbEntity
  8
4
  6
CENTER
100
AcDbLine
 10
134.3708429999997
 20
214.8018490000001
 30
0.0
 11
134.3708429999997
 21
201.801849
 31
0.0
  0
LINE
  5
9E99
330
9D92
100
AcDbEntity
  8
1
  6
Continuous
100
AcDbLine
 10
141.3708429999998
 20
234.801849
 30
0.0
 11
137.3708429999997
 21
234.801849
 31
0.0
  0
LINE
  5
9E9A
330
9D92
100
AcDbEntity
  8
1
  6
Continuous
100
AcDbLine
 10
156.3708429999998
 20
190.658849
 30
0.0
 11
156.3708429999998
 21
180.4288489999999
 31
0.0
  0
LINE
  5
9E9B
330
9D92
100
AcDbEntity
  8
1
  6
Continuous
100
AcDbLine
 10
131.8708429999997
 20
184.4778489999999
 30
0.0
 11
131.8708429999997
 21
180.513849
 31
0.0
  0
LINE
  5
9E9C
330
9D92
100
AcDbEntity
  8
1
  6
Continuous
100
AcDbLine
 10
137.3708429999997
 20
234.801849
 30
0.0
 11
141.7298429999999
 21
204.2848489999999
 31
0.0
  0
LINE
  5
9E9D
330
9D92
100
AcDbEntity
  8
1
  6
Continuous
100
AcDbLine
 10
139.423843
 20
196.3628489999999
 30
0.0
 11
133.3708429999997
 21
189.301849
 31
0.0
  0
LINE
  5
9E9E
330
9D92
100
AcDbEntity
  8
1
  6
Continuous
100
AcDbLine
 10
133.3708429999997
 20
189.301849
 30
0.0
 11
134.8888429999997
 21
187.999849
 31
0.0
  0
LINE
  5
9E9F
330
9D92
100
AcDbEntity
  8
1
  6
Continuous
100
AcDbLine
 10
144.935843
 20
223.849849
 30
0.0
 11
146.3898429999999
 21
213.669849
 31
0.0
  0
LINE
  5
9EA0
330
9D92
100
AcDbEntity
  8
1
  6
Continuous
100
AcDbLine
 10
155.553843
 20
160.0918489999999
 30
0.0
 11
144.0098429999999
 21
161.5388489999999
 31
0.0
  0
LINE
  5
9EA1
330
9D92
100
AcDbEntity
  8
5
  6
PHANTOM
100
AcDbLine
 10
180.012843
 20
183.487849
 30
0.0
 11
166.3168429999998
 21
187.890849
 31
0.0
  0
LINE
  5
9EA2
330
9D92
100
AcDbEntity
  8
5
  6
PHANTOM
100
AcDbLine
 10
176.7458429999997
 20
195.0418489999999
 30
0.0
 11
164.6778429999999
 21
198.921849
 31
0.0
  0
LINE
  5
9EA3
330
9D92
100
AcDbEntity
  8
5
  6
PHANTOM
100
AcDbLine
 10
180.202843
 20
190.628849
 30
0.0
 11
180.6638429999999
 21
183.997849
 31
0.0
  0
LINE
  5
9EA4
330
9D92
100
AcDbEntity
  8
1
  6
Continuous
100
AcDbLine
 10
139.3908429999999
 20
234.801849
 30
0.0
 11
143.7098429999998
 21
204.5678489999999
 31
0.0
  0
LINE
  5
9EA5
330
9D92
100
AcDbEntity
  8
1
  6
Continuous
100
AcDbLine
 10
140.941843
 20
195.060849
 30
0.0
 11
134.8888429999997
 21
187.999849
 31
0.0
  0
LINE
  5
9EA6
330
9D92
100
AcDbEntity
  8
1
  6
Continuous
100
AcDbLine
 10
134.8888429999997
 20
187.999849
 30
0.0
 11
131.8708429999997
 21
184.4778489999999
 31
0.0
  0
LINE
  5
9EA7
330
9D92
100
AcDbEntity
  8
1
  6
Continuous
100
AcDbLine
 10
156.3708429999998
 20
180.801849
 30
0.0
 11
131.8708429999997
 21
180.801849
 31
0.0
  0
LINE
  5
9EA8
330
9D92
100
AcDbEntity
  8
1
  6
Continuous
100
AcDbLine
 10
142.4108429999997
 20
161.7388489999999
 30
0.0
 11
135.5558429999997
 21
162.597849
 31
0.0
  0
LINE
  5
9EA9
330
9D92
100
AcDbEntity
  8
1
  6
Continuous
100
AcDbLine
 10
174.0708429999999
 20
160.348849
 30
0.0
 11
174.0708429999999
 21
134.301849
 31
0.0
  0
LINE
  5
9EAA
330
9D92
100
AcDbEntity
  8
1
  6
Continuous
100
AcDbLine
 10
171.6278429999999
 20
203.658849
 30
0.0
 11
172.0708429999999
 21
202.551849
 31
0.0
  0
LINE
  5
9EAB
330
9D92
100
AcDbEntity
  8
3
  6
DASHED
100
AcDbLine
 10
173.631843
 20
196.801849
 30
0.0
 11
172.0708429999999
 21
196.801849
 31
0.0
  0
LINE
  5
9EAC
330
9D92
100
AcDbEntity
  8
1
  6
Continuous
100
AcDbLine
 10
144.286843
 20
160.4548489999999
 30
0.0
 11
145.743843
 21
160.266849
 31
0.0
  0
LINE
  5
9EAD
330
9D92
100
AcDbEntity
  8
1
  6
Continuous
100
AcDbLine
 10
55.870843
 20
196.801849
 30
0.0
 11
55.870843
 21
189.801849
 31
0.0
  0
LINE
  5
9EAE
330
9D92
100
AcDbEntity
  8
1
  6
Continuous
100
AcDbLine
 10
55.870843
 20
196.801849
 30
0.0
 11
53.69354300000001
 21
196.801849
 31
0.0
  0
LINE
  5
9EAF
330
9D92
100
AcDbEntity
  8
1
  6
Continuous
100
AcDbLine
 10
55.870843
 20
189.801849
 30
0.0
 11
54.079543
 21
189.801849
 31
0.0
  0
LINE
  5
9EB0
330
9D92
100
AcDbEntity
  8
1
  6
Continuous
100
AcDbLine
 10
45.19804299999999
 20
198.301849
 30
0.0
 11
44.870843
 21
198.301849
 31
0.0
  0
LINE
  5
9EB1
330
9D92
100
AcDbEntity
  8
1
  6
Continuous
100
AcDbLine
 10
45.749443
 20
188.3018489999997
 30
0.0
 11
44.870843
 21
188.3018489999997
 31
0.0
  0
LINE
  5
9EB2
330
9D92
100
AcDbEntity
  8
1
  6
Continuous
100
AcDbLine
 10
168.0708429999999
 20
175.5968489999999
 30
0.0
 11
161.4968429999999
 21
175.4308489999999
 31
0.0
  0
LINE
  5
9EB3
330
9D92
100
AcDbEntity
  8
1
  6
Continuous
100
AcDbLine
 10
44.41154299999999
 20
212.562849
 30
0.0
 11
45.83434299999999
 21
186.7628489999999
 31
0.0
  0
LINE
  5
9EB4
330
9D92
100
AcDbEntity
  8
1
  6
Continuous
100
AcDbLine
 10
45.809443
 20
212.639849
 30
0.0
 11
47.232243
 21
186.8398489999999
 31
0.0
  0
LINE
  5
9EB5
330
9D92
100
AcDbEntity
  8
1
  6
Continuous
100
AcDbLine
 10
53.52594299999999
 20
199.8398489999999
 30
0.0
 11
54.23854300000001
 21
186.9168489999999
 31
0.0
  0
LINE
  5
9EB6
330
9D92
100
AcDbEntity
  8
1
  6
Continuous
100
AcDbLine
 10
47.917443
 20
199.8398489999999
 30
0.0
 11
48.630043
 21
186.9168489999999
 31
0.0
  0
LINE
  5
9EB7
330
9D92
100
AcDbEntity
  8
1
  6
Continuous
100
AcDbLine
 10
49.31954300000001
 20
199.8398489999999
 30
0.0
 11
50.032243
 21
186.9168489999999
 31
0.0
  0
LINE
  5
9EB8
330
9D92
100
AcDbEntity
  8
1
  6
Continuous
100
AcDbLine
 10
50.721643
 20
199.8398489999999
 30
0.0
 11
51.434343
 21
186.9168489999999
 31
0.0
  0
LINE
  5
9EB9
330
9D92
100
AcDbEntity
  8
1
  6
Continuous
100
AcDbLine
 10
52.123843
 20
199.8398489999999
 30
0.0
 11
52.836443
 21
186.9168489999999
 31
0.0
  0
LINE
  5
9EBA
330
9D92
100
AcDbEntity
  8
1
  6
Continuous
100
AcDbLine
 10
44.811943
 20
205.3018489999999
 30
0.0
 11
44.370843
 21
205.3018489999999
 31
0.0
  0
LINE
  5
9EBB
330
9D92
100
AcDbEntity
  8
1
  6
Continuous
100
AcDbLine
 10
44.48114299999999
 20
211.301849
 30
0.0
 11
44.370843
 21
211.301849
 31
0.0
  0
LINE
  5
9EBC
330
9D92
100
AcDbEntity
  8
1
  6
Continuous
100
AcDbLine
 10
291.070843
 20
213.301849
 30
0.0
 11
272.3708429999999
 21
213.301849
 31
0.0
  0
LINE
  5
9EBD
330
9D92
100
AcDbEntity
  8
1
  6
Continuous
100
AcDbLine
 10
293.3708429999999
 20
211.0018489999999
 30
0.0
 11
293.3708429999999
 21
155.6018489999999
 31
0.0
  0
LINE
  5
9EBE
330
9D92
100
AcDbEntity
  8
1
  6
Continuous
100
AcDbLine
 10
291.070843
 20
153.301849
 30
0.0
 11
272.3708429999999
 21
153.301849
 31
0.0
  0
LINE
  5
9EBF
330
9D92
100
AcDbEntity
  8
1
  6
Continuous
100
AcDbLine
 10
293.3708429999999
 20
160.301849
 30
0.0
 11
272.3708429999999
 21
160.301849
 31
0.0
  0
LINE
  5
9EC0
330
9D92
100
AcDbEntity
  8
1
  6
Continuous
100
AcDbLine
 10
293.3708429999999
 20
165.301849
 30
0.0
 11
291.070843
 21
165.301849
 31
0.0
  0
LINE
  5
9EC1
330
9D92
100
AcDbEntity
  8
1
  6
Continuous
100
AcDbLine
 10
291.070843
 20
205.3288489999999
 30
0.0
 11
291.070843
 21
160.301849
 31
0.0
  0
LINE
  5
9EC2
330
9D92
100
AcDbEntity
  8
1
  6
Continuous
100
AcDbLine
 10
272.3708429999999
 20
207.3018489999999
 30
0.0
 11
291.070843
 21
207.3018489999999
 31
0.0
  0
LINE
  5
9EC3
330
9D92
100
AcDbEntity
  8
1
  6
Continuous
100
AcDbLine
 10
272.3708429999999
 20
205.3288489999999
 30
0.0
 11
291.070843
 21
205.3288489999999
 31
0.0
  0
LINE
  5
9EC4
330
9D92
100
AcDbEntity
  8
1
  6
Continuous
100
AcDbLine
 10
291.070843
 20
202.8288489999999
 30
0.0
 11
293.3708429999999
 21
202.8288489999999
 31
0.0
  0
LINE
  5
9EC5
330
9D92
100
AcDbEntity
  8
1
  6
Continuous
100
AcDbLine
 10
261.570843
 20
169.3818489999999
 30
0.0
 11
266.070843
 21
169.3818489999999
 31
0.0
  0
LINE
  5
9EC6
330
9D92
100
AcDbEntity
  8
1
  6
Continuous
100
AcDbLine
 10
261.570843
 20
175.301849
 30
0.0
 11
261.570843
 21
159.0548489999999
 31
0.0
  0
LINE
  5
9EC7
330
9D92
100
AcDbEntity
  8
1
  6
Continuous
100
AcDbLine
 10
259.3708429999999
 20
159.801849
 30
0.0
 11
261.3708429999999
 21
159.801849
 31
0.0
  0
LINE
  5
9EC8
330
9D92
100
AcDbEntity
  8
1
  6
Continuous
100
AcDbLine
 10
259.3708429999999
 20
169.801849
 30
0.0
 11
261.3708429999999
 21
169.801849
 31
0.0
  0
LINE
  5
9EC9
330
9D92
100
AcDbEntity
  8
1
  6
Continuous
100
AcDbLine
 10
244.8708429999999
 20
196.801849
 30
0.0
 11
246.8708429999999
 21
196.801849
 31
0.0
  0
LINE
  5
9ECA
330
9D92
100
AcDbEntity
  8
1
  6
Continuous
100
AcDbLine
 10
261.570843
 20
159.0548489999999
 30
0.0
 11
266.070843
 21
159.0548489999999
 31
0.0
  0
LINE
  5
9ECB
330
9D92
100
AcDbEntity
  8
1
  6
Continuous
100
AcDbLine
 10
341.8708429999999
 20
153.301849
 30
0.0
 11
379.870843
 21
153.301849
 31
0.0
  0
LINE
  5
9ECC
330
9D92
100
AcDbEntity
  8
1
  6
Continuous
100
AcDbLine
 10
341.8708429999999
 20
160.301849
 30
0.0
 11
341.8708429999999
 21
153.301849
 31
0.0
  0
LINE
  5
9ECD
330
9D92
100
AcDbEntity
  8
1
  6
Continuous
100
AcDbLine
 10
379.870843
 20
193.301849
 30
0.0
 11
379.870843
 21
153.301849
 31
0.0
  0
LINE
  5
9ECE
330
9D92
100
AcDbEntity
  8
1
  6
Continuous
100
AcDbLine
 10
341.8708429999999
 20
160.301849
 30
0.0
 11
344.1708429999998
 21
160.301849
 31
0.0
  0
LINE
  5
9ECF
330
9D92
100
AcDbEntity
  8
1
  6
Continuous
100
AcDbLine
 10
349.8708429999999
 20
165.301849
 30
0.0
 11
344.1708429999998
 21
160.301849
 31
0.0
  0
LINE
  5
9ED0
330
9D92
100
AcDbEntity
  8
1
  6
Continuous
100
AcDbLine
 10
349.8708429999999
 20
165.301849
 30
0.0
 11
363.234843
 21
166.8518489999998
 31
0.0
  0
LINE
  5
9ED1
330
9D92
100
AcDbEntity
  8
1
  6
Continuous
100
AcDbLine
 10
346.294843
 20
183.715849
 30
0.0
 11
363.234843
 21
181.7518489999999
 31
0.0
  0
LINE
  5
9ED2
330
9D92
100
AcDbEntity
  8
1
  6
Continuous
100
AcDbLine
 10
347.8708429999999
 20
207.3018489999999
 30
0.0
 11
359.8708429999998
 21
213.301849
 31
0.0
  0
LINE
  5
9ED3
330
9D92
100
AcDbEntity
  8
1
  6
Continuous
100
AcDbLine
 10
347.8708429999999
 20
207.3018489999999
 30
0.0
 11
350.1068430000001
 21
202.8288489999999
 31
0.0
  0
LINE
  5
9ED4
330
9D92
100
AcDbEntity
  8
5
  6
PHANTOM
100
AcDbLine
 10
366.2268429999999
 20
180.827849
 30
0.0
 11
344.3968429999998
 21
169.704849
 31
0.0
  0
LINE
  5
9ED5
330
9D92
100
AcDbEntity
  8
5
  6
PHANTOM
100
AcDbLine
 10
332.839843
 20
184.8388489999999
 30
0.0
 11
328.840843
 21
185.904849
 31
0.0
  0
LINE
  5
9ED6
330
9D92
100
AcDbEntity
  8
5
  6
PHANTOM
100
AcDbLine
 10
334.861843
 20
185.456849
 30
0.0
 11
337.969843
 21
189.016849
 31
0.0
  0
LINE
  5
9ED7
330
9D92
100
AcDbEntity
  8
5
  6
PHANTOM
100
AcDbLine
 10
343.422843
 20
175.1918489999999
 30
0.0
 11
347.9138429999999
 21
180.3348489999999
 31
0.0
  0
LINE
  5
9ED8
330
9D92
100
AcDbEntity
  8
1
  6
Continuous
100
AcDbLine
 10
291.070843
 20
197.301849
 30
0.0
 11
290.370843
 21
197.301849
 31
0.0
  0
LINE
  5
9ED9
330
9D92
100
AcDbEntity
  8
1
  6
Continuous
100
AcDbLine
 10
291.070843
 20
189.301849
 30
0.0
 11
290.370843
 21
189.301849
 31
0.0
  0
LINE
  5
9EDA
330
9D92
100
AcDbEntity
  8
1
  6
Continuous
100
AcDbLine
 10
290.370843
 20
205.3288489999999
 30
0.0
 11
290.370843
 21
161.6318489999999
 31
0.0
  0
LINE
  5
9EDB
330
9D92
100
AcDbEntity
  8
1
  6
Continuous
100
AcDbLine
 10
285.8708429999999
 20
205.3288489999999
 30
0.0
 11
285.8708429999999
 21
161.6318489999999
 31
0.0
  0
LINE
  5
9EDC
330
9D92
100
AcDbEntity
  8
1
  6
Continuous
100
AcDbLine
 10
272.3708429999999
 20
201.3018489999998
 30
0.0
 11
285.8708429999999
 21
201.3018489999998
 31
0.0
  0
LINE
  5
9EDD
330
9D92
100
AcDbEntity
  8
1
  6
Continuous
100
AcDbLine
 10
272.3708429999999
 20
185.301849
 30
0.0
 11
285.8708429999999
 21
185.301849
 31
0.0
  0
LINE
  5
9EDE
330
9D92
100
AcDbEntity
  8
1
  6
Continuous
100
AcDbLine
 10
285.8708429999999
 20
161.6318489999999
 30
0.0
 11
290.370843
 21
161.6318489999999
 31
0.0
  0
LINE
  5
9EDF
330
9D92
100
AcDbEntity
  8
1
  6
Continuous
100
AcDbLine
 10
290.8708429999999
 20
197.301849
 30
0.0
 11
290.8708429999999
 21
189.301849
 31
0.0
  0
LINE
  5
9EE0
330
9D92
100
AcDbEntity
  8
1
  6
Continuous
100
AcDbLine
 10
273.3708429999999
 20
185.301849
 30
0.0
 11
273.3708429999999
 21
169.301849
 31
0.0
  0
LINE
  5
9EE1
330
9D92
100
AcDbEntity
  8
1
  6
Continuous
100
AcDbLine
 10
284.3708429999999
 20
185.301849
 30
0.0
 11
284.3708429999999
 21
169.301849
 31
0.0
  0
LINE
  5
9EE2
330
9D92
100
AcDbEntity
  8
1
  6
Continuous
100
AcDbLine
 10
273.3708429999999
 20
169.301849
 30
0.0
 11
285.8708429999999
 21
169.301849
 31
0.0
  0
LINE
  5
9EE3
330
9D92
100
AcDbEntity
  8
1
  6
Continuous
100
AcDbLine
 10
166.602843
 20
167.921849
 30
0.0
 11
159.5808429999999
 21
161.391849
 31
0.0
  0
LINE
  5
9EE4
330
9D92
100
AcDbEntity
  8
1
  6
Continuous
100
AcDbLine
 10
355.5068429999997
 20
167.456849
 30
0.0
 11
353.745843
 21
171.8418489999999
 31
0.0
  0
LINE
  5
9EE5
330
9D92
100
AcDbEntity
  8
1
  6
Continuous
100
AcDbLine
 10
368.6378429999999
 20
170.1808489999999
 30
0.0
 11
365.9958429999999
 21
176.760849
 31
0.0
  0
LINE
  5
9EE6
330
9D92
100
AcDbEntity
  8
1
  6
Continuous
100
AcDbLine
 10
154.308843
 20
206.801849
 30
0.0
 11
166.9858429999998
 21
206.801849
 31
0.0
  0
LINE
  5
9EE7
330
9D92
100
AcDbEntity
  8
1
  6
Continuous
100
AcDbLine
 10
124.8708429999997
 20
313.3748489999998
 30
0.0
 11
174.0708429999999
 21
313.3748489999998
 31
0.0
  0
LINE
  5
9EE8
330
9D92
100
AcDbEntity
  8
1
  6
Continuous
100
AcDbLine
 10
176.3708429999998
 20
311.0748489999999
 30
0.0
 11
176.3708429999998
 21
268.3748489999999
 31
0.0
  0
LINE
  5
9EE9
330
9D92
100
AcDbEntity
  8
1
  6
Continuous
100
AcDbLine
 10
174.0708429999999
 20
311.0748489999999
 30
0.0
 11
174.0708429999999
 21
268.3748489999999
 31
0.0
  0
LINE
  5
9EEA
330
9D92
100
AcDbEntity
  8
1
  6
Continuous
100
AcDbLine
 10
124.8708429999997
 20
311.0748489999999
 30
0.0
 11
174.0708429999999
 21
311.0748489999999
 31
0.0
  0
LINE
  5
9EEB
330
9D92
100
AcDbEntity
  8
1
  6
Continuous
100
AcDbLine
 10
124.8708429999997
 20
313.3748489999998
 30
0.0
 11
124.8708429999997
 21
311.0748489999999
 31
0.0
  0
LINE
  5
9EEC
330
9D92
100
AcDbEntity
  8
1
  6
Continuous
100
AcDbLine
 10
171.8708429999999
 20
268.3748489999999
 30
0.0
 11
176.3708429999998
 21
268.3748489999999
 31
0.0
  0
LINE
  5
9EED
330
9D92
100
AcDbEntity
  8
1
  6
Continuous
100
AcDbLine
 10
133.1708429999999
 20
334.3748489999999
 30
0.0
 11
167.0238429999999
 21
334.3748489999999
 31
0.0
  0
LINE
  5
9EEE
330
9D92
100
AcDbEntity
  8
1
  6
Continuous
100
AcDbLine
 10
130.8708429999997
 20
332.0748489999999
 30
0.0
 11
130.8708429999997
 21
313.3748489999998
 31
0.0
  0
LINE
  5
9EEF
330
9D92
100
AcDbEntity
  8
1
  6
Continuous
100
AcDbLine
 10
168.8708429999998
 20
332.0748489999999
 30
0.0
 11
168.8708429999998
 21
313.3748489999998
 31
0.0
  0
LINE
  5
9EF0
330
9D92
100
AcDbEntity
  8
1
  6
Continuous
100
AcDbLine
 10
166.570843
 20
332.0748489999999
 30
0.0
 11
166.570843
 21
331.374849
 31
0.0
  0
LINE
  5
9EF1
330
9D92
100
AcDbEntity
  8
4
  6
CENTER
100
AcDbLine
 10
148.8708429999998
 20
340.5168489999998
 30
0.0
 11
148.8708429999998
 21
285.774849
 31
0.0
  0
LINE
  5
9EF2
330
9D92
100
AcDbEntity
  8
1
  6
Continuous
100
AcDbLine
 10
160.8708429999998
 20
332.0748489999999
 30
0.0
 11
167.0238429999999
 21
332.0748489999999
 31
0.0
  0
LINE
  5
9EF3
330
9D92
100
AcDbEntity
  8
1
  6
Continuous
100
AcDbLine
 10
160.8708429999998
 20
334.3748489999999
 30
0.0
 11
160.8708429999998
 21
313.3748489999998
 31
0.0
  0
LINE
  5
9EF4
330
9D92
100
AcDbEntity
  8
1
  6
Continuous
100
AcDbLine
 10
148.8708429999998
 20
334.0018489999998
 30
0.0
 11
148.8708429999998
 21
313.3748489999998
 31
0.0
  0
LINE
  5
9EF5
330
9D92
100
AcDbEntity
  8
1
  6
Continuous
100
AcDbLine
 10
167.0238429999999
 20
332.0748489999999
 30
0.0
 11
167.0238429999999
 21
334.3748489999999
 31
0.0
  0
LINE
  5
9EF6
330
9D92
100
AcDbEntity
  8
1
  6
Continuous
100
AcDbLine
 10
167.9498429999999
 20
326.8748490000001
 30
0.0
 11
167.9498429999999
 21
331.374849
 31
0.0
  0
LINE
  5
9EF7
330
9D92
100
AcDbEntity
  8
1
  6
Continuous
100
AcDbLine
 10
160.8708429999998
 20
331.374849
 30
0.0
 11
167.9498429999999
 21
331.374849
 31
0.0
  0
LINE
  5
9EF8
330
9D92
100
AcDbEntity
  8
1
  6
Continuous
100
AcDbLine
 10
160.8708429999998
 20
326.8748490000001
 30
0.0
 11
167.9498429999999
 21
326.8748490000001
 31
0.0
  0
LINE
  5
9EF9
330
9D92
100
AcDbEntity
  8
1
  6
Continuous
100
AcDbLine
 10
166.570843
 20
326.8748490000001
 30
0.0
 11
166.570843
 21
313.3748489999998
 31
0.0
  0
LINE
  5
9EFA
330
9D92
100
AcDbEntity
  8
1
  6
Continuous
100
AcDbLine
 10
131.8708429999997
 20
300.3748489999999
 30
0.0
 11
127.3708429999997
 21
300.3748489999999
 31
0.0
  0
LINE
  5
9EFB
330
9D92
100
AcDbEntity
  8
1
  6
Continuous
100
AcDbLine
 10
133.3708429999997
 20
289.1748489999999
 30
0.0
 11
129.3708429999997
 21
289.1748489999999
 31
0.0
  0
LINE
  5
9EFC
330
9D92
100
AcDbEntity
  8
1
  6
Continuous
100
AcDbLine
 10
129.3708429999997
 20
289.1748489999999
 30
0.0
 11
129.3708429999997
 21
290.674849
 31
0.0
  0
LINE
  5
9EFD
330
9D92
100
AcDbEntity
  8
1
  6
Continuous
100
AcDbLine
 10
130.3708429999997
 20
300.3748489999999
 30
0.0
 11
130.3708429999997
 21
301.774849
 31
0.0
  0
LINE
  5
9EFE
330
9D92
100
AcDbEntity
  8
1
  6
Continuous
100
AcDbLine
 10
131.8708429999997
 20
290.674849
 30
0.0
 11
127.820843
 21
290.674849
 31
0.0
  0
LINE
  5
9EFF
330
9D92
100
AcDbEntity
  8
1
  6
Continuous
100
AcDbLine
 10
131.8708429999997
 20
299.591849
 30
0.0
 11
127.820843
 21
299.591849
 31
0.0
  0
LINE
  5
9F00
330
9D92
100
AcDbEntity
  8
1
  6
Continuous
100
AcDbLine
 10
131.8708429999997
 20
292.174849
 30
0.0
 11
127.820843
 21
292.174849
 31
0.0
  0
LINE
  5
9F01
330
9D92
100
AcDbEntity
  8
1
  6
Continuous
100
AcDbLine
 10
131.8708429999997
 20
293.657849
 30
0.0
 11
127.820843
 21
293.657849
 31
0.0
  0
LINE
  5
9F02
330
9D92
100
AcDbEntity
  8
1
  6
Continuous
100
AcDbLine
 10
131.8708429999997
 20
295.141849
 30
0.0
 11
127.820843
 21
295.141849
 31
0.0
  0
LINE
  5
9F03
330
9D92
100
AcDbEntity
  8
1
  6
Continuous
100
AcDbLine
 10
131.8708429999997
 20
296.6248489999999
 30
0.0
 11
127.820843
 21
296.6248489999999
 31
0.0
  0
LINE
  5
9F04
330
9D92
100
AcDbEntity
  8
1
  6
Continuous
100
AcDbLine
 10
129.3708429999997
 20
299.591849
 30
0.0
 11
129.3708429999997
 21
300.3748489999999
 31
0.0
  0
LINE
  5
9F05
330
9D92
100
AcDbEntity
  8
1
  6
Continuous
100
AcDbLine
 10
126.3708429999997
 20
307.0748489999999
 30
0.0
 11
126.3708429999997
 21
302.5748489999998
 31
0.0
  0
LINE
  5
9F06
330
9D92
100
AcDbEntity
  8
1
  6
Continuous
100
AcDbLine
 10
166.5158429999999
 20
304.374849
 30
0.0
 11
166.5158429999999
 21
303.8748489999999
 31
0.0
  0
LINE
  5
9F07
330
9D92
100
AcDbEntity
  8
1
  6
Continuous
100
AcDbLine
 10
159.165843
 20
306.827149
 30
0.0
 11
159.165843
 21
303.8748489999999
 31
0.0
  0
LINE
  5
9F08
330
9D92
100
AcDbEntity
  8
1
  6
Continuous
100
AcDbLine
 10
129.8708429999997
 20
304.374849
 30
0.0
 11
129.8708429999997
 21
308.8748489999999
 31
0.0
  0
LINE
  5
9F09
330
9D92
100
AcDbEntity
  8
1
  6
Continuous
100
AcDbLine
 10
138.8708429999997
 20
304.374849
 30
0.0
 11
129.8708429999997
 21
304.374849
 31
0.0
  0
LINE
  5
9F0A
330
9D92
100
AcDbEntity
  8
1
  6
Continuous
100
AcDbLine
 10
131.3708429999997
 20
302.0748489999999
 30
0.0
 11
131.3708429999997
 21
302.8068489999999
 31
0.0
  0
LINE
  5
9F0B
330
9D92
100
AcDbEntity
  8
1
  6
Continuous
100
AcDbLine
 10
138.255843
 20
302.0748489999999
 30
0.0
 11
130.4858429999999
 21
302.0748489999999
 31
0.0
  0
LINE
  5
9F0C
330
9D92
100
AcDbEntity
  8
1
  6
Continuous
100
AcDbLine
 10
138.255843
 20
300.5748489999998
 30
0.0
 11
130.4858429999999
 21
300.5748489999998
 31
0.0
  0
LINE
  5
9F0D
330
9D92
100
AcDbEntity
  8
1
  6
Continuous
100
AcDbLine
 10
138.8708429999997
 20
304.374849
 30
0.0
 11
138.8708429999997
 21
308.8748489999999
 31
0.0
  0
LINE
  5
9F0E
330
9D92
100
AcDbEntity
  8
1
  6
Continuous
100
AcDbLine
 10
137.3708429999997
 20
286.7358489999999
 30
0.0
 11
137.3708429999997
 21
296.8748489999999
 31
0.0
  0
LINE
  5
9F0F
330
9D92
100
AcDbEntity
  8
1
  6
Continuous
100
AcDbLine
 10
146.3708429999998
 20
296.635849
 30
0.0
 11
146.3708429999998
 21
298.8748489999999
 31
0.0
  0
LINE
  5
9F10
330
9D92
100
AcDbEntity
  8
1
  6
Continuous
100
AcDbLine
 10
139.3908429999999
 20
286.7358489999999
 30
0.0
 11
139.3908429999999
 21
296.8678489999998
 31
0.0
  0
LINE
  5
9F11
330
9D92
100
AcDbEntity
  8
1
  6
Continuous
100
AcDbLine
 10
146.3708429999998
 20
298.8748489999999
 30
0.0
 11
139.3708429999997
 21
298.8748489999999
 31
0.0
  0
LINE
  5
9F12
330
9D92
100
AcDbEntity
  8
1
  6
Continuous
100
AcDbLine
 10
146.3708429999998
 20
296.8678489999998
 30
0.0
 11
139.3908429999999
 21
296.8678489999998
 31
0.0
  0
LINE
  5
9F13
330
9D92
100
AcDbEntity
  8
1
  6
Continuous
100
AcDbLine
 10
169.8708429999998
 20
302.374849
 30
0.0
 11
155.9968429999998
 21
302.374849
 31
0.0
  0
LINE
  5
9F14
330
9D92
100
AcDbEntity
  8
1
  6
Continuous
100
AcDbLine
 10
169.8708429999998
 20
300.3748489999999
 30
0.0
 11
156.3708429999998
 21
300.3748489999999
 31
0.0
  0
LINE
  5
9F15
330
9D92
100
AcDbEntity
  8
1
  6
Continuous
100
AcDbLine
 10
127.3708429999997
 20
300.3748489999999
 30
0.0
 11
127.3708429999997
 21
302.5748489999998
 31
0.0
  0
LINE
  5
9F16
330
9D92
100
AcDbEntity
  8
4
  6
CENTER
100
AcDbLine
 10
134.3708429999997
 20
286.113849
 30
0.0
 11
134.3708429999997
 21
315.749849
 31
0.0
  0
LINE
  5
9F17
330
9D92
100
AcDbEntity
  8
1
  6
Continuous
100
AcDbLine
 10
155.5718429999997
 20
289.3748489999999
 30
0.0
 11
143.830843
 21
289.3748489999999
 31
0.0
  0
LINE
  5
9F18
330
9D92
100
AcDbEntity
  8
1
  6
Continuous
100
AcDbLine
 10
158.571843
 20
291.3748489999999
 30
0.0
 11
153.0518429999998
 21
291.3748489999999
 31
0.0
  0
LINE
  5
9F19
330
9D92
100
AcDbEntity
  8
1
  6
Continuous
100
AcDbLine
 10
156.3708429999998
 20
291.3748489999999
 30
0.0
 11
156.3708429999998
 21
302.374849
 31
0.0
  0
LINE
  5
9F1A
330
9D92
100
AcDbEntity
  8
1
  6
Continuous
100
AcDbLine
 10
139.3908429999999
 20
285.8748489999999
 30
0.0
 11
137.8238429999999
 21
285.8748489999999
 31
0.0
  0
LINE
  5
9F1B
330
9D92
100
AcDbEntity
  8
1
  6
Continuous
100
AcDbLine
 10
143.830843
 20
281.673849
 30
0.0
 11
143.830843
 21
289.3748489999999
 31
0.0
  0
LINE
  5
9F1C
330
9D92
100
AcDbEntity
  8
1
  6
Continuous
100
AcDbLine
 10
143.830843
 20
281.673849
 30
0.0
 11
140.0168429999999
 21
285.2828489999998
 31
0.0
  0
LINE
  5
9F1D
330
9D92
100
AcDbEntity
  8
1
  6
Continuous
100
AcDbLine
 10
141.810843
 20
281.673849
 30
0.0
 11
137.9958429999997
 21
285.2828489999998
 31
0.0
  0
LINE
  5
9F1E
330
9D92
100
AcDbEntity
  8
1
  6
Continuous
100
AcDbLine
 10
133.3708429999997
 20
284.368849
 30
0.0
 11
133.3708429999997
 21
291.3748489999999
 31
0.0
  0
LINE
  5
9F1F
330
9D92
100
AcDbEntity
  8
1
  6
Continuous
100
AcDbLine
 10
143.830843
 20
281.673849
 30
0.0
 11
136.494843
 21
281.370849
 31
0.0
  0
LINE
  5
9F20
330
9D92
100
AcDbEntity
  8
1
  6
Continuous
100
AcDbLine
 10
146.3708429999998
 20
296.635849
 30
0.0
 11
143.4338429999999
 21
296.635849
 31
0.0
  0
LINE
  5
9F21
330
9D92
100
AcDbEntity
  8
1
  6
Continuous
100
AcDbLine
 10
145.3418429999999
 20
293.005849
 30
0.0
 11
143.4338429999999
 21
296.635849
 31
0.0
  0
LINE
  5
9F22
330
9D92
100
AcDbEntity
  8
1
  6
Continuous
100
AcDbLine
 10
145.3418429999999
 20
295.0058489999999
 30
0.0
 11
144.4848429999999
 21
296.635849
 31
0.0
  0
LINE
  5
9F23
330
9D92
100
AcDbEntity
  8
1
  6
Continuous
100
AcDbLine
 10
140.375843
 20
295.162849
 30
0.0
 11
143.089843
 21
290.4638489999999
 31
0.0
  0
LINE
  5
9F24
330
9D92
100
AcDbEntity
  8
1
  6
Continuous
100
AcDbLine
 10
137.3708429999997
 20
291.3748489999999
 30
0.0
 11
131.8708429999997
 21
291.3748489999999
 31
0.0
  0
LINE
  5
9F25
330
9D92
100
AcDbEntity
  8
1
  6
Continuous
100
AcDbLine
 10
133.3708429999997
 20
289.3748489999999
 30
0.0
 11
131.8708429999997
 21
289.3748489999999
 31
0.0
  0
LINE
  5
9F26
330
9D92
100
AcDbEntity
  8
1
  6
Continuous
100
AcDbLine
 10
131.8708429999997
 20
289.3748489999999
 30
0.0
 11
131.8708429999997
 21
300.5748489999998
 31
0.0
  0
LINE
  5
9F27
330
9D92
100
AcDbEntity
  8
1
  6
Continuous
100
AcDbLine
 10
128.453843
 20
308.8748489999999
 30
0.0
 11
157.118143
 21
308.8748489999999
 31
0.0
  0
LINE
  5
9F28
330
9D92
100
AcDbEntity
  8
1
  6
Continuous
100
AcDbLine
 10
137.3708429999997
 20
302.0748489999999
 30
0.0
 11
137.3708429999997
 21
304.374849
 31
0.0
  0
LINE
  5
9F29
330
9D92
100
AcDbEntity
  8
1
  6
Continuous
100
AcDbLine
 10
131.8708429999997
 20
298.1078489999998
 30
0.0
 11
127.820843
 21
298.1078489999998
 31
0.0
  0
LINE
  5
9F2A
330
9D92
100
AcDbEntity
  8
1
  6
Continuous
100
AcDbLine
 10
155.1208429999998
 20
308.374849
 30
0.0
 11
155.1208429999998
 21
308.8748489999999
 31
0.0
  0
LINE
  5
9F2B
330
9D92
100
AcDbEntity
  8
1
  6
Continuous
100
AcDbLine
 10
142.6208429999998
 20
308.374849
 30
0.0
 11
142.6208429999998
 21
308.8748489999999
 31
0.0
  0
LINE
  5
9F2C
330
9D92
100
AcDbEntity
  8
1
  6
Continuous
100
AcDbLine
 10
152.3708429999998
 20
292.8748489999999
 30
0.0
 11
147.783843
 21
292.8748489999999
 31
0.0
  0
LINE
  5
9F2D
330
9D92
100
AcDbEntity
  8
1
  6
Continuous
100
AcDbLine
 10
152.3708429999998
 20
292.8748489999999
 30
0.0
 11
152.3708429999998
 21
295.577849
 31
0.0
  0
LINE
  5
9F2E
330
9D92
100
AcDbEntity
  8
1
  6
Continuous
100
AcDbLine
 10
153.8708429999998
 20
302.6708489999998
 30
0.0
 11
153.8708429999998
 21
303.8748489999999
 31
0.0
  0
LINE
  5
9F2F
330
9D92
100
AcDbEntity
  8
1
  6
Continuous
100
AcDbLine
 10
143.8708429999998
 20
302.1198489999998
 30
0.0
 11
143.8708429999998
 21
303.8748489999999
 31
0.0
  0
LINE
  5
9F30
330
9D92
100
AcDbEntity
  8
1
  6
Continuous
100
AcDbLine
 10
155.3358429999998
 20
302.7518489999998
 30
0.0
 11
142.4138429999999
 21
302.039849
 31
0.0
  0
LINE
  5
9F31
330
9D92
100
AcDbEntity
  8
1
  6
Continuous
100
AcDbLine
 10
155.4138429999999
 20
295.745849
 30
0.0
 11
145.247843
 21
295.1848489999998
 31
0.0
  0
LINE
  5
9F32
330
9D92
100
AcDbEntity
  8
1
  6
Continuous
100
AcDbLine
 10
155.4138429999999
 20
301.3538490000001
 30
0.0
 11
142.4138429999999
 21
300.6368489999999
 31
0.0
  0
LINE
  5
9F33
330
9D92
100
AcDbEntity
  8
1
  6
Continuous
100
AcDbLine
 10
155.4138429999999
 20
299.9518489999999
 30
0.0
 11
142.4138429999999
 21
299.2348489999999
 31
0.0
  0
LINE
  5
9F34
330
9D92
100
AcDbEntity
  8
1
  6
Continuous
100
AcDbLine
 10
155.4138429999999
 20
298.5498489999999
 30
0.0
 11
146.3708429999998
 21
298.050849
 31
0.0
  0
LINE
  5
9F35
330
9D92
100
AcDbEntity
  8
1
  6
Continuous
100
AcDbLine
 10
155.4138429999999
 20
297.1478489999999
 30
0.0
 11
144.5318429999999
 21
296.5478489999999
 31
0.0
  0
LINE
  5
9F36
330
9D92
100
AcDbEntity
  8
1
  6
Continuous
100
AcDbLine
 10
137.374843
 20
303.7348489999998
 30
0.0
 11
143.8708429999998
 21
303.3768489999999
 31
0.0
  0
LINE
  5
9F37
330
9D92
100
AcDbEntity
  8
1
  6
Continuous
100
AcDbLine
 10
130.0748429999997
 20
302.7358489999999
 30
0.0
 11
131.3748429999999
 21
302.663849
 31
0.0
  0
LINE
  5
9F38
330
9D92
100
AcDbEntity
  8
1
  6
Continuous
100
AcDbLine
 10
153.874843
 20
302.8248489999999
 30
0.0
 11
155.3358429999998
 21
302.7448489999998
 31
0.0
  0
LINE
  5
9F39
330
9D92
100
AcDbEntity
  8
1
  6
Continuous
100
AcDbLine
 10
131.3708429999997
 20
302.374849
 30
0.0
 11
127.3708429999997
 21
302.374849
 31
0.0
  0
LINE
  5
9F3A
330
9D92
100
AcDbEntity
  8
1
  6
Continuous
100
AcDbLine
 10
130.1138429999997
 20
302.7378489999999
 30
0.0
 11
134.447843
 21
302.976849
 31
0.0
  0
LINE
  5
9F3B
330
9D92
100
AcDbEntity
  8
1
  6
Continuous
100
AcDbLine
 10
130.0358429999997
 20
304.135849
 30
0.0
 11
134.3708429999997
 21
304.374849
 31
0.0
  0
LINE
  5
9F3C
330
9D92
100
AcDbEntity
  8
1
  6
Continuous
100
AcDbLine
 10
134.3708429999997
 20
304.374849
 30
0.0
 11
134.447843
 21
302.976849
 31
0.0
  0
LINE
  5
9F3D
330
9D92
100
AcDbEntity
  8
1
  6
Continuous
100
AcDbLine
 10
131.3708429999997
 20
304.2088489999998
 30
0.0
 11
131.3708429999997
 21
304.374849
 31
0.0
  0
LINE
  5
9F3E
330
9D92
100
AcDbEntity
  8
1
  6
Continuous
100
AcDbLine
 10
137.3708429999997
 20
302.332849
 30
0.0
 11
142.556843
 21
302.046849
 31
0.0
  0
LINE
  5
9F3F
330
9D92
100
AcDbEntity
  8
1
  6
Continuous
100
AcDbLine
 10
125.2178429999997
 20
311.0748489999999
 30
0.0
 11
126.6858429999999
 21
309.606849
 31
0.0
  0
LINE
  5
9F40
330
9D92
100
AcDbEntity
  8
4
  6
CENTER
100
AcDbLine
 10
165.4188429999998
 20
278.3748489999999
 30
0.0
 11
179.721843
 21
278.3748489999999
 31
0.0
  0
LINE
  5
9F41
330
9D92
100
AcDbEntity
  8
1
  6
Continuous
100
AcDbLine
 10
171.8708429999999
 20
309.122183
 30
0.0
 11
171.8708429999999
 21
268.3748489999999
 31
0.0
  0
LINE
  5
9F42
330
9D92
100
AcDbEntity
  8
1
  6
Continuous
100
AcDbLine
 10
172.602843
 20
291.359849
 30
0.0
 11
174.0708429999999
 21
292.827849
 31
0.0
  0
LINE
  5
9F43
330
9D92
100
AcDbEntity
  8
1
  6
Continuous
100
AcDbLine
 10
172.602843
 20
299.142849
 30
0.0
 11
174.0708429999999
 21
297.6748489999998
 31
0.0
  0
LINE
  5
9F44
330
9D92
100
AcDbEntity
  8
1
  6
Continuous
100
AcDbLine
 10
169.8708429999998
 20
305.4368489999998
 30
0.0
 11
169.8708429999998
 21
270.3748489999999
 31
0.0
  0
LINE
  5
9F45
330
9D92
100
AcDbEntity
  8
1
  6
Continuous
100
AcDbLine
 10
167.8708429999998
 20
285.374849
 30
0.0
 11
167.8708429999998
 21
271.3748489999999
 31
0.0
  0
LINE
  5
9F46
330
9D92
100
AcDbEntity
  8
1
  6
Continuous
100
AcDbLine
 10
169.8708429999998
 20
270.874849
 30
0.0
 11
168.3708429999998
 21
270.874849
 31
0.0
  0
LINE
  5
9F47
330
9D92
100
AcDbEntity
  8
1
  6
Continuous
100
AcDbLine
 10
168.3708429999998
 20
270.874849
 30
0.0
 11
167.8708429999998
 21
271.3748489999999
 31
0.0
  0
LINE
  5
9F48
330
9D92
100
AcDbEntity
  8
1
  6
Continuous
100
AcDbLine
 10
168.3708429999998
 20
285.8748489999999
 30
0.0
 11
167.8708429999998
 21
285.374849
 31
0.0
  0
LINE
  5
9F49
330
9D92
100
AcDbEntity
  8
1
  6
Continuous
100
AcDbLine
 10
168.3708429999998
 20
285.8748489999999
 30
0.0
 11
168.3708429999998
 21
270.874849
 31
0.0
  0
LINE
  5
9F4A
330
9D92
100
AcDbEntity
  8
1
  6
Continuous
100
AcDbLine
 10
169.8708429999998
 20
270.3748489999999
 30
0.0
 11
171.8708429999999
 21
270.3748489999999
 31
0.0
  0
LINE
  5
9F4B
330
9D92
100
AcDbEntity
  8
1
  6
Continuous
100
AcDbLine
 10
169.8708429999998
 20
305.4368489999998
 30
0.0
 11
171.8708429999999
 21
305.4368489999998
 31
0.0
  0
LINE
  5
9F4C
330
9D92
100
AcDbEntity
  8
1
  6
Continuous
100
AcDbLine
 10
124.8708429999997
 20
58.228149
 30
0.0
 11
174.0708429999999
 21
58.228149
 31
0.0
  0
LINE
  5
9F4D
330
9D92
100
AcDbEntity
  8
1
  6
Continuous
100
AcDbLine
 10
176.3708429999998
 20
60.528149
 30
0.0
 11
176.3708429999998
 21
103.2278489999999
 31
0.0
  0
LINE
  5
9F4E
330
9D92
100
AcDbEntity
  8
1
  6
Continuous
100
AcDbLine
 10
174.0708429999999
 20
60.528149
 30
0.0
 11
174.0708429999999
 21
103.2278489999999
 31
0.0
  0
LINE
  5
9F4F
330
9D92
100
AcDbEntity
  8
1
  6
Continuous
100
AcDbLine
 10
124.8708429999997
 20
60.528149
 30
0.0
 11
174.0708429999999
 21
60.528149
 31
0.0
  0
LINE
  5
9F50
330
9D92
100
AcDbEntity
  8
1
  6
Continuous
100
AcDbLine
 10
124.8708429999997
 20
58.228149
 30
0.0
 11
124.8708429999997
 21
60.528149
 31
0.0
  0
LINE
  5
9F51
330
9D92
100
AcDbEntity
  8
1
  6
Continuous
100
AcDbLine
 10
171.8708429999999
 20
103.2278489999999
 30
0.0
 11
176.3708429999998
 21
103.2278489999999
 31
0.0
  0
LINE
  5
9F52
330
9D92
100
AcDbEntity
  8
1
  6
Continuous
100
AcDbLine
 10
133.1708429999999
 20
37.228149
 30
0.0
 11
167.0238429999999
 21
37.228149
 31
0.0
  0
LINE
  5
9F53
330
9D92
100
AcDbEntity
  8
1
  6
Continuous
100
AcDbLine
 10
130.8708429999997
 20
39.52814899999999
 30
0.0
 11
130.8708429999997
 21
58.228149
 31
0.0
  0
LINE
  5
9F54
330
9D92
100
AcDbEntity
  8
1
  6
Continuous
100
AcDbLine
 10
168.8708429999998
 20
39.52814899999999
 30
0.0
 11
168.8708429999998
 21
58.228149
 31
0.0
  0
LINE
  5
9F55
330
9D92
100
AcDbEntity
  8
4
  6
CENTER
100
AcDbLine
 10
148.8708429999998
 20
30.640749
 30
0.0
 11
148.8708429999998
 21
87.898849
 31
0.0
  0
LINE
  5
9F56
330
9D92
100
AcDbEntity
  8
1
  6
Continuous
100
AcDbLine
 10
139.3708429999997
 20
82.428149
 30
0.0
 11
129.3708429999997
 21
82.428149
 31
0.0
  0
LINE
  5
9F57
330
9D92
100
AcDbEntity
  8
1
  6
Continuous
100
AcDbLine
 10
139.3708429999997
 20
82.428149
 30
0.0
 11
139.3708429999997
 21
80.928149
 31
0.0
  0
LINE
  5
9F58
330
9D92
100
AcDbEntity
  8
1
  6
Continuous
100
AcDbLine
 10
129.3708429999997
 20
82.428149
 30
0.0
 11
129.3708429999997
 21
80.928149
 31
0.0
  0
LINE
  5
9F59
330
9D92
100
AcDbEntity
  8
1
  6
Continuous
100
AcDbLine
 10
140.9208429999999
 20
80.928149
 30
0.0
 11
127.820843
 21
80.928149
 31
0.0
  0
LINE
  5
9F5A
330
9D92
100
AcDbEntity
  8
1
  6
Continuous
100
AcDbLine
 10
141.077843
 20
79.42814900000001
 30
0.0
 11
127.820843
 21
79.42814900000001
 31
0.0
  0
LINE
  5
9F5B
330
9D92
100
AcDbEntity
  8
1
  6
Continuous
100
AcDbLine
 10
141.077843
 20
77.944849
 30
0.0
 11
127.820843
 21
77.944849
 31
0.0
  0
LINE
  5
9F5C
330
9D92
100
AcDbEntity
  8
1
  6
Continuous
100
AcDbLine
 10
141.077843
 20
76.461549
 30
0.0
 11
127.820843
 21
76.461549
 31
0.0
  0
LINE
  5
9F5D
330
9D92
100
AcDbEntity
  8
1
  6
Continuous
100
AcDbLine
 10
129.3708429999997
 20
72.011549
 30
0.0
 11
129.3708429999997
 21
71.228149
 31
0.0
  0
LINE
  5
9F5E
330
9D92
100
AcDbEntity
  8
1
  6
Continuous
100
AcDbLine
 10
126.3708429999997
 20
64.52814899999999
 30
0.0
 11
126.3708429999997
 21
69.228149
 31
0.0
  0
LINE
  5
9F5F
330
9D92
100
AcDbEntity
  8
1
  6
Continuous
100
AcDbLine
 10
171.8708429999999
 20
69.228149
 30
0.0
 11
151.7968429999999
 21
69.228149
 31
0.0
  0
LINE
  5
9F60
330
9D92
100
AcDbEntity
  8
1
  6
Continuous
100
AcDbLine
 10
171.8708429999999
 20
71.228149
 30
0.0
 11
151.7968429999999
 21
71.228149
 31
0.0
  0
LINE
  5
9F61
330
9D92
100
AcDbEntity
  8
1
  6
Continuous
100
AcDbLine
 10
127.3708429999997
 20
71.228149
 30
0.0
 11
127.3708429999997
 21
69.228149
 31
0.0
  0
LINE
  5
9F62
330
9D92
100
AcDbEntity
  8
4
  6
CENTER
100
AcDbLine
 10
134.3708429999997
 20
85.48904899999998
 30
0.0
 11
134.3708429999997
 21
52.075549
 31
0.0
  0
LINE
  5
9F63
330
9D92
100
AcDbEntity
  8
1
  6
Continuous
100
AcDbLine
 10
159.7048429999999
 20
80.228149
 30
0.0
 11
156.3708429999998
 21
80.228149
 31
0.0
  0
LINE
  5
9F64
330
9D92
100
AcDbEntity
  8
1
  6
Continuous
100
AcDbLine
 10
156.3708429999998
 20
82.22814900000001
 30
0.0
 11
156.3708429999998
 21
71.228149
 31
0.0
  0
LINE
  5
9F65
330
9D92
100
AcDbEntity
  8
1
  6
Continuous
100
AcDbLine
 10
143.830843
 20
89.92884899999998
 30
0.0
 11
143.830843
 21
82.22814900000001
 31
0.0
  0
LINE
  5
9F66
330
9D92
100
AcDbEntity
  8
1
  6
Continuous
100
AcDbLine
 10
133.3708429999997
 20
87.23434899999999
 30
0.0
 11
133.3708429999997
 21
82.428149
 31
0.0
  0
LINE
  5
9F67
330
9D92
100
AcDbEntity
  8
1
  6
Continuous
100
AcDbLine
 10
143.830843
 20
89.92884899999998
 30
0.0
 11
136.494843
 21
90.23174899999998
 31
0.0
  0
LINE
  5
9F68
330
9D92
100
AcDbEntity
  8
1
  6
Continuous
100
AcDbLine
 10
159.7048429999999
 20
82.22814900000001
 30
0.0
 11
139.3708429999997
 21
82.22814900000001
 31
0.0
  0
LINE
  5
9F69
330
9D92
100
AcDbEntity
  8
1
  6
Continuous
100
AcDbLine
 10
141.123843
 20
62.728149
 30
0.0
 11
161.5878429999999
 21
62.728149
 31
0.0
  0
LINE
  5
9F6A
330
9D92
100
AcDbEntity
  8
1
  6
Continuous
100
AcDbLine
 10
153.0378429999998
 20
72.744849
 30
0.0
 11
141.6708429999999
 21
72.744849
 31
0.0
  0
LINE
  5
9F6B
330
9D92
100
AcDbEntity
  8
1
  6
Continuous
100
AcDbLine
 10
155.1208429999998
 20
63.228149
 30
0.0
 11
155.1208429999998
 21
62.728149
 31
0.0
  0
LINE
  5
9F6C
330
9D92
100
AcDbEntity
  8
1
  6
Continuous
100
AcDbLine
 10
142.6208429999998
 20
63.228149
 30
0.0
 11
142.6208429999998
 21
62.728149
 31
0.0
  0
LINE
  5
9F6D
330
9D92
100
AcDbEntity
  8
1
  6
Continuous
100
AcDbLine
 10
171.8708429999999
 20
64.52814899999999
 30
0.0
 11
126.3708429999997
 21
64.52814899999999
 31
0.0
  0
LINE
  5
9F6E
330
9D92
100
AcDbEntity
  8
4
  6
CENTER
100
AcDbLine
 10
165.4188429999998
 20
93.227849
 30
0.0
 11
179.721843
 21
93.227849
 31
0.0
  0
LINE
  5
9F6F
330
9D92
100
AcDbEntity
  8
1
  6
Continuous
100
AcDbLine
 10
171.8708429999999
 20
74.005949
 30
0.0
 11
171.8708429999999
 21
103.2278489999999
 31
0.0
  0
LINE
  5
9F70
330
9D92
100
AcDbEntity
  8
1
  6
Continuous
100
AcDbLine
 10
172.602843
 20
80.24324900000001
 30
0.0
 11
174.0708429999999
 21
78.77544899999998
 31
0.0
  0
LINE
  5
9F71
330
9D92
100
AcDbEntity
  8
1
  6
Continuous
100
AcDbLine
 10
172.602843
 20
72.46034899999997
 30
0.0
 11
174.0708429999999
 21
73.92814900000002
 31
0.0
  0
LINE
  5
9F72
330
9D92
100
AcDbEntity
  8
1
  6
Continuous
100
AcDbLine
 10
171.8708429999999
 20
60.528149
 30
0.0
 11
171.8708429999999
 21
70.692649
 31
0.0
  0
LINE
  5
9F73
330
9D92
100
AcDbEntity
  8
1
  6
Continuous
100
AcDbLine
 10
169.8708429999998
 20
74.005949
 30
0.0
 11
169.8708429999998
 21
101.2278489999999
 31
0.0
  0
LINE
  5
9F74
330
9D92
100
AcDbEntity
  8
1
  6
Continuous
100
AcDbLine
 10
167.8708429999998
 20
86.22814899999999
 30
0.0
 11
167.8708429999998
 21
100.2278489999999
 31
0.0
  0
LINE
  5
9F75
330
9D92
100
AcDbEntity
  8
1
  6
Continuous
100
AcDbLine
 10
169.8708429999998
 20
100.727849
 30
0.0
 11
168.3708429999998
 21
100.727849
 31
0.0
  0
LINE
  5
9F76
330
9D92
100
AcDbEntity
  8
1
  6
Continuous
100
AcDbLine
 10
168.3708429999998
 20
100.727849
 30
0.0
 11
167.8708429999998
 21
100.2278489999999
 31
0.0
  0
LINE
  5
9F77
330
9D92
100
AcDbEntity
  8
1
  6
Continuous
100
AcDbLine
 10
168.3708429999998
 20
85.728149
 30
0.0
 11
168.3708429999998
 21
100.727849
 31
0.0
  0
LINE
  5
9F78
330
9D92
100
AcDbEntity
  8
1
  6
Continuous
100
AcDbLine
 10
169.8708429999998
 20
101.2278489999999
 30
0.0
 11
171.8708429999999
 21
101.2278489999999
 31
0.0
  0
LINE
  5
9F79
330
9D92
100
AcDbEntity
  8
1
  6
Continuous
100
AcDbLine
 10
166.570843
 20
39.52814899999999
 30
0.0
 11
166.570843
 21
58.228149
 31
0.0
  0
LINE
  5
9F7A
330
9D92
100
AcDbEntity
  8
1
  6
Continuous
100
AcDbLine
 10
130.8708429999997
 20
39.52814899999999
 30
0.0
 11
135.470843
 21
39.52814899999999
 31
0.0
  0
LINE
  5
9F7B
330
9D92
100
AcDbEntity
  8
1
  6
Continuous
100
AcDbLine
 10
133.1708429999999
 20
39.52814899999999
 30
0.0
 11
133.1708429999999
 21
58.228149
 31
0.0
  0
LINE
  5
9F7C
330
9D92
100
AcDbEntity
  8
1
  6
Continuous
100
AcDbLine
 10
164.2708429999998
 20
39.52814899999999
 30
0.0
 11
168.8708429999998
 21
39.52814899999999
 31
0.0
  0
LINE
  5
9F7D
330
9D92
100
AcDbEntity
  8
1
  6
Continuous
100
AcDbLine
 10
125.4178429999999
 20
60.528149
 30
0.0
 11
127.3858429999997
 21
62.49594899999999
 31
0.0
  0
LINE
  5
9F7E
330
9D92
100
AcDbEntity
  8
1
  6
Continuous
100
AcDbLine
 10
141.3558429999999
 20
62.49594899999999
 30
0.0
 11
143.3238429999998
 21
60.528149
 31
0.0
  0
LINE
  5
9F7F
330
9D92
100
AcDbEntity
  8
1
  6
Continuous
100
AcDbLine
 10
145.3958429999999
 20
77.528149
 30
0.0
 11
145.3958429999999
 21
72.744849
 31
0.0
  0
LINE
  5
9F80
330
9D92
100
AcDbEntity
  8
1
  6
Continuous
100
AcDbLine
 10
153.779843
 20
77.528149
 30
0.0
 11
145.3958429999999
 21
77.528149
 31
0.0
  0
LINE
  5
9F81
330
9D92
100
AcDbEntity
  8
1
  6
Continuous
100
AcDbLine
 10
145.3958429999999
 20
69.028149
 30
0.0
 11
126.3708429999997
 21
69.028149
 31
0.0
  0
LINE
  5
9F82
330
9D92
100
AcDbEntity
  8
1
  6
Continuous
100
AcDbLine
 10
139.3708429999997
 20
72.011549
 30
0.0
 11
139.3708429999997
 21
71.228149
 31
0.0
  0
LINE
  5
9F83
330
9D92
100
AcDbEntity
  8
1
  6
Continuous
100
AcDbLine
 10
145.3958429999999
 20
71.228149
 30
0.0
 11
127.3708429999997
 21
71.228149
 31
0.0
  0
LINE
  5
9F84
330
9D92
100
AcDbEntity
  8
1
  6
Continuous
100
AcDbLine
 10
145.3958429999999
 20
69.228149
 30
0.0
 11
126.3708429999997
 21
69.228149
 31
0.0
  0
LINE
  5
9F85
330
9D92
100
AcDbEntity
  8
1
  6
Continuous
100
AcDbLine
 10
145.3958429999999
 20
71.244849
 30
0.0
 11
145.3958429999999
 21
64.52814899999999
 31
0.0
  0
LINE
  5
9F86
330
9D92
100
AcDbEntity
  8
1
  6
Continuous
100
AcDbLine
 10
169.8708429999998
 20
74.005949
 30
0.0
 11
171.8708429999999
 21
74.005949
 31
0.0
  0
LINE
  5
9F87
330
9D92
100
AcDbEntity
  8
1
  6
Continuous
100
AcDbLine
 10
76.03234300000003
 20
162.3488489999997
 30
0.0
 11
79.65544300000002
 21
162.3488489999997
 31
0.0
  0
LINE
  5
9F88
330
9D92
100
AcDbEntity
  8
1
  6
Continuous
100
AcDbLine
 10
75.00834300000002
 20
160.048849
 30
0.0
 11
79.859943
 21
160.048849
 31
0.0
  0
LINE
  5
9F89
330
9D92
100
AcDbEntity
  8
1
  6
Continuous
100
AcDbLine
 10
65.41454300000001
 20
210.253849
 30
0.0
 11
66.51334300000001
 21
210.253849
 31
0.0
  0
LINE
  5
9F8A
330
9D92
100
AcDbEntity
  8
1
  6
Continuous
100
AcDbLine
 10
65.635343
 20
208.253849
 30
0.0
 11
68.313343
 21
208.253849
 31
0.0
  0
LINE
  5
9F8B
330
9D92
100
AcDbEntity
  8
1
  6
Continuous
100
AcDbLine
 10
37.670743
 20
178.853849
 30
0.0
 11
39.63854299999999
 21
176.886849
 31
0.0
  0
LINE
  5
9F8C
330
9D92
100
AcDbEntity
  8
1
  6
Continuous
100
AcDbLine
 10
37.670743
 20
160.748849
 30
0.0
 11
39.63854299999999
 21
162.716849
 31
0.0
  0
LINE
  5
9F8D
330
9D92
100
AcDbEntity
  8
1
  6
Continuous
100
AcDbLine
 10
58.87084300000001
 20
189.301849
 30
0.0
 11
64.521443
 21
189.301849
 31
0.0
  0
LINE
  5
9F8E
330
9D92
100
AcDbEntity
  8
3
  6
DASHED
100
AcDbLine
 10
172.0708429999999
 20
202.551849
 30
0.0
 11
174.096843
 21
197.486849
 31
0.0
  0
LINE
  5
9F8F
330
9D92
100
AcDbEntity
  8
1
  6
Continuous
100
AcDbLine
 10
172.0708429999999
 20
196.801849
 30
0.0
 11
159.2458429999998
 21
196.801849
 31
0.0
  0
LINE
  5
9F90
330
9D92
100
AcDbEntity
  8
1
  6
Continuous
100
AcDbLine
 10
344.1708429999998
 20
155.6018489999999
 30
0.0
 11
344.1708429999998
 21
153.301849
 31
0.0
  0
LINE
  5
9F91
330
9D92
100
AcDbEntity
  8
1
  6
Continuous
100
AcDbLine
 10
377.570843
 20
155.6018489999999
 30
0.0
 11
377.570843
 21
153.301849
 31
0.0
  0
LINE
  5
9F92
330
9D92
100
AcDbEntity
  8
4
  6
CENTER
100
AcDbLine
 10
366.3708429999999
 20
193.301849
 30
0.0
 11
353.3708429999999
 21
193.301849
 31
0.0
  0
LINE
  5
9F93
330
9D92
100
AcDbEntity
  8
4
  6
CENTER
100
AcDbLine
 10
359.8708429999998
 20
199.8018489999998
 30
0.0
 11
359.8708429999998
 21
186.801849
 31
0.0
  0
LINE
  5
9F94
330
9D92
100
AcDbEntity
  8
4
  6
CENTER
100
AcDbLine
 10
144.3708429999998
 20
169.801849
 30
0.0
 11
124.3708429999997
 21
169.801849
 31
0.0
  0
LINE
  5
9F95
330
9D92
100
AcDbEntity
  8
4
  6
CENTER
100
AcDbLine
 10
134.3708429999997
 20
179.801849
 30
0.0
 11
134.3708429999997
 21
159.801849
 31
0.0
  0
LINE
  5
9F96
330
9D92
100
AcDbEntity
  8
4
  6
CENTER
100
AcDbLine
 10
237.370843
 20
179.301849
 30
0.0
 11
237.370843
 21
159.301849
 31
0.0
  0
LINE
  5
9F97
330
9D92
100
AcDbEntity
  8
1
  6
Continuous
100
AcDbLine
 10
253.277843
 20
146.529849
 30
0.0
 11
256.335843
 21
136.424849
 31
0.0
  0
LINE
  5
9F98
330
9D92
100
AcDbEntity
  8
1
  6
Continuous
100
AcDbLine
 10
245.111843
 20
132.246849
 30
0.0
 11
236.5128429999999
 21
151.558849
 31
0.0
  0
LINE
  5
9F99
330
9D92
100
AcDbEntity
  8
4
  6
CENTER
100
AcDbLine
 10
250.5928429999999
 20
139.6868489999999
 30
0.0
 11
250.5928429999999
 21
129.686849
 31
0.0
  0
LINE
  5
9F9A
330
9D92
100
AcDbEntity
  8
4
  6
CENTER
100
AcDbLine
 10
255.5928429999999
 20
134.686849
 30
0.0
 11
245.5928429999999
 21
134.686849
 31
0.0
  0
LINE
  5
9F9B
330
9D92
100
AcDbEntity
  8
4
  6
CENTER
100
AcDbLine
 10
168.2288429999998
 20
80.00594900000001
 30
0.0
 11
173.4258429999999
 21
80.00594900000001
 31
0.0
  0
LINE
  5
9F9C
330
9D92
100
AcDbEntity
  8
1
  6
Continuous
100
AcDbLine
 10
141.077843
 20
74.994849
 30
0.0
 11
127.820843
 21
74.994849
 31
0.0
  0
LINE
  5
9F9D
330
9D92
100
AcDbEntity
  8
1
  6
Continuous
100
AcDbLine
 10
153.0378429999998
 20
71.244849
 30
0.0
 11
138.3708429999997
 21
71.244849
 31
0.0
  0
LINE
  5
9F9E
330
9D92
100
AcDbEntity
  8
1
  6
Continuous
100
AcDbLine
 10
140.9208429999999
 20
73.494849
 30
0.0
 11
127.820843
 21
73.494849
 31
0.0
  0
LINE
  5
9F9F
330
9D92
100
AcDbEntity
  8
1
  6
Continuous
100
AcDbLine
 10
140.9208429999999
 20
71.994849
 30
0.0
 11
127.820843
 21
71.994849
 31
0.0
  0
LINE
  5
9FA0
330
9D92
100
AcDbEntity
  8
1
  6
Continuous
100
AcDbLine
 10
49.137443
 20
176.3518489999999
 30
0.0
 11
49.137443
 21
163.200849
 31
0.0
  0
LINE
  5
9FA1
330
9D92
100
AcDbEntity
  8
1
  6
Continuous
100
AcDbLine
 10
49.887443
 20
162.5018489999999
 30
0.0
 11
49.887443
 21
152.7148489999999
 31
0.0
  0
LINE
  5
9FA2
330
9D92
100
AcDbEntity
  8
1
  6
Continuous
100
AcDbLine
 10
48.387443
 20
164.801849
 30
0.0
 11
48.387443
 21
152.7148489999999
 31
0.0
  0
LINE
  5
9FA3
330
9D92
100
AcDbEntity
  8
1
  6
Continuous
100
AcDbLine
 10
41.670743
 20
160.266849
 30
0.0
 11
46.170743
 21
160.266849
 31
0.0
  0
LINE
  5
9FA4
330
9D92
100
AcDbEntity
  8
1
  6
Continuous
100
AcDbLine
 10
151.2198429999999
 20
74.028149
 30
0.0
 11
151.2198429999999
 21
72.744849
 31
0.0
  0
LINE
  5
9FA5
330
9D92
100
AcDbEntity
  8
1
  6
Continuous
100
AcDbLine
 10
153.203843
 20
77.528149
 30
0.0
 11
151.2198429999999
 21
74.04484899999999
 31
0.0
  0
LINE
  5
9FA6
330
9D92
100
AcDbEntity
  8
1
  6
Continuous
100
AcDbLine
 10
153.779843
 20
77.528149
 30
0.0
 11
151.7968429999999
 21
74.04484899999999
 31
0.0
  0
LINE
  5
9FA7
330
9D92
100
AcDbEntity
  8
1
  6
Continuous
100
AcDbLine
 10
151.7968429999999
 20
74.028149
 30
0.0
 11
151.7968429999999
 21
72.744849
 31
0.0
  0
LINE
  5
9FA8
330
9D92
100
AcDbEntity
  8
4
  6
CENTER
100
AcDbLine
 10
359.8708429999998
 20
181.801849
 30
0.0
 11
359.8708429999998
 21
166.801849
 31
0.0
  0
LINE
  5
9FA9
330
9D92
100
AcDbEntity
  8
4
  6
CENTER
100
AcDbLine
 10
352.3708429999999
 20
174.301849
 30
0.0
 11
367.370843
 21
174.301849
 31
0.0
  0
LINE
  5
9FAA
330
9D92
100
AcDbEntity
  8
4
  6
CENTER
100
AcDbLine
 10
281.5728429999999
 20
174.301849
 30
0.0
 11
294.3758429999999
 21
174.301849
 31
0.0
  0
LINE
  5
9FAB
330
9D92
100
AcDbEntity
  8
1
  6
Continuous
100
AcDbLine
 10
257.8708429999999
 20
234.801849
 30
0.0
 11
248.038843
 21
233.666849
 31
0.0
  0
LINE
  5
9FAC
330
9D92
100
AcDbEntity
  8
1
  6
Continuous
100
AcDbLine
 10
244.520843
 20
230.1318489999999
 30
0.0
 11
242.480843
 21
211.645849
 31
0.0
  0
LINE
  5
9FAD
330
9D92
100
AcDbEntity
  8
1
  6
Continuous
100
AcDbLine
 10
257.7018429999998
 20
228.558849
 30
0.0
 11
257.8708429999999
 21
234.801849
 31
0.0
  0
LINE
  5
9FAE
330
9D92
100
AcDbEntity
  8
1
  6
Continuous
100
AcDbLine
 10
255.639843
 20
226.266849
 30
0.0
 11
255.863843
 21
234.569849
 31
0.0
  0
LINE
  5
9FAF
330
9D92
100
AcDbEntity
  8
1
  6
Continuous
100
AcDbLine
 10
367.370843
 20
234.801849
 30
0.0
 11
371.370843
 21
234.801849
 31
0.0
  0
LINE
  5
9FB0
330
9D92
100
AcDbEntity
  8
1
  6
Continuous
100
AcDbLine
 10
371.370843
 20
234.801849
 30
0.0
 11
369.181843
 21
219.479849
 31
0.0
  0
LINE
  5
9FB1
330
9D92
100
AcDbEntity
  8
4
  6
CENTER
100
AcDbLine
 10
164.3708429999998
 20
65.76604899999999
 30
0.0
 11
164.3708429999998
 21
54.289549
 31
0.0
  0
LINE
  5
9FB2
330
9D92
100
AcDbEntity
  8
4
  6
CENTER
100
AcDbLine
 10
164.3708429999998
 20
302.01274
 30
0.0
 11
164.3708429999998
 21
315.749849
 31
0.0
  0
LINE
  5
9FB3
330
9D92
100
AcDbEntity
  8
5
  6
PHANTOM
100
AcDbLine
 10
157.1228429999998
 20
230.7628489999999
 30
0.0
 11
153.4428429999999
 21
209.217849
 31
0.0
  0
LINE
  5
9FB4
330
9D92
100
AcDbEntity
  8
5
  6
PHANTOM
100
AcDbLine
 10
159.046843
 20
230.1448489999999
 30
0.0
 11
155.4028429999999
 21
208.816849
 31
0.0
  0
LINE
  5
9FB5
330
9D92
100
AcDbEntity
  8
5
  6
PHANTOM
100
AcDbLine
 10
160.9728429999998
 20
218.0218490000001
 30
0.0
 11
159.2408429999998
 21
207.885849
 31
0.0
  0
LINE
  5
9FB6
330
9D92
100
AcDbEntity
  8
5
  6
PHANTOM
100
AcDbLine
 10
160.9308429999998
 20
229.538849
 30
0.0
 11
157.1228429999998
 21
230.7628489999999
 31
0.0
  0
LINE
  5
9FB7
330
9D92
100
AcDbEntity
  8
1
  6
Continuous
100
AcDbLine
 10
49.887443
 20
155.8288489999999
 30
0.0
 11
51.170743
 21
155.8288489999999
 31
0.0
  0
LINE
  5
9FB8
330
9D92
100
AcDbEntity
  8
1
  6
Continuous
100
AcDbLine
 10
49.887443
 20
161.0598489999999
 30
0.0
 11
54.670743
 21
161.0598489999999
 31
0.0
  0
LINE
  5
9FB9
330
9D92
100
AcDbEntity
  8
1
  6
Continuous
100
AcDbLine
 10
44.870843
 20
180.867849
 30
0.0
 11
45.71504299999999
 21
182.7648489999999
 31
0.0
  0
LINE
  5
9FBA
330
9D92
100
AcDbEntity
  8
1
  6
Continuous
100
AcDbLine
 10
261.3708429999999
 20
175.301849
 30
0.0
 11
261.3708429999999
 21
159.801849
 31
0.0
  0
LINE
  5
9FBB
330
9D92
100
AcDbEntity
  8
1
  6
Continuous
100
AcDbLine
 10
259.3708429999999
 20
175.301849
 30
0.0
 11
259.3708429999999
 21
159.801849
 31
0.0
  0
LINE
  5
9FBC
330
9D92
100
AcDbEntity
  8
1
  6
Continuous
100
AcDbLine
 10
266.070843
 20
175.301849
 30
0.0
 11
266.070843
 21
159.0548489999999
 31
0.0
  0
LINE
  5
9FBD
330
9D92
100
AcDbEntity
  8
1
  6
Continuous
100
AcDbLine
 10
244.8708429999999
 20
205.3018489999999
 30
0.0
 11
244.8708429999999
 21
196.801849
 31
0.0
  0
LINE
  5
9FBE
330
9D92
100
AcDbEntity
  8
1
  6
Continuous
100
AcDbLine
 10
246.8708429999999
 20
205.3018489999999
 30
0.0
 11
246.8708429999999
 21
196.801849
 31
0.0
  0
LINE
  5
9FBF
330
9D92
100
AcDbEntity
  8
1
  6
Continuous
100
AcDbLine
 10
169.8708429999998
 20
302.5748489999998
 30
0.0
 11
155.8418429999998
 21
302.5748489999998
 31
0.0
  0
LINE
  5
9FC0
330
9D92
100
AcDbEntity
  8
1
  6
Continuous
100
AcDbLine
 10
129.8708429999997
 20
307.0748489999999
 30
0.0
 11
126.3708429999997
 21
307.0748489999999
 31
0.0
  0
LINE
  5
9FC1
330
9D92
100
AcDbEntity
  8
1
  6
Continuous
100
AcDbLine
 10
129.1538429999999
 20
308.374849
 30
0.0
 11
129.8708429999997
 21
308.374849
 31
0.0
  0
LINE
  5
9FC2
330
9D92
100
AcDbEntity
  8
1
  6
Continuous
100
AcDbLine
 10
46.370843
 20
161.801849
 30
0.0
 11
46.170743
 21
161.801849
 31
0.0
  0
LINE
  5
9FC3
330
9D92
100
AcDbEntity
  8
1
  6
Continuous
100
AcDbLine
 10
131.3708429999997
 20
302.5748489999998
 30
0.0
 11
126.3708429999997
 21
302.5748489999998
 31
0.0
  0
LINE
  5
9FC4
330
9D92
100
AcDbEntity
  8
1
  6
Continuous
100
AcDbLine
 10
171.8708429999999
 20
307.0748489999999
 30
0.0
 11
169.823464
 21
307.0748489999999
 31
0.0
  0
LINE
  5
9FC5
330
9D92
100
AcDbEntity
  8
1
  6
Continuous
100
AcDbLine
 10
157.2188429999999
 20
308.374849
 30
0.0
 11
157.2188429999999
 21
303.8748489999999
 31
0.0
  0
LINE
  5
9FC6
330
9D92
100
AcDbEntity
  8
1
  6
Continuous
100
AcDbLine
 10
138.8708429999997
 20
308.374849
 30
0.0
 11
157.618143
 21
308.374849
 31
0.0
  0
LINE
  5
9FC7
330
9D92
100
AcDbEntity
  8
1
  6
Continuous
100
AcDbLine
 10
137.3708429999997
 20
303.8748489999999
 30
0.0
 11
166.5158429999999
 21
303.8748489999999
 31
0.0
  0
LINE
  5
9FC8
330
9D92
100
AcDbEntity
  8
1
  6
Continuous
100
AcDbLine
 10
169.8708429999998
 20
285.8748489999999
 30
0.0
 11
159.9368429999999
 21
285.8748489999999
 31
0.0
  0
LINE
  5
9FC9
330
9D92
100
AcDbEntity
  8
1
  6
Continuous
100
AcDbLine
 10
169.8708429999998
 20
287.8748489999999
 30
0.0
 11
159.9368429999999
 21
287.8748489999999
 31
0.0
  0
LINE
  5
9FCA
330
9D92
100
AcDbEntity
  8
1
  6
Continuous
100
AcDbLine
 10
162.0798429999998
 20
288.359849
 30
0.0
 11
161.1448429999998
 21
289.917849
 31
0.0
  0
LINE
  5
9FCB
330
9D92
100
AcDbEntity
  8
1
  6
Continuous
100
AcDbLine
 10
159.0798429999999
 20
288.359849
 30
0.0
 11
158.1448429999998
 21
289.917849
 31
0.0
  0
LINE
  5
9FCC
330
9D92
100
AcDbEntity
  8
1
  6
Continuous
100
AcDbLine
 10
157.364843
 20
287.3308489999999
 30
0.0
 11
156.429843
 21
288.8888489999999
 31
0.0
  0
LINE
  5
9FCD
330
9D92
100
AcDbEntity
  8
1
  6
Continuous
100
AcDbLine
 10
158.256843
 20
206.755849
 30
0.0
 11
162.2388429999998
 21
196.801849
 31
0.0
  0
LINE
  5
9FCE
330
9D92
100
AcDbEntity
  8
1
  6
Continuous
100
AcDbLine
 10
156.1388429999998
 20
206.801849
 30
0.0
 11
160.1388429999998
 21
196.801849
 31
0.0
  0
LINE
  5
9FCF
330
9D92
100
AcDbEntity
  8
1
  6
Continuous
100
AcDbLine
 10
142.3708429999997
 20
69.228149
 30
0.0
 11
142.3708429999997
 21
69.028149
 31
0.0
  0
LINE
  5
9FD0
330
9D92
100
AcDbEntity
  8
1
  6
Continuous
100
AcDbLine
 10
129.1538429999999
 20
63.228149
 30
0.0
 11
166.5158429999999
 21
63.228149
 31
0.0
  0
LINE
  5
9FD1
330
9D92
100
AcDbEntity
  8
1
  6
Continuous
100
AcDbLine
 10
138.3708429999997
 20
64.52814899999999
 30
0.0
 11
138.3708429999997
 21
63.228149
 31
0.0
  0
LINE
  5
9FD2
330
9D92
100
AcDbEntity
  8
1
  6
Continuous
100
AcDbLine
 10
130.3708429999997
 20
64.52814899999999
 30
0.0
 11
130.3708429999997
 21
63.228149
 31
0.0
  0
LINE
  5
9FD3
330
9D92
100
AcDbEntity
  8
1
  6
Continuous
100
AcDbLine
 10
171.8708429999999
 20
69.028149
 30
0.0
 11
151.7968429999999
 21
69.028149
 31
0.0
  0
LINE
  5
9FD4
330
9D92
100
AcDbEntity
  8
1
  6
Continuous
100
AcDbLine
 10
151.786843
 20
74.028149
 30
0.0
 11
151.2108429999998
 21
74.028149
 31
0.0
  0
LINE
  5
9FD5
330
9D92
100
AcDbEntity
  8
1
  6
Continuous
100
AcDbLine
 10
151.2198429999999
 20
71.244849
 30
0.0
 11
151.2198429999999
 21
64.52814899999999
 31
0.0
  0
LINE
  5
9FD6
330
9D92
100
AcDbEntity
  8
1
  6
Continuous
100
AcDbLine
 10
151.7968429999999
 20
71.244849
 30
0.0
 11
151.7968429999999
 21
69.028149
 31
0.0
  0
LINE
  5
9FD7
330
9D92
100
AcDbEntity
  8
1
  6
Continuous
100
AcDbLine
 10
169.8708429999998
 20
83.72814899999999
 30
0.0
 11
164.069843
 21
83.72814899999999
 31
0.0
  0
LINE
  5
9FD8
330
9D92
100
AcDbEntity
  8
1
  6
Continuous
100
AcDbLine
 10
169.8708429999998
 20
85.728149
 30
0.0
 11
159.9368429999999
 21
85.728149
 31
0.0
  0
LINE
  5
9FD9
330
9D92
100
AcDbEntity
  8
1
  6
Continuous
100
AcDbLine
 10
161.4968429999999
 20
84.27164899999999
 30
0.0
 11
160.5618429999998
 21
82.713649
 31
0.0
  0
LINE
  5
9FDA
330
9D92
100
AcDbEntity
  8
1
  6
Continuous
100
AcDbLine
 10
163.211843
 20
83.24264900000001
 30
0.0
 11
162.2768429999998
 21
81.68464899999998
 31
0.0
  0
LINE
  5
9FDB
330
9D92
100
AcDbEntity
  8
1
  6
Continuous
100
AcDbLine
 10
168.3708429999998
 20
85.728149
 30
0.0
 11
167.8708429999998
 21
86.22814899999999
 31
0.0
  0
LINE
  5
9FDC
330
9D92
100
AcDbEntity
  8
1
  6
Continuous
100
AcDbLine
 10
157.364843
 20
84.27164899999999
 30
0.0
 11
156.429843
 21
82.713649
 31
0.0
  0
LINE
  5
9FDD
330
9D92
100
AcDbEntity
  8
1
  6
Continuous
100
AcDbLine
 10
130.3708429999997
 20
62.228149
 30
0.0
 11
138.3708429999997
 21
62.228149
 31
0.0
  0
LINE
  5
9FDE
330
9D92
100
AcDbEntity
  8
1
  6
Continuous
100
AcDbLine
 10
166.5158429999999
 20
64.52814899999999
 30
0.0
 11
166.5158429999999
 21
63.228149
 31
0.0
  0
LINE
  5
9FDF
330
9D92
100
AcDbEntity
  8
1
  6
Continuous
100
AcDbLine
 10
44.370843
 20
234.801849
 30
0.0
 11
42.623443
 21
234.801849
 31
0.0
  0
LINE
  5
9FE0
330
9D92
100
AcDbEntity
  8
1
  6
Continuous
100
AcDbLine
 10
38.12354299999999
 20
239.301849
 30
0.0
 11
42.623443
 21
234.801849
 31
0.0
  0
LINE
  5
9FE1
330
9D92
100
AcDbEntity
  8
1
  6
Continuous
100
AcDbLine
 10
44.370843
 20
234.801849
 30
0.0
 11
44.370843
 21
225.801849
 31
0.0
  0
LINE
  5
9FE2
330
9D92
100
AcDbEntity
  8
1
  6
Continuous
100
AcDbLine
 10
42.623443
 20
234.801849
 30
0.0
 11
42.623443
 21
225.801849
 31
0.0
  0
LINE
  5
9FE3
330
9D92
100
AcDbEntity
  8
1
  6
Continuous
100
AcDbLine
 10
37.670743
 20
220.8490489999999
 30
0.0
 11
42.623543
 21
225.801849
 31
0.0
  0
LINE
  5
9FE4
330
9D92
100
AcDbEntity
  8
1
  6
Continuous
100
AcDbLine
 10
44.370843
 20
225.801849
 30
0.0
 11
42.623443
 21
225.801849
 31
0.0
  0
LINE
  5
9FE5
330
9D92
100
AcDbEntity
  8
1
  6
Continuous
100
AcDbLine
 10
264.3708429999999
 20
198.469849
 30
0.0
 11
264.3708429999999
 21
199.408849
 31
0.0
  0
LINE
  5
9FE6
330
9D92
100
AcDbEntity
  8
1
  6
Continuous
100
AcDbLine
 10
264.3708429999999
 20
201.704849
 30
0.0
 11
264.3708429999999
 21
202.1748489999999
 31
0.0
  0
LINE
  5
9FE7
330
9D92
100
AcDbEntity
  8
1
  6
Continuous
100
AcDbLine
 10
264.3708429999999
 20
207.804849
 30
0.0
 11
264.3708429999999
 21
208.2748489999999
 31
0.0
  0
LINE
  5
9FE8
330
9D92
100
AcDbEntity
  8
1
  6
Continuous
100
AcDbLine
 10
264.6668429999999
 20
200.037849
 30
0.0
 11
264.6668429999999
 21
200.8278489999999
 31
0.0
  0
LINE
  5
9FE9
330
9D92
100
AcDbEntity
  8
1
  6
Continuous
100
AcDbLine
 10
263.6198429999997
 20
200.439849
 30
0.0
 11
265.1198429999999
 21
200.993849
 31
0.0
  0
LINE
  5
9FEA
330
9D92
100
AcDbEntity
  8
1
  6
Continuous
100
AcDbLine
 10
263.609843
 20
199.408849
 30
0.0
 11
265.109843
 21
199.408849
 31
0.0
  0
LINE
  5
9FEB
330
9D92
100
AcDbEntity
  8
1
  6
Continuous
100
AcDbLine
 10
263.621843
 20
200.439849
 30
0.0
 11
265.1198429999999
 21
199.8578489999999
 31
0.0
  0
LINE
  5
9FEC
330
9D92
100
AcDbEntity
  8
1
  6
Continuous
100
AcDbLine
 10
263.6208429999999
 20
196.8518489999999
 30
0.0
 11
263.6208429999999
 21
198.0328489999999
 31
0.0
  0
LINE
  5
9FED
330
9D92
100
AcDbEntity
  8
1
  6
Continuous
100
AcDbLine
 10
263.6208429999999
 20
197.439849
 30
0.0
 11
265.120843
 21
197.439849
 31
0.0
  0
LINE
  5
9FEE
330
9D92
100
AcDbEntity
  8
1
  6
Continuous
100
AcDbLine
 10
263.609843
 20
198.469849
 30
0.0
 11
265.109843
 21
198.469849
 31
0.0
  0
LINE
  5
9FEF
330
9D92
100
AcDbEntity
  8
1
  6
Continuous
100
AcDbLine
 10
264.0128429999999
 20
209.7328489999999
 30
0.0
 11
264.0748429999998
 21
209.7328489999999
 31
0.0
  0
LINE
  5
9FF0
330
9D92
100
AcDbEntity
  8
1
  6
Continuous
100
AcDbLine
 10
263.6208429999999
 20
205.998849
 30
0.0
 11
263.6208429999999
 21
206.785849
 31
0.0
  0
LINE
  5
9FF1
330
9D92
100
AcDbEntity
  8
1
  6
Continuous
100
AcDbLine
 10
263.6208429999999
 20
204.884849
 30
0.0
 11
263.6208429999999
 21
204.950849
 31
0.0
  0
LINE
  5
9FF2
330
9D92
100
AcDbEntity
  8
1
  6
Continuous
100
AcDbLine
 10
264.0128429999999
 20
208.945849
 30
0.0
 11
264.0748429999998
 21
208.945849
 31
0.0
  0
LINE
  5
9FF3
330
9D92
100
AcDbEntity
  8
1
  6
Continuous
100
AcDbLine
 10
263.622843
 20
210.891849
 30
0.0
 11
265.1228429999998
 21
210.891849
 31
0.0
  0
LINE
  5
9FF4
330
9D92
100
AcDbEntity
  8
1
  6
Continuous
100
AcDbLine
 10
264.015843
 20
211.677849
 30
0.0
 11
264.078843
 21
211.677849
 31
0.0
  0
LINE
  5
9FF5
330
9D92
100
AcDbEntity
  8
1
  6
Continuous
100
AcDbLine
 10
264.0138429999999
 20
204.5228489999999
 30
0.0
 11
264.076843
 21
204.5228489999999
 31
0.0
  0
LINE
  5
9FF6
330
9D92
100
AcDbEntity
  8
1
  6
Continuous
100
AcDbLine
 10
264.0138429999999
 20
205.3088489999999
 30
0.0
 11
264.758843
 21
205.3088489999999
 31
0.0
  0
LINE
  5
9FF7
330
9D92
100
AcDbEntity
  8
1
  6
Continuous
100
AcDbLine
 10
264.515843
 20
206.785849
 30
0.0
 11
264.760843
 21
206.785849
 31
0.0
  0
LINE
  5
9FF8
330
9D92
100
AcDbEntity
  8
1
  6
Continuous
100
AcDbLine
 10
265.120843
 20
208.945849
 30
0.0
 11
265.120843
 21
209.7328489999999
 31
0.0
  0
LINE
  5
9FF9
330
9D92
100
AcDbEntity
  8
1
  6
Continuous
100
AcDbLine
 10
265.120843
 20
208.945849
 30
0.0
 11
264.333843
 21
209.634849
 31
0.0
  0
LINE
  5
9FFA
330
9D92
100
AcDbEntity
  8
1
  6
Continuous
100
AcDbLine
 10
264.664843
 20
204.5228489999999
 30
0.0
 11
264.758843
 21
204.5228489999999
 31
0.0
  0
LINE
  5
9FFB
330
9D92
100
AcDbEntity
  8
1
  6
Continuous
100
AcDbLine
 10
263.6208429999999
 20
205.998849
 30
0.0
 11
264.515843
 21
205.998849
 31
0.0
  0
LINE
  5
9FFC
330
9D92
100
AcDbEntity
  8
1
  6
Continuous
100
AcDbLine
 10
263.622843
 20
210.891849
 30
0.0
 11
263.622843
 21
211.284849
 31
0.0
  0
LINE
  5
9FFD
330
9D92
100
AcDbEntity
  8
1
  6
Continuous
100
AcDbLine
 10
264.4718429999999
 20
210.891849
 30
0.0
 11
264.4718429999999
 21
211.284849
 31
0.0
  0
LINE
  5
9FFE
330
9D92
100
AcDbEntity
  8
1
  6
Continuous
100
AcDbLine
 10
264.4718429999999
 20
211.284849
 30
0.0
 11
265.1228429999998
 21
211.677849
 31
0.0
  0
LINE
  5
9FFF
330
9D92
100
AcDbEntity
  8
1
  6
Continuous
100
AcDbLine
 10
264.0128429999999
 20
203.045849
 30
0.0
 11
264.0748429999998
 21
203.045849
 31
0.0
  0
LINE
  5
A000
330
9D92
100
AcDbEntity
  8
1
  6
Continuous
100
AcDbLine
 10
264.0128429999999
 20
203.832849
 30
0.0
 11
264.0748429999998
 21
203.832849
 31
0.0
  0
LINE
  5
A001
330
9D92
100
AcDbEntity
  8
1
  6
Continuous
100
AcDbLine
 10
265.120843
 20
203.045849
 30
0.0
 11
265.120843
 21
203.832849
 31
0.0
  0
LINE
  5
A002
330
9D92
100
AcDbEntity
  8
1
  6
Continuous
100
AcDbLine
 10
265.120843
 20
203.045849
 30
0.0
 11
264.333843
 21
203.7348489999998
 31
0.0
  0
ARC
  5
A003
330
9D92
100
AcDbEntity
  8
1
  6
Continuous
100
AcDbCircle
 10
269.597843
 20
234.301849
 30
0.0
 40
5.0
100
AcDbArc
 50
90.0
 51
138.013
  0
ARC
  5
A004
330
9D92
100
AcDbEntity
  8
1
  6
Continuous
100
AcDbCircle
 10
239.1028429999999
 20
195.933849
 30
0.0
 40
8.0
100
AcDbArc
 50
138.013
 51
174.9199999999999
  0
ARC
  5
A005
330
9D92
100
AcDbEntity
  8
1
  6
Continuous
100
AcDbCircle
 10
235.916843
 20
160.0898489999998
 30
0.0
 40
8.0
100
AcDbArc
 50
174.9199999999999
 51
253.301
  0
ARC
  5
A006
330
9D92
100
AcDbEntity
  8
1
  6
Continuous
100
AcDbCircle
 10
247.370843
 20
127.420849
 30
0.0
 40
20.0
100
AcDbArc
 50
28.37399999999999
 51
73.30079999999998
  0
ARC
  5
A007
330
9D92
100
AcDbEntity
  8
1
  6
Continuous
100
AcDbCircle
 10
269.3678429999998
 20
139.301849
 30
0.0
 40
5.0
100
AcDbArc
 50
208.374
 51
270.0
  0
ARC
  5
A008
330
9D92
100
AcDbEntity
  8
1
  6
Continuous
100
AcDbCircle
 10
245.870843
 20
204.301849
 30
0.0
 40
3.0
100
AcDbArc
 50
0.0
 51
90.0
  0
ARC
  5
A009
330
9D92
100
AcDbEntity
  8
1
  6
Continuous
100
AcDbCircle
 10
245.870843
 20
204.301849
 30
0.0
 40
5.0
100
AcDbArc
 50
10.6455
 51
90.0
  0
ARC
  5
A00A
330
9D92
100
AcDbEntity
  8
1
  6
Continuous
100
AcDbCircle
 10
259.3708429999999
 20
174.301849
 30
0.0
 40
3.0
100
AcDbArc
 50
90.0
 51
180.0
  0
ARC
  5
A00B
330
9D92
100
AcDbEntity
  8
1
  6
Continuous
100
AcDbCircle
 10
259.3708429999999
 20
157.301849
 30
0.0
 40
3.0
100
AcDbArc
 50
180.0
 51
270.0
  0
ARC
  5
A00C
330
9D92
100
AcDbEntity
  8
1
  6
Continuous
100
AcDbCircle
 10
259.3708429999999
 20
157.301849
 30
0.0
 40
5.0
100
AcDbArc
 50
180.0
 51
270.0
  0
ARC
  5
A00D
330
9D92
100
AcDbEntity
  8
1
  6
Continuous
100
AcDbCircle
 10
259.3708429999999
 20
174.301849
 30
0.0
 40
5.0
100
AcDbArc
 50
90.0
 51
180.0
  0
CIRCLE
  5
A00E
330
9D92
100
AcDbEntity
  8
1
  6
Continuous
100
AcDbCircle
 10
254.370843
 20
194.301849
 30
0.0
 40
1.0
  0
ARC
  5
A00F
330
9D92
100
AcDbEntity
  8
1
  6
Continuous
100
AcDbCircle
 10
374.3708429999998
 20
208.301849
 30
0.0
 40
9.5
100
AcDbArc
 50
0.0
 51
88.93919999999999
  0
ARC
  5
A010
330
9D92
100
AcDbEntity
  8
1
  6
Continuous
100
AcDbCircle
 10
343.482843
 20
229.3018490000001
 30
0.0
 40
10.0
100
AcDbArc
 50
47.50759999999999
 51
90.0
  0
ARC
  5
A011
330
9D92
100
AcDbEntity
  8
1
  6
Continuous
100
AcDbCircle
 10
374.731843
 20
227.797849
 30
0.0
 40
10.0
100
AcDbArc
 50
227.5079999999999
 51
268.939
  0
ARC
  5
A012
330
9D92
100
AcDbEntity
  8
1
  6
Continuous
100
AcDbCircle
 10
374.3708429999998
 20
143.801849
 30
0.0
 40
9.5
100
AcDbArc
 50
270.0
 51
0.0
  0
ARC
  5
A013
330
9D92
100
AcDbEntity
  8
1
  6
Continuous
100
AcDbCircle
 10
374.3708429999998
 20
208.301849
 30
0.0
 40
2.1
100
AcDbArc
 50
289.059
 51
162.8829999999998
  0
ARC
  5
A014
330
9D92
100
AcDbEntity
  8
1
  6
Continuous
100
AcDbCircle
 10
374.3708429999998
 20
208.301849
 30
0.0
 40
6.0
100
AcDbArc
 50
314.796
 51
137.1459999999999
  0
CIRCLE
  5
A015
330
9D92
100
AcDbEntity
  8
2
  6
Continuous
100
AcDbCircle
 10
344.370843
 20
143.301849
 30
0.0
 40
3.0
  0
CIRCLE
  5
A016
330
9D92
100
AcDbEntity
  8
2
  6
Continuous
100
AcDbCircle
 10
374.3708429999998
 20
143.301849
 30
0.0
 40
3.0
  0
CIRCLE
  5
A017
330
9D92
100
AcDbEntity
  8
2
  6
Continuous
100
AcDbCircle
 10
344.370843
 20
230.301849
 30
0.0
 40
3.0
  0
ARC
  5
A018
330
9D92
100
AcDbEntity
  8
1
  6
Continuous
100
AcDbCircle
 10
392.6898429999998
 20
189.850849
 30
0.0
 40
20.0
100
AcDbArc
 50
134.796
 51
139.5869999999999
  0
ARC
  5
A019
330
9D92
100
AcDbEntity
  8
1
  6
Continuous
100
AcDbCircle
 10
355.3108429999999
 20
225.984849
 30
0.0
 40
20.0
100
AcDbArc
 50
312.355
 51
317.1459999999999
  0
ARC
  5
A01A
330
9D92
100
AcDbEntity
  8
1
  6
Continuous
100
AcDbCircle
 10
242.8708429999999
 20
169.301849
 30
0.0
 40
6.0
100
AcDbArc
 50
270.0
 51
0.0
  0
ARC
  5
A01B
330
9D92
100
AcDbEntity
  8
1
  6
Continuous
100
AcDbCircle
 10
242.8708429999999
 20
169.301849
 30
0.0
 40
8.0
100
AcDbArc
 50
284.982
 51
0.0
  0
CIRCLE
  5
A01C
330
9D92
100
AcDbEntity
  8
1
  6
Continuous
100
AcDbCircle
 10
344.370843
 20
230.301849
 30
0.0
 40
2.458499999999999
  0
CIRCLE
  5
A01D
330
9D92
100
AcDbEntity
  8
1
  6
Continuous
100
AcDbCircle
 10
344.370843
 20
143.301849
 30
0.0
 40
2.458499999999999
  0
CIRCLE
  5
A01E
330
9D92
100
AcDbEntity
  8
1
  6
Continuous
100
AcDbCircle
 10
374.3708429999998
 20
143.301849
 30
0.0
 40
2.458499999999999
  0
ARC
  5
A01F
330
9D92
100
AcDbEntity
  8
1
  6
Continuous
100
AcDbCircle
 10
267.141843
 20
193.3008489999997
 30
0.0
 40
3.925309999999998
100
AcDbArc
 50
192.729
 51
193.2679999999999
  0
ARC
  5
A020
330
9D92
100
AcDbEntity
  8
1
  6
Continuous
100
AcDbCircle
 10
267.141843
 20
193.3008489999997
 30
0.0
 40
3.925309999999998
100
AcDbArc
 50
193.2679999999999
 51
195.257
  0
ARC
  5
A021
330
9D92
100
AcDbEntity
  8
1
  6
Continuous
100
AcDbCircle
 10
263.513843
 20
192.311849
 30
0.0
 40
0.165003
100
AcDbArc
 50
195.257
 51
270.0
  0
ARC
  5
A022
330
9D92
100
AcDbEntity
  8
1
  6
Continuous
100
AcDbCircle
 10
265.2278429999999
 20
192.311849
 30
0.0
 40
0.165003
100
AcDbArc
 50
270.0
 51
344.7419999999997
  0
ARC
  5
A023
330
9D92
100
AcDbEntity
  8
1
  6
Continuous
100
AcDbCircle
 10
261.6008429999999
 20
193.3008489999997
 30
0.0
 40
3.925309999999998
100
AcDbArc
 50
344.7419999999997
 51
344.794
  0
ARC
  5
A024
330
9D92
100
AcDbEntity
  8
1
  6
Continuous
100
AcDbCircle
 10
261.6008429999999
 20
193.3008489999997
 30
0.0
 40
3.925309999999998
100
AcDbArc
 50
344.794
 51
347.2709999999997
  0
ARC
  5
A025
330
9D92
100
AcDbEntity
  8
1
  6
Continuous
100
AcDbCircle
 10
264.3708429999999
 20
191.321849
 30
0.0
 40
0.850059
100
AcDbArc
 50
215.5309999999999
 51
324.4619999999998
  0
ARC
  5
A026
330
9D92
100
AcDbEntity
  8
1
  6
Continuous
100
AcDbCircle
 10
264.979843
 20
191.6518489999999
 30
0.0
 40
0.165003
100
AcDbArc
 50
270.0
 51
333.9859999999998
  0
ARC
  5
A027
330
9D92
100
AcDbEntity
  8
1
  6
Continuous
100
AcDbCircle
 10
265.184843
 20
191.783849
 30
0.0
 40
0.033014
100
AcDbArc
 50
337.0559999999999
 51
90.0
  0
ARC
  5
A028
330
9D92
100
AcDbEntity
  8
1
  6
Continuous
100
AcDbCircle
 10
261.6008429999999
 20
193.3008489999997
 30
0.0
 40
3.925309999999998
100
AcDbArc
 50
333.9859999999998
 51
337.0559999999999
  0
ARC
  5
A029
330
9D92
100
AcDbEntity
  8
1
  6
Continuous
100
AcDbCircle
 10
261.6008429999999
 20
193.3008489999997
 30
0.0
 40
3.925309999999998
100
AcDbArc
 50
333.9859999999998
 51
334.7719999999999
  0
ARC
  5
A02A
330
9D92
100
AcDbEntity
  8
1
  6
Continuous
100
AcDbCircle
 10
263.7628429999999
 20
191.6518489999999
 30
0.0
 40
0.165003
100
AcDbArc
 50
206.014
 51
270.0
  0
ARC
  5
A02B
330
9D92
100
AcDbEntity
  8
1
  6
Continuous
100
AcDbCircle
 10
263.556843
 20
191.783849
 30
0.0
 40
0.033014
100
AcDbArc
 50
90.0
 51
202.944
  0
ARC
  5
A02C
330
9D92
100
AcDbEntity
  8
1
  6
Continuous
100
AcDbCircle
 10
267.141843
 20
193.3008489999997
 30
0.0
 40
3.925309999999998
100
AcDbArc
 50
202.944
 51
206.014
  0
ARC
  5
A02D
330
9D92
100
AcDbEntity
  8
1
  6
Continuous
100
AcDbCircle
 10
263.439843
 20
193.9608489999999
 30
0.0
 40
0.165003
100
AcDbArc
 50
90.0
 51
169.896
  0
ARC
  5
A02E
330
9D92
100
AcDbEntity
  8
1
  6
Continuous
100
AcDbCircle
 10
267.141843
 20
193.3008489999997
 30
0.0
 40
3.925309999999998
100
AcDbArc
 50
169.896
 51
172.2069999999999
  0
ARC
  5
A02F
330
9D92
100
AcDbEntity
  8
1
  6
Continuous
100
AcDbCircle
 10
263.284843
 20
193.8288489999999
 30
0.0
 40
0.033014
100
AcDbArc
 50
172.2069999999999
 51
270.0
  0
ARC
  5
A030
330
9D92
100
AcDbEntity
  8
1
  6
Continuous
100
AcDbCircle
 10
265.301843
 20
193.9608489999999
 30
0.0
 40
0.165003
100
AcDbArc
 50
10.10399999999999
 51
90.0
  0
ARC
  5
A031
330
9D92
100
AcDbEntity
  8
1
  6
Continuous
100
AcDbCircle
 10
265.4568429999998
 20
193.8288489999999
 30
0.0
 40
0.033014
100
AcDbArc
 50
270.0
 51
7.792979999999998
  0
ARC
  5
A032
330
9D92
100
AcDbEntity
  8
1
  6
Continuous
100
AcDbCircle
 10
261.6008429999999
 20
193.3008489999997
 30
0.0
 40
3.925309999999998
100
AcDbArc
 50
7.792969999999996
 51
10.10399999999999
  0
ARC
  5
A033
330
9D92
100
AcDbEntity
  8
1
  6
Continuous
100
AcDbCircle
 10
264.205843
 20
194.950849
 30
0.0
 40
0.165003
100
AcDbArc
 50
270.0
 51
90.0
  0
ARC
  5
A034
330
9D92
100
AcDbEntity
  8
1
  6
Continuous
100
AcDbCircle
 10
264.3708429999999
 20
195.2808489999999
 30
0.0
 40
0.850126
100
AcDbArc
 50
35.54679999999999
 51
144.462
  0
ARC
  5
A035
330
9D92
100
AcDbEntity
  8
1
  6
Continuous
100
AcDbCircle
 10
261.6008429999999
 20
193.3008489999997
 30
0.0
 40
4.25518
100
AcDbArc
 50
324.4619999999998
 51
35.53799999999998
  0
ARC
  5
A036
330
9D92
100
AcDbEntity
  8
1
  6
Continuous
100
AcDbCircle
 10
265.3968429999998
 20
192.442849
 30
0.0
 40
0.033014
100
AcDbArc
 50
347.2709999999997
 51
90.0
  0
ARC
  5
A037
330
9D92
100
AcDbEntity
  8
1
  6
Continuous
100
AcDbCircle
 10
263.345843
 20
192.442849
 30
0.0
 40
0.033014
100
AcDbArc
 50
90.0
 51
192.729
  0
ARC
  5
A038
330
9D92
100
AcDbEntity
  8
1
  6
Continuous
100
AcDbCircle
 10
267.141843
 20
193.3008489999997
 30
0.0
 40
4.25518
100
AcDbArc
 50
144.462
 51
215.5379999999999
  0
ARC
  5
A039
330
9D92
100
AcDbEntity
  8
1
  6
Continuous
100
AcDbCircle
 10
134.3708429999997
 20
208.301849
 30
0.0
 40
9.5
100
AcDbArc
 50
91.0609
 51
180.0
  0
ARC
  5
A03A
330
9D92
100
AcDbEntity
  8
1
  6
Continuous
100
AcDbCircle
 10
165.2588429999999
 20
229.3018490000001
 30
0.0
 40
10.0
100
AcDbArc
 50
90.0
 51
132.4919999999998
  0
ARC
  5
A03B
330
9D92
100
AcDbEntity
  8
1
  6
Continuous
100
AcDbCircle
 10
134.0098429999999
 20
227.797849
 30
0.0
 40
10.0
100
AcDbArc
 50
271.0609999999999
 51
303.7099999999999
  0
ARC
  5
A03C
330
9D92
100
AcDbEntity
  8
1
  6
Continuous
100
AcDbCircle
 10
134.3708429999997
 20
143.801849
 30
0.0
 40
9.5
100
AcDbArc
 50
180.0
 51
270.0
  0
CIRCLE
  5
A03D
330
9D92
100
AcDbEntity
  8
2
  6
Continuous
100
AcDbCircle
 10
164.3708429999998
 20
143.301849
 30
0.0
 40
3.0
  0
CIRCLE
  5
A03E
330
9D92
100
AcDbEntity
  8
2
  6
Continuous
100
AcDbCircle
 10
134.3708429999997
 20
143.301849
 30
0.0
 40
3.0
  0
CIRCLE
  5
A03F
330
9D92
100
AcDbEntity
  8
2
  6
Continuous
100
AcDbCircle
 10
164.3708429999998
 20
230.301849
 30
0.0
 40
3.0
  0
CIRCLE
  5
A040
330
9D92
100
AcDbEntity
  8
1
  6
Continuous
100
AcDbCircle
 10
164.3708429999998
 20
230.301849
 30
0.0
 40
2.458499999999999
  0
CIRCLE
  5
A041
330
9D92
100
AcDbEntity
  8
1
  6
Continuous
100
AcDbCircle
 10
164.3708429999998
 20
143.301849
 30
0.0
 40
2.458499999999999
  0
CIRCLE
  5
A042
330
9D92
100
AcDbEntity
  8
1
  6
Continuous
100
AcDbCircle
 10
134.3708429999997
 20
143.301849
 30
0.0
 40
2.458499999999999
  0
ARC
  5
A043
330
9D92
100
AcDbEntity
  8
1
  6
Continuous
100
AcDbCircle
 10
38.14404299999999
 20
234.301849
 30
0.0
 40
5.0
100
AcDbArc
 50
41.9872
 51
90.0
  0
ARC
  5
A044
330
9D92
100
AcDbEntity
  8
1
  6
Continuous
100
AcDbCircle
 10
68.638643
 20
195.933849
 30
0.0
 40
8.0
100
AcDbArc
 50
5.079609999999999
 51
41.9872
  0
ARC
  5
A045
330
9D92
100
AcDbEntity
  8
1
  6
Continuous
100
AcDbCircle
 10
71.82474300000001
 20
160.0898489999998
 30
0.0
 40
8.0
100
AcDbArc
 50
286.699
 51
5.079609999999999
  0
ARC
  5
A046
330
9D92
100
AcDbEntity
  8
1
  6
Continuous
100
AcDbCircle
 10
60.370843
 20
127.420849
 30
0.0
 40
20.0
100
AcDbArc
 50
107.1789999999998
 51
151.626
  0
ARC
  5
A047
330
9D92
100
AcDbEntity
  8
1
  6
Continuous
100
AcDbCircle
 10
38.37414299999998
 20
139.301849
 30
0.0
 40
5.0
100
AcDbArc
 50
270.0
 51
331.6259999999999
  0
ARC
  5
A048
330
9D92
100
AcDbEntity
  8
1
  6
Continuous
100
AcDbCircle
 10
134.3708429999997
 20
169.801849
 30
0.0
 40
5.0
100
AcDbArc
 50
278.0869999999998
 51
81.37309999999997
  0
CIRCLE
  5
A049
330
9D92
100
AcDbEntity
  8
1
  6
Continuous
100
AcDbCircle
 10
134.3708429999997
 20
208.301849
 30
0.0
 40
4.0
  0
CIRCLE
  5
A04A
330
9D92
100
AcDbEntity
  8
1
  6
Continuous
100
AcDbCircle
 10
134.3708429999997
 20
169.801849
 30
0.0
 40
7.299999999999998
  0
ARC
  5
A04B
330
9D92
100
AcDbEntity
  8
1
  6
Continuous
100
AcDbCircle
 10
148.7878429999998
 20
156.9648489999998
 30
0.0
 40
5.0
100
AcDbArc
 50
194.299
 51
14.2985
  0
ARC
  5
A04C
330
9D92
100
AcDbEntity
  8
1
  6
Continuous
100
AcDbCircle
 10
148.7878429999998
 20
156.9648489999998
 30
0.0
 40
3.5
100
AcDbArc
 50
194.299
 51
339.1789999999998
  0
ARC
  5
A04D
330
9D92
100
AcDbEntity
  8
1
  6
Continuous
100
AcDbCircle
 10
134.3708429999997
 20
169.801849
 30
0.0
 40
5.799999999999998
100
AcDbArc
 50
273.699
 51
248.618
  0
ARC
  5
A04E
330
9D92
100
AcDbEntity
  8
1
  6
Continuous
100
AcDbCircle
 10
132.6208429999997
 20
165.331849
 30
0.0
 40
1.0
100
AcDbArc
 50
248.618
 51
0.0
  0
ARC
  5
A04F
330
9D92
100
AcDbEntity
  8
1
  6
Continuous
100
AcDbCircle
 10
132.6208429999997
 20
165.331849
 30
0.0
 40
2.5
100
AcDbArc
 50
248.618
 51
0.0
  0
ARC
  5
A050
330
9D92
100
AcDbEntity
  8
1
  6
Continuous
100
AcDbCircle
 10
134.3708429999997
 20
169.801849
 30
0.0
 40
5.0
100
AcDbArc
 50
98.6269
 51
260.096
  0
ARC
  5
A051
330
9D92
100
AcDbEntity
  8
1
  6
Continuous
100
AcDbCircle
 10
49.904143
 20
176.3518489999999
 30
0.0
 40
0.75
100
AcDbArc
 50
0.0
 51
180.0
  0
ARC
  5
A052
330
9D92
100
AcDbEntity
  8
1
  6
Continuous
100
AcDbCircle
 10
49.904143
 20
163.2518489999999
 30
0.0
 40
0.75
100
AcDbArc
 50
180.0
 51
0.0
  0
ARC
  5
A053
330
9D92
100
AcDbEntity
  8
1
  6
Continuous
100
AcDbCircle
 10
57.320843
 20
176.3518489999999
 30
0.0
 40
0.75
100
AcDbArc
 50
0.0
 51
180.0
  0
ARC
  5
A054
330
9D92
100
AcDbEntity
  8
1
  6
Continuous
100
AcDbCircle
 10
57.320843
 20
163.2518489999999
 30
0.0
 40
0.75
100
AcDbArc
 50
180.0
 51
0.0
  0
ARC
  5
A055
330
9D92
100
AcDbEntity
  8
1
  6
Continuous
100
AcDbCircle
 10
55.83744300000001
 20
176.3518489999999
 30
0.0
 40
0.75
100
AcDbArc
 50
0.0
 51
180.0
  0
ARC
  5
A056
330
9D92
100
AcDbEntity
  8
1
  6
Continuous
100
AcDbCircle
 10
55.83744300000001
 20
163.2518489999999
 30
0.0
 40
0.75
100
AcDbArc
 50
180.0
 51
0.0
  0
ARC
  5
A057
330
9D92
100
AcDbEntity
  8
1
  6
Continuous
100
AcDbCircle
 10
54.35414300000001
 20
176.3518489999999
 30
0.0
 40
0.75
100
AcDbArc
 50
0.0
 51
180.0
  0
ARC
  5
A058
330
9D92
100
AcDbEntity
  8
1
  6
Continuous
100
AcDbCircle
 10
54.35414300000001
 20
163.2518489999999
 30
0.0
 40
0.75
100
AcDbArc
 50
180.0
 51
0.0
  0
ARC
  5
A059
330
9D92
100
AcDbEntity
  8
1
  6
Continuous
100
AcDbCircle
 10
52.870843
 20
176.3518489999999
 30
0.0
 40
0.75
100
AcDbArc
 50
0.0
 51
180.0
  0
ARC
  5
A05A
330
9D92
100
AcDbEntity
  8
1
  6
Continuous
100
AcDbCircle
 10
52.870843
 20
163.2518489999999
 30
0.0
 40
0.75
100
AcDbArc
 50
180.0
 51
0.0
  0
ARC
  5
A05B
330
9D92
100
AcDbEntity
  8
1
  6
Continuous
100
AcDbCircle
 10
51.38744299999999
 20
176.3518489999999
 30
0.0
 40
0.75
100
AcDbArc
 50
0.0
 51
180.0
  0
ARC
  5
A05C
330
9D92
100
AcDbEntity
  8
1
  6
Continuous
100
AcDbCircle
 10
51.38744299999999
 20
163.2518489999999
 30
0.0
 40
0.75
100
AcDbArc
 50
180.0
 51
0.0
  0
CIRCLE
  5
A05D
330
9D92
100
AcDbEntity
  8
1
  6
Continuous
100
AcDbCircle
 10
70.370843
 20
169.301849
 30
0.0
 40
7.5
  0
ARC
  5
A05E
330
9D92
100
AcDbEntity
  8
1
  6
Continuous
100
AcDbCircle
 10
70.370843
 20
169.301849
 30
0.0
 40
8.0
100
AcDbArc
 50
336.0
 51
74.2998
  0
ARC
  5
A05F
330
9D92
100
AcDbEntity
  8
1
  6
Continuous
100
AcDbCircle
 10
57.14864300000001
 20
134.686849
 30
0.0
 40
6.0
100
AcDbArc
 50
163.162
 51
336.0
  0
ARC
  5
A060
330
9D92
100
AcDbEntity
  8
1
  6
Continuous
100
AcDbCircle
 10
56.36784300000001
 20
159.724849
 30
0.0
 40
2.0
100
AcDbArc
 50
343.1619999999999
 51
21.7799
  0
CIRCLE
  5
A061
330
9D92
100
AcDbEntity
  8
1
  6
Continuous
100
AcDbCircle
 10
57.14864300000001
 20
134.686849
 30
0.0
 40
3.25
  0
ARC
  5
A062
330
9D92
100
AcDbEntity
  8
1
  6
Continuous
100
AcDbCircle
 10
47.542143
 20
181.950849
 30
0.0
 40
2.0
100
AcDbArc
 50
74.2998
 51
156.0
  0
ARC
  5
A063
330
9D92
100
AcDbEntity
  8
1
  6
Continuous
100
AcDbCircle
 10
134.3708429999997
 20
169.801849
 30
0.0
 40
8.0
100
AcDbArc
 50
114.0629999999999
 51
262.6419999999999
  0
ARC
  5
A064
330
9D92
100
AcDbEntity
  8
1
  6
Continuous
100
AcDbCircle
 10
156.5688429999999
 20
179.5788489999999
 30
0.0
 40
0.5
100
AcDbArc
 50
85.65529999999998
 51
111.4929999999999
  0
ARC
  5
A065
330
9D92
100
AcDbEntity
  8
1
  6
Continuous
100
AcDbCircle
 10
155.7678429999999
 20
169.0548489999999
 30
0.0
 40
10.0
100
AcDbArc
 50
262.6419999999999
 51
312.8369999999998
  0
ARC
  5
A066
330
9D92
100
AcDbEntity
  8
1
  6
Continuous
100
AcDbCircle
 10
164.1418429999999
 20
177.498849
 30
0.0
 40
2.0
100
AcDbArc
 50
29.50839999999999
 51
85.65529999999998
  0
ARC
  5
A067
330
9D92
100
AcDbEntity
  8
1
  6
Continuous
100
AcDbCircle
 10
168.9618429999999
 20
177.103849
 30
0.0
 40
2.0
100
AcDbArc
 50
209.5079999999998
 51
229.355
  0
ARC
  5
A068
330
9D92
100
AcDbEntity
  8
1
  6
Continuous
100
AcDbCircle
 10
16.670793
 20
211.0018489999999
 30
0.0
 40
2.299999999999998
100
AcDbArc
 50
90.0
 51
180.0
  0
ARC
  5
A069
330
9D92
100
AcDbEntity
  8
1
  6
Continuous
100
AcDbCircle
 10
16.670793
 20
155.6018489999999
 30
0.0
 40
2.299999999999998
100
AcDbArc
 50
180.0
 51
270.0
  0
CIRCLE
  5
A06A
330
9D92
100
AcDbEntity
  8
1
  6
Continuous
100
AcDbCircle
 10
26.370843
 20
177.301849
 30
0.0
 40
2.9
  0
ARC
  5
A06B
330
9D92
100
AcDbEntity
  8
1
  6
Continuous
100
AcDbCircle
 10
14.370803
 20
153.301849
 30
0.0
 40
2.299999999999998
100
AcDbArc
 50
0.0
 51
90.0
  0
ARC
  5
A06C
330
9D92
100
AcDbEntity
  8
1
  6
Continuous
100
AcDbCircle
 10
148.8708429999998
 20
193.301849
 30
0.0
 40
14.0
100
AcDbArc
 50
121.3309999999999
 51
134.2549999999999
  0
ARC
  5
A06D
330
9D92
100
AcDbEntity
  8
1
  6
Continuous
100
AcDbCircle
 10
155.8438429999999
 20
207.7018489999999
 30
0.0
 40
2.0
100
AcDbArc
 50
333.2419999999999
 51
349.685
  0
ARC
  5
A06E
330
9D92
100
AcDbEntity
  8
1
  6
Continuous
100
AcDbCircle
 10
160.102843
 20
214.344849
 30
0.0
 40
1.0
100
AcDbArc
 50
75.79739999999998
 51
169.6849999999997
  0
ARC
  5
A06F
330
9D92
100
AcDbEntity
  8
1
  6
Continuous
100
AcDbCircle
 10
131.5158429999997
 20
205.2068489999999
 30
0.0
 40
35.0
100
AcDbArc
 50
325.3809999999999
 51
346.1040000000001
  0
ARC
  5
A070
330
9D92
100
AcDbEntity
  8
1
  6
Continuous
100
AcDbCircle
 10
147.9748429999999
 20
193.844849
 30
0.0
 40
15.0
100
AcDbArc
 50
304.0370000000001
 51
325.3809999999999
  0
ARC
  5
A071
330
9D92
100
AcDbEntity
  8
1
  6
Continuous
100
AcDbCircle
 10
164.558843
 20
213.217849
 30
0.0
 40
1.0
100
AcDbArc
 50
13.62659999999998
 51
75.79739999999998
  0
ARC
  5
A072
330
9D92
100
AcDbEntity
  8
1
  6
Continuous
100
AcDbCircle
 10
49.370843
 20
179.801849
 30
0.0
 40
1.0
100
AcDbArc
 50
90.0
 51
180.0
  0
ARC
  5
A073
330
9D92
100
AcDbEntity
  8
1
  6
Continuous
100
AcDbCircle
 10
49.370843
 20
179.801849
 30
0.0
 40
3.0
100
AcDbArc
 50
90.0
 51
180.0
  0
ARC
  5
A074
330
9D92
100
AcDbEntity
  8
1
  6
Continuous
100
AcDbCircle
 10
56.37084300000001
 20
183.8018489999998
 30
0.0
 40
1.0
100
AcDbArc
 50
270.0
 51
0.000005
  0
ARC
  5
A075
330
9D92
100
AcDbEntity
  8
1
  6
Continuous
100
AcDbCircle
 10
56.37084300000001
 20
183.8018489999998
 30
0.0
 40
3.0
100
AcDbArc
 50
270.0
 51
0.000005
  0
ARC
  5
A076
330
9D92
100
AcDbEntity
  8
1
  6
Continuous
100
AcDbCircle
 10
64.521443
 20
192.301849
 30
0.0
 40
3.0
100
AcDbArc
 50
270.0
 51
348.55
  0
ARC
  5
A077
330
9D92
100
AcDbEntity
  8
1
  6
Continuous
100
AcDbCircle
 10
59.244743
 20
229.692849
 30
0.0
 40
4.0
100
AcDbArc
 50
6.298319999999998
 51
83.41809999999998
  0
ARC
  5
A078
330
9D92
100
AcDbEntity
  8
1
  6
Continuous
100
AcDbCircle
 10
54.37084300000001
 20
206.7248489999998
 30
0.0
 40
3.0
100
AcDbArc
 50
0.0
 51
39.4725
  0
ARC
  5
A079
330
9D92
100
AcDbEntity
  8
1
  6
Continuous
100
AcDbCircle
 10
55.322543
 20
218.153849
 30
0.0
 40
5.0
100
AcDbArc
 50
181.548
 51
219.472
  0
ARC
  5
A07A
330
9D92
100
AcDbEntity
  8
1
  6
Continuous
100
AcDbCircle
 10
134.3708429999997
 20
208.301849
 30
0.0
 40
8.3
100
AcDbArc
 50
42.85379999999999
 51
225.204
  0
ARC
  5
A07B
330
9D92
100
AcDbEntity
  8
1
  6
Continuous
100
AcDbCircle
 10
116.0518429999999
 20
189.850849
 30
0.0
 40
17.7
100
AcDbArc
 50
359.8059999999999
 51
45.2042
  0
ARC
  5
A07C
330
9D92
100
AcDbEntity
  8
1
  6
Continuous
100
AcDbCircle
 10
37.370843
 20
213.365849
 30
0.0
 40
2.5
100
AcDbArc
 50
0.0
 51
45.0
  0
ARC
  5
A07D
330
9D92
100
AcDbEntity
  8
1
  6
Continuous
100
AcDbCircle
 10
47.420843
 20
209.801849
 30
0.0
 40
2.5
100
AcDbArc
 50
72.5424
 51
107.458
  0
ARC
  5
A07E
330
9D92
100
AcDbEntity
  8
1
  6
Continuous
100
AcDbCircle
 10
47.420843
 20
206.801849
 30
0.0
 40
2.5
100
AcDbArc
 50
252.5419999999999
 51
287.4579999999999
  0
ARC
  5
A07F
330
9D92
100
AcDbEntity
  8
1
  6
Continuous
100
AcDbCircle
 10
134.3708429999997
 20
208.301849
 30
0.0
 40
5.0
100
AcDbArc
 50
75.20520000000002
 51
255.205
  0
ARC
  5
A080
330
9D92
100
AcDbEntity
  8
1
  6
Continuous
100
AcDbCircle
 10
131.8308429999997
 20
202.870849
 30
0.0
 40
10.0
100
AcDbArc
 50
319.3989999999997
 51
8.13011
  0
ARC
  5
A081
330
9D92
100
AcDbEntity
  8
1
  6
Continuous
100
AcDbCircle
 10
123.8708429999997
 20
180.513849
 30
0.0
 40
8.0
100
AcDbArc
 50
325.276
 51
0.000005
  0
ARC
  5
A082
330
9D92
100
AcDbEntity
  8
1
  6
Continuous
100
AcDbCircle
 10
156.1758429999999
 20
165.052849
 30
0.0
 40
5.0
100
AcDbArc
 50
262.8559999999998
 51
312.923
  0
ARC
  5
A083
330
9D92
100
AcDbEntity
  8
1
  6
Continuous
100
AcDbCircle
 10
170.0078429999997
 20
164.260849
 30
0.0
 40
5.0
100
AcDbArc
 50
112.789
 51
132.923
  0
ARC
  5
A084
330
9D92
100
AcDbEntity
  8
1
  6
Continuous
100
AcDbCircle
 10
161.3708429999998
 20
180.4288489999999
 30
0.0
 40
5.0
100
AcDbArc
 50
180.0
 51
271.4469999999999
  0
ARC
  5
A085
330
9D92
100
AcDbEntity
  8
5
  6
PHANTOM
100
AcDbCircle
 10
175.214843
 20
190.2818489999999
 30
0.0
 40
5.0
100
AcDbArc
 50
3.97704
 51
72.1756
  0
ARC
  5
A086
330
9D92
100
AcDbEntity
  8
5
  6
PHANTOM
100
AcDbCircle
 10
180.1658429999999
 20
183.963849
 30
0.0
 40
0.5
100
AcDbArc
 50
252.176
 51
3.97704
  0
ARC
  5
A087
330
9D92
100
AcDbEntity
  8
1
  6
Continuous
100
AcDbCircle
 10
154.308843
 20
214.8018490000001
 30
0.0
 40
8.0
100
AcDbArc
 50
188.1299999999999
 51
270.0
  0
ARC
  5
A088
330
9D92
100
AcDbEntity
  8
1
  6
Continuous
100
AcDbCircle
 10
141.3708429999998
 20
229.801849
 30
0.0
 40
5.0
100
AcDbArc
 50
328.3669999999997
 51
90.0
  0
ARC
  5
A089
330
9D92
100
AcDbEntity
  8
1
  6
Continuous
100
AcDbCircle
 10
149.8848429999999
 20
224.556849
 30
0.0
 40
5.0
100
AcDbArc
 50
148.3669999999999
 51
188.1299999999999
  0
ARC
  5
A08A
330
9D92
100
AcDbEntity
  8
1
  6
Continuous
100
AcDbCircle
 10
164.3708429999998
 20
190.658849
 30
0.0
 40
8.0
100
AcDbArc
 50
129.836
 51
180.0
  0
ARC
  5
A08B
330
9D92
100
AcDbEntity
  8
1
  6
Continuous
100
AcDbCircle
 10
131.8308429999997
 20
202.870849
 30
0.0
 40
12.0
100
AcDbArc
 50
319.3989999999997
 51
8.13011
  0
ARC
  5
A08C
330
9D92
100
AcDbEntity
  8
1
  6
Continuous
100
AcDbCircle
 10
148.8708429999998
 20
193.301849
 30
0.0
 40
14.0
100
AcDbArc
 50
140.731
 51
188.504
  0
ARC
  5
A08D
330
9D92
100
AcDbEntity
  8
1
  6
Continuous
100
AcDbCircle
 10
131.5158429999997
 20
205.2068489999999
 30
0.0
 40
35.0
100
AcDbArc
 50
2.61057
 51
13.62659999999998
  0
ARC
  5
A08E
330
9D92
100
AcDbEntity
  8
1
  6
Continuous
100
AcDbCircle
 10
166.9858429999998
 20
201.801849
 30
0.0
 40
5.0
100
AcDbArc
 50
21.8014
 51
90.0
  0
ARC
  5
A08F
330
9D92
100
AcDbEntity
  8
3
  6
DASHED
100
AcDbCircle
 10
173.631843
 20
197.301849
 30
0.0
 40
0.5
100
AcDbArc
 50
270.0
 51
21.8014
  0
ARC
  5
A090
330
9D92
100
AcDbEntity
  8
1
  6
Continuous
100
AcDbCircle
 10
45.110443
 20
212.6018489999999
 30
0.0
 40
0.7
100
AcDbArc
 50
3.156499999999998
 51
183.1559999999998
  0
ARC
  5
A091
330
9D92
100
AcDbEntity
  8
1
  6
Continuous
100
AcDbCircle
 10
53.543943
 20
186.801849
 30
0.0
 40
0.7
100
AcDbArc
 50
183.1559999999998
 51
3.156499999999998
  0
ARC
  5
A092
330
9D92
100
AcDbEntity
  8
1
  6
Continuous
100
AcDbCircle
 10
52.827043
 20
199.8018489999998
 30
0.0
 40
0.7
100
AcDbArc
 50
3.156499999999998
 51
183.1559999999998
  0
ARC
  5
A093
330
9D92
100
AcDbEntity
  8
1
  6
Continuous
100
AcDbCircle
 10
47.21844299999999
 20
199.8018489999998
 30
0.0
 40
0.7
100
AcDbArc
 50
3.156499999999998
 51
183.1559999999998
  0
ARC
  5
A094
330
9D92
100
AcDbEntity
  8
1
  6
Continuous
100
AcDbCircle
 10
46.533243
 20
186.801849
 30
0.0
 40
0.7
100
AcDbArc
 50
183.1559999999998
 51
3.156499999999998
  0
ARC
  5
A095
330
9D92
100
AcDbEntity
  8
1
  6
Continuous
100
AcDbCircle
 10
48.620643
 20
199.8018489999998
 30
0.0
 40
0.7
100
AcDbArc
 50
3.156499999999998
 51
183.1559999999998
  0
ARC
  5
A096
330
9D92
100
AcDbEntity
  8
1
  6
Continuous
100
AcDbCircle
 10
47.93544299999999
 20
186.801849
 30
0.0
 40
0.7
100
AcDbArc
 50
183.1559999999998
 51
3.156499999999998
  0
ARC
  5
A097
330
9D92
100
AcDbEntity
  8
1
  6
Continuous
100
AcDbCircle
 10
50.02274299999999
 20
199.8018489999998
 30
0.0
 40
0.7
100
AcDbArc
 50
3.156499999999998
 51
183.1559999999998
  0
ARC
  5
A098
330
9D92
100
AcDbEntity
  8
1
  6
Continuous
100
AcDbCircle
 10
49.337543
 20
186.801849
 30
0.0
 40
0.7
100
AcDbArc
 50
183.1559999999998
 51
3.156499999999998
  0
ARC
  5
A099
330
9D92
100
AcDbEntity
  8
1
  6
Continuous
100
AcDbCircle
 10
51.424843
 20
199.8018489999998
 30
0.0
 40
0.7
100
AcDbArc
 50
3.156499999999998
 51
183.1559999999998
  0
ARC
  5
A09A
330
9D92
100
AcDbEntity
  8
1
  6
Continuous
100
AcDbCircle
 10
50.739643
 20
186.801849
 30
0.0
 40
0.7
100
AcDbArc
 50
183.1559999999998
 51
3.156499999999998
  0
ARC
  5
A09B
330
9D92
100
AcDbEntity
  8
1
  6
Continuous
100
AcDbCircle
 10
52.14174299999999
 20
186.801849
 30
0.0
 40
0.7
100
AcDbArc
 50
183.1559999999998
 51
3.156499999999998
  0
ARC
  5
A09C
330
9D92
100
AcDbEntity
  8
1
  6
Continuous
100
AcDbCircle
 10
291.070843
 20
211.0018489999999
 30
0.0
 40
2.299999999999998
100
AcDbArc
 50
0.0
 51
90.0
  0
ARC
  5
A09D
330
9D92
100
AcDbEntity
  8
1
  6
Continuous
100
AcDbCircle
 10
291.070843
 20
155.6018489999999
 30
0.0
 40
2.299999999999998
100
AcDbArc
 50
270.0
 51
0.0
  0
ARC
  5
A09E
330
9D92
100
AcDbEntity
  8
1
  6
Continuous
100
AcDbCircle
 10
293.3708429999999
 20
153.301849
 30
0.0
 40
2.299999999999998
100
AcDbArc
 50
90.0
 51
180.0
  0
ARC
  5
A09F
330
9D92
100
AcDbEntity
  8
1
  6
Continuous
100
AcDbCircle
 10
291.070843
 20
205.0018489999999
 30
0.0
 40
2.299999999999998
100
AcDbArc
 50
0.0
 51
90.0
  0
CIRCLE
  5
A0A0
330
9D92
100
AcDbEntity
  8
1
  6
Continuous
100
AcDbCircle
 10
237.370843
 20
169.301849
 30
0.0
 40
3.6
  0
ARC
  5
A0A1
330
9D92
100
AcDbEntity
  8
1
  6
Continuous
100
AcDbCircle
 10
359.8708429999998
 20
193.301849
 30
0.0
 40
20.0
100
AcDbArc
 50
0.0
 51
90.0
  0
CIRCLE
  5
A0A2
330
9D92
100
AcDbEntity
  8
1
  6
Continuous
100
AcDbCircle
 10
359.8708429999998
 20
193.301849
 30
0.0
 40
4.099999999999996
  0
ARC
  5
A0A3
330
9D92
100
AcDbEntity
  8
1
  6
Continuous
100
AcDbCircle
 10
362.3708429999999
 20
174.301849
 30
0.0
 40
7.5
100
AcDbArc
 50
276.615
 51
83.38449999999998
  0
ARC
  5
A0A4
330
9D92
100
AcDbEntity
  8
1
  6
Continuous
100
AcDbCircle
 10
346.8708429999999
 20
188.682849
 30
0.0
 40
5.0
100
AcDbArc
 50
166.405
 51
263.384
  0
ARC
  5
A0A5
330
9D92
100
AcDbEntity
  8
1
  6
Continuous
100
AcDbCircle
 10
377.570843
 20
153.301849
 30
0.0
 40
2.299999999999998
100
AcDbArc
 50
0.0
 51
180.0
  0
ARC
  5
A0A6
330
9D92
100
AcDbEntity
  8
1
  6
Continuous
100
AcDbCircle
 10
344.1708429999998
 20
153.301849
 30
0.0
 40
2.299999999999998
100
AcDbArc
 50
0.0
 51
180.0
  0
ARC
  5
A0A7
330
9D92
100
AcDbEntity
  8
1
  6
Continuous
100
AcDbCircle
 10
361.717843
 20
186.544849
 30
0.0
 40
20.0
100
AcDbArc
 50
125.488
 51
171.805
  0
ARC
  5
A0A8
330
9D92
100
AcDbEntity
  8
5
  6
PHANTOM
100
AcDbCircle
 10
342.941843
 20
184.675849
 30
0.0
 40
6.599999999999997
100
AcDbArc
 50
318.8759999999998
 51
138.8759999999997
  0
ARC
  5
A0A9
330
9D92
100
AcDbEntity
  8
5
  6
PHANTOM
100
AcDbCircle
 10
359.8708429999998
 20
193.301849
 30
0.0
 40
33.0
100
AcDbArc
 50
183.964
 51
190.1519999999999
  0
ARC
  5
A0AA
330
9D92
100
AcDbEntity
  8
5
  6
PHANTOM
100
AcDbCircle
 10
336.9258429999998
 20
191.710849
 30
0.0
 40
10.0
100
AcDbArc
 50
117.0
 51
183.964
  0
ARC
  5
A0AB
330
9D92
100
AcDbEntity
  8
5
  6
PHANTOM
100
AcDbCircle
 10
363.5458429999998
 20
132.4118489999999
 30
0.0
 40
75.0
100
AcDbArc
 50
101.5179999999999
 51
114.176
  0
ARC
  5
A0AC
330
9D92
100
AcDbEntity
  8
5
  6
PHANTOM
100
AcDbCircle
 10
329.355843
 20
187.837849
 30
0.0
 40
2.0
100
AcDbArc
 50
190.1519999999999
 51
255.0769999999999
  0
ARC
  5
A0AD
330
9D92
100
AcDbEntity
  8
5
  6
PHANTOM
100
AcDbCircle
 10
333.354843
 20
186.771849
 30
0.0
 40
2.0
100
AcDbArc
 50
255.0769999999999
 51
318.8759999999998
  0
ARC
  5
A0AE
330
9D92
100
AcDbEntity
  8
5
  6
PHANTOM
100
AcDbCircle
 10
343.4888429999999
 20
171.486849
 30
0.0
 40
2.0
100
AcDbArc
 50
158.962
 51
297.0
  0
ARC
  5
A0AF
330
9D92
100
AcDbEntity
  8
5
  6
PHANTOM
100
AcDbCircle
 10
350.955843
 20
168.6148489999999
 30
0.0
 40
10.0
100
AcDbArc
 50
138.8759999999997
 51
158.962
  0
CIRCLE
  5
A0B0
330
9D92
100
AcDbEntity
  8
1
  6
Continuous
100
AcDbCircle
 10
359.8708429999998
 20
193.301849
 30
0.0
 40
4.0
  0
ARC
  5
A0B1
330
9D92
100
AcDbEntity
  8
1
  6
Continuous
100
AcDbCircle
 10
350.8708429999999
 20
172.135849
 30
0.0
 40
10.0
100
AcDbArc
 50
180.0
 51
246.964
  0
ARC
  5
A0B2
330
9D92
100
AcDbEntity
  8
1
  6
Continuous
100
AcDbCircle
 10
353.650843
 20
166.711849
 30
0.0
 40
2.0
100
AcDbArc
 50
337.7629999999999
 51
21.8764
  0
ARC
  5
A0B3
330
9D92
100
AcDbEntity
  8
1
  6
Continuous
100
AcDbCircle
 10
359.8708429999998
 20
174.301849
 30
0.0
 40
6.599999999999997
100
AcDbArc
 50
21.8764
 51
201.8759999999998
  0
ARC
  5
A0B4
330
9D92
100
AcDbEntity
  8
1
  6
Continuous
100
AcDbCircle
 10
415.7918429999998
 20
168.932849
 30
0.0
 40
75.0
100
AcDbArc
 50
166.942
 51
177.176
  0
ARC
  5
A0B5
330
9D92
100
AcDbEntity
  8
1
  6
Continuous
100
AcDbCircle
 10
174.0708429999999
 20
311.0748489999999
 30
0.0
 40
2.299999999999998
100
AcDbArc
 50
0.0
 51
90.0
  0
ARC
  5
A0B6
330
9D92
100
AcDbEntity
  8
1
  6
Continuous
100
AcDbCircle
 10
166.570843
 20
332.0748489999999
 30
0.0
 40
2.299999999999998
100
AcDbArc
 50
181.882
 51
197.719
  0
ARC
  5
A0B7
330
9D92
100
AcDbEntity
  8
1
  6
Continuous
100
AcDbCircle
 10
133.1708429999999
 20
332.0748489999999
 30
0.0
 40
2.299999999999998
100
AcDbArc
 50
90.0
 51
180.0
  0
ARC
  5
A0B8
330
9D92
100
AcDbEntity
  8
1
  6
Continuous
100
AcDbCircle
 10
166.570843
 20
332.0748489999999
 30
0.0
 40
2.299999999999998
100
AcDbArc
 50
0.0
 51
78.6362
  0
ARC
  5
A0B9
330
9D92
100
AcDbEntity
  8
1
  6
Continuous
100
AcDbCircle
 10
127.820843
 20
298.841849
 30
0.0
 40
0.75
100
AcDbArc
 50
90.0
 51
270.0
  0
ARC
  5
A0BA
330
9D92
100
AcDbEntity
  8
1
  6
Continuous
100
AcDbCircle
 10
127.820843
 20
291.4248489999998
 30
0.0
 40
0.75
100
AcDbArc
 50
90.0
 51
270.0
  0
ARC
  5
A0BB
330
9D92
100
AcDbEntity
  8
1
  6
Continuous
100
AcDbCircle
 10
127.820843
 20
292.907849
 30
0.0
 40
0.75
100
AcDbArc
 50
90.0
 51
270.0
  0
ARC
  5
A0BC
330
9D92
100
AcDbEntity
  8
1
  6
Continuous
100
AcDbCircle
 10
127.820843
 20
294.3918489999999
 30
0.0
 40
0.75
100
AcDbArc
 50
90.0
 51
270.0
  0
ARC
  5
A0BD
330
9D92
100
AcDbEntity
  8
1
  6
Continuous
100
AcDbCircle
 10
127.820843
 20
295.8748489999999
 30
0.0
 40
0.75
100
AcDbArc
 50
90.0
 51
270.0
  0
ARC
  5
A0BE
330
9D92
100
AcDbEntity
  8
1
  6
Continuous
100
AcDbCircle
 10
127.820843
 20
297.3578489999998
 30
0.0
 40
0.75
100
AcDbArc
 50
90.0
 51
270.0
  0
ARC
  5
A0BF
330
9D92
100
AcDbEntity
  8
1
  6
Continuous
100
AcDbCircle
 10
139.5878429999999
 20
310.8748489999999
 30
0.0
 40
2.5
100
AcDbArc
 50
270.0
 51
306.87
  0
ARC
  5
A0C0
330
9D92
100
AcDbEntity
  8
1
  6
Continuous
100
AcDbCircle
 10
129.1538429999999
 20
310.8748489999999
 30
0.0
 40
2.5
100
AcDbArc
 50
224.555
 51
270.0
  0
ARC
  5
A0C1
330
9D92
100
AcDbEntity
  8
1
  6
Continuous
100
AcDbCircle
 10
132.8708429999997
 20
301.3248489999999
 30
0.0
 40
2.5
100
AcDbArc
 50
162.542
 51
197.4579999999999
  0
ARC
  5
A0C2
330
9D92
100
AcDbEntity
  8
1
  6
Continuous
100
AcDbCircle
 10
135.8708429999997
 20
301.3248489999999
 30
0.0
 40
2.5
100
AcDbArc
 50
342.5419999999999
 51
17.45759999999998
  0
ARC
  5
A0C3
330
9D92
100
AcDbEntity
  8
1
  6
Continuous
100
AcDbCircle
 10
153.0518429999998
 20
299.3748489999999
 30
0.0
 40
10.0
100
AcDbArc
 50
219.5629999999999
 51
270.0
  0
ARC
  5
A0C4
330
9D92
100
AcDbEntity
  8
1
  6
Continuous
100
AcDbCircle
 10
153.0518429999998
 20
301.3748489999999
 30
0.0
 40
10.0
100
AcDbArc
 50
219.5629999999999
 51
270.0
  0
ARC
  5
A0C5
330
9D92
100
AcDbEntity
  8
1
  6
Continuous
100
AcDbCircle
 10
139.3708429999997
 20
296.8748489999999
 30
0.0
 40
2.0
100
AcDbArc
 50
90.0
 51
180.0
  0
ARC
  5
A0C6
330
9D92
100
AcDbEntity
  8
1
  6
Continuous
100
AcDbCircle
 10
136.3708429999997
 20
284.368849
 30
0.0
 40
3.0
100
AcDbArc
 50
180.0
 51
272.3639999999999
  0
ARC
  5
A0C7
330
9D92
100
AcDbEntity
  8
1
  6
Continuous
100
AcDbCircle
 10
155.3748429999999
 20
302.0528489999999
 30
0.0
 40
0.7
100
AcDbArc
 50
273.1559999999999
 51
93.15649999999999
  0
ARC
  5
A0C8
330
9D92
100
AcDbEntity
  8
1
  6
Continuous
100
AcDbCircle
 10
155.3748429999999
 20
297.846849
 30
0.0
 40
0.7
100
AcDbArc
 50
273.1559999999999
 51
93.15649999999999
  0
ARC
  5
A0C9
330
9D92
100
AcDbEntity
  8
1
  6
Continuous
100
AcDbCircle
 10
142.374843
 20
298.531849
 30
0.0
 40
0.7
100
AcDbArc
 50
93.15649999999999
 51
150.6839999999999
  0
ARC
  5
A0CA
330
9D92
100
AcDbEntity
  8
1
  6
Continuous
100
AcDbCircle
 10
155.3748429999999
 20
300.6508489999998
 30
0.0
 40
0.7
100
AcDbArc
 50
273.1559999999999
 51
93.15649999999999
  0
ARC
  5
A0CB
330
9D92
100
AcDbEntity
  8
1
  6
Continuous
100
AcDbCircle
 10
155.3748429999999
 20
299.2488489999999
 30
0.0
 40
0.7
100
AcDbArc
 50
273.1559999999999
 51
93.15649999999999
  0
ARC
  5
A0CC
330
9D92
100
AcDbEntity
  8
1
  6
Continuous
100
AcDbCircle
 10
155.3748429999999
 20
296.4448489999999
 30
0.0
 40
0.7
100
AcDbArc
 50
273.1559999999999
 51
93.15649999999999
  0
ARC
  5
A0CD
330
9D92
100
AcDbEntity
  8
1
  6
Continuous
100
AcDbCircle
 10
130.0748429999997
 20
303.4368489999998
 30
0.0
 40
0.700005
100
AcDbArc
 50
86.8435
 51
266.843
  0
ARC
  5
A0CE
330
9D92
100
AcDbEntity
  8
1
  6
Continuous
100
AcDbCircle
 10
142.374843
 20
301.3358489999999
 30
0.0
 40
0.7
100
AcDbArc
 50
93.15649999999999
 51
273.1559999999999
  0
ARC
  5
A0CF
330
9D92
100
AcDbEntity
  8
1
  6
Continuous
100
AcDbCircle
 10
128.453843
 20
311.3748489999999
 30
0.0
 40
2.5
100
AcDbArc
 50
225.0
 51
270.0
  0
ARC
  5
A0D0
330
9D92
100
AcDbEntity
  8
1
  6
Continuous
100
AcDbCircle
 10
174.3708429999998
 20
289.591849
 30
0.0
 40
2.5
100
AcDbArc
 50
135.0
 51
180.0
  0
ARC
  5
A0D1
330
9D92
100
AcDbEntity
  8
1
  6
Continuous
100
AcDbCircle
 10
174.3708429999998
 20
300.9098489999999
 30
0.0
 40
2.5
100
AcDbArc
 50
180.0
 51
225.0
  0
ARC
  5
A0D2
330
9D92
100
AcDbEntity
  8
1
  6
Continuous
100
AcDbCircle
 10
174.0708429999999
 20
60.528149
 30
0.0
 40
2.299999999999998
100
AcDbArc
 50
270.0
 51
0.0
  0
ARC
  5
A0D3
330
9D92
100
AcDbEntity
  8
1
  6
Continuous
100
AcDbCircle
 10
133.1708429999999
 20
39.52814899999999
 30
0.0
 40
2.299999999999998
100
AcDbArc
 50
180.0
 51
90.0
  0
ARC
  5
A0D4
330
9D92
100
AcDbEntity
  8
1
  6
Continuous
100
AcDbCircle
 10
166.570843
 20
39.52814899999999
 30
0.0
 40
2.299999999999998
100
AcDbArc
 50
90.00029999999998
 51
0.0
  0
ARC
  5
A0D5
330
9D92
100
AcDbEntity
  8
1
  6
Continuous
100
AcDbCircle
 10
127.820843
 20
72.761549
 30
0.0
 40
0.75
100
AcDbArc
 50
90.0
 51
270.0
  0
ARC
  5
A0D6
330
9D92
100
AcDbEntity
  8
1
  6
Continuous
100
AcDbCircle
 10
127.820843
 20
80.17814900000002
 30
0.0
 40
0.75
100
AcDbArc
 50
90.0
 51
270.0
  0
ARC
  5
A0D7
330
9D92
100
AcDbEntity
  8
1
  6
Continuous
100
AcDbCircle
 10
127.820843
 20
78.694849
 30
0.0
 40
0.75
100
AcDbArc
 50
90.0
 51
270.0
  0
ARC
  5
A0D8
330
9D92
100
AcDbEntity
  8
1
  6
Continuous
100
AcDbCircle
 10
127.820843
 20
77.21154900000001
 30
0.0
 40
0.75
100
AcDbArc
 50
90.0
 51
270.0
  0
ARC
  5
A0D9
330
9D92
100
AcDbEntity
  8
1
  6
Continuous
100
AcDbCircle
 10
127.820843
 20
75.728149
 30
0.0
 40
0.75
100
AcDbArc
 50
90.0
 51
270.0
  0
ARC
  5
A0DA
330
9D92
100
AcDbEntity
  8
1
  6
Continuous
100
AcDbCircle
 10
127.820843
 20
74.244849
 30
0.0
 40
0.75
100
AcDbArc
 50
90.0
 51
270.0
  0
ARC
  5
A0DB
330
9D92
100
AcDbEntity
  8
1
  6
Continuous
100
AcDbCircle
 10
139.5878429999999
 20
60.728149
 30
0.0
 40
2.5
100
AcDbArc
 50
45.0
 51
90.0
  0
ARC
  5
A0DC
330
9D92
100
AcDbEntity
  8
1
  6
Continuous
100
AcDbCircle
 10
129.1538429999999
 20
60.728149
 30
0.0
 40
2.5
100
AcDbArc
 50
90.0
 51
135.4449999999999
  0
ARC
  5
A0DD
330
9D92
100
AcDbEntity
  8
1
  6
Continuous
100
AcDbCircle
 10
136.3708429999997
 20
87.23434899999999
 30
0.0
 40
3.0
100
AcDbArc
 50
87.63580000000002
 51
180.0
  0
ARC
  5
A0DE
330
9D92
100
AcDbEntity
  8
1
  6
Continuous
100
AcDbCircle
 10
161.5878429999999
 20
60.228149
 30
0.0
 40
2.5
100
AcDbArc
 50
53.13009999999999
 51
90.0
  0
ARC
  5
A0DF
330
9D92
100
AcDbEntity
  8
1
  6
Continuous
100
AcDbCircle
 10
174.3708429999998
 20
82.011049
 30
0.0
 40
2.5
100
AcDbArc
 50
180.0
 51
225.0
  0
ARC
  5
A0E0
330
9D92
100
AcDbEntity
  8
1
  6
Continuous
100
AcDbCircle
 10
174.3708429999998
 20
70.692649
 30
0.0
 40
2.5
100
AcDbArc
 50
135.0
 51
180.0
  0
ARC
  5
A0E1
330
9D92
100
AcDbEntity
  8
1
  6
Continuous
100
AcDbCircle
 10
140.9208429999999
 20
80.17814900000002
 30
0.0
 40
0.75
100
AcDbArc
 50
270.0
 51
90.0
  0
ARC
  5
A0E2
330
9D92
100
AcDbEntity
  8
1
  6
Continuous
100
AcDbCircle
 10
140.9208429999999
 20
78.694849
 30
0.0
 40
0.75
100
AcDbArc
 50
270.0
 51
90.0
  0
ARC
  5
A0E3
330
9D92
100
AcDbEntity
  8
1
  6
Continuous
100
AcDbCircle
 10
140.9208429999999
 20
77.21154900000001
 30
0.0
 40
0.75
100
AcDbArc
 50
270.0
 51
90.0
  0
ARC
  5
A0E4
330
9D92
100
AcDbEntity
  8
1
  6
Continuous
100
AcDbCircle
 10
140.9208429999999
 20
75.728149
 30
0.0
 40
0.75
100
AcDbArc
 50
270.0
 51
90.0
  0
ARC
  5
A0E5
330
9D92
100
AcDbEntity
  8
1
  6
Continuous
100
AcDbCircle
 10
140.9208429999999
 20
74.244849
 30
0.0
 40
0.75
100
AcDbArc
 50
270.0
 51
90.0
  0
ARC
  5
A0E6
330
9D92
100
AcDbEntity
  8
1
  6
Continuous
100
AcDbCircle
 10
37.870843
 20
175.118849
 30
0.0
 40
2.5
100
AcDbArc
 50
0.0
 51
45.0
  0
ARC
  5
A0E7
330
9D92
100
AcDbEntity
  8
1
  6
Continuous
100
AcDbCircle
 10
37.870843
 20
164.4838489999998
 30
0.0
 40
2.5
100
AcDbArc
 50
315.0
 51
0.0
  0
ARC
  5
A0E8
330
9D92
100
AcDbEntity
  8
1
  6
Continuous
100
AcDbCircle
 10
46.170743
 20
160.3288489999999
 30
0.0
 40
4.5
100
AcDbArc
 50
180.791
 51
270.0
  0
ARC
  5
A0E9
330
9D92
100
AcDbEntity
  8
1
  6
Continuous
100
AcDbCircle
 10
64.521443
 20
190.999849
 30
0.0
 40
3.0
100
AcDbArc
 50
270.0
 51
6.298319999999998
  0
ARC
  5
A0EA
330
9D92
100
AcDbEntity
  8
1
  6
Continuous
100
AcDbCircle
 10
58.87084300000001
 20
187.801849
 30
0.0
 40
1.5
100
AcDbArc
 50
90.0
 51
180.0
  0
ARC
  5
A0EB
330
9D92
100
AcDbEntity
  8
1
  6
Continuous
100
AcDbCircle
 10
141.390843
 20
286.7358489999999
 30
0.0
 40
2.0
100
AcDbArc
 50
180.0
 51
226.584
  0
ARC
  5
A0EC
330
9D92
100
AcDbEntity
  8
1
  6
Continuous
100
AcDbCircle
 10
139.3708429999997
 20
286.7358489999999
 30
0.0
 40
2.0
100
AcDbArc
 50
180.0
 51
226.584
  0
ARC
  5
A0ED
330
9D92
100
AcDbEntity
  8
1
  6
Continuous
100
AcDbCircle
 10
140.9208429999999
 20
72.744849
 30
0.0
 40
0.75
100
AcDbArc
 50
270.0
 51
90.0
  0
CIRCLE
  5
A0EE
330
9D92
100
AcDbEntity
  8
1
  6
Continuous
100
AcDbCircle
 10
250.5928429999999
 20
134.686849
 30
0.0
 40
3.25
  0
ARC
  5
A0EF
330
9D92
100
AcDbEntity
  8
1
  6
Continuous
100
AcDbCircle
 10
250.5928429999999
 20
134.686849
 30
0.0
 40
6.0
100
AcDbArc
 50
203.9999999999998
 51
16.8382
  0
ARC
  5
A0F0
330
9D92
100
AcDbEntity
  8
1
  6
Continuous
100
AcDbCircle
 10
153.0378429999998
 20
71.994849
 30
0.0
 40
0.75
100
AcDbArc
 50
270.0
 51
90.0
  0
ARC
  5
A0F1
330
9D92
100
AcDbEntity
  8
1
  6
Continuous
100
AcDbCircle
 10
49.137443
 20
152.7148489999999
 30
0.0
 40
0.75
100
AcDbArc
 50
180.0
 51
0.0
  0
ARC
  5
A0F2
330
9D92
100
AcDbEntity
  8
1
  6
Continuous
100
AcDbCircle
 10
46.170743
 20
161.0968489999999
 30
0.0
 40
4.5
100
AcDbArc
 50
190.6349999999999
 51
270.0
  0
ARC
  5
A0F3
330
9D92
100
AcDbEntity
  8
1
  6
Continuous
100
AcDbCircle
 10
248.496843
 20
229.692849
 30
0.0
 40
4.0
100
AcDbArc
 50
96.58200000000002
 51
173.702
  0
ARC
  5
A0F4
330
9D92
100
AcDbEntity
  8
1
  6
Continuous
100
AcDbCircle
 10
358.856843
 20
224.556849
 30
0.0
 40
5.0
100
AcDbArc
 50
356.0249999999999
 51
31.6326
  0
ARC
  5
A0F5
330
9D92
100
AcDbEntity
  8
1
  6
Continuous
100
AcDbCircle
 10
367.370843
 20
229.801849
 30
0.0
 40
5.0
100
AcDbArc
 50
90.0
 51
211.633
  0
ARC
  5
A0F6
330
9D92
100
AcDbEntity
  8
5
  6
PHANTOM
100
AcDbCircle
 10
165.9008429999999
 20
217.179849
 30
0.0
 40
5.0
100
AcDbArc
 50
130.543
 51
170.3059999999998
  0
ARC
  5
A0F7
330
9D92
100
AcDbEntity
  8
5
  6
PHANTOM
100
AcDbCircle
 10
159.4008429999998
 20
224.778849
 30
0.0
 40
5.0
100
AcDbArc
 50
310.543
 51
72.1756
  0
ARC
  5
A0F8
330
9D92
100
AcDbEntity
  8
1
  6
Continuous
100
AcDbCircle
 10
142.374843
 20
299.9338489999999
 30
0.0
 40
0.7
100
AcDbArc
 50
93.15649999999999
 51
273.1559999999999
  0
ARC
  5
A0F9
330
9D92
100
AcDbEntity
  8
1
  6
Continuous
100
AcDbCircle
 10
159.9368429999999
 20
288.8748489999999
 30
0.0
 40
3.0
100
AcDbArc
 50
210.964
 51
270.0
  0
ARC
  5
A0FA
330
9D92
100
AcDbEntity
  8
1
  6
Continuous
100
AcDbCircle
 10
159.9368429999999
 20
288.8748489999999
 30
0.0
 40
1.0
100
AcDbArc
 50
210.964
 51
270.0
  0
ARC
  5
A0FB
330
9D92
100
AcDbEntity
  8
1
  6
Continuous
100
AcDbCircle
 10
162.9368429999999
 20
288.8748489999999
 30
0.0
 40
1.0
100
AcDbArc
 50
210.964
 51
270.0
  0
ARC
  5
A0FC
330
9D92
100
AcDbEntity
  8
1
  6
Continuous
100
AcDbCircle
 10
155.5718429999997
 20
288.3748489999998
 30
0.0
 40
1.0
100
AcDbArc
 50
30.9638
 51
90.0
  0
ARC
  5
A0FD
330
9D92
100
AcDbEntity
  8
1
  6
Continuous
100
AcDbCircle
 10
155.5718429999997
 20
288.3748489999998
 30
0.0
 40
3.0
100
AcDbArc
 50
30.9638
 51
90.0
  0
ARC
  5
A0FE
330
9D92
100
AcDbEntity
  8
1
  6
Continuous
100
AcDbCircle
 10
158.571843
 20
288.3748489999998
 30
0.0
 40
3.0
100
AcDbArc
 50
30.9638
 51
90.0
  0
ARC
  5
A0FF
330
9D92
100
AcDbEntity
  8
1
  6
Continuous
100
AcDbCircle
 10
134.3708429999997
 20
208.301849
 30
0.0
 40
4.5
100
AcDbArc
 50
292.0749999999998
 51
75.2051
  0
ARC
  5
A100
330
9D92
100
AcDbEntity
  8
1
  6
Continuous
100
AcDbCircle
 10
164.069843
 20
82.728149
 30
0.0
 40
1.0
100
AcDbArc
 50
90.0
 51
149.036
  0
ARC
  5
A101
330
9D92
100
AcDbEntity
  8
1
  6
Continuous
100
AcDbCircle
 10
164.069843
 20
82.728149
 30
0.0
 40
3.0
100
AcDbArc
 50
90.0
 51
149.036
  0
ARC
  5
A102
330
9D92
100
AcDbEntity
  8
1
  6
Continuous
100
AcDbCircle
 10
159.7048429999999
 20
83.228149
 30
0.0
 40
3.0
100
AcDbArc
 50
270.0
 51
329.036
  0
ARC
  5
A103
330
9D92
100
AcDbEntity
  8
1
  6
Continuous
100
AcDbCircle
 10
159.7048429999999
 20
83.228149
 30
0.0
 40
1.0
100
AcDbArc
 50
270.0
 51
329.036
  0
ARC
  5
A104
330
9D92
100
AcDbEntity
  8
1
  6
Continuous
100
AcDbCircle
 10
159.9368429999999
 20
82.728149
 30
0.0
 40
3.0
100
AcDbArc
 50
90.0
 51
149.036
  0
ARC
  5
A105
330
9D92
100
AcDbEntity
  8
1
  6
Continuous
100
AcDbCircle
 10
155.5718429999997
 20
83.228149
 30
0.0
 40
1.0
100
AcDbArc
 50
270.0
 51
329.036
  0
CIRCLE
  5
A106
330
9D92
100
AcDbEntity
  8
1
  6
Continuous
100
AcDbCircle
 10
164.3708429999998
 20
230.301849
 30
0.0
 40
4.5
  0
ARC
  5
A107
330
9D92
100
AcDbEntity
  8
1
  6
Continuous
100
AcDbCircle
 10
164.3708429999998
 20
230.301849
 30
0.0
 40
8.99998
100
AcDbArc
 50
148.2259999999999
 51
90.0
  0
ARC
  5
A108
330
9D92
100
AcDbEntity
  8
1
  6
Continuous
100
AcDbCircle
 10
264.0128429999999
 20
209.3398489999999
 30
0.0
 40
0.393389
100
AcDbArc
 50
90.0
 51
270.0
  0
ARC
  5
A109
330
9D92
100
AcDbEntity
  8
1
  6
Continuous
100
AcDbCircle
 10
264.0748429999998
 20
209.3398489999999
 30
0.0
 40
0.393389
100
AcDbArc
 50
48.775
 51
90.0
  0
ARC
  5
A10A
330
9D92
100
AcDbEntity
  8
1
  6
Continuous
100
AcDbCircle
 10
264.015843
 20
211.284849
 30
0.0
 40
0.393389
100
AcDbArc
 50
90.0
 51
180.0
  0
ARC
  5
A10B
330
9D92
100
AcDbEntity
  8
1
  6
Continuous
100
AcDbCircle
 10
264.078843
 20
211.284849
 30
0.0
 40
0.393389
100
AcDbArc
 50
0.0
 51
90.0
  0
ARC
  5
A10C
330
9D92
100
AcDbEntity
  8
1
  6
Continuous
100
AcDbCircle
 10
264.076843
 20
204.9158489999999
 30
0.0
 40
0.393389
100
AcDbArc
 50
270.0
 51
90.0
  0
ARC
  5
A10D
330
9D92
100
AcDbEntity
  8
1
  6
Continuous
100
AcDbCircle
 10
264.0138429999999
 20
204.9158489999999
 30
0.0
 40
0.393389
100
AcDbArc
 50
90.0
 51
270.0
  0
ARC
  5
A10E
330
9D92
100
AcDbEntity
  8
1
  6
Continuous
100
AcDbCircle
 10
264.727843
 20
204.9158489999999
 30
0.0
 40
0.393389
100
AcDbArc
 50
270.0
 51
90.0
  0
ARC
  5
A10F
330
9D92
100
AcDbEntity
  8
1
  6
Continuous
100
AcDbCircle
 10
264.7288429999999
 20
206.391849
 30
0.0
 40
0.393389
100
AcDbArc
 50
270.0
 51
90.0
  0
ARC
  5
A110
330
9D92
100
AcDbEntity
  8
1
  6
Continuous
100
AcDbCircle
 10
264.515843
 20
206.391849
 30
0.0
 40
0.393389
100
AcDbArc
 50
90.0
 51
270.0
  0
ARC
  5
A111
330
9D92
100
AcDbEntity
  8
1
  6
Continuous
100
AcDbCircle
 10
264.0128429999999
 20
203.439849
 30
0.0
 40
0.393389
100
AcDbArc
 50
90.0
 51
270.0
  0
ARC
  5
A112
330
9D92
100
AcDbEntity
  8
1
  6
Continuous
100
AcDbCircle
 10
264.0748429999998
 20
203.439849
 30
0.0
 40
0.393389
100
AcDbArc
 50
48.775
 51
90.0
  0
LINE
  5
A113
330
9D92
100
AcDbEntity
  8
1
  6
Continuous
100
AcDbLine
 10
173.823553
 20
311.0748489999999
 30
0.0
 11
168.8708429999998
 21
306.122249
 31
0.0
  0
LINE
  5
A114
330
9D92
100
AcDbEntity
  8
1
  6
Continuous
100
AcDbLine
 10
159.8708429999998
 20
304.374849
 30
0.0
 11
159.8708429999998
 21
306.122249
 31
0.0
  0
LINE
  5
A115
330
9D92
100
AcDbEntity
  8
1
  6
Continuous
100
AcDbLine
 10
168.8708429999998
 20
306.122249
 30
0.0
 11
159.8708429999998
 21
306.122249
 31
0.0
  0
LINE
  5
A116
330
9D92
100
AcDbEntity
  8
1
  6
Continuous
100
AcDbLine
 10
168.8708429999998
 20
304.374849
 30
0.0
 11
159.8708429999998
 21
304.374849
 31
0.0
  0
LINE
  5
A117
330
9D92
100
AcDbEntity
  8
1
  6
Continuous
100
AcDbLine
 10
168.8708429999998
 20
304.374849
 30
0.0
 11
168.8708429999998
 21
306.122249
 31
0.0
  0
LINE
  5
A118
330
9D92
100
AcDbEntity
  8
1
  6
Continuous
100
AcDbLine
 10
154.9181429999999
 20
311.0748489999999
 30
0.0
 11
159.8708429999998
 21
306.1221489999998
 31
0.0
  0
ARC
  5
A119
330
9D92
100
AcDbEntity
  8
1
  6
Continuous
100
AcDbCircle
 10
174.0708429999999
 20
210.2545401934579
 30
0.0
 40
2.299999999999998
100
AcDbArc
 50
315.0
 51
0.0
  0
ARC
  5
A11A
330
9D92
100
AcDbEntity
  8
1
  6
Continuous
100
AcDbCircle
 10
174.370843
 20
207.3011578065418
 30
0.0
 40
2.299999999999998
100
AcDbArc
 50
135.0000000000004
 51
180.0
  0
ARC
  5
A11B
330
9D92
100
AcDbEntity
  8
1
  6
Continuous
100
AcDbCircle
 10
174.0708429999999
 20
160.3491578065417
 30
0.0
 40
2.299999999999998
100
AcDbArc
 50
0.0
 51
45.0
  0
ARC
  5
A11C
330
9D92
100
AcDbEntity
  8
1
  6
Continuous
100
AcDbCircle
 10
174.370843
 20
163.3015401934581
 30
0.0
 40
2.299999999999998
100
AcDbArc
 50
180.0
 51
224.9999999999996
  0
ARC
  5
A11D
330
9D92
100
AcDbEntity
  8
1
  6
Continuous
100
AcDbCircle
 10
344.370843
 20
230.301849
 30
0.0
 40
8.5
100
AcDbArc
 50
306.4750650856408
 51
26.39807294497817
  0
ARC
  5
A11E
330
9D92
100
AcDbEntity
  8
1
  6
Continuous
100
AcDbCircle
 10
344.370843
 20
230.301849
 30
0.0
 40
8.5
100
AcDbArc
 50
229.44667907235
 51
287.8696322248129
  0
ARC
  5
A11F
330
9D92
100
AcDbEntity
  8
1
  6
Continuous
100
AcDbCircle
 10
344.370843
 20
230.301849
 30
0.0
 40
4.5
100
AcDbArc
 50
225.3140058337723
 51
286.8972150173917
  0
ARC
  5
A120
330
9D92
100
AcDbEntity
  8
1
  6
Continuous
100
AcDbCircle
 10
344.370843
 20
230.301849
 30
0.0
 40
8.5
100
AcDbArc
 50
47.8421378461322
 51
112.5408650745067
  0
ARC
  5
A121
330
9D92
100
AcDbEntity
  8
1
  6
Continuous
100
AcDbCircle
 10
344.370843
 20
230.301849
 30
0.0
 40
8.5
100
AcDbArc
 50
136.3489957639179
 51
200.7584605617699
  0
ARC
  5
A122
330
9D92
100
AcDbEntity
  8
1
  6
Continuous
100
AcDbCircle
 10
344.370843
 20
230.301849
 30
0.0
 40
4.5
100
AcDbArc
 50
53.93231529852563
 51
114.3169277416914
  0
ARC
  5
A123
330
9D92
100
AcDbEntity
  8
1
  6
Continuous
100
AcDbCircle
 10
344.370843
 20
230.301849
 30
0.0
 40
4.5
100
AcDbArc
 50
137.4920840524744
 51
200.5017271159219
  0
ARC
  5
A124
330
9D92
100
AcDbEntity
  8
1
  6
Continuous
100
AcDbCircle
 10
344.370843
 20
230.301849
 30
0.0
 40
4.5
100
AcDbArc
 50
315.3492066919844
 51
30.73416018634624
  0
CIRCLE
  5
A125
330
9D92
100
AcDbEntity
  8
1
  6
Continuous
100
AcDbCircle
 10
134.3708429999997
 20
143.301849
 30
0.0
 40
4.0
  0
CIRCLE
  5
A126
330
9D92
100
AcDbEntity
  8
1
  6
Continuous
100
AcDbCircle
 10
164.3708429999998
 20
143.301849
 30
0.0
 40
4.0
  0
LINE
  5
A127
330
9D92
100
AcDbEntity
  8
1
  6
Continuous
100
AcDbLine
 10
130.3708429999997
 20
62.228149
 30
0.0
 11
129.3893475423774
 21
60.52814900000001
 31
0.0
  0
LINE
  5
A128
330
9D92
100
AcDbEntity
  8
1
  6
Continuous
100
AcDbLine
 10
138.3708429999997
 20
62.228149
 30
0.0
 11
139.3523384576222
 21
60.52814900000001
 31
0.0
  0
LINE
  5
A129
330
9D92
100
AcDbEntity
  8
1
  6
Continuous
100
AcDbLine
 10
160.3708429999998
 20
62.228149
 30
0.0
 11
168.3708429999998
 21
62.228149
 31
0.0
  0
LINE
  5
A12A
330
9D92
100
AcDbEntity
  8
1
  6
Continuous
100
AcDbLine
 10
168.3708429999998
 20
62.228149
 30
0.0
 11
169.3523384576223
 21
60.52814900000001
 31
0.0
  0
LINE
  5
A12B
330
9D92
100
AcDbEntity
  8
1
  6
Continuous
100
AcDbLine
 10
160.3708429999998
 20
62.228149
 30
0.0
 11
159.3893475423774
 21
60.52814900000001
 31
0.0
  0
LINE
  5
A12C
330
9D92
100
AcDbEntity
  8
1
  6
Continuous
100
AcDbLine
 10
39.37074299999999
 20
147.301849
 30
0.0
 11
39.37074299999999
 21
139.301849
 31
0.0
  0
LINE
  5
A12D
330
9D92
100
AcDbEntity
  8
1
  6
Continuous
100
AcDbLine
 10
39.37074299999999
 20
139.301849
 30
0.0
 11
37.670743
 21
138.3203535423774
 31
0.0
  0
LINE
  5
A12E
330
9D92
100
AcDbEntity
  8
1
  6
Continuous
100
AcDbLine
 10
39.37074299999999
 20
147.301849
 30
0.0
 11
37.670743
 21
148.2833444576223
 31
0.0
  0
ENDSEC
  0
SECTION
  2
OBJECTS
  0
DICTIONARY
  5
9D80
330
0
100
AcDbDictionary
281
     1
  3
ACAD_CIP_PREVIOUS_PRODUCT_INFO
350
A194
  3
ACAD_COLOR
350
A176
  3
ACAD_DETAILVIEWSTYLE
350
A18F
  3
ACAD_GROUP
350
9D81
  3
ACAD_LAYOUT
350
9D8D
  3
ACAD_MATERIAL
350
A144
  3
ACAD_MLEADERSTYLE
350
A18B
  3
ACAD_MLINESTYLE
350
9D8A
  3
ACAD_PLOTSETTINGS
350
9D8C
  3
ACAD_PLOTSTYLENAME
350
A142
  3
ACAD_SCALELIST
350
A179
  3
ACAD_SECTIONVIEWSTYLE
350
A18D
  3
ACAD_TABLESTYLE
350
A177
  3
ACAD_VISUALSTYLE
350
A15D
  3
ACDB_RECOMPOSE_DATA
350
A1B2
  3
AcDbVariableDictionary
350
A1A5
  3
DWGPROPS
350
A1B3
  0
DICTIONARY
  5
A195
330
9D84
100
AcDbDictionary
280
     1
281
     1
  3
ADSK_XREC_LAYER_RECONCILED
360
A196
  0
DICTIONARY
  5
A197
330
9D9A
100
AcDbDictionary
280
     1
281
     1
  3
ADSK_XREC_LAYER_RECONCILED
360
A198
  0
DICTIONARY
  5
A199
330
9D9B
100
AcDbDictionary
280
     1
281
     1
  3
ADSK_XREC_LAYER_RECONCILED
360
A19A
  0
DICTIONARY
  5
A19B
330
9D9C
100
AcDbDictionary
280
     1
281
     1
  3
ADSK_XREC_LAYER_RECONCILED
360
A19C
  0
DICTIONARY
  5
A19D
330
9D9D
100
AcDbDictionary
280
     1
281
     1
  3
ADSK_XREC_LAYER_RECONCILED
360
A19E
  0
DICTIONARY
  5
A19F
330
9D9E
100
AcDbDictionary
280
     1
281
     1
  3
ADSK_XREC_LAYER_RECONCILED
360
A1A0
  0
DICTIONARY
  5
A1A1
330
9D9F
100
AcDbDictionary
280
     1
281
     1
  3
ADSK_XREC_LAYER_RECONCILED
360
A1A2
  0
DICTIONARY
  5
A1A3
330
9DA0
100
AcDbDictionary
280
     1
281
     1
  3
ADSK_XREC_LAYER_RECONCILED
360
A1A4
  0
DICTIONARY
  5
A13D
330
9D92
100
AcDbDictionary
281
     1
  3
ACAD_LAYOUTSELFREF
350
A13E
  0
DICTIONARY
  5
A13B
330
9D8E
100
AcDbDictionary
281
     1
  3
ACAD_LAYOUTSELFREF
350
A13C
  0
XRECORD
  5
A194
102
{ACAD_REACTORS
330
9D80
102
}
330
9D80
100
AcDbXrecord
280
     1
300
ACDLT
300
2014
300
ACDLT_F_S
  0
DICTIONARY
  5
A176
102
{ACAD_REACTORS
330
9D80
102
}
330
9D80
100
AcDbDictionary
281
     1
  0
DICTIONARY
  5
A18F
102
{ACAD_REACTORS
330
9D80
102
}
330
9D80
100
AcDbDictionary
281
     1
  3
Imperial24
350
A190
  0
DICTIONARY
  5
9D81
102
{ACAD_REACTORS
330
9D80
102
}
330
9D80
100
AcDbDictionary
281
     1
  0
DICTIONARY
  5
9D8D
102
{ACAD_REACTORS
330
9D80
102
}
330
9D80
100
AcDbDictionary
281
     1
  3
Model
350
A191
  3
レイアウト1
350
A192
  0
DICTIONARY
  5
A144
102
{ACAD_REACTORS
330
9D80
102
}
330
9D80
100
AcDbDictionary
281
     1
  3
ByBlock
350
A14D
  3
ByLayer
350
A145
  3
Global
350
A155
  0
DICTIONARY
  5
A18B
102
{ACAD_REACTORS
330
9D80
102
}
330
9D80
100
AcDbDictionary
281
     1
  3
Standard
350
A18C
  0
DICTIONARY
  5
9D8A
102
{ACAD_REACTORS
330
9D80
102
}
330
9D80
100
AcDbDictionary
281
     1
  3
STANDARD
350
9D8B
  0
DICTIONARY
  5
9D8C
102
{ACAD_REACTORS
330
9D80
102
}
330
9D80
100
AcDbDictionary
281
     1
  0
ACDBDICTIONARYWDFLT
  5
A142
102
{ACAD_REACTORS
330
9D80
102
}
330
9D80
100
AcDbDictionary
281
     1
  3
Normal
350
A143
100
AcDbDictionaryWithDefault
340
A143
  0
DICTIONARY
  5
A179
102
{ACAD_REACTORS
330
9D80
102
}
330
9D80
100
AcDbDictionary
281
     1
  3
A0
350
A17A
  3
A1
350
A17B
  3
A2
350
A17C
  3
A3
350
A17D
  3
A4
350
A17E
  3
A5
350
A17F
  3
A6
350
A180
  3
A7
350
A181
  3
A8
350
A182
  3
A9
350
A183
  3
B0
350
A184
  3
B1
350
A185
  3
B2
350
A186
  3
B3
350
A187
  3
B4
350
A188
  3
B5
350
A189
  3
B6
350
A18A
  0
DICTIONARY
  5
A18D
102
{ACAD_REACTORS
330
9D80
102
}
330
9D80
100
AcDbDictionary
281
     1
  3
Imperial24
350
A18E
  0
DICTIONARY
  5
A177
102
{ACAD_REACTORS
330
9D80
102
}
330
9D80
100
AcDbDictionary
281
     1
  3
Standard
350
A178
  0
DICTIONARY
  5
A15D
102
{ACAD_REACTORS
330
9D80
102
}
330
9D80
100
AcDbDictionary
281
     1
  3
2dWireframe
350
A163
  3
Basic
350
A162
  3
Brighten
350
A169
  3
ColorChange
350
A16D
  3
Conceptual
350
A166
  3
Dim
350
A168
  3
EdgeColorOff
350
A175
  3
Facepattern
350
A16C
  3
Flat
350
A15E
  3
FlatWithEdges
350
A15F
  3
Gouraud
350
A160
  3
GouraudWithEdges
350
A161
  3
Hidden
350
A165
  3
JitterOff
350
A173
  3
Linepattern
350
A16B
  3
OverhangOff
350
A174
  3
Realistic
350
A167
  3
Shaded
350
A172
  3
Shaded with edges
350
A171
  3
Shades of Gray
350
A16E
  3
Sketchy
350
A16F
  3
Thicken
350
A16A
  3
Wireframe
350
A164
  3
X-Ray
350
A170
  0
XRECORD
  5
A1B2
102
{ACAD_REACTORS
330
9D80
102
}
330
9D80
100
AcDbXrecord
280
     1
 90
        1
330
A178
  0
DICTIONARY
  5
A1A5
102
{ACAD_REACTORS
330
9D80
102
}
330
9D80
100
AcDbDictionary
281
     1
  3
CANNOSCALE
350
A1AA
  3
CMLEADERSTYLE
350
A1A7
  3
CTABLESTYLE
350
A1A6
  3
CVIEWDETAILSTYLE
350
A1A8
  3
CVIEWSECTIONSTYLE
350
A1A9
  3
DIMASSOC
350
A1AD
  3
INDEXCTL
350
A1AC
  3
SORTENTS
350
A1AB
  3
XCLIPFRAME
350
A1AE
  0
XRECORD
  5
A1B3
102
{ACAD_REACTORS
330
9D80
102
}
330
9D80
100
AcDbXrecord
280
     1
  1
DWGPROPS COOKIE
  2

  3

  4

  6

  7

  8
Yoshitsune
  9

300
=
301
=
302
=
303
=
304
=
305
=
306
=
307
=
308
=
309
=
 40
0.010449525462963
 41
2450737.701945255
 42
2457192.640346088
  1

 90
        0
  0
XRECORD
  5
A196
102
{ACAD_REACTORS
330
A195
102
}
330
A195
100
AcDbXrecord
280
     1
290
     1
  0
XRECORD
  5
A198
102
{ACAD_REACTORS
330
A197
102
}
330
A197
100
AcDbXrecord
280
     1
290
     1
  0
XRECORD
  5
A19A
102
{ACAD_REACTORS
330
A199
102
}
330
A199
100
AcDbXrecord
280
     1
290
     1
  0
XRECORD
  5
A19C
102
{ACAD_REACTORS
330
A19B
102
}
330
A19B
100
AcDbXrecord
280
     1
290
     1
  0
XRECORD
  5
A19E
102
{ACAD_REACTORS
330
A19D
102
}
330
A19D
100
AcDbXrecord
280
     1
290
     1
  0
XRECORD
  5
A1A0
102
{ACAD_REACTORS
330
A19F
102
}
330
A19F
100
AcDbXrecord
280
     1
290
     1
  0
XRECORD
  5
A1A2
102
{ACAD_REACTORS
330
A1A1
102
}
330
A1A1
100
AcDbXrecord
280
     1
290
     1
  0
XRECORD
  5
A1A4
102
{ACAD_REACTORS
330
A1A3
102
}
330
A1A3
100
AcDbXrecord
280
     1
290
     1
  0
XRECORD
  5
A13E
102
{ACAD_REACTORS
330
A13D
102
}
330
A13D
100
AcDbXrecord
280
     1
340
9D92
  0
XRECORD
  5
A13C
102
{ACAD_REACTORS
330
A13B
102
}
330
A13B
100
AcDbXrecord
280
     1
340
9D8E
  0
ACDBDETAILVIEWSTYLE
  5
A190
102
{ACAD_XDICTIONARY
360
A1EB
102
}
102
{ACAD_REACTORS
330
A18F
102
}
330
A18F
100
AcDbModelDocViewStyle
 70
     0
  3
Imperial24
290
     0
100
AcDbDetailViewStyle
 70
     0
 71
     0
 90
        3
 71
     1
340
9D85
 40
0.24
340
0
 40
0.24
300

 40
0.36
280
     3
 71
     2
340
9D89
 90
       25
 71
     3
340
9D85
 40
0.24
 90
        1
 40
0.75
 90
        1
300
%<\AcVar ViewType \f "%tc1">% %<\AcVar ViewDetailId>%\PSCALE %<\AcVar ViewScale \f "%sn">%
 71
     4
340
9D89
 90
       25
340
9D89
 90
       25
280
     0
  0
LAYOUT
  5
A191
102
{ACAD_XDICTIONARY
360
A1ED
102
}
102
{ACAD_REACTORS
330
9D8D
102
}
330
9D8D
100
AcDbPlotSettings
  1

  2
Canon LBP9100C
  4

  6

 40
0.0
 41
0.0
 42
0.0
 43
0.0
 44
0.0
 45
0.0
 46
0.0
 47
0.0
 48
0.0
 49
0.0
140
0.0
141
0.0
142
1.0
143
1.0
 70
  1712
 72
     0
 73
     0
 74
     0
  7

 75
     0
147
1.0
148
0.0
149
0.0
100
AcDbLayout
  1
Model
 70
     1
 71
     0
 10
0.0
 20
0.0
 11
12.0
 21
9.0
 12
0.0
 22
0.0
 32
0.0
 14
0.0
 24
0.0
 34
0.0
 15
0.0
 25
0.0
 35
0.0
146
0.0
 13
0.0
 23
0.0
 33
0.0
 16
1.0
 26
0.0
 36
0.0
 17
0.0
 27
1.0
 37
0.0
 76
     0
330
9D92
331
A13A
  0
LAYOUT
  5
A192
102
{ACAD_XDICTIONARY
360
A1EF
102
}
102
{ACAD_REACTORS
330
9D8D
102
}
330
9D8D
100
AcDbPlotSettings
  1

  2
Canon LBP9100C
  4

  6

 40
0.0
 41
0.0
 42
0.0
 43
0.0
 44
0.0
 45
0.0
 46
0.0
 47
0.0
 48
0.0
 49
0.0
140
0.0
141
0.0
142
1.0
143
1.0
 70
   688
 72
     0
 73
     0
 74
     5
  7

 75
    16
147
1.0
148
0.0
149
0.0
100
AcDbLayout
  1
レイアウト1
 70
     0
 71
     1
 10
0.0
 20
0.0
 11
420.0
 21
297.0
 12
0.0
 22
0.0
 32
0.0
 14
1.000000000000000E+20
 24
1.000000000000000E+20
 34
1.000000000000000E+20
 15
-1.000000000000000E+20
 25
-1.000000000000000E+20
 35
-1.000000000000000E+20
146
0.0
 13
0.0
 23
0.0
 33
0.0
 16
1.0
 26
0.0
 36
0.0
 17
0.0
 27
1.0
 37
0.0
 76
     0
330
9D8E
  0
MATERIAL
  5
A14D
102
{ACAD_XDICTIONARY
360
A14E
102
}
102
{ACAD_REACTORS
330
A144
102
}
330
A144
100
AcDbMaterial
  1
ByBlock
 72
     0
 43
0.0208333333333333
 43
0.0
 43
0.0
 43
0.0
 43
0.0
 43
0.0208333333333333
 43
0.0
 43
0.0
 43
0.0
 43
0.0
 43
1.0
 43
0.0
 43
0.0
 43
0.0
 43
0.0
 43
1.0
 77
     0
 47
0.0208333333333333
 47
0.0
 47
0.0
 47
0.0
 47
0.0
 47
0.0208333333333333
 47
0.0
 47
0.0
 47
0.0
 47
0.0
 47
1.0
 47
0.0
 47
0.0
 47
0.0
 47
0.0
 47
1.0
171
     0
 49
0.0208333333333333
 49
0.0
 49
0.0
 49
0.0
 49
0.0
 49
0.0208333333333333
 49
0.0
 49
0.0
 49
0.0
 49
0.0
 49
1.0
 49
0.0
 49
0.0
 49
0.0
 49
0.0
 49
1.0
175
     0
142
0.0208333333333333
142
0.0
142
0.0
142
0.0
142
0.0
142
0.0208333333333333
142
0.0
142
0.0
142
0.0
142
0.0
142
1.0
142
0.0
142
0.0
142
0.0
142
0.0
142
1.0
179
     0
144
0.0208333333333333
144
0.0
144
0.0
144
0.0
144
0.0
144
0.0208333333333333
144
0.0
144
0.0
144
0.0
144
0.0
144
1.0
144
0.0
144
0.0
144
0.0
144
0.0
144
1.0
147
0.0208333333333333
147
0.0
147
0.0
147
0.0
147
0.0
147
0.0208333333333333
147
0.0
147
0.0
147
0.0
147
0.0
147
1.0
147
0.0
147
0.0
147
0.0
147
0.0
147
1.0
  0
MATERIAL
  5
A145
102
{ACAD_XDICTIONARY
360
A146
102
}
102
{ACAD_REACTORS
330
A144
102
}
330
A144
100
AcDbMaterial
  1
ByLayer
 72
     0
 43
0.0208333333333333
 43
0.0
 43
0.0
 43
0.0
 43
0.0
 43
0.0208333333333333
 43
0.0
 43
0.0
 43
0.0
 43
0.0
 43
1.0
 43
0.0
 43
0.0
 43
0.0
 43
0.0
 43
1.0
 77
     0
 47
0.0208333333333333
 47
0.0
 47
0.0
 47
0.0
 47
0.0
 47
0.0208333333333333
 47
0.0
 47
0.0
 47
0.0
 47
0.0
 47
1.0
 47
0.0
 47
0.0
 47
0.0
 47
0.0
 47
1.0
171
     0
 49
0.0208333333333333
 49
0.0
 49
0.0
 49
0.0
 49
0.0
 49
0.0208333333333333
 49
0.0
 49
0.0
 49
0.0
 49
0.0
 49
1.0
 49
0.0
 49
0.0
 49
0.0
 49
0.0
 49
1.0
175
     0
142
0.0208333333333333
142
0.0
142
0.0
142
0.0
142
0.0
142
0.0208333333333333
142
0.0
142
0.0
142
0.0
142
0.0
142
1.0
142
0.0
142
0.0
142
0.0
142
0.0
142
1.0
179
     0
144
0.0208333333333333
144
0.0
144
0.0
144
0.0
144
0.0
144
0.0208333333333333
144
0.0
144
0.0
144
0.0
144
0.0
144
1.0
144
0.0
144
0.0
144
0.0
144
0.0
144
1.0
147
0.0208333333333333
147
0.0
147
0.0
147
0.0
147
0.0
147
0.0208333333333333
147
0.0
147
0.0
147
0.0
147
0.0
147
1.0
147
0.0
147
0.0
147
0.0
147
0.0
147
1.0
  0
MATERIAL
  5
A155
102
{ACAD_XDICTIONARY
360
A156
102
}
102
{ACAD_REACTORS
330
A144
102
}
330
A144
100
AcDbMaterial
  1
Global
 72
     0
 43
0.0208333333333333
 43
0.0
 43
0.0
 43
0.0
 43
0.0
 43
0.0208333333333333
 43
0.0
 43
0.0
 43
0.0
 43
0.0
 43
1.0
 43
0.0
 43
0.0
 43
0.0
 43
0.0
 43
1.0
 77
     0
 47
0.0208333333333333
 47
0.0
 47
0.0
 47
0.0
 47
0.0
 47
0.0208333333333333
 47
0.0
 47
0.0
 47
0.0
 47
0.0
 47
1.0
 47
0.0
 47
0.0
 47
0.0
 47
0.0
 47
1.0
171
     0
 49
0.0208333333333333
 49
0.0
 49
0.0
 49
0.0
 49
0.0
 49
0.0208333333333333
 49
0.0
 49
0.0
 49
0.0
 49
0.0
 49
1.0
 49
0.0
 49
0.0
 49
0.0
 49
0.0
 49
1.0
175
     0
142
0.0208333333333333
142
0.0
142
0.0
142
0.0
142
0.0
142
0.0208333333333333
142
0.0
142
0.0
142
0.0
142
0.0
142
1.0
142
0.0
142
0.0
142
0.0
142
0.0
142
1.0
179
     0
144
0.0208333333333333
144
0.0
144
0.0
144
0.0
144
0.0
144
0.0208333333333333
144
0.0
144
0.0
144
0.0
144
0.0
144
1.0
144
0.0
144
0.0
144
0.0
144
0.0
144
1.0
147
0.0208333333333333
147
0.0
147
0.0
147
0.0
147
0.0
147
0.0208333333333333
147
0.0
147
0.0
147
0.0
147
0.0
147
1.0
147
0.0
147
0.0
147
0.0
147
0.0
147
1.0
  0
MLEADERSTYLE
  5
A18C
102
{ACAD_REACTORS
330
A18B
102
}
330
A18B
100
AcDbMLeaderStyle
170
     2
171
     1
172
     0
 90
        2
 40
0.0
 41
0.0
173
     1
 91
-1056964608
340
9D87
 92
       -2
290
     1
 42
0.09
291
     1
 43
0.36
  3
Standard
 44
0.18
300

342
9D85
174
     1
178
     6
175
     1
176
     0
 93
-1056964608
 45
0.18
292
     0
297
     0
 46
0.18
 94
-1056964608
 47
1.0
 49
1.0
140
1.0
293
     1
141
0.0
294
     1
177
     0
142
1.0
295
     0
296
     0
143
0.125
1001
ACAD_MLEADERVER
1070
     2
  0
MLINESTYLE
  5
9D8B
102
{ACAD_REACTORS
330
9D8A
102
}
330
9D8A
100
AcDbMlineStyle
  2
STANDARD
 70
     0
  3

 62
   256
 51
90.0
 52
90.0
 71
     2
 49
0.5
 62
   256
  6
BYLAYER
 49
-0.5
 62
   256
  6
BYLAYER
  0
ACDBPLACEHOLDER
  5
A143
102
{ACAD_REACTORS
330
A142
102
}
330
A142
  0
SCALE
  5
A17A
102
{ACAD_REACTORS
330
A179
102
}
330
A179
100
AcDbScale
 70
     0
300
1:1
140
1.0
141
1.0
290
     1
  0
SCALE
  5
A17B
102
{ACAD_REACTORS
330
A179
102
}
330
A179
100
AcDbScale
 70
     0
300
1/128" = 1'-0"
140
0.0078125
141
12.0
290
     0
  0
SCALE
  5
A17C
102
{ACAD_REACTORS
330
A179
102
}
330
A179
100
AcDbScale
 70
     0
300
1/64" = 1'-0"
140
0.015625
141
12.0
290
     0
  0
SCALE
  5
A17D
102
{ACAD_REACTORS
330
A179
102
}
330
A179
100
AcDbScale
 70
     0
300
1/32" = 1'-0"
140
0.03125
141
12.0
290
     0
  0
SCALE
  5
A17E
102
{ACAD_REACTORS
330
A179
102
}
330
A179
100
AcDbScale
 70
     0
300
1/16" = 1'-0"
140
0.0625
141
12.0
290
     0
  0
SCALE
  5
A17F
102
{ACAD_REACTORS
330
A179
102
}
330
A179
100
AcDbScale
 70
     0
300
3/32" = 1'-0"
140
0.09375
141
12.0
290
     0
  0
SCALE
  5
A180
102
{ACAD_REACTORS
330
A179
102
}
330
A179
100
AcDbScale
 70
     0
300
1/8" = 1'-0"
140
0.125
141
12.0
290
     0
  0
SCALE
  5
A181
102
{ACAD_REACTORS
330
A179
102
}
330
A179
100
AcDbScale
 70
     0
300
3/16" = 1'-0"
140
0.1875
141
12.0
290
     0
  0
SCALE
  5
A182
102
{ACAD_REACTORS
330
A179
102
}
330
A179
100
AcDbScale
 70
     0
300
1/4" = 1'-0"
140
0.25
141
12.0
290
     0
  0
SCALE
  5
A183
102
{ACAD_REACTORS
330
A179
102
}
330
A179
100
AcDbScale
 70
     0
300
3/8" = 1'-0"
140
0.375
141
12.0
290
     0
  0
SCALE
  5
A184
102
{ACAD_REACTORS
330
A179
102
}
330
A179
100
AcDbScale
 70
     0
300
1/2" = 1'-0"
140
0.5
141
12.0
290
     0
  0
SCALE
  5
A185
102
{ACAD_REACTORS
330
A179
102
}
330
A179
100
AcDbScale
 70
     0
300
3/4" = 1'-0"
140
0.75
141
12.0
290
     0
  0
SCALE
  5
A186
102
{ACAD_REACTORS
330
A179
102
}
330
A179
100
AcDbScale
 70
     0
300
1" = 1'-0"
140
1.0
141
12.0
290
     0
  0
SCALE
  5
A187
102
{ACAD_REACTORS
330
A179
102
}
330
A179
100
AcDbScale
 70
     0
300
1-1/2" = 1'-0"
140
1.5
141
12.0
290
     0
  0
SCALE
  5
A188
102
{ACAD_REACTORS
330
A179
102
}
330
A179
100
AcDbScale
 70
     0
300
3" = 1'-0"
140
3.0
141
12.0
290
     0
  0
SCALE
  5
A189
102
{ACAD_REACTORS
330
A179
102
}
330
A179
100
AcDbScale
 70
     0
300
6" = 1'-0"
140
6.0
141
12.0
290
     0
  0
SCALE
  5
A18A
102
{ACAD_REACTORS
330
A179
102
}
330
A179
100
AcDbScale
 70
     0
300
1'-0" = 1'-0"
140
12.0
141
12.0
290
     0
  0
ACDBSECTIONVIEWSTYLE
  5
A18E
102
{ACAD_XDICTIONARY
360
A1E9
102
}
102
{ACAD_REACTORS
330
A18D
102
}
330
A18D
100
AcDbModelDocViewStyle
 70
     0
  3
Imperial24
290
     0
100
AcDbSectionViewStyle
 70
     0
 71
     0
 90
       78
 71
     1
340
9D85
 40
0.24
340
0
340
0
 40
0.24
300
I, O, Q, S, X, Z
 40
0.48
 90
        3
 40
0.18
 90
        1
 71
     2
340
9D89
 90
       25
340
9D89
 90
       50
 40
0.24
 40
0.0
 40
0.24
 71
     3
340
9D85
 40
0.24
 90
        1
 40
0.75
 90
        1
300
%<\AcVar ViewType \f "%tc1">% %<\AcVar ViewSectionStartId>%-%<\AcVar ViewSectionEndId>%\PSCALE %<\AcVar ViewScale \f "%sn">%
 71
     4
300
ANSI31
 40
1.0
 90
        0
290
     0
290
     0
 90
        6
 40
0.0
 40
1.570796326794896
 40
0.2617993877991494
 40
1.308996938995747
 40
-0.2617993877991494
 40
1.832595714594046
  0
TABLESTYLE
  5
A178
102
{ACAD_XDICTIONARY
360
A1B0
102
}
102
{ACAD_REACTORS
330
A177
102
}
330
A177
100
AcDbTableStyle
  3
Standard
 70
     0
 71
     0
 40
0.06
 41
0.06
280
     0
281
     0
  7
STANDARD
140
0.18
170
     2
 62
     0
 63
     7
283
     0
274
    -2
284
     1
 64
     0
275
    -2
285
     1
 65
     0
276
    -2
286
     1
 66
     0
277
    -2
287
     1
 67
     0
278
    -2
288
     1
 68
     0
279
    -2
289
     1
 69
     0
  7
STANDARD
140
0.25
170
     5
 62
     0
 63
     7
283
     0
274
    -2
284
     1
 64
     0
275
    -2
285
     1
 65
     0
276
    -2
286
     1
 66
     0
277
    -2
287
     1
 67
     0
278
    -2
288
     1
 68
     0
279
    -2
289
     1
 69
     0
  7
STANDARD
140
0.18
170
     5
 62
     0
 63
     7
283
     0
274
    -2
284
     1
 64
     0
275
    -2
285
     1
 65
     0
276
    -2
286
     1
 66
     0
277
    -2
287
     1
 67
     0
278
    -2
288
     1
 68
     0
279
    -2
289
     1
 69
     0
  0
VISUALSTYLE
  5
A163
102
{ACAD_XDICTIONARY
360
A1C1
102
}
102
{ACAD_REACTORS
330
A15D
102
}
330
A15D
100
AcDbVisualStyle
  2
2dWireframe
 70
     4
 71
     0
 72
     2
 73
     0
 90
        0
 40
-0.6
 41
-30.0
 62
     5
 63
     7
 74
     1
 91
        4
 64
     7
 65
   257
 75
     1
175
     1
 42
1.0
 92
        0
 66
   257
 43
1.0
 76
     1
 77
     6
 78
     2
 67
     7
 79
     5
170
     0
171
     0
290
     0
174
     0
 93
        1
 44
0.0
173
     0
291
     0
 45
0.0
1001
ACAD
1000
AcDbSavedByObjectVersion
1070
     0
  0
VISUALSTYLE
  5
A162
102
{ACAD_XDICTIONARY
360
A1BF
102
}
102
{ACAD_REACTORS
330
A15D
102
}
330
A15D
100
AcDbVisualStyle
  2
Basic
 70
     7
 71
     1
 72
     0
 73
     1
 90
        0
 40
-0.6
 41
-30.0
 62
     5
 63
     7
 74
     0
 91
        4
 64
     7
 65
   257
 75
     1
175
     1
 42
1.0
 92
        8
 66
     7
 43
1.0
 76
     1
 77
     6
 78
     2
 67
     7
 79
     5
170
     0
171
     0
290
     0
174
     0
 93
        1
 44
0.0
173
     0
291
     1
 45
0.0
1001
ACAD
1000
AcDbSavedByObjectVersion
1070
     0
  0
VISUALSTYLE
  5
A169
102
{ACAD_XDICTIONARY
360
A1CD
102
}
102
{ACAD_REACTORS
330
A15D
102
}
330
A15D
100
AcDbVisualStyle
  2
Brighten
 70
    12
 71
     2
 72
     2
 73
     0
 90
        0
 40
-0.6
 41
-30.0
 62
     5
 63
     7
 74
     1
 91
        4
 64
     7
 65
   257
 75
     1
175
     1
 42
1.0
 92
        8
 66
     7
 43
1.0
 76
     1
 77
     6
 78
     2
 67
     7
 79
     5
170
     0
171
     0
290
     0
174
     0
 93
        1
 44
50.0
173
     0
291
     1
 45
0.0
1001
ACAD
1000
AcDbSavedByObjectVersion
1070
     0
  0
VISUALSTYLE
  5
A16D
102
{ACAD_XDICTIONARY
360
A1D5
102
}
102
{ACAD_REACTORS
330
A15D
102
}
330
A15D
100
AcDbVisualStyle
  2
ColorChange
 70
    16
 71
     2
 72
     2
 73
     3
 90
        0
 40
-0.6
 41
-30.0
 62
     5
 63
     8
 74
     1
 91
        4
 64
     7
 65
   257
 75
     1
175
     1
 42
1.0
 92
        8
 66
     8
 43
1.0
 76
     1
 77
     6
 78
     2
 67
     7
 79
     5
170
     0
171
     0
290
     0
174
     0
 93
        1
 44
0.0
173
     0
291
     1
 45
0.0
1001
ACAD
1000
AcDbSavedByObjectVersion
1070
     0
  0
VISUALSTYLE
  5
A166
102
{ACAD_XDICTIONARY
360
A1C7
102
}
102
{ACAD_REACTORS
330
A15D
102
}
330
A15D
100
AcDbVisualStyle
  2
Conceptual
 70
     9
 71
     3
 72
     2
 73
     0
 90
        0
 40
-0.6
 41
-30.0
 62
     5
 63
     7
 74
     2
 91
        2
 64
     7
 65
   257
 75
     1
175
     1
 42
179.0
 92
        8
 66
     7
 43
1.0
 76
     1
 77
     6
 78
     2
 67
     7
 79
     3
170
     0
171
     0
290
     0
174
     0
 93
        1
 44
0.0
173
     0
291
     0
 45
0.0
1001
ACAD
1000
AcDbSavedByObjectVersion
1070
     0
  0
VISUALSTYLE
  5
A168
102
{ACAD_XDICTIONARY
360
A1CB
102
}
102
{ACAD_REACTORS
330
A15D
102
}
330
A15D
100
AcDbVisualStyle
  2
Dim
 70
    11
 71
     2
 72
     2
 73
     0
 90
        0
 40
-0.6
 41
-30.0
 62
     5
 63
     7
 74
     1
 91
        4
 64
     7
 65
   257
 75
     1
175
     1
 42
1.0
 92
        8
 66
     7
 43
1.0
 76
     1
 77
     6
 78
     2
 67
     7
 79
     5
170
     0
171
     0
290
     0
174
     0
 93
        1
 44
-50.0
173
     0
291
     1
 45
0.0
1001
ACAD
1000
AcDbSavedByObjectVersion
1070
     0
  0
VISUALSTYLE
  5
A175
102
{ACAD_XDICTIONARY
360
A1E5
102
}
102
{ACAD_REACTORS
330
A15D
102
}
330
A15D
100
AcDbVisualStyle
  2
EdgeColorOff
 70
    22
 71
     2
 72
     2
 73
     0
 90
        0
 40
-0.6
 41
-30.0
 62
     5
 63
     7
 74
     1
 91
        4
 64
     7
 65
   257
 75
     1
175
     1
 42
1.0
 92
        8
 66
     7
 43
1.0
 76
     1
 77
     6
 78
     2
 67
     7
 79
     5
170
     0
171
     0
290
     0
174
     0
 93
        1
 44
0.0
173
     0
291
     1
 45
0.0
1001
ACAD
1000
AcDbSavedByObjectVersion
1070
     0
  0
VISUALSTYLE
  5
A16C
102
{ACAD_XDICTIONARY
360
A1D3
102
}
102
{ACAD_REACTORS
330
A15D
102
}
330
A15D
100
AcDbVisualStyle
  2
Facepattern
 70
    15
 71
     2
 72
     2
 73
     0
 90
        0
 40
-0.6
 41
-30.0
 62
     5
 63
     7
 74
     1
 91
        4
 64
     7
 65
   257
 75
     1
175
     1
 42
1.0
 92
        8
 66
     7
 43
1.0
 76
     1
 77
     6
 78
     2
 67
     7
 79
     5
170
     0
171
     0
290
     0
174
     0
 93
        1
 44
0.0
173
     0
291
     1
 45
0.0
1001
ACAD
1000
AcDbSavedByObjectVersion
1070
     0
  0
VISUALSTYLE
  5
A15E
102
{ACAD_XDICTIONARY
360
A1B7
102
}
102
{ACAD_REACTORS
330
A15D
102
}
330
A15D
100
AcDbVisualStyle
  2
Flat
 70
     0
 71
     2
 72
     1
 73
     1
 90
        2
 40
-0.6
 41
30.0
 62
     5
 63
     7
 74
     0
 91
        0
 64
     7
 65
   257
 75
     1
175
     1
 42
1.0
 92
        8
 66
     7
 43
1.0
 76
     1
 77
     6
 78
     2
 67
     7
 79
     5
170
     0
171
     0
290
     0
174
     0
 93
       13
 44
0.0
173
     0
291
     1
 45
0.0
1001
ACAD
1000
AcDbSavedByObjectVersion
1070
     0
  0
VISUALSTYLE
  5
A15F
102
{ACAD_XDICTIONARY
360
A1B9
102
}
102
{ACAD_REACTORS
330
A15D
102
}
330
A15D
100
AcDbVisualStyle
  2
FlatWithEdges
 70
     1
 71
     2
 72
     1
 73
     1
 90
        2
 40
-0.6
 41
30.0
 62
     5
 63
     7
 74
     1
 91
        0
 64
     7
 65
   257
 75
     1
175
     1
 42
1.0
 92
        0
 66
   257
 43
1.0
 76
     1
 77
     6
 78
     2
 67
     7
 79
     5
170
     0
171
     0
290
     0
174
     0
 93
       13
 44
0.0
173
     0
291
     1
 45
0.0
1001
ACAD
1000
AcDbSavedByObjectVersion
1070
     0
  0
VISUALSTYLE
  5
A160
102
{ACAD_XDICTIONARY
360
A1BB
102
}
102
{ACAD_REACTORS
330
A15D
102
}
330
A15D
100
AcDbVisualStyle
  2
Gouraud
 70
     2
 71
     2
 72
     2
 73
     1
 90
        2
 40
-0.6
 41
30.0
 62
     5
 63
     7
 74
     0
 91
        0
 64
     7
 65
   257
 75
     1
175
     1
 42
1.0
 92
        0
 66
     7
 43
1.0
 76
     1
 77
     6
 78
     2
 67
     7
 79
     5
170
     0
171
     0
290
     0
174
     0
 93
       13
 44
0.0
173
     0
291
     1
 45
0.0
1001
ACAD
1000
AcDbSavedByObjectVersion
1070
     0
  0
VISUALSTYLE
  5
A161
102
{ACAD_XDICTIONARY
360
A1BD
102
}
102
{ACAD_REACTORS
330
A15D
102
}
330
A15D
100
AcDbVisualStyle
  2
GouraudWithEdges
 70
     3
 71
     2
 72
     2
 73
     1
 90
        2
 40
-0.6
 41
30.0
 62
     5
 63
     7
 74
     1
 91
        0
 64
     7
 65
   257
 75
     1
175
     1
 42
1.0
 92
        0
 66
   257
 43
1.0
 76
     1
 77
     6
 78
     2
 67
     7
 79
     5
170
     0
171
     0
290
     0
174
     0
 93
       13
 44
0.0
173
     0
291
     1
 45
0.0
1001
ACAD
1000
AcDbSavedByObjectVersion
1070
     0
  0
VISUALSTYLE
  5
A165
102
{ACAD_XDICTIONARY
360
A1C5
102
}
102
{ACAD_REACTORS
330
A15D
102
}
330
A15D
100
AcDbVisualStyle
  2
Hidden
 70
     6
 71
     1
 72
     2
 73
     2
 90
        0
 40
-0.6
 41
-30.0
 62
     5
 63
     7
 74
     2
 91
        2
 64
     7
 65
   257
 75
     2
175
     1
 42
40.0
 92
        0
 66
   257
 43
1.0
 76
     1
 77
     6
 78
     2
 67
     7
 79
     3
170
     0
171
     0
290
     0
174
     0
 93
        1
 44
0.0
173
     0
291
     0
 45
0.0
1001
ACAD
1000
AcDbSavedByObjectVersion
1070
     0
  0
VISUALSTYLE
  5
A173
102
{ACAD_XDICTIONARY
360
A1E1
102
}
102
{ACAD_REACTORS
330
A15D
102
}
330
A15D
100
AcDbVisualStyle
  2
JitterOff
 70
    20
 71
     2
 72
     2
 73
     0
 90
        0
 40
-0.6
 41
-30.0
 62
     5
 63
     7
 74
     1
 91
        4
 64
     7
 65
   257
 75
     1
175
     1
 42
1.0
 92
       10
 66
     7
 43
1.0
 76
     1
 77
     6
 78
     2
 67
     7
 79
     5
170
     0
171
     0
290
     0
174
     0
 93
        1
 44
0.0
173
     0
291
     1
 45
0.0
1001
ACAD
1000
AcDbSavedByObjectVersion
1070
     0
  0
VISUALSTYLE
  5
A16B
102
{ACAD_XDICTIONARY
360
A1D1
102
}
102
{ACAD_REACTORS
330
A15D
102
}
330
A15D
100
AcDbVisualStyle
  2
Linepattern
 70
    14
 71
     2
 72
     2
 73
     0
 90
        0
 40
-0.6
 41
-30.0
 62
     5
 63
     7
 74
     1
 91
        4
 64
     7
 65
   257
 75
     7
175
     7
 42
1.0
 92
        8
 66
     7
 43
1.0
 76
     1
 77
     6
 78
     2
 67
     7
 79
     5
170
     0
171
     0
290
     0
174
     0
 93
        1
 44
0.0
173
     0
291
     1
 45
0.0
1001
ACAD
1000
AcDbSavedByObjectVersion
1070
     0
  0
VISUALSTYLE
  5
A174
102
{ACAD_XDICTIONARY
360
A1E3
102
}
102
{ACAD_REACTORS
330
A15D
102
}
330
A15D
100
AcDbVisualStyle
  2
OverhangOff
 70
    21
 71
     2
 72
     2
 73
     0
 90
        0
 40
-0.6
 41
-30.0
 62
     5
 63
     7
 74
     1
 91
        4
 64
     7
 65
   257
 75
     1
175
     1
 42
1.0
 92
        9
 66
     7
 43
1.0
 76
     1
 77
     6
 78
     2
 67
     7
 79
     5
170
     0
171
     0
290
     0
174
     0
 93
        1
 44
0.0
173
     0
291
     1
 45
0.0
1001
ACAD
1000
AcDbSavedByObjectVersion
1070
     0
  0
VISUALSTYLE
  5
A167
102
{ACAD_XDICTIONARY
360
A1C9
102
}
102
{ACAD_REACTORS
330
A15D
102
}
330
A15D
100
AcDbVisualStyle
  2
Realistic
 70
     8
 71
     2
 72
     3
 73
     0
 90
        2
 40
-0.6
 41
30.0
 62
     5
 63
     7
 74
     0
 91
        0
 64
     7
 65
   257
 75
     1
175
     1
 42
1.0
 92
        8
 66
   257
 43
1.0
 76
     1
 77
     6
 78
     2
 67
     7
 79
     3
170
     0
171
     0
290
     0
174
     0
 93
       13
 44
0.0
173
     0
291
     0
 45
0.0
1001
ACAD
1000
AcDbSavedByObjectVersion
1070
     0
  0
VISUALSTYLE
  5
A172
102
{ACAD_XDICTIONARY
360
A1DF
102
}
102
{ACAD_REACTORS
330
A15D
102
}
330
A15D
100
AcDbVisualStyle
  2
Shaded
 70
    27
 71
     2
 72
     2
 73
     1
 90
        2
 40
-0.6
 41
30.0
 62
     5
 63
     7
 74
     0
 91
        4
 64
     7
 65
   257
 75
     1
175
     1
 42
1.0
 92
        8
 66
   257
 43
1.0
 76
     1
 77
     6
 78
     2
 67
     8
 79
     3
170
     0
171
     0
290
     0
174
     0
 93
        5
 44
0.0
173
     0
291
     0
 45
0.0
1001
ACAD
1000
AcDbSavedByObjectVersion
1070
     0
  0
VISUALSTYLE
  5
A171
102
{ACAD_XDICTIONARY
360
A1DD
102
}
102
{ACAD_REACTORS
330
A15D
102
}
330
A15D
100
AcDbVisualStyle
  2
Shaded with edges
 70
    26
 71
     2
 72
     2
 73
     1
 90
        2
 40
-0.6
 41
30.0
 62
     5
 63
     7
 74
     1
 91
       10
 64
     7
 65
   257
 75
     2
175
     1
 42
1.0
 92
        8
 66
   257
 43
1.0
 76
     1
 77
     6
 78
     2
 67
     7
 79
     3
170
     0
171
     0
290
     0
174
     0
 93
        5
 44
0.0
173
     0
291
     0
 45
0.0
1001
ACAD
1000
AcDbSavedByObjectVersion
1070
     0
  0
VISUALSTYLE
  5
A16E
102
{ACAD_XDICTIONARY
360
A1D7
102
}
102
{ACAD_REACTORS
330
A15D
102
}
330
A15D
100
AcDbVisualStyle
  2
Shades of Gray
 70
    23
 71
     2
 72
     2
 73
     3
 90
        0
 40
-0.6
 41
-30.0
 62
     5
 63
     7
 74
     2
 91
        2
 64
     7
 65
     7
 75
     1
175
     1
 42
40.0
 92
        8
 66
     7
 43
1.0
 76
     1
 77
     6
 78
     2
 67
     7
 79
     3
170
     0
171
     0
290
     0
174
     0
 93
        1
 44
0.0
173
     0
291
     0
 45
0.0
1001
ACAD
1000
AcDbSavedByObjectVersion
1070
     0
  0
VISUALSTYLE
  5
A16F
102
{ACAD_XDICTIONARY
360
A1D9
102
}
102
{ACAD_REACTORS
330
A15D
102
}
330
A15D
100
AcDbVisualStyle
  2
Sketchy
 70
    24
 71
     1
 72
     2
 73
     2
 90
        0
 40
-0.6
 41
-30.0
 62
     5
 63
     7
 74
     2
 91
        2
 64
     7
 65
     7
 75
     1
175
     1
 42
40.0
 92
       11
 66
     7
 43
1.0
 76
     1
 77
     6
 78
     2
 67
     7
 79
     6
170
     0
171
     0
290
     0
174
     0
 93
        1
 44
0.0
173
     0
291
     0
 45
0.0
1001
ACAD
1000
AcDbSavedByObjectVersion
1070
     0
  0
VISUALSTYLE
  5
A16A
102
{ACAD_XDICTIONARY
360
A1CF
102
}
102
{ACAD_REACTORS
330
A15D
102
}
330
A15D
100
AcDbVisualStyle
  2
Thicken
 70
    13
 71
     2
 72
     2
 73
     0
 90
        0
 40
-0.6
 41
-30.0
 62
     5
 63
     7
 74
     1
 91
        4
 64
     7
 65
   257
 75
     1
175
     1
 42
1.0
 92
       12
 66
     7
 43
1.0
 76
     1
 77
     6
 78
     2
 67
     7
 79
     5
170
     0
171
     0
290
     0
174
     0
 93
        1
 44
0.0
173
     0
291
     1
 45
0.0
1001
ACAD
1000
AcDbSavedByObjectVersion
1070
     0
  0
VISUALSTYLE
  5
A164
102
{ACAD_XDICTIONARY
360
A1C3
102
}
102
{ACAD_REACTORS
330
A15D
102
}
330
A15D
100
AcDbVisualStyle
  2
Wireframe
 70
     5
 71
     0
 72
     2
 73
     0
 90
        0
 40
-0.6
 41
-30.0
 62
     5
 63
     7
 74
     1
 91
        4
 64
     7
 65
   257
 75
     1
175
     1
 42
1.0
 92
        0
 66
   257
 43
1.0
 76
     1
 77
     6
 78
     2
 67
     7
 79
     3
170
     0
171
     0
290
     0
174
     0
 93
        1
 44
0.0
173
     0
291
     0
 45
0.0
1001
ACAD
1000
AcDbSavedByObjectVersion
1070
     0
  0
VISUALSTYLE
  5
A170
102
{ACAD_XDICTIONARY
360
A1DB
102
}
102
{ACAD_REACTORS
330
A15D
102
}
330
A15D
100
AcDbVisualStyle
  2
X-Ray
 70
    25
 71
     2
 72
     2
 73
     1
 90
        1
 40
0.5
 41
-30.0
 62
     5
 63
     7
 74
     1
 91
        0
 64
     7
 65
   257
 75
     1
175
     1
 42
1.0
 92
        8
 66
     7
 43
1.0
 76
     1
 77
     6
 78
     2
 67
     7
 79
     3
170
     0
171
     0
290
     0
174
     0
 93
       13
 44
0.0
173
     0
291
     0
 45
0.0
1001
ACAD
1000
AcDbSavedByObjectVersion
1070
     0
  0
DICTIONARYVAR
  5
A1AA
102
{ACAD_REACTORS
330
A1A5
102
}
330
A1A5
100
DictionaryVariables
280
     0
  1
1:1
  0
DICTIONARYVAR
  5
A1A7
102
{ACAD_REACTORS
330
A1A5
102
}
330
A1A5
100
DictionaryVariables
280
     0
  1
STANDARD
  0
DICTIONARYVAR
  5
A1A6
102
{ACAD_REACTORS
330
A1A5
102
}
330
A1A5
100
DictionaryVariables
280
     0
  1
STANDARD
  0
DICTIONARYVAR
  5
A1A8
102
{ACAD_REACTORS
330
A1A5
102
}
330
A1A5
100
DictionaryVariables
280
     0
  1
Imperial24
  0
DICTIONARYVAR
  5
A1A9
102
{ACAD_REACTORS
330
A1A5
102
}
330
A1A5
100
DictionaryVariables
280
     0
  1
Imperial24
  0
DICTIONARYVAR
  5
A1AD
102
{ACAD_REACTORS
330
A1A5
102
}
330
A1A5
100
DictionaryVariables
280
     0
  1
1
  0
DICTIONARYVAR
  5
A1AC
102
{ACAD_REACTORS
330
A1A5
102
}
330
A1A5
100
DictionaryVariables
280
     0
  1
0
  0
DICTIONARYVAR
  5
A1AB
102
{ACAD_REACTORS
330
A1A5
102
}
330
A1A5
100
DictionaryVariables
280
     0
  1
127
  0
DICTIONARYVAR
  5
A1AE
102
{ACAD_REACTORS
330
A1A5
102
}
330
A1A5
100
DictionaryVariables
280
     0
  1
2
  0
DICTIONARY
  5
A1EB
330
A190
100
AcDbDictionary
280
     1
281
     1
  3
ACAD_XREC_ROUNDTRIP
360
A1EC
  0
DICTIONARY
  5
A1ED
330
A191
100
AcDbDictionary
280
     1
281
     1
  3
ACAD_XREC_ROUNDTRIP
360
A1EE
  0
DICTIONARY
  5
A1EF
330
A192
100
AcDbDictionary
280
     1
281
     1
  3
ACAD_XREC_ROUNDTRIP
360
A1F0
  0
DICTIONARY
  5
A14E
330
A14D
100
AcDbDictionary
280
     1
281
     1
  3
ACAD_XREC_ROUNDTRIP
360
A1B5
  3
BUMPTILE
360
A150
  3
DIFFUSETILE
360
A14F
  3
OPACITYTILE
360
A153
  3
REFLECTIONTILE
360
A152
  3
REFRACTIONTILE
360
A154
  3
SPECULARTILE
360
A151
  0
DICTIONARY
  5
A146
330
A145
100
AcDbDictionary
280
     1
281
     1
  3
ACAD_XREC_ROUNDTRIP
360
A1B4
  3
BUMPTILE
360
A148
  3
DIFFUSETILE
360
A147
  3
OPACITYTILE
360
A14B
  3
REFLECTIONTILE
360
A14A
  3
REFRACTIONTILE
360
A14C
  3
SPECULARTILE
360
A149
  0
DICTIONARY
  5
A156
330
A155
100
AcDbDictionary
280
     1
281
     1
  3
ACAD_XREC_ROUNDTRIP
360
A1B6
  3
BUMPTILE
360
A158
  3
DIFFUSETILE
360
A157
  3
OPACITYTILE
360
A15B
  3
REFLECTIONTILE
360
A15A
  3
REFRACTIONTILE
360
A15C
  3
SPECULARTILE
360
A159
  0
DICTIONARY
  5
A1E9
330
A18E
100
AcDbDictionary
280
     1
281
     1
  3
ACAD_XREC_ROUNDTRIP
360
A1EA
  0
DICTIONARY
  5
A1B0
330
A178
100
AcDbDictionary
280
     1
281
     1
  3
ACAD_ROUNDTRIP_2008_TABLESTYLE_CELLSTYLEMAP
360
A1B1
  3
ACAD_XREC_ROUNDTRIP
360
A1E7
  0
DICTIONARY
  5
A1C1
330
A163
100
AcDbDictionary
280
     1
281
     1
  3
ACAD_XREC_ROUNDTRIP
360
A1C2
  0
DICTIONARY
  5
A1BF
330
A162
100
AcDbDictionary
280
     1
281
     1
  3
ACAD_XREC_ROUNDTRIP
360
A1C0
  0
DICTIONARY
  5
A1CD
330
A169
100
AcDbDictionary
280
     1
281
     1
  3
ACAD_XREC_ROUNDTRIP
360
A1CE
  0
DICTIONARY
  5
A1D5
330
A16D
100
AcDbDictionary
280
     1
281
     1
  3
ACAD_XREC_ROUNDTRIP
360
A1D6
  0
DICTIONARY
  5
A1C7
330
A166
100
AcDbDictionary
280
     1
281
     1
  3
ACAD_XREC_ROUNDTRIP
360
A1C8
  0
DICTIONARY
  5
A1CB
330
A168
100
AcDbDictionary
280
     1
281
     1
  3
ACAD_XREC_ROUNDTRIP
360
A1CC
  0
DICTIONARY
  5
A1E5
330
A175
100
AcDbDictionary
280
     1
281
     1
  3
ACAD_XREC_ROUNDTRIP
360
A1E6
  0
DICTIONARY
  5
A1D3
330
A16C
100
AcDbDictionary
280
     1
281
     1
  3
ACAD_XREC_ROUNDTRIP
360
A1D4
  0
DICTIONARY
  5
A1B7
330
A15E
100
AcDbDictionary
280
     1
281
     1
  3
ACAD_XREC_ROUNDTRIP
360
A1B8
  0
DICTIONARY
  5
A1B9
330
A15F
100
AcDbDictionary
280
     1
281
     1
  3
ACAD_XREC_ROUNDTRIP
360
A1BA
  0
DICTIONARY
  5
A1BB
330
A160
100
AcDbDictionary
280
     1
281
     1
  3
ACAD_XREC_ROUNDTRIP
360
A1BC
  0
DICTIONARY
  5
A1BD
330
A161
100
AcDbDictionary
280
     1
281
     1
  3
ACAD_XREC_ROUNDTRIP
360
A1BE
  0
DICTIONARY
  5
A1C5
330
A165
100
AcDbDictionary
280
     1
281
     1
  3
ACAD_XREC_ROUNDTRIP
360
A1C6
  0
DICTIONARY
  5
A1E1
330
A173
100
AcDbDictionary
280
     1
281
     1
  3
ACAD_XREC_ROUNDTRIP
360
A1E2
  0
DICTIONARY
  5
A1D1
330
A16B
100
AcDbDictionary
280
     1
281
     1
  3
ACAD_XREC_ROUNDTRIP
360
A1D2
  0
DICTIONARY
  5
A1E3
330
A174
100
AcDbDictionary
280
     1
281
     1
  3
ACAD_XREC_ROUNDTRIP
360
A1E4
  0
DICTIONARY
  5
A1C9
330
A167
100
AcDbDictionary
280
     1
281
     1
  3
ACAD_XREC_ROUNDTRIP
360
A1CA
  0
DICTIONARY
  5
A1DF
330
A172
100
AcDbDictionary
280
     1
281
     1
  3
ACAD_XREC_ROUNDTRIP
360
A1E0
  0
DICTIONARY
  5
A1DD
330
A171
100
AcDbDictionary
280
     1
281
     1
  3
ACAD_XREC_ROUNDTRIP
360
A1DE
  0
DICTIONARY
  5
A1D7
330
A16E
100
AcDbDictionary
280
     1
281
     1
  3
ACAD_XREC_ROUNDTRIP
360
A1D8
  0
DICTIONARY
  5
A1D9
330
A16F
100
AcDbDictionary
280
     1
281
     1
  3
ACAD_XREC_ROUNDTRIP
360
A1DA
  0
DICTIONARY
  5
A1CF
330
A16A
100
AcDbDictionary
280
     1
281
     1
  3
ACAD_XREC_ROUNDTRIP
360
A1D0
  0
DICTIONARY
  5
A1C3
330
A164
100
AcDbDictionary
280
     1
281
     1
  3
ACAD_XREC_ROUNDTRIP
360
A1C4
  0
DICTIONARY
  5
A1DB
330
A170
100
AcDbDictionary
280
     1
281
     1
  3
ACAD_XREC_ROUNDTRIP
360
A1DC
  0
XRECORD
  5
A1EC
102
{ACAD_REACTORS
330
A1EB
102
}
330
A1EB
100
AcDbXrecord
280
     1
102
DISPLAYNAME
  1
Imperial24
102
FLAGS
 90
        0
  0
XRECORD
  5
A1EE
102
{ACAD_REACTORS
330
A1ED
102
}
330
A1ED
100
AcDbXrecord
280
     1
102
SHADEPLOT
 70
     0
102
SHADEPLOTRESLEVEL
 70
     2
102
SHADEPLOTCUSTOMDPI
 70
   300
  0
XRECORD
  5
A1F0
102
{ACAD_REACTORS
330
A1EF
102
}
330
A1EF
100
AcDbXrecord
280
     1
102
SHADEPLOT
 70
     0
102
SHADEPLOTRESLEVEL
 70
     2
102
SHADEPLOTCUSTOMDPI
 70
   300
  0
XRECORD
  5
A1B5
102
{ACAD_REACTORS
330
A14E
102
}
330
A14E
100
AcDbXrecord
280
     1
102
MATERIAL
148
0.0
149
0.0
149
0.0
 93
        0
 94
      127
282
     0
 72
     0
 77
     0
171
     0
175
     0
179
     0
273
     0
  0
XRECORD
  5
A150
102
{ACAD_REACTORS
330
A14E
102
}
330
A14E
100
AcDbXrecord
280
     1
270
     1
271
     1
  0
XRECORD
  5
A14F
102
{ACAD_REACTORS
330
A14E
102
}
330
A14E
100
AcDbXrecord
280
     1
270
     1
271
     1
  0
XRECORD
  5
A153
102
{ACAD_REACTORS
330
A14E
102
}
330
A14E
100
AcDbXrecord
280
     1
270
     1
271
     1
  0
XRECORD
  5
A152
102
{ACAD_REACTORS
330
A14E
102
}
330
A14E
100
AcDbXrecord
280
     1
270
     1
271
     1
  0
XRECORD
  5
A154
102
{ACAD_REACTORS
330
A14E
102
}
330
A14E
100
AcDbXrecord
280
     1
270
     1
271
     1
  0
XRECORD
  5
A151
102
{ACAD_REACTORS
330
A14E
102
}
330
A14E
100
AcDbXrecord
280
     1
270
     1
271
     1
  0
XRECORD
  5
A1B4
102
{ACAD_REACTORS
330
A146
102
}
330
A146
100
AcDbXrecord
280
     1
102
MATERIAL
148
0.0
149
0.0
149
0.0
 93
        0
 94
      127
282
     0
 72
     0
 77
     0
171
     0
175
     0
179
     0
273
     0
  0
XRECORD
  5
A148
102
{ACAD_REACTORS
330
A146
102
}
330
A146
100
AcDbXrecord
280
     1
270
     1
271
     1
  0
XRECORD
  5
A147
102
{ACAD_REACTORS
330
A146
102
}
330
A146
100
AcDbXrecord
280
     1
270
     1
271
     1
  0
XRECORD
  5
A14B
102
{ACAD_REACTORS
330
A146
102
}
330
A146
100
AcDbXrecord
280
     1
270
     1
271
     1
  0
XRECORD
  5
A14A
102
{ACAD_REACTORS
330
A146
102
}
330
A146
100
AcDbXrecord
280
     1
270
     1
271
     1
  0
XRECORD
  5
A14C
102
{ACAD_REACTORS
330
A146
102
}
330
A146
100
AcDbXrecord
280
     1
270
     1
271
     1
  0
XRECORD
  5
A149
102
{ACAD_REACTORS
330
A146
102
}
330
A146
100
AcDbXrecord
280
     1
270
     1
271
     1
  0
XRECORD
  5
A1B6
102
{ACAD_REACTORS
330
A156
102
}
330
A156
100
AcDbXrecord
280
     1
102
MATERIAL
148
0.0
149
0.0
149
0.0
 93
        0
 94
      127
282
     0
 72
     0
 77
     0
171
     0
175
     0
179
     0
273
     0
  0
XRECORD
  5
A158
102
{ACAD_REACTORS
330
A156
102
}
330
A156
100
AcDbXrecord
280
     1
270
     1
271
     1
  0
XRECORD
  5
A157
102
{ACAD_REACTORS
330
A156
102
}
330
A156
100
AcDbXrecord
280
     1
270
     1
271
     1
  0
XRECORD
  5
A15B
102
{ACAD_REACTORS
330
A156
102
}
330
A156
100
AcDbXrecord
280
     1
270
     1
271
     1
  0
XRECORD
  5
A15A
102
{ACAD_REACTORS
330
A156
102
}
330
A156
100
AcDbXrecord
280
     1
270
     1
271
     1
  0
XRECORD
  5
A15C
102
{ACAD_REACTORS
330
A156
102
}
330
A156
100
AcDbXrecord
280
     1
270
     1
271
     1
  0
XRECORD
  5
A159
102
{ACAD_REACTORS
330
A156
102
}
330
A156
100
AcDbXrecord
280
     1
270
     1
271
     1
  0
XRECORD
  5
A1EA
102
{ACAD_REACTORS
330
A1E9
102
}
330
A1E9
100
AcDbXrecord
280
     1
102
DISPLAYNAME
  1
Imperial24
102
FLAGS
 90
        0
  0
CELLSTYLEMAP
  5
A1B1
102
{ACAD_REACTORS
330
A1B0
102
}
330
A1B0
100
AcDbCellStyleMap
 90
        3
300
CELLSTYLE
  1
TABLEFORMAT_BEGIN
 90
        5
170
     1
 91
        0
 92
    32768
 62
   257
 93
        1
300
CONTENTFORMAT
  1
CONTENTFORMAT_BEGIN
 90
        0
 91
        0
 92
      512
 93
        0
300

 40
0.0
140
1.0
 94
        5
 62
     0
340
9D85
144
0.25
309
CONTENTFORMAT_END
171
     0
 94
        0
309
TABLEFORMAT_END
  1
CELLSTYLE_BEGIN
 90
        1
 91
        1
300
_TITLE
309
CELLSTYLE_END
300
CELLSTYLE
  1
TABLEFORMAT_BEGIN
 90
        5
170
     1
 91
        0
 92
        0
 62
   257
 93
        1
300
CONTENTFORMAT
  1
CONTENTFORMAT_BEGIN
 90
        0
 91
        0
 92
      512
 93
        0
300

 40
0.0
140
1.0
 94
        5
 62
     0
340
9D85
144
0.18
309
CONTENTFORMAT_END
171
     0
 94
        0
309
TABLEFORMAT_END
  1
CELLSTYLE_BEGIN
 90
        2
 91
        1
300
_HEADER
309
CELLSTYLE_END
300
CELLSTYLE
  1
TABLEFORMAT_BEGIN
 90
        5
170
     1
 91
        0
 92
        0
 62
   257
 93
        1
300
CONTENTFORMAT
  1
CONTENTFORMAT_BEGIN
 90
        0
 91
        0
 92
      512
 93
        0
300

 40
0.0
140
1.0
 94
        2
 62
     0
340
9D85
144
0.18
309
CONTENTFORMAT_END
171
     0
 94
        0
309
TABLEFORMAT_END
  1
CELLSTYLE_BEGIN
 90
        3
 91
        2
300
_DATA
309
CELLSTYLE_END
  0
XRECORD
  5
A1E7
102
{ACAD_REACTORS
330
A1B0
102
}
330
A1B0
100
AcDbXrecord
280
     1
102
ACAD_ROUNDTRIP_PRE2007_TABLESTYLE
 90
      512
 91
        0
  1

 92
      512
 93
        0
  2

 94
      512
 95
        0
  3

  0
XRECORD
  5
A1C2
102
{ACAD_REACTORS
330
A1C1
102
}
330
A1C1
100
AcDbXrecord
280
     1
102
RTVSPost2010Prop28
280
     1
102
RTVSPost2010PropOp28
 70
     1
102
RTVSPost2010Prop29
280
     1
102
RTVSPost2010PropOp29
 70
     1
102
RTVSPost2010Prop30
280
     0
102
RTVSPost2010PropOp30
 70
     1
102
RTVSPost2010Prop31
280
     0
102
RTVSPost2010PropOp31
 70
     1
102
RTVSPost2010Prop32
280
     0
102
RTVSPost2010PropOp32
 70
     1
102
RTVSPost2010Prop33
280
     0
102
RTVSPost2010PropOp33
 70
     1
102
RTVSPost2010Prop34
280
     0
102
RTVSPost2010PropOp34
 70
     1
102
RTVSPost2010Prop35
280
     0
102
RTVSPost2010PropOp35
 70
     1
102
RTVSPost2010Prop36
280
     0
102
RTVSPost2010PropOp36
 70
     1
102
RTVSPost2010Prop37
 90
       50
102
RTVSPost2010PropOp37
 70
     1
102
RTVSPost2010Prop38
140
0.0
102
RTVSPost2010PropOp38
 70
     1
102
RTVSPost2010Prop39
140
1.0
102
RTVSPost2010PropOp39
 70
     1
102
RTVSPost2010Prop40
 90
        0
102
RTVSPost2010PropOp40
 70
     1
102
RTVSPost2010Prop41ColorIndex
 90
       18
102
RTVSPost2010Prop41ColorRGB
 90
        0
102
RTVSPost2010PropOp41
 70
     1
102
RTVSPost2010Prop42
 90
       50
102
RTVSPost2010PropOp42
 70
     1
102
RTVSPost2010Prop43
 90
        3
102
RTVSPost2010PropOp43
 70
     1
102
RTVSPost2010Prop44ColorIndex
 90
        5
102
RTVSPost2010Prop44ColorRGB
 90
      255
102
RTVSPost2010PropOp44
 70
     1
102
RTVSPost2010Prop45
280
     0
102
RTVSPost2010PropOp45
 70
     1
102
RTVSPost2010Prop46
 90
       50
102
RTVSPost2010PropOp46
 70
     1
102
RTVSPost2010Prop47
 90
       50
102
RTVSPost2010PropOp47
 70
     1
102
RTVSPost2010Prop48
 90
       50
102
RTVSPost2010PropOp48
 70
     1
102
RTVSPost2010Prop49
280
     0
102
RTVSPost2010PropOp49
 70
     1
102
RTVSPost2010Prop50
 90
       50
102
RTVSPost2010PropOp50
 70
     1
102
RTVSPost2010Prop51ColorIndex
 90
      256
102
RTVSPost2010Prop51ColorRGB
 90
-16777216
102
RTVSPost2010PropOp51
 70
     0
102
RTVSPost2010Prop52
140
1.0
102
RTVSPost2010PropOp52
 70
     0
102
RTVSPost2010Prop53
 90
        2
102
RTVSPost2010PropOp53
 70
     1
102
RTVSPost2010Prop54
  1
strokes_ogs.tif
102
RTVSPost2010PropOp54
 70
     1
102
RTVSPost2010Prop55
280
     0
102
RTVSPost2010PropOp55
 70
     1
102
RTVSPost2010Prop56
140
1.0
102
RTVSPost2010PropOp56
 70
     1
102
RTVSPost2010Prop57
140
1.0
102
RTVSPost2010PropOp57
 70
     1
102
RTVSPropertyOp0
 70
     1
102
RTVSPropertyOp1
 70
     1
102
RTVSPropertyOp2
 70
     1
102
RTVSPropertyOp3
 70
     1
102
RTVSPropertyOp4
 70
     1
102
RTVSPropertyOp5
 70
     1
102
RTVSPropertyOp6
 70
     1
102
RTVSPropertyOp7
 70
     1
102
RTVSPropertyOp8
 70
     1
102
RTVSPropertyOp9
 70
     1
102
RTVSPropertyOp10
 70
     1
102
RTVSPropertyOp11
 70
     1
102
RTVSPropertyOp12
 70
     1
102
RTVSPropertyOp13
 70
     1
102
RTVSPropertyOp14
 70
     1
102
RTVSPropertyOp15
 70
     1
102
RTVSPropertyOp16
 70
     1
102
RTVSPropertyOp17
 70
     1
102
RTVSPropertyOp18
 70
     1
102
RTVSPropertyOp19
 70
     1
102
RTVSPropertyOp20
 70
     1
102
RTVSPropertyOp21
 70
     1
102
RTVSPropertyOp22
 70
     1
102
RTVSPropertyOp23
 70
     1
102
RTVSPropertyOp24
 70
     1
102
RTVSPropertyOp25
 70
     1
102
RTVSPropertyOp26
 70
     1
102
RTVSPropertyOp27
 70
     1
102
RTVSPropertyOp28
 70
     1
102
RTVSPropertyOp29
 70
     1
102
RTVSPropertyOp30
 70
     1
102
RTVSPropertyOp31
 70
     1
102
RTVSPropertyOp32
 70
     1
102
RTVSPropertyOp33
 70
     1
102
RTVSPropertyOp34
 70
     1
102
RTVSPropertyOp35
 70
     1
102
RTVSPropertyOp36
 70
     1
102
RTVSPropertyOp37
 70
     1
102
RTVSPropertyOp38
 70
     1
102
RTVSPropertyOp39
 70
     1
102
RTVSPropertyOp40
 70
     1
102
RTVSPropertyOp41
 70
     1
102
RTVSPropertyOp42
 70
     1
102
RTVSPropertyOp43
 70
     1
102
RTVSPropertyOp44
 70
     1
102
RTVSPropertyOp45
 70
     1
102
RTVSPropertyOp46
 70
     1
102
RTVSPropertyOp47
 70
     1
102
RTVSPropertyOp48
 70
     1
102
RTVSPropertyOp49
 70
     1
102
RTVSPropertyOp50
 70
     1
102
RTVSPropertyOp51
 70
     0
102
RTVSPropertyOp52
 70
     0
102
RTVSPropertyOp53
 70
     1
102
RTVSPropertyOp54
 70
     1
102
RTVSPropertyOp55
 70
     1
102
RTVSPropertyOp56
 70
     1
102
RTVSPropertyOp57
 70
     1
102
RTVSPropertyOp58
 70
     1
102
RTVSPropertyOp59
 70
     1
102
RTVSPropertyOp60
 70
     1
102
RTVSPropertyOp61
 70
     1
102
RTVSPropertyOp62
 70
     1
  0
XRECORD
  5
A1C0
102
{ACAD_REACTORS
330
A1BF
102
}
330
A1BF
100
AcDbXrecord
280
     1
102
RTVSPost2010Prop28
280
     0
102
RTVSPost2010PropOp28
 70
     1
102
RTVSPost2010Prop29
280
     1
102
RTVSPost2010PropOp29
 70
     1
102
RTVSPost2010Prop30
280
     1
102
RTVSPost2010PropOp30
 70
     1
102
RTVSPost2010Prop31
280
     0
102
RTVSPost2010PropOp31
 70
     1
102
RTVSPost2010Prop32
280
     0
102
RTVSPost2010PropOp32
 70
     1
102
RTVSPost2010Prop33
280
     0
102
RTVSPost2010PropOp33
 70
     1
102
RTVSPost2010Prop34
280
     0
102
RTVSPost2010PropOp34
 70
     1
102
RTVSPost2010Prop35
280
     0
102
RTVSPost2010PropOp35
 70
     1
102
RTVSPost2010Prop36
280
     0
102
RTVSPost2010PropOp36
 70
     1
102
RTVSPost2010Prop37
 90
       50
102
RTVSPost2010PropOp37
 70
     1
102
RTVSPost2010Prop38
140
0.0
102
RTVSPost2010PropOp38
 70
     1
102
RTVSPost2010Prop39
140
1.0
102
RTVSPost2010PropOp39
 70
     1
102
RTVSPost2010Prop40
 90
        0
102
RTVSPost2010PropOp40
 70
     1
102
RTVSPost2010Prop41ColorIndex
 90
       18
102
RTVSPost2010Prop41ColorRGB
 90
        0
102
RTVSPost2010PropOp41
 70
     1
102
RTVSPost2010Prop42
 90
       50
102
RTVSPost2010PropOp42
 70
     1
102
RTVSPost2010Prop43
 90
        3
102
RTVSPost2010PropOp43
 70
     1
102
RTVSPost2010Prop44ColorIndex
 90
        5
102
RTVSPost2010Prop44ColorRGB
 90
      255
102
RTVSPost2010PropOp44
 70
     1
102
RTVSPost2010Prop45
280
     0
102
RTVSPost2010PropOp45
 70
     1
102
RTVSPost2010Prop46
 90
       50
102
RTVSPost2010PropOp46
 70
     1
102
RTVSPost2010Prop47
 90
       50
102
RTVSPost2010PropOp47
 70
     1
102
RTVSPost2010Prop48
 90
       50
102
RTVSPost2010PropOp48
 70
     1
102
RTVSPost2010Prop49
280
     0
102
RTVSPost2010PropOp49
 70
     1
102
RTVSPost2010Prop50
 90
       50
102
RTVSPost2010PropOp50
 70
     1
102
RTVSPost2010Prop51ColorIndex
 90
      256
102
RTVSPost2010Prop51ColorRGB
 90
-16777216
102
RTVSPost2010PropOp51
 70
     0
102
RTVSPost2010Prop52
140
1.0
102
RTVSPost2010PropOp52
 70
     0
102
RTVSPost2010Prop53
 90
        2
102
RTVSPost2010PropOp53
 70
     1
102
RTVSPost2010Prop54
  1
strokes_ogs.tif
102
RTVSPost2010PropOp54
 70
     1
102
RTVSPost2010Prop55
280
     0
102
RTVSPost2010PropOp55
 70
     1
102
RTVSPost2010Prop56
140
1.0
102
RTVSPost2010PropOp56
 70
     1
102
RTVSPost2010Prop57
140
1.0
102
RTVSPost2010PropOp57
 70
     1
102
RTVSPropertyOp0
 70
     1
102
RTVSPropertyOp1
 70
     1
102
RTVSPropertyOp2
 70
     1
102
RTVSPropertyOp3
 70
     1
102
RTVSPropertyOp4
 70
     1
102
RTVSPropertyOp5
 70
     1
102
RTVSPropertyOp6
 70
     1
102
RTVSPropertyOp7
 70
     1
102
RTVSPropertyOp8
 70
     1
102
RTVSPropertyOp9
 70
     1
102
RTVSPropertyOp10
 70
     1
102
RTVSPropertyOp11
 70
     1
102
RTVSPropertyOp12
 70
     1
102
RTVSPropertyOp13
 70
     1
102
RTVSPropertyOp14
 70
     1
102
RTVSPropertyOp15
 70
     1
102
RTVSPropertyOp16
 70
     1
102
RTVSPropertyOp17
 70
     1
102
RTVSPropertyOp18
 70
     1
102
RTVSPropertyOp19
 70
     1
102
RTVSPropertyOp20
 70
     1
102
RTVSPropertyOp21
 70
     1
102
RTVSPropertyOp22
 70
     1
102
RTVSPropertyOp23
 70
     1
102
RTVSPropertyOp24
 70
     1
102
RTVSPropertyOp25
 70
     1
102
RTVSPropertyOp26
 70
     1
102
RTVSPropertyOp27
 70
     1
102
RTVSPropertyOp28
 70
     1
102
RTVSPropertyOp29
 70
     1
102
RTVSPropertyOp30
 70
     1
102
RTVSPropertyOp31
 70
     1
102
RTVSPropertyOp32
 70
     1
102
RTVSPropertyOp33
 70
     1
102
RTVSPropertyOp34
 70
     1
102
RTVSPropertyOp35
 70
     1
102
RTVSPropertyOp36
 70
     1
102
RTVSPropertyOp37
 70
     1
102
RTVSPropertyOp38
 70
     1
102
RTVSPropertyOp39
 70
     1
102
RTVSPropertyOp40
 70
     1
102
RTVSPropertyOp41
 70
     1
102
RTVSPropertyOp42
 70
     1
102
RTVSPropertyOp43
 70
     1
102
RTVSPropertyOp44
 70
     1
102
RTVSPropertyOp45
 70
     1
102
RTVSPropertyOp46
 70
     1
102
RTVSPropertyOp47
 70
     1
102
RTVSPropertyOp48
 70
     1
102
RTVSPropertyOp49
 70
     1
102
RTVSPropertyOp50
 70
     1
102
RTVSPropertyOp51
 70
     0
102
RTVSPropertyOp52
 70
     0
102
RTVSPropertyOp53
 70
     1
102
RTVSPropertyOp54
 70
     1
102
RTVSPropertyOp55
 70
     1
102
RTVSPropertyOp56
 70
     1
102
RTVSPropertyOp57
 70
     1
102
RTVSPropertyOp58
 70
     1
102
RTVSPropertyOp59
 70
     1
102
RTVSPropertyOp60
 70
     1
102
RTVSPropertyOp61
 70
     1
102
RTVSPropertyOp62
 70
     1
  0
XRECORD
  5
A1CE
102
{ACAD_REACTORS
330
A1CD
102
}
330
A1CD
100
AcDbXrecord
280
     1
102
RTVSPost2010Prop28
280
     0
102
RTVSPost2010PropOp28
 70
     1
102
RTVSPost2010Prop29
280
     1
102
RTVSPost2010PropOp29
 70
     1
102
RTVSPost2010Prop30
280
     1
102
RTVSPost2010PropOp30
 70
     1
102
RTVSPost2010Prop31
280
     0
102
RTVSPost2010PropOp31
 70
     1
102
RTVSPost2010Prop32
280
     0
102
RTVSPost2010PropOp32
 70
     1
102
RTVSPost2010Prop33
280
     0
102
RTVSPost2010PropOp33
 70
     1
102
RTVSPost2010Prop34
280
     0
102
RTVSPost2010PropOp34
 70
     1
102
RTVSPost2010Prop35
280
     0
102
RTVSPost2010PropOp35
 70
     1
102
RTVSPost2010Prop36
280
     0
102
RTVSPost2010PropOp36
 70
     1
102
RTVSPost2010Prop37
 90
       50
102
RTVSPost2010PropOp37
 70
     1
102
RTVSPost2010Prop38
140
0.0
102
RTVSPost2010PropOp38
 70
     1
102
RTVSPost2010Prop39
140
1.0
102
RTVSPost2010PropOp39
 70
     1
102
RTVSPost2010Prop40
 90
        0
102
RTVSPost2010PropOp40
 70
     1
102
RTVSPost2010Prop41ColorIndex
 90
       18
102
RTVSPost2010Prop41ColorRGB
 90
        0
102
RTVSPost2010PropOp41
 70
     1
102
RTVSPost2010Prop42
 90
       50
102
RTVSPost2010PropOp42
 70
     1
102
RTVSPost2010Prop43
 90
        3
102
RTVSPost2010PropOp43
 70
     1
102
RTVSPost2010Prop44ColorIndex
 90
        5
102
RTVSPost2010Prop44ColorRGB
 90
      255
102
RTVSPost2010PropOp44
 70
     1
102
RTVSPost2010Prop45
280
     0
102
RTVSPost2010PropOp45
 70
     1
102
RTVSPost2010Prop46
 90
       50
102
RTVSPost2010PropOp46
 70
     1
102
RTVSPost2010Prop47
 90
       50
102
RTVSPost2010PropOp47
 70
     1
102
RTVSPost2010Prop48
 90
       50
102
RTVSPost2010PropOp48
 70
     1
102
RTVSPost2010Prop49
280
     0
102
RTVSPost2010PropOp49
 70
     1
102
RTVSPost2010Prop50
 90
       50
102
RTVSPost2010PropOp50
 70
     1
102
RTVSPost2010Prop51ColorIndex
 90
      256
102
RTVSPost2010Prop51ColorRGB
 90
-16777216
102
RTVSPost2010PropOp51
 70
     0
102
RTVSPost2010Prop52
140
1.0
102
RTVSPost2010PropOp52
 70
     0
102
RTVSPost2010Prop53
 90
        2
102
RTVSPost2010PropOp53
 70
     1
102
RTVSPost2010Prop54
  1
strokes_ogs.tif
102
RTVSPost2010PropOp54
 70
     1
102
RTVSPost2010Prop55
280
     0
102
RTVSPost2010PropOp55
 70
     1
102
RTVSPost2010Prop56
140
1.0
102
RTVSPost2010PropOp56
 70
     1
102
RTVSPost2010Prop57
140
1.0
102
RTVSPost2010PropOp57
 70
     1
102
RTVSPropertyOp0
 70
     1
102
RTVSPropertyOp1
 70
     1
102
RTVSPropertyOp2
 70
     1
102
RTVSPropertyOp3
 70
     1
102
RTVSPropertyOp4
 70
     1
102
RTVSPropertyOp5
 70
     1
102
RTVSPropertyOp6
 70
     1
102
RTVSPropertyOp7
 70
     1
102
RTVSPropertyOp8
 70
     1
102
RTVSPropertyOp9
 70
     1
102
RTVSPropertyOp10
 70
     1
102
RTVSPropertyOp11
 70
     1
102
RTVSPropertyOp12
 70
     1
102
RTVSPropertyOp13
 70
     1
102
RTVSPropertyOp14
 70
     1
102
RTVSPropertyOp15
 70
     1
102
RTVSPropertyOp16
 70
     1
102
RTVSPropertyOp17
 70
     1
102
RTVSPropertyOp18
 70
     1
102
RTVSPropertyOp19
 70
     1
102
RTVSPropertyOp20
 70
     1
102
RTVSPropertyOp21
 70
     1
102
RTVSPropertyOp22
 70
     1
102
RTVSPropertyOp23
 70
     1
102
RTVSPropertyOp24
 70
     1
102
RTVSPropertyOp25
 70
     1
102
RTVSPropertyOp26
 70
     1
102
RTVSPropertyOp27
 70
     1
102
RTVSPropertyOp28
 70
     1
102
RTVSPropertyOp29
 70
     1
102
RTVSPropertyOp30
 70
     1
102
RTVSPropertyOp31
 70
     1
102
RTVSPropertyOp32
 70
     1
102
RTVSPropertyOp33
 70
     1
102
RTVSPropertyOp34
 70
     1
102
RTVSPropertyOp35
 70
     1
102
RTVSPropertyOp36
 70
     1
102
RTVSPropertyOp37
 70
     1
102
RTVSPropertyOp38
 70
     1
102
RTVSPropertyOp39
 70
     1
102
RTVSPropertyOp40
 70
     1
102
RTVSPropertyOp41
 70
     1
102
RTVSPropertyOp42
 70
     1
102
RTVSPropertyOp43
 70
     1
102
RTVSPropertyOp44
 70
     1
102
RTVSPropertyOp45
 70
     1
102
RTVSPropertyOp46
 70
     1
102
RTVSPropertyOp47
 70
     1
102
RTVSPropertyOp48
 70
     1
102
RTVSPropertyOp49
 70
     1
102
RTVSPropertyOp50
 70
     1
102
RTVSPropertyOp51
 70
     0
102
RTVSPropertyOp52
 70
     0
102
RTVSPropertyOp53
 70
     1
102
RTVSPropertyOp54
 70
     1
102
RTVSPropertyOp55
 70
     1
102
RTVSPropertyOp56
 70
     1
102
RTVSPropertyOp57
 70
     1
102
RTVSPropertyOp58
 70
     1
102
RTVSPropertyOp59
 70
     1
102
RTVSPropertyOp60
 70
     1
102
RTVSPropertyOp61
 70
     1
102
RTVSPropertyOp62
 70
     1
  0
XRECORD
  5
A1D6
102
{ACAD_REACTORS
330
A1D5
102
}
330
A1D5
100
AcDbXrecord
280
     1
102
RTVSPost2010Prop28
280
     0
102
RTVSPost2010PropOp28
 70
     1
102
RTVSPost2010Prop29
280
     1
102
RTVSPost2010PropOp29
 70
     1
102
RTVSPost2010Prop30
280
     1
102
RTVSPost2010PropOp30
 70
     1
102
RTVSPost2010Prop31
280
     0
102
RTVSPost2010PropOp31
 70
     1
102
RTVSPost2010Prop32
280
     0
102
RTVSPost2010PropOp32
 70
     1
102
RTVSPost2010Prop33
280
     0
102
RTVSPost2010PropOp33
 70
     1
102
RTVSPost2010Prop34
280
     0
102
RTVSPost2010PropOp34
 70
     1
102
RTVSPost2010Prop35
280
     0
102
RTVSPost2010PropOp35
 70
     1
102
RTVSPost2010Prop36
280
     0
102
RTVSPost2010PropOp36
 70
     1
102
RTVSPost2010Prop37
 90
       50
102
RTVSPost2010PropOp37
 70
     1
102
RTVSPost2010Prop38
140
0.0
102
RTVSPost2010PropOp38
 70
     1
102
RTVSPost2010Prop39
140
1.0
102
RTVSPost2010PropOp39
 70
     1
102
RTVSPost2010Prop40
 90
        0
102
RTVSPost2010PropOp40
 70
     1
102
RTVSPost2010Prop41ColorIndex
 90
       18
102
RTVSPost2010Prop41ColorRGB
 90
        0
102
RTVSPost2010PropOp41
 70
     1
102
RTVSPost2010Prop42
 90
       50
102
RTVSPost2010PropOp42
 70
     1
102
RTVSPost2010Prop43
 90
        3
102
RTVSPost2010PropOp43
 70
     1
102
RTVSPost2010Prop44ColorIndex
 90
        5
102
RTVSPost2010Prop44ColorRGB
 90
      255
102
RTVSPost2010PropOp44
 70
     1
102
RTVSPost2010Prop45
280
     0
102
RTVSPost2010PropOp45
 70
     1
102
RTVSPost2010Prop46
 90
       50
102
RTVSPost2010PropOp46
 70
     1
102
RTVSPost2010Prop47
 90
       50
102
RTVSPost2010PropOp47
 70
     1
102
RTVSPost2010Prop48
 90
       50
102
RTVSPost2010PropOp48
 70
     1
102
RTVSPost2010Prop49
280
     0
102
RTVSPost2010PropOp49
 70
     1
102
RTVSPost2010Prop50
 90
       50
102
RTVSPost2010PropOp50
 70
     1
102
RTVSPost2010Prop51ColorIndex
 90
      256
102
RTVSPost2010Prop51ColorRGB
 90
-16777216
102
RTVSPost2010PropOp51
 70
     0
102
RTVSPost2010Prop52
140
1.0
102
RTVSPost2010PropOp52
 70
     0
102
RTVSPost2010Prop53
 90
        2
102
RTVSPost2010PropOp53
 70
     1
102
RTVSPost2010Prop54
  1
strokes_ogs.tif
102
RTVSPost2010PropOp54
 70
     1
102
RTVSPost2010Prop55
280
     0
102
RTVSPost2010PropOp55
 70
     1
102
RTVSPost2010Prop56
140
1.0
102
RTVSPost2010PropOp56
 70
     1
102
RTVSPost2010Prop57
140
1.0
102
RTVSPost2010PropOp57
 70
     1
102
RTVSPropertyOp0
 70
     1
102
RTVSPropertyOp1
 70
     1
102
RTVSPropertyOp2
 70
     1
102
RTVSPropertyOp3
 70
     1
102
RTVSPropertyOp4
 70
     1
102
RTVSPropertyOp5
 70
     1
102
RTVSPropertyOp6
 70
     1
102
RTVSPropertyOp7
 70
     1
102
RTVSPropertyOp8
 70
     1
102
RTVSPropertyOp9
 70
     1
102
RTVSPropertyOp10
 70
     1
102
RTVSPropertyOp11
 70
     1
102
RTVSPropertyOp12
 70
     1
102
RTVSPropertyOp13
 70
     1
102
RTVSPropertyOp14
 70
     1
102
RTVSPropertyOp15
 70
     1
102
RTVSPropertyOp16
 70
     1
102
RTVSPropertyOp17
 70
     1
102
RTVSPropertyOp18
 70
     1
102
RTVSPropertyOp19
 70
     1
102
RTVSPropertyOp20
 70
     1
102
RTVSPropertyOp21
 70
     1
102
RTVSPropertyOp22
 70
     1
102
RTVSPropertyOp23
 70
     1
102
RTVSPropertyOp24
 70
     1
102
RTVSPropertyOp25
 70
     1
102
RTVSPropertyOp26
 70
     1
102
RTVSPropertyOp27
 70
     1
102
RTVSPropertyOp28
 70
     1
102
RTVSPropertyOp29
 70
     1
102
RTVSPropertyOp30
 70
     1
102
RTVSPropertyOp31
 70
     1
102
RTVSPropertyOp32
 70
     1
102
RTVSPropertyOp33
 70
     1
102
RTVSPropertyOp34
 70
     1
102
RTVSPropertyOp35
 70
     1
102
RTVSPropertyOp36
 70
     1
102
RTVSPropertyOp37
 70
     1
102
RTVSPropertyOp38
 70
     1
102
RTVSPropertyOp39
 70
     1
102
RTVSPropertyOp40
 70
     1
102
RTVSPropertyOp41
 70
     1
102
RTVSPropertyOp42
 70
     1
102
RTVSPropertyOp43
 70
     1
102
RTVSPropertyOp44
 70
     1
102
RTVSPropertyOp45
 70
     1
102
RTVSPropertyOp46
 70
     1
102
RTVSPropertyOp47
 70
     1
102
RTVSPropertyOp48
 70
     1
102
RTVSPropertyOp49
 70
     1
102
RTVSPropertyOp50
 70
     1
102
RTVSPropertyOp51
 70
     0
102
RTVSPropertyOp52
 70
     0
102
RTVSPropertyOp53
 70
     1
102
RTVSPropertyOp54
 70
     1
102
RTVSPropertyOp55
 70
     1
102
RTVSPropertyOp56
 70
     1
102
RTVSPropertyOp57
 70
     1
102
RTVSPropertyOp58
 70
     1
102
RTVSPropertyOp59
 70
     1
102
RTVSPropertyOp60
 70
     1
102
RTVSPropertyOp61
 70
     1
102
RTVSPropertyOp62
 70
     1
  0
XRECORD
  5
A1C8
102
{ACAD_REACTORS
330
A1C7
102
}
330
A1C7
100
AcDbXrecord
280
     1
102
RTVSPost2010Prop28
280
     0
102
RTVSPost2010PropOp28
 70
     1
102
RTVSPost2010Prop29
280
     1
102
RTVSPost2010PropOp29
 70
     1
102
RTVSPost2010Prop30
280
     1
102
RTVSPost2010PropOp30
 70
     1
102
RTVSPost2010Prop31
280
     0
102
RTVSPost2010PropOp31
 70
     1
102
RTVSPost2010Prop32
280
     0
102
RTVSPost2010PropOp32
 70
     1
102
RTVSPost2010Prop33
280
     0
102
RTVSPost2010PropOp33
 70
     1
102
RTVSPost2010Prop34
280
     0
102
RTVSPost2010PropOp34
 70
     1
102
RTVSPost2010Prop35
280
     0
102
RTVSPost2010PropOp35
 70
     1
102
RTVSPost2010Prop36
280
     0
102
RTVSPost2010PropOp36
 70
     1
102
RTVSPost2010Prop37
 90
       50
102
RTVSPost2010PropOp37
 70
     1
102
RTVSPost2010Prop38
140
0.0
102
RTVSPost2010PropOp38
 70
     1
102
RTVSPost2010Prop39
140
1.0
102
RTVSPost2010PropOp39
 70
     1
102
RTVSPost2010Prop40
 90
        0
102
RTVSPost2010PropOp40
 70
     1
102
RTVSPost2010Prop41ColorIndex
 90
       18
102
RTVSPost2010Prop41ColorRGB
 90
        0
102
RTVSPost2010PropOp41
 70
     1
102
RTVSPost2010Prop42
 90
       50
102
RTVSPost2010PropOp42
 70
     1
102
RTVSPost2010Prop43
 90
        3
102
RTVSPost2010PropOp43
 70
     1
102
RTVSPost2010Prop44ColorIndex
 90
        5
102
RTVSPost2010Prop44ColorRGB
 90
      255
102
RTVSPost2010PropOp44
 70
     1
102
RTVSPost2010Prop45
280
     0
102
RTVSPost2010PropOp45
 70
     1
102
RTVSPost2010Prop46
 90
       50
102
RTVSPost2010PropOp46
 70
     1
102
RTVSPost2010Prop47
 90
       50
102
RTVSPost2010PropOp47
 70
     1
102
RTVSPost2010Prop48
 90
       50
102
RTVSPost2010PropOp48
 70
     1
102
RTVSPost2010Prop49
280
     0
102
RTVSPost2010PropOp49
 70
     1
102
RTVSPost2010Prop50
 90
       50
102
RTVSPost2010PropOp50
 70
     1
102
RTVSPost2010Prop51ColorIndex
 90
      256
102
RTVSPost2010Prop51ColorRGB
 90
-16777216
102
RTVSPost2010PropOp51
 70
     0
102
RTVSPost2010Prop52
140
1.0
102
RTVSPost2010PropOp52
 70
     0
102
RTVSPost2010Prop53
 90
        2
102
RTVSPost2010PropOp53
 70
     1
102
RTVSPost2010Prop54
  1
strokes_ogs.tif
102
RTVSPost2010PropOp54
 70
     1
102
RTVSPost2010Prop55
280
     0
102
RTVSPost2010PropOp55
 70
     1
102
RTVSPost2010Prop56
140
1.0
102
RTVSPost2010PropOp56
 70
     1
102
RTVSPost2010Prop57
140
1.0
102
RTVSPost2010PropOp57
 70
     1
102
RTVSPropertyOp0
 70
     1
102
RTVSPropertyOp1
 70
     1
102
RTVSPropertyOp2
 70
     1
102
RTVSPropertyOp3
 70
     1
102
RTVSPropertyOp4
 70
     1
102
RTVSPropertyOp5
 70
     1
102
RTVSPropertyOp6
 70
     1
102
RTVSPropertyOp7
 70
     1
102
RTVSPropertyOp8
 70
     1
102
RTVSPropertyOp9
 70
     1
102
RTVSPropertyOp10
 70
     1
102
RTVSPropertyOp11
 70
     1
102
RTVSPropertyOp12
 70
     1
102
RTVSPropertyOp13
 70
     1
102
RTVSPropertyOp14
 70
     1
102
RTVSPropertyOp15
 70
     1
102
RTVSPropertyOp16
 70
     1
102
RTVSPropertyOp17
 70
     1
102
RTVSPropertyOp18
 70
     1
102
RTVSPropertyOp19
 70
     1
102
RTVSPropertyOp20
 70
     1
102
RTVSPropertyOp21
 70
     1
102
RTVSPropertyOp22
 70
     1
102
RTVSPropertyOp23
 70
     1
102
RTVSPropertyOp24
 70
     1
102
RTVSPropertyOp25
 70
     1
102
RTVSPropertyOp26
 70
     1
102
RTVSPropertyOp27
 70
     1
102
RTVSPropertyOp28
 70
     1
102
RTVSPropertyOp29
 70
     1
102
RTVSPropertyOp30
 70
     1
102
RTVSPropertyOp31
 70
     1
102
RTVSPropertyOp32
 70
     1
102
RTVSPropertyOp33
 70
     1
102
RTVSPropertyOp34
 70
     1
102
RTVSPropertyOp35
 70
     1
102
RTVSPropertyOp36
 70
     1
102
RTVSPropertyOp37
 70
     1
102
RTVSPropertyOp38
 70
     1
102
RTVSPropertyOp39
 70
     1
102
RTVSPropertyOp40
 70
     1
102
RTVSPropertyOp41
 70
     1
102
RTVSPropertyOp42
 70
     1
102
RTVSPropertyOp43
 70
     1
102
RTVSPropertyOp44
 70
     1
102
RTVSPropertyOp45
 70
     1
102
RTVSPropertyOp46
 70
     1
102
RTVSPropertyOp47
 70
     1
102
RTVSPropertyOp48
 70
     1
102
RTVSPropertyOp49
 70
     1
102
RTVSPropertyOp50
 70
     1
102
RTVSPropertyOp51
 70
     0
102
RTVSPropertyOp52
 70
     0
102
RTVSPropertyOp53
 70
     1
102
RTVSPropertyOp54
 70
     1
102
RTVSPropertyOp55
 70
     1
102
RTVSPropertyOp56
 70
     1
102
RTVSPropertyOp57
 70
     1
102
RTVSPropertyOp58
 70
     1
102
RTVSPropertyOp59
 70
     1
102
RTVSPropertyOp60
 70
     1
102
RTVSPropertyOp61
 70
     1
102
RTVSPropertyOp62
 70
     1
  0
XRECORD
  5
A1CC
102
{ACAD_REACTORS
330
A1CB
102
}
330
A1CB
100
AcDbXrecord
280
     1
102
RTVSPost2010Prop28
280
     0
102
RTVSPost2010PropOp28
 70
     1
102
RTVSPost2010Prop29
280
     1
102
RTVSPost2010PropOp29
 70
     1
102
RTVSPost2010Prop30
280
     1
102
RTVSPost2010PropOp30
 70
     1
102
RTVSPost2010Prop31
280
     0
102
RTVSPost2010PropOp31
 70
     1
102
RTVSPost2010Prop32
280
     0
102
RTVSPost2010PropOp32
 70
     1
102
RTVSPost2010Prop33
280
     0
102
RTVSPost2010PropOp33
 70
     1
102
RTVSPost2010Prop34
280
     0
102
RTVSPost2010PropOp34
 70
     1
102
RTVSPost2010Prop35
280
     0
102
RTVSPost2010PropOp35
 70
     1
102
RTVSPost2010Prop36
280
     0
102
RTVSPost2010PropOp36
 70
     1
102
RTVSPost2010Prop37
 90
       50
102
RTVSPost2010PropOp37
 70
     1
102
RTVSPost2010Prop38
140
0.0
102
RTVSPost2010PropOp38
 70
     1
102
RTVSPost2010Prop39
140
1.0
102
RTVSPost2010PropOp39
 70
     1
102
RTVSPost2010Prop40
 90
        0
102
RTVSPost2010PropOp40
 70
     1
102
RTVSPost2010Prop41ColorIndex
 90
       18
102
RTVSPost2010Prop41ColorRGB
 90
        0
102
RTVSPost2010PropOp41
 70
     1
102
RTVSPost2010Prop42
 90
       50
102
RTVSPost2010PropOp42
 70
     1
102
RTVSPost2010Prop43
 90
        3
102
RTVSPost2010PropOp43
 70
     1
102
RTVSPost2010Prop44ColorIndex
 90
        5
102
RTVSPost2010Prop44ColorRGB
 90
      255
102
RTVSPost2010PropOp44
 70
     1
102
RTVSPost2010Prop45
280
     0
102
RTVSPost2010PropOp45
 70
     1
102
RTVSPost2010Prop46
 90
       50
102
RTVSPost2010PropOp46
 70
     1
102
RTVSPost2010Prop47
 90
       50
102
RTVSPost2010PropOp47
 70
     1
102
RTVSPost2010Prop48
 90
       50
102
RTVSPost2010PropOp48
 70
     1
102
RTVSPost2010Prop49
280
     0
102
RTVSPost2010PropOp49
 70
     1
102
RTVSPost2010Prop50
 90
       50
102
RTVSPost2010PropOp50
 70
     1
102
RTVSPost2010Prop51ColorIndex
 90
      256
102
RTVSPost2010Prop51ColorRGB
 90
-16777216
102
RTVSPost2010PropOp51
 70
     0
102
RTVSPost2010Prop52
140
1.0
102
RTVSPost2010PropOp52
 70
     0
102
RTVSPost2010Prop53
 90
        2
102
RTVSPost2010PropOp53
 70
     1
102
RTVSPost2010Prop54
  1
strokes_ogs.tif
102
RTVSPost2010PropOp54
 70
     1
102
RTVSPost2010Prop55
280
     0
102
RTVSPost2010PropOp55
 70
     1
102
RTVSPost2010Prop56
140
1.0
102
RTVSPost2010PropOp56
 70
     1
102
RTVSPost2010Prop57
140
1.0
102
RTVSPost2010PropOp57
 70
     1
102
RTVSPropertyOp0
 70
     1
102
RTVSPropertyOp1
 70
     1
102
RTVSPropertyOp2
 70
     1
102
RTVSPropertyOp3
 70
     1
102
RTVSPropertyOp4
 70
     1
102
RTVSPropertyOp5
 70
     1
102
RTVSPropertyOp6
 70
     1
102
RTVSPropertyOp7
 70
     1
102
RTVSPropertyOp8
 70
     1
102
RTVSPropertyOp9
 70
     1
102
RTVSPropertyOp10
 70
     1
102
RTVSPropertyOp11
 70
     1
102
RTVSPropertyOp12
 70
     1
102
RTVSPropertyOp13
 70
     1
102
RTVSPropertyOp14
 70
     1
102
RTVSPropertyOp15
 70
     1
102
RTVSPropertyOp16
 70
     1
102
RTVSPropertyOp17
 70
     1
102
RTVSPropertyOp18
 70
     1
102
RTVSPropertyOp19
 70
     1
102
RTVSPropertyOp20
 70
     1
102
RTVSPropertyOp21
 70
     1
102
RTVSPropertyOp22
 70
     1
102
RTVSPropertyOp23
 70
     1
102
RTVSPropertyOp24
 70
     1
102
RTVSPropertyOp25
 70
     1
102
RTVSPropertyOp26
 70
     1
102
RTVSPropertyOp27
 70
     1
102
RTVSPropertyOp28
 70
     1
102
RTVSPropertyOp29
 70
     1
102
RTVSPropertyOp30
 70
     1
102
RTVSPropertyOp31
 70
     1
102
RTVSPropertyOp32
 70
     1
102
RTVSPropertyOp33
 70
     1
102
RTVSPropertyOp34
 70
     1
102
RTVSPropertyOp35
 70
     1
102
RTVSPropertyOp36
 70
     1
102
RTVSPropertyOp37
 70
     1
102
RTVSPropertyOp38
 70
     1
102
RTVSPropertyOp39
 70
     1
102
RTVSPropertyOp40
 70
     1
102
RTVSPropertyOp41
 70
     1
102
RTVSPropertyOp42
 70
     1
102
RTVSPropertyOp43
 70
     1
102
RTVSPropertyOp44
 70
     1
102
RTVSPropertyOp45
 70
     1
102
RTVSPropertyOp46
 70
     1
102
RTVSPropertyOp47
 70
     1
102
RTVSPropertyOp48
 70
     1
102
RTVSPropertyOp49
 70
     1
102
RTVSPropertyOp50
 70
     1
102
RTVSPropertyOp51
 70
     0
102
RTVSPropertyOp52
 70
     0
102
RTVSPropertyOp53
 70
     1
102
RTVSPropertyOp54
 70
     1
102
RTVSPropertyOp55
 70
     1
102
RTVSPropertyOp56
 70
     1
102
RTVSPropertyOp57
 70
     1
102
RTVSPropertyOp58
 70
     1
102
RTVSPropertyOp59
 70
     1
102
RTVSPropertyOp60
 70
     1
102
RTVSPropertyOp61
 70
     1
102
RTVSPropertyOp62
 70
     1
  0
XRECORD
  5
A1E6
102
{ACAD_REACTORS
330
A1E5
102
}
330
A1E5
100
AcDbXrecord
280
     1
102
RTVSPost2010Prop28
280
     0
102
RTVSPost2010PropOp28
 70
     1
102
RTVSPost2010Prop29
280
     1
102
RTVSPost2010PropOp29
 70
     1
102
RTVSPost2010Prop30
280
     1
102
RTVSPost2010PropOp30
 70
     1
102
RTVSPost2010Prop31
280
     0
102
RTVSPost2010PropOp31
 70
     1
102
RTVSPost2010Prop32
280
     0
102
RTVSPost2010PropOp32
 70
     1
102
RTVSPost2010Prop33
280
     0
102
RTVSPost2010PropOp33
 70
     1
102
RTVSPost2010Prop34
280
     0
102
RTVSPost2010PropOp34
 70
     1
102
RTVSPost2010Prop35
280
     0
102
RTVSPost2010PropOp35
 70
     1
102
RTVSPost2010Prop36
280
     0
102
RTVSPost2010PropOp36
 70
     1
102
RTVSPost2010Prop37
 90
       50
102
RTVSPost2010PropOp37
 70
     0
102
RTVSPost2010Prop38
140
0.0
102
RTVSPost2010PropOp38
 70
     0
102
RTVSPost2010Prop39
140
1.0
102
RTVSPost2010PropOp39
 70
     0
102
RTVSPost2010Prop40
 90
        0
102
RTVSPost2010PropOp40
 70
     0
102
RTVSPost2010Prop41ColorIndex
 90
       18
102
RTVSPost2010Prop41ColorRGB
 90
        0
102
RTVSPost2010PropOp41
 70
     0
102
RTVSPost2010Prop42
 90
       50
102
RTVSPost2010PropOp42
 70
     0
102
RTVSPost2010Prop43
 90
        3
102
RTVSPost2010PropOp43
 70
     0
102
RTVSPost2010Prop44ColorIndex
 90
        5
102
RTVSPost2010Prop44ColorRGB
 90
      255
102
RTVSPost2010PropOp44
 70
     0
102
RTVSPost2010Prop45
280
     0
102
RTVSPost2010PropOp45
 70
     1
102
RTVSPost2010Prop46
 90
       50
102
RTVSPost2010PropOp46
 70
     0
102
RTVSPost2010Prop47
 90
       50
102
RTVSPost2010PropOp47
 70
     0
102
RTVSPost2010Prop48
 90
       50
102
RTVSPost2010PropOp48
 70
     0
102
RTVSPost2010Prop49
280
     0
102
RTVSPost2010PropOp49
 70
     1
102
RTVSPost2010Prop50
 90
       50
102
RTVSPost2010PropOp50
 70
     0
102
RTVSPost2010Prop51ColorIndex
 90
      256
102
RTVSPost2010Prop51ColorRGB
 90
-16777216
102
RTVSPost2010PropOp51
 70
     0
102
RTVSPost2010Prop52
140
1.0
102
RTVSPost2010PropOp52
 70
     0
102
RTVSPost2010Prop53
 90
        2
102
RTVSPost2010PropOp53
 70
     0
102
RTVSPost2010Prop54
  1
strokes_ogs.tif
102
RTVSPost2010PropOp54
 70
     0
102
RTVSPost2010Prop55
280
     0
102
RTVSPost2010PropOp55
 70
     1
102
RTVSPost2010Prop56
140
1.0
102
RTVSPost2010PropOp56
 70
     0
102
RTVSPost2010Prop57
140
1.0
102
RTVSPost2010PropOp57
 70
     0
102
RTVSPropertyOp0
 70
     0
102
RTVSPropertyOp1
 70
     0
102
RTVSPropertyOp2
 70
     0
102
RTVSPropertyOp3
 70
     0
102
RTVSPropertyOp4
 70
     0
102
RTVSPropertyOp5
 70
     0
102
RTVSPropertyOp6
 70
     0
102
RTVSPropertyOp7
 70
     0
102
RTVSPropertyOp8
 70
     0
102
RTVSPropertyOp9
 70
     0
102
RTVSPropertyOp10
 70
     0
102
RTVSPropertyOp11
 70
     0
102
RTVSPropertyOp12
 70
     0
102
RTVSPropertyOp13
 70
     0
102
RTVSPropertyOp14
 70
     2
102
RTVSPropertyOp15
 70
     0
102
RTVSPropertyOp16
 70
     0
102
RTVSPropertyOp17
 70
     0
102
RTVSPropertyOp18
 70
     0
102
RTVSPropertyOp19
 70
     0
102
RTVSPropertyOp20
 70
     0
102
RTVSPropertyOp21
 70
     0
102
RTVSPropertyOp22
 70
     0
102
RTVSPropertyOp23
 70
     0
102
RTVSPropertyOp24
 70
     0
102
RTVSPropertyOp25
 70
     0
102
RTVSPropertyOp26
 70
     0
102
RTVSPropertyOp27
 70
     0
102
RTVSPropertyOp28
 70
     1
102
RTVSPropertyOp29
 70
     1
102
RTVSPropertyOp30
 70
     1
102
RTVSPropertyOp31
 70
     1
102
RTVSPropertyOp32
 70
     1
102
RTVSPropertyOp33
 70
     1
102
RTVSPropertyOp34
 70
     1
102
RTVSPropertyOp35
 70
     1
102
RTVSPropertyOp36
 70
     1
102
RTVSPropertyOp37
 70
     0
102
RTVSPropertyOp38
 70
     0
102
RTVSPropertyOp39
 70
     0
102
RTVSPropertyOp40
 70
     0
102
RTVSPropertyOp41
 70
     0
102
RTVSPropertyOp42
 70
     0
102
RTVSPropertyOp43
 70
     0
102
RTVSPropertyOp44
 70
     0
102
RTVSPropertyOp45
 70
     1
102
RTVSPropertyOp46
 70
     0
102
RTVSPropertyOp47
 70
     0
102
RTVSPropertyOp48
 70
     0
102
RTVSPropertyOp49
 70
     1
102
RTVSPropertyOp50
 70
     0
102
RTVSPropertyOp51
 70
     0
102
RTVSPropertyOp52
 70
     0
102
RTVSPropertyOp53
 70
     0
102
RTVSPropertyOp54
 70
     0
102
RTVSPropertyOp55
 70
     1
102
RTVSPropertyOp56
 70
     0
102
RTVSPropertyOp57
 70
     0
102
RTVSPropertyOp58
 70
     0
102
RTVSPropertyOp59
 70
     0
102
RTVSPropertyOp60
 70
     0
102
RTVSPropertyOp61
 70
     0
102
RTVSPropertyOp62
 70
     0
  0
XRECORD
  5
A1D4
102
{ACAD_REACTORS
330
A1D3
102
}
330
A1D3
100
AcDbXrecord
280
     1
102
RTVSPost2010Prop28
280
     0
102
RTVSPost2010PropOp28
 70
     1
102
RTVSPost2010Prop29
280
     1
102
RTVSPost2010PropOp29
 70
     1
102
RTVSPost2010Prop30
280
     1
102
RTVSPost2010PropOp30
 70
     1
102
RTVSPost2010Prop31
280
     0
102
RTVSPost2010PropOp31
 70
     1
102
RTVSPost2010Prop32
280
     0
102
RTVSPost2010PropOp32
 70
     1
102
RTVSPost2010Prop33
280
     0
102
RTVSPost2010PropOp33
 70
     1
102
RTVSPost2010Prop34
280
     0
102
RTVSPost2010PropOp34
 70
     1
102
RTVSPost2010Prop35
280
     0
102
RTVSPost2010PropOp35
 70
     1
102
RTVSPost2010Prop36
280
     0
102
RTVSPost2010PropOp36
 70
     1
102
RTVSPost2010Prop37
 90
       50
102
RTVSPost2010PropOp37
 70
     1
102
RTVSPost2010Prop38
140
0.0
102
RTVSPost2010PropOp38
 70
     1
102
RTVSPost2010Prop39
140
1.0
102
RTVSPost2010PropOp39
 70
     1
102
RTVSPost2010Prop40
 90
        0
102
RTVSPost2010PropOp40
 70
     1
102
RTVSPost2010Prop41ColorIndex
 90
       18
102
RTVSPost2010Prop41ColorRGB
 90
        0
102
RTVSPost2010PropOp41
 70
     1
102
RTVSPost2010Prop42
 90
       50
102
RTVSPost2010PropOp42
 70
     1
102
RTVSPost2010Prop43
 90
        3
102
RTVSPost2010PropOp43
 70
     1
102
RTVSPost2010Prop44ColorIndex
 90
        5
102
RTVSPost2010Prop44ColorRGB
 90
      255
102
RTVSPost2010PropOp44
 70
     1
102
RTVSPost2010Prop45
280
     0
102
RTVSPost2010PropOp45
 70
     1
102
RTVSPost2010Prop46
 90
       50
102
RTVSPost2010PropOp46
 70
     1
102
RTVSPost2010Prop47
 90
       50
102
RTVSPost2010PropOp47
 70
     1
102
RTVSPost2010Prop48
 90
       50
102
RTVSPost2010PropOp48
 70
     1
102
RTVSPost2010Prop49
280
     0
102
RTVSPost2010PropOp49
 70
     1
102
RTVSPost2010Prop50
 90
       50
102
RTVSPost2010PropOp50
 70
     1
102
RTVSPost2010Prop51ColorIndex
 90
      256
102
RTVSPost2010Prop51ColorRGB
 90
-16777216
102
RTVSPost2010PropOp51
 70
     0
102
RTVSPost2010Prop52
140
1.0
102
RTVSPost2010PropOp52
 70
     0
102
RTVSPost2010Prop53
 90
        2
102
RTVSPost2010PropOp53
 70
     1
102
RTVSPost2010Prop54
  1
strokes_ogs.tif
102
RTVSPost2010PropOp54
 70
     1
102
RTVSPost2010Prop55
280
     0
102
RTVSPost2010PropOp55
 70
     1
102
RTVSPost2010Prop56
140
1.0
102
RTVSPost2010PropOp56
 70
     1
102
RTVSPost2010Prop57
140
1.0
102
RTVSPost2010PropOp57
 70
     1
102
RTVSPropertyOp0
 70
     1
102
RTVSPropertyOp1
 70
     1
102
RTVSPropertyOp2
 70
     1
102
RTVSPropertyOp3
 70
     1
102
RTVSPropertyOp4
 70
     1
102
RTVSPropertyOp5
 70
     1
102
RTVSPropertyOp6
 70
     1
102
RTVSPropertyOp7
 70
     1
102
RTVSPropertyOp8
 70
     1
102
RTVSPropertyOp9
 70
     1
102
RTVSPropertyOp10
 70
     1
102
RTVSPropertyOp11
 70
     1
102
RTVSPropertyOp12
 70
     1
102
RTVSPropertyOp13
 70
     1
102
RTVSPropertyOp14
 70
     1
102
RTVSPropertyOp15
 70
     1
102
RTVSPropertyOp16
 70
     1
102
RTVSPropertyOp17
 70
     1
102
RTVSPropertyOp18
 70
     1
102
RTVSPropertyOp19
 70
     1
102
RTVSPropertyOp20
 70
     1
102
RTVSPropertyOp21
 70
     1
102
RTVSPropertyOp22
 70
     1
102
RTVSPropertyOp23
 70
     1
102
RTVSPropertyOp24
 70
     1
102
RTVSPropertyOp25
 70
     1
102
RTVSPropertyOp26
 70
     1
102
RTVSPropertyOp27
 70
     1
102
RTVSPropertyOp28
 70
     1
102
RTVSPropertyOp29
 70
     1
102
RTVSPropertyOp30
 70
     1
102
RTVSPropertyOp31
 70
     1
102
RTVSPropertyOp32
 70
     1
102
RTVSPropertyOp33
 70
     1
102
RTVSPropertyOp34
 70
     1
102
RTVSPropertyOp35
 70
     1
102
RTVSPropertyOp36
 70
     1
102
RTVSPropertyOp37
 70
     1
102
RTVSPropertyOp38
 70
     1
102
RTVSPropertyOp39
 70
     1
102
RTVSPropertyOp40
 70
     1
102
RTVSPropertyOp41
 70
     1
102
RTVSPropertyOp42
 70
     1
102
RTVSPropertyOp43
 70
     1
102
RTVSPropertyOp44
 70
     1
102
RTVSPropertyOp45
 70
     1
102
RTVSPropertyOp46
 70
     1
102
RTVSPropertyOp47
 70
     1
102
RTVSPropertyOp48
 70
     1
102
RTVSPropertyOp49
 70
     1
102
RTVSPropertyOp50
 70
     1
102
RTVSPropertyOp51
 70
     0
102
RTVSPropertyOp52
 70
     0
102
RTVSPropertyOp53
 70
     1
102
RTVSPropertyOp54
 70
     1
102
RTVSPropertyOp55
 70
     1
102
RTVSPropertyOp56
 70
     1
102
RTVSPropertyOp57
 70
     1
102
RTVSPropertyOp58
 70
     1
102
RTVSPropertyOp59
 70
     1
102
RTVSPropertyOp60
 70
     1
102
RTVSPropertyOp61
 70
     1
102
RTVSPropertyOp62
 70
     1
  0
XRECORD
  5
A1B8
102
{ACAD_REACTORS
330
A1B7
102
}
330
A1B7
100
AcDbXrecord
280
     1
102
RTVSPost2010Prop28
280
     0
102
RTVSPost2010PropOp28
 70
     1
102
RTVSPost2010Prop29
280
     1
102
RTVSPost2010PropOp29
 70
     1
102
RTVSPost2010Prop30
280
     1
102
RTVSPost2010PropOp30
 70
     1
102
RTVSPost2010Prop31
280
     0
102
RTVSPost2010PropOp31
 70
     1
102
RTVSPost2010Prop32
280
     0
102
RTVSPost2010PropOp32
 70
     1
102
RTVSPost2010Prop33
280
     0
102
RTVSPost2010PropOp33
 70
     1
102
RTVSPost2010Prop34
280
     0
102
RTVSPost2010PropOp34
 70
     1
102
RTVSPost2010Prop35
280
     0
102
RTVSPost2010PropOp35
 70
     1
102
RTVSPost2010Prop36
280
     0
102
RTVSPost2010PropOp36
 70
     1
102
RTVSPost2010Prop37
 90
       50
102
RTVSPost2010PropOp37
 70
     1
102
RTVSPost2010Prop38
140
0.0
102
RTVSPost2010PropOp38
 70
     1
102
RTVSPost2010Prop39
140
1.0
102
RTVSPost2010PropOp39
 70
     1
102
RTVSPost2010Prop40
 90
        0
102
RTVSPost2010PropOp40
 70
     1
102
RTVSPost2010Prop41ColorIndex
 90
       18
102
RTVSPost2010Prop41ColorRGB
 90
        0
102
RTVSPost2010PropOp41
 70
     1
102
RTVSPost2010Prop42
 90
       50
102
RTVSPost2010PropOp42
 70
     1
102
RTVSPost2010Prop43
 90
        3
102
RTVSPost2010PropOp43
 70
     1
102
RTVSPost2010Prop44ColorIndex
 90
        5
102
RTVSPost2010Prop44ColorRGB
 90
      255
102
RTVSPost2010PropOp44
 70
     1
102
RTVSPost2010Prop45
280
     0
102
RTVSPost2010PropOp45
 70
     1
102
RTVSPost2010Prop46
 90
       50
102
RTVSPost2010PropOp46
 70
     1
102
RTVSPost2010Prop47
 90
       50
102
RTVSPost2010PropOp47
 70
     1
102
RTVSPost2010Prop48
 90
       50
102
RTVSPost2010PropOp48
 70
     1
102
RTVSPost2010Prop49
280
     0
102
RTVSPost2010PropOp49
 70
     1
102
RTVSPost2010Prop50
 90
       50
102
RTVSPost2010PropOp50
 70
     1
102
RTVSPost2010Prop51ColorIndex
 90
      256
102
RTVSPost2010Prop51ColorRGB
 90
-16777216
102
RTVSPost2010PropOp51
 70
     0
102
RTVSPost2010Prop52
140
1.0
102
RTVSPost2010PropOp52
 70
     0
102
RTVSPost2010Prop53
 90
        2
102
RTVSPost2010PropOp53
 70
     1
102
RTVSPost2010Prop54
  1
strokes_ogs.tif
102
RTVSPost2010PropOp54
 70
     1
102
RTVSPost2010Prop55
280
     0
102
RTVSPost2010PropOp55
 70
     1
102
RTVSPost2010Prop56
140
1.0
102
RTVSPost2010PropOp56
 70
     1
102
RTVSPost2010Prop57
140
1.0
102
RTVSPost2010PropOp57
 70
     1
102
RTVSPropertyOp0
 70
     1
102
RTVSPropertyOp1
 70
     1
102
RTVSPropertyOp2
 70
     1
102
RTVSPropertyOp3
 70
     1
102
RTVSPropertyOp4
 70
     1
102
RTVSPropertyOp5
 70
     1
102
RTVSPropertyOp6
 70
     1
102
RTVSPropertyOp7
 70
     1
102
RTVSPropertyOp8
 70
     1
102
RTVSPropertyOp9
 70
     1
102
RTVSPropertyOp10
 70
     1
102
RTVSPropertyOp11
 70
     1
102
RTVSPropertyOp12
 70
     1
102
RTVSPropertyOp13
 70
     1
102
RTVSPropertyOp14
 70
     1
102
RTVSPropertyOp15
 70
     1
102
RTVSPropertyOp16
 70
     1
102
RTVSPropertyOp17
 70
     1
102
RTVSPropertyOp18
 70
     1
102
RTVSPropertyOp19
 70
     1
102
RTVSPropertyOp20
 70
     1
102
RTVSPropertyOp21
 70
     1
102
RTVSPropertyOp22
 70
     1
102
RTVSPropertyOp23
 70
     1
102
RTVSPropertyOp24
 70
     1
102
RTVSPropertyOp25
 70
     1
102
RTVSPropertyOp26
 70
     1
102
RTVSPropertyOp27
 70
     1
102
RTVSPropertyOp28
 70
     1
102
RTVSPropertyOp29
 70
     1
102
RTVSPropertyOp30
 70
     1
102
RTVSPropertyOp31
 70
     1
102
RTVSPropertyOp32
 70
     1
102
RTVSPropertyOp33
 70
     1
102
RTVSPropertyOp34
 70
     1
102
RTVSPropertyOp35
 70
     1
102
RTVSPropertyOp36
 70
     1
102
RTVSPropertyOp37
 70
     1
102
RTVSPropertyOp38
 70
     1
102
RTVSPropertyOp39
 70
     1
102
RTVSPropertyOp40
 70
     1
102
RTVSPropertyOp41
 70
     1
102
RTVSPropertyOp42
 70
     1
102
RTVSPropertyOp43
 70
     1
102
RTVSPropertyOp44
 70
     1
102
RTVSPropertyOp45
 70
     1
102
RTVSPropertyOp46
 70
     1
102
RTVSPropertyOp47
 70
     1
102
RTVSPropertyOp48
 70
     1
102
RTVSPropertyOp49
 70
     1
102
RTVSPropertyOp50
 70
     1
102
RTVSPropertyOp51
 70
     0
102
RTVSPropertyOp52
 70
     0
102
RTVSPropertyOp53
 70
     1
102
RTVSPropertyOp54
 70
     1
102
RTVSPropertyOp55
 70
     1
102
RTVSPropertyOp56
 70
     1
102
RTVSPropertyOp57
 70
     1
102
RTVSPropertyOp58
 70
     1
102
RTVSPropertyOp59
 70
     1
102
RTVSPropertyOp60
 70
     1
102
RTVSPropertyOp61
 70
     1
102
RTVSPropertyOp62
 70
     1
  0
XRECORD
  5
A1BA
102
{ACAD_REACTORS
330
A1B9
102
}
330
A1B9
100
AcDbXrecord
280
     1
102
RTVSPost2010Prop28
280
     0
102
RTVSPost2010PropOp28
 70
     1
102
RTVSPost2010Prop29
280
     1
102
RTVSPost2010PropOp29
 70
     1
102
RTVSPost2010Prop30
280
     1
102
RTVSPost2010PropOp30
 70
     1
102
RTVSPost2010Prop31
280
     0
102
RTVSPost2010PropOp31
 70
     1
102
RTVSPost2010Prop32
280
     0
102
RTVSPost2010PropOp32
 70
     1
102
RTVSPost2010Prop33
280
     0
102
RTVSPost2010PropOp33
 70
     1
102
RTVSPost2010Prop34
280
     0
102
RTVSPost2010PropOp34
 70
     1
102
RTVSPost2010Prop35
280
     0
102
RTVSPost2010PropOp35
 70
     1
102
RTVSPost2010Prop36
280
     0
102
RTVSPost2010PropOp36
 70
     1
102
RTVSPost2010Prop37
 90
       50
102
RTVSPost2010PropOp37
 70
     1
102
RTVSPost2010Prop38
140
0.0
102
RTVSPost2010PropOp38
 70
     1
102
RTVSPost2010Prop39
140
1.0
102
RTVSPost2010PropOp39
 70
     1
102
RTVSPost2010Prop40
 90
        0
102
RTVSPost2010PropOp40
 70
     1
102
RTVSPost2010Prop41ColorIndex
 90
       18
102
RTVSPost2010Prop41ColorRGB
 90
        0
102
RTVSPost2010PropOp41
 70
     1
102
RTVSPost2010Prop42
 90
       50
102
RTVSPost2010PropOp42
 70
     1
102
RTVSPost2010Prop43
 90
        3
102
RTVSPost2010PropOp43
 70
     1
102
RTVSPost2010Prop44ColorIndex
 90
        5
102
RTVSPost2010Prop44ColorRGB
 90
      255
102
RTVSPost2010PropOp44
 70
     1
102
RTVSPost2010Prop45
280
     0
102
RTVSPost2010PropOp45
 70
     1
102
RTVSPost2010Prop46
 90
       50
102
RTVSPost2010PropOp46
 70
     1
102
RTVSPost2010Prop47
 90
       50
102
RTVSPost2010PropOp47
 70
     1
102
RTVSPost2010Prop48
 90
       50
102
RTVSPost2010PropOp48
 70
     1
102
RTVSPost2010Prop49
280
     0
102
RTVSPost2010PropOp49
 70
     1
102
RTVSPost2010Prop50
 90
       50
102
RTVSPost2010PropOp50
 70
     1
102
RTVSPost2010Prop51ColorIndex
 90
      256
102
RTVSPost2010Prop51ColorRGB
 90
-16777216
102
RTVSPost2010PropOp51
 70
     0
102
RTVSPost2010Prop52
140
1.0
102
RTVSPost2010PropOp52
 70
     0
102
RTVSPost2010Prop53
 90
        2
102
RTVSPost2010PropOp53
 70
     1
102
RTVSPost2010Prop54
  1
strokes_ogs.tif
102
RTVSPost2010PropOp54
 70
     1
102
RTVSPost2010Prop55
280
     0
102
RTVSPost2010PropOp55
 70
     1
102
RTVSPost2010Prop56
140
1.0
102
RTVSPost2010PropOp56
 70
     1
102
RTVSPost2010Prop57
140
1.0
102
RTVSPost2010PropOp57
 70
     1
102
RTVSPropertyOp0
 70
     1
102
RTVSPropertyOp1
 70
     1
102
RTVSPropertyOp2
 70
     1
102
RTVSPropertyOp3
 70
     1
102
RTVSPropertyOp4
 70
     1
102
RTVSPropertyOp5
 70
     1
102
RTVSPropertyOp6
 70
     1
102
RTVSPropertyOp7
 70
     1
102
RTVSPropertyOp8
 70
     1
102
RTVSPropertyOp9
 70
     1
102
RTVSPropertyOp10
 70
     1
102
RTVSPropertyOp11
 70
     1
102
RTVSPropertyOp12
 70
     1
102
RTVSPropertyOp13
 70
     1
102
RTVSPropertyOp14
 70
     1
102
RTVSPropertyOp15
 70
     1
102
RTVSPropertyOp16
 70
     1
102
RTVSPropertyOp17
 70
     1
102
RTVSPropertyOp18
 70
     1
102
RTVSPropertyOp19
 70
     1
102
RTVSPropertyOp20
 70
     1
102
RTVSPropertyOp21
 70
     1
102
RTVSPropertyOp22
 70
     1
102
RTVSPropertyOp23
 70
     1
102
RTVSPropertyOp24
 70
     1
102
RTVSPropertyOp25
 70
     1
102
RTVSPropertyOp26
 70
     1
102
RTVSPropertyOp27
 70
     1
102
RTVSPropertyOp28
 70
     1
102
RTVSPropertyOp29
 70
     1
102
RTVSPropertyOp30
 70
     1
102
RTVSPropertyOp31
 70
     1
102
RTVSPropertyOp32
 70
     1
102
RTVSPropertyOp33
 70
     1
102
RTVSPropertyOp34
 70
     1
102
RTVSPropertyOp35
 70
     1
102
RTVSPropertyOp36
 70
     1
102
RTVSPropertyOp37
 70
     1
102
RTVSPropertyOp38
 70
     1
102
RTVSPropertyOp39
 70
     1
102
RTVSPropertyOp40
 70
     1
102
RTVSPropertyOp41
 70
     1
102
RTVSPropertyOp42
 70
     1
102
RTVSPropertyOp43
 70
     1
102
RTVSPropertyOp44
 70
     1
102
RTVSPropertyOp45
 70
     1
102
RTVSPropertyOp46
 70
     1
102
RTVSPropertyOp47
 70
     1
102
RTVSPropertyOp48
 70
     1
102
RTVSPropertyOp49
 70
     1
102
RTVSPropertyOp50
 70
     1
102
RTVSPropertyOp51
 70
     0
102
RTVSPropertyOp52
 70
     0
102
RTVSPropertyOp53
 70
     1
102
RTVSPropertyOp54
 70
     1
102
RTVSPropertyOp55
 70
     1
102
RTVSPropertyOp56
 70
     1
102
RTVSPropertyOp57
 70
     1
102
RTVSPropertyOp58
 70
     1
102
RTVSPropertyOp59
 70
     1
102
RTVSPropertyOp60
 70
     1
102
RTVSPropertyOp61
 70
     1
102
RTVSPropertyOp62
 70
     1
  0
XRECORD
  5
A1BC
102
{ACAD_REACTORS
330
A1BB
102
}
330
A1BB
100
AcDbXrecord
280
     1
102
RTVSPost2010Prop28
280
     0
102
RTVSPost2010PropOp28
 70
     1
102
RTVSPost2010Prop29
280
     1
102
RTVSPost2010PropOp29
 70
     1
102
RTVSPost2010Prop30
280
     1
102
RTVSPost2010PropOp30
 70
     1
102
RTVSPost2010Prop31
280
     0
102
RTVSPost2010PropOp31
 70
     1
102
RTVSPost2010Prop32
280
     0
102
RTVSPost2010PropOp32
 70
     1
102
RTVSPost2010Prop33
280
     0
102
RTVSPost2010PropOp33
 70
     1
102
RTVSPost2010Prop34
280
     0
102
RTVSPost2010PropOp34
 70
     1
102
RTVSPost2010Prop35
280
     0
102
RTVSPost2010PropOp35
 70
     1
102
RTVSPost2010Prop36
280
     0
102
RTVSPost2010PropOp36
 70
     1
102
RTVSPost2010Prop37
 90
       50
102
RTVSPost2010PropOp37
 70
     1
102
RTVSPost2010Prop38
140
0.0
102
RTVSPost2010PropOp38
 70
     1
102
RTVSPost2010Prop39
140
1.0
102
RTVSPost2010PropOp39
 70
     1
102
RTVSPost2010Prop40
 90
        0
102
RTVSPost2010PropOp40
 70
     1
102
RTVSPost2010Prop41ColorIndex
 90
       18
102
RTVSPost2010Prop41ColorRGB
 90
        0
102
RTVSPost2010PropOp41
 70
     1
102
RTVSPost2010Prop42
 90
       50
102
RTVSPost2010PropOp42
 70
     1
102
RTVSPost2010Prop43
 90
        3
102
RTVSPost2010PropOp43
 70
     1
102
RTVSPost2010Prop44ColorIndex
 90
        5
102
RTVSPost2010Prop44ColorRGB
 90
      255
102
RTVSPost2010PropOp44
 70
     1
102
RTVSPost2010Prop45
280
     0
102
RTVSPost2010PropOp45
 70
     1
102
RTVSPost2010Prop46
 90
       50
102
RTVSPost2010PropOp46
 70
     1
102
RTVSPost2010Prop47
 90
       50
102
RTVSPost2010PropOp47
 70
     1
102
RTVSPost2010Prop48
 90
       50
102
RTVSPost2010PropOp48
 70
     1
102
RTVSPost2010Prop49
280
     0
102
RTVSPost2010PropOp49
 70
     1
102
RTVSPost2010Prop50
 90
       50
102
RTVSPost2010PropOp50
 70
     1
102
RTVSPost2010Prop51ColorIndex
 90
      256
102
RTVSPost2010Prop51ColorRGB
 90
-16777216
102
RTVSPost2010PropOp51
 70
     0
102
RTVSPost2010Prop52
140
1.0
102
RTVSPost2010PropOp52
 70
     0
102
RTVSPost2010Prop53
 90
        2
102
RTVSPost2010PropOp53
 70
     1
102
RTVSPost2010Prop54
  1
strokes_ogs.tif
102
RTVSPost2010PropOp54
 70
     1
102
RTVSPost2010Prop55
280
     0
102
RTVSPost2010PropOp55
 70
     1
102
RTVSPost2010Prop56
140
1.0
102
RTVSPost2010PropOp56
 70
     1
102
RTVSPost2010Prop57
140
1.0
102
RTVSPost2010PropOp57
 70
     1
102
RTVSPropertyOp0
 70
     1
102
RTVSPropertyOp1
 70
     1
102
RTVSPropertyOp2
 70
     1
102
RTVSPropertyOp3
 70
     1
102
RTVSPropertyOp4
 70
     1
102
RTVSPropertyOp5
 70
     1
102
RTVSPropertyOp6
 70
     1
102
RTVSPropertyOp7
 70
     1
102
RTVSPropertyOp8
 70
     1
102
RTVSPropertyOp9
 70
     1
102
RTVSPropertyOp10
 70
     1
102
RTVSPropertyOp11
 70
     1
102
RTVSPropertyOp12
 70
     1
102
RTVSPropertyOp13
 70
     1
102
RTVSPropertyOp14
 70
     1
102
RTVSPropertyOp15
 70
     1
102
RTVSPropertyOp16
 70
     1
102
RTVSPropertyOp17
 70
     1
102
RTVSPropertyOp18
 70
     1
102
RTVSPropertyOp19
 70
     1
102
RTVSPropertyOp20
 70
     1
102
RTVSPropertyOp21
 70
     1
102
RTVSPropertyOp22
 70
     1
102
RTVSPropertyOp23
 70
     1
102
RTVSPropertyOp24
 70
     1
102
RTVSPropertyOp25
 70
     1
102
RTVSPropertyOp26
 70
     1
102
RTVSPropertyOp27
 70
     1
102
RTVSPropertyOp28
 70
     1
102
RTVSPropertyOp29
 70
     1
102
RTVSPropertyOp30
 70
     1
102
RTVSPropertyOp31
 70
     1
102
RTVSPropertyOp32
 70
     1
102
RTVSPropertyOp33
 70
     1
102
RTVSPropertyOp34
 70
     1
102
RTVSPropertyOp35
 70
     1
102
RTVSPropertyOp36
 70
     1
102
RTVSPropertyOp37
 70
     1
102
RTVSPropertyOp38
 70
     1
102
RTVSPropertyOp39
 70
     1
102
RTVSPropertyOp40
 70
     1
102
RTVSPropertyOp41
 70
     1
102
RTVSPropertyOp42
 70
     1
102
RTVSPropertyOp43
 70
     1
102
RTVSPropertyOp44
 70
     1
102
RTVSPropertyOp45
 70
     1
102
RTVSPropertyOp46
 70
     1
102
RTVSPropertyOp47
 70
     1
102
RTVSPropertyOp48
 70
     1
102
RTVSPropertyOp49
 70
     1
102
RTVSPropertyOp50
 70
     1
102
RTVSPropertyOp51
 70
     0
102
RTVSPropertyOp52
 70
     0
102
RTVSPropertyOp53
 70
     1
102
RTVSPropertyOp54
 70
     1
102
RTVSPropertyOp55
 70
     1
102
RTVSPropertyOp56
 70
     1
102
RTVSPropertyOp57
 70
     1
102
RTVSPropertyOp58
 70
     1
102
RTVSPropertyOp59
 70
     1
102
RTVSPropertyOp60
 70
     1
102
RTVSPropertyOp61
 70
     1
102
RTVSPropertyOp62
 70
     1
  0
XRECORD
  5
A1BE
102
{ACAD_REACTORS
330
A1BD
102
}
330
A1BD
100
AcDbXrecord
280
     1
102
RTVSPost2010Prop28
280
     0
102
RTVSPost2010PropOp28
 70
     1
102
RTVSPost2010Prop29
280
     1
102
RTVSPost2010PropOp29
 70
     1
102
RTVSPost2010Prop30
280
     1
102
RTVSPost2010PropOp30
 70
     1
102
RTVSPost2010Prop31
280
     0
102
RTVSPost2010PropOp31
 70
     1
102
RTVSPost2010Prop32
280
     0
102
RTVSPost2010PropOp32
 70
     1
102
RTVSPost2010Prop33
280
     0
102
RTVSPost2010PropOp33
 70
     1
102
RTVSPost2010Prop34
280
     0
102
RTVSPost2010PropOp34
 70
     1
102
RTVSPost2010Prop35
280
     0
102
RTVSPost2010PropOp35
 70
     1
102
RTVSPost2010Prop36
280
     0
102
RTVSPost2010PropOp36
 70
     1
102
RTVSPost2010Prop37
 90
       50
102
RTVSPost2010PropOp37
 70
     1
102
RTVSPost2010Prop38
140
0.0
102
RTVSPost2010PropOp38
 70
     1
102
RTVSPost2010Prop39
140
1.0
102
RTVSPost2010PropOp39
 70
     1
102
RTVSPost2010Prop40
 90
        0
102
RTVSPost2010PropOp40
 70
     1
102
RTVSPost2010Prop41ColorIndex
 90
       18
102
RTVSPost2010Prop41ColorRGB
 90
        0
102
RTVSPost2010PropOp41
 70
     1
102
RTVSPost2010Prop42
 90
       50
102
RTVSPost2010PropOp42
 70
     1
102
RTVSPost2010Prop43
 90
        3
102
RTVSPost2010PropOp43
 70
     1
102
RTVSPost2010Prop44ColorIndex
 90
        5
102
RTVSPost2010Prop44ColorRGB
 90
      255
102
RTVSPost2010PropOp44
 70
     1
102
RTVSPost2010Prop45
280
     0
102
RTVSPost2010PropOp45
 70
     1
102
RTVSPost2010Prop46
 90
       50
102
RTVSPost2010PropOp46
 70
     1
102
RTVSPost2010Prop47
 90
       50
102
RTVSPost2010PropOp47
 70
     1
102
RTVSPost2010Prop48
 90
       50
102
RTVSPost2010PropOp48
 70
     1
102
RTVSPost2010Prop49
280
     0
102
RTVSPost2010PropOp49
 70
     1
102
RTVSPost2010Prop50
 90
       50
102
RTVSPost2010PropOp50
 70
     1
102
RTVSPost2010Prop51ColorIndex
 90
      256
102
RTVSPost2010Prop51ColorRGB
 90
-16777216
102
RTVSPost2010PropOp51
 70
     0
102
RTVSPost2010Prop52
140
1.0
102
RTVSPost2010PropOp52
 70
     0
102
RTVSPost2010Prop53
 90
        2
102
RTVSPost2010PropOp53
 70
     1
102
RTVSPost2010Prop54
  1
strokes_ogs.tif
102
RTVSPost2010PropOp54
 70
     1
102
RTVSPost2010Prop55
280
     0
102
RTVSPost2010PropOp55
 70
     1
102
RTVSPost2010Prop56
140
1.0
102
RTVSPost2010PropOp56
 70
     1
102
RTVSPost2010Prop57
140
1.0
102
RTVSPost2010PropOp57
 70
     1
102
RTVSPropertyOp0
 70
     1
102
RTVSPropertyOp1
 70
     1
102
RTVSPropertyOp2
 70
     1
102
RTVSPropertyOp3
 70
     1
102
RTVSPropertyOp4
 70
     1
102
RTVSPropertyOp5
 70
     1
102
RTVSPropertyOp6
 70
     1
102
RTVSPropertyOp7
 70
     1
102
RTVSPropertyOp8
 70
     1
102
RTVSPropertyOp9
 70
     1
102
RTVSPropertyOp10
 70
     1
102
RTVSPropertyOp11
 70
     1
102
RTVSPropertyOp12
 70
     1
102
RTVSPropertyOp13
 70
     1
102
RTVSPropertyOp14
 70
     1
102
RTVSPropertyOp15
 70
     1
102
RTVSPropertyOp16
 70
     1
102
RTVSPropertyOp17
 70
     1
102
RTVSPropertyOp18
 70
     1
102
RTVSPropertyOp19
 70
     1
102
RTVSPropertyOp20
 70
     1
102
RTVSPropertyOp21
 70
     1
102
RTVSPropertyOp22
 70
     1
102
RTVSPropertyOp23
 70
     1
102
RTVSPropertyOp24
 70
     1
102
RTVSPropertyOp25
 70
     1
102
RTVSPropertyOp26
 70
     1
102
RTVSPropertyOp27
 70
     1
102
RTVSPropertyOp28
 70
     1
102
RTVSPropertyOp29
 70
     1
102
RTVSPropertyOp30
 70
     1
102
RTVSPropertyOp31
 70
     1
102
RTVSPropertyOp32
 70
     1
102
RTVSPropertyOp33
 70
     1
102
RTVSPropertyOp34
 70
     1
102
RTVSPropertyOp35
 70
     1
102
RTVSPropertyOp36
 70
     1
102
RTVSPropertyOp37
 70
     1
102
RTVSPropertyOp38
 70
     1
102
RTVSPropertyOp39
 70
     1
102
RTVSPropertyOp40
 70
     1
102
RTVSPropertyOp41
 70
     1
102
RTVSPropertyOp42
 70
     1
102
RTVSPropertyOp43
 70
     1
102
RTVSPropertyOp44
 70
     1
102
RTVSPropertyOp45
 70
     1
102
RTVSPropertyOp46
 70
     1
102
RTVSPropertyOp47
 70
     1
102
RTVSPropertyOp48
 70
     1
102
RTVSPropertyOp49
 70
     1
102
RTVSPropertyOp50
 70
     1
102
RTVSPropertyOp51
 70
     0
102
RTVSPropertyOp52
 70
     0
102
RTVSPropertyOp53
 70
     1
102
RTVSPropertyOp54
 70
     1
102
RTVSPropertyOp55
 70
     1
102
RTVSPropertyOp56
 70
     1
102
RTVSPropertyOp57
 70
     1
102
RTVSPropertyOp58
 70
     1
102
RTVSPropertyOp59
 70
     1
102
RTVSPropertyOp60
 70
     1
102
RTVSPropertyOp61
 70
     1
102
RTVSPropertyOp62
 70
     1
  0
XRECORD
  5
A1C6
102
{ACAD_REACTORS
330
A1C5
102
}
330
A1C5
100
AcDbXrecord
280
     1
102
RTVSPost2010Prop28
280
     0
102
RTVSPost2010PropOp28
 70
     1
102
RTVSPost2010Prop29
280
     1
102
RTVSPost2010PropOp29
 70
     1
102
RTVSPost2010Prop30
280
     1
102
RTVSPost2010PropOp30
 70
     1
102
RTVSPost2010Prop31
280
     0
102
RTVSPost2010PropOp31
 70
     1
102
RTVSPost2010Prop32
280
     0
102
RTVSPost2010PropOp32
 70
     1
102
RTVSPost2010Prop33
280
     0
102
RTVSPost2010PropOp33
 70
     1
102
RTVSPost2010Prop34
280
     0
102
RTVSPost2010PropOp34
 70
     1
102
RTVSPost2010Prop35
280
     0
102
RTVSPost2010PropOp35
 70
     1
102
RTVSPost2010Prop36
280
     0
102
RTVSPost2010PropOp36
 70
     1
102
RTVSPost2010Prop37
 90
       50
102
RTVSPost2010PropOp37
 70
     1
102
RTVSPost2010Prop38
140
0.0
102
RTVSPost2010PropOp38
 70
     1
102
RTVSPost2010Prop39
140
1.0
102
RTVSPost2010PropOp39
 70
     1
102
RTVSPost2010Prop40
 90
        0
102
RTVSPost2010PropOp40
 70
     1
102
RTVSPost2010Prop41ColorIndex
 90
       18
102
RTVSPost2010Prop41ColorRGB
 90
        0
102
RTVSPost2010PropOp41
 70
     1
102
RTVSPost2010Prop42
 90
       50
102
RTVSPost2010PropOp42
 70
     1
102
RTVSPost2010Prop43
 90
        3
102
RTVSPost2010PropOp43
 70
     1
102
RTVSPost2010Prop44ColorIndex
 90
        5
102
RTVSPost2010Prop44ColorRGB
 90
      255
102
RTVSPost2010PropOp44
 70
     1
102
RTVSPost2010Prop45
280
     0
102
RTVSPost2010PropOp45
 70
     1
102
RTVSPost2010Prop46
 90
       50
102
RTVSPost2010PropOp46
 70
     1
102
RTVSPost2010Prop47
 90
       50
102
RTVSPost2010PropOp47
 70
     1
102
RTVSPost2010Prop48
 90
       50
102
RTVSPost2010PropOp48
 70
     1
102
RTVSPost2010Prop49
280
     0
102
RTVSPost2010PropOp49
 70
     1
102
RTVSPost2010Prop50
 90
       50
102
RTVSPost2010PropOp50
 70
     1
102
RTVSPost2010Prop51ColorIndex
 90
      256
102
RTVSPost2010Prop51ColorRGB
 90
-16777216
102
RTVSPost2010PropOp51
 70
     0
102
RTVSPost2010Prop52
140
1.0
102
RTVSPost2010PropOp52
 70
     0
102
RTVSPost2010Prop53
 90
        2
102
RTVSPost2010PropOp53
 70
     1
102
RTVSPost2010Prop54
  1
strokes_ogs.tif
102
RTVSPost2010PropOp54
 70
     1
102
RTVSPost2010Prop55
280
     0
102
RTVSPost2010PropOp55
 70
     1
102
RTVSPost2010Prop56
140
1.0
102
RTVSPost2010PropOp56
 70
     1
102
RTVSPost2010Prop57
140
1.0
102
RTVSPost2010PropOp57
 70
     1
102
RTVSPropertyOp0
 70
     1
102
RTVSPropertyOp1
 70
     1
102
RTVSPropertyOp2
 70
     1
102
RTVSPropertyOp3
 70
     1
102
RTVSPropertyOp4
 70
     1
102
RTVSPropertyOp5
 70
     1
102
RTVSPropertyOp6
 70
     1
102
RTVSPropertyOp7
 70
     1
102
RTVSPropertyOp8
 70
     1
102
RTVSPropertyOp9
 70
     1
102
RTVSPropertyOp10
 70
     1
102
RTVSPropertyOp11
 70
     1
102
RTVSPropertyOp12
 70
     1
102
RTVSPropertyOp13
 70
     1
102
RTVSPropertyOp14
 70
     1
102
RTVSPropertyOp15
 70
     1
102
RTVSPropertyOp16
 70
     1
102
RTVSPropertyOp17
 70
     1
102
RTVSPropertyOp18
 70
     1
102
RTVSPropertyOp19
 70
     1
102
RTVSPropertyOp20
 70
     1
102
RTVSPropertyOp21
 70
     1
102
RTVSPropertyOp22
 70
     1
102
RTVSPropertyOp23
 70
     1
102
RTVSPropertyOp24
 70
     1
102
RTVSPropertyOp25
 70
     1
102
RTVSPropertyOp26
 70
     1
102
RTVSPropertyOp27
 70
     1
102
RTVSPropertyOp28
 70
     1
102
RTVSPropertyOp29
 70
     1
102
RTVSPropertyOp30
 70
     1
102
RTVSPropertyOp31
 70
     1
102
RTVSPropertyOp32
 70
     1
102
RTVSPropertyOp33
 70
     1
102
RTVSPropertyOp34
 70
     1
102
RTVSPropertyOp35
 70
     1
102
RTVSPropertyOp36
 70
     1
102
RTVSPropertyOp37
 70
     1
102
RTVSPropertyOp38
 70
     1
102
RTVSPropertyOp39
 70
     1
102
RTVSPropertyOp40
 70
     1
102
RTVSPropertyOp41
 70
     1
102
RTVSPropertyOp42
 70
     1
102
RTVSPropertyOp43
 70
     1
102
RTVSPropertyOp44
 70
     1
102
RTVSPropertyOp45
 70
     1
102
RTVSPropertyOp46
 70
     1
102
RTVSPropertyOp47
 70
     1
102
RTVSPropertyOp48
 70
     1
102
RTVSPropertyOp49
 70
     1
102
RTVSPropertyOp50
 70
     1
102
RTVSPropertyOp51
 70
     0
102
RTVSPropertyOp52
 70
     0
102
RTVSPropertyOp53
 70
     1
102
RTVSPropertyOp54
 70
     1
102
RTVSPropertyOp55
 70
     1
102
RTVSPropertyOp56
 70
     1
102
RTVSPropertyOp57
 70
     1
102
RTVSPropertyOp58
 70
     1
102
RTVSPropertyOp59
 70
     1
102
RTVSPropertyOp60
 70
     1
102
RTVSPropertyOp61
 70
     1
102
RTVSPropertyOp62
 70
     1
  0
XRECORD
  5
A1E2
102
{ACAD_REACTORS
330
A1E1
102
}
330
A1E1
100
AcDbXrecord
280
     1
102
RTVSPost2010Prop28
280
     0
102
RTVSPost2010PropOp28
 70
     1
102
RTVSPost2010Prop29
280
     1
102
RTVSPost2010PropOp29
 70
     1
102
RTVSPost2010Prop30
280
     1
102
RTVSPost2010PropOp30
 70
     1
102
RTVSPost2010Prop31
280
     0
102
RTVSPost2010PropOp31
 70
     1
102
RTVSPost2010Prop32
280
     0
102
RTVSPost2010PropOp32
 70
     1
102
RTVSPost2010Prop33
280
     0
102
RTVSPost2010PropOp33
 70
     1
102
RTVSPost2010Prop34
280
     0
102
RTVSPost2010PropOp34
 70
     1
102
RTVSPost2010Prop35
280
     0
102
RTVSPost2010PropOp35
 70
     1
102
RTVSPost2010Prop36
280
     0
102
RTVSPost2010PropOp36
 70
     1
102
RTVSPost2010Prop37
 90
       50
102
RTVSPost2010PropOp37
 70
     0
102
RTVSPost2010Prop38
140
0.0
102
RTVSPost2010PropOp38
 70
     0
102
RTVSPost2010Prop39
140
1.0
102
RTVSPost2010PropOp39
 70
     0
102
RTVSPost2010Prop40
 90
        0
102
RTVSPost2010PropOp40
 70
     0
102
RTVSPost2010Prop41ColorIndex
 90
       18
102
RTVSPost2010Prop41ColorRGB
 90
        0
102
RTVSPost2010PropOp41
 70
     0
102
RTVSPost2010Prop42
 90
       50
102
RTVSPost2010PropOp42
 70
     0
102
RTVSPost2010Prop43
 90
        3
102
RTVSPost2010PropOp43
 70
     0
102
RTVSPost2010Prop44ColorIndex
 90
        5
102
RTVSPost2010Prop44ColorRGB
 90
      255
102
RTVSPost2010PropOp44
 70
     0
102
RTVSPost2010Prop45
280
     0
102
RTVSPost2010PropOp45
 70
     1
102
RTVSPost2010Prop46
 90
       50
102
RTVSPost2010PropOp46
 70
     0
102
RTVSPost2010Prop47
 90
       50
102
RTVSPost2010PropOp47
 70
     0
102
RTVSPost2010Prop48
 90
       50
102
RTVSPost2010PropOp48
 70
     0
102
RTVSPost2010Prop49
280
     0
102
RTVSPost2010PropOp49
 70
     1
102
RTVSPost2010Prop50
 90
       50
102
RTVSPost2010PropOp50
 70
     0
102
RTVSPost2010Prop51ColorIndex
 90
      256
102
RTVSPost2010Prop51ColorRGB
 90
-16777216
102
RTVSPost2010PropOp51
 70
     0
102
RTVSPost2010Prop52
140
1.0
102
RTVSPost2010PropOp52
 70
     0
102
RTVSPost2010Prop53
 90
        2
102
RTVSPost2010PropOp53
 70
     0
102
RTVSPost2010Prop54
  1
strokes_ogs.tif
102
RTVSPost2010PropOp54
 70
     0
102
RTVSPost2010Prop55
280
     0
102
RTVSPost2010PropOp55
 70
     1
102
RTVSPost2010Prop56
140
1.0
102
RTVSPost2010PropOp56
 70
     0
102
RTVSPost2010Prop57
140
1.0
102
RTVSPost2010PropOp57
 70
     0
102
RTVSPropertyOp0
 70
     0
102
RTVSPropertyOp1
 70
     0
102
RTVSPropertyOp2
 70
     0
102
RTVSPropertyOp3
 70
     0
102
RTVSPropertyOp4
 70
     0
102
RTVSPropertyOp5
 70
     0
102
RTVSPropertyOp6
 70
     0
102
RTVSPropertyOp7
 70
     0
102
RTVSPropertyOp8
 70
     0
102
RTVSPropertyOp9
 70
     0
102
RTVSPropertyOp10
 70
     0
102
RTVSPropertyOp11
 70
     0
102
RTVSPropertyOp12
 70
     0
102
RTVSPropertyOp13
 70
     0
102
RTVSPropertyOp14
 70
     2
102
RTVSPropertyOp15
 70
     0
102
RTVSPropertyOp16
 70
     0
102
RTVSPropertyOp17
 70
     0
102
RTVSPropertyOp18
 70
     0
102
RTVSPropertyOp19
 70
     0
102
RTVSPropertyOp20
 70
     0
102
RTVSPropertyOp21
 70
     0
102
RTVSPropertyOp22
 70
     0
102
RTVSPropertyOp23
 70
     0
102
RTVSPropertyOp24
 70
     0
102
RTVSPropertyOp25
 70
     0
102
RTVSPropertyOp26
 70
     0
102
RTVSPropertyOp27
 70
     0
102
RTVSPropertyOp28
 70
     1
102
RTVSPropertyOp29
 70
     1
102
RTVSPropertyOp30
 70
     1
102
RTVSPropertyOp31
 70
     1
102
RTVSPropertyOp32
 70
     1
102
RTVSPropertyOp33
 70
     1
102
RTVSPropertyOp34
 70
     1
102
RTVSPropertyOp35
 70
     1
102
RTVSPropertyOp36
 70
     1
102
RTVSPropertyOp37
 70
     0
102
RTVSPropertyOp38
 70
     0
102
RTVSPropertyOp39
 70
     0
102
RTVSPropertyOp40
 70
     0
102
RTVSPropertyOp41
 70
     0
102
RTVSPropertyOp42
 70
     0
102
RTVSPropertyOp43
 70
     0
102
RTVSPropertyOp44
 70
     0
102
RTVSPropertyOp45
 70
     1
102
RTVSPropertyOp46
 70
     0
102
RTVSPropertyOp47
 70
     0
102
RTVSPropertyOp48
 70
     0
102
RTVSPropertyOp49
 70
     1
102
RTVSPropertyOp50
 70
     0
102
RTVSPropertyOp51
 70
     0
102
RTVSPropertyOp52
 70
     0
102
RTVSPropertyOp53
 70
     0
102
RTVSPropertyOp54
 70
     0
102
RTVSPropertyOp55
 70
     1
102
RTVSPropertyOp56
 70
     0
102
RTVSPropertyOp57
 70
     0
102
RTVSPropertyOp58
 70
     0
102
RTVSPropertyOp59
 70
     0
102
RTVSPropertyOp60
 70
     0
102
RTVSPropertyOp61
 70
     0
102
RTVSPropertyOp62
 70
     0
  0
XRECORD
  5
A1D2
102
{ACAD_REACTORS
330
A1D1
102
}
330
A1D1
100
AcDbXrecord
280
     1
102
RTVSPost2010Prop28
280
     0
102
RTVSPost2010PropOp28
 70
     1
102
RTVSPost2010Prop29
280
     1
102
RTVSPost2010PropOp29
 70
     1
102
RTVSPost2010Prop30
280
     1
102
RTVSPost2010PropOp30
 70
     1
102
RTVSPost2010Prop31
280
     0
102
RTVSPost2010PropOp31
 70
     1
102
RTVSPost2010Prop32
280
     0
102
RTVSPost2010PropOp32
 70
     1
102
RTVSPost2010Prop33
280
     0
102
RTVSPost2010PropOp33
 70
     1
102
RTVSPost2010Prop34
280
     0
102
RTVSPost2010PropOp34
 70
     1
102
RTVSPost2010Prop35
280
     0
102
RTVSPost2010PropOp35
 70
     1
102
RTVSPost2010Prop36
280
     0
102
RTVSPost2010PropOp36
 70
     1
102
RTVSPost2010Prop37
 90
       50
102
RTVSPost2010PropOp37
 70
     1
102
RTVSPost2010Prop38
140
0.0
102
RTVSPost2010PropOp38
 70
     1
102
RTVSPost2010Prop39
140
1.0
102
RTVSPost2010PropOp39
 70
     1
102
RTVSPost2010Prop40
 90
        0
102
RTVSPost2010PropOp40
 70
     1
102
RTVSPost2010Prop41ColorIndex
 90
       18
102
RTVSPost2010Prop41ColorRGB
 90
        0
102
RTVSPost2010PropOp41
 70
     1
102
RTVSPost2010Prop42
 90
       50
102
RTVSPost2010PropOp42
 70
     1
102
RTVSPost2010Prop43
 90
        3
102
RTVSPost2010PropOp43
 70
     1
102
RTVSPost2010Prop44ColorIndex
 90
        5
102
RTVSPost2010Prop44ColorRGB
 90
      255
102
RTVSPost2010PropOp44
 70
     1
102
RTVSPost2010Prop45
280
     0
102
RTVSPost2010PropOp45
 70
     1
102
RTVSPost2010Prop46
 90
       50
102
RTVSPost2010PropOp46
 70
     1
102
RTVSPost2010Prop47
 90
       50
102
RTVSPost2010PropOp47
 70
     1
102
RTVSPost2010Prop48
 90
       50
102
RTVSPost2010PropOp48
 70
     1
102
RTVSPost2010Prop49
280
     0
102
RTVSPost2010PropOp49
 70
     1
102
RTVSPost2010Prop50
 90
       50
102
RTVSPost2010PropOp50
 70
     1
102
RTVSPost2010Prop51ColorIndex
 90
      256
102
RTVSPost2010Prop51ColorRGB
 90
-16777216
102
RTVSPost2010PropOp51
 70
     0
102
RTVSPost2010Prop52
140
1.0
102
RTVSPost2010PropOp52
 70
     0
102
RTVSPost2010Prop53
 90
        2
102
RTVSPost2010PropOp53
 70
     1
102
RTVSPost2010Prop54
  1
strokes_ogs.tif
102
RTVSPost2010PropOp54
 70
     1
102
RTVSPost2010Prop55
280
     0
102
RTVSPost2010PropOp55
 70
     1
102
RTVSPost2010Prop56
140
1.0
102
RTVSPost2010PropOp56
 70
     1
102
RTVSPost2010Prop57
140
1.0
102
RTVSPost2010PropOp57
 70
     1
102
RTVSPropertyOp0
 70
     1
102
RTVSPropertyOp1
 70
     1
102
RTVSPropertyOp2
 70
     1
102
RTVSPropertyOp3
 70
     1
102
RTVSPropertyOp4
 70
     1
102
RTVSPropertyOp5
 70
     1
102
RTVSPropertyOp6
 70
     1
102
RTVSPropertyOp7
 70
     1
102
RTVSPropertyOp8
 70
     1
102
RTVSPropertyOp9
 70
     1
102
RTVSPropertyOp10
 70
     1
102
RTVSPropertyOp11
 70
     1
102
RTVSPropertyOp12
 70
     1
102
RTVSPropertyOp13
 70
     1
102
RTVSPropertyOp14
 70
     1
102
RTVSPropertyOp15
 70
     1
102
RTVSPropertyOp16
 70
     1
102
RTVSPropertyOp17
 70
     1
102
RTVSPropertyOp18
 70
     1
102
RTVSPropertyOp19
 70
     1
102
RTVSPropertyOp20
 70
     1
102
RTVSPropertyOp21
 70
     1
102
RTVSPropertyOp22
 70
     1
102
RTVSPropertyOp23
 70
     1
102
RTVSPropertyOp24
 70
     1
102
RTVSPropertyOp25
 70
     1
102
RTVSPropertyOp26
 70
     1
102
RTVSPropertyOp27
 70
     1
102
RTVSPropertyOp28
 70
     1
102
RTVSPropertyOp29
 70
     1
102
RTVSPropertyOp30
 70
     1
102
RTVSPropertyOp31
 70
     1
102
RTVSPropertyOp32
 70
     1
102
RTVSPropertyOp33
 70
     1
102
RTVSPropertyOp34
 70
     1
102
RTVSPropertyOp35
 70
     1
102
RTVSPropertyOp36
 70
     1
102
RTVSPropertyOp37
 70
     1
102
RTVSPropertyOp38
 70
     1
102
RTVSPropertyOp39
 70
     1
102
RTVSPropertyOp40
 70
     1
102
RTVSPropertyOp41
 70
     1
102
RTVSPropertyOp42
 70
     1
102
RTVSPropertyOp43
 70
     1
102
RTVSPropertyOp44
 70
     1
102
RTVSPropertyOp45
 70
     1
102
RTVSPropertyOp46
 70
     1
102
RTVSPropertyOp47
 70
     1
102
RTVSPropertyOp48
 70
     1
102
RTVSPropertyOp49
 70
     1
102
RTVSPropertyOp50
 70
     1
102
RTVSPropertyOp51
 70
     0
102
RTVSPropertyOp52
 70
     0
102
RTVSPropertyOp53
 70
     1
102
RTVSPropertyOp54
 70
     1
102
RTVSPropertyOp55
 70
     1
102
RTVSPropertyOp56
 70
     1
102
RTVSPropertyOp57
 70
     1
102
RTVSPropertyOp58
 70
     1
102
RTVSPropertyOp59
 70
     1
102
RTVSPropertyOp60
 70
     1
102
RTVSPropertyOp61
 70
     1
102
RTVSPropertyOp62
 70
     1
  0
XRECORD
  5
A1E4
102
{ACAD_REACTORS
330
A1E3
102
}
330
A1E3
100
AcDbXrecord
280
     1
102
RTVSPost2010Prop28
280
     0
102
RTVSPost2010PropOp28
 70
     1
102
RTVSPost2010Prop29
280
     1
102
RTVSPost2010PropOp29
 70
     1
102
RTVSPost2010Prop30
280
     1
102
RTVSPost2010PropOp30
 70
     1
102
RTVSPost2010Prop31
280
     0
102
RTVSPost2010PropOp31
 70
     1
102
RTVSPost2010Prop32
280
     0
102
RTVSPost2010PropOp32
 70
     1
102
RTVSPost2010Prop33
280
     0
102
RTVSPost2010PropOp33
 70
     1
102
RTVSPost2010Prop34
280
     0
102
RTVSPost2010PropOp34
 70
     1
102
RTVSPost2010Prop35
280
     0
102
RTVSPost2010PropOp35
 70
     1
102
RTVSPost2010Prop36
280
     0
102
RTVSPost2010PropOp36
 70
     1
102
RTVSPost2010Prop37
 90
       50
102
RTVSPost2010PropOp37
 70
     0
102
RTVSPost2010Prop38
140
0.0
102
RTVSPost2010PropOp38
 70
     0
102
RTVSPost2010Prop39
140
1.0
102
RTVSPost2010PropOp39
 70
     0
102
RTVSPost2010Prop40
 90
        0
102
RTVSPost2010PropOp40
 70
     0
102
RTVSPost2010Prop41ColorIndex
 90
       18
102
RTVSPost2010Prop41ColorRGB
 90
        0
102
RTVSPost2010PropOp41
 70
     0
102
RTVSPost2010Prop42
 90
       50
102
RTVSPost2010PropOp42
 70
     0
102
RTVSPost2010Prop43
 90
        3
102
RTVSPost2010PropOp43
 70
     0
102
RTVSPost2010Prop44ColorIndex
 90
        5
102
RTVSPost2010Prop44ColorRGB
 90
      255
102
RTVSPost2010PropOp44
 70
     0
102
RTVSPost2010Prop45
280
     0
102
RTVSPost2010PropOp45
 70
     1
102
RTVSPost2010Prop46
 90
       50
102
RTVSPost2010PropOp46
 70
     0
102
RTVSPost2010Prop47
 90
       50
102
RTVSPost2010PropOp47
 70
     0
102
RTVSPost2010Prop48
 90
       50
102
RTVSPost2010PropOp48
 70
     0
102
RTVSPost2010Prop49
280
     0
102
RTVSPost2010PropOp49
 70
     1
102
RTVSPost2010Prop50
 90
       50
102
RTVSPost2010PropOp50
 70
     0
102
RTVSPost2010Prop51ColorIndex
 90
      256
102
RTVSPost2010Prop51ColorRGB
 90
-16777216
102
RTVSPost2010PropOp51
 70
     0
102
RTVSPost2010Prop52
140
1.0
102
RTVSPost2010PropOp52
 70
     0
102
RTVSPost2010Prop53
 90
        2
102
RTVSPost2010PropOp53
 70
     0
102
RTVSPost2010Prop54
  1
strokes_ogs.tif
102
RTVSPost2010PropOp54
 70
     0
102
RTVSPost2010Prop55
280
     0
102
RTVSPost2010PropOp55
 70
     1
102
RTVSPost2010Prop56
140
1.0
102
RTVSPost2010PropOp56
 70
     0
102
RTVSPost2010Prop57
140
1.0
102
RTVSPost2010PropOp57
 70
     0
102
RTVSPropertyOp0
 70
     0
102
RTVSPropertyOp1
 70
     0
102
RTVSPropertyOp2
 70
     0
102
RTVSPropertyOp3
 70
     0
102
RTVSPropertyOp4
 70
     0
102
RTVSPropertyOp5
 70
     0
102
RTVSPropertyOp6
 70
     0
102
RTVSPropertyOp7
 70
     0
102
RTVSPropertyOp8
 70
     0
102
RTVSPropertyOp9
 70
     0
102
RTVSPropertyOp10
 70
     0
102
RTVSPropertyOp11
 70
     0
102
RTVSPropertyOp12
 70
     0
102
RTVSPropertyOp13
 70
     0
102
RTVSPropertyOp14
 70
     2
102
RTVSPropertyOp15
 70
     0
102
RTVSPropertyOp16
 70
     0
102
RTVSPropertyOp17
 70
     0
102
RTVSPropertyOp18
 70
     0
102
RTVSPropertyOp19
 70
     0
102
RTVSPropertyOp20
 70
     0
102
RTVSPropertyOp21
 70
     0
102
RTVSPropertyOp22
 70
     0
102
RTVSPropertyOp23
 70
     0
102
RTVSPropertyOp24
 70
     0
102
RTVSPropertyOp25
 70
     0
102
RTVSPropertyOp26
 70
     0
102
RTVSPropertyOp27
 70
     0
102
RTVSPropertyOp28
 70
     1
102
RTVSPropertyOp29
 70
     1
102
RTVSPropertyOp30
 70
     1
102
RTVSPropertyOp31
 70
     1
102
RTVSPropertyOp32
 70
     1
102
RTVSPropertyOp33
 70
     1
102
RTVSPropertyOp34
 70
     1
102
RTVSPropertyOp35
 70
     1
102
RTVSPropertyOp36
 70
     1
102
RTVSPropertyOp37
 70
     0
102
RTVSPropertyOp38
 70
     0
102
RTVSPropertyOp39
 70
     0
102
RTVSPropertyOp40
 70
     0
102
RTVSPropertyOp41
 70
     0
102
RTVSPropertyOp42
 70
     0
102
RTVSPropertyOp43
 70
     0
102
RTVSPropertyOp44
 70
     0
102
RTVSPropertyOp45
 70
     1
102
RTVSPropertyOp46
 70
     0
102
RTVSPropertyOp47
 70
     0
102
RTVSPropertyOp48
 70
     0
102
RTVSPropertyOp49
 70
     1
102
RTVSPropertyOp50
 70
     0
102
RTVSPropertyOp51
 70
     0
102
RTVSPropertyOp52
 70
     0
102
RTVSPropertyOp53
 70
     0
102
RTVSPropertyOp54
 70
     0
102
RTVSPropertyOp55
 70
     1
102
RTVSPropertyOp56
 70
     0
102
RTVSPropertyOp57
 70
     0
102
RTVSPropertyOp58
 70
     0
102
RTVSPropertyOp59
 70
     0
102
RTVSPropertyOp60
 70
     0
102
RTVSPropertyOp61
 70
     0
102
RTVSPropertyOp62
 70
     0
  0
XRECORD
  5
A1CA
102
{ACAD_REACTORS
330
A1C9
102
}
330
A1C9
100
AcDbXrecord
280
     1
102
RTVSPost2010Prop28
280
     0
102
RTVSPost2010PropOp28
 70
     1
102
RTVSPost2010Prop29
280
     1
102
RTVSPost2010PropOp29
 70
     1
102
RTVSPost2010Prop30
280
     1
102
RTVSPost2010PropOp30
 70
     1
102
RTVSPost2010Prop31
280
     0
102
RTVSPost2010PropOp31
 70
     1
102
RTVSPost2010Prop32
280
     0
102
RTVSPost2010PropOp32
 70
     1
102
RTVSPost2010Prop33
280
     0
102
RTVSPost2010PropOp33
 70
     1
102
RTVSPost2010Prop34
280
     0
102
RTVSPost2010PropOp34
 70
     1
102
RTVSPost2010Prop35
280
     0
102
RTVSPost2010PropOp35
 70
     1
102
RTVSPost2010Prop36
280
     0
102
RTVSPost2010PropOp36
 70
     1
102
RTVSPost2010Prop37
 90
       50
102
RTVSPost2010PropOp37
 70
     1
102
RTVSPost2010Prop38
140
0.0
102
RTVSPost2010PropOp38
 70
     1
102
RTVSPost2010Prop39
140
1.0
102
RTVSPost2010PropOp39
 70
     1
102
RTVSPost2010Prop40
 90
        0
102
RTVSPost2010PropOp40
 70
     1
102
RTVSPost2010Prop41ColorIndex
 90
       18
102
RTVSPost2010Prop41ColorRGB
 90
        0
102
RTVSPost2010PropOp41
 70
     1
102
RTVSPost2010Prop42
 90
       50
102
RTVSPost2010PropOp42
 70
     1
102
RTVSPost2010Prop43
 90
        3
102
RTVSPost2010PropOp43
 70
     1
102
RTVSPost2010Prop44ColorIndex
 90
        5
102
RTVSPost2010Prop44ColorRGB
 90
      255
102
RTVSPost2010PropOp44
 70
     1
102
RTVSPost2010Prop45
280
     0
102
RTVSPost2010PropOp45
 70
     1
102
RTVSPost2010Prop46
 90
       50
102
RTVSPost2010PropOp46
 70
     1
102
RTVSPost2010Prop47
 90
       50
102
RTVSPost2010PropOp47
 70
     1
102
RTVSPost2010Prop48
 90
       50
102
RTVSPost2010PropOp48
 70
     1
102
RTVSPost2010Prop49
280
     0
102
RTVSPost2010PropOp49
 70
     1
102
RTVSPost2010Prop50
 90
       50
102
RTVSPost2010PropOp50
 70
     1
102
RTVSPost2010Prop51ColorIndex
 90
      256
102
RTVSPost2010Prop51ColorRGB
 90
-16777216
102
RTVSPost2010PropOp51
 70
     0
102
RTVSPost2010Prop52
140
1.0
102
RTVSPost2010PropOp52
 70
     0
102
RTVSPost2010Prop53
 90
        2
102
RTVSPost2010PropOp53
 70
     1
102
RTVSPost2010Prop54
  1
strokes_ogs.tif
102
RTVSPost2010PropOp54
 70
     1
102
RTVSPost2010Prop55
280
     0
102
RTVSPost2010PropOp55
 70
     1
102
RTVSPost2010Prop56
140
1.0
102
RTVSPost2010PropOp56
 70
     1
102
RTVSPost2010Prop57
140
1.0
102
RTVSPost2010PropOp57
 70
     1
102
RTVSPropertyOp0
 70
     1
102
RTVSPropertyOp1
 70
     1
102
RTVSPropertyOp2
 70
     1
102
RTVSPropertyOp3
 70
     1
102
RTVSPropertyOp4
 70
     1
102
RTVSPropertyOp5
 70
     1
102
RTVSPropertyOp6
 70
     1
102
RTVSPropertyOp7
 70
     1
102
RTVSPropertyOp8
 70
     1
102
RTVSPropertyOp9
 70
     1
102
RTVSPropertyOp10
 70
     1
102
RTVSPropertyOp11
 70
     1
102
RTVSPropertyOp12
 70
     1
102
RTVSPropertyOp13
 70
     1
102
RTVSPropertyOp14
 70
     1
102
RTVSPropertyOp15
 70
     1
102
RTVSPropertyOp16
 70
     1
102
RTVSPropertyOp17
 70
     1
102
RTVSPropertyOp18
 70
     1
102
RTVSPropertyOp19
 70
     1
102
RTVSPropertyOp20
 70
     1
102
RTVSPropertyOp21
 70
     1
102
RTVSPropertyOp22
 70
     1
102
RTVSPropertyOp23
 70
     1
102
RTVSPropertyOp24
 70
     1
102
RTVSPropertyOp25
 70
     1
102
RTVSPropertyOp26
 70
     1
102
RTVSPropertyOp27
 70
     1
102
RTVSPropertyOp28
 70
     1
102
RTVSPropertyOp29
 70
     1
102
RTVSPropertyOp30
 70
     1
102
RTVSPropertyOp31
 70
     1
102
RTVSPropertyOp32
 70
     1
102
RTVSPropertyOp33
 70
     1
102
RTVSPropertyOp34
 70
     1
102
RTVSPropertyOp35
 70
     1
102
RTVSPropertyOp36
 70
     1
102
RTVSPropertyOp37
 70
     1
102
RTVSPropertyOp38
 70
     1
102
RTVSPropertyOp39
 70
     1
102
RTVSPropertyOp40
 70
     1
102
RTVSPropertyOp41
 70
     1
102
RTVSPropertyOp42
 70
     1
102
RTVSPropertyOp43
 70
     1
102
RTVSPropertyOp44
 70
     1
102
RTVSPropertyOp45
 70
     1
102
RTVSPropertyOp46
 70
     1
102
RTVSPropertyOp47
 70
     1
102
RTVSPropertyOp48
 70
     1
102
RTVSPropertyOp49
 70
     1
102
RTVSPropertyOp50
 70
     1
102
RTVSPropertyOp51
 70
     0
102
RTVSPropertyOp52
 70
     0
102
RTVSPropertyOp53
 70
     1
102
RTVSPropertyOp54
 70
     1
102
RTVSPropertyOp55
 70
     1
102
RTVSPropertyOp56
 70
     1
102
RTVSPropertyOp57
 70
     1
102
RTVSPropertyOp58
 70
     1
102
RTVSPropertyOp59
 70
     1
102
RTVSPropertyOp60
 70
     1
102
RTVSPropertyOp61
 70
     1
102
RTVSPropertyOp62
 70
     1
  0
XRECORD
  5
A1E0
102
{ACAD_REACTORS
330
A1DF
102
}
330
A1DF
100
AcDbXrecord
280
     1
102
RTVSPost2010Prop28
280
     0
102
RTVSPost2010PropOp28
 70
     1
102
RTVSPost2010Prop29
280
     1
102
RTVSPost2010PropOp29
 70
     1
102
RTVSPost2010Prop30
280
     1
102
RTVSPost2010PropOp30
 70
     1
102
RTVSPost2010Prop31
280
     0
102
RTVSPost2010PropOp31
 70
     1
102
RTVSPost2010Prop32
280
     0
102
RTVSPost2010PropOp32
 70
     1
102
RTVSPost2010Prop33
280
     0
102
RTVSPost2010PropOp33
 70
     1
102
RTVSPost2010Prop34
280
     0
102
RTVSPost2010PropOp34
 70
     1
102
RTVSPost2010Prop35
280
     0
102
RTVSPost2010PropOp35
 70
     1
102
RTVSPost2010Prop36
280
     0
102
RTVSPost2010PropOp36
 70
     1
102
RTVSPost2010Prop37
 90
       50
102
RTVSPost2010PropOp37
 70
     1
102
RTVSPost2010Prop38
140
0.0
102
RTVSPost2010PropOp38
 70
     1
102
RTVSPost2010Prop39
140
1.0
102
RTVSPost2010PropOp39
 70
     1
102
RTVSPost2010Prop40
 90
        0
102
RTVSPost2010PropOp40
 70
     1
102
RTVSPost2010Prop41ColorIndex
 90
       18
102
RTVSPost2010Prop41ColorRGB
 90
        0
102
RTVSPost2010PropOp41
 70
     1
102
RTVSPost2010Prop42
 90
       50
102
RTVSPost2010PropOp42
 70
     1
102
RTVSPost2010Prop43
 90
        3
102
RTVSPost2010PropOp43
 70
     1
102
RTVSPost2010Prop44ColorIndex
 90
        5
102
RTVSPost2010Prop44ColorRGB
 90
      255
102
RTVSPost2010PropOp44
 70
     1
102
RTVSPost2010Prop45
280
     0
102
RTVSPost2010PropOp45
 70
     1
102
RTVSPost2010Prop46
 90
       50
102
RTVSPost2010PropOp46
 70
     1
102
RTVSPost2010Prop47
 90
       50
102
RTVSPost2010PropOp47
 70
     1
102
RTVSPost2010Prop48
 90
       50
102
RTVSPost2010PropOp48
 70
     1
102
RTVSPost2010Prop49
280
     0
102
RTVSPost2010PropOp49
 70
     1
102
RTVSPost2010Prop50
 90
       50
102
RTVSPost2010PropOp50
 70
     1
102
RTVSPost2010Prop51ColorIndex
 90
      256
102
RTVSPost2010Prop51ColorRGB
 90
-16777216
102
RTVSPost2010PropOp51
 70
     0
102
RTVSPost2010Prop52
140
1.0
102
RTVSPost2010PropOp52
 70
     0
102
RTVSPost2010Prop53
 90
        2
102
RTVSPost2010PropOp53
 70
     1
102
RTVSPost2010Prop54
  1
strokes_ogs.tif
102
RTVSPost2010PropOp54
 70
     1
102
RTVSPost2010Prop55
280
     0
102
RTVSPost2010PropOp55
 70
     1
102
RTVSPost2010Prop56
140
1.0
102
RTVSPost2010PropOp56
 70
     1
102
RTVSPost2010Prop57
140
1.0
102
RTVSPost2010PropOp57
 70
     1
102
RTVSPropertyOp0
 70
     1
102
RTVSPropertyOp1
 70
     1
102
RTVSPropertyOp2
 70
     1
102
RTVSPropertyOp3
 70
     1
102
RTVSPropertyOp4
 70
     1
102
RTVSPropertyOp5
 70
     1
102
RTVSPropertyOp6
 70
     1
102
RTVSPropertyOp7
 70
     1
102
RTVSPropertyOp8
 70
     1
102
RTVSPropertyOp9
 70
     1
102
RTVSPropertyOp10
 70
     1
102
RTVSPropertyOp11
 70
     1
102
RTVSPropertyOp12
 70
     1
102
RTVSPropertyOp13
 70
     1
102
RTVSPropertyOp14
 70
     1
102
RTVSPropertyOp15
 70
     1
102
RTVSPropertyOp16
 70
     1
102
RTVSPropertyOp17
 70
     1
102
RTVSPropertyOp18
 70
     1
102
RTVSPropertyOp19
 70
     1
102
RTVSPropertyOp20
 70
     1
102
RTVSPropertyOp21
 70
     1
102
RTVSPropertyOp22
 70
     1
102
RTVSPropertyOp23
 70
     1
102
RTVSPropertyOp24
 70
     1
102
RTVSPropertyOp25
 70
     1
102
RTVSPropertyOp26
 70
     1
102
RTVSPropertyOp27
 70
     1
102
RTVSPropertyOp28
 70
     1
102
RTVSPropertyOp29
 70
     1
102
RTVSPropertyOp30
 70
     1
102
RTVSPropertyOp31
 70
     1
102
RTVSPropertyOp32
 70
     1
102
RTVSPropertyOp33
 70
     1
102
RTVSPropertyOp34
 70
     1
102
RTVSPropertyOp35
 70
     1
102
RTVSPropertyOp36
 70
     1
102
RTVSPropertyOp37
 70
     1
102
RTVSPropertyOp38
 70
     1
102
RTVSPropertyOp39
 70
     1
102
RTVSPropertyOp40
 70
     1
102
RTVSPropertyOp41
 70
     1
102
RTVSPropertyOp42
 70
     1
102
RTVSPropertyOp43
 70
     1
102
RTVSPropertyOp44
 70
     1
102
RTVSPropertyOp45
 70
     1
102
RTVSPropertyOp46
 70
     1
102
RTVSPropertyOp47
 70
     1
102
RTVSPropertyOp48
 70
     1
102
RTVSPropertyOp49
 70
     1
102
RTVSPropertyOp50
 70
     1
102
RTVSPropertyOp51
 70
     0
102
RTVSPropertyOp52
 70
     0
102
RTVSPropertyOp53
 70
     1
102
RTVSPropertyOp54
 70
     1
102
RTVSPropertyOp55
 70
     1
102
RTVSPropertyOp56
 70
     1
102
RTVSPropertyOp57
 70
     1
102
RTVSPropertyOp58
 70
     1
102
RTVSPropertyOp59
 70
     1
102
RTVSPropertyOp60
 70
     1
102
RTVSPropertyOp61
 70
     1
102
RTVSPropertyOp62
 70
     1
  0
XRECORD
  5
A1DE
102
{ACAD_REACTORS
330
A1DD
102
}
330
A1DD
100
AcDbXrecord
280
     1
102
RTVSPost2010Prop28
280
     0
102
RTVSPost2010PropOp28
 70
     1
102
RTVSPost2010Prop29
280
     1
102
RTVSPost2010PropOp29
 70
     1
102
RTVSPost2010Prop30
280
     1
102
RTVSPost2010PropOp30
 70
     1
102
RTVSPost2010Prop31
280
     0
102
RTVSPost2010PropOp31
 70
     1
102
RTVSPost2010Prop32
280
     0
102
RTVSPost2010PropOp32
 70
     1
102
RTVSPost2010Prop33
280
     0
102
RTVSPost2010PropOp33
 70
     1
102
RTVSPost2010Prop34
280
     0
102
RTVSPost2010PropOp34
 70
     1
102
RTVSPost2010Prop35
280
     0
102
RTVSPost2010PropOp35
 70
     1
102
RTVSPost2010Prop36
280
     0
102
RTVSPost2010PropOp36
 70
     1
102
RTVSPost2010Prop37
 90
       50
102
RTVSPost2010PropOp37
 70
     1
102
RTVSPost2010Prop38
140
0.0
102
RTVSPost2010PropOp38
 70
     1
102
RTVSPost2010Prop39
140
1.0
102
RTVSPost2010PropOp39
 70
     1
102
RTVSPost2010Prop40
 90
        0
102
RTVSPost2010PropOp40
 70
     1
102
RTVSPost2010Prop41ColorIndex
 90
       18
102
RTVSPost2010Prop41ColorRGB
 90
        0
102
RTVSPost2010PropOp41
 70
     1
102
RTVSPost2010Prop42
 90
       50
102
RTVSPost2010PropOp42
 70
     1
102
RTVSPost2010Prop43
 90
        3
102
RTVSPost2010PropOp43
 70
     1
102
RTVSPost2010Prop44ColorIndex
 90
        5
102
RTVSPost2010Prop44ColorRGB
 90
      255
102
RTVSPost2010PropOp44
 70
     1
102
RTVSPost2010Prop45
280
     0
102
RTVSPost2010PropOp45
 70
     1
102
RTVSPost2010Prop46
 90
       50
102
RTVSPost2010PropOp46
 70
     1
102
RTVSPost2010Prop47
 90
       50
102
RTVSPost2010PropOp47
 70
     1
102
RTVSPost2010Prop48
 90
       50
102
RTVSPost2010PropOp48
 70
     1
102
RTVSPost2010Prop49
280
     0
102
RTVSPost2010PropOp49
 70
     1
102
RTVSPost2010Prop50
 90
       50
102
RTVSPost2010PropOp50
 70
     1
102
RTVSPost2010Prop51ColorIndex
 90
      256
102
RTVSPost2010Prop51ColorRGB
 90
-16777216
102
RTVSPost2010PropOp51
 70
     0
102
RTVSPost2010Prop52
140
1.0
102
RTVSPost2010PropOp52
 70
     0
102
RTVSPost2010Prop53
 90
        2
102
RTVSPost2010PropOp53
 70
     1
102
RTVSPost2010Prop54
  1
strokes_ogs.tif
102
RTVSPost2010PropOp54
 70
     1
102
RTVSPost2010Prop55
280
     0
102
RTVSPost2010PropOp55
 70
     1
102
RTVSPost2010Prop56
140
1.0
102
RTVSPost2010PropOp56
 70
     1
102
RTVSPost2010Prop57
140
1.0
102
RTVSPost2010PropOp57
 70
     1
102
RTVSPropertyOp0
 70
     1
102
RTVSPropertyOp1
 70
     1
102
RTVSPropertyOp2
 70
     1
102
RTVSPropertyOp3
 70
     1
102
RTVSPropertyOp4
 70
     1
102
RTVSPropertyOp5
 70
     1
102
RTVSPropertyOp6
 70
     1
102
RTVSPropertyOp7
 70
     1
102
RTVSPropertyOp8
 70
     1
102
RTVSPropertyOp9
 70
     1
102
RTVSPropertyOp10
 70
     1
102
RTVSPropertyOp11
 70
     1
102
RTVSPropertyOp12
 70
     1
102
RTVSPropertyOp13
 70
     1
102
RTVSPropertyOp14
 70
     1
102
RTVSPropertyOp15
 70
     1
102
RTVSPropertyOp16
 70
     1
102
RTVSPropertyOp17
 70
     1
102
RTVSPropertyOp18
 70
     1
102
RTVSPropertyOp19
 70
     1
102
RTVSPropertyOp20
 70
     1
102
RTVSPropertyOp21
 70
     1
102
RTVSPropertyOp22
 70
     1
102
RTVSPropertyOp23
 70
     1
102
RTVSPropertyOp24
 70
     1
102
RTVSPropertyOp25
 70
     1
102
RTVSPropertyOp26
 70
     1
102
RTVSPropertyOp27
 70
     1
102
RTVSPropertyOp28
 70
     1
102
RTVSPropertyOp29
 70
     1
102
RTVSPropertyOp30
 70
     1
102
RTVSPropertyOp31
 70
     1
102
RTVSPropertyOp32
 70
     1
102
RTVSPropertyOp33
 70
     1
102
RTVSPropertyOp34
 70
     1
102
RTVSPropertyOp35
 70
     1
102
RTVSPropertyOp36
 70
     1
102
RTVSPropertyOp37
 70
     1
102
RTVSPropertyOp38
 70
     1
102
RTVSPropertyOp39
 70
     1
102
RTVSPropertyOp40
 70
     1
102
RTVSPropertyOp41
 70
     1
102
RTVSPropertyOp42
 70
     1
102
RTVSPropertyOp43
 70
     1
102
RTVSPropertyOp44
 70
     1
102
RTVSPropertyOp45
 70
     1
102
RTVSPropertyOp46
 70
     1
102
RTVSPropertyOp47
 70
     1
102
RTVSPropertyOp48
 70
     1
102
RTVSPropertyOp49
 70
     1
102
RTVSPropertyOp50
 70
     1
102
RTVSPropertyOp51
 70
     0
102
RTVSPropertyOp52
 70
     0
102
RTVSPropertyOp53
 70
     1
102
RTVSPropertyOp54
 70
     1
102
RTVSPropertyOp55
 70
     1
102
RTVSPropertyOp56
 70
     1
102
RTVSPropertyOp57
 70
     1
102
RTVSPropertyOp58
 70
     1
102
RTVSPropertyOp59
 70
     1
102
RTVSPropertyOp60
 70
     1
102
RTVSPropertyOp61
 70
     1
102
RTVSPropertyOp62
 70
     1
  0
XRECORD
  5
A1D8
102
{ACAD_REACTORS
330
A1D7
102
}
330
A1D7
100
AcDbXrecord
280
     1
102
RTVSPost2010Prop28
280
     0
102
RTVSPost2010PropOp28
 70
     1
102
RTVSPost2010Prop29
280
     1
102
RTVSPost2010PropOp29
 70
     1
102
RTVSPost2010Prop30
280
     1
102
RTVSPost2010PropOp30
 70
     1
102
RTVSPost2010Prop31
280
     0
102
RTVSPost2010PropOp31
 70
     1
102
RTVSPost2010Prop32
280
     0
102
RTVSPost2010PropOp32
 70
     1
102
RTVSPost2010Prop33
280
     0
102
RTVSPost2010PropOp33
 70
     1
102
RTVSPost2010Prop34
280
     0
102
RTVSPost2010PropOp34
 70
     1
102
RTVSPost2010Prop35
280
     0
102
RTVSPost2010PropOp35
 70
     1
102
RTVSPost2010Prop36
280
     0
102
RTVSPost2010PropOp36
 70
     1
102
RTVSPost2010Prop37
 90
       50
102
RTVSPost2010PropOp37
 70
     1
102
RTVSPost2010Prop38
140
0.0
102
RTVSPost2010PropOp38
 70
     1
102
RTVSPost2010Prop39
140
1.0
102
RTVSPost2010PropOp39
 70
     1
102
RTVSPost2010Prop40
 90
        0
102
RTVSPost2010PropOp40
 70
     1
102
RTVSPost2010Prop41ColorIndex
 90
       18
102
RTVSPost2010Prop41ColorRGB
 90
        0
102
RTVSPost2010PropOp41
 70
     1
102
RTVSPost2010Prop42
 90
       50
102
RTVSPost2010PropOp42
 70
     1
102
RTVSPost2010Prop43
 90
        3
102
RTVSPost2010PropOp43
 70
     1
102
RTVSPost2010Prop44ColorIndex
 90
        5
102
RTVSPost2010Prop44ColorRGB
 90
      255
102
RTVSPost2010PropOp44
 70
     1
102
RTVSPost2010Prop45
280
     0
102
RTVSPost2010PropOp45
 70
     1
102
RTVSPost2010Prop46
 90
       50
102
RTVSPost2010PropOp46
 70
     1
102
RTVSPost2010Prop47
 90
       50
102
RTVSPost2010PropOp47
 70
     1
102
RTVSPost2010Prop48
 90
       50
102
RTVSPost2010PropOp48
 70
     1
102
RTVSPost2010Prop49
280
     0
102
RTVSPost2010PropOp49
 70
     1
102
RTVSPost2010Prop50
 90
       50
102
RTVSPost2010PropOp50
 70
     1
102
RTVSPost2010Prop51ColorIndex
 90
      256
102
RTVSPost2010Prop51ColorRGB
 90
-16777216
102
RTVSPost2010PropOp51
 70
     0
102
RTVSPost2010Prop52
140
1.0
102
RTVSPost2010PropOp52
 70
     0
102
RTVSPost2010Prop53
 90
        2
102
RTVSPost2010PropOp53
 70
     1
102
RTVSPost2010Prop54
  1
strokes_ogs.tif
102
RTVSPost2010PropOp54
 70
     1
102
RTVSPost2010Prop55
280
     0
102
RTVSPost2010PropOp55
 70
     1
102
RTVSPost2010Prop56
140
1.0
102
RTVSPost2010PropOp56
 70
     1
102
RTVSPost2010Prop57
140
1.0
102
RTVSPost2010PropOp57
 70
     1
102
RTVSPropertyOp0
 70
     1
102
RTVSPropertyOp1
 70
     1
102
RTVSPropertyOp2
 70
     1
102
RTVSPropertyOp3
 70
     1
102
RTVSPropertyOp4
 70
     1
102
RTVSPropertyOp5
 70
     1
102
RTVSPropertyOp6
 70
     1
102
RTVSPropertyOp7
 70
     1
102
RTVSPropertyOp8
 70
     1
102
RTVSPropertyOp9
 70
     1
102
RTVSPropertyOp10
 70
     1
102
RTVSPropertyOp11
 70
     1
102
RTVSPropertyOp12
 70
     1
102
RTVSPropertyOp13
 70
     1
102
RTVSPropertyOp14
 70
     1
102
RTVSPropertyOp15
 70
     1
102
RTVSPropertyOp16
 70
     1
102
RTVSPropertyOp17
 70
     1
102
RTVSPropertyOp18
 70
     1
102
RTVSPropertyOp19
 70
     1
102
RTVSPropertyOp20
 70
     1
102
RTVSPropertyOp21
 70
     1
102
RTVSPropertyOp22
 70
     1
102
RTVSPropertyOp23
 70
     1
102
RTVSPropertyOp24
 70
     1
102
RTVSPropertyOp25
 70
     1
102
RTVSPropertyOp26
 70
     1
102
RTVSPropertyOp27
 70
     1
102
RTVSPropertyOp28
 70
     1
102
RTVSPropertyOp29
 70
     1
102
RTVSPropertyOp30
 70
     1
102
RTVSPropertyOp31
 70
     1
102
RTVSPropertyOp32
 70
     1
102
RTVSPropertyOp33
 70
     1
102
RTVSPropertyOp34
 70
     1
102
RTVSPropertyOp35
 70
     1
102
RTVSPropertyOp36
 70
     1
102
RTVSPropertyOp37
 70
     1
102
RTVSPropertyOp38
 70
     1
102
RTVSPropertyOp39
 70
     1
102
RTVSPropertyOp40
 70
     1
102
RTVSPropertyOp41
 70
     1
102
RTVSPropertyOp42
 70
     1
102
RTVSPropertyOp43
 70
     1
102
RTVSPropertyOp44
 70
     1
102
RTVSPropertyOp45
 70
     1
102
RTVSPropertyOp46
 70
     1
102
RTVSPropertyOp47
 70
     1
102
RTVSPropertyOp48
 70
     1
102
RTVSPropertyOp49
 70
     1
102
RTVSPropertyOp50
 70
     1
102
RTVSPropertyOp51
 70
     0
102
RTVSPropertyOp52
 70
     0
102
RTVSPropertyOp53
 70
     1
102
RTVSPropertyOp54
 70
     1
102
RTVSPropertyOp55
 70
     1
102
RTVSPropertyOp56
 70
     1
102
RTVSPropertyOp57
 70
     1
102
RTVSPropertyOp58
 70
     1
102
RTVSPropertyOp59
 70
     1
102
RTVSPropertyOp60
 70
     1
102
RTVSPropertyOp61
 70
     1
102
RTVSPropertyOp62
 70
     1
  0
XRECORD
  5
A1DA
102
{ACAD_REACTORS
330
A1D9
102
}
330
A1D9
100
AcDbXrecord
280
     1
102
RTVSPost2010Prop28
280
     0
102
RTVSPost2010PropOp28
 70
     1
102
RTVSPost2010Prop29
280
     1
102
RTVSPost2010PropOp29
 70
     1
102
RTVSPost2010Prop30
280
     1
102
RTVSPost2010PropOp30
 70
     1
102
RTVSPost2010Prop31
280
     0
102
RTVSPost2010PropOp31
 70
     1
102
RTVSPost2010Prop32
280
     0
102
RTVSPost2010PropOp32
 70
     1
102
RTVSPost2010Prop33
280
     0
102
RTVSPost2010PropOp33
 70
     1
102
RTVSPost2010Prop34
280
     0
102
RTVSPost2010PropOp34
 70
     1
102
RTVSPost2010Prop35
280
     0
102
RTVSPost2010PropOp35
 70
     1
102
RTVSPost2010Prop36
280
     0
102
RTVSPost2010PropOp36
 70
     1
102
RTVSPost2010Prop37
 90
       50
102
RTVSPost2010PropOp37
 70
     1
102
RTVSPost2010Prop38
140
0.0
102
RTVSPost2010PropOp38
 70
     1
102
RTVSPost2010Prop39
140
1.0
102
RTVSPost2010PropOp39
 70
     1
102
RTVSPost2010Prop40
 90
        0
102
RTVSPost2010PropOp40
 70
     1
102
RTVSPost2010Prop41ColorIndex
 90
       18
102
RTVSPost2010Prop41ColorRGB
 90
        0
102
RTVSPost2010PropOp41
 70
     1
102
RTVSPost2010Prop42
 90
       50
102
RTVSPost2010PropOp42
 70
     1
102
RTVSPost2010Prop43
 90
        3
102
RTVSPost2010PropOp43
 70
     1
102
RTVSPost2010Prop44ColorIndex
 90
        5
102
RTVSPost2010Prop44ColorRGB
 90
      255
102
RTVSPost2010PropOp44
 70
     1
102
RTVSPost2010Prop45
280
     0
102
RTVSPost2010PropOp45
 70
     1
102
RTVSPost2010Prop46
 90
       50
102
RTVSPost2010PropOp46
 70
     1
102
RTVSPost2010Prop47
 90
       50
102
RTVSPost2010PropOp47
 70
     1
102
RTVSPost2010Prop48
 90
       50
102
RTVSPost2010PropOp48
 70
     1
102
RTVSPost2010Prop49
280
     0
102
RTVSPost2010PropOp49
 70
     1
102
RTVSPost2010Prop50
 90
       50
102
RTVSPost2010PropOp50
 70
     1
102
RTVSPost2010Prop51ColorIndex
 90
      256
102
RTVSPost2010Prop51ColorRGB
 90
-16777216
102
RTVSPost2010PropOp51
 70
     0
102
RTVSPost2010Prop52
140
1.0
102
RTVSPost2010PropOp52
 70
     0
102
RTVSPost2010Prop53
 90
        2
102
RTVSPost2010PropOp53
 70
     1
102
RTVSPost2010Prop54
  1
strokes_ogs.tif
102
RTVSPost2010PropOp54
 70
     1
102
RTVSPost2010Prop55
280
     0
102
RTVSPost2010PropOp55
 70
     1
102
RTVSPost2010Prop56
140
1.0
102
RTVSPost2010PropOp56
 70
     1
102
RTVSPost2010Prop57
140
1.0
102
RTVSPost2010PropOp57
 70
     1
102
RTVSPropertyOp0
 70
     1
102
RTVSPropertyOp1
 70
     1
102
RTVSPropertyOp2
 70
     1
102
RTVSPropertyOp3
 70
     1
102
RTVSPropertyOp4
 70
     1
102
RTVSPropertyOp5
 70
     1
102
RTVSPropertyOp6
 70
     1
102
RTVSPropertyOp7
 70
     1
102
RTVSPropertyOp8
 70
     1
102
RTVSPropertyOp9
 70
     1
102
RTVSPropertyOp10
 70
     1
102
RTVSPropertyOp11
 70
     1
102
RTVSPropertyOp12
 70
     1
102
RTVSPropertyOp13
 70
     1
102
RTVSPropertyOp14
 70
     1
102
RTVSPropertyOp15
 70
     1
102
RTVSPropertyOp16
 70
     1
102
RTVSPropertyOp17
 70
     1
102
RTVSPropertyOp18
 70
     1
102
RTVSPropertyOp19
 70
     1
102
RTVSPropertyOp20
 70
     1
102
RTVSPropertyOp21
 70
     1
102
RTVSPropertyOp22
 70
     1
102
RTVSPropertyOp23
 70
     1
102
RTVSPropertyOp24
 70
     1
102
RTVSPropertyOp25
 70
     1
102
RTVSPropertyOp26
 70
     1
102
RTVSPropertyOp27
 70
     1
102
RTVSPropertyOp28
 70
     1
102
RTVSPropertyOp29
 70
     1
102
RTVSPropertyOp30
 70
     1
102
RTVSPropertyOp31
 70
     1
102
RTVSPropertyOp32
 70
     1
102
RTVSPropertyOp33
 70
     1
102
RTVSPropertyOp34
 70
     1
102
RTVSPropertyOp35
 70
     1
102
RTVSPropertyOp36
 70
     1
102
RTVSPropertyOp37
 70
     1
102
RTVSPropertyOp38
 70
     1
102
RTVSPropertyOp39
 70
     1
102
RTVSPropertyOp40
 70
     1
102
RTVSPropertyOp41
 70
     1
102
RTVSPropertyOp42
 70
     1
102
RTVSPropertyOp43
 70
     1
102
RTVSPropertyOp44
 70
     1
102
RTVSPropertyOp45
 70
     1
102
RTVSPropertyOp46
 70
     1
102
RTVSPropertyOp47
 70
     1
102
RTVSPropertyOp48
 70
     1
102
RTVSPropertyOp49
 70
     1
102
RTVSPropertyOp50
 70
     1
102
RTVSPropertyOp51
 70
     0
102
RTVSPropertyOp52
 70
     0
102
RTVSPropertyOp53
 70
     1
102
RTVSPropertyOp54
 70
     1
102
RTVSPropertyOp55
 70
     1
102
RTVSPropertyOp56
 70
     1
102
RTVSPropertyOp57
 70
     1
102
RTVSPropertyOp58
 70
     1
102
RTVSPropertyOp59
 70
     1
102
RTVSPropertyOp60
 70
     1
102
RTVSPropertyOp61
 70
     1
102
RTVSPropertyOp62
 70
     1
  0
XRECORD
  5
A1D0
102
{ACAD_REACTORS
330
A1CF
102
}
330
A1CF
100
AcDbXrecord
280
     1
102
RTVSPost2010Prop28
280
     0
102
RTVSPost2010PropOp28
 70
     1
102
RTVSPost2010Prop29
280
     1
102
RTVSPost2010PropOp29
 70
     1
102
RTVSPost2010Prop30
280
     1
102
RTVSPost2010PropOp30
 70
     1
102
RTVSPost2010Prop31
280
     0
102
RTVSPost2010PropOp31
 70
     1
102
RTVSPost2010Prop32
280
     0
102
RTVSPost2010PropOp32
 70
     1
102
RTVSPost2010Prop33
280
     0
102
RTVSPost2010PropOp33
 70
     1
102
RTVSPost2010Prop34
280
     0
102
RTVSPost2010PropOp34
 70
     1
102
RTVSPost2010Prop35
280
     0
102
RTVSPost2010PropOp35
 70
     1
102
RTVSPost2010Prop36
280
     0
102
RTVSPost2010PropOp36
 70
     1
102
RTVSPost2010Prop37
 90
       50
102
RTVSPost2010PropOp37
 70
     1
102
RTVSPost2010Prop38
140
0.0
102
RTVSPost2010PropOp38
 70
     1
102
RTVSPost2010Prop39
140
1.0
102
RTVSPost2010PropOp39
 70
     1
102
RTVSPost2010Prop40
 90
        0
102
RTVSPost2010PropOp40
 70
     1
102
RTVSPost2010Prop41ColorIndex
 90
       18
102
RTVSPost2010Prop41ColorRGB
 90
        0
102
RTVSPost2010PropOp41
 70
     1
102
RTVSPost2010Prop42
 90
       50
102
RTVSPost2010PropOp42
 70
     1
102
RTVSPost2010Prop43
 90
        3
102
RTVSPost2010PropOp43
 70
     1
102
RTVSPost2010Prop44ColorIndex
 90
        5
102
RTVSPost2010Prop44ColorRGB
 90
      255
102
RTVSPost2010PropOp44
 70
     1
102
RTVSPost2010Prop45
280
     0
102
RTVSPost2010PropOp45
 70
     1
102
RTVSPost2010Prop46
 90
       50
102
RTVSPost2010PropOp46
 70
     1
102
RTVSPost2010Prop47
 90
       50
102
RTVSPost2010PropOp47
 70
     1
102
RTVSPost2010Prop48
 90
       50
102
RTVSPost2010PropOp48
 70
     1
102
RTVSPost2010Prop49
280
     0
102
RTVSPost2010PropOp49
 70
     1
102
RTVSPost2010Prop50
 90
       50
102
RTVSPost2010PropOp50
 70
     1
102
RTVSPost2010Prop51ColorIndex
 90
      256
102
RTVSPost2010Prop51ColorRGB
 90
-16777216
102
RTVSPost2010PropOp51
 70
     0
102
RTVSPost2010Prop52
140
1.0
102
RTVSPost2010PropOp52
 70
     0
102
RTVSPost2010Prop53
 90
        2
102
RTVSPost2010PropOp53
 70
     1
102
RTVSPost2010Prop54
  1
strokes_ogs.tif
102
RTVSPost2010PropOp54
 70
     1
102
RTVSPost2010Prop55
280
     0
102
RTVSPost2010PropOp55
 70
     1
102
RTVSPost2010Prop56
140
1.0
102
RTVSPost2010PropOp56
 70
     1
102
RTVSPost2010Prop57
140
1.0
102
RTVSPost2010PropOp57
 70
     1
102
RTVSPropertyOp0
 70
     1
102
RTVSPropertyOp1
 70
     1
102
RTVSPropertyOp2
 70
     1
102
RTVSPropertyOp3
 70
     1
102
RTVSPropertyOp4
 70
     1
102
RTVSPropertyOp5
 70
     1
102
RTVSPropertyOp6
 70
     1
102
RTVSPropertyOp7
 70
     1
102
RTVSPropertyOp8
 70
     1
102
RTVSPropertyOp9
 70
     1
102
RTVSPropertyOp10
 70
     1
102
RTVSPropertyOp11
 70
     1
102
RTVSPropertyOp12
 70
     1
102
RTVSPropertyOp13
 70
     1
102
RTVSPropertyOp14
 70
     1
102
RTVSPropertyOp15
 70
     1
102
RTVSPropertyOp16
 70
     1
102
RTVSPropertyOp17
 70
     1
102
RTVSPropertyOp18
 70
     1
102
RTVSPropertyOp19
 70
     1
102
RTVSPropertyOp20
 70
     1
102
RTVSPropertyOp21
 70
     1
102
RTVSPropertyOp22
 70
     1
102
RTVSPropertyOp23
 70
     1
102
RTVSPropertyOp24
 70
     1
102
RTVSPropertyOp25
 70
     1
102
RTVSPropertyOp26
 70
     1
102
RTVSPropertyOp27
 70
     1
102
RTVSPropertyOp28
 70
     1
102
RTVSPropertyOp29
 70
     1
102
RTVSPropertyOp30
 70
     1
102
RTVSPropertyOp31
 70
     1
102
RTVSPropertyOp32
 70
     1
102
RTVSPropertyOp33
 70
     1
102
RTVSPropertyOp34
 70
     1
102
RTVSPropertyOp35
 70
     1
102
RTVSPropertyOp36
 70
     1
102
RTVSPropertyOp37
 70
     1
102
RTVSPropertyOp38
 70
     1
102
RTVSPropertyOp39
 70
     1
102
RTVSPropertyOp40
 70
     1
102
RTVSPropertyOp41
 70
     1
102
RTVSPropertyOp42
 70
     1
102
RTVSPropertyOp43
 70
     1
102
RTVSPropertyOp44
 70
     1
102
RTVSPropertyOp45
 70
     1
102
RTVSPropertyOp46
 70
     1
102
RTVSPropertyOp47
 70
     1
102
RTVSPropertyOp48
 70
     1
102
RTVSPropertyOp49
 70
     1
102
RTVSPropertyOp50
 70
     1
102
RTVSPropertyOp51
 70
     0
102
RTVSPropertyOp52
 70
     0
102
RTVSPropertyOp53
 70
     1
102
RTVSPropertyOp54
 70
     1
102
RTVSPropertyOp55
 70
     1
102
RTVSPropertyOp56
 70
     1
102
RTVSPropertyOp57
 70
     1
102
RTVSPropertyOp58
 70
     1
102
RTVSPropertyOp59
 70
     1
102
RTVSPropertyOp60
 70
     1
102
RTVSPropertyOp61
 70
     1
102
RTVSPropertyOp62
 70
     1
  0
XRECORD
  5
A1C4
102
{ACAD_REACTORS
330
A1C3
102
}
330
A1C3
100
AcDbXrecord
280
     1
102
RTVSPost2010Prop28
280
     0
102
RTVSPost2010PropOp28
 70
     1
102
RTVSPost2010Prop29
280
     1
102
RTVSPost2010PropOp29
 70
     1
102
RTVSPost2010Prop30
280
     1
102
RTVSPost2010PropOp30
 70
     1
102
RTVSPost2010Prop31
280
     0
102
RTVSPost2010PropOp31
 70
     1
102
RTVSPost2010Prop32
280
     0
102
RTVSPost2010PropOp32
 70
     1
102
RTVSPost2010Prop33
280
     0
102
RTVSPost2010PropOp33
 70
     1
102
RTVSPost2010Prop34
280
     0
102
RTVSPost2010PropOp34
 70
     1
102
RTVSPost2010Prop35
280
     0
102
RTVSPost2010PropOp35
 70
     1
102
RTVSPost2010Prop36
280
     0
102
RTVSPost2010PropOp36
 70
     1
102
RTVSPost2010Prop37
 90
       50
102
RTVSPost2010PropOp37
 70
     1
102
RTVSPost2010Prop38
140
0.0
102
RTVSPost2010PropOp38
 70
     1
102
RTVSPost2010Prop39
140
1.0
102
RTVSPost2010PropOp39
 70
     1
102
RTVSPost2010Prop40
 90
        0
102
RTVSPost2010PropOp40
 70
     1
102
RTVSPost2010Prop41ColorIndex
 90
       18
102
RTVSPost2010Prop41ColorRGB
 90
        0
102
RTVSPost2010PropOp41
 70
     1
102
RTVSPost2010Prop42
 90
       50
102
RTVSPost2010PropOp42
 70
     1
102
RTVSPost2010Prop43
 90
        3
102
RTVSPost2010PropOp43
 70
     1
102
RTVSPost2010Prop44ColorIndex
 90
        5
102
RTVSPost2010Prop44ColorRGB
 90
      255
102
RTVSPost2010PropOp44
 70
     1
102
RTVSPost2010Prop45
280
     0
102
RTVSPost2010PropOp45
 70
     1
102
RTVSPost2010Prop46
 90
       50
102
RTVSPost2010PropOp46
 70
     1
102
RTVSPost2010Prop47
 90
       50
102
RTVSPost2010PropOp47
 70
     1
102
RTVSPost2010Prop48
 90
       50
102
RTVSPost2010PropOp48
 70
     1
102
RTVSPost2010Prop49
280
     0
102
RTVSPost2010PropOp49
 70
     1
102
RTVSPost2010Prop50
 90
       50
102
RTVSPost2010PropOp50
 70
     1
102
RTVSPost2010Prop51ColorIndex
 90
      256
102
RTVSPost2010Prop51ColorRGB
 90
-16777216
102
RTVSPost2010PropOp51
 70
     0
102
RTVSPost2010Prop52
140
1.0
102
RTVSPost2010PropOp52
 70
     0
102
RTVSPost2010Prop53
 90
        2
102
RTVSPost2010PropOp53
 70
     1
102
RTVSPost2010Prop54
  1
strokes_ogs.tif
102
RTVSPost2010PropOp54
 70
     1
102
RTVSPost2010Prop55
280
     0
102
RTVSPost2010PropOp55
 70
     1
102
RTVSPost2010Prop56
140
1.0
102
RTVSPost2010PropOp56
 70
     1
102
RTVSPost2010Prop57
140
1.0
102
RTVSPost2010PropOp57
 70
     1
102
RTVSPropertyOp0
 70
     1
102
RTVSPropertyOp1
 70
     1
102
RTVSPropertyOp2
 70
     1
102
RTVSPropertyOp3
 70
     1
102
RTVSPropertyOp4
 70
     1
102
RTVSPropertyOp5
 70
     1
102
RTVSPropertyOp6
 70
     1
102
RTVSPropertyOp7
 70
     1
102
RTVSPropertyOp8
 70
     1
102
RTVSPropertyOp9
 70
     1
102
RTVSPropertyOp10
 70
     1
102
RTVSPropertyOp11
 70
     1
102
RTVSPropertyOp12
 70
     1
102
RTVSPropertyOp13
 70
     1
102
RTVSPropertyOp14
 70
     1
102
RTVSPropertyOp15
 70
     1
102
RTVSPropertyOp16
 70
     1
102
RTVSPropertyOp17
 70
     1
102
RTVSPropertyOp18
 70
     1
102
RTVSPropertyOp19
 70
     1
102
RTVSPropertyOp20
 70
     1
102
RTVSPropertyOp21
 70
     1
102
RTVSPropertyOp22
 70
     1
102
RTVSPropertyOp23
 70
     1
102
RTVSPropertyOp24
 70
     1
102
RTVSPropertyOp25
 70
     1
102
RTVSPropertyOp26
 70
     1
102
RTVSPropertyOp27
 70
     1
102
RTVSPropertyOp28
 70
     1
102
RTVSPropertyOp29
 70
     1
102
RTVSPropertyOp30
 70
     1
102
RTVSPropertyOp31
 70
     1
102
RTVSPropertyOp32
 70
     1
102
RTVSPropertyOp33
 70
     1
102
RTVSPropertyOp34
 70
     1
102
RTVSPropertyOp35
 70
     1
102
RTVSPropertyOp36
 70
     1
102
RTVSPropertyOp37
 70
     1
102
RTVSPropertyOp38
 70
     1
102
RTVSPropertyOp39
 70
     1
102
RTVSPropertyOp40
 70
     1
102
RTVSPropertyOp41
 70
     1
102
RTVSPropertyOp42
 70
     1
102
RTVSPropertyOp43
 70
     1
102
RTVSPropertyOp44
 70
     1
102
RTVSPropertyOp45
 70
     1
102
RTVSPropertyOp46
 70
     1
102
RTVSPropertyOp47
 70
     1
102
RTVSPropertyOp48
 70
     1
102
RTVSPropertyOp49
 70
     1
102
RTVSPropertyOp50
 70
     1
102
RTVSPropertyOp51
 70
     0
102
RTVSPropertyOp52
 70
     0
102
RTVSPropertyOp53
 70
     1
102
RTVSPropertyOp54
 70
     1
102
RTVSPropertyOp55
 70
     1
102
RTVSPropertyOp56
 70
     1
102
RTVSPropertyOp57
 70
     1
102
RTVSPropertyOp58
 70
     1
102
RTVSPropertyOp59
 70
     1
102
RTVSPropertyOp60
 70
     1
102
RTVSPropertyOp61
 70
     1
102
RTVSPropertyOp62
 70
     1
  0
XRECORD
  5
A1DC
102
{ACAD_REACTORS
330
A1DB
102
}
330
A1DB
100
AcDbXrecord
280
     1
102
RTVSPost2010Prop28
280
     0
102
RTVSPost2010PropOp28
 70
     1
102
RTVSPost2010Prop29
280
     1
102
RTVSPost2010PropOp29
 70
     1
102
RTVSPost2010Prop30
280
     1
102
RTVSPost2010PropOp30
 70
     1
102
RTVSPost2010Prop31
280
     0
102
RTVSPost2010PropOp31
 70
     1
102
RTVSPost2010Prop32
280
     0
102
RTVSPost2010PropOp32
 70
     1
102
RTVSPost2010Prop33
280
     0
102
RTVSPost2010PropOp33
 70
     1
102
RTVSPost2010Prop34
280
     0
102
RTVSPost2010PropOp34
 70
     1
102
RTVSPost2010Prop35
280
     0
102
RTVSPost2010PropOp35
 70
     1
102
RTVSPost2010Prop36
280
     0
102
RTVSPost2010PropOp36
 70
     1
102
RTVSPost2010Prop37
 90
       50
102
RTVSPost2010PropOp37
 70
     1
102
RTVSPost2010Prop38
140
0.0
102
RTVSPost2010PropOp38
 70
     1
102
RTVSPost2010Prop39
140
1.0
102
RTVSPost2010PropOp39
 70
     1
102
RTVSPost2010Prop40
 90
        0
102
RTVSPost2010PropOp40
 70
     1
102
RTVSPost2010Prop41ColorIndex
 90
       18
102
RTVSPost2010Prop41ColorRGB
 90
        0
102
RTVSPost2010PropOp41
 70
     1
102
RTVSPost2010Prop42
 90
       50
102
RTVSPost2010PropOp42
 70
     1
102
RTVSPost2010Prop43
 90
        3
102
RTVSPost2010PropOp43
 70
     1
102
RTVSPost2010Prop44ColorIndex
 90
        5
102
RTVSPost2010Prop44ColorRGB
 90
      255
102
RTVSPost2010PropOp44
 70
     1
102
RTVSPost2010Prop45
280
     0
102
RTVSPost2010PropOp45
 70
     1
102
RTVSPost2010Prop46
 90
       50
102
RTVSPost2010PropOp46
 70
     1
102
RTVSPost2010Prop47
 90
       50
102
RTVSPost2010PropOp47
 70
     1
102
RTVSPost2010Prop48
 90
       50
102
RTVSPost2010PropOp48
 70
     1
102
RTVSPost2010Prop49
280
     0
102
RTVSPost2010PropOp49
 70
     1
102
RTVSPost2010Prop50
 90
       50
102
RTVSPost2010PropOp50
 70
     1
102
RTVSPost2010Prop51ColorIndex
 90
      256
102
RTVSPost2010Prop51ColorRGB
 90
-16777216
102
RTVSPost2010PropOp51
 70
     0
102
RTVSPost2010Prop52
140
1.0
102
RTVSPost2010PropOp52
 70
     0
102
RTVSPost2010Prop53
 90
        2
102
RTVSPost2010PropOp53
 70
     1
102
RTVSPost2010Prop54
  1
strokes_ogs.tif
102
RTVSPost2010PropOp54
 70
     1
102
RTVSPost2010Prop55
280
     0
102
RTVSPost2010PropOp55
 70
     1
102
RTVSPost2010Prop56
140
1.0
102
RTVSPost2010PropOp56
 70
     1
102
RTVSPost2010Prop57
140
1.0
102
RTVSPost2010PropOp57
 70
     1
102
RTVSPropertyOp0
 70
     1
102
RTVSPropertyOp1
 70
     1
102
RTVSPropertyOp2
 70
     1
102
RTVSPropertyOp3
 70
     1
102
RTVSPropertyOp4
 70
     1
102
RTVSPropertyOp5
 70
     1
102
RTVSPropertyOp6
 70
     1
102
RTVSPropertyOp7
 70
     1
102
RTVSPropertyOp8
 70
     1
102
RTVSPropertyOp9
 70
     1
102
RTVSPropertyOp10
 70
     1
102
RTVSPropertyOp11
 70
     1
102
RTVSPropertyOp12
 70
     1
102
RTVSPropertyOp13
 70
     1
102
RTVSPropertyOp14
 70
     1
102
RTVSPropertyOp15
 70
     1
102
RTVSPropertyOp16
 70
     1
102
RTVSPropertyOp17
 70
     1
102
RTVSPropertyOp18
 70
     1
102
RTVSPropertyOp19
 70
     1
102
RTVSPropertyOp20
 70
     1
102
RTVSPropertyOp21
 70
     1
102
RTVSPropertyOp22
 70
     1
102
RTVSPropertyOp23
 70
     1
102
RTVSPropertyOp24
 70
     1
102
RTVSPropertyOp25
 70
     1
102
RTVSPropertyOp26
 70
     1
102
RTVSPropertyOp27
 70
     1
102
RTVSPropertyOp28
 70
     1
102
RTVSPropertyOp29
 70
     1
102
RTVSPropertyOp30
 70
     1
102
RTVSPropertyOp31
 70
     1
102
RTVSPropertyOp32
 70
     1
102
RTVSPropertyOp33
 70
     1
102
RTVSPropertyOp34
 70
     1
102
RTVSPropertyOp35
 70
     1
102
RTVSPropertyOp36
 70
     1
102
RTVSPropertyOp37
 70
     1
102
RTVSPropertyOp38
 70
     1
102
RTVSPropertyOp39
 70
     1
102
RTVSPropertyOp40
 70
     1
102
RTVSPropertyOp41
 70
     1
102
RTVSPropertyOp42
 70
     1
102
RTVSPropertyOp43
 70
     1
102
RTVSPropertyOp44
 70
     1
102
RTVSPropertyOp45
 70
     1
102
RTVSPropertyOp46
 70
     1
102
RTVSPropertyOp47
 70
     1
102
RTVSPropertyOp48
 70
     1
102
RTVSPropertyOp49
 70
     1
102
RTVSPropertyOp50
 70
     1
102
RTVSPropertyOp51
 70
     0
102
RTVSPropertyOp52
 70
     0
102
RTVSPropertyOp53
 70
     1
102
RTVSPropertyOp54
 70
     1
102
RTVSPropertyOp55
 70
     1
102
RTVSPropertyOp56
 70
     1
102
RTVSPropertyOp57
 70
     1
102
RTVSPropertyOp58
 70
     1
102
RTVSPropertyOp59
 70
     1
102
RTVSPropertyOp60
 70
     1
102
RTVSPropertyOp61
 70
     1
102
RTVSPropertyOp62
 70
     1
  0
ENDSEC
  0
EOF
