  0
SECTION
  2
HEADER
  9
$ACADVER
  1
AC1015
  9
$ACADMAINTVER
 70
    20
  9
$DWGCODEPAGE
  3
ANSI_932
  9
$INSBASE
 10
0.0
 20
0.0
 30
0.0
  9
$EXTMIN
 10
10.0
 20
9.999999999999998
 30
0.0
  9
$EXTMAX
 10
469.0894309999998
 20
235.9363979999999
 30
0.0
  9
$LIMMIN
 10
0.0
 20
0.0
  9
$LIMMAX
 10
495.0
 20
341.25
  9
$ORTHOMODE
 70
     1
  9
$REGENMODE
 70
     1
  9
$FILLMODE
 70
     1
  9
$QTEXTMODE
 70
     0
  9
$MIRRTEXT
 70
     1
  9
$LTSCALE
 40
20.0
  9
$ATTMODE
 70
     1
  9
$TEXTSIZE
 40
5.0
  9
$TRACEWID
 40
1.0
  9
$TEXTSTYLE
  7
STANDARD
  9
$CLAYER
  8
0
  9
$CELTYPE
  6
BYLAYER
  9
$CECOLOR
 62
   256
  9
$CELTSCALE
 40
1.0
  9
$DISPSILH
 70
     0
  9
$DIMSCALE
 40
1.0
  9
$DIMASZ
 40
2.5
  9
$DIMEXO
 40
1.0
  9
$DIMDLI
 40
7.0
  9
$DIMRND
 40
0.0
  9
$DIMDLE
 40
0.0
  9
$DIMEXE
 40
1.0
  9
$DIMTP
 40
0.0
  9
$DIMTM
 40
0.0
  9
$DIMTXT
 40
2.5
  9
$DIMCEN
 40
0.0
  9
$DIMTSZ
 40
0.0
  9
$DIMTOL
 70
     0
  9
$DIMLIM
 70
     0
  9
$DIMTIH
 70
     0
  9
$DIMTOH
 70
     0
  9
$DIMSE1
 70
     0
  9
$DIMSE2
 70
     0
  9
$DIMTAD
 70
     1
  9
$DIMZIN
 70
     8
  9
$DIMBLK
  1

  9
$DIMASO
 70
     1
  9
$DIMSHO
 70
     1
  9
$DIMPOST
  1

  9
$DIMAPOST
  1

  9
$DIMALT
 70
     0
  9
$DIMALTD
 70
     2
  9
$DIMALTF
 40
0.0394
  9
$DIMLFAC
 40
1.0
  9
$DIMTOFL
 70
     1
  9
$DIMTVP
 40
0.0
  9
$DIMTIX
 70
     1
  9
$DIMSOXD
 70
     1
  9
$DIMSAH
 70
     0
  9
$DIMBLK1
  1

  9
$DIMBLK2
  1

  9
$DIMSTYLE
  2
JIS
  9
$DIMCLRD
 70
     0
  9
$DIMCLRE
 70
     0
  9
$DIMCLRT
 70
     0
  9
$DIMTFAC
 40
1.0
  9
$DIMGAP
 40
0.0
  9
$DIMJUST
 70
     0
  9
$DIMSD1
 70
     0
  9
$DIMSD2
 70
     0
  9
$DIMTOLJ
 70
     1
  9
$DIMTZIN
 70
     0
  9
$DIMALTZ
 70
     0
  9
$DIMALTTZ
 70
     0
  9
$DIMUPT
 70
     0
  9
$DIMDEC
 70
     4
  9
$DIMTDEC
 70
     4
  9
$DIMALTU
 70
     2
  9
$DIMALTTD
 70
     2
  9
$DIMTXSTY
  7
STANDARD
  9
$DIMAUNIT
 70
     0
  9
$DIMADEC
 70
     0
  9
$DIMALTRND
 40
0.0
  9
$DIMAZIN
 70
     0
  9
$DIMDSEP
 70
    46
  9
$DIMATFIT
 70
     3
  9
$DIMFRAC
 70
     0
  9
$DIMLDRBLK
  1

  9
$DIMLUNIT
 70
     2
  9
$DIMLWD
 70
    -2
  9
$DIMLWE
 70
    -2
  9
$DIMTMOVE
 70
     0
  9
$LUNITS
 70
     2
  9
$LUPREC
 70
     4
  9
$SKETCHINC
 40
1.0
  9
$FILLETRAD
 40
2.5
  9
$AUNITS
 70
     0
  9
$AUPREC
 70
     2
  9
$MENU
  1
.
  9
$ELEVATION
 40
0.0
  9
$PELEVATION
 40
0.0
  9
$THICKNESS
 40
0.0
  9
$LIMCHECK
 70
     0
  9
$CHAMFERA
 40
10.0
  9
$CHAMFERB
 40
10.0
  9
$CHAMFERC
 40
0.0
  9
$CHAMFERD
 40
0.0
  9
$SKPOLY
 70
     0
  9
$TDCREATE
 40
2450737.703448611
  9
$TDUCREATE
 40
2450737.328448612
  9
$TDUPDATE
 40
2457192.640404317
  9
$TDUUPDATE
 40
2457192.265404317
  9
$TDINDWG
 40
0.0000137963
  9
$TDUSRTIMER
 40
0.0000133102
  9
$USRTIMER
 70
     1
  9
$ANGBASE
 50
0.0
  9
$ANGDIR
 70
     0
  9
$PDMODE
 70
     0
  9
$PDSIZE
 40
0.0
  9
$PLINEWID
 40
0.0
  9
$SPLFRAME
 70
     0
  9
$SPLINETYPE
 70
     6
  9
$SPLINESEGS
 70
     8
  9
$HANDSEED
  5
945E
  9
$SURFTAB1
 70
     6
  9
$SURFTAB2
 70
     6
  9
$SURFTYPE
 70
     6
  9
$SURFU
 70
     6
  9
$SURFV
 70
     6
  9
$UCSBASE
  2

  9
$UCSNAME
  2

  9
$UCSORG
 10
0.0
 20
0.0
 30
0.0
  9
$UCSXDIR
 10
1.0
 20
0.0
 30
0.0
  9
$UCSYDIR
 10
0.0
 20
1.0
 30
0.0
  9
$UCSORTHOREF
  2

  9
$UCSORTHOVIEW
 70
     0
  9
$UCSORGTOP
 10
0.0
 20
0.0
 30
0.0
  9
$UCSORGBOTTOM
 10
0.0
 20
0.0
 30
0.0
  9
$UCSORGLEFT
 10
0.0
 20
0.0
 30
0.0
  9
$UCSORGRIGHT
 10
0.0
 20
0.0
 30
0.0
  9
$UCSORGFRONT
 10
0.0
 20
0.0
 30
0.0
  9
$UCSORGBACK
 10
0.0
 20
0.0
 30
0.0
  9
$PUCSBASE
  2

  9
$PUCSNAME
  2

  9
$PUCSORG
 10
0.0
 20
0.0
 30
0.0
  9
$PUCSXDIR
 10
1.0
 20
0.0
 30
0.0
  9
$PUCSYDIR
 10
0.0
 20
1.0
 30
0.0
  9
$PUCSORTHOREF
  2

  9
$PUCSORTHOVIEW
 70
     0
  9
$PUCSORGTOP
 10
0.0
 20
0.0
 30
0.0
  9
$PUCSORGBOTTOM
 10
0.0
 20
0.0
 30
0.0
  9
$PUCSORGLEFT
 10
0.0
 20
0.0
 30
0.0
  9
$PUCSORGRIGHT
 10
0.0
 20
0.0
 30
0.0
  9
$PUCSORGFRONT
 10
0.0
 20
0.0
 30
0.0
  9
$PUCSORGBACK
 10
0.0
 20
0.0
 30
0.0
  9
$USERI1
 70
     0
  9
$USERI2
 70
     0
  9
$USERI3
 70
     0
  9
$USERI4
 70
     0
  9
$USERI5
 70
     0
  9
$USERR1
 40
0.0
  9
$USERR2
 40
0.0
  9
$USERR3
 40
0.0
  9
$USERR4
 40
0.0
  9
$USERR5
 40
0.0
  9
$WORLDVIEW
 70
     1
  9
$SHADEDGE
 70
     3
  9
$SHADEDIF
 70
    70
  9
$TILEMODE
 70
     1
  9
$MAXACTVP
 70
    16
  9
$PINSBASE
 10
0.0
 20
0.0
 30
0.0
  9
$PLIMCHECK
 70
     0
  9
$PEXTMIN
 10
1.000000000000000E+20
 20
1.000000000000000E+20
 30
1.000000000000000E+20
  9
$PEXTMAX
 10
-1.000000000000000E+20
 20
-1.000000000000000E+20
 30
-1.000000000000000E+20
  9
$PLIMMIN
 10
0.0
 20
0.0
  9
$PLIMMAX
 10
420.0
 20
297.0
  9
$UNITMODE
 70
     0
  9
$VISRETAIN
 70
     0
  9
$PLINEGEN
 70
     0
  9
$PSLTSCALE
 70
     0
  9
$TREEDEPTH
 70
  3020
  9
$CMLSTYLE
  2
STANDARD
  9
$CMLJUST
 70
     0
  9
$CMLSCALE
 40
1.0
  9
$PROXYGRAPHICS
 70
     1
  9
$MEASUREMENT
 70
     0
  9
$CELWEIGHT
370
    -1
  9
$ENDCAPS
280
     0
  9
$JOINSTYLE
280
     0
  9
$LWDISPLAY
290
     0
  9
$INSUNITS
 70
     0
  9
$HYPERLINKBASE
  1

  9
$STYLESHEET
  1

  9
$XEDIT
290
     1
  9
$CEPSNTYPE
380
     0
  9
$PSTYLEMODE
290
     1
  9
$FINGERPRINTGUID
  2
{60994A7E-515A-4FD9-8737-B375F22CE075}
  9
$VERSIONGUID
  2
{41B7ABC7-9900-47E4-A523-E05249C4CD37}
  9
$EXTNAMES
290
     1
  9
$PSVPSCALE
 40
0.0
  9
$OLESTARTUP
290
     0
  0
ENDSEC
  0
SECTION
  2
CLASSES
  0
CLASS
  1
ACDBDICTIONARYWDFLT
  2
AcDbDictionaryWithDefault
  3
ObjectDBX Classes
 90
        0
280
     0
281
     0
  0
CLASS
  1
ACDBPLACEHOLDER
  2
AcDbPlaceHolder
  3
ObjectDBX Classes
 90
        0
280
     0
281
     0
  0
CLASS
  1
LAYOUT
  2
AcDbLayout
  3
ObjectDBX Classes
 90
        0
280
     0
281
     0
  0
CLASS
  1
DICTIONARYVAR
  2
AcDbDictionaryVar
  3
ObjectDBX Classes
 90
        0
280
     0
281
     0
  0
CLASS
  1
MATERIAL
  2
AcDbMaterial
  3
ObjectDBX Classes
 90
     1153
280
     0
281
     0
  0
CLASS
  1
VISUALSTYLE
  2
AcDbVisualStyle
  3
ObjectDBX Classes
 90
     4095
280
     0
281
     0
  0
CLASS
  1
TABLESTYLE
  2
AcDbTableStyle
  3
ObjectDBX Classes
 90
     4095
280
     0
281
     0
  0
CLASS
  1
SCALE
  2
AcDbScale
  3
ObjectDBX Classes
 90
     1153
280
     0
281
     0
  0
CLASS
  1
MLEADERSTYLE
  2
AcDbMLeaderStyle
  3
ACDB_MLEADERSTYLE_CLASS
 90
     4095
280
     0
281
     0
  0
CLASS
  1
ACDBSECTIONVIEWSTYLE
  2
AcDbSectionViewStyle
  3
ObjectDBX Classes
 90
     1025
280
     0
281
     0
  0
CLASS
  1
ACDBDETAILVIEWSTYLE
  2
AcDbDetailViewStyle
  3
ObjectDBX Classes
 90
     1025
280
     0
281
     0
  0
CLASS
  1
CELLSTYLEMAP
  2
AcDbCellStyleMap
  3
ObjectDBX Classes
 90
     1152
280
     0
281
     0
  0
ENDSEC
  0
SECTION
  2
TABLES
  0
TABLE
  2
VPORT
  5
91BD
330
0
100
AcDbSymbolTable
 70
     1
  0
VPORT
  5
93A7
330
91BD
100
AcDbSymbolTableRecord
100
AcDbViewportTableRecord
  2
*ACTIVE
 70
     0
 10
0.0
 20
0.0
 11
1.0
 21
1.0
 12
318.5977980651442
 22
122.9673679112949
 13
0.0
 23
0.0
 14
10.0
 24
10.0
 15
10.0
 25
10.0
 16
0.0
 26
0.0
 36
1.0
 17
0.0
 27
0.0
 37
0.0
 40
263.9032576617399
 41
1.899603698811096
 42
50.0
 43
0.0
 44
0.0
 50
0.0
 51
0.0
 71
     0
 72
   100
 73
     1
 74
     0
 75
     0
 76
     0
 77
     0
 78
     0
281
     0
 65
     1
110
0.0
120
0.0
130
0.0
111
1.0
121
0.0
131
0.0
112
0.0
122
1.0
132
0.0
 79
     0
146
0.0
1001
ACAD_NAV_VCDISPLAY
1070
     3
  0
ENDTAB
  0
TABLE
  2
LTYPE
  5
91BA
330
0
100
AcDbSymbolTable
 70
     4
  0
LTYPE
  5
91C8
330
91BA
100
AcDbSymbolTableRecord
100
AcDbLinetypeTableRecord
  2
BYBLOCK
 70
     0
  3

 72
    65
 73
     0
 40
0.0
  0
LTYPE
  5
91C9
330
91BA
100
AcDbSymbolTableRecord
100
AcDbLinetypeTableRecord
  2
BYLAYER
 70
     0
  3

 72
    65
 73
     0
 40
0.0
  0
LTYPE
  5
91CA
330
91BA
100
AcDbSymbolTableRecord
100
AcDbLinetypeTableRecord
  2
CONTINUOUS
 70
     0
  3
Solid line
 72
    65
 73
     0
 40
0.0
  0
LTYPE
  5
91D8
330
91BA
100
AcDbSymbolTableRecord
100
AcDbLinetypeTableRecord
  2
DASHED
 70
     0
  3
__ __ __ __ __ __ __ __ __ __ __ __ __ __ __ __
 72
    65
 73
     2
 40
0.75
 49
0.5
 74
     0
 49
-0.25
 74
     0
  0
LTYPE
  5
91D9
330
91BA
100
AcDbSymbolTableRecord
100
AcDbLinetypeTableRecord
  2
CENTER
 70
     0
  3
____ _ ____ _ ____ _ ____ _ ____ _ ____ _ ____ 
 72
    65
 73
     4
 40
2.0
 49
1.25
 74
     0
 49
-0.25
 74
     0
 49
0.25
 74
     0
 49
-0.25
 74
     0
  0
LTYPE
  5
91DA
330
91BA
100
AcDbSymbolTableRecord
100
AcDbLinetypeTableRecord
  2
PHANTOM
 70
     0
  3
______  __  __  ______  __  __  ______  __  __ 
 72
    65
 73
     6
 40
2.5
 49
1.25
 74
     0
 49
-0.25
 74
     0
 49
0.25
 74
     0
 49
-0.25
 74
     0
 49
0.25
 74
     0
 49
-0.25
 74
     0
  0
ENDTAB
  0
TABLE
  2
LAYER
  5
91B7
330
0
100
AcDbSymbolTable
 70
     8
  0
LAYER
  5
91C5
102
{ACAD_XDICTIONARY
360
9402
102
}
330
91B7
100
AcDbSymbolTableRecord
100
AcDbLayerTableRecord
  2
0
 70
     0
 62
     7
  6
CONTINUOUS
370
    -3
390
93B0
  0
LAYER
  5
91DB
102
{ACAD_XDICTIONARY
360
9404
102
}
330
91B7
100
AcDbSymbolTableRecord
100
AcDbLayerTableRecord
  2
4
 70
     0
 62
     1
  6
CENTER
370
    -3
390
93B0
  0
LAYER
  5
91DC
102
{ACAD_XDICTIONARY
360
9406
102
}
330
91B7
100
AcDbSymbolTableRecord
100
AcDbLayerTableRecord
  2
5
 70
     0
 62
     6
  6
PHANTOM
370
    -3
390
93B0
  0
LAYER
  5
91DD
102
{ACAD_XDICTIONARY
360
9408
102
}
330
91B7
100
AcDbSymbolTableRecord
100
AcDbLayerTableRecord
  2
1
 70
     0
 62
     7
  6
CONTINUOUS
370
    -3
390
93B0
  0
LAYER
  5
91DE
102
{ACAD_XDICTIONARY
360
940A
102
}
330
91B7
100
AcDbSymbolTableRecord
100
AcDbLayerTableRecord
  2
2
 70
     0
 62
     4
  6
CONTINUOUS
370
    -3
390
93B0
  0
LAYER
  5
91DF
102
{ACAD_XDICTIONARY
360
940C
102
}
330
91B7
100
AcDbSymbolTableRecord
100
AcDbLayerTableRecord
  2
3
 70
     0
 62
     2
  6
DASHED
370
    -3
390
93B0
  0
LAYER
  5
91E0
102
{ACAD_XDICTIONARY
360
940E
102
}
330
91B7
100
AcDbSymbolTableRecord
100
AcDbLayerTableRecord
  2
6
 70
     0
 62
     5
  6
CONTINUOUS
370
    -3
390
93B0
  0
LAYER
  5
91E1
102
{ACAD_XDICTIONARY
360
9410
102
}
330
91B7
100
AcDbSymbolTableRecord
100
AcDbLayerTableRecord
  2
7
 70
     0
 62
     3
  6
CONTINUOUS
370
    -3
390
93B0
  0
ENDTAB
  0
TABLE
  2
STYLE
  5
91B8
330
0
100
AcDbSymbolTable
 70
     1
  0
STYLE
  5
91C6
330
91B8
100
AcDbSymbolTableRecord
100
AcDbTextStyleTableRecord
  2
STANDARD
 70
     0
 40
0.0
 41
1.0
 50
0.0
 71
     0
 42
5.0
  3
txt
  4

  0
ENDTAB
  0
TABLE
  2
VIEW
  5
91BB
330
0
100
AcDbSymbolTable
 70
     0
  0
ENDTAB
  0
TABLE
  2
UCS
  5
91BC
330
0
100
AcDbSymbolTable
 70
     0
  0
ENDTAB
  0
TABLE
  2
APPID
  5
91BE
330
0
100
AcDbSymbolTable
 70
     3
  0
APPID
  5
91C7
330
91BE
100
AcDbSymbolTableRecord
100
AcDbRegAppTableRecord
  2
ACAD
 70
     0
  0
APPID
  5
941C
330
91BE
100
AcDbSymbolTableRecord
100
AcDbRegAppTableRecord
  2
ACAD_NAV_VCDISPLAY
 70
     0
  0
APPID
  5
9455
330
91BE
100
AcDbSymbolTableRecord
100
AcDbRegAppTableRecord
  2
ACAD_MLEADERVER
 70
     0
  0
ENDTAB
  0
TABLE
  2
DIMSTYLE
  5
91BF
330
0
100
AcDbSymbolTable
 70
     1
100
AcDbDimStyleTable
 71
     0
  0
DIMSTYLE
105
91E2
330
91BF
100
AcDbSymbolTableRecord
100
AcDbDimStyleTableRecord
  2
JIS
 70
     0
 41
2.5
 42
1.0
 43
7.0
 44
1.0
 73
     0
 74
     0
 77
     1
 78
     8
140
2.5
141
0.0
143
0.0394
147
0.0
172
     1
174
     1
175
     1
284
     8
285
     8
286
     8
340
91C6
  0
ENDTAB
  0
TABLE
  2
BLOCK_RECORD
  5
91B6
330
0
100
AcDbSymbolTable
 70
     0
  0
BLOCK_RECORD
  5
91D3
102
{ACAD_XDICTIONARY
360
93AA
102
}
330
91B6
100
AcDbSymbolTableRecord
100
AcDbBlockTableRecord
  2
*MODEL_SPACE
340
93FE
  0
BLOCK_RECORD
  5
91CF
102
{ACAD_XDICTIONARY
360
93A8
102
}
330
91B6
100
AcDbSymbolTableRecord
100
AcDbBlockTableRecord
  2
*PAPER_SPACE
340
93FF
  0
ENDTAB
  0
ENDSEC
  0
SECTION
  2
BLOCKS
  0
BLOCK
  5
91D4
330
91D3
100
AcDbEntity
  8
0
100
AcDbBlockBegin
  2
*MODEL_SPACE
 70
     0
 10
0.0
 20
0.0
 30
0.0
  3
*MODEL_SPACE
  1

  0
ENDBLK
  5
91D5
330
91D3
100
AcDbEntity
  8
0
100
AcDbBlockEnd
  0
BLOCK
  5
91D0
330
91CF
100
AcDbEntity
 67
     1
  8
0
100
AcDbBlockBegin
  2
*PAPER_SPACE
 70
     0
 10
0.0
 20
0.0
 30
0.0
  3
*PAPER_SPACE
  1

  0
ENDBLK
  5
91D1
330
91CF
100
AcDbEntity
 67
     1
  8
0
100
AcDbBlockEnd
  0
ENDSEC
  0
SECTION
  2
ENTITIES
  0
TEXT
  5
91EA
330
91D3
100
AcDbEntity
  8
7
  6
Continuous
100
AcDbText
 10
10.0
 20
18.0
 30
0.0
 40
3.0
  1
TYPE No.THA-298
100
AcDbText
  0
TEXT
  5
91EB
330
91D3
100
AcDbEntity
  8
7
  6
Continuous
100
AcDbText
 10
10.0
 20
26.0
 30
0.0
 40
3.0
  1
CODE No.3268
100
AcDbText
  0
TEXT
  5
91EC
330
91D3
100
AcDbEntity
  8
1
  6
Continuous
100
AcDbText
 10
10.0
 20
10.0
 30
0.0
 40
1.399999999999999
  1
LAYER
100
AcDbText
  0
TEXT
  5
91ED
330
91D3
100
AcDbEntity
  8
1
  6
Continuous
100
AcDbText
 10
17.97951099999998
 20
10.04873699999998
 30
0.0
 40
1.399999999999999
  1
1
100
AcDbText
  0
TEXT
  5
91EE
330
91D3
100
AcDbEntity
  8
7
  6
Continuous
100
AcDbText
 10
29.97951099999999
 20
10.04873699999998
 30
0.0
 40
1.399999999999999
  1
7
100
AcDbText
  0
TEXT
  5
91EF
330
91D3
100
AcDbEntity
  8
4
  6
CENTER
100
AcDbText
 10
23.97951099999999
 20
10.04873699999998
 30
0.0
 40
1.399999999999999
  1
4
100
AcDbText
  0
TEXT
  5
91F0
330
91D3
100
AcDbEntity
  8
3
  6
DASHED
100
AcDbText
 10
21.979511
 20
10.04873699999998
 30
0.0
 40
1.399999999999999
  1
3
100
AcDbText
  0
TEXT
  5
91F1
330
91D3
100
AcDbEntity
  8
2
  6
Continuous
100
AcDbText
 10
19.97951099999999
 20
10.04873699999998
 30
0.0
 40
1.399999999999999
  1
2
100
AcDbText
  0
TEXT
  5
91F2
330
91D3
100
AcDbEntity
  8
6
  6
Continuous
100
AcDbText
 10
27.979511
 20
10.04873699999998
 30
0.0
 40
1.399999999999999
  1
6
100
AcDbText
  0
TEXT
  5
91F3
330
91D3
100
AcDbEntity
  8
5
  6
PHANTOM
100
AcDbText
 10
25.97951099999999
 20
10.04873699999998
 30
0.0
 40
1.399999999999999
  1
5
100
AcDbText
  0
LINE
  5
91F4
330
91D3
100
AcDbEntity
  8
4
  6
CENTER
100
AcDbLine
 10
155.597431
 20
131.688398
 30
0.0
 11
155.597431
 21
48.056398
 31
0.0
  0
LINE
  5
91F5
330
91D3
100
AcDbEntity
  8
4
  6
CENTER
100
AcDbLine
 10
251.2994309999999
 20
90.766398
 30
0.0
 11
289.7534309999999
 21
90.766398
 31
0.0
  0
LINE
  5
91F6
330
91D3
100
AcDbEntity
  8
1
  6
Continuous
100
AcDbLine
 10
110.195631
 20
204.1923979999999
 30
0.0
 11
200.9994309999999
 21
204.1923979999999
 31
0.0
  0
LINE
  5
91F7
330
91D3
100
AcDbEntity
  8
1
  6
Continuous
100
AcDbLine
 10
117.034431
 20
114.494398
 30
0.0
 11
117.034431
 21
67.038398
 31
0.0
  0
LINE
  5
91F8
330
91D3
100
AcDbEntity
  8
1
  6
Continuous
100
AcDbLine
 10
196.752431
 20
212.192398
 30
0.0
 11
195.601431
 21
217.110398
 31
0.0
  0
LINE
  5
91F9
330
91D3
100
AcDbEntity
  8
1
  6
Continuous
100
AcDbLine
 10
160.863431
 20
228.692398
 30
0.0
 11
180.9954309999999
 21
228.692398
 31
0.0
  0
LINE
  5
91FA
330
91D3
100
AcDbEntity
  8
1
  6
Continuous
100
AcDbLine
 10
129.027731
 20
212.9413979999999
 30
0.0
 11
160.863431
 21
228.692398
 31
0.0
  0
LINE
  5
91FB
330
91D3
100
AcDbEntity
  8
1
  6
Continuous
100
AcDbLine
 10
117.5561309999999
 20
114.9933979999999
 30
0.0
 11
134.377431
 21
114.266398
 31
0.0
  0
LINE
  5
91FC
330
91D3
100
AcDbEntity
  8
1
  6
Continuous
100
AcDbLine
 10
134.3784309999997
 20
67.266398
 30
0.0
 11
117.5561309999999
 21
66.538398
 31
0.0
  0
LINE
  5
91FD
330
91D3
100
AcDbEntity
  8
1
  6
Continuous
100
AcDbLine
 10
258.549431
 20
119.221398
 30
0.0
 11
258.549431
 21
62.311398
 31
0.0
  0
LINE
  5
91FE
330
91D3
100
AcDbEntity
  8
1
  6
Continuous
100
AcDbLine
 10
266.549431
 20
124.766398
 30
0.0
 11
266.549431
 21
56.76599799999999
 31
0.0
  0
LINE
  5
91FF
330
91D3
100
AcDbEntity
  8
1
  6
Continuous
100
AcDbLine
 10
88.097431
 20
103.2663979999999
 30
0.0
 11
88.097431
 21
78.26639799999998
 31
0.0
  0
LINE
  5
9200
330
91D3
100
AcDbEntity
  8
1
  6
Continuous
100
AcDbLine
 10
93.097431
 20
136.766398
 30
0.0
 11
93.097431
 21
105.2663979999999
 31
0.0
  0
LINE
  5
9201
330
91D3
100
AcDbEntity
  8
1
  6
Continuous
100
AcDbLine
 10
113.097431
 20
136.766398
 30
0.0
 11
113.097431
 21
122.790398
 31
0.0
  0
LINE
  5
9202
330
91D3
100
AcDbEntity
  8
1
  6
Continuous
100
AcDbLine
 10
221.097431
 20
101.2663979999999
 30
0.0
 11
221.097431
 21
80.26639799999998
 31
0.0
  0
LINE
  5
9203
330
91D3
100
AcDbEntity
  8
4
  6
CENTER
100
AcDbLine
 10
103.0974309999999
 20
136.5133979999999
 30
0.0
 11
103.0974309999999
 21
124.787398
 31
0.0
  0
LINE
  5
9204
330
91D3
100
AcDbEntity
  8
1
  6
Continuous
100
AcDbLine
 10
95.09743099999999
 20
42.76599799999997
 30
0.0
 11
111.097431
 21
42.76599799999997
 31
0.0
  0
LINE
  5
9205
330
91D3
100
AcDbEntity
  8
1
  6
Continuous
100
AcDbLine
 10
95.09743099999999
 20
138.766398
 30
0.0
 11
111.097431
 21
138.766398
 31
0.0
  0
LINE
  5
9206
330
91D3
100
AcDbEntity
  8
4
  6
CENTER
100
AcDbLine
 10
97.370631
 20
50.765998
 30
0.0
 11
109.526731
 21
50.765998
 31
0.0
  0
LINE
  5
9207
330
91D3
100
AcDbEntity
  8
4
  6
CENTER
100
AcDbLine
 10
97.76543100000001
 20
130.766398
 30
0.0
 11
109.806931
 21
130.766398
 31
0.0
  0
LINE
  5
9208
330
91D3
100
AcDbEntity
  8
4
  6
CENTER
100
AcDbLine
 10
213.097431
 20
96.513398
 30
0.0
 11
213.097431
 21
84.78739799999997
 31
0.0
  0
LINE
  5
9209
330
91D3
100
AcDbEntity
  8
4
  6
CENTER
100
AcDbLine
 10
103.0974309999999
 20
56.512998
 30
0.0
 11
103.0974309999999
 21
44.78719799999999
 31
0.0
  0
LINE
  5
920A
330
91D3
100
AcDbEntity
  8
1
  6
Continuous
100
AcDbLine
 10
88.097431
 20
103.2663979999999
 30
0.0
 11
91.09743100000001
 21
103.2663979999999
 31
0.0
  0
LINE
  5
920B
330
91D3
100
AcDbEntity
  8
1
  6
Continuous
100
AcDbLine
 10
88.097431
 20
78.26639799999998
 30
0.0
 11
91.09743100000001
 21
78.26639799999998
 31
0.0
  0
LINE
  5
920C
330
91D3
100
AcDbEntity
  8
1
  6
Continuous
100
AcDbLine
 10
93.097431
 20
76.26639799999998
 30
0.0
 11
93.097431
 21
44.76599799999998
 31
0.0
  0
LINE
  5
920D
330
91D3
100
AcDbEntity
  8
1
  6
Continuous
100
AcDbLine
 10
113.097431
 20
58.741798
 30
0.0
 11
113.097431
 21
44.76599799999998
 31
0.0
  0
LINE
  5
920E
330
91D3
100
AcDbEntity
  8
1
  6
Continuous
100
AcDbLine
 10
206.1414309999999
 20
103.2663979999999
 30
0.0
 11
219.097431
 21
103.2663979999999
 31
0.0
  0
LINE
  5
920F
330
91D3
100
AcDbEntity
  8
1
  6
Continuous
100
AcDbLine
 10
206.1414309999999
 20
78.26639799999998
 30
0.0
 11
219.097431
 21
78.26639799999998
 31
0.0
  0
LINE
  5
9210
330
91D3
100
AcDbEntity
  8
4
  6
CENTER
100
AcDbLine
 10
123.097431
 20
131.688398
 30
0.0
 11
123.097431
 21
48.056398
 31
0.0
  0
LINE
  5
9211
330
91D3
100
AcDbEntity
  8
4
  6
CENTER
100
AcDbLine
 10
78.21283099999998
 20
90.766398
 30
0.0
 11
230.534431
 21
90.766398
 31
0.0
  0
LINE
  5
9212
330
91D3
100
AcDbEntity
  8
1
  6
Continuous
100
AcDbLine
 10
24.852381
 20
138.766398
 30
0.0
 11
24.852381
 21
103.2663979999999
 31
0.0
  0
LINE
  5
9213
330
91D3
100
AcDbEntity
  8
1
  6
Continuous
100
AcDbLine
 10
26.852381
 20
138.766398
 30
0.0
 11
26.852381
 21
42.76599799999997
 31
0.0
  0
LINE
  5
9214
330
91D3
100
AcDbEntity
  8
1
  6
Continuous
100
AcDbLine
 10
26.852381
 20
111.866398
 30
0.0
 11
33.85238300000001
 21
111.866398
 31
0.0
  0
LINE
  5
9215
330
91D3
100
AcDbEntity
  8
1
  6
Continuous
100
AcDbLine
 10
26.852381
 20
109.8663979999999
 30
0.0
 11
33.85238300000001
 21
109.8663979999999
 31
0.0
  0
LINE
  5
9216
330
91D3
100
AcDbEntity
  8
1
  6
Continuous
100
AcDbLine
 10
26.852381
 20
71.666398
 30
0.0
 11
33.85238300000001
 21
71.666398
 31
0.0
  0
LINE
  5
9217
330
91D3
100
AcDbEntity
  8
1
  6
Continuous
100
AcDbLine
 10
26.852381
 20
69.666398
 30
0.0
 11
33.85238300000001
 21
69.666398
 31
0.0
  0
LINE
  5
9218
330
91D3
100
AcDbEntity
  8
1
  6
Continuous
100
AcDbLine
 10
24.852381
 20
138.766398
 30
0.0
 11
26.852381
 21
138.766398
 31
0.0
  0
LINE
  5
9219
330
91D3
100
AcDbEntity
  8
4
  6
CENTER
100
AcDbLine
 10
19.85243099999999
 20
130.766398
 30
0.0
 11
31.852381
 21
130.766398
 31
0.0
  0
LINE
  5
921A
330
91D3
100
AcDbEntity
  8
1
  6
Continuous
100
AcDbLine
 10
20.852431
 20
103.2663979999999
 30
0.0
 11
26.852381
 21
103.2663979999999
 31
0.0
  0
LINE
  5
921B
330
91D3
100
AcDbEntity
  8
1
  6
Continuous
100
AcDbLine
 10
20.852431
 20
78.26639799999998
 30
0.0
 11
26.852381
 21
78.26639799999998
 31
0.0
  0
LINE
  5
921C
330
91D3
100
AcDbEntity
  8
4
  6
CENTER
100
AcDbLine
 10
19.85243099999999
 20
50.765998
 30
0.0
 11
31.852381
 21
50.765998
 31
0.0
  0
LINE
  5
921D
330
91D3
100
AcDbEntity
  8
1
  6
Continuous
100
AcDbLine
 10
24.852381
 20
42.76599799999997
 30
0.0
 11
26.852381
 21
42.76599799999997
 31
0.0
  0
LINE
  5
921E
330
91D3
100
AcDbEntity
  8
1
  6
Continuous
100
AcDbLine
 10
24.852381
 20
78.26639799999998
 30
0.0
 11
24.852381
 21
42.76599799999997
 31
0.0
  0
LINE
  5
921F
330
91D3
100
AcDbEntity
  8
1
  6
Continuous
100
AcDbLine
 10
13.852431
 20
96.26639799999999
 30
0.0
 11
13.852431
 21
94.919398
 31
0.0
  0
LINE
  5
9220
330
91D3
100
AcDbEntity
  8
4
  6
CENTER
100
AcDbLine
 10
18.852431
 20
98.177398
 30
0.0
 11
18.852431
 21
83.36939800000001
 31
0.0
  0
LINE
  5
9221
330
91D3
100
AcDbEntity
  8
1
  6
Continuous
100
AcDbLine
 10
20.852431
 20
103.2663979999999
 30
0.0
 11
13.85233099999999
 21
96.26639799999999
 31
0.0
  0
LINE
  5
9222
330
91D3
100
AcDbEntity
  8
1
  6
Continuous
100
AcDbLine
 10
20.852431
 20
78.26639799999998
 30
0.0
 11
13.852431
 21
85.26639799999998
 31
0.0
  0
LINE
  5
9223
330
91D3
100
AcDbEntity
  8
1
  6
Continuous
100
AcDbLine
 10
13.852431
 20
86.612398
 30
0.0
 11
13.852431
 21
85.26639799999998
 31
0.0
  0
LINE
  5
9224
330
91D3
100
AcDbEntity
  8
1
  6
Continuous
100
AcDbLine
 10
275.549431
 20
138.766398
 30
0.0
 11
275.549431
 21
114.389398
 31
0.0
  0
LINE
  5
9225
330
91D3
100
AcDbEntity
  8
1
  6
Continuous
100
AcDbLine
 10
273.549431
 20
138.766398
 30
0.0
 11
273.549431
 21
114.859398
 31
0.0
  0
LINE
  5
9226
330
91D3
100
AcDbEntity
  8
1
  6
Continuous
100
AcDbLine
 10
275.549431
 20
138.766398
 30
0.0
 11
273.549431
 21
138.766398
 31
0.0
  0
LINE
  5
9227
330
91D3
100
AcDbEntity
  8
4
  6
CENTER
100
AcDbLine
 10
280.549431
 20
130.766398
 30
0.0
 11
268.549431
 21
130.766398
 31
0.0
  0
LINE
  5
9228
330
91D3
100
AcDbEntity
  8
1
  6
Continuous
100
AcDbLine
 10
286.049431
 20
103.2663979999999
 30
0.0
 11
283.049431
 21
103.2663979999999
 31
0.0
  0
LINE
  5
9229
330
91D3
100
AcDbEntity
  8
1
  6
Continuous
100
AcDbLine
 10
286.049431
 20
78.26639799999998
 30
0.0
 11
283.049431
 21
78.26639799999998
 31
0.0
  0
LINE
  5
922A
330
91D3
100
AcDbEntity
  8
4
  6
CENTER
100
AcDbLine
 10
280.549431
 20
50.765998
 30
0.0
 11
268.549431
 21
50.765998
 31
0.0
  0
LINE
  5
922B
330
91D3
100
AcDbEntity
  8
1
  6
Continuous
100
AcDbLine
 10
275.549431
 20
42.76599799999997
 30
0.0
 11
273.549431
 21
42.76599799999997
 31
0.0
  0
LINE
  5
922C
330
91D3
100
AcDbEntity
  8
1
  6
Continuous
100
AcDbLine
 10
286.549431
 20
96.26639799999999
 30
0.0
 11
286.549431
 21
92.86639800000001
 31
0.0
  0
LINE
  5
922D
330
91D3
100
AcDbEntity
  8
1
  6
Continuous
100
AcDbLine
 10
286.549431
 20
88.66639799999999
 30
0.0
 11
286.049431
 21
88.66639799999999
 31
0.0
  0
LINE
  5
922E
330
91D3
100
AcDbEntity
  8
1
  6
Continuous
100
AcDbLine
 10
286.549431
 20
92.86639800000001
 30
0.0
 11
286.049431
 21
92.86639800000001
 31
0.0
  0
LINE
  5
922F
330
91D3
100
AcDbEntity
  8
1
  6
Continuous
100
AcDbLine
 10
286.049431
 20
96.766398
 30
0.0
 11
286.549431
 21
96.26639799999999
 31
0.0
  0
LINE
  5
9230
330
91D3
100
AcDbEntity
  8
1
  6
Continuous
100
AcDbLine
 10
286.049431
 20
84.76639799999999
 30
0.0
 11
286.549431
 21
85.26639799999998
 31
0.0
  0
LINE
  5
9231
330
91D3
100
AcDbEntity
  8
1
  6
Continuous
100
AcDbLine
 10
286.549431
 20
88.66639799999999
 30
0.0
 11
286.549431
 21
85.26639799999998
 31
0.0
  0
LINE
  5
9232
330
91D3
100
AcDbEntity
  8
1
  6
Continuous
100
AcDbLine
 10
273.549431
 20
66.672398
 30
0.0
 11
273.549431
 21
42.76599799999997
 31
0.0
  0
LINE
  5
9233
330
91D3
100
AcDbEntity
  8
1
  6
Continuous
100
AcDbLine
 10
286.049431
 20
103.2663979999999
 30
0.0
 11
286.049431
 21
78.26639799999998
 31
0.0
  0
LINE
  5
9234
330
91D3
100
AcDbEntity
  8
1
  6
Continuous
100
AcDbLine
 10
462.594431
 20
103.2663979999999
 30
0.0
 11
462.594431
 21
78.26639799999998
 31
0.0
  0
LINE
  5
9235
330
91D3
100
AcDbEntity
  8
1
  6
Continuous
100
AcDbLine
 10
457.5944309999998
 20
136.766398
 30
0.0
 11
457.5944309999998
 21
105.2663979999999
 31
0.0
  0
LINE
  5
9236
330
91D3
100
AcDbEntity
  8
1
  6
Continuous
100
AcDbLine
 10
437.594431
 20
136.766398
 30
0.0
 11
437.594431
 21
109.7663979999999
 31
0.0
  0
LINE
  5
9237
330
91D3
100
AcDbEntity
  8
1
  6
Continuous
100
AcDbLine
 10
329.5944309999998
 20
101.2663979999999
 30
0.0
 11
329.5944309999998
 21
80.26639799999998
 31
0.0
  0
LINE
  5
9238
330
91D3
100
AcDbEntity
  8
4
  6
CENTER
100
AcDbLine
 10
447.594431
 20
136.5133979999999
 30
0.0
 11
447.594431
 21
124.787398
 31
0.0
  0
LINE
  5
9239
330
91D3
100
AcDbEntity
  8
1
  6
Continuous
100
AcDbLine
 10
455.594431
 20
42.76599799999997
 30
0.0
 11
439.5944309999999
 21
42.76599799999997
 31
0.0
  0
LINE
  5
923A
330
91D3
100
AcDbEntity
  8
1
  6
Continuous
100
AcDbLine
 10
455.594431
 20
138.766398
 30
0.0
 11
439.5944309999999
 21
138.766398
 31
0.0
  0
LINE
  5
923B
330
91D3
100
AcDbEntity
  8
4
  6
CENTER
100
AcDbLine
 10
453.3214309999998
 20
50.765998
 30
0.0
 11
441.1654309999998
 21
50.765998
 31
0.0
  0
LINE
  5
923C
330
91D3
100
AcDbEntity
  8
4
  6
CENTER
100
AcDbLine
 10
452.926431
 20
130.766398
 30
0.0
 11
440.8854309999998
 21
130.766398
 31
0.0
  0
LINE
  5
923D
330
91D3
100
AcDbEntity
  8
4
  6
CENTER
100
AcDbLine
 10
337.5944309999998
 20
96.513398
 30
0.0
 11
337.5944309999998
 21
84.78739799999997
 31
0.0
  0
LINE
  5
923E
330
91D3
100
AcDbEntity
  8
4
  6
CENTER
100
AcDbLine
 10
447.594431
 20
56.512998
 30
0.0
 11
447.594431
 21
44.78719799999999
 31
0.0
  0
LINE
  5
923F
330
91D3
100
AcDbEntity
  8
1
  6
Continuous
100
AcDbLine
 10
462.594431
 20
103.2663979999999
 30
0.0
 11
459.594431
 21
103.2663979999999
 31
0.0
  0
LINE
  5
9240
330
91D3
100
AcDbEntity
  8
1
  6
Continuous
100
AcDbLine
 10
462.594431
 20
78.26639799999998
 30
0.0
 11
459.594431
 21
78.26639799999998
 31
0.0
  0
LINE
  5
9241
330
91D3
100
AcDbEntity
  8
1
  6
Continuous
100
AcDbLine
 10
457.5944309999998
 20
76.26639799999998
 30
0.0
 11
457.5944309999998
 21
44.76599799999998
 31
0.0
  0
LINE
  5
9242
330
91D3
100
AcDbEntity
  8
1
  6
Continuous
100
AcDbLine
 10
435.5944309999999
 20
73.76639799999998
 30
0.0
 11
434.094431
 21
73.76639799999998
 31
0.0
  0
LINE
  5
9243
330
91D3
100
AcDbEntity
  8
1
  6
Continuous
100
AcDbLine
 10
435.5944309999999
 20
107.766398
 30
0.0
 11
434.094431
 21
107.766398
 31
0.0
  0
LINE
  5
9244
330
91D3
100
AcDbEntity
  8
1
  6
Continuous
100
AcDbLine
 10
432.0944309999998
 20
111.866398
 30
0.0
 11
432.0944309999998
 21
109.7663979999999
 31
0.0
  0
LINE
  5
9245
330
91D3
100
AcDbEntity
  8
1
  6
Continuous
100
AcDbLine
 10
437.594431
 20
71.766398
 30
0.0
 11
437.594431
 21
44.76599799999998
 31
0.0
  0
LINE
  5
9246
330
91D3
100
AcDbEntity
  8
1
  6
Continuous
100
AcDbLine
 10
419.5944309999998
 20
111.866398
 30
0.0
 11
419.5944309999998
 21
107.2663979999999
 31
0.0
  0
LINE
  5
9247
330
91D3
100
AcDbEntity
  8
1
  6
Continuous
100
AcDbLine
 10
432.0944309999998
 20
111.866398
 30
0.0
 11
419.5944309999998
 21
111.866398
 31
0.0
  0
LINE
  5
9248
330
91D3
100
AcDbEntity
  8
1
  6
Continuous
100
AcDbLine
 10
432.0944309999998
 20
69.666398
 30
0.0
 11
419.5944309999998
 21
69.666398
 31
0.0
  0
LINE
  5
9249
330
91D3
100
AcDbEntity
  8
1
  6
Continuous
100
AcDbLine
 10
432.0944309999998
 20
71.766398
 30
0.0
 11
432.0944309999998
 21
69.666398
 31
0.0
  0
LINE
  5
924A
330
91D3
100
AcDbEntity
  8
1
  6
Continuous
100
AcDbLine
 10
415.5944309999998
 20
103.2663979999999
 30
0.0
 11
331.5944309999999
 21
103.2663979999999
 31
0.0
  0
LINE
  5
924B
330
91D3
100
AcDbEntity
  8
1
  6
Continuous
100
AcDbLine
 10
415.5944309999998
 20
78.26639799999998
 30
0.0
 11
331.5944309999999
 21
78.26639799999998
 31
0.0
  0
LINE
  5
924C
330
91D3
100
AcDbEntity
  8
1
  6
Continuous
100
AcDbLine
 10
419.5944309999998
 20
74.26639799999998
 30
0.0
 11
419.5944309999998
 21
69.666398
 31
0.0
  0
LINE
  5
924D
330
91D3
100
AcDbEntity
  8
4
  6
CENTER
100
AcDbLine
 10
427.5944309999998
 20
131.688398
 30
0.0
 11
427.5944309999998
 21
48.056398
 31
0.0
  0
LINE
  5
924E
330
91D3
100
AcDbEntity
  8
1
  6
Continuous
100
AcDbLine
 10
439.5944309999999
 20
93.76639799999999
 30
0.0
 11
439.5944309999999
 21
87.76639799999998
 31
0.0
  0
LINE
  5
924F
330
91D3
100
AcDbEntity
  8
1
  6
Continuous
100
AcDbLine
 10
415.5944309999998
 20
93.76639799999999
 30
0.0
 11
415.5944309999998
 21
87.76639799999998
 31
0.0
  0
LINE
  5
9250
330
91D3
100
AcDbEntity
  8
1
  6
Continuous
100
AcDbLine
 10
438.594431
 20
86.76639799999998
 30
0.0
 11
416.5944309999998
 21
86.76639799999998
 31
0.0
  0
LINE
  5
9251
330
91D3
100
AcDbEntity
  8
1
  6
Continuous
100
AcDbLine
 10
438.594431
 20
94.76639799999999
 30
0.0
 11
416.5944309999998
 21
94.76639799999999
 31
0.0
  0
LINE
  5
9252
330
91D3
100
AcDbEntity
  8
1
  6
Continuous
100
AcDbLine
 10
350.737431
 20
101.2663979999999
 30
0.0
 11
350.737431
 21
80.26639799999998
 31
0.0
  0
LINE
  5
9253
330
91D3
100
AcDbEntity
  8
1
  6
Continuous
100
AcDbLine
 10
388.262431
 20
101.2663979999999
 30
0.0
 11
388.262431
 21
80.26639799999998
 31
0.0
  0
LINE
  5
9254
330
91D3
100
AcDbEntity
  8
1
  6
Continuous
100
AcDbLine
 10
409.4624309999998
 20
101.2663979999999
 30
0.0
 11
409.4624309999998
 21
80.26639799999998
 31
0.0
  0
LINE
  5
9255
330
91D3
100
AcDbEntity
  8
1
  6
Continuous
100
AcDbLine
 10
259.931431
 20
60.074998
 30
0.0
 11
266.549431
 21
56.76599799999999
 31
0.0
  0
LINE
  5
9256
330
91D3
100
AcDbEntity
  8
1
  6
Continuous
100
AcDbLine
 10
266.549431
 20
124.766398
 30
0.0
 11
259.931431
 21
121.4573979999999
 31
0.0
  0
LINE
  5
9257
330
91D3
100
AcDbEntity
  8
1
  6
Continuous
100
AcDbLine
 10
266.549431
 20
115.752398
 30
0.0
 11
273.442431
 21
114.873398
 31
0.0
  0
LINE
  5
9258
330
91D3
100
AcDbEntity
  8
1
  6
Continuous
100
AcDbLine
 10
283.049431
 20
103.9613979999999
 30
0.0
 11
283.049431
 21
77.57039799999998
 31
0.0
  0
LINE
  5
9259
330
91D3
100
AcDbEntity
  8
1
  6
Continuous
100
AcDbLine
 10
266.549431
 20
65.779398
 30
0.0
 11
273.442431
 21
66.659398
 31
0.0
  0
LINE
  5
925A
330
91D3
100
AcDbEntity
  8
1
  6
Continuous
100
AcDbLine
 10
117.034431
 20
114.266398
 30
0.0
 11
175.758431
 21
114.266398
 31
0.0
  0
LINE
  5
925B
330
91D3
100
AcDbEntity
  8
1
  6
Continuous
100
AcDbLine
 10
117.034431
 20
67.266398
 30
0.0
 11
175.758431
 21
67.266398
 31
0.0
  0
LINE
  5
925C
330
91D3
100
AcDbEntity
  8
4
  6
CENTER
100
AcDbLine
 10
123.058631
 20
206.2304039999999
 30
0.0
 11
123.058631
 21
218.3527349999998
 31
0.0
  0
LINE
  5
925D
330
91D3
100
AcDbEntity
  8
1
  6
Continuous
100
AcDbLine
 10
177.7584309999998
 20
112.266398
 30
0.0
 11
177.7584309999998
 21
69.266398
 31
0.0
  0
LINE
  5
925E
330
91D3
100
AcDbEntity
  8
1
  6
Continuous
100
AcDbLine
 10
111.058631
 20
217.1923979999998
 30
0.0
 11
111.058631
 21
219.1923979999998
 31
0.0
  0
LINE
  5
925F
330
91D3
100
AcDbEntity
  8
1
  6
Continuous
100
AcDbLine
 10
125.058631
 20
225.6923979999999
 30
0.0
 11
126.293031
 21
221.1923979999999
 31
0.0
  0
LINE
  5
9260
330
91D3
100
AcDbEntity
  8
4
  6
CENTER
100
AcDbLine
 10
130.0586309999999
 20
222.692398
 30
0.0
 11
130.0586309999999
 21
229.6923979999998
 31
0.0
  0
LINE
  5
9261
330
91D3
100
AcDbEntity
  8
4
  6
CENTER
100
AcDbLine
 10
126.5586309999999
 20
226.192398
 30
0.0
 11
133.558431
 21
226.192398
 31
0.0
  0
LINE
  5
9262
330
91D3
100
AcDbEntity
  8
1
  6
Continuous
100
AcDbLine
 10
125.058631
 20
225.6923979999999
 30
0.0
 11
119.058631
 21
230.192398
 31
0.0
  0
LINE
  5
9263
330
91D3
100
AcDbEntity
  8
1
  6
Continuous
100
AcDbLine
 10
111.058631
 20
217.1923979999998
 30
0.0
 11
114.533831
 21
212.192398
 31
0.0
  0
LINE
  5
9264
330
91D3
100
AcDbEntity
  8
1
  6
Continuous
100
AcDbLine
 10
143.058431
 20
107.766398
 30
0.0
 11
143.058431
 21
73.76639799999998
 31
0.0
  0
LINE
  5
9265
330
91D3
100
AcDbEntity
  8
1
  6
Continuous
100
AcDbLine
 10
136.058431
 20
107.766398
 30
0.0
 11
136.058431
 21
73.76639799999998
 31
0.0
  0
LINE
  5
9266
330
91D3
100
AcDbEntity
  8
1
  6
Continuous
100
AcDbLine
 10
138.058431
 20
71.766398
 30
0.0
 11
166.058431
 21
71.766398
 31
0.0
  0
LINE
  5
9267
330
91D3
100
AcDbEntity
  8
1
  6
Continuous
100
AcDbLine
 10
138.058431
 20
109.7663979999999
 30
0.0
 11
166.058431
 21
109.7663979999999
 31
0.0
  0
LINE
  5
9268
330
91D3
100
AcDbEntity
  8
1
  6
Continuous
100
AcDbLine
 10
168.058431
 20
107.766398
 30
0.0
 11
168.058431
 21
73.76639799999998
 31
0.0
  0
LINE
  5
9269
330
91D3
100
AcDbEntity
  8
1
  6
Continuous
100
AcDbLine
 10
26.852381
 20
92.86639800000001
 30
0.0
 11
33.85238300000001
 21
92.86639800000001
 31
0.0
  0
LINE
  5
926A
330
91D3
100
AcDbEntity
  8
1
  6
Continuous
100
AcDbLine
 10
26.852381
 20
88.66639799999999
 30
0.0
 11
33.85238300000001
 21
88.66639799999999
 31
0.0
  0
LINE
  5
926B
330
91D3
100
AcDbEntity
  8
1
  6
Continuous
100
AcDbLine
 10
28.352381
 20
74.76639799999998
 30
0.0
 11
28.352381
 21
71.766398
 31
0.0
  0
LINE
  5
926C
330
91D3
100
AcDbEntity
  8
1
  6
Continuous
100
AcDbLine
 10
28.352381
 20
109.7663979999999
 30
0.0
 11
33.85238300000001
 21
109.7663979999999
 31
0.0
  0
LINE
  5
926D
330
91D3
100
AcDbEntity
  8
1
  6
Continuous
100
AcDbLine
 10
28.352381
 20
71.766398
 30
0.0
 11
33.85238300000001
 21
71.766398
 31
0.0
  0
LINE
  5
926E
330
91D3
100
AcDbEntity
  8
1
  6
Continuous
100
AcDbLine
 10
28.352381
 20
106.766398
 30
0.0
 11
33.85238300000001
 21
106.766398
 31
0.0
  0
LINE
  5
926F
330
91D3
100
AcDbEntity
  8
1
  6
Continuous
100
AcDbLine
 10
28.352381
 20
74.76639799999998
 30
0.0
 11
33.85238300000001
 21
74.76639799999998
 31
0.0
  0
LINE
  5
9270
330
91D3
100
AcDbEntity
  8
1
  6
Continuous
100
AcDbLine
 10
28.352381
 20
109.7663979999999
 30
0.0
 11
28.352381
 21
106.766398
 31
0.0
  0
LINE
  5
9271
330
91D3
100
AcDbEntity
  8
1
  6
Continuous
100
AcDbLine
 10
33.85238300000001
 20
68.666398
 30
0.0
 11
30.902381
 21
68.666398
 31
0.0
  0
LINE
  5
9272
330
91D3
100
AcDbEntity
  8
1
  6
Continuous
100
AcDbLine
 10
463.594431
 20
95.766398
 30
0.0
 11
463.594431
 21
85.76639799999998
 31
0.0
  0
LINE
  5
9273
330
91D3
100
AcDbEntity
  8
1
  6
Continuous
100
AcDbLine
 10
88.05863100000001
 20
220.692398
 30
0.0
 11
88.05863100000001
 21
233.6923979999999
 31
0.0
  0
LINE
  5
9274
330
91D3
100
AcDbEntity
  8
1
  6
Continuous
100
AcDbLine
 10
463.594431
 20
85.76639799999998
 30
0.0
 11
462.594431
 21
84.26639799999998
 31
0.0
  0
LINE
  5
9275
330
91D3
100
AcDbEntity
  8
1
  6
Continuous
100
AcDbLine
 10
462.594431
 20
97.266398
 30
0.0
 11
463.594431
 21
95.766398
 31
0.0
  0
LINE
  5
9276
330
91D3
100
AcDbEntity
  8
1
  6
Continuous
100
AcDbLine
 10
108.597431
 20
111.7663979999999
 30
0.0
 11
108.597431
 21
69.766398
 31
0.0
  0
LINE
  5
9277
330
91D3
100
AcDbEntity
  8
1
  6
Continuous
100
AcDbLine
 10
202.597431
 20
111.7663979999999
 30
0.0
 11
202.597431
 21
69.766398
 31
0.0
  0
LINE
  5
9278
330
91D3
100
AcDbEntity
  8
1
  6
Continuous
100
AcDbLine
 10
117.5974309999999
 20
60.765998
 30
0.0
 11
193.5974309999998
 21
60.765998
 31
0.0
  0
LINE
  5
9279
330
91D3
100
AcDbEntity
  8
1
  6
Continuous
100
AcDbLine
 10
117.5974309999999
 20
120.7663979999999
 30
0.0
 11
193.5974309999998
 21
120.7663979999999
 31
0.0
  0
LINE
  5
927A
330
91D3
100
AcDbEntity
  8
1
  6
Continuous
100
AcDbLine
 10
197.5974309999998
 20
111.7663979999999
 30
0.0
 11
197.5974309999998
 21
69.766398
 31
0.0
  0
LINE
  5
927B
330
91D3
100
AcDbEntity
  8
1
  6
Continuous
100
AcDbLine
 10
117.5974309999999
 20
115.7663979999999
 30
0.0
 11
193.5974309999998
 21
115.7663979999999
 31
0.0
  0
LINE
  5
927C
330
91D3
100
AcDbEntity
  8
1
  6
Continuous
100
AcDbLine
 10
113.5974309999999
 20
111.7663979999999
 30
0.0
 11
113.5974309999999
 21
69.766398
 31
0.0
  0
LINE
  5
927D
330
91D3
100
AcDbEntity
  8
1
  6
Continuous
100
AcDbLine
 10
117.5974309999999
 20
65.76639799999999
 30
0.0
 11
193.5974309999998
 21
65.76639799999999
 31
0.0
  0
LINE
  5
927E
330
91D3
100
AcDbEntity
  8
1
  6
Continuous
100
AcDbLine
 10
107.926531
 20
205.6423979999999
 30
0.0
 11
104.897431
 21
212.192398
 31
0.0
  0
LINE
  5
927F
330
91D3
100
AcDbEntity
  8
1
  6
Continuous
100
AcDbLine
 10
203.268431
 20
205.6423979999999
 30
0.0
 11
206.2974309999999
 21
212.192398
 31
0.0
  0
LINE
  5
9280
330
91D3
100
AcDbEntity
  8
4
  6
CENTER
100
AcDbLine
 10
469.0894309999998
 20
90.766398
 30
0.0
 11
322.857431
 21
90.766398
 31
0.0
  0
LINE
  5
9281
330
91D3
100
AcDbEntity
  8
4
  6
CENTER
100
AcDbLine
 10
395.094431
 20
131.688398
 30
0.0
 11
395.094431
 21
48.056398
 31
0.0
  0
LINE
  5
9282
330
91D3
100
AcDbEntity
  8
4
  6
CENTER
100
AcDbLine
 10
49.102431
 20
90.766398
 30
0.0
 11
10.648431
 21
90.766398
 31
0.0
  0
LINE
  5
9283
330
91D3
100
AcDbEntity
  8
1
  6
Continuous
100
AcDbLine
 10
433.6574309999998
 20
114.494398
 30
0.0
 11
433.6574309999998
 21
107.766398
 31
0.0
  0
LINE
  5
9284
330
91D3
100
AcDbEntity
  8
1
  6
Continuous
100
AcDbLine
 10
410.5324309999998
 20
113.537398
 30
0.0
 11
410.5324309999998
 21
103.2663979999999
 31
0.0
  0
LINE
  5
9285
330
91D3
100
AcDbEntity
  8
1
  6
Continuous
100
AcDbLine
 10
433.135431
 20
114.9933979999999
 30
0.0
 11
411.011431
 21
114.0363979999999
 31
0.0
  0
LINE
  5
9286
330
91D3
100
AcDbEntity
  8
1
  6
Continuous
100
AcDbLine
 10
411.011431
 20
67.49539799999999
 30
0.0
 11
433.135431
 21
66.538398
 31
0.0
  0
LINE
  5
9287
330
91D3
100
AcDbEntity
  8
1
  6
Continuous
100
AcDbLine
 10
41.852441
 20
119.221398
 30
0.0
 11
41.852441
 21
62.311398
 31
0.0
  0
LINE
  5
9288
330
91D3
100
AcDbEntity
  8
1
  6
Continuous
100
AcDbLine
 10
33.85238300000001
 20
124.766398
 30
0.0
 11
33.85238300000001
 21
56.76599799999999
 31
0.0
  0
LINE
  5
9289
330
91D3
100
AcDbEntity
  8
1
  6
Continuous
100
AcDbLine
 10
40.47044099999999
 20
60.074998
 30
0.0
 11
33.852426
 21
56.76599799999999
 31
0.0
  0
LINE
  5
928A
330
91D3
100
AcDbEntity
  8
1
  6
Continuous
100
AcDbLine
 10
33.852409
 20
124.766398
 30
0.0
 11
40.47043099999998
 21
121.4573979999999
 31
0.0
  0
LINE
  5
928B
330
91D3
100
AcDbEntity
  8
1
  6
Continuous
100
AcDbLine
 10
33.852392
 20
115.752398
 30
0.0
 11
26.852381
 21
114.859398
 31
0.0
  0
LINE
  5
928C
330
91D3
100
AcDbEntity
  8
1
  6
Continuous
100
AcDbLine
 10
17.35243099999999
 20
103.9613979999999
 30
0.0
 11
17.35243099999999
 21
99.766398
 31
0.0
  0
LINE
  5
928D
330
91D3
100
AcDbEntity
  8
1
  6
Continuous
100
AcDbLine
 10
33.85245299999999
 20
65.779398
 30
0.0
 11
26.852381
 21
66.672398
 31
0.0
  0
LINE
  5
928E
330
91D3
100
AcDbEntity
  8
1
  6
Continuous
100
AcDbLine
 10
93.05863100000001
 20
219.1923979999998
 30
0.0
 11
93.05863100000001
 21
221.1923979999999
 31
0.0
  0
LINE
  5
928F
330
91D3
100
AcDbEntity
  8
1
  6
Continuous
100
AcDbLine
 10
113.0586309999999
 20
219.1923979999998
 30
0.0
 11
113.0586309999999
 21
221.1923979999999
 31
0.0
  0
LINE
  5
9290
330
91D3
100
AcDbEntity
  8
1
  6
Continuous
100
AcDbLine
 10
90.058631
 20
219.1923979999998
 30
0.0
 11
118.558631
 21
219.1923979999998
 31
0.0
  0
LINE
  5
9291
330
91D3
100
AcDbEntity
  8
1
  6
Continuous
100
AcDbLine
 10
90.058631
 20
221.1923979999999
 30
0.0
 11
141.1904309999999
 21
221.1923979999999
 31
0.0
  0
LINE
  5
9292
330
91D3
100
AcDbEntity
  8
1
  6
Continuous
100
AcDbLine
 10
90.058631
 20
221.1923979999999
 30
0.0
 11
90.058631
 21
232.192398
 31
0.0
  0
LINE
  5
9293
330
91D3
100
AcDbEntity
  8
1
  6
Continuous
100
AcDbLine
 10
88.05863100000001
 20
232.192398
 30
0.0
 11
90.058631
 21
232.192398
 31
0.0
  0
LINE
  5
9294
330
91D3
100
AcDbEntity
  8
4
  6
CENTER
100
AcDbLine
 10
103.058631
 20
214.795398
 30
0.0
 11
103.058631
 21
226.9053979999999
 31
0.0
  0
LINE
  5
9295
330
91D3
100
AcDbEntity
  8
1
  6
Continuous
100
AcDbLine
 10
209.058431
 20
221.1923979999999
 30
0.0
 11
209.058431
 21
222.692398
 31
0.0
  0
LINE
  5
9296
330
91D3
100
AcDbEntity
  8
1
  6
Continuous
100
AcDbLine
 10
217.058431
 20
221.1923979999999
 30
0.0
 11
217.058431
 21
222.692398
 31
0.0
  0
LINE
  5
9297
330
91D3
100
AcDbEntity
  8
1
  6
Continuous
100
AcDbLine
 10
209.058431
 20
222.692398
 30
0.0
 11
217.058431
 21
222.692398
 31
0.0
  0
LINE
  5
9298
330
91D3
100
AcDbEntity
  8
1
  6
Continuous
100
AcDbLine
 10
131.0586309999999
 20
219.1923979999998
 30
0.0
 11
131.0586309999999
 21
221.1923979999999
 31
0.0
  0
LINE
  5
9299
330
91D3
100
AcDbEntity
  8
1
  6
Continuous
100
AcDbLine
 10
118.558631
 20
212.192398
 30
0.0
 11
118.558631
 21
221.1923979999999
 31
0.0
  0
LINE
  5
929A
330
91D3
100
AcDbEntity
  8
1
  6
Continuous
100
AcDbLine
 10
131.0586309999999
 20
219.1923979999998
 30
0.0
 11
127.975731
 21
212.192398
 31
0.0
  0
LINE
  5
929B
330
91D3
100
AcDbEntity
  8
1
  6
Continuous
100
AcDbLine
 10
131.0586309999999
 20
219.1923979999998
 30
0.0
 11
141.658431
 21
219.1923979999998
 31
0.0
  0
LINE
  5
929C
330
91D3
100
AcDbEntity
  8
4
  6
CENTER
100
AcDbLine
 10
213.058431
 20
216.099398
 30
0.0
 11
213.058431
 21
225.7873979999998
 31
0.0
  0
LINE
  5
929D
330
91D3
100
AcDbEntity
  8
1
  6
Continuous
100
AcDbLine
 10
99.05863100000001
 20
221.1923979999999
 30
0.0
 11
99.05863100000001
 21
222.692398
 31
0.0
  0
LINE
  5
929E
330
91D3
100
AcDbEntity
  8
1
  6
Continuous
100
AcDbLine
 10
99.05863100000001
 20
222.692398
 30
0.0
 11
107.058631
 21
222.692398
 31
0.0
  0
LINE
  5
929F
330
91D3
100
AcDbEntity
  8
1
  6
Continuous
100
AcDbLine
 10
107.058631
 20
221.1923979999999
 30
0.0
 11
107.058631
 21
222.692398
 31
0.0
  0
LINE
  5
92A0
330
91D3
100
AcDbEntity
  8
1
  6
Continuous
100
AcDbLine
 10
162.8584309999999
 20
229.6923979999998
 30
0.0
 11
182.6304309999999
 21
229.6923979999998
 31
0.0
  0
LINE
  5
92A1
330
91D3
100
AcDbEntity
  8
1
  6
Continuous
100
AcDbLine
 10
141.658431
 20
219.1923979999998
 30
0.0
 11
162.8584309999999
 21
229.6923979999998
 31
0.0
  0
LINE
  5
92A2
330
91D3
100
AcDbEntity
  8
1
  6
Continuous
100
AcDbLine
 10
193.492431
 20
225.0363979999999
 30
0.0
 11
199.058431
 21
219.1923979999998
 31
0.0
  0
LINE
  5
92A3
330
91D3
100
AcDbEntity
  8
4
  6
CENTER
100
AcDbLine
 10
153.2984309999999
 20
220.926398
 30
0.0
 11
145.8634309999998
 21
235.9363979999999
 31
0.0
  0
LINE
  5
92A4
330
91D3
100
AcDbEntity
  8
1
  6
Continuous
100
AcDbLine
 10
144.688431
 20
222.924398
 30
0.0
 11
146.045431
 21
226.944398
 31
0.0
  0
LINE
  5
92A5
330
91D3
100
AcDbEntity
  8
1
  6
Continuous
100
AcDbLine
 10
146.045431
 20
226.944398
 30
0.0
 11
152.906431
 21
230.342398
 31
0.0
  0
LINE
  5
92A6
330
91D3
100
AcDbEntity
  8
1
  6
Continuous
100
AcDbLine
 10
156.926431
 20
228.985398
 30
0.0
 11
152.906431
 21
230.342398
 31
0.0
  0
LINE
  5
92A7
330
91D3
100
AcDbEntity
  8
1
  6
Continuous
100
AcDbLine
 10
162.390431
 20
231.6923979999998
 30
0.0
 11
182.6304309999999
 21
231.6923979999998
 31
0.0
  0
LINE
  5
92A8
330
91D3
100
AcDbEntity
  8
1
  6
Continuous
100
AcDbLine
 10
194.940431
 20
226.4163979999999
 30
0.0
 11
199.915431
 21
221.1923979999999
 31
0.0
  0
LINE
  5
92A9
330
91D3
100
AcDbEntity
  8
1
  6
Continuous
100
AcDbLine
 10
141.1904309999999
 20
221.1923979999999
 30
0.0
 11
162.390431
 21
231.6923979999998
 31
0.0
  0
LINE
  5
92AA
330
91D3
100
AcDbEntity
  8
1
  6
Continuous
100
AcDbLine
 10
88.05863100000001
 20
225.1923979999999
 30
0.0
 11
90.058631
 21
225.1923979999999
 31
0.0
  0
LINE
  5
92AB
330
91D3
100
AcDbEntity
  8
4
  6
CENTER
100
AcDbLine
 10
83.64443099999999
 20
227.1923979999999
 30
0.0
 11
94.191731
 21
227.1923979999999
 31
0.0
  0
LINE
  5
92AC
330
91D3
100
AcDbEntity
  8
1
  6
Continuous
100
AcDbLine
 10
104.897431
 20
212.192398
 30
0.0
 11
206.2974309999999
 21
212.192398
 31
0.0
  0
LINE
  5
92AD
330
91D3
100
AcDbEntity
  8
1
  6
Continuous
100
AcDbLine
 10
150.1244309999999
 20
90.766398
 30
0.0
 11
154.562431
 21
90.766398
 31
0.0
  0
LINE
  5
92AE
330
91D3
100
AcDbEntity
  8
5
  6
PHANTOM
100
AcDbLine
 10
119.858631
 20
224.7923979999999
 30
0.0
 11
127.058631
 21
230.192398
 31
0.0
  0
LINE
  5
92AF
330
91D3
100
AcDbEntity
  8
5
  6
PHANTOM
100
AcDbLine
 10
135.058431
 20
218.6923979999999
 30
0.0
 11
135.058431
 21
219.1923979999998
 31
0.0
  0
LINE
  5
92B0
330
91D3
100
AcDbEntity
  8
1
  6
Continuous
100
AcDbLine
 10
199.915431
 20
221.1923979999999
 30
0.0
 11
221.058431
 21
221.1923979999999
 31
0.0
  0
LINE
  5
92B1
330
91D3
100
AcDbEntity
  8
1
  6
Continuous
100
AcDbLine
 10
199.058431
 20
219.1923979999998
 30
0.0
 11
221.058431
 21
219.1923979999998
 31
0.0
  0
LINE
  5
92B2
330
91D3
100
AcDbEntity
  8
1
  6
Continuous
100
AcDbLine
 10
221.058431
 20
219.1923979999998
 30
0.0
 11
221.058431
 21
221.1923979999999
 31
0.0
  0
LINE
  5
92B3
330
91D3
100
AcDbEntity
  8
1
  6
Continuous
100
AcDbLine
 10
111.058631
 20
221.1923979999999
 30
0.0
 11
111.058631
 21
226.192398
 31
0.0
  0
LINE
  5
92B4
330
91D3
100
AcDbEntity
  8
1
  6
Continuous
100
AcDbLine
 10
275.549431
 20
67.142398
 30
0.0
 11
275.549431
 21
42.76599799999997
 31
0.0
  0
LINE
  5
92B5
330
91D3
100
AcDbEntity
  8
1
  6
Continuous
100
AcDbLine
 10
258.549431
 20
67.266398
 30
0.0
 11
258.199431
 21
67.266398
 31
0.0
  0
LINE
  5
92B6
330
91D3
100
AcDbEntity
  8
1
  6
Continuous
100
AcDbLine
 10
258.549431
 20
114.266398
 30
0.0
 11
258.199431
 21
114.266398
 31
0.0
  0
LINE
  5
92B7
330
91D3
100
AcDbEntity
  8
1
  6
Continuous
100
AcDbLine
 10
257.199431
 20
113.266398
 30
0.0
 11
257.199431
 21
110.7663979999999
 31
0.0
  0
LINE
  5
92B8
330
91D3
100
AcDbEntity
  8
1
  6
Continuous
100
AcDbLine
 10
41.852441
 20
67.266398
 30
0.0
 11
42.202421
 21
67.266398
 31
0.0
  0
LINE
  5
92B9
330
91D3
100
AcDbEntity
  8
1
  6
Continuous
100
AcDbLine
 10
41.852441
 20
114.266398
 30
0.0
 11
42.202421
 21
114.266398
 31
0.0
  0
LINE
  5
92BA
330
91D3
100
AcDbEntity
  8
1
  6
Continuous
100
AcDbLine
 10
43.20243099999999
 20
113.266398
 30
0.0
 11
43.20243099999999
 21
110.7663979999999
 31
0.0
  0
LINE
  5
92BB
330
91D3
100
AcDbEntity
  8
1
  6
Continuous
100
AcDbLine
 10
17.35243099999999
 20
81.76639799999998
 30
0.0
 11
17.35243099999999
 21
77.57039799999998
 31
0.0
  0
LINE
  5
92BC
330
91D3
100
AcDbEntity
  8
1
  6
Continuous
100
AcDbLine
 10
430.5444309999998
 20
68.666398
 30
0.0
 11
424.6444309999998
 21
68.666398
 31
0.0
  0
LINE
  5
92BD
330
91D3
100
AcDbEntity
  8
1
  6
Continuous
100
AcDbLine
 10
31.852381
 20
109.8663979999999
 30
0.0
 11
31.852381
 21
109.7663979999999
 31
0.0
  0
LINE
  5
92BE
330
91D3
100
AcDbEntity
  8
1
  6
Continuous
100
AcDbLine
 10
31.852381
 20
106.766398
 30
0.0
 11
31.852381
 21
92.86639800000001
 31
0.0
  0
LINE
  5
92BF
330
91D3
100
AcDbEntity
  8
1
  6
Continuous
100
AcDbLine
 10
31.852381
 20
71.766398
 30
0.0
 11
31.852381
 21
71.666398
 31
0.0
  0
LINE
  5
92C0
330
91D3
100
AcDbEntity
  8
1
  6
Continuous
100
AcDbLine
 10
31.852381
 20
88.66639799999999
 30
0.0
 11
31.852381
 21
74.76639799999998
 31
0.0
  0
LINE
  5
92C1
330
91D3
100
AcDbEntity
  8
1
  6
Continuous
100
AcDbLine
 10
144.575431
 20
232.9063979999999
 30
0.0
 11
149.056431
 21
235.1233979999999
 31
0.0
  0
LINE
  5
92C2
330
91D3
100
AcDbEntity
  8
1
  6
Continuous
100
AcDbLine
 10
147.235431
 20
227.534398
 30
0.0
 11
144.575431
 21
232.9063979999999
 31
0.0
  0
LINE
  5
92C3
330
91D3
100
AcDbEntity
  8
1
  6
Continuous
100
AcDbLine
 10
151.716431
 20
229.753398
 30
0.0
 11
149.056431
 21
235.1233979999999
 31
0.0
  0
LINE
  5
92C4
330
91D3
100
AcDbEntity
  8
2
  6
Continuous
100
AcDbLine
 10
147.623431
 20
227.7263979999999
 30
0.0
 11
144.963431
 21
233.098398
 31
0.0
  0
LINE
  5
92C5
330
91D3
100
AcDbEntity
  8
2
  6
Continuous
100
AcDbLine
 10
151.3284309999999
 20
229.561398
 30
0.0
 11
148.668431
 21
234.931398
 31
0.0
  0
LINE
  5
92C6
330
91D3
100
AcDbEntity
  8
1
  6
Continuous
100
AcDbLine
 10
87.058631
 20
232.192398
 30
0.0
 11
88.05863100000001
 21
233.6923979999999
 31
0.0
  0
LINE
  5
92C7
330
91D3
100
AcDbEntity
  8
1
  6
Continuous
100
AcDbLine
 10
87.058631
 20
222.192398
 30
0.0
 11
87.058631
 21
232.192398
 31
0.0
  0
LINE
  5
92C8
330
91D3
100
AcDbEntity
  8
1
  6
Continuous
100
AcDbLine
 10
88.05863100000001
 20
220.692398
 30
0.0
 11
87.058631
 21
222.192398
 31
0.0
  0
LINE
  5
92C9
330
91D3
100
AcDbEntity
  8
1
  6
Continuous
100
AcDbLine
 10
348.733431
 20
111.148398
 30
0.0
 11
348.733431
 21
103.2663979999999
 31
0.0
  0
LINE
  5
92CA
330
91D3
100
AcDbEntity
  8
1
  6
Continuous
100
AcDbLine
 10
355.115431
 20
111.6383979999999
 30
0.0
 11
355.115431
 21
103.2663979999999
 31
0.0
  0
LINE
  5
92CB
330
91D3
100
AcDbEntity
  8
1
  6
Continuous
100
AcDbLine
 10
436.8604309999998
 20
111.6383979999999
 30
0.0
 11
436.8604309999998
 21
108.217398
 31
0.0
  0
LINE
  5
92CC
330
91D3
100
AcDbEntity
  8
1
  6
Continuous
100
AcDbLine
 10
357.7334309999998
 20
61.383998
 30
0.0
 11
432.4554309999999
 21
61.383998
 31
0.0
  0
LINE
  5
92CD
330
91D3
100
AcDbEntity
  8
1
  6
Continuous
100
AcDbLine
 10
359.115431
 20
65.89339800000001
 30
0.0
 11
432.8604309999998
 21
65.89339800000001
 31
0.0
  0
LINE
  5
92CE
330
91D3
100
AcDbEntity
  8
1
  6
Continuous
100
AcDbLine
 10
359.115431
 20
115.6383979999999
 30
0.0
 11
432.8604309999998
 21
115.6383979999999
 31
0.0
  0
LINE
  5
92CF
330
91D3
100
AcDbEntity
  8
1
  6
Continuous
100
AcDbLine
 10
357.7334309999998
 20
120.148398
 30
0.0
 11
432.4554309999999
 21
120.148398
 31
0.0
  0
LINE
  5
92D0
330
91D3
100
AcDbEntity
  8
1
  6
Continuous
100
AcDbLine
 10
348.733431
 20
78.26639799999998
 30
0.0
 11
348.733431
 21
70.384398
 31
0.0
  0
LINE
  5
92D1
330
91D3
100
AcDbEntity
  8
1
  6
Continuous
100
AcDbLine
 10
355.115431
 20
78.26639799999998
 30
0.0
 11
355.115431
 21
69.893398
 31
0.0
  0
LINE
  5
92D2
330
91D3
100
AcDbEntity
  8
1
  6
Continuous
100
AcDbLine
 10
436.8604309999998
 20
73.31439799999998
 30
0.0
 11
436.8604309999998
 21
69.893398
 31
0.0
  0
LINE
  5
92D3
330
91D3
100
AcDbEntity
  8
1
  6
Continuous
100
AcDbLine
 10
410.5324309999998
 20
78.26639799999998
 30
0.0
 11
410.5324309999998
 21
67.994398
 31
0.0
  0
LINE
  5
92D4
330
91D3
100
AcDbEntity
  8
1
  6
Continuous
100
AcDbLine
 10
433.6574309999998
 20
73.76639799999998
 30
0.0
 11
433.6574309999998
 21
67.038398
 31
0.0
  0
LINE
  5
92D5
330
91D3
100
AcDbEntity
  8
1
  6
Continuous
100
AcDbLine
 10
87.097431
 20
95.766398
 30
0.0
 11
88.097431
 21
97.266398
 31
0.0
  0
LINE
  5
92D6
330
91D3
100
AcDbEntity
  8
1
  6
Continuous
100
AcDbLine
 10
87.097431
 20
85.76639799999998
 30
0.0
 11
87.097431
 21
95.766398
 31
0.0
  0
LINE
  5
92D7
330
91D3
100
AcDbEntity
  8
1
  6
Continuous
100
AcDbLine
 10
88.097431
 20
84.26639799999998
 30
0.0
 11
87.09733100000002
 21
85.76639799999998
 31
0.0
  0
LINE
  5
92D8
330
91D3
100
AcDbEntity
  8
1
  6
Continuous
100
AcDbLine
 10
399.8204309999999
 20
88.26639799999998
 30
0.0
 11
403.837431
 21
88.26639799999998
 31
0.0
  0
LINE
  5
92D9
330
91D3
100
AcDbEntity
  8
1
  6
Continuous
100
AcDbLine
 10
399.8204309999999
 20
93.266398
 30
0.0
 11
403.837431
 21
93.266398
 31
0.0
  0
LINE
  5
92DA
330
91D3
100
AcDbEntity
  8
1
  6
Continuous
100
AcDbLine
 10
430.5444309999998
 20
69.666398
 30
0.0
 11
430.5444309999998
 21
68.666398
 31
0.0
  0
LINE
  5
92DB
330
91D3
100
AcDbEntity
  8
1
  6
Continuous
100
AcDbLine
 10
424.6444309999998
 20
69.666398
 30
0.0
 11
424.6444309999998
 21
68.666398
 31
0.0
  0
LINE
  5
92DC
330
91D3
100
AcDbEntity
  8
4
  6
CENTER
100
AcDbLine
 10
266.549431
 20
129.5853979999999
 30
0.0
 11
266.549431
 21
50.733698
 31
0.0
  0
LINE
  5
92DD
330
91D3
100
AcDbEntity
  8
1
  6
Continuous
100
AcDbLine
 10
30.902381
 20
69.666398
 30
0.0
 11
30.902381
 21
68.666398
 31
0.0
  0
LINE
  5
92DE
330
91D3
100
AcDbEntity
  8
1
  6
Continuous
100
AcDbLine
 10
31.352381
 20
112.466398
 30
0.0
 11
31.352381
 21
111.866398
 31
0.0
  0
LINE
  5
92DF
330
91D3
100
AcDbEntity
  8
1
  6
Continuous
100
AcDbLine
 10
31.352381
 20
112.466398
 30
0.0
 11
33.85238300000001
 21
112.466398
 31
0.0
  0
LINE
  5
92E0
330
91D3
100
AcDbEntity
  8
1
  6
Continuous
100
AcDbLine
 10
257.7194309999998
 20
71.64339800000002
 30
0.0
 11
257.7194309999998
 21
109.8883979999999
 31
0.0
  0
LINE
  5
92E1
330
91D3
100
AcDbEntity
  8
1
  6
Continuous
100
AcDbLine
 10
43.20243099999999
 20
70.76639799999998
 30
0.0
 11
43.20243099999999
 21
68.26639799999999
 31
0.0
  0
LINE
  5
92E2
330
91D3
100
AcDbEntity
  8
1
  6
Continuous
100
AcDbLine
 10
42.68233099999998
 20
109.8883979999999
 30
0.0
 11
42.68233099999998
 21
71.64339800000002
 31
0.0
  0
LINE
  5
92E3
330
91D3
100
AcDbEntity
  8
1
  6
Continuous
100
AcDbLine
 10
257.199431
 20
70.76639799999998
 30
0.0
 11
257.199431
 21
68.26639799999999
 31
0.0
  0
LINE
  5
92E4
330
91D3
100
AcDbEntity
  8
4
  6
CENTER
100
AcDbLine
 10
33.85238300000001
 20
129.5853979999999
 30
0.0
 11
33.85238300000001
 21
50.733698
 31
0.0
  0
LINE
  5
92E5
330
91D3
100
AcDbEntity
  8
4
  6
CENTER
100
AcDbLine
 10
116.058631
 20
101.220398
 30
0.0
 11
116.058631
 21
80.98639799999999
 31
0.0
  0
LINE
  5
92E6
330
91D3
100
AcDbEntity
  8
1
  6
Continuous
100
AcDbLine
 10
425.594431
 20
94.76639799999999
 30
0.0
 11
425.594431
 21
86.76639799999998
 31
0.0
  0
LINE
  5
92E7
330
91D3
100
AcDbEntity
  8
1
  6
Continuous
100
AcDbLine
 10
429.594431
 20
94.76639799999999
 30
0.0
 11
429.594431
 21
92.86639800000001
 31
0.0
  0
LINE
  5
92E8
330
91D3
100
AcDbEntity
  8
1
  6
Continuous
100
AcDbLine
 10
430.094431
 20
112.466398
 30
0.0
 11
425.0944309999998
 21
112.466398
 31
0.0
  0
LINE
  5
92E9
330
91D3
100
AcDbEntity
  8
1
  6
Continuous
100
AcDbLine
 10
430.094431
 20
112.466398
 30
0.0
 11
430.094431
 21
111.866398
 31
0.0
  0
LINE
  5
92EA
330
91D3
100
AcDbEntity
  8
1
  6
Continuous
100
AcDbLine
 10
425.0944309999998
 20
112.466398
 30
0.0
 11
425.0944309999998
 21
111.866398
 31
0.0
  0
LINE
  5
92EB
330
91D3
100
AcDbEntity
  8
1
  6
Continuous
100
AcDbLine
 10
439.5944309999999
 20
88.66639799999999
 30
0.0
 11
419.6414309999998
 21
88.66639799999999
 31
0.0
  0
LINE
  5
92EC
330
91D3
100
AcDbEntity
  8
1
  6
Continuous
100
AcDbLine
 10
439.5944309999999
 20
92.86639800000001
 30
0.0
 11
419.6414309999998
 21
92.86639800000001
 31
0.0
  0
LINE
  5
92ED
330
91D3
100
AcDbEntity
  8
1
  6
Continuous
100
AcDbLine
 10
429.594431
 20
88.66639799999999
 30
0.0
 11
429.594431
 21
86.76639799999998
 31
0.0
  0
LINE
  5
92EE
330
91D3
100
AcDbEntity
  8
4
  6
CENTER
100
AcDbLine
 10
434.594431
 20
101.220398
 30
0.0
 11
434.594431
 21
80.98639799999999
 31
0.0
  0
LINE
  5
92EF
330
91D3
100
AcDbEntity
  8
1
  6
Continuous
100
AcDbLine
 10
417.594431
 20
94.76639799999999
 30
0.0
 11
417.594431
 21
86.76639799999998
 31
0.0
  0
LINE
  5
92F0
330
91D3
100
AcDbEntity
  8
1
  6
Continuous
100
AcDbLine
 10
419.6414309999998
 20
92.86639800000001
 30
0.0
 11
419.6414309999998
 21
88.66639799999999
 31
0.0
  0
LINE
  5
92F1
330
91D3
100
AcDbEntity
  8
5
  6
PHANTOM
100
AcDbLine
 10
119.858631
 20
224.7923979999999
 30
0.0
 11
118.666031
 21
221.1923979999999
 31
0.0
  0
LINE
  5
92F2
330
91D3
100
AcDbEntity
  8
5
  6
PHANTOM
100
AcDbLine
 10
150.276431
 20
164.230398
 30
0.0
 11
151.478431
 21
165.1323979999999
 31
0.0
  0
LINE
  5
92F3
330
91D3
100
AcDbEntity
  8
5
  6
PHANTOM
100
AcDbLine
 10
149.764431
 20
169.9183979999999
 30
0.0
 11
151.778431
 21
167.2323979999999
 31
0.0
  0
LINE
  5
92F4
330
91D3
100
AcDbEntity
  8
5
  6
PHANTOM
100
AcDbLine
 10
149.194431
 20
172.1423979999999
 30
0.0
 11
149.6434309999999
 21
175.282398
 31
0.0
  0
LINE
  5
92F5
330
91D3
100
AcDbEntity
  8
5
  6
PHANTOM
100
AcDbLine
 10
129.0586309999999
 20
204.1923979999999
 30
0.0
 11
149.073431
 21
177.5063979999999
 31
0.0
  0
LINE
  5
92F6
330
91D3
100
AcDbEntity
  8
5
  6
PHANTOM
100
AcDbLine
 10
135.058431
 20
218.6923979999999
 30
0.0
 11
130.0184309999999
 21
212.192398
 31
0.0
  0
LINE
  5
92F7
330
91D3
100
AcDbEntity
  8
4
  6
CENTER
100
AcDbLine
 10
112.558631
 20
226.192398
 30
0.0
 11
119.558631
 21
226.192398
 31
0.0
  0
LINE
  5
92F8
330
91D3
100
AcDbEntity
  8
4
  6
CENTER
100
AcDbLine
 10
116.058631
 20
222.692398
 30
0.0
 11
116.058631
 21
229.6923979999998
 31
0.0
  0
LINE
  5
92F9
330
91D3
100
AcDbEntity
  8
5
  6
PHANTOM
100
AcDbLine
 10
135.058431
 20
221.1923979999999
 30
0.0
 11
135.058431
 21
226.192398
 31
0.0
  0
LINE
  5
92FA
330
91D3
100
AcDbEntity
  8
5
  6
PHANTOM
100
AcDbLine
 10
118.003431
 20
219.1923979999998
 30
0.0
 11
116.413731
 21
214.3933979999999
 31
0.0
  0
ARC
  5
92FB
330
91D3
100
AcDbEntity
  8
1
  6
Continuous
100
AcDbCircle
 10
155.597431
 20
856.766398
 30
0.0
 40
800.0
100
AcDbArc
 50
267.285
 51
272.7149999999999
  0
ARC
  5
92FC
330
91D3
100
AcDbEntity
  8
1
  6
Continuous
100
AcDbCircle
 10
-293.702569
 20
90.766398
 30
0.0
 40
500.0
100
AcDbArc
 50
357.633
 51
2.36737
  0
ARC
  5
92FD
330
91D3
100
AcDbEntity
  8
1
  6
Continuous
100
AcDbCircle
 10
604.897431
 20
90.766398
 30
0.0
 40
500.0
100
AcDbArc
 50
177.6329999999999
 51
182.3669999999999
  0
ARC
  5
92FE
330
91D3
100
AcDbEntity
  8
1
  6
Continuous
100
AcDbCircle
 10
180.9954309999999
 20
213.692398
 30
0.0
 40
15.0
100
AcDbArc
 50
13.17259999999999
 51
90.0
  0
ARC
  5
92FF
330
91D3
100
AcDbEntity
  8
1
  6
Continuous
100
AcDbCircle
 10
117.534431
 20
114.494398
 30
0.0
 40
0.5
100
AcDbArc
 50
87.5239
 51
180.0
  0
ARC
  5
9300
330
91D3
100
AcDbEntity
  8
1
  6
Continuous
100
AcDbCircle
 10
117.534431
 20
67.038398
 30
0.0
 40
0.5
100
AcDbArc
 50
180.0
 51
272.4759999999998
  0
CIRCLE
  5
9301
330
91D3
100
AcDbEntity
  8
2
  6
Continuous
100
AcDbCircle
 10
103.0974309999999
 20
130.766398
 30
0.0
 40
3.0
  0
CIRCLE
  5
9302
330
91D3
100
AcDbEntity
  8
1
  6
Continuous
100
AcDbCircle
 10
103.0974309999999
 20
130.766398
 30
0.0
 40
2.458499999999999
  0
CIRCLE
  5
9303
330
91D3
100
AcDbEntity
  8
2
  6
Continuous
100
AcDbCircle
 10
213.097431
 20
90.766398
 30
0.0
 40
3.0
  0
CIRCLE
  5
9304
330
91D3
100
AcDbEntity
  8
1
  6
Continuous
100
AcDbCircle
 10
213.097431
 20
90.766398
 30
0.0
 40
2.458499999999999
  0
CIRCLE
  5
9305
330
91D3
100
AcDbEntity
  8
2
  6
Continuous
100
AcDbCircle
 10
103.0974309999999
 20
50.765998
 30
0.0
 40
3.0
  0
CIRCLE
  5
9306
330
91D3
100
AcDbEntity
  8
1
  6
Continuous
100
AcDbCircle
 10
103.0974309999999
 20
50.765998
 30
0.0
 40
2.458499999999999
  0
ARC
  5
9307
330
91D3
100
AcDbEntity
  8
1
  6
Continuous
100
AcDbCircle
 10
95.09743099999999
 20
136.766398
 30
0.0
 40
2.0
100
AcDbArc
 50
90.0
 51
180.0
  0
ARC
  5
9308
330
91D3
100
AcDbEntity
  8
1
  6
Continuous
100
AcDbCircle
 10
95.09743099999999
 20
44.76599799999998
 30
0.0
 40
2.0
100
AcDbArc
 50
180.0
 51
270.0
  0
ARC
  5
9309
330
91D3
100
AcDbEntity
  8
1
  6
Continuous
100
AcDbCircle
 10
111.097431
 20
44.76599799999998
 30
0.0
 40
2.0
100
AcDbArc
 50
270.0
 51
0.0
  0
ARC
  5
930A
330
91D3
100
AcDbEntity
  8
1
  6
Continuous
100
AcDbCircle
 10
111.097431
 20
136.766398
 30
0.0
 40
2.0
100
AcDbArc
 50
0.0
 51
90.0
  0
ARC
  5
930B
330
91D3
100
AcDbEntity
  8
1
  6
Continuous
100
AcDbCircle
 10
91.09743100000001
 20
105.2663979999999
 30
0.0
 40
2.0
100
AcDbArc
 50
270.0
 51
0.0
  0
ARC
  5
930C
330
91D3
100
AcDbEntity
  8
1
  6
Continuous
100
AcDbCircle
 10
91.09743100000001
 20
76.26639799999998
 30
0.0
 40
2.0
100
AcDbArc
 50
0.0
 51
90.0
  0
ARC
  5
930D
330
91D3
100
AcDbEntity
  8
1
  6
Continuous
100
AcDbCircle
 10
219.097431
 20
101.2663979999999
 30
0.0
 40
2.0
100
AcDbArc
 50
0.0
 51
90.0
  0
ARC
  5
930E
330
91D3
100
AcDbEntity
  8
1
  6
Continuous
100
AcDbCircle
 10
219.097431
 20
80.26639799999998
 30
0.0
 40
2.0
100
AcDbArc
 50
270.0
 51
0.0
  0
CIRCLE
  5
930F
330
91D3
100
AcDbEntity
  8
2
  6
Continuous
100
AcDbCircle
 10
447.594431
 20
130.766398
 30
0.0
 40
3.0
  0
CIRCLE
  5
9310
330
91D3
100
AcDbEntity
  8
1
  6
Continuous
100
AcDbCircle
 10
447.594431
 20
130.766398
 30
0.0
 40
2.458499999999999
  0
CIRCLE
  5
9311
330
91D3
100
AcDbEntity
  8
2
  6
Continuous
100
AcDbCircle
 10
337.5944309999998
 20
90.766398
 30
0.0
 40
3.0
  0
CIRCLE
  5
9312
330
91D3
100
AcDbEntity
  8
1
  6
Continuous
100
AcDbCircle
 10
337.5944309999998
 20
90.766398
 30
0.0
 40
2.458499999999999
  0
CIRCLE
  5
9313
330
91D3
100
AcDbEntity
  8
2
  6
Continuous
100
AcDbCircle
 10
447.594431
 20
50.765998
 30
0.0
 40
3.0
  0
CIRCLE
  5
9314
330
91D3
100
AcDbEntity
  8
1
  6
Continuous
100
AcDbCircle
 10
447.594431
 20
50.765998
 30
0.0
 40
2.458499999999999
  0
ARC
  5
9315
330
91D3
100
AcDbEntity
  8
1
  6
Continuous
100
AcDbCircle
 10
455.594431
 20
136.766398
 30
0.0
 40
2.0
100
AcDbArc
 50
0.0
 51
90.0
  0
ARC
  5
9316
330
91D3
100
AcDbEntity
  8
1
  6
Continuous
100
AcDbCircle
 10
455.594431
 20
44.76599799999998
 30
0.0
 40
2.0
100
AcDbArc
 50
270.0
 51
0.0
  0
ARC
  5
9317
330
91D3
100
AcDbEntity
  8
1
  6
Continuous
100
AcDbCircle
 10
439.5944309999999
 20
44.76599799999998
 30
0.0
 40
2.0
100
AcDbArc
 50
180.0
 51
270.0
  0
ARC
  5
9318
330
91D3
100
AcDbEntity
  8
1
  6
Continuous
100
AcDbCircle
 10
439.5944309999999
 20
136.766398
 30
0.0
 40
2.0
100
AcDbArc
 50
90.0
 51
180.0
  0
ARC
  5
9319
330
91D3
100
AcDbEntity
  8
1
  6
Continuous
100
AcDbCircle
 10
459.594431
 20
105.2663979999999
 30
0.0
 40
2.0
100
AcDbArc
 50
180.0
 51
270.0
  0
ARC
  5
931A
330
91D3
100
AcDbEntity
  8
1
  6
Continuous
100
AcDbCircle
 10
459.594431
 20
76.26639799999998
 30
0.0
 40
2.0
100
AcDbArc
 50
90.0
 51
180.0
  0
ARC
  5
931B
330
91D3
100
AcDbEntity
  8
1
  6
Continuous
100
AcDbCircle
 10
435.5944309999999
 20
109.7663979999999
 30
0.0
 40
2.0
100
AcDbArc
 50
270.0
 51
0.0
  0
ARC
  5
931C
330
91D3
100
AcDbEntity
  8
1
  6
Continuous
100
AcDbCircle
 10
434.094431
 20
109.7663979999999
 30
0.0
 40
2.0
100
AcDbArc
 50
180.0
 51
270.0
  0
ARC
  5
931D
330
91D3
100
AcDbEntity
  8
1
  6
Continuous
100
AcDbCircle
 10
435.5944309999999
 20
71.766398
 30
0.0
 40
2.0
100
AcDbArc
 50
0.0
 51
90.0
  0
ARC
  5
931E
330
91D3
100
AcDbEntity
  8
1
  6
Continuous
100
AcDbCircle
 10
434.094431
 20
71.766398
 30
0.0
 40
2.0
100
AcDbArc
 50
90.0
 51
180.0
  0
ARC
  5
931F
330
91D3
100
AcDbEntity
  8
1
  6
Continuous
100
AcDbCircle
 10
415.5944309999998
 20
74.26639799999998
 30
0.0
 40
4.0
100
AcDbArc
 50
0.0
 51
90.0
  0
ARC
  5
9320
330
91D3
100
AcDbEntity
  8
1
  6
Continuous
100
AcDbCircle
 10
415.5944309999998
 20
107.2663979999999
 30
0.0
 40
4.0
100
AcDbArc
 50
270.0
 51
0.0
  0
ARC
  5
9321
330
91D3
100
AcDbEntity
  8
1
  6
Continuous
100
AcDbCircle
 10
331.5944309999999
 20
101.2663979999999
 30
0.0
 40
2.0
100
AcDbArc
 50
90.0
 51
180.0
  0
ARC
  5
9322
330
91D3
100
AcDbEntity
  8
1
  6
Continuous
100
AcDbCircle
 10
331.5944309999999
 20
80.26639799999998
 30
0.0
 40
2.0
100
AcDbArc
 50
180.0
 51
270.0
  0
ARC
  5
9323
330
91D3
100
AcDbEntity
  8
1
  6
Continuous
100
AcDbCircle
 10
416.5944309999998
 20
93.76639799999999
 30
0.0
 40
1.0
100
AcDbArc
 50
90.0
 51
180.0
  0
ARC
  5
9324
330
91D3
100
AcDbEntity
  8
1
  6
Continuous
100
AcDbCircle
 10
416.5944309999998
 20
87.76639799999998
 30
0.0
 40
1.0
100
AcDbArc
 50
180.0
 51
270.0
  0
ARC
  5
9325
330
91D3
100
AcDbEntity
  8
1
  6
Continuous
100
AcDbCircle
 10
438.594431
 20
87.76639799999998
 30
0.0
 40
1.0
100
AcDbArc
 50
270.0
 51
0.0
  0
ARC
  5
9326
330
91D3
100
AcDbEntity
  8
1
  6
Continuous
100
AcDbCircle
 10
438.594431
 20
93.76639799999999
 30
0.0
 40
1.0
100
AcDbArc
 50
0.0
 51
90.0
  0
CIRCLE
  5
9327
330
91D3
100
AcDbEntity
  8
1
  6
Continuous
100
AcDbCircle
 10
337.5944309999998
 20
90.766398
 30
0.0
 40
4.0
  0
CIRCLE
  5
9328
330
91D3
100
AcDbEntity
  8
1
  6
Continuous
100
AcDbCircle
 10
447.594431
 20
130.766398
 30
0.0
 40
4.0
  0
CIRCLE
  5
9329
330
91D3
100
AcDbEntity
  8
1
  6
Continuous
100
AcDbCircle
 10
447.594431
 20
50.765998
 30
0.0
 40
4.0
  0
ARC
  5
932A
330
91D3
100
AcDbEntity
  8
1
  6
Continuous
100
AcDbCircle
 10
399.8454309999999
 20
89.61739799999998
 30
0.0
 40
5.67961
100
AcDbArc
 50
221.864
 51
318.1359999999999
  0
ARC
  5
932B
330
91D3
100
AcDbEntity
  8
1
  6
Continuous
100
AcDbCircle
 10
401.127431
 20
90.766398
 30
0.0
 40
7.401039999999997
100
AcDbArc
 50
138.1359999999999
 51
221.864
  0
ARC
  5
932C
330
91D3
100
AcDbEntity
  8
1
  6
Continuous
100
AcDbCircle
 10
398.563431
 20
90.766398
 30
0.0
 40
7.401039999999997
100
AcDbArc
 50
318.1359999999999
 51
352.5409999999998
  0
ARC
  5
932D
330
91D3
100
AcDbEntity
  8
1
  6
Continuous
100
AcDbCircle
 10
399.8454309999999
 20
91.91439800000001
 30
0.0
 40
5.67961
100
AcDbArc
 50
41.8639
 51
138.1359999999999
  0
ARC
  5
932E
330
91D3
100
AcDbEntity
  8
1
  6
Continuous
100
AcDbCircle
 10
401.1774309999998
 20
90.12139799999998
 30
0.0
 40
3.18433
100
AcDbArc
 50
221.864
 51
318.1359999999999
  0
ARC
  5
932F
330
91D3
100
AcDbEntity
  8
1
  6
Continuous
100
AcDbCircle
 10
401.896431
 20
90.766398
 30
0.0
 40
4.149469999999999
100
AcDbArc
 50
138.1359999999999
 51
221.864
  0
ARC
  5
9330
330
91D3
100
AcDbEntity
  8
1
  6
Continuous
100
AcDbCircle
 10
400.458431
 20
90.766398
 30
0.0
 40
4.149469999999999
100
AcDbArc
 50
318.135
 51
322.9700000000002
  0
ARC
  5
9331
330
91D3
100
AcDbEntity
  8
1
  6
Continuous
100
AcDbCircle
 10
401.1774309999998
 20
91.41039799999999
 30
0.0
 40
3.18433
100
AcDbArc
 50
41.8639
 51
138.1359999999999
  0
ARC
  5
9332
330
91D3
100
AcDbEntity
  8
1
  6
Continuous
100
AcDbCircle
 10
272.049431
 20
103.9613979999999
 30
0.0
 40
11.0
100
AcDbArc
 50
0.0
 51
82.72499999999999
  0
ARC
  5
9333
330
91D3
100
AcDbEntity
  8
1
  6
Continuous
100
AcDbCircle
 10
272.049431
 20
77.57039799999998
 30
0.0
 40
11.0
100
AcDbArc
 50
277.2749999999999
 51
0.0
  0
ARC
  5
9334
330
91D3
100
AcDbEntity
  8
1
  6
Continuous
100
AcDbCircle
 10
175.758431
 20
112.266398
 30
0.0
 40
2.0
100
AcDbArc
 50
0.0
 51
90.0
  0
ARC
  5
9335
330
91D3
100
AcDbEntity
  8
1
  6
Continuous
100
AcDbCircle
 10
175.758431
 20
69.266398
 30
0.0
 40
2.0
100
AcDbArc
 50
270.0
 51
0.0
  0
ARC
  5
9336
330
91D3
100
AcDbEntity
  8
1
  6
Continuous
100
AcDbCircle
 10
153.6334309999998
 20
402.841398
 30
0.0
 40
200.0
100
AcDbArc
 50
263.3369999999998
 51
276.663
  0
CIRCLE
  5
9337
330
91D3
100
AcDbEntity
  8
5
  6
PHANTOM
100
AcDbCircle
 10
130.0586309999999
 20
226.192398
 30
0.0
 40
2.5
  0
ARC
  5
9338
330
91D3
100
AcDbEntity
  8
1
  6
Continuous
100
AcDbCircle
 10
116.058631
 20
226.192398
 30
0.0
 40
5.0
100
AcDbArc
 50
53.13009999999999
 51
180.0
  0
ARC
  5
9339
330
91D3
100
AcDbEntity
  8
1
  6
Continuous
100
AcDbCircle
 10
131.0116309999999
 20
215.1923979999998
 30
0.0
 40
3.0
100
AcDbArc
 50
214.692
 51
270.0
  0
ARC
  5
933A
330
91D3
100
AcDbEntity
  8
1
  6
Continuous
100
AcDbCircle
 10
123.058631
 20
212.192398
 30
0.0
 40
5.5
100
AcDbArc
 50
144.903
 51
180.0
  0
ARC
  5
933B
330
91D3
100
AcDbEntity
  8
1
  6
Continuous
100
AcDbCircle
 10
138.058431
 20
107.766398
 30
0.0
 40
2.0
100
AcDbArc
 50
90.0
 51
180.0
  0
ARC
  5
933C
330
91D3
100
AcDbEntity
  8
1
  6
Continuous
100
AcDbCircle
 10
138.058431
 20
73.76639799999998
 30
0.0
 40
2.0
100
AcDbArc
 50
180.0
 51
270.0
  0
ARC
  5
933D
330
91D3
100
AcDbEntity
  8
1
  6
Continuous
100
AcDbCircle
 10
166.058431
 20
73.76639799999998
 30
0.0
 40
2.0
100
AcDbArc
 50
270.0
 51
0.0
  0
ARC
  5
933E
330
91D3
100
AcDbEntity
  8
1
  6
Continuous
100
AcDbCircle
 10
166.058431
 20
107.766398
 30
0.0
 40
2.0
100
AcDbArc
 50
0.0
 51
90.0
  0
ARC
  5
933F
330
91D3
100
AcDbEntity
  8
1
  6
Continuous
100
AcDbCircle
 10
145.058431
 20
107.766398
 30
0.0
 40
2.0
100
AcDbArc
 50
90.0
 51
180.0
  0
ARC
  5
9340
330
91D3
100
AcDbEntity
  8
1
  6
Continuous
100
AcDbCircle
 10
145.058431
 20
73.76639799999998
 30
0.0
 40
2.0
100
AcDbArc
 50
180.0
 51
270.0
  0
ARC
  5
9341
330
91D3
100
AcDbEntity
  8
1
  6
Continuous
100
AcDbCircle
 10
281.549431
 20
90.766398
 30
0.0
 40
6.5
100
AcDbArc
 50
320.2850000000001
 51
39.7151
  0
CIRCLE
  5
9342
330
91D3
100
AcDbEntity
  8
1
  6
Continuous
100
AcDbCircle
 10
18.852431
 20
90.766398
 30
0.0
 40
5.0
  0
CIRCLE
  5
9343
330
91D3
100
AcDbEntity
  8
1
  6
Continuous
100
AcDbCircle
 10
18.852431
 20
90.766398
 30
0.0
 40
3.299999999999998
  0
CIRCLE
  5
9344
330
91D3
100
AcDbEntity
  8
1
  6
Continuous
100
AcDbCircle
 10
18.852431
 20
90.766398
 30
0.0
 40
2.1
  0
ARC
  5
9345
330
91D3
100
AcDbEntity
  8
1
  6
Continuous
100
AcDbCircle
 10
261.049431
 20
119.221398
 30
0.0
 40
2.5
100
AcDbArc
 50
116.565
 51
180.0
  0
ARC
  5
9346
330
91D3
100
AcDbEntity
  8
1
  6
Continuous
100
AcDbCircle
 10
261.049431
 20
62.311398
 30
0.0
 40
2.5
100
AcDbArc
 50
180.0
 51
243.435
  0
ARC
  5
9347
330
91D3
100
AcDbEntity
  8
1
  6
Continuous
100
AcDbCircle
 10
118.313131
 20
110.8823979999999
 30
0.0
 40
13.0
100
AcDbArc
 50
92.71539999999999
 51
177.6329999999999
  0
ARC
  5
9348
330
91D3
100
AcDbEntity
  8
1
  6
Continuous
100
AcDbCircle
 10
118.313131
 20
70.64939800000002
 30
0.0
 40
13.0
100
AcDbArc
 50
182.3669999999999
 51
267.285
  0
ARC
  5
9349
330
91D3
100
AcDbEntity
  8
1
  6
Continuous
100
AcDbCircle
 10
192.8814309999999
 20
70.64939800000002
 30
0.0
 40
13.0
100
AcDbArc
 50
272.7149999999999
 51
357.633
  0
ARC
  5
934A
330
91D3
100
AcDbEntity
  8
1
  6
Continuous
100
AcDbCircle
 10
192.8814309999999
 20
110.8823979999999
 30
0.0
 40
13.0
100
AcDbArc
 50
2.36737
 51
87.2846
  0
ARC
  5
934B
330
91D3
100
AcDbEntity
  8
1
  6
Continuous
100
AcDbCircle
 10
155.597431
 20
-675.2336019999997
 30
0.0
 40
800.0
100
AcDbArc
 50
87.2846
 51
92.71539999999999
  0
ARC
  5
934C
330
91D3
100
AcDbEntity
  8
1
  6
Continuous
100
AcDbCircle
 10
117.5974309999999
 20
111.7663979999999
 30
0.0
 40
9.0
100
AcDbArc
 50
90.0
 51
180.0
  0
ARC
  5
934D
330
91D3
100
AcDbEntity
  8
1
  6
Continuous
100
AcDbCircle
 10
117.5974309999999
 20
69.766398
 30
0.0
 40
9.0
100
AcDbArc
 50
180.0
 51
270.0
  0
ARC
  5
934E
330
91D3
100
AcDbEntity
  8
1
  6
Continuous
100
AcDbCircle
 10
193.5974309999998
 20
69.766398
 30
0.0
 40
9.0
100
AcDbArc
 50
270.0
 51
0.0
  0
ARC
  5
934F
330
91D3
100
AcDbEntity
  8
1
  6
Continuous
100
AcDbCircle
 10
193.5974309999998
 20
111.7663979999999
 30
0.0
 40
9.0
100
AcDbArc
 50
0.0
 51
90.0
  0
ARC
  5
9350
330
91D3
100
AcDbEntity
  8
1
  6
Continuous
100
AcDbCircle
 10
117.5974309999999
 20
69.766398
 30
0.0
 40
4.0
100
AcDbArc
 50
180.0
 51
270.0
  0
ARC
  5
9351
330
91D3
100
AcDbEntity
  8
1
  6
Continuous
100
AcDbCircle
 10
193.5974309999998
 20
69.766398
 30
0.0
 40
4.0
100
AcDbArc
 50
270.0
 51
0.0
  0
ARC
  5
9352
330
91D3
100
AcDbEntity
  8
1
  6
Continuous
100
AcDbCircle
 10
193.5974309999998
 20
111.7663979999999
 30
0.0
 40
4.0
100
AcDbArc
 50
0.0
 51
90.0
  0
ARC
  5
9353
330
91D3
100
AcDbEntity
  8
1
  6
Continuous
100
AcDbCircle
 10
117.5974309999999
 20
111.7663979999999
 30
0.0
 40
4.0
100
AcDbArc
 50
90.0
 51
180.0
  0
ARC
  5
9354
330
91D3
100
AcDbEntity
  8
1
  6
Continuous
100
AcDbCircle
 10
110.195631
 20
206.6923979999998
 30
0.0
 40
2.5
100
AcDbArc
 50
204.8209999999998
 51
270.0
  0
ARC
  5
9355
330
91D3
100
AcDbEntity
  8
1
  6
Continuous
100
AcDbCircle
 10
200.9994309999999
 20
206.6923979999998
 30
0.0
 40
2.5
100
AcDbArc
 50
270.0
 51
335.1789999999998
  0
ARC
  5
9356
330
91D3
100
AcDbEntity
  8
1
  6
Continuous
100
AcDbCircle
 10
395.094431
 20
856.766398
 30
0.0
 40
800.0
100
AcDbArc
 50
267.285
 51
272.7149999999999
  0
ARC
  5
9357
330
91D3
100
AcDbEntity
  8
1
  6
Continuous
100
AcDbCircle
 10
844.394431
 20
90.766398
 30
0.0
 40
500.0
100
AcDbArc
 50
177.6329999999999
 51
178.567
  0
ARC
  5
9358
330
91D3
100
AcDbEntity
  8
1
  6
Continuous
100
AcDbCircle
 10
411.032431
 20
113.537398
 30
0.0
 40
0.5
100
AcDbArc
 50
92.47620000000001
 51
180.0
  0
ARC
  5
9359
330
91D3
100
AcDbEntity
  8
1
  6
Continuous
100
AcDbCircle
 10
433.1574309999998
 20
114.494398
 30
0.0
 40
0.5
100
AcDbArc
 50
0.0
 51
92.47620000000001
  0
ARC
  5
935A
330
91D3
100
AcDbEntity
  8
1
  6
Continuous
100
AcDbCircle
 10
433.1574309999998
 20
67.038398
 30
0.0
 40
0.5
100
AcDbArc
 50
267.524
 51
0.000005
  0
ARC
  5
935B
330
91D3
100
AcDbEntity
  8
1
  6
Continuous
100
AcDbCircle
 10
411.032431
 20
67.994398
 30
0.0
 40
0.5
100
AcDbArc
 50
180.0
 51
267.524
  0
ARC
  5
935C
330
91D3
100
AcDbEntity
  8
1
  6
Continuous
100
AcDbCircle
 10
28.352381
 20
77.57039799999998
 30
0.0
 40
11.0
100
AcDbArc
 50
180.0
 51
251.447
  0
ARC
  5
935D
330
91D3
100
AcDbEntity
  8
1
  6
Continuous
100
AcDbCircle
 10
39.352441
 20
119.221398
 30
0.0
 40
2.5
100
AcDbArc
 50
0.0
 51
63.43499999999998
  0
ARC
  5
935E
330
91D3
100
AcDbEntity
  8
1
  6
Continuous
100
AcDbCircle
 10
39.352441
 20
62.311398
 30
0.0
 40
2.5
100
AcDbArc
 50
296.565
 51
0.000005
  0
ARC
  5
935F
330
91D3
100
AcDbEntity
  8
1
  6
Continuous
100
AcDbCircle
 10
432.3784309999998
 20
110.8823979999999
 30
0.0
 40
13.0
100
AcDbArc
 50
66.3463
 51
87.2846
  0
ARC
  5
9360
330
91D3
100
AcDbEntity
  8
1
  6
Continuous
100
AcDbCircle
 10
432.3784309999998
 20
70.64939800000002
 30
0.0
 40
13.0
100
AcDbArc
 50
272.7149999999999
 51
293.6539999999999
  0
ARC
  5
9361
330
91D3
100
AcDbEntity
  8
1
  6
Continuous
100
AcDbCircle
 10
357.810431
 20
70.64939800000002
 30
0.0
 40
13.0
100
AcDbArc
 50
182.3669999999999
 51
267.285
  0
ARC
  5
9362
330
91D3
100
AcDbEntity
  8
1
  6
Continuous
100
AcDbCircle
 10
357.810431
 20
110.8823979999999
 30
0.0
 40
13.0
100
AcDbArc
 50
92.71539999999999
 51
177.6329999999999
  0
ARC
  5
9363
330
91D3
100
AcDbEntity
  8
1
  6
Continuous
100
AcDbCircle
 10
395.094431
 20
-675.2336019999997
 30
0.0
 40
800.0
100
AcDbArc
 50
87.2846
 51
92.71539999999999
  0
ARC
  5
9364
330
91D3
100
AcDbEntity
  8
1
  6
Continuous
100
AcDbCircle
 10
90.058631
 20
221.1923979999999
 30
0.0
 40
2.0
100
AcDbArc
 50
180.0
 51
270.0
  0
ARC
  5
9365
330
91D3
100
AcDbEntity
  8
1
  6
Continuous
100
AcDbCircle
 10
182.6304309999999
 20
214.6923979999999
 30
0.0
 40
15.0
100
AcDbArc
 50
43.6028
 51
90.0
  0
ARC
  5
9366
330
91D3
100
AcDbEntity
  8
1
  6
Continuous
100
AcDbCircle
 10
182.6304309999999
 20
214.6923979999999
 30
0.0
 40
17.0
100
AcDbArc
 50
43.6028
 51
90.0
  0
ARC
  5
9367
330
91D3
100
AcDbEntity
  8
1
  6
Continuous
100
AcDbCircle
 10
151.695431
 20
91.605398
 30
0.0
 40
4.160289999999998
100
AcDbArc
 50
41.87009999999999
 51
138.1299999999999
  0
ARC
  5
9368
330
91D3
100
AcDbEntity
  8
1
  6
Continuous
100
AcDbCircle
 10
150.758431
 20
90.766398
 30
0.0
 40
5.418389999999998
100
AcDbArc
 50
318.13
 51
41.87009999999999
  0
ARC
  5
9369
330
91D3
100
AcDbEntity
  8
1
  6
Continuous
100
AcDbCircle
 10
152.6324309999999
 20
90.766398
 30
0.0
 40
5.418389999999998
100
AcDbArc
 50
138.1299999999999
 51
221.8699999999998
  0
ARC
  5
936A
330
91D3
100
AcDbEntity
  8
1
  6
Continuous
100
AcDbCircle
 10
151.695431
 20
89.92639799999997
 30
0.0
 40
4.160289999999998
100
AcDbArc
 50
221.8699999999998
 51
318.13
  0
ARC
  5
936B
330
91D3
100
AcDbEntity
  8
1
  6
Continuous
100
AcDbCircle
 10
145.187431
 20
90.72439799999999
 30
0.0
 40
7.605999999999997
100
AcDbArc
 50
328.8199999999998
 51
31.18
  0
ARC
  5
936C
330
91D3
100
AcDbEntity
  8
5
  6
PHANTOM
100
AcDbCircle
 10
130.0586309999999
 20
226.192398
 30
0.0
 40
5.0
100
AcDbArc
 50
0.0
 51
126.8699999999999
  0
ARC
  5
936D
330
91D3
100
AcDbEntity
  8
1
  6
Continuous
100
AcDbCircle
 10
258.199431
 20
113.266398
 30
0.0
 40
1.0
100
AcDbArc
 50
90.0
 51
180.0
  0
ARC
  5
936E
330
91D3
100
AcDbEntity
  8
1
  6
Continuous
100
AcDbCircle
 10
258.199431
 20
68.26639799999999
 30
0.0
 40
1.0
100
AcDbArc
 50
180.0
 51
270.0
  0
ARC
  5
936F
330
91D3
100
AcDbEntity
  8
1
  6
Continuous
100
AcDbCircle
 10
42.202421
 20
68.26639799999999
 30
0.0
 40
1.0
100
AcDbArc
 50
270.0
 51
0.0
  0
ARC
  5
9370
330
91D3
100
AcDbEntity
  8
1
  6
Continuous
100
AcDbCircle
 10
42.202421
 20
113.266398
 30
0.0
 40
1.0
100
AcDbArc
 50
0.0
 51
90.0
  0
ARC
  5
9371
330
91D3
100
AcDbEntity
  8
1
  6
Continuous
100
AcDbCircle
 10
28.352381
 20
103.9613979999999
 30
0.0
 40
11.0
100
AcDbArc
 50
108.553
 51
180.0
  0
ARC
  5
9372
330
91D3
100
AcDbEntity
  8
1
  6
Continuous
100
AcDbCircle
 10
123.058631
 20
212.192398
 30
0.0
 40
2.0
100
AcDbArc
 50
0.0
 51
180.0
  0
ARC
  5
9373
330
91D3
100
AcDbEntity
  8
1
  6
Continuous
100
AcDbCircle
 10
359.115431
 20
111.6383979999999
 30
0.0
 40
4.0
100
AcDbArc
 50
90.0
 51
180.0
  0
ARC
  5
9374
330
91D3
100
AcDbEntity
  8
1
  6
Continuous
100
AcDbCircle
 10
359.115431
 20
69.893398
 30
0.0
 40
4.0
100
AcDbArc
 50
180.0
 51
270.0
  0
ARC
  5
9375
330
91D3
100
AcDbEntity
  8
1
  6
Continuous
100
AcDbCircle
 10
432.8604309999998
 20
69.893398
 30
0.0
 40
4.0
100
AcDbArc
 50
270.0
 51
0.0
  0
ARC
  5
9376
330
91D3
100
AcDbEntity
  8
1
  6
Continuous
100
AcDbCircle
 10
432.8604309999998
 20
111.6383979999999
 30
0.0
 40
4.0
100
AcDbArc
 50
0.0
 51
90.0
  0
ARC
  5
9377
330
91D3
100
AcDbEntity
  8
1
  6
Continuous
100
AcDbCircle
 10
357.7334309999998
 20
70.384398
 30
0.0
 40
9.0
100
AcDbArc
 50
180.0
 51
270.0
  0
ARC
  5
9378
330
91D3
100
AcDbEntity
  8
1
  6
Continuous
100
AcDbCircle
 10
357.7334309999998
 20
111.148398
 30
0.0
 40
9.0
100
AcDbArc
 50
90.0
 51
180.0
  0
ARC
  5
9379
330
91D3
100
AcDbEntity
  8
1
  6
Continuous
100
AcDbCircle
 10
432.4554309999999
 20
111.148398
 30
0.0
 40
9.0
100
AcDbArc
 50
55.17749999999999
 51
90.0
  0
ARC
  5
937A
330
91D3
100
AcDbEntity
  8
1
  6
Continuous
100
AcDbCircle
 10
432.4554309999999
 20
70.384398
 30
0.0
 40
9.0
100
AcDbArc
 50
270.0
 51
304.822
  0
ARC
  5
937B
330
91D3
100
AcDbEntity
  8
1
  6
Continuous
100
AcDbCircle
 10
357.810431
 20
110.8823979999999
 30
0.0
 40
12.0
100
AcDbArc
 50
92.71539999999999
 51
177.6329999999999
  0
ARC
  5
937C
330
91D3
100
AcDbEntity
  8
1
  6
Continuous
100
AcDbCircle
 10
844.394431
 20
90.766398
 30
0.0
 40
499.0
100
AcDbArc
 50
177.6329999999999
 51
178.565
  0
ARC
  5
937D
330
91D3
100
AcDbEntity
  8
1
  6
Continuous
100
AcDbCircle
 10
357.810431
 20
70.64939800000002
 30
0.0
 40
12.0
100
AcDbArc
 50
182.3669999999999
 51
267.285
  0
ARC
  5
937E
330
91D3
100
AcDbEntity
  8
1
  6
Continuous
100
AcDbCircle
 10
395.094431
 20
856.766398
 30
0.0
 40
799.0
100
AcDbArc
 50
267.285
 51
272.7149999999999
  0
ARC
  5
937F
330
91D3
100
AcDbEntity
  8
1
  6
Continuous
100
AcDbCircle
 10
432.3784309999998
 20
70.64939800000002
 30
0.0
 40
12.0
100
AcDbArc
 50
272.7149999999999
 51
295.762
  0
ARC
  5
9380
330
91D3
100
AcDbEntity
  8
1
  6
Continuous
100
AcDbCircle
 10
432.3784309999998
 20
110.8823979999999
 30
0.0
 40
12.0
100
AcDbArc
 50
64.2375
 51
87.2846
  0
ARC
  5
9381
330
91D3
100
AcDbEntity
  8
1
  6
Continuous
100
AcDbCircle
 10
395.094431
 20
-675.2336019999997
 30
0.0
 40
799.0
100
AcDbArc
 50
87.2846
 51
92.71539999999999
  0
ARC
  5
9382
330
91D3
100
AcDbEntity
  8
1
  6
Continuous
100
AcDbCircle
 10
844.394431
 20
90.766398
 30
0.0
 40
500.0
100
AcDbArc
 50
181.4329999999999
 51
182.3669999999999
  0
ARC
  5
9383
330
91D3
100
AcDbEntity
  8
1
  6
Continuous
100
AcDbCircle
 10
844.394431
 20
90.766398
 30
0.0
 40
499.0
100
AcDbArc
 50
181.435
 51
182.3669999999999
  0
ARC
  5
9384
330
91D3
100
AcDbEntity
  8
1
  6
Continuous
100
AcDbCircle
 10
403.837431
 20
90.34639799999998
 30
0.0
 40
2.08014
100
AcDbArc
 50
221.8699999999998
 51
318.13
  0
ARC
  5
9385
330
91D3
100
AcDbEntity
  8
1
  6
Continuous
100
AcDbCircle
 10
404.306431
 20
90.766398
 30
0.0
 40
2.709189999999998
100
AcDbArc
 50
138.1299999999999
 51
221.8699999999998
  0
ARC
  5
9386
330
91D3
100
AcDbEntity
  8
1
  6
Continuous
100
AcDbCircle
 10
403.369431
 20
90.766398
 30
0.0
 40
2.709189999999998
100
AcDbArc
 50
318.13
 51
41.87009999999999
  0
ARC
  5
9387
330
91D3
100
AcDbEntity
  8
1
  6
Continuous
100
AcDbCircle
 10
403.837431
 20
91.18539799999997
 30
0.0
 40
2.08014
100
AcDbArc
 50
25.79619999999999
 51
138.1299999999999
  0
ARC
  5
9388
330
91D3
100
AcDbEntity
  8
1
  6
Continuous
100
AcDbCircle
 10
400.458431
 20
90.766398
 30
0.0
 40
4.149469999999999
100
AcDbArc
 50
37.02989999999999
 51
41.8639
  0
ARC
  5
9389
330
91D3
100
AcDbEntity
  8
1
  6
Continuous
100
AcDbCircle
 10
398.563431
 20
90.766398
 30
0.0
 40
7.401039999999997
100
AcDbArc
 50
7.459149999999998
 51
41.8639
  0
ARC
  5
938A
330
91D3
100
AcDbEntity
  8
1
  6
Continuous
100
AcDbCircle
 10
399.8204309999999
 20
91.73339799999999
 30
0.0
 40
1.533099999999999
100
AcDbArc
 50
90.0
 51
143.4649999999998
  0
ARC
  5
938B
330
91D3
100
AcDbEntity
  8
1
  6
Continuous
100
AcDbCircle
 10
401.1254309999998
 20
90.766398
 30
0.0
 40
3.15729
100
AcDbArc
 50
143.4649999999998
 51
216.535
  0
ARC
  5
938C
330
91D3
100
AcDbEntity
  8
1
  6
Continuous
100
AcDbCircle
 10
399.8204309999999
 20
89.79939799999998
 30
0.0
 40
1.533099999999999
100
AcDbArc
 50
216.535
 51
270.0
  0
CIRCLE
  5
938D
330
91D3
100
AcDbEntity
  8
1
  6
Continuous
100
AcDbCircle
 10
18.852431
 20
90.766398
 30
0.0
 40
6.5
  0
ARC
  5
938E
330
91D3
100
AcDbEntity
  8
1
  6
Continuous
100
AcDbCircle
 10
258.199431
 20
70.76639799999998
 30
0.0
 40
1.0
100
AcDbArc
 50
118.6799999999998
 51
180.0
  0
ARC
  5
938F
330
91D3
100
AcDbEntity
  8
1
  6
Continuous
100
AcDbCircle
 10
42.202421
 20
110.7663979999999
 30
0.0
 40
1.0
100
AcDbArc
 50
298.68
 51
0.0
  0
ARC
  5
9390
330
91D3
100
AcDbEntity
  8
1
  6
Continuous
100
AcDbCircle
 10
42.202421
 20
70.76639799999998
 30
0.0
 40
1.0
100
AcDbArc
 50
0.0
 51
61.32039999999999
  0
ARC
  5
9391
330
91D3
100
AcDbEntity
  8
1
  6
Continuous
100
AcDbCircle
 10
258.199431
 20
110.7663979999999
 30
0.0
 40
1.0
100
AcDbArc
 50
180.0
 51
241.32
  0
ARC
  5
9392
330
91D3
100
AcDbEntity
  8
5
  6
PHANTOM
100
AcDbCircle
 10
123.058631
 20
212.192398
 30
0.0
 40
7.0
100
AcDbArc
 50
161.6709999999999
 51
180.0
  0
ARC
  5
9393
330
91D3
100
AcDbEntity
  8
5
  6
PHANTOM
100
AcDbCircle
 10
293.922431
 20
302.1223979999998
 30
0.0
 40
200.0
100
AcDbArc
 50
209.3179999999999
 51
223.543
  0
ARC
  5
9394
330
91D3
100
AcDbEntity
  8
5
  6
PHANTOM
100
AcDbCircle
 10
149.676431
 20
165.0303979999999
 30
0.0
 40
1.0
100
AcDbArc
 50
223.543
 51
306.87
  0
ARC
  5
9395
330
91D3
100
AcDbEntity
  8
5
  6
PHANTOM
100
AcDbCircle
 10
150.5784309999999
 20
166.332398
 30
0.0
 40
1.5
100
AcDbArc
 50
306.87
 51
36.8699
  0
ARC
  5
9396
330
91D3
100
AcDbEntity
  8
5
  6
PHANTOM
100
AcDbCircle
 10
152.164431
 20
171.718398
 30
0.0
 40
3.0
100
AcDbArc
 50
171.87
 51
216.87
  0
ARC
  5
9397
330
91D3
100
AcDbEntity
  8
5
  6
PHANTOM
100
AcDbCircle
 10
146.6734309999999
 20
175.706398
 30
0.0
 40
3.0
100
AcDbArc
 50
351.8699999999999
 51
36.8699
  0
CIRCLE
  5
9398
330
91D3
100
AcDbEntity
  8
1
  6
Continuous
100
AcDbCircle
 10
116.058631
 20
226.192398
 30
0.0
 40
2.5
  0
LINE
  5
9399
330
91D3
100
AcDbEntity
  8
1
  6
Continuous
100
AcDbLine
 10
460.5944309999999
 20
92.86639800000001
 30
0.0
 11
462.594431
 21
92.86639800000001
 31
0.0
  0
LINE
  5
939A
330
91D3
100
AcDbEntity
  8
1
  6
Continuous
100
AcDbLine
 10
460.5944309999999
 20
88.66639799999999
 30
0.0
 11
462.594431
 21
88.66639799999999
 31
0.0
  0
LINE
  5
939B
330
91D3
100
AcDbEntity
  8
1
  6
Continuous
100
AcDbLine
 10
460.5944309999999
 20
103.2663979999999
 30
0.0
 11
460.5944309999999
 21
78.26639799999998
 31
0.0
  0
ENDSEC
  0
SECTION
  2
OBJECTS
  0
DICTIONARY
  5
91C1
330
0
100
AcDbDictionary
281
     1
  3
ACAD_CIP_PREVIOUS_PRODUCT_INFO
350
9401
  3
ACAD_COLOR
350
93E3
  3
ACAD_DETAILVIEWSTYLE
350
93FC
  3
ACAD_GROUP
350
91C2
  3
ACAD_LAYOUT
350
91CE
  3
ACAD_MATERIAL
350
93B1
  3
ACAD_MLEADERSTYLE
350
93F8
  3
ACAD_MLINESTYLE
350
91CB
  3
ACAD_PLOTSETTINGS
350
91CD
  3
ACAD_PLOTSTYLENAME
350
93AF
  3
ACAD_SCALELIST
350
93E6
  3
ACAD_SECTIONVIEWSTYLE
350
93FA
  3
ACAD_TABLESTYLE
350
93E4
  3
ACAD_VISUALSTYLE
350
93CA
  3
ACDB_RECOMPOSE_DATA
350
941F
  3
AcDbVariableDictionary
350
9412
  3
DWGPROPS
350
9420
  0
DICTIONARY
  5
9402
330
91C5
100
AcDbDictionary
280
     1
281
     1
  3
ADSK_XREC_LAYER_RECONCILED
360
9403
  0
DICTIONARY
  5
9404
330
91DB
100
AcDbDictionary
280
     1
281
     1
  3
ADSK_XREC_LAYER_RECONCILED
360
9405
  0
DICTIONARY
  5
9406
330
91DC
100
AcDbDictionary
280
     1
281
     1
  3
ADSK_XREC_LAYER_RECONCILED
360
9407
  0
DICTIONARY
  5
9408
330
91DD
100
AcDbDictionary
280
     1
281
     1
  3
ADSK_XREC_LAYER_RECONCILED
360
9409
  0
DICTIONARY
  5
940A
330
91DE
100
AcDbDictionary
280
     1
281
     1
  3
ADSK_XREC_LAYER_RECONCILED
360
940B
  0
DICTIONARY
  5
940C
330
91DF
100
AcDbDictionary
280
     1
281
     1
  3
ADSK_XREC_LAYER_RECONCILED
360
940D
  0
DICTIONARY
  5
940E
330
91E0
100
AcDbDictionary
280
     1
281
     1
  3
ADSK_XREC_LAYER_RECONCILED
360
940F
  0
DICTIONARY
  5
9410
330
91E1
100
AcDbDictionary
280
     1
281
     1
  3
ADSK_XREC_LAYER_RECONCILED
360
9411
  0
DICTIONARY
  5
93AA
330
91D3
100
AcDbDictionary
281
     1
  3
ACAD_LAYOUTSELFREF
350
93AB
  0
DICTIONARY
  5
93A8
330
91CF
100
AcDbDictionary
281
     1
  3
ACAD_LAYOUTSELFREF
350
93A9
  0
XRECORD
  5
9401
102
{ACAD_REACTORS
330
91C1
102
}
330
91C1
100
AcDbXrecord
280
     1
300
ACDLT
300
2014
300
ACDLT_F_S
  0
DICTIONARY
  5
93E3
102
{ACAD_REACTORS
330
91C1
102
}
330
91C1
100
AcDbDictionary
281
     1
  0
DICTIONARY
  5
93FC
102
{ACAD_REACTORS
330
91C1
102
}
330
91C1
100
AcDbDictionary
281
     1
  3
Imperial24
350
93FD
  0
DICTIONARY
  5
91C2
102
{ACAD_REACTORS
330
91C1
102
}
330
91C1
100
AcDbDictionary
281
     1
  0
DICTIONARY
  5
91CE
102
{ACAD_REACTORS
330
91C1
102
}
330
91C1
100
AcDbDictionary
281
     1
  3
Model
350
93FE
  3
レイアウト1
350
93FF
  0
DICTIONARY
  5
93B1
102
{ACAD_REACTORS
330
91C1
102
}
330
91C1
100
AcDbDictionary
281
     1
  3
ByBlock
350
93BA
  3
ByLayer
350
93B2
  3
Global
350
93C2
  0
DICTIONARY
  5
93F8
102
{ACAD_REACTORS
330
91C1
102
}
330
91C1
100
AcDbDictionary
281
     1
  3
Standard
350
93F9
  0
DICTIONARY
  5
91CB
102
{ACAD_REACTORS
330
91C1
102
}
330
91C1
100
AcDbDictionary
281
     1
  3
STANDARD
350
91CC
  0
DICTIONARY
  5
91CD
102
{ACAD_REACTORS
330
91C1
102
}
330
91C1
100
AcDbDictionary
281
     1
  0
ACDBDICTIONARYWDFLT
  5
93AF
102
{ACAD_REACTORS
330
91C1
102
}
330
91C1
100
AcDbDictionary
281
     1
  3
Normal
350
93B0
100
AcDbDictionaryWithDefault
340
93B0
  0
DICTIONARY
  5
93E6
102
{ACAD_REACTORS
330
91C1
102
}
330
91C1
100
AcDbDictionary
281
     1
  3
A0
350
93E7
  3
A1
350
93E8
  3
A2
350
93E9
  3
A3
350
93EA
  3
A4
350
93EB
  3
A5
350
93EC
  3
A6
350
93ED
  3
A7
350
93EE
  3
A8
350
93EF
  3
A9
350
93F0
  3
B0
350
93F1
  3
B1
350
93F2
  3
B2
350
93F3
  3
B3
350
93F4
  3
B4
350
93F5
  3
B5
350
93F6
  3
B6
350
93F7
  0
DICTIONARY
  5
93FA
102
{ACAD_REACTORS
330
91C1
102
}
330
91C1
100
AcDbDictionary
281
     1
  3
Imperial24
350
93FB
  0
DICTIONARY
  5
93E4
102
{ACAD_REACTORS
330
91C1
102
}
330
91C1
100
AcDbDictionary
281
     1
  3
Standard
350
93E5
  0
DICTIONARY
  5
93CA
102
{ACAD_REACTORS
330
91C1
102
}
330
91C1
100
AcDbDictionary
281
     1
  3
2dWireframe
350
93D0
  3
Basic
350
93CF
  3
Brighten
350
93D6
  3
ColorChange
350
93DA
  3
Conceptual
350
93D3
  3
Dim
350
93D5
  3
EdgeColorOff
350
93E2
  3
Facepattern
350
93D9
  3
Flat
350
93CB
  3
FlatWithEdges
350
93CC
  3
Gouraud
350
93CD
  3
GouraudWithEdges
350
93CE
  3
Hidden
350
93D2
  3
JitterOff
350
93E0
  3
Linepattern
350
93D8
  3
OverhangOff
350
93E1
  3
Realistic
350
93D4
  3
Shaded
350
93DF
  3
Shaded with edges
350
93DE
  3
Shades of Gray
350
93DB
  3
Sketchy
350
93DC
  3
Thicken
350
93D7
  3
Wireframe
350
93D1
  3
X-Ray
350
93DD
  0
XRECORD
  5
941F
102
{ACAD_REACTORS
330
91C1
102
}
330
91C1
100
AcDbXrecord
280
     1
 90
        1
330
93E5
  0
DICTIONARY
  5
9412
102
{ACAD_REACTORS
330
91C1
102
}
330
91C1
100
AcDbDictionary
281
     1
  3
CANNOSCALE
350
9417
  3
CMLEADERSTYLE
350
9414
  3
CTABLESTYLE
350
9413
  3
CVIEWDETAILSTYLE
350
9415
  3
CVIEWSECTIONSTYLE
350
9416
  3
DIMASSOC
350
941A
  3
INDEXCTL
350
9419
  3
SORTENTS
350
9418
  3
XCLIPFRAME
350
941B
  0
XRECORD
  5
9420
102
{ACAD_REACTORS
330
91C1
102
}
330
91C1
100
AcDbXrecord
280
     1
  1
DWGPROPS COOKIE
  2

  3

  4

  6

  7

  8
Yoshitsune
  9

300
=
301
=
302
=
303
=
304
=
305
=
306
=
307
=
308
=
309
=
 40
0.0000131481481481
 41
2450737.703448611
 42
2457192.640404317
  1

 90
        0
  0
XRECORD
  5
9403
102
{ACAD_REACTORS
330
9402
102
}
330
9402
100
AcDbXrecord
280
     1
290
     1
  0
XRECORD
  5
9405
102
{ACAD_REACTORS
330
9404
102
}
330
9404
100
AcDbXrecord
280
     1
290
     1
  0
XRECORD
  5
9407
102
{ACAD_REACTORS
330
9406
102
}
330
9406
100
AcDbXrecord
280
     1
290
     1
  0
XRECORD
  5
9409
102
{ACAD_REACTORS
330
9408
102
}
330
9408
100
AcDbXrecord
280
     1
290
     1
  0
XRECORD
  5
940B
102
{ACAD_REACTORS
330
940A
102
}
330
940A
100
AcDbXrecord
280
     1
290
     1
  0
XRECORD
  5
940D
102
{ACAD_REACTORS
330
940C
102
}
330
940C
100
AcDbXrecord
280
     1
290
     1
  0
XRECORD
  5
940F
102
{ACAD_REACTORS
330
940E
102
}
330
940E
100
AcDbXrecord
280
     1
290
     1
  0
XRECORD
  5
9411
102
{ACAD_REACTORS
330
9410
102
}
330
9410
100
AcDbXrecord
280
     1
290
     1
  0
XRECORD
  5
93AB
102
{ACAD_REACTORS
330
93AA
102
}
330
93AA
100
AcDbXrecord
280
     1
340
91D3
  0
XRECORD
  5
93A9
102
{ACAD_REACTORS
330
93A8
102
}
330
93A8
100
AcDbXrecord
280
     1
340
91CF
  0
ACDBDETAILVIEWSTYLE
  5
93FD
102
{ACAD_XDICTIONARY
360
9458
102
}
102
{ACAD_REACTORS
330
93FC
102
}
330
93FC
100
AcDbModelDocViewStyle
 70
     0
  3
Imperial24
290
     0
100
AcDbDetailViewStyle
 70
     0
 71
     0
 90
        3
 71
     1
340
91C6
 40
0.24
340
0
 40
0.24
300

 40
0.36
280
     3
 71
     2
340
91CA
 90
       25
 71
     3
340
91C6
 40
0.24
 90
        1
 40
0.75
 90
        1
300
%<\AcVar ViewType \f "%tc1">% %<\AcVar ViewDetailId>%\PSCALE %<\AcVar ViewScale \f "%sn">%
 71
     4
340
91CA
 90
       25
340
91CA
 90
       25
280
     0
  0
LAYOUT
  5
93FE
102
{ACAD_XDICTIONARY
360
945A
102
}
102
{ACAD_REACTORS
330
91CE
102
}
330
91CE
100
AcDbPlotSettings
  1

  2
Canon LBP9100C
  4

  6

 40
0.0
 41
0.0
 42
0.0
 43
0.0
 44
0.0
 45
0.0
 46
0.0
 47
0.0
 48
0.0
 49
0.0
140
0.0
141
0.0
142
1.0
143
1.0
 70
  1712
 72
     0
 73
     0
 74
     0
  7

 75
     0
147
1.0
148
0.0
149
0.0
100
AcDbLayout
  1
Model
 70
     1
 71
     0
 10
0.0
 20
0.0
 11
12.0
 21
9.0
 12
0.0
 22
0.0
 32
0.0
 14
0.0
 24
0.0
 34
0.0
 15
0.0
 25
0.0
 35
0.0
146
0.0
 13
0.0
 23
0.0
 33
0.0
 16
1.0
 26
0.0
 36
0.0
 17
0.0
 27
1.0
 37
0.0
 76
     0
330
91D3
331
93A7
  0
LAYOUT
  5
93FF
102
{ACAD_XDICTIONARY
360
945C
102
}
102
{ACAD_REACTORS
330
91CE
102
}
330
91CE
100
AcDbPlotSettings
  1

  2
Canon LBP9100C
  4

  6

 40
0.0
 41
0.0
 42
0.0
 43
0.0
 44
0.0
 45
0.0
 46
0.0
 47
0.0
 48
0.0
 49
0.0
140
0.0
141
0.0
142
1.0
143
1.0
 70
   688
 72
     0
 73
     0
 74
     5
  7

 75
    16
147
1.0
148
0.0
149
0.0
100
AcDbLayout
  1
レイアウト1
 70
     0
 71
     1
 10
0.0
 20
0.0
 11
420.0
 21
297.0
 12
0.0
 22
0.0
 32
0.0
 14
1.000000000000000E+20
 24
1.000000000000000E+20
 34
1.000000000000000E+20
 15
-1.000000000000000E+20
 25
-1.000000000000000E+20
 35
-1.000000000000000E+20
146
0.0
 13
0.0
 23
0.0
 33
0.0
 16
1.0
 26
0.0
 36
0.0
 17
0.0
 27
1.0
 37
0.0
 76
     0
330
91CF
  0
MATERIAL
  5
93BA
102
{ACAD_XDICTIONARY
360
93BB
102
}
102
{ACAD_REACTORS
330
93B1
102
}
330
93B1
100
AcDbMaterial
  1
ByBlock
 72
     0
 43
0.0208333333333333
 43
0.0
 43
0.0
 43
0.0
 43
0.0
 43
0.0208333333333333
 43
0.0
 43
0.0
 43
0.0
 43
0.0
 43
1.0
 43
0.0
 43
0.0
 43
0.0
 43
0.0
 43
1.0
 77
     0
 47
0.0208333333333333
 47
0.0
 47
0.0
 47
0.0
 47
0.0
 47
0.0208333333333333
 47
0.0
 47
0.0
 47
0.0
 47
0.0
 47
1.0
 47
0.0
 47
0.0
 47
0.0
 47
0.0
 47
1.0
171
     0
 49
0.0208333333333333
 49
0.0
 49
0.0
 49
0.0
 49
0.0
 49
0.0208333333333333
 49
0.0
 49
0.0
 49
0.0
 49
0.0
 49
1.0
 49
0.0
 49
0.0
 49
0.0
 49
0.0
 49
1.0
175
     0
142
0.0208333333333333
142
0.0
142
0.0
142
0.0
142
0.0
142
0.0208333333333333
142
0.0
142
0.0
142
0.0
142
0.0
142
1.0
142
0.0
142
0.0
142
0.0
142
0.0
142
1.0
179
     0
144
0.0208333333333333
144
0.0
144
0.0
144
0.0
144
0.0
144
0.0208333333333333
144
0.0
144
0.0
144
0.0
144
0.0
144
1.0
144
0.0
144
0.0
144
0.0
144
0.0
144
1.0
147
0.0208333333333333
147
0.0
147
0.0
147
0.0
147
0.0
147
0.0208333333333333
147
0.0
147
0.0
147
0.0
147
0.0
147
1.0
147
0.0
147
0.0
147
0.0
147
0.0
147
1.0
  0
MATERIAL
  5
93B2
102
{ACAD_XDICTIONARY
360
93B3
102
}
102
{ACAD_REACTORS
330
93B1
102
}
330
93B1
100
AcDbMaterial
  1
ByLayer
 72
     0
 43
0.0208333333333333
 43
0.0
 43
0.0
 43
0.0
 43
0.0
 43
0.0208333333333333
 43
0.0
 43
0.0
 43
0.0
 43
0.0
 43
1.0
 43
0.0
 43
0.0
 43
0.0
 43
0.0
 43
1.0
 77
     0
 47
0.0208333333333333
 47
0.0
 47
0.0
 47
0.0
 47
0.0
 47
0.0208333333333333
 47
0.0
 47
0.0
 47
0.0
 47
0.0
 47
1.0
 47
0.0
 47
0.0
 47
0.0
 47
0.0
 47
1.0
171
     0
 49
0.0208333333333333
 49
0.0
 49
0.0
 49
0.0
 49
0.0
 49
0.0208333333333333
 49
0.0
 49
0.0
 49
0.0
 49
0.0
 49
1.0
 49
0.0
 49
0.0
 49
0.0
 49
0.0
 49
1.0
175
     0
142
0.0208333333333333
142
0.0
142
0.0
142
0.0
142
0.0
142
0.0208333333333333
142
0.0
142
0.0
142
0.0
142
0.0
142
1.0
142
0.0
142
0.0
142
0.0
142
0.0
142
1.0
179
     0
144
0.0208333333333333
144
0.0
144
0.0
144
0.0
144
0.0
144
0.0208333333333333
144
0.0
144
0.0
144
0.0
144
0.0
144
1.0
144
0.0
144
0.0
144
0.0
144
0.0
144
1.0
147
0.0208333333333333
147
0.0
147
0.0
147
0.0
147
0.0
147
0.0208333333333333
147
0.0
147
0.0
147
0.0
147
0.0
147
1.0
147
0.0
147
0.0
147
0.0
147
0.0
147
1.0
  0
MATERIAL
  5
93C2
102
{ACAD_XDICTIONARY
360
93C3
102
}
102
{ACAD_REACTORS
330
93B1
102
}
330
93B1
100
AcDbMaterial
  1
Global
 72
     0
 43
0.0208333333333333
 43
0.0
 43
0.0
 43
0.0
 43
0.0
 43
0.0208333333333333
 43
0.0
 43
0.0
 43
0.0
 43
0.0
 43
1.0
 43
0.0
 43
0.0
 43
0.0
 43
0.0
 43
1.0
 77
     0
 47
0.0208333333333333
 47
0.0
 47
0.0
 47
0.0
 47
0.0
 47
0.0208333333333333
 47
0.0
 47
0.0
 47
0.0
 47
0.0
 47
1.0
 47
0.0
 47
0.0
 47
0.0
 47
0.0
 47
1.0
171
     0
 49
0.0208333333333333
 49
0.0
 49
0.0
 49
0.0
 49
0.0
 49
0.0208333333333333
 49
0.0
 49
0.0
 49
0.0
 49
0.0
 49
1.0
 49
0.0
 49
0.0
 49
0.0
 49
0.0
 49
1.0
175
     0
142
0.0208333333333333
142
0.0
142
0.0
142
0.0
142
0.0
142
0.0208333333333333
142
0.0
142
0.0
142
0.0
142
0.0
142
1.0
142
0.0
142
0.0
142
0.0
142
0.0
142
1.0
179
     0
144
0.0208333333333333
144
0.0
144
0.0
144
0.0
144
0.0
144
0.0208333333333333
144
0.0
144
0.0
144
0.0
144
0.0
144
1.0
144
0.0
144
0.0
144
0.0
144
0.0
144
1.0
147
0.0208333333333333
147
0.0
147
0.0
147
0.0
147
0.0
147
0.0208333333333333
147
0.0
147
0.0
147
0.0
147
0.0
147
1.0
147
0.0
147
0.0
147
0.0
147
0.0
147
1.0
  0
MLEADERSTYLE
  5
93F9
102
{ACAD_REACTORS
330
93F8
102
}
330
93F8
100
AcDbMLeaderStyle
170
     2
171
     1
172
     0
 90
        2
 40
0.0
 41
0.0
173
     1
 91
-1056964608
340
91C8
 92
       -2
290
     1
 42
0.09
291
     1
 43
0.36
  3
Standard
 44
0.18
300

342
91C6
174
     1
178
     6
175
     1
176
     0
 93
-1056964608
 45
0.18
292
     0
297
     0
 46
0.18
 94
-1056964608
 47
1.0
 49
1.0
140
1.0
293
     1
141
0.0
294
     1
177
     0
142
1.0
295
     0
296
     0
143
0.125
1001
ACAD_MLEADERVER
1070
     2
  0
MLINESTYLE
  5
91CC
102
{ACAD_REACTORS
330
91CB
102
}
330
91CB
100
AcDbMlineStyle
  2
STANDARD
 70
     0
  3

 62
   256
 51
90.0
 52
90.0
 71
     2
 49
0.5
 62
   256
  6
BYLAYER
 49
-0.5
 62
   256
  6
BYLAYER
  0
ACDBPLACEHOLDER
  5
93B0
102
{ACAD_REACTORS
330
93AF
102
}
330
93AF
  0
SCALE
  5
93E7
102
{ACAD_REACTORS
330
93E6
102
}
330
93E6
100
AcDbScale
 70
     0
300
1:1
140
1.0
141
1.0
290
     1
  0
SCALE
  5
93E8
102
{ACAD_REACTORS
330
93E6
102
}
330
93E6
100
AcDbScale
 70
     0
300
1/128" = 1'-0"
140
0.0078125
141
12.0
290
     0
  0
SCALE
  5
93E9
102
{ACAD_REACTORS
330
93E6
102
}
330
93E6
100
AcDbScale
 70
     0
300
1/64" = 1'-0"
140
0.015625
141
12.0
290
     0
  0
SCALE
  5
93EA
102
{ACAD_REACTORS
330
93E6
102
}
330
93E6
100
AcDbScale
 70
     0
300
1/32" = 1'-0"
140
0.03125
141
12.0
290
     0
  0
SCALE
  5
93EB
102
{ACAD_REACTORS
330
93E6
102
}
330
93E6
100
AcDbScale
 70
     0
300
1/16" = 1'-0"
140
0.0625
141
12.0
290
     0
  0
SCALE
  5
93EC
102
{ACAD_REACTORS
330
93E6
102
}
330
93E6
100
AcDbScale
 70
     0
300
3/32" = 1'-0"
140
0.09375
141
12.0
290
     0
  0
SCALE
  5
93ED
102
{ACAD_REACTORS
330
93E6
102
}
330
93E6
100
AcDbScale
 70
     0
300
1/8" = 1'-0"
140
0.125
141
12.0
290
     0
  0
SCALE
  5
93EE
102
{ACAD_REACTORS
330
93E6
102
}
330
93E6
100
AcDbScale
 70
     0
300
3/16" = 1'-0"
140
0.1875
141
12.0
290
     0
  0
SCALE
  5
93EF
102
{ACAD_REACTORS
330
93E6
102
}
330
93E6
100
AcDbScale
 70
     0
300
1/4" = 1'-0"
140
0.25
141
12.0
290
     0
  0
SCALE
  5
93F0
102
{ACAD_REACTORS
330
93E6
102
}
330
93E6
100
AcDbScale
 70
     0
300
3/8" = 1'-0"
140
0.375
141
12.0
290
     0
  0
SCALE
  5
93F1
102
{ACAD_REACTORS
330
93E6
102
}
330
93E6
100
AcDbScale
 70
     0
300
1/2" = 1'-0"
140
0.5
141
12.0
290
     0
  0
SCALE
  5
93F2
102
{ACAD_REACTORS
330
93E6
102
}
330
93E6
100
AcDbScale
 70
     0
300
3/4" = 1'-0"
140
0.75
141
12.0
290
     0
  0
SCALE
  5
93F3
102
{ACAD_REACTORS
330
93E6
102
}
330
93E6
100
AcDbScale
 70
     0
300
1" = 1'-0"
140
1.0
141
12.0
290
     0
  0
SCALE
  5
93F4
102
{ACAD_REACTORS
330
93E6
102
}
330
93E6
100
AcDbScale
 70
     0
300
1-1/2" = 1'-0"
140
1.5
141
12.0
290
     0
  0
SCALE
  5
93F5
102
{ACAD_REACTORS
330
93E6
102
}
330
93E6
100
AcDbScale
 70
     0
300
3" = 1'-0"
140
3.0
141
12.0
290
     0
  0
SCALE
  5
93F6
102
{ACAD_REACTORS
330
93E6
102
}
330
93E6
100
AcDbScale
 70
     0
300
6" = 1'-0"
140
6.0
141
12.0
290
     0
  0
SCALE
  5
93F7
102
{ACAD_REACTORS
330
93E6
102
}
330
93E6
100
AcDbScale
 70
     0
300
1'-0" = 1'-0"
140
12.0
141
12.0
290
     0
  0
ACDBSECTIONVIEWSTYLE
  5
93FB
102
{ACAD_XDICTIONARY
360
9456
102
}
102
{ACAD_REACTORS
330
93FA
102
}
330
93FA
100
AcDbModelDocViewStyle
 70
     0
  3
Imperial24
290
     0
100
AcDbSectionViewStyle
 70
     0
 71
     0
 90
       78
 71
     1
340
91C6
 40
0.24
340
0
340
0
 40
0.24
300
I, O, Q, S, X, Z
 40
0.48
 90
        3
 40
0.18
 90
        1
 71
     2
340
91CA
 90
       25
340
91CA
 90
       50
 40
0.24
 40
0.0
 40
0.24
 71
     3
340
91C6
 40
0.24
 90
        1
 40
0.75
 90
        1
300
%<\AcVar ViewType \f "%tc1">% %<\AcVar ViewSectionStartId>%-%<\AcVar ViewSectionEndId>%\PSCALE %<\AcVar ViewScale \f "%sn">%
 71
     4
300
ANSI31
 40
1.0
 90
        0
290
     0
290
     0
 90
        6
 40
0.0
 40
1.570796326794896
 40
0.2617993877991494
 40
1.308996938995747
 40
-0.2617993877991494
 40
1.832595714594046
  0
TABLESTYLE
  5
93E5
102
{ACAD_XDICTIONARY
360
941D
102
}
102
{ACAD_REACTORS
330
93E4
102
}
330
93E4
100
AcDbTableStyle
  3
Standard
 70
     0
 71
     0
 40
0.06
 41
0.06
280
     0
281
     0
  7
STANDARD
140
0.18
170
     2
 62
     0
 63
     7
283
     0
274
    -2
284
     1
 64
     0
275
    -2
285
     1
 65
     0
276
    -2
286
     1
 66
     0
277
    -2
287
     1
 67
     0
278
    -2
288
     1
 68
     0
279
    -2
289
     1
 69
     0
  7
STANDARD
140
0.25
170
     5
 62
     0
 63
     7
283
     0
274
    -2
284
     1
 64
     0
275
    -2
285
     1
 65
     0
276
    -2
286
     1
 66
     0
277
    -2
287
     1
 67
     0
278
    -2
288
     1
 68
     0
279
    -2
289
     1
 69
     0
  7
STANDARD
140
0.18
170
     5
 62
     0
 63
     7
283
     0
274
    -2
284
     1
 64
     0
275
    -2
285
     1
 65
     0
276
    -2
286
     1
 66
     0
277
    -2
287
     1
 67
     0
278
    -2
288
     1
 68
     0
279
    -2
289
     1
 69
     0
  0
VISUALSTYLE
  5
93D0
102
{ACAD_XDICTIONARY
360
942E
102
}
102
{ACAD_REACTORS
330
93CA
102
}
330
93CA
100
AcDbVisualStyle
  2
2dWireframe
 70
     4
 71
     0
 72
     2
 73
     0
 90
        0
 40
-0.6
 41
-30.0
 62
     5
 63
     7
 74
     1
 91
        4
 64
     7
 65
   257
 75
     1
175
     1
 42
1.0
 92
        0
 66
   257
 43
1.0
 76
     1
 77
     6
 78
     2
 67
     7
 79
     5
170
     0
171
     0
290
     0
174
     0
 93
        1
 44
0.0
173
     0
291
     0
 45
0.0
1001
ACAD
1000
AcDbSavedByObjectVersion
1070
     0
  0
VISUALSTYLE
  5
93CF
102
{ACAD_XDICTIONARY
360
942C
102
}
102
{ACAD_REACTORS
330
93CA
102
}
330
93CA
100
AcDbVisualStyle
  2
Basic
 70
     7
 71
     1
 72
     0
 73
     1
 90
        0
 40
-0.6
 41
-30.0
 62
     5
 63
     7
 74
     0
 91
        4
 64
     7
 65
   257
 75
     1
175
     1
 42
1.0
 92
        8
 66
     7
 43
1.0
 76
     1
 77
     6
 78
     2
 67
     7
 79
     5
170
     0
171
     0
290
     0
174
     0
 93
        1
 44
0.0
173
     0
291
     1
 45
0.0
1001
ACAD
1000
AcDbSavedByObjectVersion
1070
     0
  0
VISUALSTYLE
  5
93D6
102
{ACAD_XDICTIONARY
360
943A
102
}
102
{ACAD_REACTORS
330
93CA
102
}
330
93CA
100
AcDbVisualStyle
  2
Brighten
 70
    12
 71
     2
 72
     2
 73
     0
 90
        0
 40
-0.6
 41
-30.0
 62
     5
 63
     7
 74
     1
 91
        4
 64
     7
 65
   257
 75
     1
175
     1
 42
1.0
 92
        8
 66
     7
 43
1.0
 76
     1
 77
     6
 78
     2
 67
     7
 79
     5
170
     0
171
     0
290
     0
174
     0
 93
        1
 44
50.0
173
     0
291
     1
 45
0.0
1001
ACAD
1000
AcDbSavedByObjectVersion
1070
     0
  0
VISUALSTYLE
  5
93DA
102
{ACAD_XDICTIONARY
360
9442
102
}
102
{ACAD_REACTORS
330
93CA
102
}
330
93CA
100
AcDbVisualStyle
  2
ColorChange
 70
    16
 71
     2
 72
     2
 73
     3
 90
        0
 40
-0.6
 41
-30.0
 62
     5
 63
     8
 74
     1
 91
        4
 64
     7
 65
   257
 75
     1
175
     1
 42
1.0
 92
        8
 66
     8
 43
1.0
 76
     1
 77
     6
 78
     2
 67
     7
 79
     5
170
     0
171
     0
290
     0
174
     0
 93
        1
 44
0.0
173
     0
291
     1
 45
0.0
1001
ACAD
1000
AcDbSavedByObjectVersion
1070
     0
  0
VISUALSTYLE
  5
93D3
102
{ACAD_XDICTIONARY
360
9434
102
}
102
{ACAD_REACTORS
330
93CA
102
}
330
93CA
100
AcDbVisualStyle
  2
Conceptual
 70
     9
 71
     3
 72
     2
 73
     0
 90
        0
 40
-0.6
 41
-30.0
 62
     5
 63
     7
 74
     2
 91
        2
 64
     7
 65
   257
 75
     1
175
     1
 42
179.0
 92
        8
 66
     7
 43
1.0
 76
     1
 77
     6
 78
     2
 67
     7
 79
     3
170
     0
171
     0
290
     0
174
     0
 93
        1
 44
0.0
173
     0
291
     0
 45
0.0
1001
ACAD
1000
AcDbSavedByObjectVersion
1070
     0
  0
VISUALSTYLE
  5
93D5
102
{ACAD_XDICTIONARY
360
9438
102
}
102
{ACAD_REACTORS
330
93CA
102
}
330
93CA
100
AcDbVisualStyle
  2
Dim
 70
    11
 71
     2
 72
     2
 73
     0
 90
        0
 40
-0.6
 41
-30.0
 62
     5
 63
     7
 74
     1
 91
        4
 64
     7
 65
   257
 75
     1
175
     1
 42
1.0
 92
        8
 66
     7
 43
1.0
 76
     1
 77
     6
 78
     2
 67
     7
 79
     5
170
     0
171
     0
290
     0
174
     0
 93
        1
 44
-50.0
173
     0
291
     1
 45
0.0
1001
ACAD
1000
AcDbSavedByObjectVersion
1070
     0
  0
VISUALSTYLE
  5
93E2
102
{ACAD_XDICTIONARY
360
9452
102
}
102
{ACAD_REACTORS
330
93CA
102
}
330
93CA
100
AcDbVisualStyle
  2
EdgeColorOff
 70
    22
 71
     2
 72
     2
 73
     0
 90
        0
 40
-0.6
 41
-30.0
 62
     5
 63
     7
 74
     1
 91
        4
 64
     7
 65
   257
 75
     1
175
     1
 42
1.0
 92
        8
 66
     7
 43
1.0
 76
     1
 77
     6
 78
     2
 67
     7
 79
     5
170
     0
171
     0
290
     0
174
     0
 93
        1
 44
0.0
173
     0
291
     1
 45
0.0
1001
ACAD
1000
AcDbSavedByObjectVersion
1070
     0
  0
VISUALSTYLE
  5
93D9
102
{ACAD_XDICTIONARY
360
9440
102
}
102
{ACAD_REACTORS
330
93CA
102
}
330
93CA
100
AcDbVisualStyle
  2
Facepattern
 70
    15
 71
     2
 72
     2
 73
     0
 90
        0
 40
-0.6
 41
-30.0
 62
     5
 63
     7
 74
     1
 91
        4
 64
     7
 65
   257
 75
     1
175
     1
 42
1.0
 92
        8
 66
     7
 43
1.0
 76
     1
 77
     6
 78
     2
 67
     7
 79
     5
170
     0
171
     0
290
     0
174
     0
 93
        1
 44
0.0
173
     0
291
     1
 45
0.0
1001
ACAD
1000
AcDbSavedByObjectVersion
1070
     0
  0
VISUALSTYLE
  5
93CB
102
{ACAD_XDICTIONARY
360
9424
102
}
102
{ACAD_REACTORS
330
93CA
102
}
330
93CA
100
AcDbVisualStyle
  2
Flat
 70
     0
 71
     2
 72
     1
 73
     1
 90
        2
 40
-0.6
 41
30.0
 62
     5
 63
     7
 74
     0
 91
        0
 64
     7
 65
   257
 75
     1
175
     1
 42
1.0
 92
        8
 66
     7
 43
1.0
 76
     1
 77
     6
 78
     2
 67
     7
 79
     5
170
     0
171
     0
290
     0
174
     0
 93
       13
 44
0.0
173
     0
291
     1
 45
0.0
1001
ACAD
1000
AcDbSavedByObjectVersion
1070
     0
  0
VISUALSTYLE
  5
93CC
102
{ACAD_XDICTIONARY
360
9426
102
}
102
{ACAD_REACTORS
330
93CA
102
}
330
93CA
100
AcDbVisualStyle
  2
FlatWithEdges
 70
     1
 71
     2
 72
     1
 73
     1
 90
        2
 40
-0.6
 41
30.0
 62
     5
 63
     7
 74
     1
 91
        0
 64
     7
 65
   257
 75
     1
175
     1
 42
1.0
 92
        0
 66
   257
 43
1.0
 76
     1
 77
     6
 78
     2
 67
     7
 79
     5
170
     0
171
     0
290
     0
174
     0
 93
       13
 44
0.0
173
     0
291
     1
 45
0.0
1001
ACAD
1000
AcDbSavedByObjectVersion
1070
     0
  0
VISUALSTYLE
  5
93CD
102
{ACAD_XDICTIONARY
360
9428
102
}
102
{ACAD_REACTORS
330
93CA
102
}
330
93CA
100
AcDbVisualStyle
  2
Gouraud
 70
     2
 71
     2
 72
     2
 73
     1
 90
        2
 40
-0.6
 41
30.0
 62
     5
 63
     7
 74
     0
 91
        0
 64
     7
 65
   257
 75
     1
175
     1
 42
1.0
 92
        0
 66
     7
 43
1.0
 76
     1
 77
     6
 78
     2
 67
     7
 79
     5
170
     0
171
     0
290
     0
174
     0
 93
       13
 44
0.0
173
     0
291
     1
 45
0.0
1001
ACAD
1000
AcDbSavedByObjectVersion
1070
     0
  0
VISUALSTYLE
  5
93CE
102
{ACAD_XDICTIONARY
360
942A
102
}
102
{ACAD_REACTORS
330
93CA
102
}
330
93CA
100
AcDbVisualStyle
  2
GouraudWithEdges
 70
     3
 71
     2
 72
     2
 73
     1
 90
        2
 40
-0.6
 41
30.0
 62
     5
 63
     7
 74
     1
 91
        0
 64
     7
 65
   257
 75
     1
175
     1
 42
1.0
 92
        0
 66
   257
 43
1.0
 76
     1
 77
     6
 78
     2
 67
     7
 79
     5
170
     0
171
     0
290
     0
174
     0
 93
       13
 44
0.0
173
     0
291
     1
 45
0.0
1001
ACAD
1000
AcDbSavedByObjectVersion
1070
     0
  0
VISUALSTYLE
  5
93D2
102
{ACAD_XDICTIONARY
360
9432
102
}
102
{ACAD_REACTORS
330
93CA
102
}
330
93CA
100
AcDbVisualStyle
  2
Hidden
 70
     6
 71
     1
 72
     2
 73
     2
 90
        0
 40
-0.6
 41
-30.0
 62
     5
 63
     7
 74
     2
 91
        2
 64
     7
 65
   257
 75
     2
175
     1
 42
40.0
 92
        0
 66
   257
 43
1.0
 76
     1
 77
     6
 78
     2
 67
     7
 79
     3
170
     0
171
     0
290
     0
174
     0
 93
        1
 44
0.0
173
     0
291
     0
 45
0.0
1001
ACAD
1000
AcDbSavedByObjectVersion
1070
     0
  0
VISUALSTYLE
  5
93E0
102
{ACAD_XDICTIONARY
360
944E
102
}
102
{ACAD_REACTORS
330
93CA
102
}
330
93CA
100
AcDbVisualStyle
  2
JitterOff
 70
    20
 71
     2
 72
     2
 73
     0
 90
        0
 40
-0.6
 41
-30.0
 62
     5
 63
     7
 74
     1
 91
        4
 64
     7
 65
   257
 75
     1
175
     1
 42
1.0
 92
       10
 66
     7
 43
1.0
 76
     1
 77
     6
 78
     2
 67
     7
 79
     5
170
     0
171
     0
290
     0
174
     0
 93
        1
 44
0.0
173
     0
291
     1
 45
0.0
1001
ACAD
1000
AcDbSavedByObjectVersion
1070
     0
  0
VISUALSTYLE
  5
93D8
102
{ACAD_XDICTIONARY
360
943E
102
}
102
{ACAD_REACTORS
330
93CA
102
}
330
93CA
100
AcDbVisualStyle
  2
Linepattern
 70
    14
 71
     2
 72
     2
 73
     0
 90
        0
 40
-0.6
 41
-30.0
 62
     5
 63
     7
 74
     1
 91
        4
 64
     7
 65
   257
 75
     7
175
     7
 42
1.0
 92
        8
 66
     7
 43
1.0
 76
     1
 77
     6
 78
     2
 67
     7
 79
     5
170
     0
171
     0
290
     0
174
     0
 93
        1
 44
0.0
173
     0
291
     1
 45
0.0
1001
ACAD
1000
AcDbSavedByObjectVersion
1070
     0
  0
VISUALSTYLE
  5
93E1
102
{ACAD_XDICTIONARY
360
9450
102
}
102
{ACAD_REACTORS
330
93CA
102
}
330
93CA
100
AcDbVisualStyle
  2
OverhangOff
 70
    21
 71
     2
 72
     2
 73
     0
 90
        0
 40
-0.6
 41
-30.0
 62
     5
 63
     7
 74
     1
 91
        4
 64
     7
 65
   257
 75
     1
175
     1
 42
1.0
 92
        9
 66
     7
 43
1.0
 76
     1
 77
     6
 78
     2
 67
     7
 79
     5
170
     0
171
     0
290
     0
174
     0
 93
        1
 44
0.0
173
     0
291
     1
 45
0.0
1001
ACAD
1000
AcDbSavedByObjectVersion
1070
     0
  0
VISUALSTYLE
  5
93D4
102
{ACAD_XDICTIONARY
360
9436
102
}
102
{ACAD_REACTORS
330
93CA
102
}
330
93CA
100
AcDbVisualStyle
  2
Realistic
 70
     8
 71
     2
 72
     3
 73
     0
 90
        2
 40
-0.6
 41
30.0
 62
     5
 63
     7
 74
     0
 91
        0
 64
     7
 65
   257
 75
     1
175
     1
 42
1.0
 92
        8
 66
   257
 43
1.0
 76
     1
 77
     6
 78
     2
 67
     7
 79
     3
170
     0
171
     0
290
     0
174
     0
 93
       13
 44
0.0
173
     0
291
     0
 45
0.0
1001
ACAD
1000
AcDbSavedByObjectVersion
1070
     0
  0
VISUALSTYLE
  5
93DF
102
{ACAD_XDICTIONARY
360
944C
102
}
102
{ACAD_REACTORS
330
93CA
102
}
330
93CA
100
AcDbVisualStyle
  2
Shaded
 70
    27
 71
     2
 72
     2
 73
     1
 90
        2
 40
-0.6
 41
30.0
 62
     5
 63
     7
 74
     0
 91
        4
 64
     7
 65
   257
 75
     1
175
     1
 42
1.0
 92
        8
 66
   257
 43
1.0
 76
     1
 77
     6
 78
     2
 67
     8
 79
     3
170
     0
171
     0
290
     0
174
     0
 93
        5
 44
0.0
173
     0
291
     0
 45
0.0
1001
ACAD
1000
AcDbSavedByObjectVersion
1070
     0
  0
VISUALSTYLE
  5
93DE
102
{ACAD_XDICTIONARY
360
944A
102
}
102
{ACAD_REACTORS
330
93CA
102
}
330
93CA
100
AcDbVisualStyle
  2
Shaded with edges
 70
    26
 71
     2
 72
     2
 73
     1
 90
        2
 40
-0.6
 41
30.0
 62
     5
 63
     7
 74
     1
 91
       10
 64
     7
 65
   257
 75
     2
175
     1
 42
1.0
 92
        8
 66
   257
 43
1.0
 76
     1
 77
     6
 78
     2
 67
     7
 79
     3
170
     0
171
     0
290
     0
174
     0
 93
        5
 44
0.0
173
     0
291
     0
 45
0.0
1001
ACAD
1000
AcDbSavedByObjectVersion
1070
     0
  0
VISUALSTYLE
  5
93DB
102
{ACAD_XDICTIONARY
360
9444
102
}
102
{ACAD_REACTORS
330
93CA
102
}
330
93CA
100
AcDbVisualStyle
  2
Shades of Gray
 70
    23
 71
     2
 72
     2
 73
     3
 90
        0
 40
-0.6
 41
-30.0
 62
     5
 63
     7
 74
     2
 91
        2
 64
     7
 65
     7
 75
     1
175
     1
 42
40.0
 92
        8
 66
     7
 43
1.0
 76
     1
 77
     6
 78
     2
 67
     7
 79
     3
170
     0
171
     0
290
     0
174
     0
 93
        1
 44
0.0
173
     0
291
     0
 45
0.0
1001
ACAD
1000
AcDbSavedByObjectVersion
1070
     0
  0
VISUALSTYLE
  5
93DC
102
{ACAD_XDICTIONARY
360
9446
102
}
102
{ACAD_REACTORS
330
93CA
102
}
330
93CA
100
AcDbVisualStyle
  2
Sketchy
 70
    24
 71
     1
 72
     2
 73
     2
 90
        0
 40
-0.6
 41
-30.0
 62
     5
 63
     7
 74
     2
 91
        2
 64
     7
 65
     7
 75
     1
175
     1
 42
40.0
 92
       11
 66
     7
 43
1.0
 76
     1
 77
     6
 78
     2
 67
     7
 79
     6
170
     0
171
     0
290
     0
174
     0
 93
        1
 44
0.0
173
     0
291
     0
 45
0.0
1001
ACAD
1000
AcDbSavedByObjectVersion
1070
     0
  0
VISUALSTYLE
  5
93D7
102
{ACAD_XDICTIONARY
360
943C
102
}
102
{ACAD_REACTORS
330
93CA
102
}
330
93CA
100
AcDbVisualStyle
  2
Thicken
 70
    13
 71
     2
 72
     2
 73
     0
 90
        0
 40
-0.6
 41
-30.0
 62
     5
 63
     7
 74
     1
 91
        4
 64
     7
 65
   257
 75
     1
175
     1
 42
1.0
 92
       12
 66
     7
 43
1.0
 76
     1
 77
     6
 78
     2
 67
     7
 79
     5
170
     0
171
     0
290
     0
174
     0
 93
        1
 44
0.0
173
     0
291
     1
 45
0.0
1001
ACAD
1000
AcDbSavedByObjectVersion
1070
     0
  0
VISUALSTYLE
  5
93D1
102
{ACAD_XDICTIONARY
360
9430
102
}
102
{ACAD_REACTORS
330
93CA
102
}
330
93CA
100
AcDbVisualStyle
  2
Wireframe
 70
     5
 71
     0
 72
     2
 73
     0
 90
        0
 40
-0.6
 41
-30.0
 62
     5
 63
     7
 74
     1
 91
        4
 64
     7
 65
   257
 75
     1
175
     1
 42
1.0
 92
        0
 66
   257
 43
1.0
 76
     1
 77
     6
 78
     2
 67
     7
 79
     3
170
     0
171
     0
290
     0
174
     0
 93
        1
 44
0.0
173
     0
291
     0
 45
0.0
1001
ACAD
1000
AcDbSavedByObjectVersion
1070
     0
  0
VISUALSTYLE
  5
93DD
102
{ACAD_XDICTIONARY
360
9448
102
}
102
{ACAD_REACTORS
330
93CA
102
}
330
93CA
100
AcDbVisualStyle
  2
X-Ray
 70
    25
 71
     2
 72
     2
 73
     1
 90
        1
 40
0.5
 41
-30.0
 62
     5
 63
     7
 74
     1
 91
        0
 64
     7
 65
   257
 75
     1
175
     1
 42
1.0
 92
        8
 66
     7
 43
1.0
 76
     1
 77
     6
 78
     2
 67
     7
 79
     3
170
     0
171
     0
290
     0
174
     0
 93
       13
 44
0.0
173
     0
291
     0
 45
0.0
1001
ACAD
1000
AcDbSavedByObjectVersion
1070
     0
  0
DICTIONARYVAR
  5
9417
102
{ACAD_REACTORS
330
9412
102
}
330
9412
100
DictionaryVariables
280
     0
  1
1:1
  0
DICTIONARYVAR
  5
9414
102
{ACAD_REACTORS
330
9412
102
}
330
9412
100
DictionaryVariables
280
     0
  1
STANDARD
  0
DICTIONARYVAR
  5
9413
102
{ACAD_REACTORS
330
9412
102
}
330
9412
100
DictionaryVariables
280
     0
  1
STANDARD
  0
DICTIONARYVAR
  5
9415
102
{ACAD_REACTORS
330
9412
102
}
330
9412
100
DictionaryVariables
280
     0
  1
Imperial24
  0
DICTIONARYVAR
  5
9416
102
{ACAD_REACTORS
330
9412
102
}
330
9412
100
DictionaryVariables
280
     0
  1
Imperial24
  0
DICTIONARYVAR
  5
941A
102
{ACAD_REACTORS
330
9412
102
}
330
9412
100
DictionaryVariables
280
     0
  1
1
  0
DICTIONARYVAR
  5
9419
102
{ACAD_REACTORS
330
9412
102
}
330
9412
100
DictionaryVariables
280
     0
  1
0
  0
DICTIONARYVAR
  5
9418
102
{ACAD_REACTORS
330
9412
102
}
330
9412
100
DictionaryVariables
280
     0
  1
127
  0
DICTIONARYVAR
  5
941B
102
{ACAD_REACTORS
330
9412
102
}
330
9412
100
DictionaryVariables
280
     0
  1
2
  0
DICTIONARY
  5
9458
330
93FD
100
AcDbDictionary
280
     1
281
     1
  3
ACAD_XREC_ROUNDTRIP
360
9459
  0
DICTIONARY
  5
945A
330
93FE
100
AcDbDictionary
280
     1
281
     1
  3
ACAD_XREC_ROUNDTRIP
360
945B
  0
DICTIONARY
  5
945C
330
93FF
100
AcDbDictionary
280
     1
281
     1
  3
ACAD_XREC_ROUNDTRIP
360
945D
  0
DICTIONARY
  5
93BB
330
93BA
100
AcDbDictionary
280
     1
281
     1
  3
ACAD_XREC_ROUNDTRIP
360
9422
  3
BUMPTILE
360
93BD
  3
DIFFUSETILE
360
93BC
  3
OPACITYTILE
360
93C0
  3
REFLECTIONTILE
360
93BF
  3
REFRACTIONTILE
360
93C1
  3
SPECULARTILE
360
93BE
  0
DICTIONARY
  5
93B3
330
93B2
100
AcDbDictionary
280
     1
281
     1
  3
ACAD_XREC_ROUNDTRIP
360
9421
  3
BUMPTILE
360
93B5
  3
DIFFUSETILE
360
93B4
  3
OPACITYTILE
360
93B8
  3
REFLECTIONTILE
360
93B7
  3
REFRACTIONTILE
360
93B9
  3
SPECULARTILE
360
93B6
  0
DICTIONARY
  5
93C3
330
93C2
100
AcDbDictionary
280
     1
281
     1
  3
ACAD_XREC_ROUNDTRIP
360
9423
  3
BUMPTILE
360
93C5
  3
DIFFUSETILE
360
93C4
  3
OPACITYTILE
360
93C8
  3
REFLECTIONTILE
360
93C7
  3
REFRACTIONTILE
360
93C9
  3
SPECULARTILE
360
93C6
  0
DICTIONARY
  5
9456
330
93FB
100
AcDbDictionary
280
     1
281
     1
  3
ACAD_XREC_ROUNDTRIP
360
9457
  0
DICTIONARY
  5
941D
330
93E5
100
AcDbDictionary
280
     1
281
     1
  3
ACAD_ROUNDTRIP_2008_TABLESTYLE_CELLSTYLEMAP
360
941E
  3
ACAD_XREC_ROUNDTRIP
360
9454
  0
DICTIONARY
  5
942E
330
93D0
100
AcDbDictionary
280
     1
281
     1
  3
ACAD_XREC_ROUNDTRIP
360
942F
  0
DICTIONARY
  5
942C
330
93CF
100
AcDbDictionary
280
     1
281
     1
  3
ACAD_XREC_ROUNDTRIP
360
942D
  0
DICTIONARY
  5
943A
330
93D6
100
AcDbDictionary
280
     1
281
     1
  3
ACAD_XREC_ROUNDTRIP
360
943B
  0
DICTIONARY
  5
9442
330
93DA
100
AcDbDictionary
280
     1
281
     1
  3
ACAD_XREC_ROUNDTRIP
360
9443
  0
DICTIONARY
  5
9434
330
93D3
100
AcDbDictionary
280
     1
281
     1
  3
ACAD_XREC_ROUNDTRIP
360
9435
  0
DICTIONARY
  5
9438
330
93D5
100
AcDbDictionary
280
     1
281
     1
  3
ACAD_XREC_ROUNDTRIP
360
9439
  0
DICTIONARY
  5
9452
330
93E2
100
AcDbDictionary
280
     1
281
     1
  3
ACAD_XREC_ROUNDTRIP
360
9453
  0
DICTIONARY
  5
9440
330
93D9
100
AcDbDictionary
280
     1
281
     1
  3
ACAD_XREC_ROUNDTRIP
360
9441
  0
DICTIONARY
  5
9424
330
93CB
100
AcDbDictionary
280
     1
281
     1
  3
ACAD_XREC_ROUNDTRIP
360
9425
  0
DICTIONARY
  5
9426
330
93CC
100
AcDbDictionary
280
     1
281
     1
  3
ACAD_XREC_ROUNDTRIP
360
9427
  0
DICTIONARY
  5
9428
330
93CD
100
AcDbDictionary
280
     1
281
     1
  3
ACAD_XREC_ROUNDTRIP
360
9429
  0
DICTIONARY
  5
942A
330
93CE
100
AcDbDictionary
280
     1
281
     1
  3
ACAD_XREC_ROUNDTRIP
360
942B
  0
DICTIONARY
  5
9432
330
93D2
100
AcDbDictionary
280
     1
281
     1
  3
ACAD_XREC_ROUNDTRIP
360
9433
  0
DICTIONARY
  5
944E
330
93E0
100
AcDbDictionary
280
     1
281
     1
  3
ACAD_XREC_ROUNDTRIP
360
944F
  0
DICTIONARY
  5
943E
330
93D8
100
AcDbDictionary
280
     1
281
     1
  3
ACAD_XREC_ROUNDTRIP
360
943F
  0
DICTIONARY
  5
9450
330
93E1
100
AcDbDictionary
280
     1
281
     1
  3
ACAD_XREC_ROUNDTRIP
360
9451
  0
DICTIONARY
  5
9436
330
93D4
100
AcDbDictionary
280
     1
281
     1
  3
ACAD_XREC_ROUNDTRIP
360
9437
  0
DICTIONARY
  5
944C
330
93DF
100
AcDbDictionary
280
     1
281
     1
  3
ACAD_XREC_ROUNDTRIP
360
944D
  0
DICTIONARY
  5
944A
330
93DE
100
AcDbDictionary
280
     1
281
     1
  3
ACAD_XREC_ROUNDTRIP
360
944B
  0
DICTIONARY
  5
9444
330
93DB
100
AcDbDictionary
280
     1
281
     1
  3
ACAD_XREC_ROUNDTRIP
360
9445
  0
DICTIONARY
  5
9446
330
93DC
100
AcDbDictionary
280
     1
281
     1
  3
ACAD_XREC_ROUNDTRIP
360
9447
  0
DICTIONARY
  5
943C
330
93D7
100
AcDbDictionary
280
     1
281
     1
  3
ACAD_XREC_ROUNDTRIP
360
943D
  0
DICTIONARY
  5
9430
330
93D1
100
AcDbDictionary
280
     1
281
     1
  3
ACAD_XREC_ROUNDTRIP
360
9431
  0
DICTIONARY
  5
9448
330
93DD
100
AcDbDictionary
280
     1
281
     1
  3
ACAD_XREC_ROUNDTRIP
360
9449
  0
XRECORD
  5
9459
102
{ACAD_REACTORS
330
9458
102
}
330
9458
100
AcDbXrecord
280
     1
102
DISPLAYNAME
  1
Imperial24
102
FLAGS
 90
        0
  0
XRECORD
  5
945B
102
{ACAD_REACTORS
330
945A
102
}
330
945A
100
AcDbXrecord
280
     1
102
SHADEPLOT
 70
     0
102
SHADEPLOTRESLEVEL
 70
     2
102
SHADEPLOTCUSTOMDPI
 70
   300
  0
XRECORD
  5
945D
102
{ACAD_REACTORS
330
945C
102
}
330
945C
100
AcDbXrecord
280
     1
102
SHADEPLOT
 70
     0
102
SHADEPLOTRESLEVEL
 70
     2
102
SHADEPLOTCUSTOMDPI
 70
   300
  0
XRECORD
  5
9422
102
{ACAD_REACTORS
330
93BB
102
}
330
93BB
100
AcDbXrecord
280
     1
102
MATERIAL
148
0.0
149
0.0
149
0.0
 93
        0
 94
      127
282
     0
 72
     0
 77
     0
171
     0
175
     0
179
     0
273
     0
  0
XRECORD
  5
93BD
102
{ACAD_REACTORS
330
93BB
102
}
330
93BB
100
AcDbXrecord
280
     1
270
     1
271
     1
  0
XRECORD
  5
93BC
102
{ACAD_REACTORS
330
93BB
102
}
330
93BB
100
AcDbXrecord
280
     1
270
     1
271
     1
  0
XRECORD
  5
93C0
102
{ACAD_REACTORS
330
93BB
102
}
330
93BB
100
AcDbXrecord
280
     1
270
     1
271
     1
  0
XRECORD
  5
93BF
102
{ACAD_REACTORS
330
93BB
102
}
330
93BB
100
AcDbXrecord
280
     1
270
     1
271
     1
  0
XRECORD
  5
93C1
102
{ACAD_REACTORS
330
93BB
102
}
330
93BB
100
AcDbXrecord
280
     1
270
     1
271
     1
  0
XRECORD
  5
93BE
102
{ACAD_REACTORS
330
93BB
102
}
330
93BB
100
AcDbXrecord
280
     1
270
     1
271
     1
  0
XRECORD
  5
9421
102
{ACAD_REACTORS
330
93B3
102
}
330
93B3
100
AcDbXrecord
280
     1
102
MATERIAL
148
0.0
149
0.0
149
0.0
 93
        0
 94
      127
282
     0
 72
     0
 77
     0
171
     0
175
     0
179
     0
273
     0
  0
XRECORD
  5
93B5
102
{ACAD_REACTORS
330
93B3
102
}
330
93B3
100
AcDbXrecord
280
     1
270
     1
271
     1
  0
XRECORD
  5
93B4
102
{ACAD_REACTORS
330
93B3
102
}
330
93B3
100
AcDbXrecord
280
     1
270
     1
271
     1
  0
XRECORD
  5
93B8
102
{ACAD_REACTORS
330
93B3
102
}
330
93B3
100
AcDbXrecord
280
     1
270
     1
271
     1
  0
XRECORD
  5
93B7
102
{ACAD_REACTORS
330
93B3
102
}
330
93B3
100
AcDbXrecord
280
     1
270
     1
271
     1
  0
XRECORD
  5
93B9
102
{ACAD_REACTORS
330
93B3
102
}
330
93B3
100
AcDbXrecord
280
     1
270
     1
271
     1
  0
XRECORD
  5
93B6
102
{ACAD_REACTORS
330
93B3
102
}
330
93B3
100
AcDbXrecord
280
     1
270
     1
271
     1
  0
XRECORD
  5
9423
102
{ACAD_REACTORS
330
93C3
102
}
330
93C3
100
AcDbXrecord
280
     1
102
MATERIAL
148
0.0
149
0.0
149
0.0
 93
        0
 94
      127
282
     0
 72
     0
 77
     0
171
     0
175
     0
179
     0
273
     0
  0
XRECORD
  5
93C5
102
{ACAD_REACTORS
330
93C3
102
}
330
93C3
100
AcDbXrecord
280
     1
270
     1
271
     1
  0
XRECORD
  5
93C4
102
{ACAD_REACTORS
330
93C3
102
}
330
93C3
100
AcDbXrecord
280
     1
270
     1
271
     1
  0
XRECORD
  5
93C8
102
{ACAD_REACTORS
330
93C3
102
}
330
93C3
100
AcDbXrecord
280
     1
270
     1
271
     1
  0
XRECORD
  5
93C7
102
{ACAD_REACTORS
330
93C3
102
}
330
93C3
100
AcDbXrecord
280
     1
270
     1
271
     1
  0
XRECORD
  5
93C9
102
{ACAD_REACTORS
330
93C3
102
}
330
93C3
100
AcDbXrecord
280
     1
270
     1
271
     1
  0
XRECORD
  5
93C6
102
{ACAD_REACTORS
330
93C3
102
}
330
93C3
100
AcDbXrecord
280
     1
270
     1
271
     1
  0
XRECORD
  5
9457
102
{ACAD_REACTORS
330
9456
102
}
330
9456
100
AcDbXrecord
280
     1
102
DISPLAYNAME
  1
Imperial24
102
FLAGS
 90
        0
  0
CELLSTYLEMAP
  5
941E
102
{ACAD_REACTORS
330
941D
102
}
330
941D
100
AcDbCellStyleMap
 90
        3
300
CELLSTYLE
  1
TABLEFORMAT_BEGIN
 90
        5
170
     1
 91
        0
 92
    32768
 62
   257
 93
        1
300
CONTENTFORMAT
  1
CONTENTFORMAT_BEGIN
 90
        0
 91
        0
 92
      512
 93
        0
300

 40
0.0
140
1.0
 94
        5
 62
     0
340
91C6
144
0.25
309
CONTENTFORMAT_END
171
     0
 94
        0
309
TABLEFORMAT_END
  1
CELLSTYLE_BEGIN
 90
        1
 91
        1
300
_TITLE
309
CELLSTYLE_END
300
CELLSTYLE
  1
TABLEFORMAT_BEGIN
 90
        5
170
     1
 91
        0
 92
        0
 62
   257
 93
        1
300
CONTENTFORMAT
  1
CONTENTFORMAT_BEGIN
 90
        0
 91
        0
 92
      512
 93
        0
300

 40
0.0
140
1.0
 94
        5
 62
     0
340
91C6
144
0.18
309
CONTENTFORMAT_END
171
     0
 94
        0
309
TABLEFORMAT_END
  1
CELLSTYLE_BEGIN
 90
        2
 91
        1
300
_HEADER
309
CELLSTYLE_END
300
CELLSTYLE
  1
TABLEFORMAT_BEGIN
 90
        5
170
     1
 91
        0
 92
        0
 62
   257
 93
        1
300
CONTENTFORMAT
  1
CONTENTFORMAT_BEGIN
 90
        0
 91
        0
 92
      512
 93
        0
300

 40
0.0
140
1.0
 94
        2
 62
     0
340
91C6
144
0.18
309
CONTENTFORMAT_END
171
     0
 94
        0
309
TABLEFORMAT_END
  1
CELLSTYLE_BEGIN
 90
        3
 91
        2
300
_DATA
309
CELLSTYLE_END
  0
XRECORD
  5
9454
102
{ACAD_REACTORS
330
941D
102
}
330
941D
100
AcDbXrecord
280
     1
102
ACAD_ROUNDTRIP_PRE2007_TABLESTYLE
 90
      512
 91
        0
  1

 92
      512
 93
        0
  2

 94
      512
 95
        0
  3

  0
XRECORD
  5
942F
102
{ACAD_REACTORS
330
942E
102
}
330
942E
100
AcDbXrecord
280
     1
102
RTVSPost2010Prop28
280
     1
102
RTVSPost2010PropOp28
 70
     1
102
RTVSPost2010Prop29
280
     1
102
RTVSPost2010PropOp29
 70
     1
102
RTVSPost2010Prop30
280
     0
102
RTVSPost2010PropOp30
 70
     1
102
RTVSPost2010Prop31
280
     0
102
RTVSPost2010PropOp31
 70
     1
102
RTVSPost2010Prop32
280
     0
102
RTVSPost2010PropOp32
 70
     1
102
RTVSPost2010Prop33
280
     0
102
RTVSPost2010PropOp33
 70
     1
102
RTVSPost2010Prop34
280
     0
102
RTVSPost2010PropOp34
 70
     1
102
RTVSPost2010Prop35
280
     0
102
RTVSPost2010PropOp35
 70
     1
102
RTVSPost2010Prop36
280
     0
102
RTVSPost2010PropOp36
 70
     1
102
RTVSPost2010Prop37
 90
       50
102
RTVSPost2010PropOp37
 70
     1
102
RTVSPost2010Prop38
140
0.0
102
RTVSPost2010PropOp38
 70
     1
102
RTVSPost2010Prop39
140
1.0
102
RTVSPost2010PropOp39
 70
     1
102
RTVSPost2010Prop40
 90
        0
102
RTVSPost2010PropOp40
 70
     1
102
RTVSPost2010Prop41ColorIndex
 90
       18
102
RTVSPost2010Prop41ColorRGB
 90
        0
102
RTVSPost2010PropOp41
 70
     1
102
RTVSPost2010Prop42
 90
       50
102
RTVSPost2010PropOp42
 70
     1
102
RTVSPost2010Prop43
 90
        3
102
RTVSPost2010PropOp43
 70
     1
102
RTVSPost2010Prop44ColorIndex
 90
        5
102
RTVSPost2010Prop44ColorRGB
 90
      255
102
RTVSPost2010PropOp44
 70
     1
102
RTVSPost2010Prop45
280
     0
102
RTVSPost2010PropOp45
 70
     1
102
RTVSPost2010Prop46
 90
       50
102
RTVSPost2010PropOp46
 70
     1
102
RTVSPost2010Prop47
 90
       50
102
RTVSPost2010PropOp47
 70
     1
102
RTVSPost2010Prop48
 90
       50
102
RTVSPost2010PropOp48
 70
     1
102
RTVSPost2010Prop49
280
     0
102
RTVSPost2010PropOp49
 70
     1
102
RTVSPost2010Prop50
 90
       50
102
RTVSPost2010PropOp50
 70
     1
102
RTVSPost2010Prop51ColorIndex
 90
      256
102
RTVSPost2010Prop51ColorRGB
 90
-16777216
102
RTVSPost2010PropOp51
 70
     0
102
RTVSPost2010Prop52
140
1.0
102
RTVSPost2010PropOp52
 70
     0
102
RTVSPost2010Prop53
 90
        2
102
RTVSPost2010PropOp53
 70
     1
102
RTVSPost2010Prop54
  1
strokes_ogs.tif
102
RTVSPost2010PropOp54
 70
     1
102
RTVSPost2010Prop55
280
     0
102
RTVSPost2010PropOp55
 70
     1
102
RTVSPost2010Prop56
140
1.0
102
RTVSPost2010PropOp56
 70
     1
102
RTVSPost2010Prop57
140
1.0
102
RTVSPost2010PropOp57
 70
     1
102
RTVSPropertyOp0
 70
     1
102
RTVSPropertyOp1
 70
     1
102
RTVSPropertyOp2
 70
     1
102
RTVSPropertyOp3
 70
     1
102
RTVSPropertyOp4
 70
     1
102
RTVSPropertyOp5
 70
     1
102
RTVSPropertyOp6
 70
     1
102
RTVSPropertyOp7
 70
     1
102
RTVSPropertyOp8
 70
     1
102
RTVSPropertyOp9
 70
     1
102
RTVSPropertyOp10
 70
     1
102
RTVSPropertyOp11
 70
     1
102
RTVSPropertyOp12
 70
     1
102
RTVSPropertyOp13
 70
     1
102
RTVSPropertyOp14
 70
     1
102
RTVSPropertyOp15
 70
     1
102
RTVSPropertyOp16
 70
     1
102
RTVSPropertyOp17
 70
     1
102
RTVSPropertyOp18
 70
     1
102
RTVSPropertyOp19
 70
     1
102
RTVSPropertyOp20
 70
     1
102
RTVSPropertyOp21
 70
     1
102
RTVSPropertyOp22
 70
     1
102
RTVSPropertyOp23
 70
     1
102
RTVSPropertyOp24
 70
     1
102
RTVSPropertyOp25
 70
     1
102
RTVSPropertyOp26
 70
     1
102
RTVSPropertyOp27
 70
     1
102
RTVSPropertyOp28
 70
     1
102
RTVSPropertyOp29
 70
     1
102
RTVSPropertyOp30
 70
     1
102
RTVSPropertyOp31
 70
     1
102
RTVSPropertyOp32
 70
     1
102
RTVSPropertyOp33
 70
     1
102
RTVSPropertyOp34
 70
     1
102
RTVSPropertyOp35
 70
     1
102
RTVSPropertyOp36
 70
     1
102
RTVSPropertyOp37
 70
     1
102
RTVSPropertyOp38
 70
     1
102
RTVSPropertyOp39
 70
     1
102
RTVSPropertyOp40
 70
     1
102
RTVSPropertyOp41
 70
     1
102
RTVSPropertyOp42
 70
     1
102
RTVSPropertyOp43
 70
     1
102
RTVSPropertyOp44
 70
     1
102
RTVSPropertyOp45
 70
     1
102
RTVSPropertyOp46
 70
     1
102
RTVSPropertyOp47
 70
     1
102
RTVSPropertyOp48
 70
     1
102
RTVSPropertyOp49
 70
     1
102
RTVSPropertyOp50
 70
     1
102
RTVSPropertyOp51
 70
     0
102
RTVSPropertyOp52
 70
     0
102
RTVSPropertyOp53
 70
     1
102
RTVSPropertyOp54
 70
     1
102
RTVSPropertyOp55
 70
     1
102
RTVSPropertyOp56
 70
     1
102
RTVSPropertyOp57
 70
     1
102
RTVSPropertyOp58
 70
     1
102
RTVSPropertyOp59
 70
     1
102
RTVSPropertyOp60
 70
     1
102
RTVSPropertyOp61
 70
     1
102
RTVSPropertyOp62
 70
     1
  0
XRECORD
  5
942D
102
{ACAD_REACTORS
330
942C
102
}
330
942C
100
AcDbXrecord
280
     1
102
RTVSPost2010Prop28
280
     0
102
RTVSPost2010PropOp28
 70
     1
102
RTVSPost2010Prop29
280
     1
102
RTVSPost2010PropOp29
 70
     1
102
RTVSPost2010Prop30
280
     1
102
RTVSPost2010PropOp30
 70
     1
102
RTVSPost2010Prop31
280
     0
102
RTVSPost2010PropOp31
 70
     1
102
RTVSPost2010Prop32
280
     0
102
RTVSPost2010PropOp32
 70
     1
102
RTVSPost2010Prop33
280
     0
102
RTVSPost2010PropOp33
 70
     1
102
RTVSPost2010Prop34
280
     0
102
RTVSPost2010PropOp34
 70
     1
102
RTVSPost2010Prop35
280
     0
102
RTVSPost2010PropOp35
 70
     1
102
RTVSPost2010Prop36
280
     0
102
RTVSPost2010PropOp36
 70
     1
102
RTVSPost2010Prop37
 90
       50
102
RTVSPost2010PropOp37
 70
     1
102
RTVSPost2010Prop38
140
0.0
102
RTVSPost2010PropOp38
 70
     1
102
RTVSPost2010Prop39
140
1.0
102
RTVSPost2010PropOp39
 70
     1
102
RTVSPost2010Prop40
 90
        0
102
RTVSPost2010PropOp40
 70
     1
102
RTVSPost2010Prop41ColorIndex
 90
       18
102
RTVSPost2010Prop41ColorRGB
 90
        0
102
RTVSPost2010PropOp41
 70
     1
102
RTVSPost2010Prop42
 90
       50
102
RTVSPost2010PropOp42
 70
     1
102
RTVSPost2010Prop43
 90
        3
102
RTVSPost2010PropOp43
 70
     1
102
RTVSPost2010Prop44ColorIndex
 90
        5
102
RTVSPost2010Prop44ColorRGB
 90
      255
102
RTVSPost2010PropOp44
 70
     1
102
RTVSPost2010Prop45
280
     0
102
RTVSPost2010PropOp45
 70
     1
102
RTVSPost2010Prop46
 90
       50
102
RTVSPost2010PropOp46
 70
     1
102
RTVSPost2010Prop47
 90
       50
102
RTVSPost2010PropOp47
 70
     1
102
RTVSPost2010Prop48
 90
       50
102
RTVSPost2010PropOp48
 70
     1
102
RTVSPost2010Prop49
280
     0
102
RTVSPost2010PropOp49
 70
     1
102
RTVSPost2010Prop50
 90
       50
102
RTVSPost2010PropOp50
 70
     1
102
RTVSPost2010Prop51ColorIndex
 90
      256
102
RTVSPost2010Prop51ColorRGB
 90
-16777216
102
RTVSPost2010PropOp51
 70
     0
102
RTVSPost2010Prop52
140
1.0
102
RTVSPost2010PropOp52
 70
     0
102
RTVSPost2010Prop53
 90
        2
102
RTVSPost2010PropOp53
 70
     1
102
RTVSPost2010Prop54
  1
strokes_ogs.tif
102
RTVSPost2010PropOp54
 70
     1
102
RTVSPost2010Prop55
280
     0
102
RTVSPost2010PropOp55
 70
     1
102
RTVSPost2010Prop56
140
1.0
102
RTVSPost2010PropOp56
 70
     1
102
RTVSPost2010Prop57
140
1.0
102
RTVSPost2010PropOp57
 70
     1
102
RTVSPropertyOp0
 70
     1
102
RTVSPropertyOp1
 70
     1
102
RTVSPropertyOp2
 70
     1
102
RTVSPropertyOp3
 70
     1
102
RTVSPropertyOp4
 70
     1
102
RTVSPropertyOp5
 70
     1
102
RTVSPropertyOp6
 70
     1
102
RTVSPropertyOp7
 70
     1
102
RTVSPropertyOp8
 70
     1
102
RTVSPropertyOp9
 70
     1
102
RTVSPropertyOp10
 70
     1
102
RTVSPropertyOp11
 70
     1
102
RTVSPropertyOp12
 70
     1
102
RTVSPropertyOp13
 70
     1
102
RTVSPropertyOp14
 70
     1
102
RTVSPropertyOp15
 70
     1
102
RTVSPropertyOp16
 70
     1
102
RTVSPropertyOp17
 70
     1
102
RTVSPropertyOp18
 70
     1
102
RTVSPropertyOp19
 70
     1
102
RTVSPropertyOp20
 70
     1
102
RTVSPropertyOp21
 70
     1
102
RTVSPropertyOp22
 70
     1
102
RTVSPropertyOp23
 70
     1
102
RTVSPropertyOp24
 70
     1
102
RTVSPropertyOp25
 70
     1
102
RTVSPropertyOp26
 70
     1
102
RTVSPropertyOp27
 70
     1
102
RTVSPropertyOp28
 70
     1
102
RTVSPropertyOp29
 70
     1
102
RTVSPropertyOp30
 70
     1
102
RTVSPropertyOp31
 70
     1
102
RTVSPropertyOp32
 70
     1
102
RTVSPropertyOp33
 70
     1
102
RTVSPropertyOp34
 70
     1
102
RTVSPropertyOp35
 70
     1
102
RTVSPropertyOp36
 70
     1
102
RTVSPropertyOp37
 70
     1
102
RTVSPropertyOp38
 70
     1
102
RTVSPropertyOp39
 70
     1
102
RTVSPropertyOp40
 70
     1
102
RTVSPropertyOp41
 70
     1
102
RTVSPropertyOp42
 70
     1
102
RTVSPropertyOp43
 70
     1
102
RTVSPropertyOp44
 70
     1
102
RTVSPropertyOp45
 70
     1
102
RTVSPropertyOp46
 70
     1
102
RTVSPropertyOp47
 70
     1
102
RTVSPropertyOp48
 70
     1
102
RTVSPropertyOp49
 70
     1
102
RTVSPropertyOp50
 70
     1
102
RTVSPropertyOp51
 70
     0
102
RTVSPropertyOp52
 70
     0
102
RTVSPropertyOp53
 70
     1
102
RTVSPropertyOp54
 70
     1
102
RTVSPropertyOp55
 70
     1
102
RTVSPropertyOp56
 70
     1
102
RTVSPropertyOp57
 70
     1
102
RTVSPropertyOp58
 70
     1
102
RTVSPropertyOp59
 70
     1
102
RTVSPropertyOp60
 70
     1
102
RTVSPropertyOp61
 70
     1
102
RTVSPropertyOp62
 70
     1
  0
XRECORD
  5
943B
102
{ACAD_REACTORS
330
943A
102
}
330
943A
100
AcDbXrecord
280
     1
102
RTVSPost2010Prop28
280
     0
102
RTVSPost2010PropOp28
 70
     1
102
RTVSPost2010Prop29
280
     1
102
RTVSPost2010PropOp29
 70
     1
102
RTVSPost2010Prop30
280
     1
102
RTVSPost2010PropOp30
 70
     1
102
RTVSPost2010Prop31
280
     0
102
RTVSPost2010PropOp31
 70
     1
102
RTVSPost2010Prop32
280
     0
102
RTVSPost2010PropOp32
 70
     1
102
RTVSPost2010Prop33
280
     0
102
RTVSPost2010PropOp33
 70
     1
102
RTVSPost2010Prop34
280
     0
102
RTVSPost2010PropOp34
 70
     1
102
RTVSPost2010Prop35
280
     0
102
RTVSPost2010PropOp35
 70
     1
102
RTVSPost2010Prop36
280
     0
102
RTVSPost2010PropOp36
 70
     1
102
RTVSPost2010Prop37
 90
       50
102
RTVSPost2010PropOp37
 70
     1
102
RTVSPost2010Prop38
140
0.0
102
RTVSPost2010PropOp38
 70
     1
102
RTVSPost2010Prop39
140
1.0
102
RTVSPost2010PropOp39
 70
     1
102
RTVSPost2010Prop40
 90
        0
102
RTVSPost2010PropOp40
 70
     1
102
RTVSPost2010Prop41ColorIndex
 90
       18
102
RTVSPost2010Prop41ColorRGB
 90
        0
102
RTVSPost2010PropOp41
 70
     1
102
RTVSPost2010Prop42
 90
       50
102
RTVSPost2010PropOp42
 70
     1
102
RTVSPost2010Prop43
 90
        3
102
RTVSPost2010PropOp43
 70
     1
102
RTVSPost2010Prop44ColorIndex
 90
        5
102
RTVSPost2010Prop44ColorRGB
 90
      255
102
RTVSPost2010PropOp44
 70
     1
102
RTVSPost2010Prop45
280
     0
102
RTVSPost2010PropOp45
 70
     1
102
RTVSPost2010Prop46
 90
       50
102
RTVSPost2010PropOp46
 70
     1
102
RTVSPost2010Prop47
 90
       50
102
RTVSPost2010PropOp47
 70
     1
102
RTVSPost2010Prop48
 90
       50
102
RTVSPost2010PropOp48
 70
     1
102
RTVSPost2010Prop49
280
     0
102
RTVSPost2010PropOp49
 70
     1
102
RTVSPost2010Prop50
 90
       50
102
RTVSPost2010PropOp50
 70
     1
102
RTVSPost2010Prop51ColorIndex
 90
      256
102
RTVSPost2010Prop51ColorRGB
 90
-16777216
102
RTVSPost2010PropOp51
 70
     0
102
RTVSPost2010Prop52
140
1.0
102
RTVSPost2010PropOp52
 70
     0
102
RTVSPost2010Prop53
 90
        2
102
RTVSPost2010PropOp53
 70
     1
102
RTVSPost2010Prop54
  1
strokes_ogs.tif
102
RTVSPost2010PropOp54
 70
     1
102
RTVSPost2010Prop55
280
     0
102
RTVSPost2010PropOp55
 70
     1
102
RTVSPost2010Prop56
140
1.0
102
RTVSPost2010PropOp56
 70
     1
102
RTVSPost2010Prop57
140
1.0
102
RTVSPost2010PropOp57
 70
     1
102
RTVSPropertyOp0
 70
     1
102
RTVSPropertyOp1
 70
     1
102
RTVSPropertyOp2
 70
     1
102
RTVSPropertyOp3
 70
     1
102
RTVSPropertyOp4
 70
     1
102
RTVSPropertyOp5
 70
     1
102
RTVSPropertyOp6
 70
     1
102
RTVSPropertyOp7
 70
     1
102
RTVSPropertyOp8
 70
     1
102
RTVSPropertyOp9
 70
     1
102
RTVSPropertyOp10
 70
     1
102
RTVSPropertyOp11
 70
     1
102
RTVSPropertyOp12
 70
     1
102
RTVSPropertyOp13
 70
     1
102
RTVSPropertyOp14
 70
     1
102
RTVSPropertyOp15
 70
     1
102
RTVSPropertyOp16
 70
     1
102
RTVSPropertyOp17
 70
     1
102
RTVSPropertyOp18
 70
     1
102
RTVSPropertyOp19
 70
     1
102
RTVSPropertyOp20
 70
     1
102
RTVSPropertyOp21
 70
     1
102
RTVSPropertyOp22
 70
     1
102
RTVSPropertyOp23
 70
     1
102
RTVSPropertyOp24
 70
     1
102
RTVSPropertyOp25
 70
     1
102
RTVSPropertyOp26
 70
     1
102
RTVSPropertyOp27
 70
     1
102
RTVSPropertyOp28
 70
     1
102
RTVSPropertyOp29
 70
     1
102
RTVSPropertyOp30
 70
     1
102
RTVSPropertyOp31
 70
     1
102
RTVSPropertyOp32
 70
     1
102
RTVSPropertyOp33
 70
     1
102
RTVSPropertyOp34
 70
     1
102
RTVSPropertyOp35
 70
     1
102
RTVSPropertyOp36
 70
     1
102
RTVSPropertyOp37
 70
     1
102
RTVSPropertyOp38
 70
     1
102
RTVSPropertyOp39
 70
     1
102
RTVSPropertyOp40
 70
     1
102
RTVSPropertyOp41
 70
     1
102
RTVSPropertyOp42
 70
     1
102
RTVSPropertyOp43
 70
     1
102
RTVSPropertyOp44
 70
     1
102
RTVSPropertyOp45
 70
     1
102
RTVSPropertyOp46
 70
     1
102
RTVSPropertyOp47
 70
     1
102
RTVSPropertyOp48
 70
     1
102
RTVSPropertyOp49
 70
     1
102
RTVSPropertyOp50
 70
     1
102
RTVSPropertyOp51
 70
     0
102
RTVSPropertyOp52
 70
     0
102
RTVSPropertyOp53
 70
     1
102
RTVSPropertyOp54
 70
     1
102
RTVSPropertyOp55
 70
     1
102
RTVSPropertyOp56
 70
     1
102
RTVSPropertyOp57
 70
     1
102
RTVSPropertyOp58
 70
     1
102
RTVSPropertyOp59
 70
     1
102
RTVSPropertyOp60
 70
     1
102
RTVSPropertyOp61
 70
     1
102
RTVSPropertyOp62
 70
     1
  0
XRECORD
  5
9443
102
{ACAD_REACTORS
330
9442
102
}
330
9442
100
AcDbXrecord
280
     1
102
RTVSPost2010Prop28
280
     0
102
RTVSPost2010PropOp28
 70
     1
102
RTVSPost2010Prop29
280
     1
102
RTVSPost2010PropOp29
 70
     1
102
RTVSPost2010Prop30
280
     1
102
RTVSPost2010PropOp30
 70
     1
102
RTVSPost2010Prop31
280
     0
102
RTVSPost2010PropOp31
 70
     1
102
RTVSPost2010Prop32
280
     0
102
RTVSPost2010PropOp32
 70
     1
102
RTVSPost2010Prop33
280
     0
102
RTVSPost2010PropOp33
 70
     1
102
RTVSPost2010Prop34
280
     0
102
RTVSPost2010PropOp34
 70
     1
102
RTVSPost2010Prop35
280
     0
102
RTVSPost2010PropOp35
 70
     1
102
RTVSPost2010Prop36
280
     0
102
RTVSPost2010PropOp36
 70
     1
102
RTVSPost2010Prop37
 90
       50
102
RTVSPost2010PropOp37
 70
     1
102
RTVSPost2010Prop38
140
0.0
102
RTVSPost2010PropOp38
 70
     1
102
RTVSPost2010Prop39
140
1.0
102
RTVSPost2010PropOp39
 70
     1
102
RTVSPost2010Prop40
 90
        0
102
RTVSPost2010PropOp40
 70
     1
102
RTVSPost2010Prop41ColorIndex
 90
       18
102
RTVSPost2010Prop41ColorRGB
 90
        0
102
RTVSPost2010PropOp41
 70
     1
102
RTVSPost2010Prop42
 90
       50
102
RTVSPost2010PropOp42
 70
     1
102
RTVSPost2010Prop43
 90
        3
102
RTVSPost2010PropOp43
 70
     1
102
RTVSPost2010Prop44ColorIndex
 90
        5
102
RTVSPost2010Prop44ColorRGB
 90
      255
102
RTVSPost2010PropOp44
 70
     1
102
RTVSPost2010Prop45
280
     0
102
RTVSPost2010PropOp45
 70
     1
102
RTVSPost2010Prop46
 90
       50
102
RTVSPost2010PropOp46
 70
     1
102
RTVSPost2010Prop47
 90
       50
102
RTVSPost2010PropOp47
 70
     1
102
RTVSPost2010Prop48
 90
       50
102
RTVSPost2010PropOp48
 70
     1
102
RTVSPost2010Prop49
280
     0
102
RTVSPost2010PropOp49
 70
     1
102
RTVSPost2010Prop50
 90
       50
102
RTVSPost2010PropOp50
 70
     1
102
RTVSPost2010Prop51ColorIndex
 90
      256
102
RTVSPost2010Prop51ColorRGB
 90
-16777216
102
RTVSPost2010PropOp51
 70
     0
102
RTVSPost2010Prop52
140
1.0
102
RTVSPost2010PropOp52
 70
     0
102
RTVSPost2010Prop53
 90
        2
102
RTVSPost2010PropOp53
 70
     1
102
RTVSPost2010Prop54
  1
strokes_ogs.tif
102
RTVSPost2010PropOp54
 70
     1
102
RTVSPost2010Prop55
280
     0
102
RTVSPost2010PropOp55
 70
     1
102
RTVSPost2010Prop56
140
1.0
102
RTVSPost2010PropOp56
 70
     1
102
RTVSPost2010Prop57
140
1.0
102
RTVSPost2010PropOp57
 70
     1
102
RTVSPropertyOp0
 70
     1
102
RTVSPropertyOp1
 70
     1
102
RTVSPropertyOp2
 70
     1
102
RTVSPropertyOp3
 70
     1
102
RTVSPropertyOp4
 70
     1
102
RTVSPropertyOp5
 70
     1
102
RTVSPropertyOp6
 70
     1
102
RTVSPropertyOp7
 70
     1
102
RTVSPropertyOp8
 70
     1
102
RTVSPropertyOp9
 70
     1
102
RTVSPropertyOp10
 70
     1
102
RTVSPropertyOp11
 70
     1
102
RTVSPropertyOp12
 70
     1
102
RTVSPropertyOp13
 70
     1
102
RTVSPropertyOp14
 70
     1
102
RTVSPropertyOp15
 70
     1
102
RTVSPropertyOp16
 70
     1
102
RTVSPropertyOp17
 70
     1
102
RTVSPropertyOp18
 70
     1
102
RTVSPropertyOp19
 70
     1
102
RTVSPropertyOp20
 70
     1
102
RTVSPropertyOp21
 70
     1
102
RTVSPropertyOp22
 70
     1
102
RTVSPropertyOp23
 70
     1
102
RTVSPropertyOp24
 70
     1
102
RTVSPropertyOp25
 70
     1
102
RTVSPropertyOp26
 70
     1
102
RTVSPropertyOp27
 70
     1
102
RTVSPropertyOp28
 70
     1
102
RTVSPropertyOp29
 70
     1
102
RTVSPropertyOp30
 70
     1
102
RTVSPropertyOp31
 70
     1
102
RTVSPropertyOp32
 70
     1
102
RTVSPropertyOp33
 70
     1
102
RTVSPropertyOp34
 70
     1
102
RTVSPropertyOp35
 70
     1
102
RTVSPropertyOp36
 70
     1
102
RTVSPropertyOp37
 70
     1
102
RTVSPropertyOp38
 70
     1
102
RTVSPropertyOp39
 70
     1
102
RTVSPropertyOp40
 70
     1
102
RTVSPropertyOp41
 70
     1
102
RTVSPropertyOp42
 70
     1
102
RTVSPropertyOp43
 70
     1
102
RTVSPropertyOp44
 70
     1
102
RTVSPropertyOp45
 70
     1
102
RTVSPropertyOp46
 70
     1
102
RTVSPropertyOp47
 70
     1
102
RTVSPropertyOp48
 70
     1
102
RTVSPropertyOp49
 70
     1
102
RTVSPropertyOp50
 70
     1
102
RTVSPropertyOp51
 70
     0
102
RTVSPropertyOp52
 70
     0
102
RTVSPropertyOp53
 70
     1
102
RTVSPropertyOp54
 70
     1
102
RTVSPropertyOp55
 70
     1
102
RTVSPropertyOp56
 70
     1
102
RTVSPropertyOp57
 70
     1
102
RTVSPropertyOp58
 70
     1
102
RTVSPropertyOp59
 70
     1
102
RTVSPropertyOp60
 70
     1
102
RTVSPropertyOp61
 70
     1
102
RTVSPropertyOp62
 70
     1
  0
XRECORD
  5
9435
102
{ACAD_REACTORS
330
9434
102
}
330
9434
100
AcDbXrecord
280
     1
102
RTVSPost2010Prop28
280
     0
102
RTVSPost2010PropOp28
 70
     1
102
RTVSPost2010Prop29
280
     1
102
RTVSPost2010PropOp29
 70
     1
102
RTVSPost2010Prop30
280
     1
102
RTVSPost2010PropOp30
 70
     1
102
RTVSPost2010Prop31
280
     0
102
RTVSPost2010PropOp31
 70
     1
102
RTVSPost2010Prop32
280
     0
102
RTVSPost2010PropOp32
 70
     1
102
RTVSPost2010Prop33
280
     0
102
RTVSPost2010PropOp33
 70
     1
102
RTVSPost2010Prop34
280
     0
102
RTVSPost2010PropOp34
 70
     1
102
RTVSPost2010Prop35
280
     0
102
RTVSPost2010PropOp35
 70
     1
102
RTVSPost2010Prop36
280
     0
102
RTVSPost2010PropOp36
 70
     1
102
RTVSPost2010Prop37
 90
       50
102
RTVSPost2010PropOp37
 70
     1
102
RTVSPost2010Prop38
140
0.0
102
RTVSPost2010PropOp38
 70
     1
102
RTVSPost2010Prop39
140
1.0
102
RTVSPost2010PropOp39
 70
     1
102
RTVSPost2010Prop40
 90
        0
102
RTVSPost2010PropOp40
 70
     1
102
RTVSPost2010Prop41ColorIndex
 90
       18
102
RTVSPost2010Prop41ColorRGB
 90
        0
102
RTVSPost2010PropOp41
 70
     1
102
RTVSPost2010Prop42
 90
       50
102
RTVSPost2010PropOp42
 70
     1
102
RTVSPost2010Prop43
 90
        3
102
RTVSPost2010PropOp43
 70
     1
102
RTVSPost2010Prop44ColorIndex
 90
        5
102
RTVSPost2010Prop44ColorRGB
 90
      255
102
RTVSPost2010PropOp44
 70
     1
102
RTVSPost2010Prop45
280
     0
102
RTVSPost2010PropOp45
 70
     1
102
RTVSPost2010Prop46
 90
       50
102
RTVSPost2010PropOp46
 70
     1
102
RTVSPost2010Prop47
 90
       50
102
RTVSPost2010PropOp47
 70
     1
102
RTVSPost2010Prop48
 90
       50
102
RTVSPost2010PropOp48
 70
     1
102
RTVSPost2010Prop49
280
     0
102
RTVSPost2010PropOp49
 70
     1
102
RTVSPost2010Prop50
 90
       50
102
RTVSPost2010PropOp50
 70
     1
102
RTVSPost2010Prop51ColorIndex
 90
      256
102
RTVSPost2010Prop51ColorRGB
 90
-16777216
102
RTVSPost2010PropOp51
 70
     0
102
RTVSPost2010Prop52
140
1.0
102
RTVSPost2010PropOp52
 70
     0
102
RTVSPost2010Prop53
 90
        2
102
RTVSPost2010PropOp53
 70
     1
102
RTVSPost2010Prop54
  1
strokes_ogs.tif
102
RTVSPost2010PropOp54
 70
     1
102
RTVSPost2010Prop55
280
     0
102
RTVSPost2010PropOp55
 70
     1
102
RTVSPost2010Prop56
140
1.0
102
RTVSPost2010PropOp56
 70
     1
102
RTVSPost2010Prop57
140
1.0
102
RTVSPost2010PropOp57
 70
     1
102
RTVSPropertyOp0
 70
     1
102
RTVSPropertyOp1
 70
     1
102
RTVSPropertyOp2
 70
     1
102
RTVSPropertyOp3
 70
     1
102
RTVSPropertyOp4
 70
     1
102
RTVSPropertyOp5
 70
     1
102
RTVSPropertyOp6
 70
     1
102
RTVSPropertyOp7
 70
     1
102
RTVSPropertyOp8
 70
     1
102
RTVSPropertyOp9
 70
     1
102
RTVSPropertyOp10
 70
     1
102
RTVSPropertyOp11
 70
     1
102
RTVSPropertyOp12
 70
     1
102
RTVSPropertyOp13
 70
     1
102
RTVSPropertyOp14
 70
     1
102
RTVSPropertyOp15
 70
     1
102
RTVSPropertyOp16
 70
     1
102
RTVSPropertyOp17
 70
     1
102
RTVSPropertyOp18
 70
     1
102
RTVSPropertyOp19
 70
     1
102
RTVSPropertyOp20
 70
     1
102
RTVSPropertyOp21
 70
     1
102
RTVSPropertyOp22
 70
     1
102
RTVSPropertyOp23
 70
     1
102
RTVSPropertyOp24
 70
     1
102
RTVSPropertyOp25
 70
     1
102
RTVSPropertyOp26
 70
     1
102
RTVSPropertyOp27
 70
     1
102
RTVSPropertyOp28
 70
     1
102
RTVSPropertyOp29
 70
     1
102
RTVSPropertyOp30
 70
     1
102
RTVSPropertyOp31
 70
     1
102
RTVSPropertyOp32
 70
     1
102
RTVSPropertyOp33
 70
     1
102
RTVSPropertyOp34
 70
     1
102
RTVSPropertyOp35
 70
     1
102
RTVSPropertyOp36
 70
     1
102
RTVSPropertyOp37
 70
     1
102
RTVSPropertyOp38
 70
     1
102
RTVSPropertyOp39
 70
     1
102
RTVSPropertyOp40
 70
     1
102
RTVSPropertyOp41
 70
     1
102
RTVSPropertyOp42
 70
     1
102
RTVSPropertyOp43
 70
     1
102
RTVSPropertyOp44
 70
     1
102
RTVSPropertyOp45
 70
     1
102
RTVSPropertyOp46
 70
     1
102
RTVSPropertyOp47
 70
     1
102
RTVSPropertyOp48
 70
     1
102
RTVSPropertyOp49
 70
     1
102
RTVSPropertyOp50
 70
     1
102
RTVSPropertyOp51
 70
     0
102
RTVSPropertyOp52
 70
     0
102
RTVSPropertyOp53
 70
     1
102
RTVSPropertyOp54
 70
     1
102
RTVSPropertyOp55
 70
     1
102
RTVSPropertyOp56
 70
     1
102
RTVSPropertyOp57
 70
     1
102
RTVSPropertyOp58
 70
     1
102
RTVSPropertyOp59
 70
     1
102
RTVSPropertyOp60
 70
     1
102
RTVSPropertyOp61
 70
     1
102
RTVSPropertyOp62
 70
     1
  0
XRECORD
  5
9439
102
{ACAD_REACTORS
330
9438
102
}
330
9438
100
AcDbXrecord
280
     1
102
RTVSPost2010Prop28
280
     0
102
RTVSPost2010PropOp28
 70
     1
102
RTVSPost2010Prop29
280
     1
102
RTVSPost2010PropOp29
 70
     1
102
RTVSPost2010Prop30
280
     1
102
RTVSPost2010PropOp30
 70
     1
102
RTVSPost2010Prop31
280
     0
102
RTVSPost2010PropOp31
 70
     1
102
RTVSPost2010Prop32
280
     0
102
RTVSPost2010PropOp32
 70
     1
102
RTVSPost2010Prop33
280
     0
102
RTVSPost2010PropOp33
 70
     1
102
RTVSPost2010Prop34
280
     0
102
RTVSPost2010PropOp34
 70
     1
102
RTVSPost2010Prop35
280
     0
102
RTVSPost2010PropOp35
 70
     1
102
RTVSPost2010Prop36
280
     0
102
RTVSPost2010PropOp36
 70
     1
102
RTVSPost2010Prop37
 90
       50
102
RTVSPost2010PropOp37
 70
     1
102
RTVSPost2010Prop38
140
0.0
102
RTVSPost2010PropOp38
 70
     1
102
RTVSPost2010Prop39
140
1.0
102
RTVSPost2010PropOp39
 70
     1
102
RTVSPost2010Prop40
 90
        0
102
RTVSPost2010PropOp40
 70
     1
102
RTVSPost2010Prop41ColorIndex
 90
       18
102
RTVSPost2010Prop41ColorRGB
 90
        0
102
RTVSPost2010PropOp41
 70
     1
102
RTVSPost2010Prop42
 90
       50
102
RTVSPost2010PropOp42
 70
     1
102
RTVSPost2010Prop43
 90
        3
102
RTVSPost2010PropOp43
 70
     1
102
RTVSPost2010Prop44ColorIndex
 90
        5
102
RTVSPost2010Prop44ColorRGB
 90
      255
102
RTVSPost2010PropOp44
 70
     1
102
RTVSPost2010Prop45
280
     0
102
RTVSPost2010PropOp45
 70
     1
102
RTVSPost2010Prop46
 90
       50
102
RTVSPost2010PropOp46
 70
     1
102
RTVSPost2010Prop47
 90
       50
102
RTVSPost2010PropOp47
 70
     1
102
RTVSPost2010Prop48
 90
       50
102
RTVSPost2010PropOp48
 70
     1
102
RTVSPost2010Prop49
280
     0
102
RTVSPost2010PropOp49
 70
     1
102
RTVSPost2010Prop50
 90
       50
102
RTVSPost2010PropOp50
 70
     1
102
RTVSPost2010Prop51ColorIndex
 90
      256
102
RTVSPost2010Prop51ColorRGB
 90
-16777216
102
RTVSPost2010PropOp51
 70
     0
102
RTVSPost2010Prop52
140
1.0
102
RTVSPost2010PropOp52
 70
     0
102
RTVSPost2010Prop53
 90
        2
102
RTVSPost2010PropOp53
 70
     1
102
RTVSPost2010Prop54
  1
strokes_ogs.tif
102
RTVSPost2010PropOp54
 70
     1
102
RTVSPost2010Prop55
280
     0
102
RTVSPost2010PropOp55
 70
     1
102
RTVSPost2010Prop56
140
1.0
102
RTVSPost2010PropOp56
 70
     1
102
RTVSPost2010Prop57
140
1.0
102
RTVSPost2010PropOp57
 70
     1
102
RTVSPropertyOp0
 70
     1
102
RTVSPropertyOp1
 70
     1
102
RTVSPropertyOp2
 70
     1
102
RTVSPropertyOp3
 70
     1
102
RTVSPropertyOp4
 70
     1
102
RTVSPropertyOp5
 70
     1
102
RTVSPropertyOp6
 70
     1
102
RTVSPropertyOp7
 70
     1
102
RTVSPropertyOp8
 70
     1
102
RTVSPropertyOp9
 70
     1
102
RTVSPropertyOp10
 70
     1
102
RTVSPropertyOp11
 70
     1
102
RTVSPropertyOp12
 70
     1
102
RTVSPropertyOp13
 70
     1
102
RTVSPropertyOp14
 70
     1
102
RTVSPropertyOp15
 70
     1
102
RTVSPropertyOp16
 70
     1
102
RTVSPropertyOp17
 70
     1
102
RTVSPropertyOp18
 70
     1
102
RTVSPropertyOp19
 70
     1
102
RTVSPropertyOp20
 70
     1
102
RTVSPropertyOp21
 70
     1
102
RTVSPropertyOp22
 70
     1
102
RTVSPropertyOp23
 70
     1
102
RTVSPropertyOp24
 70
     1
102
RTVSPropertyOp25
 70
     1
102
RTVSPropertyOp26
 70
     1
102
RTVSPropertyOp27
 70
     1
102
RTVSPropertyOp28
 70
     1
102
RTVSPropertyOp29
 70
     1
102
RTVSPropertyOp30
 70
     1
102
RTVSPropertyOp31
 70
     1
102
RTVSPropertyOp32
 70
     1
102
RTVSPropertyOp33
 70
     1
102
RTVSPropertyOp34
 70
     1
102
RTVSPropertyOp35
 70
     1
102
RTVSPropertyOp36
 70
     1
102
RTVSPropertyOp37
 70
     1
102
RTVSPropertyOp38
 70
     1
102
RTVSPropertyOp39
 70
     1
102
RTVSPropertyOp40
 70
     1
102
RTVSPropertyOp41
 70
     1
102
RTVSPropertyOp42
 70
     1
102
RTVSPropertyOp43
 70
     1
102
RTVSPropertyOp44
 70
     1
102
RTVSPropertyOp45
 70
     1
102
RTVSPropertyOp46
 70
     1
102
RTVSPropertyOp47
 70
     1
102
RTVSPropertyOp48
 70
     1
102
RTVSPropertyOp49
 70
     1
102
RTVSPropertyOp50
 70
     1
102
RTVSPropertyOp51
 70
     0
102
RTVSPropertyOp52
 70
     0
102
RTVSPropertyOp53
 70
     1
102
RTVSPropertyOp54
 70
     1
102
RTVSPropertyOp55
 70
     1
102
RTVSPropertyOp56
 70
     1
102
RTVSPropertyOp57
 70
     1
102
RTVSPropertyOp58
 70
     1
102
RTVSPropertyOp59
 70
     1
102
RTVSPropertyOp60
 70
     1
102
RTVSPropertyOp61
 70
     1
102
RTVSPropertyOp62
 70
     1
  0
XRECORD
  5
9453
102
{ACAD_REACTORS
330
9452
102
}
330
9452
100
AcDbXrecord
280
     1
102
RTVSPost2010Prop28
280
     0
102
RTVSPost2010PropOp28
 70
     1
102
RTVSPost2010Prop29
280
     1
102
RTVSPost2010PropOp29
 70
     1
102
RTVSPost2010Prop30
280
     1
102
RTVSPost2010PropOp30
 70
     1
102
RTVSPost2010Prop31
280
     0
102
RTVSPost2010PropOp31
 70
     1
102
RTVSPost2010Prop32
280
     0
102
RTVSPost2010PropOp32
 70
     1
102
RTVSPost2010Prop33
280
     0
102
RTVSPost2010PropOp33
 70
     1
102
RTVSPost2010Prop34
280
     0
102
RTVSPost2010PropOp34
 70
     1
102
RTVSPost2010Prop35
280
     0
102
RTVSPost2010PropOp35
 70
     1
102
RTVSPost2010Prop36
280
     0
102
RTVSPost2010PropOp36
 70
     1
102
RTVSPost2010Prop37
 90
       50
102
RTVSPost2010PropOp37
 70
     0
102
RTVSPost2010Prop38
140
0.0
102
RTVSPost2010PropOp38
 70
     0
102
RTVSPost2010Prop39
140
1.0
102
RTVSPost2010PropOp39
 70
     0
102
RTVSPost2010Prop40
 90
        0
102
RTVSPost2010PropOp40
 70
     0
102
RTVSPost2010Prop41ColorIndex
 90
       18
102
RTVSPost2010Prop41ColorRGB
 90
        0
102
RTVSPost2010PropOp41
 70
     0
102
RTVSPost2010Prop42
 90
       50
102
RTVSPost2010PropOp42
 70
     0
102
RTVSPost2010Prop43
 90
        3
102
RTVSPost2010PropOp43
 70
     0
102
RTVSPost2010Prop44ColorIndex
 90
        5
102
RTVSPost2010Prop44ColorRGB
 90
      255
102
RTVSPost2010PropOp44
 70
     0
102
RTVSPost2010Prop45
280
     0
102
RTVSPost2010PropOp45
 70
     1
102
RTVSPost2010Prop46
 90
       50
102
RTVSPost2010PropOp46
 70
     0
102
RTVSPost2010Prop47
 90
       50
102
RTVSPost2010PropOp47
 70
     0
102
RTVSPost2010Prop48
 90
       50
102
RTVSPost2010PropOp48
 70
     0
102
RTVSPost2010Prop49
280
     0
102
RTVSPost2010PropOp49
 70
     1
102
RTVSPost2010Prop50
 90
       50
102
RTVSPost2010PropOp50
 70
     0
102
RTVSPost2010Prop51ColorIndex
 90
      256
102
RTVSPost2010Prop51ColorRGB
 90
-16777216
102
RTVSPost2010PropOp51
 70
     0
102
RTVSPost2010Prop52
140
1.0
102
RTVSPost2010PropOp52
 70
     0
102
RTVSPost2010Prop53
 90
        2
102
RTVSPost2010PropOp53
 70
     0
102
RTVSPost2010Prop54
  1
strokes_ogs.tif
102
RTVSPost2010PropOp54
 70
     0
102
RTVSPost2010Prop55
280
     0
102
RTVSPost2010PropOp55
 70
     1
102
RTVSPost2010Prop56
140
1.0
102
RTVSPost2010PropOp56
 70
     0
102
RTVSPost2010Prop57
140
1.0
102
RTVSPost2010PropOp57
 70
     0
102
RTVSPropertyOp0
 70
     0
102
RTVSPropertyOp1
 70
     0
102
RTVSPropertyOp2
 70
     0
102
RTVSPropertyOp3
 70
     0
102
RTVSPropertyOp4
 70
     0
102
RTVSPropertyOp5
 70
     0
102
RTVSPropertyOp6
 70
     0
102
RTVSPropertyOp7
 70
     0
102
RTVSPropertyOp8
 70
     0
102
RTVSPropertyOp9
 70
     0
102
RTVSPropertyOp10
 70
     0
102
RTVSPropertyOp11
 70
     0
102
RTVSPropertyOp12
 70
     0
102
RTVSPropertyOp13
 70
     0
102
RTVSPropertyOp14
 70
     2
102
RTVSPropertyOp15
 70
     0
102
RTVSPropertyOp16
 70
     0
102
RTVSPropertyOp17
 70
     0
102
RTVSPropertyOp18
 70
     0
102
RTVSPropertyOp19
 70
     0
102
RTVSPropertyOp20
 70
     0
102
RTVSPropertyOp21
 70
     0
102
RTVSPropertyOp22
 70
     0
102
RTVSPropertyOp23
 70
     0
102
RTVSPropertyOp24
 70
     0
102
RTVSPropertyOp25
 70
     0
102
RTVSPropertyOp26
 70
     0
102
RTVSPropertyOp27
 70
     0
102
RTVSPropertyOp28
 70
     1
102
RTVSPropertyOp29
 70
     1
102
RTVSPropertyOp30
 70
     1
102
RTVSPropertyOp31
 70
     1
102
RTVSPropertyOp32
 70
     1
102
RTVSPropertyOp33
 70
     1
102
RTVSPropertyOp34
 70
     1
102
RTVSPropertyOp35
 70
     1
102
RTVSPropertyOp36
 70
     1
102
RTVSPropertyOp37
 70
     0
102
RTVSPropertyOp38
 70
     0
102
RTVSPropertyOp39
 70
     0
102
RTVSPropertyOp40
 70
     0
102
RTVSPropertyOp41
 70
     0
102
RTVSPropertyOp42
 70
     0
102
RTVSPropertyOp43
 70
     0
102
RTVSPropertyOp44
 70
     0
102
RTVSPropertyOp45
 70
     1
102
RTVSPropertyOp46
 70
     0
102
RTVSPropertyOp47
 70
     0
102
RTVSPropertyOp48
 70
     0
102
RTVSPropertyOp49
 70
     1
102
RTVSPropertyOp50
 70
     0
102
RTVSPropertyOp51
 70
     0
102
RTVSPropertyOp52
 70
     0
102
RTVSPropertyOp53
 70
     0
102
RTVSPropertyOp54
 70
     0
102
RTVSPropertyOp55
 70
     1
102
RTVSPropertyOp56
 70
     0
102
RTVSPropertyOp57
 70
     0
102
RTVSPropertyOp58
 70
     0
102
RTVSPropertyOp59
 70
     0
102
RTVSPropertyOp60
 70
     0
102
RTVSPropertyOp61
 70
     0
102
RTVSPropertyOp62
 70
     0
  0
XRECORD
  5
9441
102
{ACAD_REACTORS
330
9440
102
}
330
9440
100
AcDbXrecord
280
     1
102
RTVSPost2010Prop28
280
     0
102
RTVSPost2010PropOp28
 70
     1
102
RTVSPost2010Prop29
280
     1
102
RTVSPost2010PropOp29
 70
     1
102
RTVSPost2010Prop30
280
     1
102
RTVSPost2010PropOp30
 70
     1
102
RTVSPost2010Prop31
280
     0
102
RTVSPost2010PropOp31
 70
     1
102
RTVSPost2010Prop32
280
     0
102
RTVSPost2010PropOp32
 70
     1
102
RTVSPost2010Prop33
280
     0
102
RTVSPost2010PropOp33
 70
     1
102
RTVSPost2010Prop34
280
     0
102
RTVSPost2010PropOp34
 70
     1
102
RTVSPost2010Prop35
280
     0
102
RTVSPost2010PropOp35
 70
     1
102
RTVSPost2010Prop36
280
     0
102
RTVSPost2010PropOp36
 70
     1
102
RTVSPost2010Prop37
 90
       50
102
RTVSPost2010PropOp37
 70
     1
102
RTVSPost2010Prop38
140
0.0
102
RTVSPost2010PropOp38
 70
     1
102
RTVSPost2010Prop39
140
1.0
102
RTVSPost2010PropOp39
 70
     1
102
RTVSPost2010Prop40
 90
        0
102
RTVSPost2010PropOp40
 70
     1
102
RTVSPost2010Prop41ColorIndex
 90
       18
102
RTVSPost2010Prop41ColorRGB
 90
        0
102
RTVSPost2010PropOp41
 70
     1
102
RTVSPost2010Prop42
 90
       50
102
RTVSPost2010PropOp42
 70
     1
102
RTVSPost2010Prop43
 90
        3
102
RTVSPost2010PropOp43
 70
     1
102
RTVSPost2010Prop44ColorIndex
 90
        5
102
RTVSPost2010Prop44ColorRGB
 90
      255
102
RTVSPost2010PropOp44
 70
     1
102
RTVSPost2010Prop45
280
     0
102
RTVSPost2010PropOp45
 70
     1
102
RTVSPost2010Prop46
 90
       50
102
RTVSPost2010PropOp46
 70
     1
102
RTVSPost2010Prop47
 90
       50
102
RTVSPost2010PropOp47
 70
     1
102
RTVSPost2010Prop48
 90
       50
102
RTVSPost2010PropOp48
 70
     1
102
RTVSPost2010Prop49
280
     0
102
RTVSPost2010PropOp49
 70
     1
102
RTVSPost2010Prop50
 90
       50
102
RTVSPost2010PropOp50
 70
     1
102
RTVSPost2010Prop51ColorIndex
 90
      256
102
RTVSPost2010Prop51ColorRGB
 90
-16777216
102
RTVSPost2010PropOp51
 70
     0
102
RTVSPost2010Prop52
140
1.0
102
RTVSPost2010PropOp52
 70
     0
102
RTVSPost2010Prop53
 90
        2
102
RTVSPost2010PropOp53
 70
     1
102
RTVSPost2010Prop54
  1
strokes_ogs.tif
102
RTVSPost2010PropOp54
 70
     1
102
RTVSPost2010Prop55
280
     0
102
RTVSPost2010PropOp55
 70
     1
102
RTVSPost2010Prop56
140
1.0
102
RTVSPost2010PropOp56
 70
     1
102
RTVSPost2010Prop57
140
1.0
102
RTVSPost2010PropOp57
 70
     1
102
RTVSPropertyOp0
 70
     1
102
RTVSPropertyOp1
 70
     1
102
RTVSPropertyOp2
 70
     1
102
RTVSPropertyOp3
 70
     1
102
RTVSPropertyOp4
 70
     1
102
RTVSPropertyOp5
 70
     1
102
RTVSPropertyOp6
 70
     1
102
RTVSPropertyOp7
 70
     1
102
RTVSPropertyOp8
 70
     1
102
RTVSPropertyOp9
 70
     1
102
RTVSPropertyOp10
 70
     1
102
RTVSPropertyOp11
 70
     1
102
RTVSPropertyOp12
 70
     1
102
RTVSPropertyOp13
 70
     1
102
RTVSPropertyOp14
 70
     1
102
RTVSPropertyOp15
 70
     1
102
RTVSPropertyOp16
 70
     1
102
RTVSPropertyOp17
 70
     1
102
RTVSPropertyOp18
 70
     1
102
RTVSPropertyOp19
 70
     1
102
RTVSPropertyOp20
 70
     1
102
RTVSPropertyOp21
 70
     1
102
RTVSPropertyOp22
 70
     1
102
RTVSPropertyOp23
 70
     1
102
RTVSPropertyOp24
 70
     1
102
RTVSPropertyOp25
 70
     1
102
RTVSPropertyOp26
 70
     1
102
RTVSPropertyOp27
 70
     1
102
RTVSPropertyOp28
 70
     1
102
RTVSPropertyOp29
 70
     1
102
RTVSPropertyOp30
 70
     1
102
RTVSPropertyOp31
 70
     1
102
RTVSPropertyOp32
 70
     1
102
RTVSPropertyOp33
 70
     1
102
RTVSPropertyOp34
 70
     1
102
RTVSPropertyOp35
 70
     1
102
RTVSPropertyOp36
 70
     1
102
RTVSPropertyOp37
 70
     1
102
RTVSPropertyOp38
 70
     1
102
RTVSPropertyOp39
 70
     1
102
RTVSPropertyOp40
 70
     1
102
RTVSPropertyOp41
 70
     1
102
RTVSPropertyOp42
 70
     1
102
RTVSPropertyOp43
 70
     1
102
RTVSPropertyOp44
 70
     1
102
RTVSPropertyOp45
 70
     1
102
RTVSPropertyOp46
 70
     1
102
RTVSPropertyOp47
 70
     1
102
RTVSPropertyOp48
 70
     1
102
RTVSPropertyOp49
 70
     1
102
RTVSPropertyOp50
 70
     1
102
RTVSPropertyOp51
 70
     0
102
RTVSPropertyOp52
 70
     0
102
RTVSPropertyOp53
 70
     1
102
RTVSPropertyOp54
 70
     1
102
RTVSPropertyOp55
 70
     1
102
RTVSPropertyOp56
 70
     1
102
RTVSPropertyOp57
 70
     1
102
RTVSPropertyOp58
 70
     1
102
RTVSPropertyOp59
 70
     1
102
RTVSPropertyOp60
 70
     1
102
RTVSPropertyOp61
 70
     1
102
RTVSPropertyOp62
 70
     1
  0
XRECORD
  5
9425
102
{ACAD_REACTORS
330
9424
102
}
330
9424
100
AcDbXrecord
280
     1
102
RTVSPost2010Prop28
280
     0
102
RTVSPost2010PropOp28
 70
     1
102
RTVSPost2010Prop29
280
     1
102
RTVSPost2010PropOp29
 70
     1
102
RTVSPost2010Prop30
280
     1
102
RTVSPost2010PropOp30
 70
     1
102
RTVSPost2010Prop31
280
     0
102
RTVSPost2010PropOp31
 70
     1
102
RTVSPost2010Prop32
280
     0
102
RTVSPost2010PropOp32
 70
     1
102
RTVSPost2010Prop33
280
     0
102
RTVSPost2010PropOp33
 70
     1
102
RTVSPost2010Prop34
280
     0
102
RTVSPost2010PropOp34
 70
     1
102
RTVSPost2010Prop35
280
     0
102
RTVSPost2010PropOp35
 70
     1
102
RTVSPost2010Prop36
280
     0
102
RTVSPost2010PropOp36
 70
     1
102
RTVSPost2010Prop37
 90
       50
102
RTVSPost2010PropOp37
 70
     1
102
RTVSPost2010Prop38
140
0.0
102
RTVSPost2010PropOp38
 70
     1
102
RTVSPost2010Prop39
140
1.0
102
RTVSPost2010PropOp39
 70
     1
102
RTVSPost2010Prop40
 90
        0
102
RTVSPost2010PropOp40
 70
     1
102
RTVSPost2010Prop41ColorIndex
 90
       18
102
RTVSPost2010Prop41ColorRGB
 90
        0
102
RTVSPost2010PropOp41
 70
     1
102
RTVSPost2010Prop42
 90
       50
102
RTVSPost2010PropOp42
 70
     1
102
RTVSPost2010Prop43
 90
        3
102
RTVSPost2010PropOp43
 70
     1
102
RTVSPost2010Prop44ColorIndex
 90
        5
102
RTVSPost2010Prop44ColorRGB
 90
      255
102
RTVSPost2010PropOp44
 70
     1
102
RTVSPost2010Prop45
280
     0
102
RTVSPost2010PropOp45
 70
     1
102
RTVSPost2010Prop46
 90
       50
102
RTVSPost2010PropOp46
 70
     1
102
RTVSPost2010Prop47
 90
       50
102
RTVSPost2010PropOp47
 70
     1
102
RTVSPost2010Prop48
 90
       50
102
RTVSPost2010PropOp48
 70
     1
102
RTVSPost2010Prop49
280
     0
102
RTVSPost2010PropOp49
 70
     1
102
RTVSPost2010Prop50
 90
       50
102
RTVSPost2010PropOp50
 70
     1
102
RTVSPost2010Prop51ColorIndex
 90
      256
102
RTVSPost2010Prop51ColorRGB
 90
-16777216
102
RTVSPost2010PropOp51
 70
     0
102
RTVSPost2010Prop52
140
1.0
102
RTVSPost2010PropOp52
 70
     0
102
RTVSPost2010Prop53
 90
        2
102
RTVSPost2010PropOp53
 70
     1
102
RTVSPost2010Prop54
  1
strokes_ogs.tif
102
RTVSPost2010PropOp54
 70
     1
102
RTVSPost2010Prop55
280
     0
102
RTVSPost2010PropOp55
 70
     1
102
RTVSPost2010Prop56
140
1.0
102
RTVSPost2010PropOp56
 70
     1
102
RTVSPost2010Prop57
140
1.0
102
RTVSPost2010PropOp57
 70
     1
102
RTVSPropertyOp0
 70
     1
102
RTVSPropertyOp1
 70
     1
102
RTVSPropertyOp2
 70
     1
102
RTVSPropertyOp3
 70
     1
102
RTVSPropertyOp4
 70
     1
102
RTVSPropertyOp5
 70
     1
102
RTVSPropertyOp6
 70
     1
102
RTVSPropertyOp7
 70
     1
102
RTVSPropertyOp8
 70
     1
102
RTVSPropertyOp9
 70
     1
102
RTVSPropertyOp10
 70
     1
102
RTVSPropertyOp11
 70
     1
102
RTVSPropertyOp12
 70
     1
102
RTVSPropertyOp13
 70
     1
102
RTVSPropertyOp14
 70
     1
102
RTVSPropertyOp15
 70
     1
102
RTVSPropertyOp16
 70
     1
102
RTVSPropertyOp17
 70
     1
102
RTVSPropertyOp18
 70
     1
102
RTVSPropertyOp19
 70
     1
102
RTVSPropertyOp20
 70
     1
102
RTVSPropertyOp21
 70
     1
102
RTVSPropertyOp22
 70
     1
102
RTVSPropertyOp23
 70
     1
102
RTVSPropertyOp24
 70
     1
102
RTVSPropertyOp25
 70
     1
102
RTVSPropertyOp26
 70
     1
102
RTVSPropertyOp27
 70
     1
102
RTVSPropertyOp28
 70
     1
102
RTVSPropertyOp29
 70
     1
102
RTVSPropertyOp30
 70
     1
102
RTVSPropertyOp31
 70
     1
102
RTVSPropertyOp32
 70
     1
102
RTVSPropertyOp33
 70
     1
102
RTVSPropertyOp34
 70
     1
102
RTVSPropertyOp35
 70
     1
102
RTVSPropertyOp36
 70
     1
102
RTVSPropertyOp37
 70
     1
102
RTVSPropertyOp38
 70
     1
102
RTVSPropertyOp39
 70
     1
102
RTVSPropertyOp40
 70
     1
102
RTVSPropertyOp41
 70
     1
102
RTVSPropertyOp42
 70
     1
102
RTVSPropertyOp43
 70
     1
102
RTVSPropertyOp44
 70
     1
102
RTVSPropertyOp45
 70
     1
102
RTVSPropertyOp46
 70
     1
102
RTVSPropertyOp47
 70
     1
102
RTVSPropertyOp48
 70
     1
102
RTVSPropertyOp49
 70
     1
102
RTVSPropertyOp50
 70
     1
102
RTVSPropertyOp51
 70
     0
102
RTVSPropertyOp52
 70
     0
102
RTVSPropertyOp53
 70
     1
102
RTVSPropertyOp54
 70
     1
102
RTVSPropertyOp55
 70
     1
102
RTVSPropertyOp56
 70
     1
102
RTVSPropertyOp57
 70
     1
102
RTVSPropertyOp58
 70
     1
102
RTVSPropertyOp59
 70
     1
102
RTVSPropertyOp60
 70
     1
102
RTVSPropertyOp61
 70
     1
102
RTVSPropertyOp62
 70
     1
  0
XRECORD
  5
9427
102
{ACAD_REACTORS
330
9426
102
}
330
9426
100
AcDbXrecord
280
     1
102
RTVSPost2010Prop28
280
     0
102
RTVSPost2010PropOp28
 70
     1
102
RTVSPost2010Prop29
280
     1
102
RTVSPost2010PropOp29
 70
     1
102
RTVSPost2010Prop30
280
     1
102
RTVSPost2010PropOp30
 70
     1
102
RTVSPost2010Prop31
280
     0
102
RTVSPost2010PropOp31
 70
     1
102
RTVSPost2010Prop32
280
     0
102
RTVSPost2010PropOp32
 70
     1
102
RTVSPost2010Prop33
280
     0
102
RTVSPost2010PropOp33
 70
     1
102
RTVSPost2010Prop34
280
     0
102
RTVSPost2010PropOp34
 70
     1
102
RTVSPost2010Prop35
280
     0
102
RTVSPost2010PropOp35
 70
     1
102
RTVSPost2010Prop36
280
     0
102
RTVSPost2010PropOp36
 70
     1
102
RTVSPost2010Prop37
 90
       50
102
RTVSPost2010PropOp37
 70
     1
102
RTVSPost2010Prop38
140
0.0
102
RTVSPost2010PropOp38
 70
     1
102
RTVSPost2010Prop39
140
1.0
102
RTVSPost2010PropOp39
 70
     1
102
RTVSPost2010Prop40
 90
        0
102
RTVSPost2010PropOp40
 70
     1
102
RTVSPost2010Prop41ColorIndex
 90
       18
102
RTVSPost2010Prop41ColorRGB
 90
        0
102
RTVSPost2010PropOp41
 70
     1
102
RTVSPost2010Prop42
 90
       50
102
RTVSPost2010PropOp42
 70
     1
102
RTVSPost2010Prop43
 90
        3
102
RTVSPost2010PropOp43
 70
     1
102
RTVSPost2010Prop44ColorIndex
 90
        5
102
RTVSPost2010Prop44ColorRGB
 90
      255
102
RTVSPost2010PropOp44
 70
     1
102
RTVSPost2010Prop45
280
     0
102
RTVSPost2010PropOp45
 70
     1
102
RTVSPost2010Prop46
 90
       50
102
RTVSPost2010PropOp46
 70
     1
102
RTVSPost2010Prop47
 90
       50
102
RTVSPost2010PropOp47
 70
     1
102
RTVSPost2010Prop48
 90
       50
102
RTVSPost2010PropOp48
 70
     1
102
RTVSPost2010Prop49
280
     0
102
RTVSPost2010PropOp49
 70
     1
102
RTVSPost2010Prop50
 90
       50
102
RTVSPost2010PropOp50
 70
     1
102
RTVSPost2010Prop51ColorIndex
 90
      256
102
RTVSPost2010Prop51ColorRGB
 90
-16777216
102
RTVSPost2010PropOp51
 70
     0
102
RTVSPost2010Prop52
140
1.0
102
RTVSPost2010PropOp52
 70
     0
102
RTVSPost2010Prop53
 90
        2
102
RTVSPost2010PropOp53
 70
     1
102
RTVSPost2010Prop54
  1
strokes_ogs.tif
102
RTVSPost2010PropOp54
 70
     1
102
RTVSPost2010Prop55
280
     0
102
RTVSPost2010PropOp55
 70
     1
102
RTVSPost2010Prop56
140
1.0
102
RTVSPost2010PropOp56
 70
     1
102
RTVSPost2010Prop57
140
1.0
102
RTVSPost2010PropOp57
 70
     1
102
RTVSPropertyOp0
 70
     1
102
RTVSPropertyOp1
 70
     1
102
RTVSPropertyOp2
 70
     1
102
RTVSPropertyOp3
 70
     1
102
RTVSPropertyOp4
 70
     1
102
RTVSPropertyOp5
 70
     1
102
RTVSPropertyOp6
 70
     1
102
RTVSPropertyOp7
 70
     1
102
RTVSPropertyOp8
 70
     1
102
RTVSPropertyOp9
 70
     1
102
RTVSPropertyOp10
 70
     1
102
RTVSPropertyOp11
 70
     1
102
RTVSPropertyOp12
 70
     1
102
RTVSPropertyOp13
 70
     1
102
RTVSPropertyOp14
 70
     1
102
RTVSPropertyOp15
 70
     1
102
RTVSPropertyOp16
 70
     1
102
RTVSPropertyOp17
 70
     1
102
RTVSPropertyOp18
 70
     1
102
RTVSPropertyOp19
 70
     1
102
RTVSPropertyOp20
 70
     1
102
RTVSPropertyOp21
 70
     1
102
RTVSPropertyOp22
 70
     1
102
RTVSPropertyOp23
 70
     1
102
RTVSPropertyOp24
 70
     1
102
RTVSPropertyOp25
 70
     1
102
RTVSPropertyOp26
 70
     1
102
RTVSPropertyOp27
 70
     1
102
RTVSPropertyOp28
 70
     1
102
RTVSPropertyOp29
 70
     1
102
RTVSPropertyOp30
 70
     1
102
RTVSPropertyOp31
 70
     1
102
RTVSPropertyOp32
 70
     1
102
RTVSPropertyOp33
 70
     1
102
RTVSPropertyOp34
 70
     1
102
RTVSPropertyOp35
 70
     1
102
RTVSPropertyOp36
 70
     1
102
RTVSPropertyOp37
 70
     1
102
RTVSPropertyOp38
 70
     1
102
RTVSPropertyOp39
 70
     1
102
RTVSPropertyOp40
 70
     1
102
RTVSPropertyOp41
 70
     1
102
RTVSPropertyOp42
 70
     1
102
RTVSPropertyOp43
 70
     1
102
RTVSPropertyOp44
 70
     1
102
RTVSPropertyOp45
 70
     1
102
RTVSPropertyOp46
 70
     1
102
RTVSPropertyOp47
 70
     1
102
RTVSPropertyOp48
 70
     1
102
RTVSPropertyOp49
 70
     1
102
RTVSPropertyOp50
 70
     1
102
RTVSPropertyOp51
 70
     0
102
RTVSPropertyOp52
 70
     0
102
RTVSPropertyOp53
 70
     1
102
RTVSPropertyOp54
 70
     1
102
RTVSPropertyOp55
 70
     1
102
RTVSPropertyOp56
 70
     1
102
RTVSPropertyOp57
 70
     1
102
RTVSPropertyOp58
 70
     1
102
RTVSPropertyOp59
 70
     1
102
RTVSPropertyOp60
 70
     1
102
RTVSPropertyOp61
 70
     1
102
RTVSPropertyOp62
 70
     1
  0
XRECORD
  5
9429
102
{ACAD_REACTORS
330
9428
102
}
330
9428
100
AcDbXrecord
280
     1
102
RTVSPost2010Prop28
280
     0
102
RTVSPost2010PropOp28
 70
     1
102
RTVSPost2010Prop29
280
     1
102
RTVSPost2010PropOp29
 70
     1
102
RTVSPost2010Prop30
280
     1
102
RTVSPost2010PropOp30
 70
     1
102
RTVSPost2010Prop31
280
     0
102
RTVSPost2010PropOp31
 70
     1
102
RTVSPost2010Prop32
280
     0
102
RTVSPost2010PropOp32
 70
     1
102
RTVSPost2010Prop33
280
     0
102
RTVSPost2010PropOp33
 70
     1
102
RTVSPost2010Prop34
280
     0
102
RTVSPost2010PropOp34
 70
     1
102
RTVSPost2010Prop35
280
     0
102
RTVSPost2010PropOp35
 70
     1
102
RTVSPost2010Prop36
280
     0
102
RTVSPost2010PropOp36
 70
     1
102
RTVSPost2010Prop37
 90
       50
102
RTVSPost2010PropOp37
 70
     1
102
RTVSPost2010Prop38
140
0.0
102
RTVSPost2010PropOp38
 70
     1
102
RTVSPost2010Prop39
140
1.0
102
RTVSPost2010PropOp39
 70
     1
102
RTVSPost2010Prop40
 90
        0
102
RTVSPost2010PropOp40
 70
     1
102
RTVSPost2010Prop41ColorIndex
 90
       18
102
RTVSPost2010Prop41ColorRGB
 90
        0
102
RTVSPost2010PropOp41
 70
     1
102
RTVSPost2010Prop42
 90
       50
102
RTVSPost2010PropOp42
 70
     1
102
RTVSPost2010Prop43
 90
        3
102
RTVSPost2010PropOp43
 70
     1
102
RTVSPost2010Prop44ColorIndex
 90
        5
102
RTVSPost2010Prop44ColorRGB
 90
      255
102
RTVSPost2010PropOp44
 70
     1
102
RTVSPost2010Prop45
280
     0
102
RTVSPost2010PropOp45
 70
     1
102
RTVSPost2010Prop46
 90
       50
102
RTVSPost2010PropOp46
 70
     1
102
RTVSPost2010Prop47
 90
       50
102
RTVSPost2010PropOp47
 70
     1
102
RTVSPost2010Prop48
 90
       50
102
RTVSPost2010PropOp48
 70
     1
102
RTVSPost2010Prop49
280
     0
102
RTVSPost2010PropOp49
 70
     1
102
RTVSPost2010Prop50
 90
       50
102
RTVSPost2010PropOp50
 70
     1
102
RTVSPost2010Prop51ColorIndex
 90
      256
102
RTVSPost2010Prop51ColorRGB
 90
-16777216
102
RTVSPost2010PropOp51
 70
     0
102
RTVSPost2010Prop52
140
1.0
102
RTVSPost2010PropOp52
 70
     0
102
RTVSPost2010Prop53
 90
        2
102
RTVSPost2010PropOp53
 70
     1
102
RTVSPost2010Prop54
  1
strokes_ogs.tif
102
RTVSPost2010PropOp54
 70
     1
102
RTVSPost2010Prop55
280
     0
102
RTVSPost2010PropOp55
 70
     1
102
RTVSPost2010Prop56
140
1.0
102
RTVSPost2010PropOp56
 70
     1
102
RTVSPost2010Prop57
140
1.0
102
RTVSPost2010PropOp57
 70
     1
102
RTVSPropertyOp0
 70
     1
102
RTVSPropertyOp1
 70
     1
102
RTVSPropertyOp2
 70
     1
102
RTVSPropertyOp3
 70
     1
102
RTVSPropertyOp4
 70
     1
102
RTVSPropertyOp5
 70
     1
102
RTVSPropertyOp6
 70
     1
102
RTVSPropertyOp7
 70
     1
102
RTVSPropertyOp8
 70
     1
102
RTVSPropertyOp9
 70
     1
102
RTVSPropertyOp10
 70
     1
102
RTVSPropertyOp11
 70
     1
102
RTVSPropertyOp12
 70
     1
102
RTVSPropertyOp13
 70
     1
102
RTVSPropertyOp14
 70
     1
102
RTVSPropertyOp15
 70
     1
102
RTVSPropertyOp16
 70
     1
102
RTVSPropertyOp17
 70
     1
102
RTVSPropertyOp18
 70
     1
102
RTVSPropertyOp19
 70
     1
102
RTVSPropertyOp20
 70
     1
102
RTVSPropertyOp21
 70
     1
102
RTVSPropertyOp22
 70
     1
102
RTVSPropertyOp23
 70
     1
102
RTVSPropertyOp24
 70
     1
102
RTVSPropertyOp25
 70
     1
102
RTVSPropertyOp26
 70
     1
102
RTVSPropertyOp27
 70
     1
102
RTVSPropertyOp28
 70
     1
102
RTVSPropertyOp29
 70
     1
102
RTVSPropertyOp30
 70
     1
102
RTVSPropertyOp31
 70
     1
102
RTVSPropertyOp32
 70
     1
102
RTVSPropertyOp33
 70
     1
102
RTVSPropertyOp34
 70
     1
102
RTVSPropertyOp35
 70
     1
102
RTVSPropertyOp36
 70
     1
102
RTVSPropertyOp37
 70
     1
102
RTVSPropertyOp38
 70
     1
102
RTVSPropertyOp39
 70
     1
102
RTVSPropertyOp40
 70
     1
102
RTVSPropertyOp41
 70
     1
102
RTVSPropertyOp42
 70
     1
102
RTVSPropertyOp43
 70
     1
102
RTVSPropertyOp44
 70
     1
102
RTVSPropertyOp45
 70
     1
102
RTVSPropertyOp46
 70
     1
102
RTVSPropertyOp47
 70
     1
102
RTVSPropertyOp48
 70
     1
102
RTVSPropertyOp49
 70
     1
102
RTVSPropertyOp50
 70
     1
102
RTVSPropertyOp51
 70
     0
102
RTVSPropertyOp52
 70
     0
102
RTVSPropertyOp53
 70
     1
102
RTVSPropertyOp54
 70
     1
102
RTVSPropertyOp55
 70
     1
102
RTVSPropertyOp56
 70
     1
102
RTVSPropertyOp57
 70
     1
102
RTVSPropertyOp58
 70
     1
102
RTVSPropertyOp59
 70
     1
102
RTVSPropertyOp60
 70
     1
102
RTVSPropertyOp61
 70
     1
102
RTVSPropertyOp62
 70
     1
  0
XRECORD
  5
942B
102
{ACAD_REACTORS
330
942A
102
}
330
942A
100
AcDbXrecord
280
     1
102
RTVSPost2010Prop28
280
     0
102
RTVSPost2010PropOp28
 70
     1
102
RTVSPost2010Prop29
280
     1
102
RTVSPost2010PropOp29
 70
     1
102
RTVSPost2010Prop30
280
     1
102
RTVSPost2010PropOp30
 70
     1
102
RTVSPost2010Prop31
280
     0
102
RTVSPost2010PropOp31
 70
     1
102
RTVSPost2010Prop32
280
     0
102
RTVSPost2010PropOp32
 70
     1
102
RTVSPost2010Prop33
280
     0
102
RTVSPost2010PropOp33
 70
     1
102
RTVSPost2010Prop34
280
     0
102
RTVSPost2010PropOp34
 70
     1
102
RTVSPost2010Prop35
280
     0
102
RTVSPost2010PropOp35
 70
     1
102
RTVSPost2010Prop36
280
     0
102
RTVSPost2010PropOp36
 70
     1
102
RTVSPost2010Prop37
 90
       50
102
RTVSPost2010PropOp37
 70
     1
102
RTVSPost2010Prop38
140
0.0
102
RTVSPost2010PropOp38
 70
     1
102
RTVSPost2010Prop39
140
1.0
102
RTVSPost2010PropOp39
 70
     1
102
RTVSPost2010Prop40
 90
        0
102
RTVSPost2010PropOp40
 70
     1
102
RTVSPost2010Prop41ColorIndex
 90
       18
102
RTVSPost2010Prop41ColorRGB
 90
        0
102
RTVSPost2010PropOp41
 70
     1
102
RTVSPost2010Prop42
 90
       50
102
RTVSPost2010PropOp42
 70
     1
102
RTVSPost2010Prop43
 90
        3
102
RTVSPost2010PropOp43
 70
     1
102
RTVSPost2010Prop44ColorIndex
 90
        5
102
RTVSPost2010Prop44ColorRGB
 90
      255
102
RTVSPost2010PropOp44
 70
     1
102
RTVSPost2010Prop45
280
     0
102
RTVSPost2010PropOp45
 70
     1
102
RTVSPost2010Prop46
 90
       50
102
RTVSPost2010PropOp46
 70
     1
102
RTVSPost2010Prop47
 90
       50
102
RTVSPost2010PropOp47
 70
     1
102
RTVSPost2010Prop48
 90
       50
102
RTVSPost2010PropOp48
 70
     1
102
RTVSPost2010Prop49
280
     0
102
RTVSPost2010PropOp49
 70
     1
102
RTVSPost2010Prop50
 90
       50
102
RTVSPost2010PropOp50
 70
     1
102
RTVSPost2010Prop51ColorIndex
 90
      256
102
RTVSPost2010Prop51ColorRGB
 90
-16777216
102
RTVSPost2010PropOp51
 70
     0
102
RTVSPost2010Prop52
140
1.0
102
RTVSPost2010PropOp52
 70
     0
102
RTVSPost2010Prop53
 90
        2
102
RTVSPost2010PropOp53
 70
     1
102
RTVSPost2010Prop54
  1
strokes_ogs.tif
102
RTVSPost2010PropOp54
 70
     1
102
RTVSPost2010Prop55
280
     0
102
RTVSPost2010PropOp55
 70
     1
102
RTVSPost2010Prop56
140
1.0
102
RTVSPost2010PropOp56
 70
     1
102
RTVSPost2010Prop57
140
1.0
102
RTVSPost2010PropOp57
 70
     1
102
RTVSPropertyOp0
 70
     1
102
RTVSPropertyOp1
 70
     1
102
RTVSPropertyOp2
 70
     1
102
RTVSPropertyOp3
 70
     1
102
RTVSPropertyOp4
 70
     1
102
RTVSPropertyOp5
 70
     1
102
RTVSPropertyOp6
 70
     1
102
RTVSPropertyOp7
 70
     1
102
RTVSPropertyOp8
 70
     1
102
RTVSPropertyOp9
 70
     1
102
RTVSPropertyOp10
 70
     1
102
RTVSPropertyOp11
 70
     1
102
RTVSPropertyOp12
 70
     1
102
RTVSPropertyOp13
 70
     1
102
RTVSPropertyOp14
 70
     1
102
RTVSPropertyOp15
 70
     1
102
RTVSPropertyOp16
 70
     1
102
RTVSPropertyOp17
 70
     1
102
RTVSPropertyOp18
 70
     1
102
RTVSPropertyOp19
 70
     1
102
RTVSPropertyOp20
 70
     1
102
RTVSPropertyOp21
 70
     1
102
RTVSPropertyOp22
 70
     1
102
RTVSPropertyOp23
 70
     1
102
RTVSPropertyOp24
 70
     1
102
RTVSPropertyOp25
 70
     1
102
RTVSPropertyOp26
 70
     1
102
RTVSPropertyOp27
 70
     1
102
RTVSPropertyOp28
 70
     1
102
RTVSPropertyOp29
 70
     1
102
RTVSPropertyOp30
 70
     1
102
RTVSPropertyOp31
 70
     1
102
RTVSPropertyOp32
 70
     1
102
RTVSPropertyOp33
 70
     1
102
RTVSPropertyOp34
 70
     1
102
RTVSPropertyOp35
 70
     1
102
RTVSPropertyOp36
 70
     1
102
RTVSPropertyOp37
 70
     1
102
RTVSPropertyOp38
 70
     1
102
RTVSPropertyOp39
 70
     1
102
RTVSPropertyOp40
 70
     1
102
RTVSPropertyOp41
 70
     1
102
RTVSPropertyOp42
 70
     1
102
RTVSPropertyOp43
 70
     1
102
RTVSPropertyOp44
 70
     1
102
RTVSPropertyOp45
 70
     1
102
RTVSPropertyOp46
 70
     1
102
RTVSPropertyOp47
 70
     1
102
RTVSPropertyOp48
 70
     1
102
RTVSPropertyOp49
 70
     1
102
RTVSPropertyOp50
 70
     1
102
RTVSPropertyOp51
 70
     0
102
RTVSPropertyOp52
 70
     0
102
RTVSPropertyOp53
 70
     1
102
RTVSPropertyOp54
 70
     1
102
RTVSPropertyOp55
 70
     1
102
RTVSPropertyOp56
 70
     1
102
RTVSPropertyOp57
 70
     1
102
RTVSPropertyOp58
 70
     1
102
RTVSPropertyOp59
 70
     1
102
RTVSPropertyOp60
 70
     1
102
RTVSPropertyOp61
 70
     1
102
RTVSPropertyOp62
 70
     1
  0
XRECORD
  5
9433
102
{ACAD_REACTORS
330
9432
102
}
330
9432
100
AcDbXrecord
280
     1
102
RTVSPost2010Prop28
280
     0
102
RTVSPost2010PropOp28
 70
     1
102
RTVSPost2010Prop29
280
     1
102
RTVSPost2010PropOp29
 70
     1
102
RTVSPost2010Prop30
280
     1
102
RTVSPost2010PropOp30
 70
     1
102
RTVSPost2010Prop31
280
     0
102
RTVSPost2010PropOp31
 70
     1
102
RTVSPost2010Prop32
280
     0
102
RTVSPost2010PropOp32
 70
     1
102
RTVSPost2010Prop33
280
     0
102
RTVSPost2010PropOp33
 70
     1
102
RTVSPost2010Prop34
280
     0
102
RTVSPost2010PropOp34
 70
     1
102
RTVSPost2010Prop35
280
     0
102
RTVSPost2010PropOp35
 70
     1
102
RTVSPost2010Prop36
280
     0
102
RTVSPost2010PropOp36
 70
     1
102
RTVSPost2010Prop37
 90
       50
102
RTVSPost2010PropOp37
 70
     1
102
RTVSPost2010Prop38
140
0.0
102
RTVSPost2010PropOp38
 70
     1
102
RTVSPost2010Prop39
140
1.0
102
RTVSPost2010PropOp39
 70
     1
102
RTVSPost2010Prop40
 90
        0
102
RTVSPost2010PropOp40
 70
     1
102
RTVSPost2010Prop41ColorIndex
 90
       18
102
RTVSPost2010Prop41ColorRGB
 90
        0
102
RTVSPost2010PropOp41
 70
     1
102
RTVSPost2010Prop42
 90
       50
102
RTVSPost2010PropOp42
 70
     1
102
RTVSPost2010Prop43
 90
        3
102
RTVSPost2010PropOp43
 70
     1
102
RTVSPost2010Prop44ColorIndex
 90
        5
102
RTVSPost2010Prop44ColorRGB
 90
      255
102
RTVSPost2010PropOp44
 70
     1
102
RTVSPost2010Prop45
280
     0
102
RTVSPost2010PropOp45
 70
     1
102
RTVSPost2010Prop46
 90
       50
102
RTVSPost2010PropOp46
 70
     1
102
RTVSPost2010Prop47
 90
       50
102
RTVSPost2010PropOp47
 70
     1
102
RTVSPost2010Prop48
 90
       50
102
RTVSPost2010PropOp48
 70
     1
102
RTVSPost2010Prop49
280
     0
102
RTVSPost2010PropOp49
 70
     1
102
RTVSPost2010Prop50
 90
       50
102
RTVSPost2010PropOp50
 70
     1
102
RTVSPost2010Prop51ColorIndex
 90
      256
102
RTVSPost2010Prop51ColorRGB
 90
-16777216
102
RTVSPost2010PropOp51
 70
     0
102
RTVSPost2010Prop52
140
1.0
102
RTVSPost2010PropOp52
 70
     0
102
RTVSPost2010Prop53
 90
        2
102
RTVSPost2010PropOp53
 70
     1
102
RTVSPost2010Prop54
  1
strokes_ogs.tif
102
RTVSPost2010PropOp54
 70
     1
102
RTVSPost2010Prop55
280
     0
102
RTVSPost2010PropOp55
 70
     1
102
RTVSPost2010Prop56
140
1.0
102
RTVSPost2010PropOp56
 70
     1
102
RTVSPost2010Prop57
140
1.0
102
RTVSPost2010PropOp57
 70
     1
102
RTVSPropertyOp0
 70
     1
102
RTVSPropertyOp1
 70
     1
102
RTVSPropertyOp2
 70
     1
102
RTVSPropertyOp3
 70
     1
102
RTVSPropertyOp4
 70
     1
102
RTVSPropertyOp5
 70
     1
102
RTVSPropertyOp6
 70
     1
102
RTVSPropertyOp7
 70
     1
102
RTVSPropertyOp8
 70
     1
102
RTVSPropertyOp9
 70
     1
102
RTVSPropertyOp10
 70
     1
102
RTVSPropertyOp11
 70
     1
102
RTVSPropertyOp12
 70
     1
102
RTVSPropertyOp13
 70
     1
102
RTVSPropertyOp14
 70
     1
102
RTVSPropertyOp15
 70
     1
102
RTVSPropertyOp16
 70
     1
102
RTVSPropertyOp17
 70
     1
102
RTVSPropertyOp18
 70
     1
102
RTVSPropertyOp19
 70
     1
102
RTVSPropertyOp20
 70
     1
102
RTVSPropertyOp21
 70
     1
102
RTVSPropertyOp22
 70
     1
102
RTVSPropertyOp23
 70
     1
102
RTVSPropertyOp24
 70
     1
102
RTVSPropertyOp25
 70
     1
102
RTVSPropertyOp26
 70
     1
102
RTVSPropertyOp27
 70
     1
102
RTVSPropertyOp28
 70
     1
102
RTVSPropertyOp29
 70
     1
102
RTVSPropertyOp30
 70
     1
102
RTVSPropertyOp31
 70
     1
102
RTVSPropertyOp32
 70
     1
102
RTVSPropertyOp33
 70
     1
102
RTVSPropertyOp34
 70
     1
102
RTVSPropertyOp35
 70
     1
102
RTVSPropertyOp36
 70
     1
102
RTVSPropertyOp37
 70
     1
102
RTVSPropertyOp38
 70
     1
102
RTVSPropertyOp39
 70
     1
102
RTVSPropertyOp40
 70
     1
102
RTVSPropertyOp41
 70
     1
102
RTVSPropertyOp42
 70
     1
102
RTVSPropertyOp43
 70
     1
102
RTVSPropertyOp44
 70
     1
102
RTVSPropertyOp45
 70
     1
102
RTVSPropertyOp46
 70
     1
102
RTVSPropertyOp47
 70
     1
102
RTVSPropertyOp48
 70
     1
102
RTVSPropertyOp49
 70
     1
102
RTVSPropertyOp50
 70
     1
102
RTVSPropertyOp51
 70
     0
102
RTVSPropertyOp52
 70
     0
102
RTVSPropertyOp53
 70
     1
102
RTVSPropertyOp54
 70
     1
102
RTVSPropertyOp55
 70
     1
102
RTVSPropertyOp56
 70
     1
102
RTVSPropertyOp57
 70
     1
102
RTVSPropertyOp58
 70
     1
102
RTVSPropertyOp59
 70
     1
102
RTVSPropertyOp60
 70
     1
102
RTVSPropertyOp61
 70
     1
102
RTVSPropertyOp62
 70
     1
  0
XRECORD
  5
944F
102
{ACAD_REACTORS
330
944E
102
}
330
944E
100
AcDbXrecord
280
     1
102
RTVSPost2010Prop28
280
     0
102
RTVSPost2010PropOp28
 70
     1
102
RTVSPost2010Prop29
280
     1
102
RTVSPost2010PropOp29
 70
     1
102
RTVSPost2010Prop30
280
     1
102
RTVSPost2010PropOp30
 70
     1
102
RTVSPost2010Prop31
280
     0
102
RTVSPost2010PropOp31
 70
     1
102
RTVSPost2010Prop32
280
     0
102
RTVSPost2010PropOp32
 70
     1
102
RTVSPost2010Prop33
280
     0
102
RTVSPost2010PropOp33
 70
     1
102
RTVSPost2010Prop34
280
     0
102
RTVSPost2010PropOp34
 70
     1
102
RTVSPost2010Prop35
280
     0
102
RTVSPost2010PropOp35
 70
     1
102
RTVSPost2010Prop36
280
     0
102
RTVSPost2010PropOp36
 70
     1
102
RTVSPost2010Prop37
 90
       50
102
RTVSPost2010PropOp37
 70
     0
102
RTVSPost2010Prop38
140
0.0
102
RTVSPost2010PropOp38
 70
     0
102
RTVSPost2010Prop39
140
1.0
102
RTVSPost2010PropOp39
 70
     0
102
RTVSPost2010Prop40
 90
        0
102
RTVSPost2010PropOp40
 70
     0
102
RTVSPost2010Prop41ColorIndex
 90
       18
102
RTVSPost2010Prop41ColorRGB
 90
        0
102
RTVSPost2010PropOp41
 70
     0
102
RTVSPost2010Prop42
 90
       50
102
RTVSPost2010PropOp42
 70
     0
102
RTVSPost2010Prop43
 90
        3
102
RTVSPost2010PropOp43
 70
     0
102
RTVSPost2010Prop44ColorIndex
 90
        5
102
RTVSPost2010Prop44ColorRGB
 90
      255
102
RTVSPost2010PropOp44
 70
     0
102
RTVSPost2010Prop45
280
     0
102
RTVSPost2010PropOp45
 70
     1
102
RTVSPost2010Prop46
 90
       50
102
RTVSPost2010PropOp46
 70
     0
102
RTVSPost2010Prop47
 90
       50
102
RTVSPost2010PropOp47
 70
     0
102
RTVSPost2010Prop48
 90
       50
102
RTVSPost2010PropOp48
 70
     0
102
RTVSPost2010Prop49
280
     0
102
RTVSPost2010PropOp49
 70
     1
102
RTVSPost2010Prop50
 90
       50
102
RTVSPost2010PropOp50
 70
     0
102
RTVSPost2010Prop51ColorIndex
 90
      256
102
RTVSPost2010Prop51ColorRGB
 90
-16777216
102
RTVSPost2010PropOp51
 70
     0
102
RTVSPost2010Prop52
140
1.0
102
RTVSPost2010PropOp52
 70
     0
102
RTVSPost2010Prop53
 90
        2
102
RTVSPost2010PropOp53
 70
     0
102
RTVSPost2010Prop54
  1
strokes_ogs.tif
102
RTVSPost2010PropOp54
 70
     0
102
RTVSPost2010Prop55
280
     0
102
RTVSPost2010PropOp55
 70
     1
102
RTVSPost2010Prop56
140
1.0
102
RTVSPost2010PropOp56
 70
     0
102
RTVSPost2010Prop57
140
1.0
102
RTVSPost2010PropOp57
 70
     0
102
RTVSPropertyOp0
 70
     0
102
RTVSPropertyOp1
 70
     0
102
RTVSPropertyOp2
 70
     0
102
RTVSPropertyOp3
 70
     0
102
RTVSPropertyOp4
 70
     0
102
RTVSPropertyOp5
 70
     0
102
RTVSPropertyOp6
 70
     0
102
RTVSPropertyOp7
 70
     0
102
RTVSPropertyOp8
 70
     0
102
RTVSPropertyOp9
 70
     0
102
RTVSPropertyOp10
 70
     0
102
RTVSPropertyOp11
 70
     0
102
RTVSPropertyOp12
 70
     0
102
RTVSPropertyOp13
 70
     0
102
RTVSPropertyOp14
 70
     2
102
RTVSPropertyOp15
 70
     0
102
RTVSPropertyOp16
 70
     0
102
RTVSPropertyOp17
 70
     0
102
RTVSPropertyOp18
 70
     0
102
RTVSPropertyOp19
 70
     0
102
RTVSPropertyOp20
 70
     0
102
RTVSPropertyOp21
 70
     0
102
RTVSPropertyOp22
 70
     0
102
RTVSPropertyOp23
 70
     0
102
RTVSPropertyOp24
 70
     0
102
RTVSPropertyOp25
 70
     0
102
RTVSPropertyOp26
 70
     0
102
RTVSPropertyOp27
 70
     0
102
RTVSPropertyOp28
 70
     1
102
RTVSPropertyOp29
 70
     1
102
RTVSPropertyOp30
 70
     1
102
RTVSPropertyOp31
 70
     1
102
RTVSPropertyOp32
 70
     1
102
RTVSPropertyOp33
 70
     1
102
RTVSPropertyOp34
 70
     1
102
RTVSPropertyOp35
 70
     1
102
RTVSPropertyOp36
 70
     1
102
RTVSPropertyOp37
 70
     0
102
RTVSPropertyOp38
 70
     0
102
RTVSPropertyOp39
 70
     0
102
RTVSPropertyOp40
 70
     0
102
RTVSPropertyOp41
 70
     0
102
RTVSPropertyOp42
 70
     0
102
RTVSPropertyOp43
 70
     0
102
RTVSPropertyOp44
 70
     0
102
RTVSPropertyOp45
 70
     1
102
RTVSPropertyOp46
 70
     0
102
RTVSPropertyOp47
 70
     0
102
RTVSPropertyOp48
 70
     0
102
RTVSPropertyOp49
 70
     1
102
RTVSPropertyOp50
 70
     0
102
RTVSPropertyOp51
 70
     0
102
RTVSPropertyOp52
 70
     0
102
RTVSPropertyOp53
 70
     0
102
RTVSPropertyOp54
 70
     0
102
RTVSPropertyOp55
 70
     1
102
RTVSPropertyOp56
 70
     0
102
RTVSPropertyOp57
 70
     0
102
RTVSPropertyOp58
 70
     0
102
RTVSPropertyOp59
 70
     0
102
RTVSPropertyOp60
 70
     0
102
RTVSPropertyOp61
 70
     0
102
RTVSPropertyOp62
 70
     0
  0
XRECORD
  5
943F
102
{ACAD_REACTORS
330
943E
102
}
330
943E
100
AcDbXrecord
280
     1
102
RTVSPost2010Prop28
280
     0
102
RTVSPost2010PropOp28
 70
     1
102
RTVSPost2010Prop29
280
     1
102
RTVSPost2010PropOp29
 70
     1
102
RTVSPost2010Prop30
280
     1
102
RTVSPost2010PropOp30
 70
     1
102
RTVSPost2010Prop31
280
     0
102
RTVSPost2010PropOp31
 70
     1
102
RTVSPost2010Prop32
280
     0
102
RTVSPost2010PropOp32
 70
     1
102
RTVSPost2010Prop33
280
     0
102
RTVSPost2010PropOp33
 70
     1
102
RTVSPost2010Prop34
280
     0
102
RTVSPost2010PropOp34
 70
     1
102
RTVSPost2010Prop35
280
     0
102
RTVSPost2010PropOp35
 70
     1
102
RTVSPost2010Prop36
280
     0
102
RTVSPost2010PropOp36
 70
     1
102
RTVSPost2010Prop37
 90
       50
102
RTVSPost2010PropOp37
 70
     1
102
RTVSPost2010Prop38
140
0.0
102
RTVSPost2010PropOp38
 70
     1
102
RTVSPost2010Prop39
140
1.0
102
RTVSPost2010PropOp39
 70
     1
102
RTVSPost2010Prop40
 90
        0
102
RTVSPost2010PropOp40
 70
     1
102
RTVSPost2010Prop41ColorIndex
 90
       18
102
RTVSPost2010Prop41ColorRGB
 90
        0
102
RTVSPost2010PropOp41
 70
     1
102
RTVSPost2010Prop42
 90
       50
102
RTVSPost2010PropOp42
 70
     1
102
RTVSPost2010Prop43
 90
        3
102
RTVSPost2010PropOp43
 70
     1
102
RTVSPost2010Prop44ColorIndex
 90
        5
102
RTVSPost2010Prop44ColorRGB
 90
      255
102
RTVSPost2010PropOp44
 70
     1
102
RTVSPost2010Prop45
280
     0
102
RTVSPost2010PropOp45
 70
     1
102
RTVSPost2010Prop46
 90
       50
102
RTVSPost2010PropOp46
 70
     1
102
RTVSPost2010Prop47
 90
       50
102
RTVSPost2010PropOp47
 70
     1
102
RTVSPost2010Prop48
 90
       50
102
RTVSPost2010PropOp48
 70
     1
102
RTVSPost2010Prop49
280
     0
102
RTVSPost2010PropOp49
 70
     1
102
RTVSPost2010Prop50
 90
       50
102
RTVSPost2010PropOp50
 70
     1
102
RTVSPost2010Prop51ColorIndex
 90
      256
102
RTVSPost2010Prop51ColorRGB
 90
-16777216
102
RTVSPost2010PropOp51
 70
     0
102
RTVSPost2010Prop52
140
1.0
102
RTVSPost2010PropOp52
 70
     0
102
RTVSPost2010Prop53
 90
        2
102
RTVSPost2010PropOp53
 70
     1
102
RTVSPost2010Prop54
  1
strokes_ogs.tif
102
RTVSPost2010PropOp54
 70
     1
102
RTVSPost2010Prop55
280
     0
102
RTVSPost2010PropOp55
 70
     1
102
RTVSPost2010Prop56
140
1.0
102
RTVSPost2010PropOp56
 70
     1
102
RTVSPost2010Prop57
140
1.0
102
RTVSPost2010PropOp57
 70
     1
102
RTVSPropertyOp0
 70
     1
102
RTVSPropertyOp1
 70
     1
102
RTVSPropertyOp2
 70
     1
102
RTVSPropertyOp3
 70
     1
102
RTVSPropertyOp4
 70
     1
102
RTVSPropertyOp5
 70
     1
102
RTVSPropertyOp6
 70
     1
102
RTVSPropertyOp7
 70
     1
102
RTVSPropertyOp8
 70
     1
102
RTVSPropertyOp9
 70
     1
102
RTVSPropertyOp10
 70
     1
102
RTVSPropertyOp11
 70
     1
102
RTVSPropertyOp12
 70
     1
102
RTVSPropertyOp13
 70
     1
102
RTVSPropertyOp14
 70
     1
102
RTVSPropertyOp15
 70
     1
102
RTVSPropertyOp16
 70
     1
102
RTVSPropertyOp17
 70
     1
102
RTVSPropertyOp18
 70
     1
102
RTVSPropertyOp19
 70
     1
102
RTVSPropertyOp20
 70
     1
102
RTVSPropertyOp21
 70
     1
102
RTVSPropertyOp22
 70
     1
102
RTVSPropertyOp23
 70
     1
102
RTVSPropertyOp24
 70
     1
102
RTVSPropertyOp25
 70
     1
102
RTVSPropertyOp26
 70
     1
102
RTVSPropertyOp27
 70
     1
102
RTVSPropertyOp28
 70
     1
102
RTVSPropertyOp29
 70
     1
102
RTVSPropertyOp30
 70
     1
102
RTVSPropertyOp31
 70
     1
102
RTVSPropertyOp32
 70
     1
102
RTVSPropertyOp33
 70
     1
102
RTVSPropertyOp34
 70
     1
102
RTVSPropertyOp35
 70
     1
102
RTVSPropertyOp36
 70
     1
102
RTVSPropertyOp37
 70
     1
102
RTVSPropertyOp38
 70
     1
102
RTVSPropertyOp39
 70
     1
102
RTVSPropertyOp40
 70
     1
102
RTVSPropertyOp41
 70
     1
102
RTVSPropertyOp42
 70
     1
102
RTVSPropertyOp43
 70
     1
102
RTVSPropertyOp44
 70
     1
102
RTVSPropertyOp45
 70
     1
102
RTVSPropertyOp46
 70
     1
102
RTVSPropertyOp47
 70
     1
102
RTVSPropertyOp48
 70
     1
102
RTVSPropertyOp49
 70
     1
102
RTVSPropertyOp50
 70
     1
102
RTVSPropertyOp51
 70
     0
102
RTVSPropertyOp52
 70
     0
102
RTVSPropertyOp53
 70
     1
102
RTVSPropertyOp54
 70
     1
102
RTVSPropertyOp55
 70
     1
102
RTVSPropertyOp56
 70
     1
102
RTVSPropertyOp57
 70
     1
102
RTVSPropertyOp58
 70
     1
102
RTVSPropertyOp59
 70
     1
102
RTVSPropertyOp60
 70
     1
102
RTVSPropertyOp61
 70
     1
102
RTVSPropertyOp62
 70
     1
  0
XRECORD
  5
9451
102
{ACAD_REACTORS
330
9450
102
}
330
9450
100
AcDbXrecord
280
     1
102
RTVSPost2010Prop28
280
     0
102
RTVSPost2010PropOp28
 70
     1
102
RTVSPost2010Prop29
280
     1
102
RTVSPost2010PropOp29
 70
     1
102
RTVSPost2010Prop30
280
     1
102
RTVSPost2010PropOp30
 70
     1
102
RTVSPost2010Prop31
280
     0
102
RTVSPost2010PropOp31
 70
     1
102
RTVSPost2010Prop32
280
     0
102
RTVSPost2010PropOp32
 70
     1
102
RTVSPost2010Prop33
280
     0
102
RTVSPost2010PropOp33
 70
     1
102
RTVSPost2010Prop34
280
     0
102
RTVSPost2010PropOp34
 70
     1
102
RTVSPost2010Prop35
280
     0
102
RTVSPost2010PropOp35
 70
     1
102
RTVSPost2010Prop36
280
     0
102
RTVSPost2010PropOp36
 70
     1
102
RTVSPost2010Prop37
 90
       50
102
RTVSPost2010PropOp37
 70
     0
102
RTVSPost2010Prop38
140
0.0
102
RTVSPost2010PropOp38
 70
     0
102
RTVSPost2010Prop39
140
1.0
102
RTVSPost2010PropOp39
 70
     0
102
RTVSPost2010Prop40
 90
        0
102
RTVSPost2010PropOp40
 70
     0
102
RTVSPost2010Prop41ColorIndex
 90
       18
102
RTVSPost2010Prop41ColorRGB
 90
        0
102
RTVSPost2010PropOp41
 70
     0
102
RTVSPost2010Prop42
 90
       50
102
RTVSPost2010PropOp42
 70
     0
102
RTVSPost2010Prop43
 90
        3
102
RTVSPost2010PropOp43
 70
     0
102
RTVSPost2010Prop44ColorIndex
 90
        5
102
RTVSPost2010Prop44ColorRGB
 90
      255
102
RTVSPost2010PropOp44
 70
     0
102
RTVSPost2010Prop45
280
     0
102
RTVSPost2010PropOp45
 70
     1
102
RTVSPost2010Prop46
 90
       50
102
RTVSPost2010PropOp46
 70
     0
102
RTVSPost2010Prop47
 90
       50
102
RTVSPost2010PropOp47
 70
     0
102
RTVSPost2010Prop48
 90
       50
102
RTVSPost2010PropOp48
 70
     0
102
RTVSPost2010Prop49
280
     0
102
RTVSPost2010PropOp49
 70
     1
102
RTVSPost2010Prop50
 90
       50
102
RTVSPost2010PropOp50
 70
     0
102
RTVSPost2010Prop51ColorIndex
 90
      256
102
RTVSPost2010Prop51ColorRGB
 90
-16777216
102
RTVSPost2010PropOp51
 70
     0
102
RTVSPost2010Prop52
140
1.0
102
RTVSPost2010PropOp52
 70
     0
102
RTVSPost2010Prop53
 90
        2
102
RTVSPost2010PropOp53
 70
     0
102
RTVSPost2010Prop54
  1
strokes_ogs.tif
102
RTVSPost2010PropOp54
 70
     0
102
RTVSPost2010Prop55
280
     0
102
RTVSPost2010PropOp55
 70
     1
102
RTVSPost2010Prop56
140
1.0
102
RTVSPost2010PropOp56
 70
     0
102
RTVSPost2010Prop57
140
1.0
102
RTVSPost2010PropOp57
 70
     0
102
RTVSPropertyOp0
 70
     0
102
RTVSPropertyOp1
 70
     0
102
RTVSPropertyOp2
 70
     0
102
RTVSPropertyOp3
 70
     0
102
RTVSPropertyOp4
 70
     0
102
RTVSPropertyOp5
 70
     0
102
RTVSPropertyOp6
 70
     0
102
RTVSPropertyOp7
 70
     0
102
RTVSPropertyOp8
 70
     0
102
RTVSPropertyOp9
 70
     0
102
RTVSPropertyOp10
 70
     0
102
RTVSPropertyOp11
 70
     0
102
RTVSPropertyOp12
 70
     0
102
RTVSPropertyOp13
 70
     0
102
RTVSPropertyOp14
 70
     2
102
RTVSPropertyOp15
 70
     0
102
RTVSPropertyOp16
 70
     0
102
RTVSPropertyOp17
 70
     0
102
RTVSPropertyOp18
 70
     0
102
RTVSPropertyOp19
 70
     0
102
RTVSPropertyOp20
 70
     0
102
RTVSPropertyOp21
 70
     0
102
RTVSPropertyOp22
 70
     0
102
RTVSPropertyOp23
 70
     0
102
RTVSPropertyOp24
 70
     0
102
RTVSPropertyOp25
 70
     0
102
RTVSPropertyOp26
 70
     0
102
RTVSPropertyOp27
 70
     0
102
RTVSPropertyOp28
 70
     1
102
RTVSPropertyOp29
 70
     1
102
RTVSPropertyOp30
 70
     1
102
RTVSPropertyOp31
 70
     1
102
RTVSPropertyOp32
 70
     1
102
RTVSPropertyOp33
 70
     1
102
RTVSPropertyOp34
 70
     1
102
RTVSPropertyOp35
 70
     1
102
RTVSPropertyOp36
 70
     1
102
RTVSPropertyOp37
 70
     0
102
RTVSPropertyOp38
 70
     0
102
RTVSPropertyOp39
 70
     0
102
RTVSPropertyOp40
 70
     0
102
RTVSPropertyOp41
 70
     0
102
RTVSPropertyOp42
 70
     0
102
RTVSPropertyOp43
 70
     0
102
RTVSPropertyOp44
 70
     0
102
RTVSPropertyOp45
 70
     1
102
RTVSPropertyOp46
 70
     0
102
RTVSPropertyOp47
 70
     0
102
RTVSPropertyOp48
 70
     0
102
RTVSPropertyOp49
 70
     1
102
RTVSPropertyOp50
 70
     0
102
RTVSPropertyOp51
 70
     0
102
RTVSPropertyOp52
 70
     0
102
RTVSPropertyOp53
 70
     0
102
RTVSPropertyOp54
 70
     0
102
RTVSPropertyOp55
 70
     1
102
RTVSPropertyOp56
 70
     0
102
RTVSPropertyOp57
 70
     0
102
RTVSPropertyOp58
 70
     0
102
RTVSPropertyOp59
 70
     0
102
RTVSPropertyOp60
 70
     0
102
RTVSPropertyOp61
 70
     0
102
RTVSPropertyOp62
 70
     0
  0
XRECORD
  5
9437
102
{ACAD_REACTORS
330
9436
102
}
330
9436
100
AcDbXrecord
280
     1
102
RTVSPost2010Prop28
280
     0
102
RTVSPost2010PropOp28
 70
     1
102
RTVSPost2010Prop29
280
     1
102
RTVSPost2010PropOp29
 70
     1
102
RTVSPost2010Prop30
280
     1
102
RTVSPost2010PropOp30
 70
     1
102
RTVSPost2010Prop31
280
     0
102
RTVSPost2010PropOp31
 70
     1
102
RTVSPost2010Prop32
280
     0
102
RTVSPost2010PropOp32
 70
     1
102
RTVSPost2010Prop33
280
     0
102
RTVSPost2010PropOp33
 70
     1
102
RTVSPost2010Prop34
280
     0
102
RTVSPost2010PropOp34
 70
     1
102
RTVSPost2010Prop35
280
     0
102
RTVSPost2010PropOp35
 70
     1
102
RTVSPost2010Prop36
280
     0
102
RTVSPost2010PropOp36
 70
     1
102
RTVSPost2010Prop37
 90
       50
102
RTVSPost2010PropOp37
 70
     1
102
RTVSPost2010Prop38
140
0.0
102
RTVSPost2010PropOp38
 70
     1
102
RTVSPost2010Prop39
140
1.0
102
RTVSPost2010PropOp39
 70
     1
102
RTVSPost2010Prop40
 90
        0
102
RTVSPost2010PropOp40
 70
     1
102
RTVSPost2010Prop41ColorIndex
 90
       18
102
RTVSPost2010Prop41ColorRGB
 90
        0
102
RTVSPost2010PropOp41
 70
     1
102
RTVSPost2010Prop42
 90
       50
102
RTVSPost2010PropOp42
 70
     1
102
RTVSPost2010Prop43
 90
        3
102
RTVSPost2010PropOp43
 70
     1
102
RTVSPost2010Prop44ColorIndex
 90
        5
102
RTVSPost2010Prop44ColorRGB
 90
      255
102
RTVSPost2010PropOp44
 70
     1
102
RTVSPost2010Prop45
280
     0
102
RTVSPost2010PropOp45
 70
     1
102
RTVSPost2010Prop46
 90
       50
102
RTVSPost2010PropOp46
 70
     1
102
RTVSPost2010Prop47
 90
       50
102
RTVSPost2010PropOp47
 70
     1
102
RTVSPost2010Prop48
 90
       50
102
RTVSPost2010PropOp48
 70
     1
102
RTVSPost2010Prop49
280
     0
102
RTVSPost2010PropOp49
 70
     1
102
RTVSPost2010Prop50
 90
       50
102
RTVSPost2010PropOp50
 70
     1
102
RTVSPost2010Prop51ColorIndex
 90
      256
102
RTVSPost2010Prop51ColorRGB
 90
-16777216
102
RTVSPost2010PropOp51
 70
     0
102
RTVSPost2010Prop52
140
1.0
102
RTVSPost2010PropOp52
 70
     0
102
RTVSPost2010Prop53
 90
        2
102
RTVSPost2010PropOp53
 70
     1
102
RTVSPost2010Prop54
  1
strokes_ogs.tif
102
RTVSPost2010PropOp54
 70
     1
102
RTVSPost2010Prop55
280
     0
102
RTVSPost2010PropOp55
 70
     1
102
RTVSPost2010Prop56
140
1.0
102
RTVSPost2010PropOp56
 70
     1
102
RTVSPost2010Prop57
140
1.0
102
RTVSPost2010PropOp57
 70
     1
102
RTVSPropertyOp0
 70
     1
102
RTVSPropertyOp1
 70
     1
102
RTVSPropertyOp2
 70
     1
102
RTVSPropertyOp3
 70
     1
102
RTVSPropertyOp4
 70
     1
102
RTVSPropertyOp5
 70
     1
102
RTVSPropertyOp6
 70
     1
102
RTVSPropertyOp7
 70
     1
102
RTVSPropertyOp8
 70
     1
102
RTVSPropertyOp9
 70
     1
102
RTVSPropertyOp10
 70
     1
102
RTVSPropertyOp11
 70
     1
102
RTVSPropertyOp12
 70
     1
102
RTVSPropertyOp13
 70
     1
102
RTVSPropertyOp14
 70
     1
102
RTVSPropertyOp15
 70
     1
102
RTVSPropertyOp16
 70
     1
102
RTVSPropertyOp17
 70
     1
102
RTVSPropertyOp18
 70
     1
102
RTVSPropertyOp19
 70
     1
102
RTVSPropertyOp20
 70
     1
102
RTVSPropertyOp21
 70
     1
102
RTVSPropertyOp22
 70
     1
102
RTVSPropertyOp23
 70
     1
102
RTVSPropertyOp24
 70
     1
102
RTVSPropertyOp25
 70
     1
102
RTVSPropertyOp26
 70
     1
102
RTVSPropertyOp27
 70
     1
102
RTVSPropertyOp28
 70
     1
102
RTVSPropertyOp29
 70
     1
102
RTVSPropertyOp30
 70
     1
102
RTVSPropertyOp31
 70
     1
102
RTVSPropertyOp32
 70
     1
102
RTVSPropertyOp33
 70
     1
102
RTVSPropertyOp34
 70
     1
102
RTVSPropertyOp35
 70
     1
102
RTVSPropertyOp36
 70
     1
102
RTVSPropertyOp37
 70
     1
102
RTVSPropertyOp38
 70
     1
102
RTVSPropertyOp39
 70
     1
102
RTVSPropertyOp40
 70
     1
102
RTVSPropertyOp41
 70
     1
102
RTVSPropertyOp42
 70
     1
102
RTVSPropertyOp43
 70
     1
102
RTVSPropertyOp44
 70
     1
102
RTVSPropertyOp45
 70
     1
102
RTVSPropertyOp46
 70
     1
102
RTVSPropertyOp47
 70
     1
102
RTVSPropertyOp48
 70
     1
102
RTVSPropertyOp49
 70
     1
102
RTVSPropertyOp50
 70
     1
102
RTVSPropertyOp51
 70
     0
102
RTVSPropertyOp52
 70
     0
102
RTVSPropertyOp53
 70
     1
102
RTVSPropertyOp54
 70
     1
102
RTVSPropertyOp55
 70
     1
102
RTVSPropertyOp56
 70
     1
102
RTVSPropertyOp57
 70
     1
102
RTVSPropertyOp58
 70
     1
102
RTVSPropertyOp59
 70
     1
102
RTVSPropertyOp60
 70
     1
102
RTVSPropertyOp61
 70
     1
102
RTVSPropertyOp62
 70
     1
  0
XRECORD
  5
944D
102
{ACAD_REACTORS
330
944C
102
}
330
944C
100
AcDbXrecord
280
     1
102
RTVSPost2010Prop28
280
     0
102
RTVSPost2010PropOp28
 70
     1
102
RTVSPost2010Prop29
280
     1
102
RTVSPost2010PropOp29
 70
     1
102
RTVSPost2010Prop30
280
     1
102
RTVSPost2010PropOp30
 70
     1
102
RTVSPost2010Prop31
280
     0
102
RTVSPost2010PropOp31
 70
     1
102
RTVSPost2010Prop32
280
     0
102
RTVSPost2010PropOp32
 70
     1
102
RTVSPost2010Prop33
280
     0
102
RTVSPost2010PropOp33
 70
     1
102
RTVSPost2010Prop34
280
     0
102
RTVSPost2010PropOp34
 70
     1
102
RTVSPost2010Prop35
280
     0
102
RTVSPost2010PropOp35
 70
     1
102
RTVSPost2010Prop36
280
     0
102
RTVSPost2010PropOp36
 70
     1
102
RTVSPost2010Prop37
 90
       50
102
RTVSPost2010PropOp37
 70
     1
102
RTVSPost2010Prop38
140
0.0
102
RTVSPost2010PropOp38
 70
     1
102
RTVSPost2010Prop39
140
1.0
102
RTVSPost2010PropOp39
 70
     1
102
RTVSPost2010Prop40
 90
        0
102
RTVSPost2010PropOp40
 70
     1
102
RTVSPost2010Prop41ColorIndex
 90
       18
102
RTVSPost2010Prop41ColorRGB
 90
        0
102
RTVSPost2010PropOp41
 70
     1
102
RTVSPost2010Prop42
 90
       50
102
RTVSPost2010PropOp42
 70
     1
102
RTVSPost2010Prop43
 90
        3
102
RTVSPost2010PropOp43
 70
     1
102
RTVSPost2010Prop44ColorIndex
 90
        5
102
RTVSPost2010Prop44ColorRGB
 90
      255
102
RTVSPost2010PropOp44
 70
     1
102
RTVSPost2010Prop45
280
     0
102
RTVSPost2010PropOp45
 70
     1
102
RTVSPost2010Prop46
 90
       50
102
RTVSPost2010PropOp46
 70
     1
102
RTVSPost2010Prop47
 90
       50
102
RTVSPost2010PropOp47
 70
     1
102
RTVSPost2010Prop48
 90
       50
102
RTVSPost2010PropOp48
 70
     1
102
RTVSPost2010Prop49
280
     0
102
RTVSPost2010PropOp49
 70
     1
102
RTVSPost2010Prop50
 90
       50
102
RTVSPost2010PropOp50
 70
     1
102
RTVSPost2010Prop51ColorIndex
 90
      256
102
RTVSPost2010Prop51ColorRGB
 90
-16777216
102
RTVSPost2010PropOp51
 70
     0
102
RTVSPost2010Prop52
140
1.0
102
RTVSPost2010PropOp52
 70
     0
102
RTVSPost2010Prop53
 90
        2
102
RTVSPost2010PropOp53
 70
     1
102
RTVSPost2010Prop54
  1
strokes_ogs.tif
102
RTVSPost2010PropOp54
 70
     1
102
RTVSPost2010Prop55
280
     0
102
RTVSPost2010PropOp55
 70
     1
102
RTVSPost2010Prop56
140
1.0
102
RTVSPost2010PropOp56
 70
     1
102
RTVSPost2010Prop57
140
1.0
102
RTVSPost2010PropOp57
 70
     1
102
RTVSPropertyOp0
 70
     1
102
RTVSPropertyOp1
 70
     1
102
RTVSPropertyOp2
 70
     1
102
RTVSPropertyOp3
 70
     1
102
RTVSPropertyOp4
 70
     1
102
RTVSPropertyOp5
 70
     1
102
RTVSPropertyOp6
 70
     1
102
RTVSPropertyOp7
 70
     1
102
RTVSPropertyOp8
 70
     1
102
RTVSPropertyOp9
 70
     1
102
RTVSPropertyOp10
 70
     1
102
RTVSPropertyOp11
 70
     1
102
RTVSPropertyOp12
 70
     1
102
RTVSPropertyOp13
 70
     1
102
RTVSPropertyOp14
 70
     1
102
RTVSPropertyOp15
 70
     1
102
RTVSPropertyOp16
 70
     1
102
RTVSPropertyOp17
 70
     1
102
RTVSPropertyOp18
 70
     1
102
RTVSPropertyOp19
 70
     1
102
RTVSPropertyOp20
 70
     1
102
RTVSPropertyOp21
 70
     1
102
RTVSPropertyOp22
 70
     1
102
RTVSPropertyOp23
 70
     1
102
RTVSPropertyOp24
 70
     1
102
RTVSPropertyOp25
 70
     1
102
RTVSPropertyOp26
 70
     1
102
RTVSPropertyOp27
 70
     1
102
RTVSPropertyOp28
 70
     1
102
RTVSPropertyOp29
 70
     1
102
RTVSPropertyOp30
 70
     1
102
RTVSPropertyOp31
 70
     1
102
RTVSPropertyOp32
 70
     1
102
RTVSPropertyOp33
 70
     1
102
RTVSPropertyOp34
 70
     1
102
RTVSPropertyOp35
 70
     1
102
RTVSPropertyOp36
 70
     1
102
RTVSPropertyOp37
 70
     1
102
RTVSPropertyOp38
 70
     1
102
RTVSPropertyOp39
 70
     1
102
RTVSPropertyOp40
 70
     1
102
RTVSPropertyOp41
 70
     1
102
RTVSPropertyOp42
 70
     1
102
RTVSPropertyOp43
 70
     1
102
RTVSPropertyOp44
 70
     1
102
RTVSPropertyOp45
 70
     1
102
RTVSPropertyOp46
 70
     1
102
RTVSPropertyOp47
 70
     1
102
RTVSPropertyOp48
 70
     1
102
RTVSPropertyOp49
 70
     1
102
RTVSPropertyOp50
 70
     1
102
RTVSPropertyOp51
 70
     0
102
RTVSPropertyOp52
 70
     0
102
RTVSPropertyOp53
 70
     1
102
RTVSPropertyOp54
 70
     1
102
RTVSPropertyOp55
 70
     1
102
RTVSPropertyOp56
 70
     1
102
RTVSPropertyOp57
 70
     1
102
RTVSPropertyOp58
 70
     1
102
RTVSPropertyOp59
 70
     1
102
RTVSPropertyOp60
 70
     1
102
RTVSPropertyOp61
 70
     1
102
RTVSPropertyOp62
 70
     1
  0
XRECORD
  5
944B
102
{ACAD_REACTORS
330
944A
102
}
330
944A
100
AcDbXrecord
280
     1
102
RTVSPost2010Prop28
280
     0
102
RTVSPost2010PropOp28
 70
     1
102
RTVSPost2010Prop29
280
     1
102
RTVSPost2010PropOp29
 70
     1
102
RTVSPost2010Prop30
280
     1
102
RTVSPost2010PropOp30
 70
     1
102
RTVSPost2010Prop31
280
     0
102
RTVSPost2010PropOp31
 70
     1
102
RTVSPost2010Prop32
280
     0
102
RTVSPost2010PropOp32
 70
     1
102
RTVSPost2010Prop33
280
     0
102
RTVSPost2010PropOp33
 70
     1
102
RTVSPost2010Prop34
280
     0
102
RTVSPost2010PropOp34
 70
     1
102
RTVSPost2010Prop35
280
     0
102
RTVSPost2010PropOp35
 70
     1
102
RTVSPost2010Prop36
280
     0
102
RTVSPost2010PropOp36
 70
     1
102
RTVSPost2010Prop37
 90
       50
102
RTVSPost2010PropOp37
 70
     1
102
RTVSPost2010Prop38
140
0.0
102
RTVSPost2010PropOp38
 70
     1
102
RTVSPost2010Prop39
140
1.0
102
RTVSPost2010PropOp39
 70
     1
102
RTVSPost2010Prop40
 90
        0
102
RTVSPost2010PropOp40
 70
     1
102
RTVSPost2010Prop41ColorIndex
 90
       18
102
RTVSPost2010Prop41ColorRGB
 90
        0
102
RTVSPost2010PropOp41
 70
     1
102
RTVSPost2010Prop42
 90
       50
102
RTVSPost2010PropOp42
 70
     1
102
RTVSPost2010Prop43
 90
        3
102
RTVSPost2010PropOp43
 70
     1
102
RTVSPost2010Prop44ColorIndex
 90
        5
102
RTVSPost2010Prop44ColorRGB
 90
      255
102
RTVSPost2010PropOp44
 70
     1
102
RTVSPost2010Prop45
280
     0
102
RTVSPost2010PropOp45
 70
     1
102
RTVSPost2010Prop46
 90
       50
102
RTVSPost2010PropOp46
 70
     1
102
RTVSPost2010Prop47
 90
       50
102
RTVSPost2010PropOp47
 70
     1
102
RTVSPost2010Prop48
 90
       50
102
RTVSPost2010PropOp48
 70
     1
102
RTVSPost2010Prop49
280
     0
102
RTVSPost2010PropOp49
 70
     1
102
RTVSPost2010Prop50
 90
       50
102
RTVSPost2010PropOp50
 70
     1
102
RTVSPost2010Prop51ColorIndex
 90
      256
102
RTVSPost2010Prop51ColorRGB
 90
-16777216
102
RTVSPost2010PropOp51
 70
     0
102
RTVSPost2010Prop52
140
1.0
102
RTVSPost2010PropOp52
 70
     0
102
RTVSPost2010Prop53
 90
        2
102
RTVSPost2010PropOp53
 70
     1
102
RTVSPost2010Prop54
  1
strokes_ogs.tif
102
RTVSPost2010PropOp54
 70
     1
102
RTVSPost2010Prop55
280
     0
102
RTVSPost2010PropOp55
 70
     1
102
RTVSPost2010Prop56
140
1.0
102
RTVSPost2010PropOp56
 70
     1
102
RTVSPost2010Prop57
140
1.0
102
RTVSPost2010PropOp57
 70
     1
102
RTVSPropertyOp0
 70
     1
102
RTVSPropertyOp1
 70
     1
102
RTVSPropertyOp2
 70
     1
102
RTVSPropertyOp3
 70
     1
102
RTVSPropertyOp4
 70
     1
102
RTVSPropertyOp5
 70
     1
102
RTVSPropertyOp6
 70
     1
102
RTVSPropertyOp7
 70
     1
102
RTVSPropertyOp8
 70
     1
102
RTVSPropertyOp9
 70
     1
102
RTVSPropertyOp10
 70
     1
102
RTVSPropertyOp11
 70
     1
102
RTVSPropertyOp12
 70
     1
102
RTVSPropertyOp13
 70
     1
102
RTVSPropertyOp14
 70
     1
102
RTVSPropertyOp15
 70
     1
102
RTVSPropertyOp16
 70
     1
102
RTVSPropertyOp17
 70
     1
102
RTVSPropertyOp18
 70
     1
102
RTVSPropertyOp19
 70
     1
102
RTVSPropertyOp20
 70
     1
102
RTVSPropertyOp21
 70
     1
102
RTVSPropertyOp22
 70
     1
102
RTVSPropertyOp23
 70
     1
102
RTVSPropertyOp24
 70
     1
102
RTVSPropertyOp25
 70
     1
102
RTVSPropertyOp26
 70
     1
102
RTVSPropertyOp27
 70
     1
102
RTVSPropertyOp28
 70
     1
102
RTVSPropertyOp29
 70
     1
102
RTVSPropertyOp30
 70
     1
102
RTVSPropertyOp31
 70
     1
102
RTVSPropertyOp32
 70
     1
102
RTVSPropertyOp33
 70
     1
102
RTVSPropertyOp34
 70
     1
102
RTVSPropertyOp35
 70
     1
102
RTVSPropertyOp36
 70
     1
102
RTVSPropertyOp37
 70
     1
102
RTVSPropertyOp38
 70
     1
102
RTVSPropertyOp39
 70
     1
102
RTVSPropertyOp40
 70
     1
102
RTVSPropertyOp41
 70
     1
102
RTVSPropertyOp42
 70
     1
102
RTVSPropertyOp43
 70
     1
102
RTVSPropertyOp44
 70
     1
102
RTVSPropertyOp45
 70
     1
102
RTVSPropertyOp46
 70
     1
102
RTVSPropertyOp47
 70
     1
102
RTVSPropertyOp48
 70
     1
102
RTVSPropertyOp49
 70
     1
102
RTVSPropertyOp50
 70
     1
102
RTVSPropertyOp51
 70
     0
102
RTVSPropertyOp52
 70
     0
102
RTVSPropertyOp53
 70
     1
102
RTVSPropertyOp54
 70
     1
102
RTVSPropertyOp55
 70
     1
102
RTVSPropertyOp56
 70
     1
102
RTVSPropertyOp57
 70
     1
102
RTVSPropertyOp58
 70
     1
102
RTVSPropertyOp59
 70
     1
102
RTVSPropertyOp60
 70
     1
102
RTVSPropertyOp61
 70
     1
102
RTVSPropertyOp62
 70
     1
  0
XRECORD
  5
9445
102
{ACAD_REACTORS
330
9444
102
}
330
9444
100
AcDbXrecord
280
     1
102
RTVSPost2010Prop28
280
     0
102
RTVSPost2010PropOp28
 70
     1
102
RTVSPost2010Prop29
280
     1
102
RTVSPost2010PropOp29
 70
     1
102
RTVSPost2010Prop30
280
     1
102
RTVSPost2010PropOp30
 70
     1
102
RTVSPost2010Prop31
280
     0
102
RTVSPost2010PropOp31
 70
     1
102
RTVSPost2010Prop32
280
     0
102
RTVSPost2010PropOp32
 70
     1
102
RTVSPost2010Prop33
280
     0
102
RTVSPost2010PropOp33
 70
     1
102
RTVSPost2010Prop34
280
     0
102
RTVSPost2010PropOp34
 70
     1
102
RTVSPost2010Prop35
280
     0
102
RTVSPost2010PropOp35
 70
     1
102
RTVSPost2010Prop36
280
     0
102
RTVSPost2010PropOp36
 70
     1
102
RTVSPost2010Prop37
 90
       50
102
RTVSPost2010PropOp37
 70
     1
102
RTVSPost2010Prop38
140
0.0
102
RTVSPost2010PropOp38
 70
     1
102
RTVSPost2010Prop39
140
1.0
102
RTVSPost2010PropOp39
 70
     1
102
RTVSPost2010Prop40
 90
        0
102
RTVSPost2010PropOp40
 70
     1
102
RTVSPost2010Prop41ColorIndex
 90
       18
102
RTVSPost2010Prop41ColorRGB
 90
        0
102
RTVSPost2010PropOp41
 70
     1
102
RTVSPost2010Prop42
 90
       50
102
RTVSPost2010PropOp42
 70
     1
102
RTVSPost2010Prop43
 90
        3
102
RTVSPost2010PropOp43
 70
     1
102
RTVSPost2010Prop44ColorIndex
 90
        5
102
RTVSPost2010Prop44ColorRGB
 90
      255
102
RTVSPost2010PropOp44
 70
     1
102
RTVSPost2010Prop45
280
     0
102
RTVSPost2010PropOp45
 70
     1
102
RTVSPost2010Prop46
 90
       50
102
RTVSPost2010PropOp46
 70
     1
102
RTVSPost2010Prop47
 90
       50
102
RTVSPost2010PropOp47
 70
     1
102
RTVSPost2010Prop48
 90
       50
102
RTVSPost2010PropOp48
 70
     1
102
RTVSPost2010Prop49
280
     0
102
RTVSPost2010PropOp49
 70
     1
102
RTVSPost2010Prop50
 90
       50
102
RTVSPost2010PropOp50
 70
     1
102
RTVSPost2010Prop51ColorIndex
 90
      256
102
RTVSPost2010Prop51ColorRGB
 90
-16777216
102
RTVSPost2010PropOp51
 70
     0
102
RTVSPost2010Prop52
140
1.0
102
RTVSPost2010PropOp52
 70
     0
102
RTVSPost2010Prop53
 90
        2
102
RTVSPost2010PropOp53
 70
     1
102
RTVSPost2010Prop54
  1
strokes_ogs.tif
102
RTVSPost2010PropOp54
 70
     1
102
RTVSPost2010Prop55
280
     0
102
RTVSPost2010PropOp55
 70
     1
102
RTVSPost2010Prop56
140
1.0
102
RTVSPost2010PropOp56
 70
     1
102
RTVSPost2010Prop57
140
1.0
102
RTVSPost2010PropOp57
 70
     1
102
RTVSPropertyOp0
 70
     1
102
RTVSPropertyOp1
 70
     1
102
RTVSPropertyOp2
 70
     1
102
RTVSPropertyOp3
 70
     1
102
RTVSPropertyOp4
 70
     1
102
RTVSPropertyOp5
 70
     1
102
RTVSPropertyOp6
 70
     1
102
RTVSPropertyOp7
 70
     1
102
RTVSPropertyOp8
 70
     1
102
RTVSPropertyOp9
 70
     1
102
RTVSPropertyOp10
 70
     1
102
RTVSPropertyOp11
 70
     1
102
RTVSPropertyOp12
 70
     1
102
RTVSPropertyOp13
 70
     1
102
RTVSPropertyOp14
 70
     1
102
RTVSPropertyOp15
 70
     1
102
RTVSPropertyOp16
 70
     1
102
RTVSPropertyOp17
 70
     1
102
RTVSPropertyOp18
 70
     1
102
RTVSPropertyOp19
 70
     1
102
RTVSPropertyOp20
 70
     1
102
RTVSPropertyOp21
 70
     1
102
RTVSPropertyOp22
 70
     1
102
RTVSPropertyOp23
 70
     1
102
RTVSPropertyOp24
 70
     1
102
RTVSPropertyOp25
 70
     1
102
RTVSPropertyOp26
 70
     1
102
RTVSPropertyOp27
 70
     1
102
RTVSPropertyOp28
 70
     1
102
RTVSPropertyOp29
 70
     1
102
RTVSPropertyOp30
 70
     1
102
RTVSPropertyOp31
 70
     1
102
RTVSPropertyOp32
 70
     1
102
RTVSPropertyOp33
 70
     1
102
RTVSPropertyOp34
 70
     1
102
RTVSPropertyOp35
 70
     1
102
RTVSPropertyOp36
 70
     1
102
RTVSPropertyOp37
 70
     1
102
RTVSPropertyOp38
 70
     1
102
RTVSPropertyOp39
 70
     1
102
RTVSPropertyOp40
 70
     1
102
RTVSPropertyOp41
 70
     1
102
RTVSPropertyOp42
 70
     1
102
RTVSPropertyOp43
 70
     1
102
RTVSPropertyOp44
 70
     1
102
RTVSPropertyOp45
 70
     1
102
RTVSPropertyOp46
 70
     1
102
RTVSPropertyOp47
 70
     1
102
RTVSPropertyOp48
 70
     1
102
RTVSPropertyOp49
 70
     1
102
RTVSPropertyOp50
 70
     1
102
RTVSPropertyOp51
 70
     0
102
RTVSPropertyOp52
 70
     0
102
RTVSPropertyOp53
 70
     1
102
RTVSPropertyOp54
 70
     1
102
RTVSPropertyOp55
 70
     1
102
RTVSPropertyOp56
 70
     1
102
RTVSPropertyOp57
 70
     1
102
RTVSPropertyOp58
 70
     1
102
RTVSPropertyOp59
 70
     1
102
RTVSPropertyOp60
 70
     1
102
RTVSPropertyOp61
 70
     1
102
RTVSPropertyOp62
 70
     1
  0
XRECORD
  5
9447
102
{ACAD_REACTORS
330
9446
102
}
330
9446
100
AcDbXrecord
280
     1
102
RTVSPost2010Prop28
280
     0
102
RTVSPost2010PropOp28
 70
     1
102
RTVSPost2010Prop29
280
     1
102
RTVSPost2010PropOp29
 70
     1
102
RTVSPost2010Prop30
280
     1
102
RTVSPost2010PropOp30
 70
     1
102
RTVSPost2010Prop31
280
     0
102
RTVSPost2010PropOp31
 70
     1
102
RTVSPost2010Prop32
280
     0
102
RTVSPost2010PropOp32
 70
     1
102
RTVSPost2010Prop33
280
     0
102
RTVSPost2010PropOp33
 70
     1
102
RTVSPost2010Prop34
280
     0
102
RTVSPost2010PropOp34
 70
     1
102
RTVSPost2010Prop35
280
     0
102
RTVSPost2010PropOp35
 70
     1
102
RTVSPost2010Prop36
280
     0
102
RTVSPost2010PropOp36
 70
     1
102
RTVSPost2010Prop37
 90
       50
102
RTVSPost2010PropOp37
 70
     1
102
RTVSPost2010Prop38
140
0.0
102
RTVSPost2010PropOp38
 70
     1
102
RTVSPost2010Prop39
140
1.0
102
RTVSPost2010PropOp39
 70
     1
102
RTVSPost2010Prop40
 90
        0
102
RTVSPost2010PropOp40
 70
     1
102
RTVSPost2010Prop41ColorIndex
 90
       18
102
RTVSPost2010Prop41ColorRGB
 90
        0
102
RTVSPost2010PropOp41
 70
     1
102
RTVSPost2010Prop42
 90
       50
102
RTVSPost2010PropOp42
 70
     1
102
RTVSPost2010Prop43
 90
        3
102
RTVSPost2010PropOp43
 70
     1
102
RTVSPost2010Prop44ColorIndex
 90
        5
102
RTVSPost2010Prop44ColorRGB
 90
      255
102
RTVSPost2010PropOp44
 70
     1
102
RTVSPost2010Prop45
280
     0
102
RTVSPost2010PropOp45
 70
     1
102
RTVSPost2010Prop46
 90
       50
102
RTVSPost2010PropOp46
 70
     1
102
RTVSPost2010Prop47
 90
       50
102
RTVSPost2010PropOp47
 70
     1
102
RTVSPost2010Prop48
 90
       50
102
RTVSPost2010PropOp48
 70
     1
102
RTVSPost2010Prop49
280
     0
102
RTVSPost2010PropOp49
 70
     1
102
RTVSPost2010Prop50
 90
       50
102
RTVSPost2010PropOp50
 70
     1
102
RTVSPost2010Prop51ColorIndex
 90
      256
102
RTVSPost2010Prop51ColorRGB
 90
-16777216
102
RTVSPost2010PropOp51
 70
     0
102
RTVSPost2010Prop52
140
1.0
102
RTVSPost2010PropOp52
 70
     0
102
RTVSPost2010Prop53
 90
        2
102
RTVSPost2010PropOp53
 70
     1
102
RTVSPost2010Prop54
  1
strokes_ogs.tif
102
RTVSPost2010PropOp54
 70
     1
102
RTVSPost2010Prop55
280
     0
102
RTVSPost2010PropOp55
 70
     1
102
RTVSPost2010Prop56
140
1.0
102
RTVSPost2010PropOp56
 70
     1
102
RTVSPost2010Prop57
140
1.0
102
RTVSPost2010PropOp57
 70
     1
102
RTVSPropertyOp0
 70
     1
102
RTVSPropertyOp1
 70
     1
102
RTVSPropertyOp2
 70
     1
102
RTVSPropertyOp3
 70
     1
102
RTVSPropertyOp4
 70
     1
102
RTVSPropertyOp5
 70
     1
102
RTVSPropertyOp6
 70
     1
102
RTVSPropertyOp7
 70
     1
102
RTVSPropertyOp8
 70
     1
102
RTVSPropertyOp9
 70
     1
102
RTVSPropertyOp10
 70
     1
102
RTVSPropertyOp11
 70
     1
102
RTVSPropertyOp12
 70
     1
102
RTVSPropertyOp13
 70
     1
102
RTVSPropertyOp14
 70
     1
102
RTVSPropertyOp15
 70
     1
102
RTVSPropertyOp16
 70
     1
102
RTVSPropertyOp17
 70
     1
102
RTVSPropertyOp18
 70
     1
102
RTVSPropertyOp19
 70
     1
102
RTVSPropertyOp20
 70
     1
102
RTVSPropertyOp21
 70
     1
102
RTVSPropertyOp22
 70
     1
102
RTVSPropertyOp23
 70
     1
102
RTVSPropertyOp24
 70
     1
102
RTVSPropertyOp25
 70
     1
102
RTVSPropertyOp26
 70
     1
102
RTVSPropertyOp27
 70
     1
102
RTVSPropertyOp28
 70
     1
102
RTVSPropertyOp29
 70
     1
102
RTVSPropertyOp30
 70
     1
102
RTVSPropertyOp31
 70
     1
102
RTVSPropertyOp32
 70
     1
102
RTVSPropertyOp33
 70
     1
102
RTVSPropertyOp34
 70
     1
102
RTVSPropertyOp35
 70
     1
102
RTVSPropertyOp36
 70
     1
102
RTVSPropertyOp37
 70
     1
102
RTVSPropertyOp38
 70
     1
102
RTVSPropertyOp39
 70
     1
102
RTVSPropertyOp40
 70
     1
102
RTVSPropertyOp41
 70
     1
102
RTVSPropertyOp42
 70
     1
102
RTVSPropertyOp43
 70
     1
102
RTVSPropertyOp44
 70
     1
102
RTVSPropertyOp45
 70
     1
102
RTVSPropertyOp46
 70
     1
102
RTVSPropertyOp47
 70
     1
102
RTVSPropertyOp48
 70
     1
102
RTVSPropertyOp49
 70
     1
102
RTVSPropertyOp50
 70
     1
102
RTVSPropertyOp51
 70
     0
102
RTVSPropertyOp52
 70
     0
102
RTVSPropertyOp53
 70
     1
102
RTVSPropertyOp54
 70
     1
102
RTVSPropertyOp55
 70
     1
102
RTVSPropertyOp56
 70
     1
102
RTVSPropertyOp57
 70
     1
102
RTVSPropertyOp58
 70
     1
102
RTVSPropertyOp59
 70
     1
102
RTVSPropertyOp60
 70
     1
102
RTVSPropertyOp61
 70
     1
102
RTVSPropertyOp62
 70
     1
  0
XRECORD
  5
943D
102
{ACAD_REACTORS
330
943C
102
}
330
943C
100
AcDbXrecord
280
     1
102
RTVSPost2010Prop28
280
     0
102
RTVSPost2010PropOp28
 70
     1
102
RTVSPost2010Prop29
280
     1
102
RTVSPost2010PropOp29
 70
     1
102
RTVSPost2010Prop30
280
     1
102
RTVSPost2010PropOp30
 70
     1
102
RTVSPost2010Prop31
280
     0
102
RTVSPost2010PropOp31
 70
     1
102
RTVSPost2010Prop32
280
     0
102
RTVSPost2010PropOp32
 70
     1
102
RTVSPost2010Prop33
280
     0
102
RTVSPost2010PropOp33
 70
     1
102
RTVSPost2010Prop34
280
     0
102
RTVSPost2010PropOp34
 70
     1
102
RTVSPost2010Prop35
280
     0
102
RTVSPost2010PropOp35
 70
     1
102
RTVSPost2010Prop36
280
     0
102
RTVSPost2010PropOp36
 70
     1
102
RTVSPost2010Prop37
 90
       50
102
RTVSPost2010PropOp37
 70
     1
102
RTVSPost2010Prop38
140
0.0
102
RTVSPost2010PropOp38
 70
     1
102
RTVSPost2010Prop39
140
1.0
102
RTVSPost2010PropOp39
 70
     1
102
RTVSPost2010Prop40
 90
        0
102
RTVSPost2010PropOp40
 70
     1
102
RTVSPost2010Prop41ColorIndex
 90
       18
102
RTVSPost2010Prop41ColorRGB
 90
        0
102
RTVSPost2010PropOp41
 70
     1
102
RTVSPost2010Prop42
 90
       50
102
RTVSPost2010PropOp42
 70
     1
102
RTVSPost2010Prop43
 90
        3
102
RTVSPost2010PropOp43
 70
     1
102
RTVSPost2010Prop44ColorIndex
 90
        5
102
RTVSPost2010Prop44ColorRGB
 90
      255
102
RTVSPost2010PropOp44
 70
     1
102
RTVSPost2010Prop45
280
     0
102
RTVSPost2010PropOp45
 70
     1
102
RTVSPost2010Prop46
 90
       50
102
RTVSPost2010PropOp46
 70
     1
102
RTVSPost2010Prop47
 90
       50
102
RTVSPost2010PropOp47
 70
     1
102
RTVSPost2010Prop48
 90
       50
102
RTVSPost2010PropOp48
 70
     1
102
RTVSPost2010Prop49
280
     0
102
RTVSPost2010PropOp49
 70
     1
102
RTVSPost2010Prop50
 90
       50
102
RTVSPost2010PropOp50
 70
     1
102
RTVSPost2010Prop51ColorIndex
 90
      256
102
RTVSPost2010Prop51ColorRGB
 90
-16777216
102
RTVSPost2010PropOp51
 70
     0
102
RTVSPost2010Prop52
140
1.0
102
RTVSPost2010PropOp52
 70
     0
102
RTVSPost2010Prop53
 90
        2
102
RTVSPost2010PropOp53
 70
     1
102
RTVSPost2010Prop54
  1
strokes_ogs.tif
102
RTVSPost2010PropOp54
 70
     1
102
RTVSPost2010Prop55
280
     0
102
RTVSPost2010PropOp55
 70
     1
102
RTVSPost2010Prop56
140
1.0
102
RTVSPost2010PropOp56
 70
     1
102
RTVSPost2010Prop57
140
1.0
102
RTVSPost2010PropOp57
 70
     1
102
RTVSPropertyOp0
 70
     1
102
RTVSPropertyOp1
 70
     1
102
RTVSPropertyOp2
 70
     1
102
RTVSPropertyOp3
 70
     1
102
RTVSPropertyOp4
 70
     1
102
RTVSPropertyOp5
 70
     1
102
RTVSPropertyOp6
 70
     1
102
RTVSPropertyOp7
 70
     1
102
RTVSPropertyOp8
 70
     1
102
RTVSPropertyOp9
 70
     1
102
RTVSPropertyOp10
 70
     1
102
RTVSPropertyOp11
 70
     1
102
RTVSPropertyOp12
 70
     1
102
RTVSPropertyOp13
 70
     1
102
RTVSPropertyOp14
 70
     1
102
RTVSPropertyOp15
 70
     1
102
RTVSPropertyOp16
 70
     1
102
RTVSPropertyOp17
 70
     1
102
RTVSPropertyOp18
 70
     1
102
RTVSPropertyOp19
 70
     1
102
RTVSPropertyOp20
 70
     1
102
RTVSPropertyOp21
 70
     1
102
RTVSPropertyOp22
 70
     1
102
RTVSPropertyOp23
 70
     1
102
RTVSPropertyOp24
 70
     1
102
RTVSPropertyOp25
 70
     1
102
RTVSPropertyOp26
 70
     1
102
RTVSPropertyOp27
 70
     1
102
RTVSPropertyOp28
 70
     1
102
RTVSPropertyOp29
 70
     1
102
RTVSPropertyOp30
 70
     1
102
RTVSPropertyOp31
 70
     1
102
RTVSPropertyOp32
 70
     1
102
RTVSPropertyOp33
 70
     1
102
RTVSPropertyOp34
 70
     1
102
RTVSPropertyOp35
 70
     1
102
RTVSPropertyOp36
 70
     1
102
RTVSPropertyOp37
 70
     1
102
RTVSPropertyOp38
 70
     1
102
RTVSPropertyOp39
 70
     1
102
RTVSPropertyOp40
 70
     1
102
RTVSPropertyOp41
 70
     1
102
RTVSPropertyOp42
 70
     1
102
RTVSPropertyOp43
 70
     1
102
RTVSPropertyOp44
 70
     1
102
RTVSPropertyOp45
 70
     1
102
RTVSPropertyOp46
 70
     1
102
RTVSPropertyOp47
 70
     1
102
RTVSPropertyOp48
 70
     1
102
RTVSPropertyOp49
 70
     1
102
RTVSPropertyOp50
 70
     1
102
RTVSPropertyOp51
 70
     0
102
RTVSPropertyOp52
 70
     0
102
RTVSPropertyOp53
 70
     1
102
RTVSPropertyOp54
 70
     1
102
RTVSPropertyOp55
 70
     1
102
RTVSPropertyOp56
 70
     1
102
RTVSPropertyOp57
 70
     1
102
RTVSPropertyOp58
 70
     1
102
RTVSPropertyOp59
 70
     1
102
RTVSPropertyOp60
 70
     1
102
RTVSPropertyOp61
 70
     1
102
RTVSPropertyOp62
 70
     1
  0
XRECORD
  5
9431
102
{ACAD_REACTORS
330
9430
102
}
330
9430
100
AcDbXrecord
280
     1
102
RTVSPost2010Prop28
280
     0
102
RTVSPost2010PropOp28
 70
     1
102
RTVSPost2010Prop29
280
     1
102
RTVSPost2010PropOp29
 70
     1
102
RTVSPost2010Prop30
280
     1
102
RTVSPost2010PropOp30
 70
     1
102
RTVSPost2010Prop31
280
     0
102
RTVSPost2010PropOp31
 70
     1
102
RTVSPost2010Prop32
280
     0
102
RTVSPost2010PropOp32
 70
     1
102
RTVSPost2010Prop33
280
     0
102
RTVSPost2010PropOp33
 70
     1
102
RTVSPost2010Prop34
280
     0
102
RTVSPost2010PropOp34
 70
     1
102
RTVSPost2010Prop35
280
     0
102
RTVSPost2010PropOp35
 70
     1
102
RTVSPost2010Prop36
280
     0
102
RTVSPost2010PropOp36
 70
     1
102
RTVSPost2010Prop37
 90
       50
102
RTVSPost2010PropOp37
 70
     1
102
RTVSPost2010Prop38
140
0.0
102
RTVSPost2010PropOp38
 70
     1
102
RTVSPost2010Prop39
140
1.0
102
RTVSPost2010PropOp39
 70
     1
102
RTVSPost2010Prop40
 90
        0
102
RTVSPost2010PropOp40
 70
     1
102
RTVSPost2010Prop41ColorIndex
 90
       18
102
RTVSPost2010Prop41ColorRGB
 90
        0
102
RTVSPost2010PropOp41
 70
     1
102
RTVSPost2010Prop42
 90
       50
102
RTVSPost2010PropOp42
 70
     1
102
RTVSPost2010Prop43
 90
        3
102
RTVSPost2010PropOp43
 70
     1
102
RTVSPost2010Prop44ColorIndex
 90
        5
102
RTVSPost2010Prop44ColorRGB
 90
      255
102
RTVSPost2010PropOp44
 70
     1
102
RTVSPost2010Prop45
280
     0
102
RTVSPost2010PropOp45
 70
     1
102
RTVSPost2010Prop46
 90
       50
102
RTVSPost2010PropOp46
 70
     1
102
RTVSPost2010Prop47
 90
       50
102
RTVSPost2010PropOp47
 70
     1
102
RTVSPost2010Prop48
 90
       50
102
RTVSPost2010PropOp48
 70
     1
102
RTVSPost2010Prop49
280
     0
102
RTVSPost2010PropOp49
 70
     1
102
RTVSPost2010Prop50
 90
       50
102
RTVSPost2010PropOp50
 70
     1
102
RTVSPost2010Prop51ColorIndex
 90
      256
102
RTVSPost2010Prop51ColorRGB
 90
-16777216
102
RTVSPost2010PropOp51
 70
     0
102
RTVSPost2010Prop52
140
1.0
102
RTVSPost2010PropOp52
 70
     0
102
RTVSPost2010Prop53
 90
        2
102
RTVSPost2010PropOp53
 70
     1
102
RTVSPost2010Prop54
  1
strokes_ogs.tif
102
RTVSPost2010PropOp54
 70
     1
102
RTVSPost2010Prop55
280
     0
102
RTVSPost2010PropOp55
 70
     1
102
RTVSPost2010Prop56
140
1.0
102
RTVSPost2010PropOp56
 70
     1
102
RTVSPost2010Prop57
140
1.0
102
RTVSPost2010PropOp57
 70
     1
102
RTVSPropertyOp0
 70
     1
102
RTVSPropertyOp1
 70
     1
102
RTVSPropertyOp2
 70
     1
102
RTVSPropertyOp3
 70
     1
102
RTVSPropertyOp4
 70
     1
102
RTVSPropertyOp5
 70
     1
102
RTVSPropertyOp6
 70
     1
102
RTVSPropertyOp7
 70
     1
102
RTVSPropertyOp8
 70
     1
102
RTVSPropertyOp9
 70
     1
102
RTVSPropertyOp10
 70
     1
102
RTVSPropertyOp11
 70
     1
102
RTVSPropertyOp12
 70
     1
102
RTVSPropertyOp13
 70
     1
102
RTVSPropertyOp14
 70
     1
102
RTVSPropertyOp15
 70
     1
102
RTVSPropertyOp16
 70
     1
102
RTVSPropertyOp17
 70
     1
102
RTVSPropertyOp18
 70
     1
102
RTVSPropertyOp19
 70
     1
102
RTVSPropertyOp20
 70
     1
102
RTVSPropertyOp21
 70
     1
102
RTVSPropertyOp22
 70
     1
102
RTVSPropertyOp23
 70
     1
102
RTVSPropertyOp24
 70
     1
102
RTVSPropertyOp25
 70
     1
102
RTVSPropertyOp26
 70
     1
102
RTVSPropertyOp27
 70
     1
102
RTVSPropertyOp28
 70
     1
102
RTVSPropertyOp29
 70
     1
102
RTVSPropertyOp30
 70
     1
102
RTVSPropertyOp31
 70
     1
102
RTVSPropertyOp32
 70
     1
102
RTVSPropertyOp33
 70
     1
102
RTVSPropertyOp34
 70
     1
102
RTVSPropertyOp35
 70
     1
102
RTVSPropertyOp36
 70
     1
102
RTVSPropertyOp37
 70
     1
102
RTVSPropertyOp38
 70
     1
102
RTVSPropertyOp39
 70
     1
102
RTVSPropertyOp40
 70
     1
102
RTVSPropertyOp41
 70
     1
102
RTVSPropertyOp42
 70
     1
102
RTVSPropertyOp43
 70
     1
102
RTVSPropertyOp44
 70
     1
102
RTVSPropertyOp45
 70
     1
102
RTVSPropertyOp46
 70
     1
102
RTVSPropertyOp47
 70
     1
102
RTVSPropertyOp48
 70
     1
102
RTVSPropertyOp49
 70
     1
102
RTVSPropertyOp50
 70
     1
102
RTVSPropertyOp51
 70
     0
102
RTVSPropertyOp52
 70
     0
102
RTVSPropertyOp53
 70
     1
102
RTVSPropertyOp54
 70
     1
102
RTVSPropertyOp55
 70
     1
102
RTVSPropertyOp56
 70
     1
102
RTVSPropertyOp57
 70
     1
102
RTVSPropertyOp58
 70
     1
102
RTVSPropertyOp59
 70
     1
102
RTVSPropertyOp60
 70
     1
102
RTVSPropertyOp61
 70
     1
102
RTVSPropertyOp62
 70
     1
  0
XRECORD
  5
9449
102
{ACAD_REACTORS
330
9448
102
}
330
9448
100
AcDbXrecord
280
     1
102
RTVSPost2010Prop28
280
     0
102
RTVSPost2010PropOp28
 70
     1
102
RTVSPost2010Prop29
280
     1
102
RTVSPost2010PropOp29
 70
     1
102
RTVSPost2010Prop30
280
     1
102
RTVSPost2010PropOp30
 70
     1
102
RTVSPost2010Prop31
280
     0
102
RTVSPost2010PropOp31
 70
     1
102
RTVSPost2010Prop32
280
     0
102
RTVSPost2010PropOp32
 70
     1
102
RTVSPost2010Prop33
280
     0
102
RTVSPost2010PropOp33
 70
     1
102
RTVSPost2010Prop34
280
     0
102
RTVSPost2010PropOp34
 70
     1
102
RTVSPost2010Prop35
280
     0
102
RTVSPost2010PropOp35
 70
     1
102
RTVSPost2010Prop36
280
     0
102
RTVSPost2010PropOp36
 70
     1
102
RTVSPost2010Prop37
 90
       50
102
RTVSPost2010PropOp37
 70
     1
102
RTVSPost2010Prop38
140
0.0
102
RTVSPost2010PropOp38
 70
     1
102
RTVSPost2010Prop39
140
1.0
102
RTVSPost2010PropOp39
 70
     1
102
RTVSPost2010Prop40
 90
        0
102
RTVSPost2010PropOp40
 70
     1
102
RTVSPost2010Prop41ColorIndex
 90
       18
102
RTVSPost2010Prop41ColorRGB
 90
        0
102
RTVSPost2010PropOp41
 70
     1
102
RTVSPost2010Prop42
 90
       50
102
RTVSPost2010PropOp42
 70
     1
102
RTVSPost2010Prop43
 90
        3
102
RTVSPost2010PropOp43
 70
     1
102
RTVSPost2010Prop44ColorIndex
 90
        5
102
RTVSPost2010Prop44ColorRGB
 90
      255
102
RTVSPost2010PropOp44
 70
     1
102
RTVSPost2010Prop45
280
     0
102
RTVSPost2010PropOp45
 70
     1
102
RTVSPost2010Prop46
 90
       50
102
RTVSPost2010PropOp46
 70
     1
102
RTVSPost2010Prop47
 90
       50
102
RTVSPost2010PropOp47
 70
     1
102
RTVSPost2010Prop48
 90
       50
102
RTVSPost2010PropOp48
 70
     1
102
RTVSPost2010Prop49
280
     0
102
RTVSPost2010PropOp49
 70
     1
102
RTVSPost2010Prop50
 90
       50
102
RTVSPost2010PropOp50
 70
     1
102
RTVSPost2010Prop51ColorIndex
 90
      256
102
RTVSPost2010Prop51ColorRGB
 90
-16777216
102
RTVSPost2010PropOp51
 70
     0
102
RTVSPost2010Prop52
140
1.0
102
RTVSPost2010PropOp52
 70
     0
102
RTVSPost2010Prop53
 90
        2
102
RTVSPost2010PropOp53
 70
     1
102
RTVSPost2010Prop54
  1
strokes_ogs.tif
102
RTVSPost2010PropOp54
 70
     1
102
RTVSPost2010Prop55
280
     0
102
RTVSPost2010PropOp55
 70
     1
102
RTVSPost2010Prop56
140
1.0
102
RTVSPost2010PropOp56
 70
     1
102
RTVSPost2010Prop57
140
1.0
102
RTVSPost2010PropOp57
 70
     1
102
RTVSPropertyOp0
 70
     1
102
RTVSPropertyOp1
 70
     1
102
RTVSPropertyOp2
 70
     1
102
RTVSPropertyOp3
 70
     1
102
RTVSPropertyOp4
 70
     1
102
RTVSPropertyOp5
 70
     1
102
RTVSPropertyOp6
 70
     1
102
RTVSPropertyOp7
 70
     1
102
RTVSPropertyOp8
 70
     1
102
RTVSPropertyOp9
 70
     1
102
RTVSPropertyOp10
 70
     1
102
RTVSPropertyOp11
 70
     1
102
RTVSPropertyOp12
 70
     1
102
RTVSPropertyOp13
 70
     1
102
RTVSPropertyOp14
 70
     1
102
RTVSPropertyOp15
 70
     1
102
RTVSPropertyOp16
 70
     1
102
RTVSPropertyOp17
 70
     1
102
RTVSPropertyOp18
 70
     1
102
RTVSPropertyOp19
 70
     1
102
RTVSPropertyOp20
 70
     1
102
RTVSPropertyOp21
 70
     1
102
RTVSPropertyOp22
 70
     1
102
RTVSPropertyOp23
 70
     1
102
RTVSPropertyOp24
 70
     1
102
RTVSPropertyOp25
 70
     1
102
RTVSPropertyOp26
 70
     1
102
RTVSPropertyOp27
 70
     1
102
RTVSPropertyOp28
 70
     1
102
RTVSPropertyOp29
 70
     1
102
RTVSPropertyOp30
 70
     1
102
RTVSPropertyOp31
 70
     1
102
RTVSPropertyOp32
 70
     1
102
RTVSPropertyOp33
 70
     1
102
RTVSPropertyOp34
 70
     1
102
RTVSPropertyOp35
 70
     1
102
RTVSPropertyOp36
 70
     1
102
RTVSPropertyOp37
 70
     1
102
RTVSPropertyOp38
 70
     1
102
RTVSPropertyOp39
 70
     1
102
RTVSPropertyOp40
 70
     1
102
RTVSPropertyOp41
 70
     1
102
RTVSPropertyOp42
 70
     1
102
RTVSPropertyOp43
 70
     1
102
RTVSPropertyOp44
 70
     1
102
RTVSPropertyOp45
 70
     1
102
RTVSPropertyOp46
 70
     1
102
RTVSPropertyOp47
 70
     1
102
RTVSPropertyOp48
 70
     1
102
RTVSPropertyOp49
 70
     1
102
RTVSPropertyOp50
 70
     1
102
RTVSPropertyOp51
 70
     0
102
RTVSPropertyOp52
 70
     0
102
RTVSPropertyOp53
 70
     1
102
RTVSPropertyOp54
 70
     1
102
RTVSPropertyOp55
 70
     1
102
RTVSPropertyOp56
 70
     1
102
RTVSPropertyOp57
 70
     1
102
RTVSPropertyOp58
 70
     1
102
RTVSPropertyOp59
 70
     1
102
RTVSPropertyOp60
 70
     1
102
RTVSPropertyOp61
 70
     1
102
RTVSPropertyOp62
 70
     1
  0
ENDSEC
  0
EOF
