  0
SECTION
  2
HEADER
  9
$ACADVER
  1
AC1015
  9
$ACADMAINTVER
 70
    20
  9
$DWGCODEPAGE
  3
ANSI_932
  9
$INSBASE
 10
0.0
 20
0.0
 30
0.0
  9
$EXTMIN
 10
8.438761999999998
 20
9.999999999999998
 30
0.0
  9
$EXTMAX
 10
389.808489
 20
272.1657319999998
 30
0.0
  9
$LIMMIN
 10
0.0
 20
0.0
  9
$LIMMAX
 10
396.0
 20
273.0
  9
$ORTHOMODE
 70
     1
  9
$REGENMODE
 70
     1
  9
$FILLMODE
 70
     1
  9
$QTEXTMODE
 70
     0
  9
$MIRRTEXT
 70
     1
  9
$LTSCALE
 40
20.0
  9
$ATTMODE
 70
     1
  9
$TEXTSIZE
 40
5.0
  9
$TRACEWID
 40
1.0
  9
$TEXTSTYLE
  7
STANDARD
  9
$CLAYER
  8
0
  9
$CELTYPE
  6
BYLAYER
  9
$CECOLOR
 62
   256
  9
$CELTSCALE
 40
1.0
  9
$DISPSILH
 70
     0
  9
$DIMSCALE
 40
1.0
  9
$DIMASZ
 40
3.0
  9
$DIMEXO
 40
1.0
  9
$DIMDLI
 40
1.0
  9
$DIMRND
 40
0.0
  9
$DIMDLE
 40
0.0
  9
$DIMEXE
 40
1.0
  9
$DIMTP
 40
0.0
  9
$DIMTM
 40
0.0
  9
$DIMTXT
 40
3.2
  9
$DIMCEN
 40
0.0
  9
$DIMTSZ
 40
0.0
  9
$DIMTOL
 70
     0
  9
$DIMLIM
 70
     0
  9
$DIMTIH
 70
     0
  9
$DIMTOH
 70
     0
  9
$DIMSE1
 70
     0
  9
$DIMSE2
 70
     0
  9
$DIMTAD
 70
     1
  9
$DIMZIN
 70
     9
  9
$DIMBLK
  1

  9
$DIMASO
 70
     1
  9
$DIMSHO
 70
     1
  9
$DIMPOST
  1

  9
$DIMAPOST
  1

  9
$DIMALT
 70
     0
  9
$DIMALTD
 70
     2
  9
$DIMALTF
 40
25.4
  9
$DIMLFAC
 40
1.0
  9
$DIMTOFL
 70
     1
  9
$DIMTVP
 40
0.0
  9
$DIMTIX
 70
     0
  9
$DIMSOXD
 70
     0
  9
$DIMSAH
 70
     1
  9
$DIMBLK1
  1

  9
$DIMBLK2
  1

  9
$DIMSTYLE
  2
STANDARD
  9
$DIMCLRD
 70
   256
  9
$DIMCLRE
 70
   256
  9
$DIMCLRT
 70
   256
  9
$DIMTFAC
 40
1.0
  9
$DIMGAP
 40
1.0
  9
$DIMJUST
 70
     0
  9
$DIMSD1
 70
     0
  9
$DIMSD2
 70
     0
  9
$DIMTOLJ
 70
     1
  9
$DIMTZIN
 70
     0
  9
$DIMALTZ
 70
     0
  9
$DIMALTTZ
 70
     0
  9
$DIMUPT
 70
     0
  9
$DIMDEC
 70
     4
  9
$DIMTDEC
 70
     4
  9
$DIMALTU
 70
     2
  9
$DIMALTTD
 70
     2
  9
$DIMTXSTY
  7
STANDARD
  9
$DIMAUNIT
 70
     0
  9
$DIMADEC
 70
     0
  9
$DIMALTRND
 40
0.0
  9
$DIMAZIN
 70
     0
  9
$DIMDSEP
 70
    46
  9
$DIMATFIT
 70
     3
  9
$DIMFRAC
 70
     0
  9
$DIMLDRBLK
  1

  9
$DIMLUNIT
 70
     2
  9
$DIMLWD
 70
    -2
  9
$DIMLWE
 70
    -2
  9
$DIMTMOVE
 70
     0
  9
$LUNITS
 70
     2
  9
$LUPREC
 70
     4
  9
$SKETCHINC
 40
1.0
  9
$FILLETRAD
 40
1.0
  9
$AUNITS
 70
     0
  9
$AUPREC
 70
     2
  9
$MENU
  1
.
  9
$ELEVATION
 40
0.0
  9
$PELEVATION
 40
0.0
  9
$THICKNESS
 40
0.0
  9
$LIMCHECK
 70
     0
  9
$CHAMFERA
 40
10.0
  9
$CHAMFERB
 40
10.0
  9
$CHAMFERC
 40
0.0
  9
$CHAMFERD
 40
0.0
  9
$SKPOLY
 70
     0
  9
$TDCREATE
 40
2450737.704336111
  9
$TDUCREATE
 40
2450737.329336111
  9
$TDUPDATE
 40
2457192.640425984
  9
$TDUUPDATE
 40
2457192.265425984
  9
$TDINDWG
 40
0.0000149306
  9
$TDUSRTIMER
 40
0.0000144213
  9
$USRTIMER
 70
     1
  9
$ANGBASE
 50
0.0
  9
$ANGDIR
 70
     0
  9
$PDMODE
 70
     0
  9
$PDSIZE
 40
0.0
  9
$PLINEWID
 40
0.0
  9
$SPLFRAME
 70
     0
  9
$SPLINETYPE
 70
     6
  9
$SPLINESEGS
 70
     8
  9
$HANDSEED
  5
A83C
  9
$SURFTAB1
 70
     6
  9
$SURFTAB2
 70
     6
  9
$SURFTYPE
 70
     6
  9
$SURFU
 70
     6
  9
$SURFV
 70
     6
  9
$UCSBASE
  2

  9
$UCSNAME
  2

  9
$UCSORG
 10
0.0
 20
0.0
 30
0.0
  9
$UCSXDIR
 10
1.0
 20
0.0
 30
0.0
  9
$UCSYDIR
 10
0.0
 20
1.0
 30
0.0
  9
$UCSORTHOREF
  2

  9
$UCSORTHOVIEW
 70
     0
  9
$UCSORGTOP
 10
0.0
 20
0.0
 30
0.0
  9
$UCSORGBOTTOM
 10
0.0
 20
0.0
 30
0.0
  9
$UCSORGLEFT
 10
0.0
 20
0.0
 30
0.0
  9
$UCSORGRIGHT
 10
0.0
 20
0.0
 30
0.0
  9
$UCSORGFRONT
 10
0.0
 20
0.0
 30
0.0
  9
$UCSORGBACK
 10
0.0
 20
0.0
 30
0.0
  9
$PUCSBASE
  2

  9
$PUCSNAME
  2

  9
$PUCSORG
 10
0.0
 20
0.0
 30
0.0
  9
$PUCSXDIR
 10
1.0
 20
0.0
 30
0.0
  9
$PUCSYDIR
 10
0.0
 20
1.0
 30
0.0
  9
$PUCSORTHOREF
  2

  9
$PUCSORTHOVIEW
 70
     0
  9
$PUCSORGTOP
 10
0.0
 20
0.0
 30
0.0
  9
$PUCSORGBOTTOM
 10
0.0
 20
0.0
 30
0.0
  9
$PUCSORGLEFT
 10
0.0
 20
0.0
 30
0.0
  9
$PUCSORGRIGHT
 10
0.0
 20
0.0
 30
0.0
  9
$PUCSORGFRONT
 10
0.0
 20
0.0
 30
0.0
  9
$PUCSORGBACK
 10
0.0
 20
0.0
 30
0.0
  9
$USERI1
 70
     0
  9
$USERI2
 70
     0
  9
$USERI3
 70
     0
  9
$USERI4
 70
     0
  9
$USERI5
 70
     0
  9
$USERR1
 40
0.0
  9
$USERR2
 40
0.0
  9
$USERR3
 40
0.0
  9
$USERR4
 40
0.0
  9
$USERR5
 40
0.0
  9
$WORLDVIEW
 70
     1
  9
$SHADEDGE
 70
     3
  9
$SHADEDIF
 70
    70
  9
$TILEMODE
 70
     1
  9
$MAXACTVP
 70
    16
  9
$PINSBASE
 10
0.0
 20
0.0
 30
0.0
  9
$PLIMCHECK
 70
     0
  9
$PEXTMIN
 10
1.000000000000000E+20
 20
1.000000000000000E+20
 30
1.000000000000000E+20
  9
$PEXTMAX
 10
-1.000000000000000E+20
 20
-1.000000000000000E+20
 30
-1.000000000000000E+20
  9
$PLIMMIN
 10
0.0
 20
0.0
  9
$PLIMMAX
 10
420.0
 20
297.0
  9
$UNITMODE
 70
     0
  9
$VISRETAIN
 70
     0
  9
$PLINEGEN
 70
     0
  9
$PSLTSCALE
 70
     0
  9
$TREEDEPTH
 70
  3020
  9
$CMLSTYLE
  2
STANDARD
  9
$CMLJUST
 70
     0
  9
$CMLSCALE
 40
1.0
  9
$PROXYGRAPHICS
 70
     1
  9
$MEASUREMENT
 70
     0
  9
$CELWEIGHT
370
    -1
  9
$ENDCAPS
280
     0
  9
$JOINSTYLE
280
     0
  9
$LWDISPLAY
290
     0
  9
$INSUNITS
 70
     0
  9
$HYPERLINKBASE
  1

  9
$STYLESHEET
  1

  9
$XEDIT
290
     1
  9
$CEPSNTYPE
380
     0
  9
$PSTYLEMODE
290
     1
  9
$FINGERPRINTGUID
  2
{1DA8D03A-120C-451B-BC8A-6CC4C6136675}
  9
$VERSIONGUID
  2
{BEF20876-582A-4255-AACC-9980AD5233D9}
  9
$EXTNAMES
290
     1
  9
$PSVPSCALE
 40
0.0
  9
$OLESTARTUP
290
     0
  0
ENDSEC
  0
SECTION
  2
CLASSES
  0
CLASS
  1
ACDBDICTIONARYWDFLT
  2
AcDbDictionaryWithDefault
  3
ObjectDBX Classes
 90
        0
280
     0
281
     0
  0
CLASS
  1
ACDBPLACEHOLDER
  2
AcDbPlaceHolder
  3
ObjectDBX Classes
 90
        0
280
     0
281
     0
  0
CLASS
  1
LAYOUT
  2
AcDbLayout
  3
ObjectDBX Classes
 90
        0
280
     0
281
     0
  0
CLASS
  1
DICTIONARYVAR
  2
AcDbDictionaryVar
  3
ObjectDBX Classes
 90
        0
280
     0
281
     0
  0
CLASS
  1
MATERIAL
  2
AcDbMaterial
  3
ObjectDBX Classes
 90
     1153
280
     0
281
     0
  0
CLASS
  1
VISUALSTYLE
  2
AcDbVisualStyle
  3
ObjectDBX Classes
 90
     4095
280
     0
281
     0
  0
CLASS
  1
TABLESTYLE
  2
AcDbTableStyle
  3
ObjectDBX Classes
 90
     4095
280
     0
281
     0
  0
CLASS
  1
SCALE
  2
AcDbScale
  3
ObjectDBX Classes
 90
     1153
280
     0
281
     0
  0
CLASS
  1
MLEADERSTYLE
  2
AcDbMLeaderStyle
  3
ACDB_MLEADERSTYLE_CLASS
 90
     4095
280
     0
281
     0
  0
CLASS
  1
ACDBSECTIONVIEWSTYLE
  2
AcDbSectionViewStyle
  3
ObjectDBX Classes
 90
     1025
280
     0
281
     0
  0
CLASS
  1
ACDBDETAILVIEWSTYLE
  2
AcDbDetailViewStyle
  3
ObjectDBX Classes
 90
     1025
280
     0
281
     0
  0
CLASS
  1
CELLSTYLEMAP
  2
AcDbCellStyleMap
  3
ObjectDBX Classes
 90
     1152
280
     0
281
     0
  0
ENDSEC
  0
SECTION
  2
TABLES
  0
TABLE
  2
VPORT
  5
A595
330
0
100
AcDbSymbolTable
 70
     1
  0
VPORT
  5
A785
330
A595
100
AcDbSymbolTableRecord
100
AcDbViewportTableRecord
  2
*ACTIVE
 70
     0
 10
0.0
 20
0.0
 11
1.0
 21
1.0
 12
278.5292604302333
 22
141.0822149964307
 13
0.0
 23
0.0
 14
10.0
 24
10.0
 15
10.0
 25
10.0
 16
0.0
 26
0.0
 36
1.0
 17
0.0
 27
0.0
 37
0.0
 40
265.1183715530272
 41
1.899603698811096
 42
50.0
 43
0.0
 44
0.0
 50
0.0
 51
0.0
 71
     0
 72
   100
 73
     1
 74
     0
 75
     0
 76
     0
 77
     0
 78
     0
281
     0
 65
     1
110
0.0
120
0.0
130
0.0
111
1.0
121
0.0
131
0.0
112
0.0
122
1.0
132
0.0
 79
     0
146
0.0
1001
ACAD_NAV_VCDISPLAY
1070
     3
  0
ENDTAB
  0
TABLE
  2
LTYPE
  5
A592
330
0
100
AcDbSymbolTable
 70
     4
  0
LTYPE
  5
A5A0
330
A592
100
AcDbSymbolTableRecord
100
AcDbLinetypeTableRecord
  2
BYBLOCK
 70
     0
  3

 72
    65
 73
     0
 40
0.0
  0
LTYPE
  5
A5A1
330
A592
100
AcDbSymbolTableRecord
100
AcDbLinetypeTableRecord
  2
BYLAYER
 70
     0
  3

 72
    65
 73
     0
 40
0.0
  0
LTYPE
  5
A5A2
330
A592
100
AcDbSymbolTableRecord
100
AcDbLinetypeTableRecord
  2
CONTINUOUS
 70
     0
  3
Solid line
 72
    65
 73
     0
 40
0.0
  0
LTYPE
  5
A5B0
330
A592
100
AcDbSymbolTableRecord
100
AcDbLinetypeTableRecord
  2
DASHED
 70
     0
  3
__ __ __ __ __ __ __ __ __ __ __ __ __ __ __ __
 72
    65
 73
     2
 40
0.75
 49
0.5
 74
     0
 49
-0.25
 74
     0
  0
LTYPE
  5
A5B1
330
A592
100
AcDbSymbolTableRecord
100
AcDbLinetypeTableRecord
  2
CENTER
 70
     0
  3
____ _ ____ _ ____ _ ____ _ ____ _ ____ _ ____ 
 72
    65
 73
     4
 40
2.0
 49
1.25
 74
     0
 49
-0.25
 74
     0
 49
0.25
 74
     0
 49
-0.25
 74
     0
  0
LTYPE
  5
A5B2
330
A592
100
AcDbSymbolTableRecord
100
AcDbLinetypeTableRecord
  2
PHANTOM
 70
     0
  3
______  __  __  ______  __  __  ______  __  __ 
 72
    65
 73
     6
 40
2.5
 49
1.25
 74
     0
 49
-0.25
 74
     0
 49
0.25
 74
     0
 49
-0.25
 74
     0
 49
0.25
 74
     0
 49
-0.25
 74
     0
  0
ENDTAB
  0
TABLE
  2
LAYER
  5
A58F
330
0
100
AcDbSymbolTable
 70
     8
  0
LAYER
  5
A59D
102
{ACAD_XDICTIONARY
360
A7E0
102
}
330
A58F
100
AcDbSymbolTableRecord
100
AcDbLayerTableRecord
  2
0
 70
     0
 62
     7
  6
CONTINUOUS
370
    -3
390
A78E
  0
LAYER
  5
A5B3
102
{ACAD_XDICTIONARY
360
A7E2
102
}
330
A58F
100
AcDbSymbolTableRecord
100
AcDbLayerTableRecord
  2
4
 70
     0
 62
     1
  6
CENTER
370
    -3
390
A78E
  0
LAYER
  5
A5B4
102
{ACAD_XDICTIONARY
360
A7E4
102
}
330
A58F
100
AcDbSymbolTableRecord
100
AcDbLayerTableRecord
  2
5
 70
     0
 62
     6
  6
PHANTOM
370
    -3
390
A78E
  0
LAYER
  5
A5B5
102
{ACAD_XDICTIONARY
360
A7E6
102
}
330
A58F
100
AcDbSymbolTableRecord
100
AcDbLayerTableRecord
  2
1
 70
     0
 62
     7
  6
CONTINUOUS
370
    -3
390
A78E
  0
LAYER
  5
A5B6
102
{ACAD_XDICTIONARY
360
A7E8
102
}
330
A58F
100
AcDbSymbolTableRecord
100
AcDbLayerTableRecord
  2
2
 70
     0
 62
     4
  6
CONTINUOUS
370
    -3
390
A78E
  0
LAYER
  5
A5B7
102
{ACAD_XDICTIONARY
360
A7EA
102
}
330
A58F
100
AcDbSymbolTableRecord
100
AcDbLayerTableRecord
  2
3
 70
     0
 62
     2
  6
DASHED
370
    -3
390
A78E
  0
LAYER
  5
A5B8
102
{ACAD_XDICTIONARY
360
A7EC
102
}
330
A58F
100
AcDbSymbolTableRecord
100
AcDbLayerTableRecord
  2
6
 70
     0
 62
     5
  6
CONTINUOUS
370
    -3
390
A78E
  0
LAYER
  5
A5B9
102
{ACAD_XDICTIONARY
360
A7EE
102
}
330
A58F
100
AcDbSymbolTableRecord
100
AcDbLayerTableRecord
  2
7
 70
     0
 62
     3
  6
CONTINUOUS
370
    -3
390
A78E
  0
ENDTAB
  0
TABLE
  2
STYLE
  5
A590
330
0
100
AcDbSymbolTable
 70
     1
  0
STYLE
  5
A59E
330
A590
100
AcDbSymbolTableRecord
100
AcDbTextStyleTableRecord
  2
STANDARD
 70
     0
 40
0.0
 41
1.0
 50
0.0
 71
     0
 42
5.0
  3
txt
  4

  0
ENDTAB
  0
TABLE
  2
VIEW
  5
A593
330
0
100
AcDbSymbolTable
 70
     1
  0
VIEW
  5
A5BA
330
A593
100
AcDbSymbolTableRecord
100
AcDbViewTableRecord
  2
0
 70
     0
 40
281.617424
 10
269.123606
 20
140.808712
 41
538.247211
 11
0.0
 21
0.0
 31
1.0
 12
0.0
 22
0.0
 32
0.0
 42
50.0
 43
0.0
 44
0.0
 50
0.0
 71
     0
281
     0
 72
     0
  0
ENDTAB
  0
TABLE
  2
UCS
  5
A594
330
0
100
AcDbSymbolTable
 70
     0
  0
ENDTAB
  0
TABLE
  2
APPID
  5
A596
330
0
100
AcDbSymbolTable
 70
     3
  0
APPID
  5
A59F
330
A596
100
AcDbSymbolTableRecord
100
AcDbRegAppTableRecord
  2
ACAD
 70
     0
  0
APPID
  5
A7FA
330
A596
100
AcDbSymbolTableRecord
100
AcDbRegAppTableRecord
  2
ACAD_NAV_VCDISPLAY
 70
     0
  0
APPID
  5
A833
330
A596
100
AcDbSymbolTableRecord
100
AcDbRegAppTableRecord
  2
ACAD_MLEADERVER
 70
     0
  0
ENDTAB
  0
TABLE
  2
DIMSTYLE
  5
A597
330
0
100
AcDbSymbolTable
 70
     1
100
AcDbDimStyleTable
 71
     0
  0
DIMSTYLE
105
A5BC
330
A597
100
AcDbSymbolTableRecord
100
AcDbDimStyleTableRecord
  2
STANDARD
 70
     0
 41
3.0
 42
1.0
 43
1.0
 44
1.0
 73
     0
 74
     0
 77
     1
 78
     9
140
3.2
141
0.0
147
1.0
172
     1
173
     1
176
   256
177
   256
178
   256
284
     9
285
     9
286
     9
340
A59E
  0
ENDTAB
  0
TABLE
  2
BLOCK_RECORD
  5
A58E
330
0
100
AcDbSymbolTable
 70
     0
  0
BLOCK_RECORD
  5
A5AB
102
{ACAD_XDICTIONARY
360
A788
102
}
330
A58E
100
AcDbSymbolTableRecord
100
AcDbBlockTableRecord
  2
*MODEL_SPACE
340
A7DC
  0
BLOCK_RECORD
  5
A5A7
102
{ACAD_XDICTIONARY
360
A786
102
}
330
A58E
100
AcDbSymbolTableRecord
100
AcDbBlockTableRecord
  2
*PAPER_SPACE
340
A7DD
  0
ENDTAB
  0
ENDSEC
  0
SECTION
  2
BLOCKS
  0
BLOCK
  5
A5AC
330
A5AB
100
AcDbEntity
  8
0
100
AcDbBlockBegin
  2
*MODEL_SPACE
 70
     0
 10
0.0
 20
0.0
 30
0.0
  3
*MODEL_SPACE
  1

  0
ENDBLK
  5
A5AD
330
A5AB
100
AcDbEntity
  8
0
100
AcDbBlockEnd
  0
BLOCK
  5
A5A8
330
A5A7
100
AcDbEntity
 67
     1
  8
0
100
AcDbBlockBegin
  2
*PAPER_SPACE
 70
     0
 10
0.0
 20
0.0
 30
0.0
  3
*PAPER_SPACE
  1

  0
ENDBLK
  5
A5A9
330
A5A7
100
AcDbEntity
 67
     1
  8
0
100
AcDbBlockEnd
  0
ENDSEC
  0
SECTION
  2
ENTITIES
  0
LINE
  5
A5C4
330
A5AB
100
AcDbEntity
  8
1
  6
Continuous
100
AcDbLine
 10
22.20403999999999
 20
189.9897819999999
 30
0.0
 11
22.20403999999999
 21
109.989782
 31
0.0
  0
LINE
  5
A5C5
330
A5AB
100
AcDbEntity
  8
1
  6
Continuous
100
AcDbLine
 10
23.40403999999999
 20
189.9897819999999
 30
0.0
 11
23.40403999999999
 21
174.9897819999999
 31
0.0
  0
LINE
  5
A5C6
330
A5AB
100
AcDbEntity
  8
1
  6
Continuous
100
AcDbLine
 10
22.20403999999999
 20
189.9897819999999
 30
0.0
 11
24.60404
 21
189.9897819999999
 31
0.0
  0
LINE
  5
A5C7
330
A5AB
100
AcDbEntity
  8
1
  6
Continuous
100
AcDbLine
 10
22.20403999999999
 20
109.989782
 30
0.0
 11
24.60404
 21
109.989782
 31
0.0
  0
LINE
  5
A5C8
330
A5AB
100
AcDbEntity
  8
1
  6
Continuous
100
AcDbLine
 10
37.20404
 20
172.4897819999999
 30
0.0
 11
37.20404
 21
127.489782
 31
0.0
  0
LINE
  5
A5C9
330
A5AB
100
AcDbEntity
  8
1
  6
Continuous
100
AcDbLine
 10
22.20403999999999
 20
174.9897819999999
 30
0.0
 11
34.70404
 21
174.9897819999999
 31
0.0
  0
LINE
  5
A5CA
330
A5AB
100
AcDbEntity
  8
1
  6
Continuous
100
AcDbLine
 10
22.20403999999999
 20
124.989782
 30
0.0
 11
34.70404
 21
124.989782
 31
0.0
  0
ARC
  5
A5CB
330
A5AB
100
AcDbEntity
  8
1
  6
Continuous
100
AcDbCircle
 10
34.70404
 20
172.4897819999999
 30
0.0
 40
2.5
100
AcDbArc
 50
0.0
 51
90.0
  0
ARC
  5
A5CC
330
A5AB
100
AcDbEntity
  8
1
  6
Continuous
100
AcDbCircle
 10
34.70404
 20
127.489782
 30
0.0
 40
2.5
100
AcDbArc
 50
270.0
 51
0.0
  0
LINE
  5
A5CD
330
A5AB
100
AcDbEntity
  8
1
  6
Continuous
100
AcDbLine
 10
23.40403999999999
 20
124.989782
 30
0.0
 11
23.40403999999999
 21
109.989782
 31
0.0
  0
LINE
  5
A5CE
330
A5AB
100
AcDbEntity
  8
1
  6
Continuous
100
AcDbLine
 10
22.20403999999999
 20
159.6397819999999
 30
0.0
 11
33.90404
 21
159.6397819999999
 31
0.0
  0
LINE
  5
A5CF
330
A5AB
100
AcDbEntity
  8
1
  6
Continuous
100
AcDbLine
 10
22.20403999999999
 20
140.339782
 30
0.0
 11
33.90404
 21
140.339782
 31
0.0
  0
LINE
  5
A5D0
330
A5AB
100
AcDbEntity
  8
1
  6
Continuous
100
AcDbLine
 10
23.40403999999999
 20
159.6397819999999
 30
0.0
 11
23.40403999999999
 21
140.339782
 31
0.0
  0
LINE
  5
A5D1
330
A5AB
100
AcDbEntity
  8
1
  6
Continuous
100
AcDbLine
 10
260.6815279999998
 20
172.4897819999999
 30
0.0
 11
260.6815279999998
 21
127.489782
 31
0.0
  0
LINE
  5
A5D2
330
A5AB
100
AcDbEntity
  8
1
  6
Continuous
100
AcDbLine
 10
275.6815279999999
 20
189.9897819999999
 30
0.0
 11
275.6815279999999
 21
109.989782
 31
0.0
  0
LINE
  5
A5D3
330
A5AB
100
AcDbEntity
  8
1
  6
Continuous
100
AcDbLine
 10
274.4815279999999
 20
124.989782
 30
0.0
 11
274.4815279999999
 21
109.989782
 31
0.0
  0
ARC
  5
A5D4
330
A5AB
100
AcDbEntity
  8
1
  6
Continuous
100
AcDbCircle
 10
263.1815279999999
 20
127.489782
 30
0.0
 40
2.5
100
AcDbArc
 50
180.0
 51
270.0
  0
LINE
  5
A5D5
330
A5AB
100
AcDbEntity
  8
1
  6
Continuous
100
AcDbLine
 10
275.6815279999999
 20
109.989782
 30
0.0
 11
273.281528
 21
109.989782
 31
0.0
  0
LINE
  5
A5D6
330
A5AB
100
AcDbEntity
  8
1
  6
Continuous
100
AcDbLine
 10
275.6815279999999
 20
124.989782
 30
0.0
 11
263.1815279999999
 21
124.989782
 31
0.0
  0
LINE
  5
A5D7
330
A5AB
100
AcDbEntity
  8
4
  6
CENTER
100
AcDbLine
 10
285.979621
 20
149.9897819999999
 30
0.0
 11
228.2655269999999
 21
149.9897819999999
 31
0.0
  0
LINE
  5
A5D8
330
A5AB
100
AcDbEntity
  8
1
  6
Continuous
100
AcDbLine
 10
275.6815279999999
 20
174.9897819999999
 30
0.0
 11
263.1815279999999
 21
174.9897819999999
 31
0.0
  0
LINE
  5
A5D9
330
A5AB
100
AcDbEntity
  8
1
  6
Continuous
100
AcDbLine
 10
274.4815279999999
 20
189.9897819999999
 30
0.0
 11
274.4815279999999
 21
174.9897819999999
 31
0.0
  0
LINE
  5
A5DA
330
A5AB
100
AcDbEntity
  8
1
  6
Continuous
100
AcDbLine
 10
275.6815279999999
 20
189.9897819999999
 30
0.0
 11
273.281528
 21
189.9897819999999
 31
0.0
  0
ARC
  5
A5DB
330
A5AB
100
AcDbEntity
  8
1
  6
Continuous
100
AcDbCircle
 10
263.1815279999999
 20
172.4897819999999
 30
0.0
 40
2.5
100
AcDbArc
 50
90.0
 51
180.0
  0
LINE
  5
A5DC
330
A5AB
100
AcDbEntity
  8
4
  6
CENTER
100
AcDbLine
 10
268.1815279999999
 20
172.2397819999999
 30
0.0
 11
268.1815279999999
 21
163.7397819999999
 31
0.0
  0
LINE
  5
A5DD
330
A5AB
100
AcDbEntity
  8
4
  6
CENTER
100
AcDbLine
 10
272.4315279999999
 20
167.9897819999999
 30
0.0
 11
263.9315279999999
 21
167.9897819999999
 31
0.0
  0
LINE
  5
A5DE
330
A5AB
100
AcDbEntity
  8
4
  6
CENTER
100
AcDbLine
 10
272.4315279999999
 20
131.9897819999999
 30
0.0
 11
263.9315279999999
 21
131.9897819999999
 31
0.0
  0
CIRCLE
  5
A5DF
330
A5AB
100
AcDbEntity
  8
1
  6
Continuous
100
AcDbCircle
 10
268.1815279999999
 20
131.9897819999999
 30
0.0
 40
2.25
  0
CIRCLE
  5
A5E0
330
A5AB
100
AcDbEntity
  8
1
  6
Continuous
100
AcDbCircle
 10
268.1815279999999
 20
167.9897819999999
 30
0.0
 40
2.25
  0
LINE
  5
A5E1
330
A5AB
100
AcDbEntity
  8
4
  6
CENTER
100
AcDbLine
 10
268.1815279999999
 20
136.2397819999999
 30
0.0
 11
268.1815279999999
 21
127.739782
 31
0.0
  0
LINE
  5
A5E2
330
A5AB
100
AcDbEntity
  8
4
  6
CENTER
100
AcDbLine
 10
187.47405
 20
149.9897819999999
 30
0.0
 11
102.97405
 21
149.9897819999999
 31
0.0
  0
LINE
  5
A5E3
330
A5AB
100
AcDbEntity
  8
4
  6
CENTER
100
AcDbLine
 10
152.1740499999999
 20
112.189782
 30
0.0
 11
152.1740499999999
 21
121.789782
 31
0.0
  0
LINE
  5
A5E4
330
A5AB
100
AcDbEntity
  8
1
  6
Continuous
100
AcDbLine
 10
175.1740499999999
 20
189.9897819999999
 30
0.0
 11
129.1740499999999
 21
189.9897819999999
 31
0.0
  0
LINE
  5
A5E5
330
A5AB
100
AcDbEntity
  8
1
  6
Continuous
100
AcDbLine
 10
175.1740499999999
 20
109.989782
 30
0.0
 11
129.1740499999999
 21
109.989782
 31
0.0
  0
LINE
  5
A5E6
330
A5AB
100
AcDbEntity
  8
4
  6
CENTER
100
AcDbLine
 10
173.6740499999999
 20
182.989782
 30
0.0
 11
162.6740499999999
 21
182.989782
 31
0.0
  0
LINE
  5
A5E7
330
A5AB
100
AcDbEntity
  8
4
  6
CENTER
100
AcDbLine
 10
173.6740499999999
 20
116.989782
 30
0.0
 11
162.6740499999999
 21
116.989782
 31
0.0
  0
CIRCLE
  5
A5E8
330
A5AB
100
AcDbEntity
  8
1
  6
Continuous
100
AcDbCircle
 10
152.1740499999999
 20
182.989782
 30
0.0
 40
2.799999999999998
  0
CIRCLE
  5
A5E9
330
A5AB
100
AcDbEntity
  8
1
  6
Continuous
100
AcDbCircle
 10
152.1740499999999
 20
116.989782
 30
0.0
 40
2.799999999999998
  0
LINE
  5
A5EA
330
A5AB
100
AcDbEntity
  8
4
  6
CENTER
100
AcDbLine
 10
136.17405
 20
111.489782
 30
0.0
 11
136.17405
 21
122.489782
 31
0.0
  0
LINE
  5
A5EB
330
A5AB
100
AcDbEntity
  8
4
  6
CENTER
100
AcDbLine
 10
168.17405
 20
111.489782
 30
0.0
 11
168.17405
 21
122.489782
 31
0.0
  0
CIRCLE
  5
A5EC
330
A5AB
100
AcDbEntity
  8
1
  6
Continuous
100
AcDbCircle
 10
136.17405
 20
116.989782
 30
0.0
 40
3.5
  0
CIRCLE
  5
A5ED
330
A5AB
100
AcDbEntity
  8
1
  6
Continuous
100
AcDbCircle
 10
168.17405
 20
116.989782
 30
0.0
 40
3.5
  0
CIRCLE
  5
A5EE
330
A5AB
100
AcDbEntity
  8
1
  6
Continuous
100
AcDbCircle
 10
168.17405
 20
182.989782
 30
0.0
 40
3.5
  0
CIRCLE
  5
A5EF
330
A5AB
100
AcDbEntity
  8
1
  6
Continuous
100
AcDbCircle
 10
136.17405
 20
182.989782
 30
0.0
 40
3.5
  0
LINE
  5
A5F0
330
A5AB
100
AcDbEntity
  8
4
  6
CENTER
100
AcDbLine
 10
168.17405
 20
177.4897819999999
 30
0.0
 11
168.17405
 21
188.4897819999999
 31
0.0
  0
LINE
  5
A5F1
330
A5AB
100
AcDbEntity
  8
4
  6
CENTER
100
AcDbLine
 10
136.17405
 20
177.4897819999999
 30
0.0
 11
136.17405
 21
188.4897819999999
 31
0.0
  0
LINE
  5
A5F2
330
A5AB
100
AcDbEntity
  8
4
  6
CENTER
100
AcDbLine
 10
141.6740499999999
 20
182.989782
 30
0.0
 11
130.6740499999999
 21
182.989782
 31
0.0
  0
LINE
  5
A5F3
330
A5AB
100
AcDbEntity
  8
4
  6
CENTER
100
AcDbLine
 10
156.9740499999998
 20
182.989782
 30
0.0
 11
147.37405
 21
182.989782
 31
0.0
  0
LINE
  5
A5F4
330
A5AB
100
AcDbEntity
  8
4
  6
CENTER
100
AcDbLine
 10
141.6740499999999
 20
116.989782
 30
0.0
 11
130.6740499999999
 21
116.989782
 31
0.0
  0
LINE
  5
A5F5
330
A5AB
100
AcDbEntity
  8
4
  6
CENTER
100
AcDbLine
 10
156.9740499999998
 20
116.989782
 30
0.0
 11
147.37405
 21
116.989782
 31
0.0
  0
LINE
  5
A5F6
330
A5AB
100
AcDbEntity
  8
4
  6
CENTER
100
AcDbLine
 10
152.1740499999999
 20
178.189782
 30
0.0
 11
152.1740499999999
 21
187.789782
 31
0.0
  0
LINE
  5
A5F7
330
A5AB
100
AcDbEntity
  8
1
  6
Continuous
100
AcDbLine
 10
181.1740499999999
 20
174.9897819999999
 30
0.0
 11
182.37405
 21
174.9897819999999
 31
0.0
  0
LINE
  5
A5F8
330
A5AB
100
AcDbEntity
  8
1
  6
Continuous
100
AcDbLine
 10
181.1740499999999
 20
124.989782
 30
0.0
 11
182.37405
 21
124.989782
 31
0.0
  0
ARC
  5
A5F9
330
A5AB
100
AcDbEntity
  8
1
  6
Continuous
100
AcDbCircle
 10
-339.3259499999999
 20
149.9897819999999
 30
0.0
 40
500.0
100
AcDbArc
 50
356.9404629999998
 51
3.059536999999998
  0
LINE
  5
A5FA
330
A5AB
100
AcDbEntity
  8
1
  6
Continuous
100
AcDbLine
 10
150.881755
 20
179.9897819999999
 30
0.0
 11
156.4663449999999
 21
179.9897819999999
 31
0.0
  0
LINE
  5
A5FB
330
A5AB
100
AcDbEntity
  8
1
  6
Continuous
100
AcDbLine
 10
150.881755
 20
119.989782
 30
0.0
 11
156.4663449999999
 21
119.989782
 31
0.0
  0
LINE
  5
A5FC
330
A5AB
100
AcDbEntity
  8
4
  6
CENTER
100
AcDbLine
 10
153.67405
 20
194.9897819999999
 30
0.0
 11
153.67405
 21
104.9897819999999
 31
0.0
  0
LINE
  5
A5FD
330
A5AB
100
AcDbEntity
  8
1
  6
Continuous
100
AcDbLine
 10
158.1740499999999
 20
179.5449
 30
0.0
 11
158.1740499999999
 21
120.4346639999998
 31
0.0
  0
LINE
  5
A5FE
330
A5AB
100
AcDbEntity
  8
1
  6
Continuous
100
AcDbLine
 10
149.1740499999998
 20
179.5449
 30
0.0
 11
149.1740499999998
 21
120.4346639999998
 31
0.0
  0
ARC
  5
A5FF
330
A5AB
100
AcDbEntity
  8
1
  6
Continuous
100
AcDbCircle
 10
646.67405
 20
149.9897819999999
 30
0.0
 40
500.0
100
AcDbArc
 50
176.9404629999999
 51
183.059537
  0
LINE
  5
A600
330
A5AB
100
AcDbEntity
  8
1
  6
Continuous
100
AcDbLine
 10
242.639933
 20
179.9897819999999
 30
0.0
 11
243.6815279999999
 21
179.9897819999999
 31
0.0
  0
LINE
  5
A601
330
A5AB
100
AcDbEntity
  8
1
  6
Continuous
100
AcDbLine
 10
234.6815279999999
 20
164.9897819999999
 30
0.0
 11
234.6815279999999
 21
134.989782
 31
0.0
  0
LINE
  5
A602
330
A5AB
100
AcDbEntity
  8
1
  6
Continuous
100
AcDbLine
 10
246.681528
 20
176.9897819999999
 30
0.0
 11
246.681528
 21
176.511501
 31
0.0
  0
LINE
  5
A603
330
A5AB
100
AcDbEntity
  8
1
  6
Continuous
100
AcDbLine
 10
242.181528
 20
164.9897819999999
 30
0.0
 11
242.181528
 21
159.9897819999999
 31
0.0
  0
ARC
  5
A604
330
A5AB
100
AcDbEntity
  8
1
  6
Continuous
100
AcDbCircle
 10
256.1815279999998
 20
164.9897819999999
 30
0.0
 40
14.0
100
AcDbArc
 50
137.3320749999998
 51
180.0
  0
ARC
  5
A605
330
A5AB
100
AcDbEntity
  8
1
  6
Continuous
100
AcDbCircle
 10
254.681528
 20
164.9897819999999
 30
0.0
 40
20.0
100
AcDbArc
 50
135.099128
 51
180.0
  0
ARC
  5
A606
330
A5AB
100
AcDbEntity
  8
1
  6
Continuous
100
AcDbCircle
 10
242.639933
 20
176.9897819999999
 30
0.0
 40
3.0
100
AcDbArc
 50
90.0
 51
135.099128
  0
ARC
  5
A607
330
A5AB
100
AcDbEntity
  8
1
  6
Continuous
100
AcDbCircle
 10
243.6815279999999
 20
176.9897819999999
 30
0.0
 40
3.0
100
AcDbArc
 50
0.0
 51
90.0
  0
ARC
  5
A608
330
A5AB
100
AcDbEntity
  8
1
  6
Continuous
100
AcDbCircle
 10
243.6815279999999
 20
176.511501
 30
0.0
 40
3.0
100
AcDbArc
 50
317.3320749999998
 51
0.0
  0
ARC
  5
A609
330
A5AB
100
AcDbEntity
  8
1
  6
Continuous
100
AcDbCircle
 10
242.639933
 20
122.989782
 30
0.0
 40
3.0
100
AcDbArc
 50
224.9008719999999
 51
270.0
  0
ARC
  5
A60A
330
A5AB
100
AcDbEntity
  8
1
  6
Continuous
100
AcDbCircle
 10
254.681528
 20
134.989782
 30
0.0
 40
20.0
100
AcDbArc
 50
180.0
 51
224.9008719999999
  0
ARC
  5
A60B
330
A5AB
100
AcDbEntity
  8
1
  6
Continuous
100
AcDbCircle
 10
243.6815279999999
 20
123.4680629999999
 30
0.0
 40
3.0
100
AcDbArc
 50
0.0
 51
42.667925
  0
ARC
  5
A60C
330
A5AB
100
AcDbEntity
  8
1
  6
Continuous
100
AcDbCircle
 10
256.1815279999998
 20
134.989782
 30
0.0
 40
14.0
100
AcDbArc
 50
180.0
 51
222.667925
  0
LINE
  5
A60D
330
A5AB
100
AcDbEntity
  8
1
  6
Continuous
100
AcDbLine
 10
246.681528
 20
122.989782
 30
0.0
 11
246.681528
 21
123.4680629999999
 31
0.0
  0
ARC
  5
A60E
330
A5AB
100
AcDbEntity
  8
1
  6
Continuous
100
AcDbCircle
 10
243.6815279999999
 20
122.989782
 30
0.0
 40
3.0
100
AcDbArc
 50
270.0
 51
0.0
  0
LINE
  5
A60F
330
A5AB
100
AcDbEntity
  8
1
  6
Continuous
100
AcDbLine
 10
242.639933
 20
119.989782
 30
0.0
 11
243.6815279999999
 21
119.989782
 31
0.0
  0
LINE
  5
A610
330
A5AB
100
AcDbEntity
  8
1
  6
Continuous
100
AcDbLine
 10
258.6815279999999
 20
156.9897819999999
 30
0.0
 11
258.6815279999999
 21
142.9897819999999
 31
0.0
  0
LINE
  5
A611
330
A5AB
100
AcDbEntity
  8
1
  6
Continuous
100
AcDbLine
 10
245.1815279999999
 20
156.9897819999999
 30
0.0
 11
258.6815279999999
 21
156.9897819999999
 31
0.0
  0
LINE
  5
A612
330
A5AB
100
AcDbEntity
  8
1
  6
Continuous
100
AcDbLine
 10
245.1815279999999
 20
142.9897819999999
 30
0.0
 11
258.6815279999999
 21
142.9897819999999
 31
0.0
  0
LINE
  5
A613
330
A5AB
100
AcDbEntity
  8
1
  6
Continuous
100
AcDbLine
 10
258.6815279999999
 20
155.9897819999999
 30
0.0
 11
260.6815279999998
 21
155.9897819999999
 31
0.0
  0
LINE
  5
A614
330
A5AB
100
AcDbEntity
  8
1
  6
Continuous
100
AcDbLine
 10
258.6815279999999
 20
143.9897819999999
 30
0.0
 11
260.6815279999998
 21
143.9897819999999
 31
0.0
  0
LINE
  5
A615
330
A5AB
100
AcDbEntity
  8
1
  6
Continuous
100
AcDbLine
 10
242.181528
 20
139.9897819999999
 30
0.0
 11
242.181528
 21
134.989782
 31
0.0
  0
ARC
  5
A616
330
A5AB
100
AcDbEntity
  8
1
  6
Continuous
100
AcDbCircle
 10
245.1815279999999
 20
159.9897819999999
 30
0.0
 40
3.0
100
AcDbArc
 50
180.0
 51
270.0
  0
ARC
  5
A617
330
A5AB
100
AcDbEntity
  8
1
  6
Continuous
100
AcDbCircle
 10
245.1815279999999
 20
139.9897819999999
 30
0.0
 40
3.0
100
AcDbArc
 50
90.0
 51
180.0
  0
LINE
  5
A618
330
A5AB
100
AcDbEntity
  8
1
  6
Continuous
100
AcDbLine
 10
160.6740499999999
 20
80.91613599999998
 30
0.0
 11
160.6740499999999
 21
74.33034999999998
 31
0.0
  0
LINE
  5
A619
330
A5AB
100
AcDbEntity
  8
1
  6
Continuous
100
AcDbLine
 10
146.67405
 20
80.91613599999998
 30
0.0
 11
146.67405
 21
74.33034999999998
 31
0.0
  0
LINE
  5
A61A
330
A5AB
100
AcDbEntity
  8
1
  6
Continuous
100
AcDbLine
 10
149.0882639999998
 20
83.33034999999998
 30
0.0
 11
158.259837
 21
83.33034999999998
 31
0.0
  0
LINE
  5
A61B
330
A5AB
100
AcDbEntity
  8
1
  6
Continuous
100
AcDbLine
 10
146.9669429999999
 20
81.62324299999999
 30
0.0
 11
148.381157
 21
83.03745699999998
 31
0.0
  0
LINE
  5
A61C
330
A5AB
100
AcDbEntity
  8
1
  6
Continuous
100
AcDbLine
 10
158.9669429999998
 20
83.03745699999998
 30
0.0
 11
160.3811569999998
 21
81.62324299999999
 31
0.0
  0
ARC
  5
A61D
330
A5AB
100
AcDbEntity
  8
1
  6
Continuous
100
AcDbCircle
 10
147.67405
 20
80.91613599999998
 30
0.0
 40
1.0
100
AcDbArc
 50
135.0
 51
180.0
  0
ARC
  5
A61E
330
A5AB
100
AcDbEntity
  8
1
  6
Continuous
100
AcDbCircle
 10
149.0882639999998
 20
82.33034999999999
 30
0.0
 40
1.0
100
AcDbArc
 50
90.0
 51
135.0
  0
ARC
  5
A61F
330
A5AB
100
AcDbEntity
  8
1
  6
Continuous
100
AcDbCircle
 10
158.259837
 20
82.33034999999999
 30
0.0
 40
1.0
100
AcDbArc
 50
45.0
 51
90.0
  0
ARC
  5
A620
330
A5AB
100
AcDbEntity
  8
1
  6
Continuous
100
AcDbCircle
 10
159.6740499999999
 20
80.91613599999998
 30
0.0
 40
1.0
100
AcDbArc
 50
0.0
 51
45.0
  0
LINE
  5
A621
330
A5AB
100
AcDbEntity
  8
4
  6
CENTER
100
AcDbLine
 10
153.67405
 20
87.32931999999998
 30
0.0
 11
153.67405
 21
28.25056
 31
0.0
  0
LINE
  5
A622
330
A5AB
100
AcDbEntity
  8
1
  6
Continuous
100
AcDbLine
 10
146.67405
 20
74.33034999999998
 30
0.0
 11
146.67405
 21
57.33035
 31
0.0
  0
LINE
  5
A623
330
A5AB
100
AcDbEntity
  8
1
  6
Continuous
100
AcDbLine
 10
160.6740499999999
 20
74.33034999999998
 30
0.0
 11
160.6740499999999
 21
57.33035
 31
0.0
  0
LINE
  5
A624
330
A5AB
100
AcDbEntity
  8
1
  6
Continuous
100
AcDbLine
 10
160.6740499999999
 20
57.33035
 30
0.0
 11
146.67405
 21
57.33035
 31
0.0
  0
LINE
  5
A625
330
A5AB
100
AcDbEntity
  8
1
  6
Continuous
100
AcDbLine
 10
159.6740499999999
 20
57.33035
 30
0.0
 11
159.6740499999999
 21
55.33035
 31
0.0
  0
LINE
  5
A626
330
A5AB
100
AcDbEntity
  8
1
  6
Continuous
100
AcDbLine
 10
147.67405
 20
57.33035
 30
0.0
 11
147.67405
 21
55.33035
 31
0.0
  0
ARC
  5
A627
330
A5AB
100
AcDbEntity
  8
1
  6
Continuous
100
AcDbCircle
 10
150.881755
 20
176.4897819999999
 30
0.0
 40
3.5
100
AcDbArc
 50
90.0
 51
176.9404629999999
  0
ARC
  5
A628
330
A5AB
100
AcDbEntity
  8
1
  6
Continuous
100
AcDbCircle
 10
156.4663449999999
 20
176.4897819999999
 30
0.0
 40
3.5
100
AcDbArc
 50
3.059536999999998
 51
90.0
  0
ARC
  5
A629
330
A5AB
100
AcDbEntity
  8
1
  6
Continuous
100
AcDbCircle
 10
156.4663449999999
 20
123.489782
 30
0.0
 40
3.5
100
AcDbArc
 50
270.0
 51
356.9404629999998
  0
ARC
  5
A62A
330
A5AB
100
AcDbEntity
  8
1
  6
Continuous
100
AcDbCircle
 10
150.881755
 20
123.489782
 30
0.0
 40
3.5
100
AcDbArc
 50
183.059537
 51
270.0
  0
LINE
  5
A62B
330
A5AB
100
AcDbEntity
  8
1
  6
Continuous
100
AcDbLine
 10
121.9240499999998
 20
55.33035
 30
0.0
 11
123.1240499999999
 21
55.33035
 31
0.0
  0
LINE
  5
A62C
330
A5AB
100
AcDbEntity
  8
1
  6
Continuous
100
AcDbLine
 10
123.1240499999999
 20
40.33035
 30
0.0
 11
181.22405
 21
40.33035
 31
0.0
  0
LINE
  5
A62D
330
A5AB
100
AcDbEntity
  8
1
  6
Continuous
100
AcDbLine
 10
181.22405
 20
55.33035
 30
0.0
 11
181.22405
 21
40.33035
 31
0.0
  0
LINE
  5
A62E
330
A5AB
100
AcDbEntity
  8
1
  6
Continuous
100
AcDbLine
 10
123.1240499999999
 20
55.33035
 30
0.0
 11
123.1240499999999
 21
40.33035
 31
0.0
  0
LINE
  5
A62F
330
A5AB
100
AcDbEntity
  8
1
  6
Continuous
100
AcDbLine
 10
182.5240499999999
 20
55.33035
 30
0.0
 11
182.5240499999999
 21
41.53035
 31
0.0
  0
LINE
  5
A630
330
A5AB
100
AcDbEntity
  8
1
  6
Continuous
100
AcDbLine
 10
121.9240499999998
 20
55.33035
 30
0.0
 11
121.9240499999998
 21
41.53035
 31
0.0
  0
LINE
  5
A631
330
A5AB
100
AcDbEntity
  8
1
  6
Continuous
100
AcDbLine
 10
123.1240499999999
 20
41.53035
 30
0.0
 11
181.22405
 21
41.53035
 31
0.0
  0
ARC
  5
A632
330
A5AB
100
AcDbEntity
  8
1
  6
Continuous
100
AcDbCircle
 10
123.1240499999999
 20
41.53035
 30
0.0
 40
1.199999999999999
100
AcDbArc
 50
180.0
 51
270.0
  0
ARC
  5
A633
330
A5AB
100
AcDbEntity
  8
1
  6
Continuous
100
AcDbCircle
 10
181.145781
 20
41.71930800000001
 30
0.0
 40
1.391162
100
AcDbArc
 50
273.225256
 51
352.193524
  0
LINE
  5
A634
330
A5AB
100
AcDbEntity
  8
1
  6
Continuous
100
AcDbLine
 10
181.22405
 20
55.33035
 30
0.0
 11
182.5240499999999
 21
55.33035
 31
0.0
  0
LINE
  5
A635
330
A5AB
100
AcDbEntity
  8
1
  6
Continuous
100
AcDbLine
 10
107.92405
 20
141.489782
 30
0.0
 11
107.92405
 21
158.4897819999999
 31
0.0
  0
LINE
  5
A636
330
A5AB
100
AcDbEntity
  8
1
  6
Continuous
100
AcDbLine
 10
121.9240499999998
 20
159.4897819999999
 30
0.0
 11
108.92405
 21
159.4897819999999
 31
0.0
  0
LINE
  5
A637
330
A5AB
100
AcDbEntity
  8
1
  6
Continuous
100
AcDbLine
 10
121.9240499999998
 20
140.4897819999999
 30
0.0
 11
108.92405
 21
140.4897819999999
 31
0.0
  0
ARC
  5
A638
330
A5AB
100
AcDbEntity
  8
1
  6
Continuous
100
AcDbCircle
 10
108.92405
 20
158.4897819999999
 30
0.0
 40
1.0
100
AcDbArc
 50
90.0
 51
180.0
  0
ARC
  5
A639
330
A5AB
100
AcDbEntity
  8
1
  6
Continuous
100
AcDbCircle
 10
108.92405
 20
141.489782
 30
0.0
 40
1.0
100
AcDbArc
 50
180.0
 51
270.0
  0
LINE
  5
A63A
330
A5AB
100
AcDbEntity
  8
1
  6
Continuous
100
AcDbLine
 10
63.20403999999999
 20
134.989782
 30
0.0
 11
63.20403999999999
 21
164.9897819999999
 31
0.0
  0
ARC
  5
A63B
330
A5AB
100
AcDbEntity
  8
1
  6
Continuous
100
AcDbCircle
 10
52.70404
 20
159.9897819999999
 30
0.0
 40
3.0
100
AcDbArc
 50
270.0
 51
0.0
  0
ARC
  5
A63C
330
A5AB
100
AcDbEntity
  8
1
  6
Continuous
100
AcDbCircle
 10
55.245635
 20
176.9897819999999
 30
0.0
 40
3.0
100
AcDbArc
 50
44.900872
 51
90.0
  0
ARC
  5
A63D
330
A5AB
100
AcDbEntity
  8
1
  6
Continuous
100
AcDbCircle
 10
41.70404
 20
164.9897819999999
 30
0.0
 40
14.0
100
AcDbArc
 50
0.0
 51
42.667925
  0
ARC
  5
A63E
330
A5AB
100
AcDbEntity
  8
1
  6
Continuous
100
AcDbCircle
 10
43.20403999999999
 20
164.9897819999999
 30
0.0
 40
20.0
100
AcDbArc
 50
0.0
 51
44.900872
  0
LINE
  5
A63F
330
A5AB
100
AcDbEntity
  8
1
  6
Continuous
100
AcDbLine
 10
55.70403999999999
 20
159.9897819999999
 30
0.0
 11
55.70403999999999
 21
164.9897819999999
 31
0.0
  0
ARC
  5
A640
330
A5AB
100
AcDbEntity
  8
1
  6
Continuous
100
AcDbCircle
 10
54.20404
 20
176.511501
 30
0.0
 40
3.0
100
AcDbArc
 50
180.0
 51
222.667925
  0
LINE
  5
A641
330
A5AB
100
AcDbEntity
  8
1
  6
Continuous
100
AcDbLine
 10
55.245635
 20
179.9897819999999
 30
0.0
 11
54.20404
 21
179.9897819999999
 31
0.0
  0
ARC
  5
A642
330
A5AB
100
AcDbEntity
  8
1
  6
Continuous
100
AcDbCircle
 10
54.20404
 20
176.9897819999999
 30
0.0
 40
3.0
100
AcDbArc
 50
90.0
 51
180.0
  0
LINE
  5
A643
330
A5AB
100
AcDbEntity
  8
1
  6
Continuous
100
AcDbLine
 10
51.20404
 20
176.9897819999999
 30
0.0
 11
51.20404
 21
176.511501
 31
0.0
  0
ARC
  5
A644
330
A5AB
100
AcDbEntity
  8
1
  6
Continuous
100
AcDbCircle
 10
55.245635
 20
122.989782
 30
0.0
 40
3.0
100
AcDbArc
 50
270.0
 51
315.0991279999999
  0
ARC
  5
A645
330
A5AB
100
AcDbEntity
  8
1
  6
Continuous
100
AcDbCircle
 10
41.70404
 20
134.989782
 30
0.0
 40
14.0
100
AcDbArc
 50
317.3320749999998
 51
0.0
  0
ARC
  5
A646
330
A5AB
100
AcDbEntity
  8
1
  6
Continuous
100
AcDbCircle
 10
52.70404
 20
139.9897819999999
 30
0.0
 40
3.0
100
AcDbArc
 50
0.0
 51
90.0
  0
ARC
  5
A647
330
A5AB
100
AcDbEntity
  8
1
  6
Continuous
100
AcDbCircle
 10
43.20403999999999
 20
134.989782
 30
0.0
 40
20.0
100
AcDbArc
 50
315.0991279999999
 51
0.0
  0
LINE
  5
A648
330
A5AB
100
AcDbEntity
  8
1
  6
Continuous
100
AcDbLine
 10
55.70403999999999
 20
134.989782
 30
0.0
 11
55.70403999999999
 21
139.9897819999999
 31
0.0
  0
ARC
  5
A649
330
A5AB
100
AcDbEntity
  8
1
  6
Continuous
100
AcDbCircle
 10
54.20404
 20
123.4680629999999
 30
0.0
 40
3.0
100
AcDbArc
 50
137.3320749999998
 51
180.0
  0
LINE
  5
A64A
330
A5AB
100
AcDbEntity
  8
1
  6
Continuous
100
AcDbLine
 10
51.20404
 20
122.989782
 30
0.0
 11
51.20404
 21
123.4680629999999
 31
0.0
  0
ARC
  5
A64B
330
A5AB
100
AcDbEntity
  8
1
  6
Continuous
100
AcDbCircle
 10
54.20404
 20
122.989782
 30
0.0
 40
3.0
100
AcDbArc
 50
180.0
 51
270.0
  0
LINE
  5
A64C
330
A5AB
100
AcDbEntity
  8
1
  6
Continuous
100
AcDbLine
 10
55.245635
 20
119.989782
 30
0.0
 11
54.20404
 21
119.989782
 31
0.0
  0
LINE
  5
A64D
330
A5AB
100
AcDbEntity
  8
4
  6
CENTER
100
AcDbLine
 10
69.858564
 20
149.9897819999999
 30
0.0
 11
8.438761999999998
 21
149.9897819999999
 31
0.0
  0
LINE
  5
A64E
330
A5AB
100
AcDbEntity
  8
1
  6
Continuous
100
AcDbLine
 10
52.70404
 20
156.9897819999999
 30
0.0
 11
39.20403999999999
 21
156.9897819999999
 31
0.0
  0
LINE
  5
A64F
330
A5AB
100
AcDbEntity
  8
1
  6
Continuous
100
AcDbLine
 10
52.70404
 20
142.9897819999999
 30
0.0
 11
39.20403999999999
 21
142.9897819999999
 31
0.0
  0
LINE
  5
A650
330
A5AB
100
AcDbEntity
  8
1
  6
Continuous
100
AcDbLine
 10
39.20403999999999
 20
142.9897819999999
 30
0.0
 11
39.20403999999999
 21
156.9897819999999
 31
0.0
  0
LINE
  5
A651
330
A5AB
100
AcDbEntity
  8
1
  6
Continuous
100
AcDbLine
 10
39.20403999999999
 20
155.9897819999999
 30
0.0
 11
37.20404
 21
155.9897819999999
 31
0.0
  0
LINE
  5
A652
330
A5AB
100
AcDbEntity
  8
1
  6
Continuous
100
AcDbLine
 10
39.20403999999999
 20
143.9897819999999
 30
0.0
 11
37.20404
 21
143.9897819999999
 31
0.0
  0
LINE
  5
A653
330
A5AB
100
AcDbEntity
  8
1
  6
Continuous
100
AcDbLine
 10
123.1240499999999
 20
55.33035
 30
0.0
 11
181.22405
 21
55.33035
 31
0.0
  0
LINE
  5
A654
330
A5AB
100
AcDbEntity
  8
1
  6
Continuous
100
AcDbLine
 10
109.17405
 20
41.53035
 30
0.0
 11
121.9240499999998
 21
41.53035
 31
0.0
  0
ARC
  5
A655
330
A5AB
100
AcDbEntity
  8
1
  6
Continuous
100
AcDbCircle
 10
119.1740499999998
 20
41.53035
 30
0.0
 40
10.0
100
AcDbArc
 50
101.478341
 51
180.0
  0
LINE
  5
A656
330
A5AB
100
AcDbEntity
  8
1
  6
Continuous
100
AcDbLine
 10
121.9240499999998
 20
51.33035
 30
0.0
 11
117.184075
 21
51.33035
 31
0.0
  0
LINE
  5
A657
330
A5AB
100
AcDbEntity
  8
1
  6
Continuous
100
AcDbLine
 10
341.0304889999999
 20
149.267782
 30
0.0
 11
341.636489
 21
149.550782
 31
0.0
  0
LINE
  5
A658
330
A5AB
100
AcDbEntity
  8
1
  6
Continuous
100
AcDbLine
 10
341.636489
 20
149.550782
 30
0.0
 11
342.722489
 21
149.569782
 31
0.0
  0
LINE
  5
A659
330
A5AB
100
AcDbEntity
  8
1
  6
Continuous
100
AcDbLine
 10
341.636489
 20
150.428782
 30
0.0
 11
342.722489
 21
150.409782
 31
0.0
  0
LINE
  5
A65A
330
A5AB
100
AcDbEntity
  8
1
  6
Continuous
100
AcDbLine
 10
341.0304889999999
 20
150.7117819999999
 30
0.0
 11
341.636489
 21
150.428782
 31
0.0
  0
LINE
  5
A65B
330
A5AB
100
AcDbEntity
  8
1
  6
Continuous
100
AcDbLine
 10
340.7474889999999
 20
151.3177819999999
 30
0.0
 11
340.728489
 21
152.403782
 31
0.0
  0
LINE
  5
A65C
330
A5AB
100
AcDbEntity
  8
1
  6
Continuous
100
AcDbLine
 10
341.0304889999999
 20
150.7117819999999
 30
0.0
 11
340.7474889999999
 21
151.3177819999999
 31
0.0
  0
LINE
  5
A65D
330
A5AB
100
AcDbEntity
  8
1
  6
Continuous
100
AcDbLine
 10
339.5874889999999
 20
150.7117819999999
 30
0.0
 11
339.8694889999998
 21
151.3177819999999
 31
0.0
  0
LINE
  5
A65E
330
A5AB
100
AcDbEntity
  8
1
  6
Continuous
100
AcDbLine
 10
339.8694889999998
 20
151.3177819999999
 30
0.0
 11
339.888489
 21
152.403782
 31
0.0
  0
LINE
  5
A65F
330
A5AB
100
AcDbEntity
  8
1
  6
Continuous
100
AcDbLine
 10
338.9804889999999
 20
150.428782
 30
0.0
 11
337.894489
 21
150.409782
 31
0.0
  0
LINE
  5
A660
330
A5AB
100
AcDbEntity
  8
1
  6
Continuous
100
AcDbLine
 10
339.5874889999999
 20
150.7117819999999
 30
0.0
 11
338.9804889999999
 21
150.428782
 31
0.0
  0
LINE
  5
A661
330
A5AB
100
AcDbEntity
  8
1
  6
Continuous
100
AcDbLine
 10
339.5874889999999
 20
149.267782
 30
0.0
 11
338.9804889999999
 21
149.550782
 31
0.0
  0
LINE
  5
A662
330
A5AB
100
AcDbEntity
  8
1
  6
Continuous
100
AcDbLine
 10
338.9804889999999
 20
149.550782
 30
0.0
 11
337.894489
 21
149.569782
 31
0.0
  0
LINE
  5
A663
330
A5AB
100
AcDbEntity
  8
1
  6
Continuous
100
AcDbLine
 10
339.8694889999998
 20
148.661782
 30
0.0
 11
339.888489
 21
147.575782
 31
0.0
  0
LINE
  5
A664
330
A5AB
100
AcDbEntity
  8
1
  6
Continuous
100
AcDbLine
 10
339.5874889999999
 20
149.267782
 30
0.0
 11
339.8694889999998
 21
148.661782
 31
0.0
  0
LINE
  5
A665
330
A5AB
100
AcDbEntity
  8
1
  6
Continuous
100
AcDbLine
 10
341.0304889999999
 20
149.267782
 30
0.0
 11
340.7474889999999
 21
148.661782
 31
0.0
  0
LINE
  5
A666
330
A5AB
100
AcDbEntity
  8
1
  6
Continuous
100
AcDbLine
 10
340.7474889999999
 20
148.661782
 30
0.0
 11
340.728489
 21
147.575782
 31
0.0
  0
LINE
  5
A667
330
A5AB
100
AcDbEntity
  8
4
  6
CENTER
100
AcDbLine
 10
306.508489
 20
149.9897819999999
 30
0.0
 11
389.808489
 21
149.9897819999999
 31
0.0
  0
LINE
  5
A668
330
A5AB
100
AcDbEntity
  8
4
  6
CENTER
100
AcDbLine
 10
340.308489
 20
158.362232
 30
0.0
 11
340.308489
 21
141.2292919999998
 31
0.0
  0
ARC
  5
A669
330
A5AB
100
AcDbEntity
  8
1
  6
Continuous
100
AcDbCircle
 10
340.308489
 20
149.9897819999999
 30
0.0
 40
2.45
100
AcDbArc
 50
350.129
 51
9.870889999999999
  0
ARC
  5
A66A
330
A5AB
100
AcDbEntity
  8
1
  6
Continuous
100
AcDbCircle
 10
340.308489
 20
149.9897819999999
 30
0.0
 40
2.45
100
AcDbArc
 50
80.12909999999996
 51
99.87090000000002
  0
ARC
  5
A66B
330
A5AB
100
AcDbEntity
  8
1
  6
Continuous
100
AcDbCircle
 10
340.308489
 20
149.9897819999999
 30
0.0
 40
2.45
100
AcDbArc
 50
170.129
 51
189.871
  0
ARC
  5
A66C
330
A5AB
100
AcDbEntity
  8
1
  6
Continuous
100
AcDbCircle
 10
340.308489
 20
149.9897819999999
 30
0.0
 40
2.45
100
AcDbArc
 50
260.129
 51
279.8709999999999
  0
CIRCLE
  5
A66D
330
A5AB
100
AcDbEntity
  8
1
  6
Continuous
100
AcDbCircle
 10
340.308489
 20
149.9897819999999
 30
0.0
 40
4.5
  0
LINE
  5
A66E
330
A5AB
100
AcDbEntity
  8
1
  6
Continuous
100
AcDbLine
 10
24.60404
 20
189.9897819999999
 30
0.0
 11
24.60404
 21
174.9897819999999
 31
0.0
  0
LINE
  5
A66F
330
A5AB
100
AcDbEntity
  8
1
  6
Continuous
100
AcDbLine
 10
24.60404
 20
124.989782
 30
0.0
 11
24.60404
 21
109.989782
 31
0.0
  0
LINE
  5
A670
330
A5AB
100
AcDbEntity
  8
1
  6
Continuous
100
AcDbLine
 10
273.281528
 20
189.9897819999999
 30
0.0
 11
273.281528
 21
174.9897819999999
 31
0.0
  0
LINE
  5
A671
330
A5AB
100
AcDbEntity
  8
1
  6
Continuous
100
AcDbLine
 10
273.281528
 20
124.989782
 30
0.0
 11
273.281528
 21
109.989782
 31
0.0
  0
LINE
  5
A672
330
A5AB
100
AcDbEntity
  8
1
  6
Continuous
100
AcDbLine
 10
123.1740499999998
 20
42.73035
 30
0.0
 11
181.1740499999999
 21
42.73035
 31
0.0
  0
LINE
  5
A673
330
A5AB
100
AcDbEntity
  8
4
  6
CENTER
100
AcDbLine
 10
29.003958
 20
182.989782
 30
0.0
 11
18.00395799999998
 21
182.989782
 31
0.0
  0
LINE
  5
A674
330
A5AB
100
AcDbEntity
  8
4
  6
CENTER
100
AcDbLine
 10
29.003958
 20
116.989782
 30
0.0
 11
18.00395799999998
 21
116.989782
 31
0.0
  0
LINE
  5
A675
330
A5AB
100
AcDbEntity
  8
1
  6
Continuous
100
AcDbLine
 10
25.80404
 20
186.4897819999999
 30
0.0
 11
25.80404
 21
179.4897819999999
 31
0.0
  0
LINE
  5
A676
330
A5AB
100
AcDbEntity
  8
1
  6
Continuous
100
AcDbLine
 10
25.80404
 20
186.4897819999999
 30
0.0
 11
24.60404
 21
186.4897819999999
 31
0.0
  0
LINE
  5
A677
330
A5AB
100
AcDbEntity
  8
1
  6
Continuous
100
AcDbLine
 10
25.80404
 20
179.4897819999999
 30
0.0
 11
24.60404
 21
179.4897819999999
 31
0.0
  0
LINE
  5
A678
330
A5AB
100
AcDbEntity
  8
1
  6
Continuous
100
AcDbLine
 10
25.80404
 20
113.489782
 30
0.0
 11
25.80404
 21
120.489782
 31
0.0
  0
LINE
  5
A679
330
A5AB
100
AcDbEntity
  8
1
  6
Continuous
100
AcDbLine
 10
25.80404
 20
120.489782
 30
0.0
 11
24.60404
 21
120.489782
 31
0.0
  0
LINE
  5
A67A
330
A5AB
100
AcDbEntity
  8
1
  6
Continuous
100
AcDbLine
 10
25.80404
 20
113.489782
 30
0.0
 11
24.60404
 21
113.489782
 31
0.0
  0
LINE
  5
A67B
330
A5AB
100
AcDbEntity
  8
1
  6
Continuous
100
AcDbLine
 10
272.081528
 20
186.4897819999999
 30
0.0
 11
272.081528
 21
179.4897819999999
 31
0.0
  0
LINE
  5
A67C
330
A5AB
100
AcDbEntity
  8
1
  6
Continuous
100
AcDbLine
 10
272.081528
 20
179.4897819999999
 30
0.0
 11
273.281528
 21
179.4897819999999
 31
0.0
  0
LINE
  5
A67D
330
A5AB
100
AcDbEntity
  8
1
  6
Continuous
100
AcDbLine
 10
272.081528
 20
186.4897819999999
 30
0.0
 11
273.281528
 21
186.4897819999999
 31
0.0
  0
LINE
  5
A67E
330
A5AB
100
AcDbEntity
  8
4
  6
CENTER
100
AcDbLine
 10
268.88161
 20
182.989782
 30
0.0
 11
279.88161
 21
182.989782
 31
0.0
  0
LINE
  5
A67F
330
A5AB
100
AcDbEntity
  8
1
  6
Continuous
100
AcDbLine
 10
272.081528
 20
113.489782
 30
0.0
 11
272.081528
 21
120.489782
 31
0.0
  0
LINE
  5
A680
330
A5AB
100
AcDbEntity
  8
1
  6
Continuous
100
AcDbLine
 10
272.081528
 20
113.489782
 30
0.0
 11
273.281528
 21
113.489782
 31
0.0
  0
LINE
  5
A681
330
A5AB
100
AcDbEntity
  8
4
  6
CENTER
100
AcDbLine
 10
268.88161
 20
116.989782
 30
0.0
 11
279.88161
 21
116.989782
 31
0.0
  0
LINE
  5
A682
330
A5AB
100
AcDbEntity
  8
1
  6
Continuous
100
AcDbLine
 10
272.081528
 20
120.489782
 30
0.0
 11
273.281528
 21
120.489782
 31
0.0
  0
ARC
  5
A683
330
A5AB
100
AcDbEntity
  8
1
  6
Continuous
100
AcDbCircle
 10
158.259837
 20
217.757833
 30
0.0
 40
1.0
100
AcDbArc
 50
270.0
 51
315.0
  0
ARC
  5
A684
330
A5AB
100
AcDbEntity
  8
1
  6
Continuous
100
AcDbCircle
 10
149.0882639999998
 20
217.757833
 30
0.0
 40
1.0
100
AcDbArc
 50
225.0
 51
270.0
  0
LINE
  5
A685
330
A5AB
100
AcDbEntity
  8
4
  6
CENTER
100
AcDbLine
 10
153.67405
 20
206.7578329999999
 30
0.0
 11
153.67405
 21
272.1657319999998
 31
0.0
  0
LINE
  5
A686
330
A5AB
100
AcDbEntity
  8
1
  6
Continuous
100
AcDbLine
 10
123.1740499999998
 20
257.357833
 30
0.0
 11
181.1740499999999
 21
257.357833
 31
0.0
  0
LINE
  5
A687
330
A5AB
100
AcDbEntity
  8
1
  6
Continuous
100
AcDbLine
 10
123.1240499999999
 20
244.757833
 30
0.0
 11
182.5240499999999
 21
244.757833
 31
0.0
  0
LINE
  5
A688
330
A5AB
100
AcDbEntity
  8
1
  6
Continuous
100
AcDbLine
 10
123.1240499999999
 20
258.557833
 30
0.0
 11
181.22405
 21
258.557833
 31
0.0
  0
LINE
  5
A689
330
A5AB
100
AcDbEntity
  8
1
  6
Continuous
100
AcDbLine
 10
123.1240499999999
 20
259.757833
 30
0.0
 11
181.22405
 21
259.757833
 31
0.0
  0
LINE
  5
A68A
330
A5AB
100
AcDbEntity
  8
1
  6
Continuous
100
AcDbLine
 10
121.9240499999998
 20
248.757833
 30
0.0
 11
117.184075
 21
248.757833
 31
0.0
  0
LINE
  5
A68B
330
A5AB
100
AcDbEntity
  8
1
  6
Continuous
100
AcDbLine
 10
109.17405
 20
258.557833
 30
0.0
 11
121.9240499999998
 21
258.557833
 31
0.0
  0
ARC
  5
A68C
330
A5AB
100
AcDbEntity
  8
1
  6
Continuous
100
AcDbCircle
 10
119.1740499999998
 20
258.557833
 30
0.0
 40
10.0
100
AcDbArc
 50
180.0
 51
258.5216589999999
  0
LINE
  5
A68D
330
A5AB
100
AcDbEntity
  8
1
  6
Continuous
100
AcDbLine
 10
121.9240499999998
 20
244.757833
 30
0.0
 11
121.9240499999998
 21
258.557833
 31
0.0
  0
LINE
  5
A68E
330
A5AB
100
AcDbEntity
  8
1
  6
Continuous
100
AcDbLine
 10
123.1240499999999
 20
244.757833
 30
0.0
 11
123.1240499999999
 21
259.757833
 31
0.0
  0
ARC
  5
A68F
330
A5AB
100
AcDbEntity
  8
1
  6
Continuous
100
AcDbCircle
 10
123.1240499999999
 20
258.557833
 30
0.0
 40
1.199999999999999
100
AcDbArc
 50
90.0
 51
180.0
  0
LINE
  5
A690
330
A5AB
100
AcDbEntity
  8
1
  6
Continuous
100
AcDbLine
 10
121.9240499999998
 20
244.757833
 30
0.0
 11
123.1240499999999
 21
244.757833
 31
0.0
  0
LINE
  5
A691
330
A5AB
100
AcDbEntity
  8
1
  6
Continuous
100
AcDbLine
 10
159.6740499999999
 20
242.757833
 30
0.0
 11
159.6740499999999
 21
244.757833
 31
0.0
  0
LINE
  5
A692
330
A5AB
100
AcDbEntity
  8
1
  6
Continuous
100
AcDbLine
 10
147.67405
 20
242.757833
 30
0.0
 11
147.67405
 21
244.757833
 31
0.0
  0
LINE
  5
A693
330
A5AB
100
AcDbEntity
  8
1
  6
Continuous
100
AcDbLine
 10
160.6740499999999
 20
242.757833
 30
0.0
 11
146.67405
 21
242.757833
 31
0.0
  0
LINE
  5
A694
330
A5AB
100
AcDbEntity
  8
1
  6
Continuous
100
AcDbLine
 10
146.67405
 20
225.757833
 30
0.0
 11
146.67405
 21
242.757833
 31
0.0
  0
LINE
  5
A695
330
A5AB
100
AcDbEntity
  8
1
  6
Continuous
100
AcDbLine
 10
146.9669429999999
 20
218.46494
 30
0.0
 11
148.381157
 21
217.0507269999998
 31
0.0
  0
LINE
  5
A696
330
A5AB
100
AcDbEntity
  8
1
  6
Continuous
100
AcDbLine
 10
146.67405
 20
219.1720469999999
 30
0.0
 11
146.67405
 21
225.757833
 31
0.0
  0
ARC
  5
A697
330
A5AB
100
AcDbEntity
  8
1
  6
Continuous
100
AcDbCircle
 10
147.67405
 20
219.1720469999999
 30
0.0
 40
1.0
100
AcDbArc
 50
180.0
 51
225.0
  0
LINE
  5
A698
330
A5AB
100
AcDbEntity
  8
1
  6
Continuous
100
AcDbLine
 10
160.6740499999999
 20
225.757833
 30
0.0
 11
160.6740499999999
 21
242.757833
 31
0.0
  0
LINE
  5
A699
330
A5AB
100
AcDbEntity
  8
1
  6
Continuous
100
AcDbLine
 10
160.6740499999999
 20
219.1720469999999
 30
0.0
 11
160.6740499999999
 21
225.757833
 31
0.0
  0
LINE
  5
A69A
330
A5AB
100
AcDbEntity
  8
1
  6
Continuous
100
AcDbLine
 10
158.9669429999998
 20
217.0507269999998
 30
0.0
 11
160.3811569999998
 21
218.46494
 31
0.0
  0
ARC
  5
A69B
330
A5AB
100
AcDbEntity
  8
1
  6
Continuous
100
AcDbCircle
 10
159.6740499999999
 20
219.1720469999999
 30
0.0
 40
1.0
100
AcDbArc
 50
315.0
 51
0.0
  0
LINE
  5
A69C
330
A5AB
100
AcDbEntity
  8
1
  6
Continuous
100
AcDbLine
 10
182.5240499999999
 20
244.757833
 30
0.0
 11
182.5240499999999
 21
258.557833
 31
0.0
  0
LINE
  5
A69D
330
A5AB
100
AcDbEntity
  8
1
  6
Continuous
100
AcDbLine
 10
181.22405
 20
244.757833
 30
0.0
 11
181.22405
 21
259.757833
 31
0.0
  0
ARC
  5
A69E
330
A5AB
100
AcDbEntity
  8
1
  6
Continuous
100
AcDbCircle
 10
181.145781
 20
258.3688749999998
 30
0.0
 40
1.391162
100
AcDbArc
 50
7.806475999999998
 51
86.77474399999999
  0
LINE
  5
A69F
330
A5AB
100
AcDbEntity
  8
1
  6
Continuous
100
AcDbLine
 10
181.22405
 20
244.757833
 30
0.0
 11
182.4240499999999
 21
244.757833
 31
0.0
  0
LINE
  5
A6A0
330
A5AB
100
AcDbEntity
  8
1
  6
Continuous
100
AcDbLine
 10
149.0882639999998
 20
216.7578329999999
 30
0.0
 11
158.259837
 21
216.7578329999999
 31
0.0
  0
LINE
  5
A6A1
330
A5AB
100
AcDbEntity
  8
4
  6
CENTER
100
AcDbLine
 10
325.808489
 20
177.4897819999999
 30
0.0
 11
325.808489
 21
188.4897819999999
 31
0.0
  0
CIRCLE
  5
A6A2
330
A5AB
100
AcDbEntity
  8
1
  6
Continuous
100
AcDbCircle
 10
325.808489
 20
182.989782
 30
0.0
 40
3.5
  0
LINE
  5
A6A3
330
A5AB
100
AcDbEntity
  8
4
  6
CENTER
100
AcDbLine
 10
341.808489
 20
178.189782
 30
0.0
 11
341.808489
 21
187.789782
 31
0.0
  0
CIRCLE
  5
A6A4
330
A5AB
100
AcDbEntity
  8
1
  6
Continuous
100
AcDbCircle
 10
341.808489
 20
182.989782
 30
0.0
 40
2.799999999999998
  0
LINE
  5
A6A5
330
A5AB
100
AcDbEntity
  8
4
  6
CENTER
100
AcDbLine
 10
357.8084889999999
 20
177.4897819999999
 30
0.0
 11
357.8084889999999
 21
188.4897819999999
 31
0.0
  0
CIRCLE
  5
A6A6
330
A5AB
100
AcDbEntity
  8
1
  6
Continuous
100
AcDbCircle
 10
357.8084889999999
 20
182.989782
 30
0.0
 40
3.5
  0
LINE
  5
A6A7
330
A5AB
100
AcDbEntity
  8
4
  6
CENTER
100
AcDbLine
 10
352.308489
 20
116.989782
 30
0.0
 11
363.308489
 21
116.989782
 31
0.0
  0
CIRCLE
  5
A6A8
330
A5AB
100
AcDbEntity
  8
1
  6
Continuous
100
AcDbCircle
 10
357.8084889999999
 20
116.989782
 30
0.0
 40
3.5
  0
LINE
  5
A6A9
330
A5AB
100
AcDbEntity
  8
4
  6
CENTER
100
AcDbLine
 10
357.8084889999999
 20
111.489782
 30
0.0
 11
357.8084889999999
 21
122.489782
 31
0.0
  0
CIRCLE
  5
A6AA
330
A5AB
100
AcDbEntity
  8
1
  6
Continuous
100
AcDbCircle
 10
341.808489
 20
116.989782
 30
0.0
 40
2.799999999999998
  0
LINE
  5
A6AB
330
A5AB
100
AcDbEntity
  8
4
  6
CENTER
100
AcDbLine
 10
341.808489
 20
112.189782
 30
0.0
 11
341.808489
 21
121.789782
 31
0.0
  0
LINE
  5
A6AC
330
A5AB
100
AcDbEntity
  8
4
  6
CENTER
100
AcDbLine
 10
337.008489
 20
116.989782
 30
0.0
 11
346.608489
 21
116.989782
 31
0.0
  0
CIRCLE
  5
A6AD
330
A5AB
100
AcDbEntity
  8
1
  6
Continuous
100
AcDbCircle
 10
325.808489
 20
116.989782
 30
0.0
 40
3.5
  0
LINE
  5
A6AE
330
A5AB
100
AcDbEntity
  8
4
  6
CENTER
100
AcDbLine
 10
325.808489
 20
111.489782
 30
0.0
 11
325.808489
 21
122.489782
 31
0.0
  0
LINE
  5
A6AF
330
A5AB
100
AcDbEntity
  8
4
  6
CENTER
100
AcDbLine
 10
320.3084889999999
 20
116.989782
 30
0.0
 11
331.308489
 21
116.989782
 31
0.0
  0
LINE
  5
A6B0
330
A5AB
100
AcDbEntity
  8
4
  6
CENTER
100
AcDbLine
 10
352.308489
 20
182.989782
 30
0.0
 11
363.308489
 21
182.989782
 31
0.0
  0
LINE
  5
A6B1
330
A5AB
100
AcDbEntity
  8
4
  6
CENTER
100
AcDbLine
 10
337.008489
 20
182.989782
 30
0.0
 11
346.608489
 21
182.989782
 31
0.0
  0
LINE
  5
A6B2
330
A5AB
100
AcDbEntity
  8
4
  6
CENTER
100
AcDbLine
 10
320.3084889999999
 20
182.989782
 30
0.0
 11
331.308489
 21
182.989782
 31
0.0
  0
ARC
  5
A6B3
330
A5AB
100
AcDbEntity
  8
1
  6
Continuous
100
AcDbCircle
 10
156.45205
 20
263.379833
 30
0.0
 40
1.6
100
AcDbArc
 50
5.0
 51
74.506
  0
ARC
  5
A6B4
330
A5AB
100
AcDbEntity
  8
1
  6
Continuous
100
AcDbCircle
 10
153.67405
 20
253.357833
 30
0.0
 40
12.0
100
AcDbArc
 50
74.506
 51
105.4939999999999
  0
LINE
  5
A6B5
330
A5AB
100
AcDbEntity
  8
1
  6
Continuous
100
AcDbLine
 10
149.30205
 20
263.5188329999999
 30
0.0
 11
149.1740499999998
 21
262.057833
 31
0.0
  0
ARC
  5
A6B6
330
A5AB
100
AcDbEntity
  8
1
  6
Continuous
100
AcDbCircle
 10
150.89605
 20
263.379833
 30
0.0
 40
1.6
100
AcDbArc
 50
105.4939999999999
 51
174.9999
  0
LINE
  5
A6B7
330
A5AB
100
AcDbEntity
  8
1
  6
Continuous
100
AcDbLine
 10
158.04605
 20
263.5188329999999
 30
0.0
 11
158.1740499999999
 21
262.057833
 31
0.0
  0
LINE
  5
A6B8
330
A5AB
100
AcDbEntity
  8
1
  6
Continuous
100
AcDbLine
 10
121.9240499999998
 20
174.9897819999999
 30
0.0
 11
147.299441
 21
174.9897819999999
 31
0.0
  0
LINE
  5
A6B9
330
A5AB
100
AcDbEntity
  8
1
  6
Continuous
100
AcDbLine
 10
160.0486589999999
 20
174.9897819999999
 30
0.0
 11
182.4240499999999
 21
174.9897819999999
 31
0.0
  0
LINE
  5
A6BA
330
A5AB
100
AcDbEntity
  8
1
  6
Continuous
100
AcDbLine
 10
121.9240499999998
 20
124.989782
 30
0.0
 11
147.299441
 21
124.989782
 31
0.0
  0
LINE
  5
A6BB
330
A5AB
100
AcDbEntity
  8
1
  6
Continuous
100
AcDbLine
 10
160.0486589999999
 20
124.989782
 30
0.0
 11
182.4240499999999
 21
124.989782
 31
0.0
  0
LINE
  5
A6BC
330
A5AB
100
AcDbEntity
  8
1
  6
Continuous
100
AcDbLine
 10
33.90404
 20
159.6397819999999
 30
0.0
 11
33.90404
 21
140.339782
 31
0.0
  0
LINE
  5
A6BD
330
A5AB
100
AcDbEntity
  8
1
  6
Continuous
100
AcDbLine
 10
158.2740499999998
 20
262.057833
 30
0.0
 11
149.07405
 21
262.057833
 31
0.0
  0
LINE
  5
A6BE
330
A5AB
100
AcDbEntity
  8
1
  6
Continuous
100
AcDbLine
 10
153.85005
 20
262.057833
 30
0.0
 11
154.19805
 21
260.7578329999999
 31
0.0
  0
LINE
  5
A6BF
330
A5AB
100
AcDbEntity
  8
1
  6
Continuous
100
AcDbLine
 10
153.1500499999999
 20
262.057833
 30
0.0
 11
153.49805
 21
260.7578329999999
 31
0.0
  0
LINE
  5
A6C0
330
A5AB
100
AcDbEntity
  8
1
  6
Continuous
100
AcDbLine
 10
158.2740499999998
 20
262.057833
 30
0.0
 11
158.2740499999998
 21
260.7578329999999
 31
0.0
  0
LINE
  5
A6C1
330
A5AB
100
AcDbEntity
  8
1
  6
Continuous
100
AcDbLine
 10
149.07405
 20
262.057833
 30
0.0
 11
149.07405
 21
260.7578329999999
 31
0.0
  0
LINE
  5
A6C2
330
A5AB
100
AcDbEntity
  8
1
  6
Continuous
100
AcDbLine
 10
159.6740499999999
 20
260.7578329999999
 30
0.0
 11
147.67405
 21
260.7578329999999
 31
0.0
  0
LINE
  5
A6C3
330
A5AB
100
AcDbEntity
  8
1
  6
Continuous
100
AcDbLine
 10
147.67405
 20
260.7578329999999
 30
0.0
 11
147.67405
 21
259.757833
 31
0.0
  0
LINE
  5
A6C4
330
A5AB
100
AcDbEntity
  8
1
  6
Continuous
100
AcDbLine
 10
159.6740499999999
 20
260.7578329999999
 30
0.0
 11
159.6740499999999
 21
259.757833
 31
0.0
  0
LINE
  5
A6C5
330
A5AB
100
AcDbEntity
  8
1
  6
Continuous
100
AcDbLine
 10
159.6740499999999
 20
39.33035
 30
0.0
 11
147.67405
 21
39.33035
 31
0.0
  0
LINE
  5
A6C6
330
A5AB
100
AcDbEntity
  8
1
  6
Continuous
100
AcDbLine
 10
154.19805
 20
38.03034999999999
 30
0.0
 11
153.85005
 21
39.33035
 31
0.0
  0
LINE
  5
A6C7
330
A5AB
100
AcDbEntity
  8
1
  6
Continuous
100
AcDbLine
 10
158.2740499999998
 20
38.03034999999999
 30
0.0
 11
149.07405
 21
38.03034999999999
 31
0.0
  0
ARC
  5
A6C8
330
A5AB
100
AcDbEntity
  8
1
  6
Continuous
100
AcDbCircle
 10
153.67405
 20
46.73035
 30
0.0
 40
12.0
100
AcDbArc
 50
254.5059999999998
 51
285.494
  0
LINE
  5
A6C9
330
A5AB
100
AcDbEntity
  8
1
  6
Continuous
100
AcDbLine
 10
147.67405
 20
39.33035
 30
0.0
 11
147.67405
 21
40.33035
 31
0.0
  0
LINE
  5
A6CA
330
A5AB
100
AcDbEntity
  8
1
  6
Continuous
100
AcDbLine
 10
149.07405
 20
38.03034999999999
 30
0.0
 11
149.07405
 21
39.33035
 31
0.0
  0
LINE
  5
A6CB
330
A5AB
100
AcDbEntity
  8
1
  6
Continuous
100
AcDbLine
 10
149.30205
 20
36.56935
 30
0.0
 11
149.1740499999998
 21
38.03034999999999
 31
0.0
  0
ARC
  5
A6CC
330
A5AB
100
AcDbEntity
  8
1
  6
Continuous
100
AcDbCircle
 10
150.89605
 20
36.70835
 30
0.0
 40
1.6
100
AcDbArc
 50
185.0001
 51
254.5059999999998
  0
LINE
  5
A6CD
330
A5AB
100
AcDbEntity
  8
1
  6
Continuous
100
AcDbLine
 10
159.6740499999999
 20
39.33035
 30
0.0
 11
159.6740499999999
 21
40.33035
 31
0.0
  0
LINE
  5
A6CE
330
A5AB
100
AcDbEntity
  8
1
  6
Continuous
100
AcDbLine
 10
158.2740499999998
 20
38.03034999999999
 30
0.0
 11
158.2740499999998
 21
39.33035
 31
0.0
  0
LINE
  5
A6CF
330
A5AB
100
AcDbEntity
  8
1
  6
Continuous
100
AcDbLine
 10
153.49805
 20
38.03034999999999
 30
0.0
 11
153.1500499999999
 21
39.33035
 31
0.0
  0
ARC
  5
A6D0
330
A5AB
100
AcDbEntity
  8
1
  6
Continuous
100
AcDbCircle
 10
156.45205
 20
36.70835
 30
0.0
 40
1.6
100
AcDbArc
 50
285.494
 51
355.0
  0
LINE
  5
A6D1
330
A5AB
100
AcDbEntity
  8
1
  6
Continuous
100
AcDbLine
 10
158.04605
 20
36.56935
 30
0.0
 11
158.1740499999999
 21
38.03034999999999
 31
0.0
  0
LINE
  5
A6D2
330
A5AB
100
AcDbEntity
  8
1
  6
Continuous
100
AcDbLine
 10
21.20404
 20
155.9897819999999
 30
0.0
 11
21.20404
 21
143.9897819999999
 31
0.0
  0
LINE
  5
A6D3
330
A5AB
100
AcDbEntity
  8
1
  6
Continuous
100
AcDbLine
 10
19.90403999999999
 20
149.465782
 30
0.0
 11
21.20404
 21
149.813782
 31
0.0
  0
LINE
  5
A6D4
330
A5AB
100
AcDbEntity
  8
1
  6
Continuous
100
AcDbLine
 10
19.90403999999999
 20
145.3897819999999
 30
0.0
 11
19.90403999999999
 21
154.589782
 31
0.0
  0
ARC
  5
A6D5
330
A5AB
100
AcDbEntity
  8
1
  6
Continuous
100
AcDbCircle
 10
28.60404
 20
149.9897819999999
 30
0.0
 40
12.0
100
AcDbArc
 50
164.5059999999998
 51
195.494
  0
LINE
  5
A6D6
330
A5AB
100
AcDbEntity
  8
1
  6
Continuous
100
AcDbLine
 10
21.20404
 20
143.9897819999999
 30
0.0
 11
22.20403999999999
 21
143.9897819999999
 31
0.0
  0
LINE
  5
A6D7
330
A5AB
100
AcDbEntity
  8
1
  6
Continuous
100
AcDbLine
 10
19.90403999999999
 20
145.3897819999999
 30
0.0
 11
21.20404
 21
145.3897819999999
 31
0.0
  0
LINE
  5
A6D8
330
A5AB
100
AcDbEntity
  8
1
  6
Continuous
100
AcDbLine
 10
18.44304
 20
145.617782
 30
0.0
 11
19.90403999999999
 21
145.489782
 31
0.0
  0
ARC
  5
A6D9
330
A5AB
100
AcDbEntity
  8
1
  6
Continuous
100
AcDbCircle
 10
18.58203999999998
 20
147.211782
 30
0.0
 40
1.6
100
AcDbArc
 50
195.494
 51
264.9999
  0
LINE
  5
A6DA
330
A5AB
100
AcDbEntity
  8
1
  6
Continuous
100
AcDbLine
 10
21.20404
 20
155.9897819999999
 30
0.0
 11
22.20403999999999
 21
155.9897819999999
 31
0.0
  0
LINE
  5
A6DB
330
A5AB
100
AcDbEntity
  8
1
  6
Continuous
100
AcDbLine
 10
19.90403999999999
 20
154.589782
 30
0.0
 11
21.20404
 21
154.589782
 31
0.0
  0
LINE
  5
A6DC
330
A5AB
100
AcDbEntity
  8
1
  6
Continuous
100
AcDbLine
 10
19.90403999999999
 20
150.165782
 30
0.0
 11
21.20404
 21
150.5137819999999
 31
0.0
  0
ARC
  5
A6DD
330
A5AB
100
AcDbEntity
  8
1
  6
Continuous
100
AcDbCircle
 10
18.58203999999998
 20
152.767782
 30
0.0
 40
1.6
100
AcDbArc
 50
95.0
 51
164.5059999999998
  0
LINE
  5
A6DE
330
A5AB
100
AcDbEntity
  8
1
  6
Continuous
100
AcDbLine
 10
18.44304
 20
154.361782
 30
0.0
 11
19.90403999999999
 21
154.4897819999999
 31
0.0
  0
ARC
  5
A6DF
330
A5AB
100
AcDbEntity
  8
1
  6
Continuous
100
AcDbCircle
 10
269.281528
 20
149.9897819999999
 30
0.0
 40
12.0
100
AcDbArc
 50
344.5059999999998
 51
15.494
  0
LINE
  5
A6E0
330
A5AB
100
AcDbEntity
  8
1
  6
Continuous
100
AcDbLine
 10
277.9815279999999
 20
154.589782
 30
0.0
 11
277.9815279999999
 21
145.3897819999999
 31
0.0
  0
LINE
  5
A6E1
330
A5AB
100
AcDbEntity
  8
1
  6
Continuous
100
AcDbLine
 10
276.6815279999998
 20
155.9897819999999
 30
0.0
 11
276.6815279999998
 21
143.9897819999999
 31
0.0
  0
LINE
  5
A6E2
330
A5AB
100
AcDbEntity
  8
1
  6
Continuous
100
AcDbLine
 10
277.9815279999999
 20
149.813782
 30
0.0
 11
276.6815279999998
 21
149.465782
 31
0.0
  0
LINE
  5
A6E3
330
A5AB
100
AcDbEntity
  8
1
  6
Continuous
100
AcDbLine
 10
277.9815279999999
 20
145.3897819999999
 30
0.0
 11
276.6815279999998
 21
145.3897819999999
 31
0.0
  0
LINE
  5
A6E4
330
A5AB
100
AcDbEntity
  8
1
  6
Continuous
100
AcDbLine
 10
277.9815279999999
 20
150.5137819999999
 30
0.0
 11
276.6815279999998
 21
150.165782
 31
0.0
  0
ARC
  5
A6E5
330
A5AB
100
AcDbEntity
  8
1
  6
Continuous
100
AcDbCircle
 10
279.3035279999999
 20
147.211782
 30
0.0
 40
1.6
100
AcDbArc
 50
275.0000999999999
 51
344.5059999999998
  0
LINE
  5
A6E6
330
A5AB
100
AcDbEntity
  8
1
  6
Continuous
100
AcDbLine
 10
279.442528
 20
145.617782
 30
0.0
 11
277.9815279999999
 21
145.489782
 31
0.0
  0
LINE
  5
A6E7
330
A5AB
100
AcDbEntity
  8
1
  6
Continuous
100
AcDbLine
 10
276.6815279999998
 20
143.9897819999999
 30
0.0
 11
275.6815279999999
 21
143.9897819999999
 31
0.0
  0
LINE
  5
A6E8
330
A5AB
100
AcDbEntity
  8
1
  6
Continuous
100
AcDbLine
 10
277.9815279999999
 20
154.589782
 30
0.0
 11
276.6815279999998
 21
154.589782
 31
0.0
  0
LINE
  5
A6E9
330
A5AB
100
AcDbEntity
  8
1
  6
Continuous
100
AcDbLine
 10
279.442528
 20
154.361782
 30
0.0
 11
277.9815279999999
 21
154.4897819999999
 31
0.0
  0
ARC
  5
A6EA
330
A5AB
100
AcDbEntity
  8
1
  6
Continuous
100
AcDbCircle
 10
279.3035279999999
 20
152.767782
 30
0.0
 40
1.6
100
AcDbArc
 50
15.494
 51
85.0
  0
LINE
  5
A6EB
330
A5AB
100
AcDbEntity
  8
1
  6
Continuous
100
AcDbLine
 10
276.6815279999998
 20
155.9897819999999
 30
0.0
 11
275.6815279999999
 21
155.9897819999999
 31
0.0
  0
TEXT
  5
A6EC
330
A5AB
100
AcDbEntity
  8
7
  6
Continuous
100
AcDbText
 10
10.0
 20
26.0
 30
0.0
 40
3.0
  1
CODE No.3270
100
AcDbText
  0
TEXT
  5
A6ED
330
A5AB
100
AcDbEntity
  8
7
  6
Continuous
100
AcDbText
 10
10.0
 20
18.0
 30
0.0
 40
3.0
  1
TYPE No.THA-299-2
100
AcDbText
  0
TEXT
  5
A6EE
330
A5AB
100
AcDbEntity
  8
1
  6
Continuous
100
AcDbText
 10
10.0
 20
10.0
 30
0.0
 40
1.399999999999999
  1
LAYER
100
AcDbText
  0
TEXT
  5
A6EF
330
A5AB
100
AcDbEntity
  8
5
  6
PHANTOM
100
AcDbText
 10
25.97951099999999
 20
10.04873699999998
 30
0.0
 40
1.399999999999999
  1
5
100
AcDbText
  0
TEXT
  5
A6F0
330
A5AB
100
AcDbEntity
  8
6
  6
Continuous
100
AcDbText
 10
27.979511
 20
10.04873699999998
 30
0.0
 40
1.399999999999999
  1
6
100
AcDbText
  0
TEXT
  5
A6F1
330
A5AB
100
AcDbEntity
  8
2
  6
Continuous
100
AcDbText
 10
19.97951099999999
 20
10.04873699999998
 30
0.0
 40
1.399999999999999
  1
2
100
AcDbText
  0
TEXT
  5
A6F2
330
A5AB
100
AcDbEntity
  8
3
  6
DASHED
100
AcDbText
 10
21.979511
 20
10.04873699999998
 30
0.0
 40
1.399999999999999
  1
3
100
AcDbText
  0
TEXT
  5
A6F3
330
A5AB
100
AcDbEntity
  8
4
  6
CENTER
100
AcDbText
 10
23.97951099999999
 20
10.04873699999998
 30
0.0
 40
1.399999999999999
  1
4
100
AcDbText
  0
TEXT
  5
A6F4
330
A5AB
100
AcDbEntity
  8
7
  6
Continuous
100
AcDbText
 10
29.97951099999999
 20
10.04873699999998
 30
0.0
 40
1.399999999999999
  1
7
100
AcDbText
  0
TEXT
  5
A6F5
330
A5AB
100
AcDbEntity
  8
1
  6
Continuous
100
AcDbText
 10
17.97951099999998
 20
10.04873699999998
 30
0.0
 40
1.399999999999999
  1
1
100
AcDbText
  0
ARC
  5
A6F6
330
A5AB
100
AcDbEntity
  8
5
  6
PHANTOM
100
AcDbCircle
 10
130.1740499999999
 20
41.53035
 30
0.0
 40
10.0
100
AcDbArc
 50
145.5884909999998
 51
180.0
  0
ARC
  5
A6F7
330
A5AB
100
AcDbEntity
  8
5
  6
PHANTOM
100
AcDbCircle
 10
130.1740499999999
 20
258.557833
 30
0.0
 40
10.0
100
AcDbArc
 50
180.0
 51
214.411509
  0
CIRCLE
  5
A6F8
330
A5AB
100
AcDbEntity
  8
1
  6
Continuous
100
AcDbCircle
 10
340.308489
 20
149.9897819999999
 30
0.0
 40
4.599999999999997
  0
CIRCLE
  5
A6F9
330
A5AB
100
AcDbEntity
  8
3
  6
DASHED
100
AcDbCircle
 10
341.808489
 20
182.989782
 30
0.0
 40
4.0
  0
CIRCLE
  5
A6FA
330
A5AB
100
AcDbEntity
  8
3
  6
DASHED
100
AcDbCircle
 10
341.808489
 20
116.989782
 30
0.0
 40
4.0
  0
ARC
  5
A6FB
330
A5AB
100
AcDbEntity
  8
5
  6
PHANTOM
100
AcDbCircle
 10
436.4472329999999
 20
553.8317400000002
 30
0.0
 40
500.0
100
AcDbArc
 50
231.940463
 51
238.059537
  0
LINE
  5
A6FC
330
A5AB
100
AcDbEntity
  8
5
  6
PHANTOM
100
AcDbLine
 10
126.8828209999998
 20
163.255717
 30
0.0
 11
175.3030909999999
 21
129.351479
 31
0.0
  0
LINE
  5
A6FD
330
A5AB
100
AcDbEntity
  8
5
  6
PHANTOM
100
AcDbLine
 10
132.045009
 20
170.6280849999999
 30
0.0
 11
180.465279
 21
136.7238469999997
 31
0.0
  0
LINE
  5
A6FE
330
A5AB
100
AcDbEntity
  8
4
  6
CENTER
100
AcDbLine
 10
125.003729
 20
170.0649569999999
 30
0.0
 11
182.344372
 21
129.9146069999999
 31
0.0
  0
ARC
  5
A6FF
330
A5AB
100
AcDbEntity
  8
5
  6
PHANTOM
100
AcDbCircle
 10
-129.0991329999999
 20
-253.852176
 30
0.0
 40
500.0
100
AcDbArc
 50
51.940463
 51
58.059537
  0
ARC
  5
A700
330
A5AB
100
AcDbEntity
  8
5
  6
PHANTOM
100
AcDbCircle
 10
130.364926
 20
162.902243
 30
0.0
 40
3.5
100
AcDbArc
 50
145.0
 51
231.940463
  0
ARC
  5
A701
330
A5AB
100
AcDbEntity
  8
5
  6
PHANTOM
100
AcDbCircle
 10
133.568116
 20
167.4768719999998
 30
0.0
 40
3.5
100
AcDbArc
 50
58.059537
 51
145.0
  0
LINE
  5
A702
330
A5AB
100
AcDbEntity
  8
5
  6
PHANTOM
100
AcDbLine
 10
127.497894
 20
164.909761
 30
0.0
 11
130.701084
 21
169.4843899999999
 31
0.0
  0
ARC
  5
A703
330
A5AB
100
AcDbEntity
  8
5
  6
PHANTOM
100
AcDbCircle
 10
173.779985
 20
132.5026919999999
 30
0.0
 40
3.5
100
AcDbArc
 50
238.059537
 51
325.0
  0
ARC
  5
A704
330
A5AB
100
AcDbEntity
  8
5
  6
PHANTOM
100
AcDbCircle
 10
176.9831739999999
 20
137.0773209999998
 30
0.0
 40
3.5
100
AcDbArc
 50
325.0
 51
51.940463
  0
LINE
  5
A705
330
A5AB
100
AcDbEntity
  8
5
  6
PHANTOM
100
AcDbLine
 10
176.647017
 20
130.4951749999998
 30
0.0
 11
179.8502059999999
 21
135.0698029999997
 31
0.0
  0
LINE
  5
A706
330
A5AB
100
AcDbEntity
  8
5
  6
PHANTOM
100
AcDbLine
 10
180.465279
 20
163.255717
 30
0.0
 11
132.045009
 21
129.351479
 31
0.0
  0
ARC
  5
A707
330
A5AB
100
AcDbEntity
  8
5
  6
PHANTOM
100
AcDbCircle
 10
-129.0991329999999
 20
553.8317400000002
 30
0.0
 40
500.0
100
AcDbArc
 50
301.9404629999999
 51
308.0595369999999
  0
ARC
  5
A708
330
A5AB
100
AcDbEntity
  8
5
  6
PHANTOM
100
AcDbCircle
 10
436.4472329999999
 20
-253.852176
 30
0.0
 40
500.0
100
AcDbArc
 50
121.9404629999998
 51
128.059537
  0
LINE
  5
A709
330
A5AB
100
AcDbEntity
  8
5
  6
PHANTOM
100
AcDbLine
 10
175.3030909999999
 20
170.6280849999999
 30
0.0
 11
126.8828209999998
 21
136.7238469999997
 31
0.0
  0
LINE
  5
A70A
330
A5AB
100
AcDbEntity
  8
4
  6
CENTER
100
AcDbLine
 10
182.344372
 20
170.0649569999999
 30
0.0
 11
125.003729
 21
129.9146069999999
 31
0.0
  0
ARC
  5
A70B
330
A5AB
100
AcDbEntity
  8
5
  6
PHANTOM
100
AcDbCircle
 10
176.9831739999999
 20
162.902243
 30
0.0
 40
3.5
100
AcDbArc
 50
308.0595369999999
 51
35.0
  0
ARC
  5
A70C
330
A5AB
100
AcDbEntity
  8
5
  6
PHANTOM
100
AcDbCircle
 10
173.779985
 20
167.4768719999998
 30
0.0
 40
3.5
100
AcDbArc
 50
35.0
 51
121.9404629999998
  0
LINE
  5
A70D
330
A5AB
100
AcDbEntity
  8
5
  6
PHANTOM
100
AcDbLine
 10
179.8502059999999
 20
164.909761
 30
0.0
 11
176.647017
 21
169.4843899999999
 31
0.0
  0
ARC
  5
A70E
330
A5AB
100
AcDbEntity
  8
5
  6
PHANTOM
100
AcDbCircle
 10
130.364926
 20
137.0773209999998
 30
0.0
 40
3.5
100
AcDbArc
 50
128.059537
 51
214.9999999999999
  0
ARC
  5
A70F
330
A5AB
100
AcDbEntity
  8
5
  6
PHANTOM
100
AcDbCircle
 10
133.568116
 20
132.5026919999999
 30
0.0
 40
3.5
100
AcDbArc
 50
214.9999999999999
 51
301.9404629999999
  0
LINE
  5
A710
330
A5AB
100
AcDbEntity
  8
5
  6
PHANTOM
100
AcDbLine
 10
130.701084
 20
130.4951749999998
 30
0.0
 11
127.497894
 21
135.0698029999997
 31
0.0
  0
ARC
  5
A711
330
A5AB
100
AcDbEntity
  8
1
  6
Continuous
100
AcDbCircle
 10
254.681528
 20
164.9897819999999
 30
0.0
 40
18.0
100
AcDbArc
 50
135.099128
 51
180.0
  0
LINE
  5
A712
330
A5AB
100
AcDbEntity
  8
1
  6
Continuous
100
AcDbLine
 10
236.6815279999999
 20
164.9897819999999
 30
0.0
 11
236.6815279999999
 21
134.989782
 31
0.0
  0
ARC
  5
A713
330
A5AB
100
AcDbEntity
  8
1
  6
Continuous
100
AcDbCircle
 10
254.681528
 20
134.989782
 30
0.0
 40
18.0
100
AcDbArc
 50
180.0
 51
224.9008719999999
  0
ARC
  5
A714
330
A5AB
100
AcDbEntity
  8
1
  6
Continuous
100
AcDbCircle
 10
254.681528
 20
164.9897819999999
 30
0.0
 40
16.0
100
AcDbArc
 50
135.099128
 51
180.0
  0
LINE
  5
A715
330
A5AB
100
AcDbEntity
  8
1
  6
Continuous
100
AcDbLine
 10
238.6815279999999
 20
164.9897819999999
 30
0.0
 11
238.6815279999999
 21
134.989782
 31
0.0
  0
ARC
  5
A716
330
A5AB
100
AcDbEntity
  8
1
  6
Continuous
100
AcDbCircle
 10
254.681528
 20
134.989782
 30
0.0
 40
16.0
100
AcDbArc
 50
180.0
 51
224.9008719999999
  0
LINE
  5
A717
330
A5AB
100
AcDbEntity
  8
1
  6
Continuous
100
AcDbLine
 10
242.353101
 20
157.1613549999999
 30
0.0
 11
240.9388869999999
 21
155.7471409999999
 31
0.0
  0
LINE
  5
A718
330
A5AB
100
AcDbEntity
  8
1
  6
Continuous
100
AcDbLine
 10
242.353101
 20
142.8182089999999
 30
0.0
 11
240.9388869999999
 21
144.232423
 31
0.0
  0
LINE
  5
A719
330
A5AB
100
AcDbEntity
  8
1
  6
Continuous
100
AcDbLine
 10
59.20404
 20
164.9897819999999
 30
0.0
 11
59.20404
 21
134.989782
 31
0.0
  0
LINE
  5
A71A
330
A5AB
100
AcDbEntity
  8
1
  6
Continuous
100
AcDbLine
 10
61.20404
 20
164.9897819999999
 30
0.0
 11
61.20404
 21
134.989782
 31
0.0
  0
ARC
  5
A71B
330
A5AB
100
AcDbEntity
  8
1
  6
Continuous
100
AcDbCircle
 10
43.20403999999999
 20
134.989782
 30
0.0
 40
18.0
100
AcDbArc
 50
315.0991279999999
 51
0.0
  0
ARC
  5
A71C
330
A5AB
100
AcDbEntity
  8
1
  6
Continuous
100
AcDbCircle
 10
43.20403999999999
 20
134.989782
 30
0.0
 40
16.0
100
AcDbArc
 50
315.0991279999999
 51
0.0
  0
LINE
  5
A71D
330
A5AB
100
AcDbEntity
  8
1
  6
Continuous
100
AcDbLine
 10
55.53246699999998
 20
142.8182089999999
 30
0.0
 11
56.94668100000001
 21
144.232423
 31
0.0
  0
LINE
  5
A71E
330
A5AB
100
AcDbEntity
  8
1
  6
Continuous
100
AcDbLine
 10
55.53246699999998
 20
157.1613549999999
 30
0.0
 11
56.94668100000001
 21
155.7471409999999
 31
0.0
  0
ARC
  5
A71F
330
A5AB
100
AcDbEntity
  8
1
  6
Continuous
100
AcDbCircle
 10
43.20403999999999
 20
164.9897819999999
 30
0.0
 40
16.0
100
AcDbArc
 50
0.0
 51
44.900872
  0
ARC
  5
A720
330
A5AB
100
AcDbEntity
  8
1
  6
Continuous
100
AcDbCircle
 10
43.20403999999999
 20
164.9897819999999
 30
0.0
 40
18.0
100
AcDbArc
 50
0.0
 51
44.900872
  0
LINE
  5
A721
330
A5AB
100
AcDbEntity
  8
4
  6
CENTER
100
AcDbLine
 10
185.9384189999999
 20
167.9897819999999
 30
0.0
 11
177.4384189999999
 21
167.9897819999999
 31
0.0
  0
LINE
  5
A722
330
A5AB
100
AcDbEntity
  8
4
  6
CENTER
100
AcDbLine
 10
185.9384189999999
 20
131.9897819999999
 30
0.0
 11
177.4384189999999
 21
131.9897819999999
 31
0.0
  0
LINE
  5
A723
330
A5AB
100
AcDbEntity
  8
4
  6
CENTER
100
AcDbLine
 10
136.17405
 20
251.491727
 30
0.0
 11
136.17405
 21
262.491727
 31
0.0
  0
LINE
  5
A724
330
A5AB
100
AcDbEntity
  8
4
  6
CENTER
100
AcDbLine
 10
152.1740499999999
 20
252.1917269999999
 30
0.0
 11
152.1740499999999
 21
261.7917269999999
 31
0.0
  0
LINE
  5
A725
330
A5AB
100
AcDbEntity
  8
4
  6
CENTER
100
AcDbLine
 10
168.17405
 20
251.491727
 30
0.0
 11
168.17405
 21
262.491727
 31
0.0
  0
LINE
  5
A726
330
A5AB
100
AcDbEntity
  8
4
  6
CENTER
100
AcDbLine
 10
168.17405
 20
35.188099
 30
0.0
 11
168.17405
 21
46.188099
 31
0.0
  0
LINE
  5
A727
330
A5AB
100
AcDbEntity
  8
4
  6
CENTER
100
AcDbLine
 10
152.1740499999999
 20
35.88809899999999
 30
0.0
 11
152.1740499999999
 21
45.488099
 31
0.0
  0
LINE
  5
A728
330
A5AB
100
AcDbEntity
  8
4
  6
CENTER
100
AcDbLine
 10
136.17405
 20
35.188099
 30
0.0
 11
136.17405
 21
46.188099
 31
0.0
  0
LINE
  5
A729
330
A5AB
100
AcDbEntity
  8
1
  6
Continuous
100
AcDbLine
 10
123.1740499999998
 20
183.989782
 30
0.0
 11
123.1740499999998
 21
115.989782
 31
0.0
  0
LINE
  5
A72A
330
A5AB
100
AcDbEntity
  8
1
  6
Continuous
100
AcDbLine
 10
181.1740499999999
 20
183.989782
 30
0.0
 11
181.1740499999999
 21
115.989782
 31
0.0
  0
ARC
  5
A72B
330
A5AB
100
AcDbEntity
  8
1
  6
Continuous
100
AcDbCircle
 10
129.1740499999999
 20
183.989782
 30
0.0
 40
6.0
100
AcDbArc
 50
90.0
 51
180.0
  0
ARC
  5
A72C
330
A5AB
100
AcDbEntity
  8
1
  6
Continuous
100
AcDbCircle
 10
129.1740499999999
 20
115.989782
 30
0.0
 40
6.0
100
AcDbArc
 50
180.0
 51
270.0
  0
ARC
  5
A72D
330
A5AB
100
AcDbEntity
  8
1
  6
Continuous
100
AcDbCircle
 10
175.1740499999999
 20
115.989782
 30
0.0
 40
6.0
100
AcDbArc
 50
270.0
 51
0.0
  0
ARC
  5
A72E
330
A5AB
100
AcDbEntity
  8
1
  6
Continuous
100
AcDbCircle
 10
175.1740499999999
 20
183.989782
 30
0.0
 40
6.0
100
AcDbArc
 50
0.0
 51
90.0
  0
LINE
  5
A72F
330
A5AB
100
AcDbEntity
  8
1
  6
Continuous
100
AcDbLine
 10
123.1240499999999
 20
174.9897819999999
 30
0.0
 11
123.1240499999999
 21
124.989782
 31
0.0
  0
LINE
  5
A730
330
A5AB
100
AcDbEntity
  8
1
  6
Continuous
100
AcDbLine
 10
181.22405
 20
174.9897819999999
 30
0.0
 11
181.22405
 21
124.989782
 31
0.0
  0
LINE
  5
A731
330
A5AB
100
AcDbEntity
  8
1
  6
Continuous
100
AcDbLine
 10
182.4240499999999
 20
174.9897819999999
 30
0.0
 11
182.4240499999999
 21
124.989782
 31
0.0
  0
LINE
  5
A732
330
A5AB
100
AcDbEntity
  8
1
  6
Continuous
100
AcDbLine
 10
121.9240499999998
 20
174.9897819999999
 30
0.0
 11
121.9240499999998
 21
124.989782
 31
0.0
  0
LINE
  5
A733
330
A5AB
100
AcDbEntity
  8
1
  6
Continuous
100
AcDbLine
 10
318.808489
 20
109.989782
 30
0.0
 11
364.808489
 21
109.989782
 31
0.0
  0
ARC
  5
A734
330
A5AB
100
AcDbEntity
  8
1
  6
Continuous
100
AcDbCircle
 10
318.808489
 20
115.989782
 30
0.0
 40
6.0
100
AcDbArc
 50
180.0
 51
270.0
  0
LINE
  5
A735
330
A5AB
100
AcDbEntity
  8
1
  6
Continuous
100
AcDbLine
 10
312.808489
 20
115.989782
 30
0.0
 11
312.808489
 21
124.989782
 31
0.0
  0
LINE
  5
A736
330
A5AB
100
AcDbEntity
  8
1
  6
Continuous
100
AcDbLine
 10
311.558489
 20
124.989782
 30
0.0
 11
311.558489
 21
174.9897819999999
 31
0.0
  0
LINE
  5
A737
330
A5AB
100
AcDbEntity
  8
1
  6
Continuous
100
AcDbLine
 10
312.808489
 20
124.989782
 30
0.0
 11
311.558489
 21
124.989782
 31
0.0
  0
LINE
  5
A738
330
A5AB
100
AcDbEntity
  8
1
  6
Continuous
100
AcDbLine
 10
312.808489
 20
174.9897819999999
 30
0.0
 11
311.558489
 21
174.9897819999999
 31
0.0
  0
LINE
  5
A739
330
A5AB
100
AcDbEntity
  8
1
  6
Continuous
100
AcDbLine
 10
318.808489
 20
189.9897819999999
 30
0.0
 11
364.808489
 21
189.9897819999999
 31
0.0
  0
ARC
  5
A73A
330
A5AB
100
AcDbEntity
  8
1
  6
Continuous
100
AcDbCircle
 10
318.808489
 20
183.989782
 30
0.0
 40
6.0
100
AcDbArc
 50
90.0
 51
180.0
  0
ARC
  5
A73B
330
A5AB
100
AcDbEntity
  8
1
  6
Continuous
100
AcDbCircle
 10
364.808489
 20
183.989782
 30
0.0
 40
6.0
100
AcDbArc
 50
0.0
 51
90.0
  0
LINE
  5
A73C
330
A5AB
100
AcDbEntity
  8
1
  6
Continuous
100
AcDbLine
 10
370.808489
 20
115.989782
 30
0.0
 11
370.808489
 21
124.989782
 31
0.0
  0
LINE
  5
A73D
330
A5AB
100
AcDbEntity
  8
1
  6
Continuous
100
AcDbLine
 10
372.058489
 20
124.989782
 30
0.0
 11
372.058489
 21
174.9897819999999
 31
0.0
  0
LINE
  5
A73E
330
A5AB
100
AcDbEntity
  8
1
  6
Continuous
100
AcDbLine
 10
372.058489
 20
174.9897819999999
 30
0.0
 11
370.808489
 21
174.9897819999999
 31
0.0
  0
LINE
  5
A73F
330
A5AB
100
AcDbEntity
  8
1
  6
Continuous
100
AcDbLine
 10
372.058489
 20
124.989782
 30
0.0
 11
370.808489
 21
124.989782
 31
0.0
  0
ARC
  5
A740
330
A5AB
100
AcDbEntity
  8
1
  6
Continuous
100
AcDbCircle
 10
364.808489
 20
115.989782
 30
0.0
 40
6.0
100
AcDbArc
 50
270.0
 51
0.0
  0
LINE
  5
A741
330
A5AB
100
AcDbEntity
  8
1
  6
Continuous
100
AcDbLine
 10
386.058489
 20
158.4897819999999
 30
0.0
 11
386.058489
 21
141.489782
 31
0.0
  0
ARC
  5
A742
330
A5AB
100
AcDbEntity
  8
1
  6
Continuous
100
AcDbCircle
 10
385.058489
 20
141.489782
 30
0.0
 40
1.0
100
AcDbArc
 50
270.0
 51
0.0
  0
LINE
  5
A743
330
A5AB
100
AcDbEntity
  8
1
  6
Continuous
100
AcDbLine
 10
372.058489
 20
140.4897819999999
 30
0.0
 11
385.058489
 21
140.4897819999999
 31
0.0
  0
ARC
  5
A744
330
A5AB
100
AcDbEntity
  8
1
  6
Continuous
100
AcDbCircle
 10
385.058489
 20
158.4897819999999
 30
0.0
 40
1.0
100
AcDbArc
 50
0.0
 51
90.0
  0
LINE
  5
A745
330
A5AB
100
AcDbEntity
  8
1
  6
Continuous
100
AcDbLine
 10
372.058489
 20
159.4897819999999
 30
0.0
 11
385.058489
 21
159.4897819999999
 31
0.0
  0
LINE
  5
A746
330
A5AB
100
AcDbEntity
  8
1
  6
Continuous
100
AcDbLine
 10
123.1740499999998
 20
244.757833
 30
0.0
 11
123.1740499999998
 21
258.557833
 31
0.0
  0
LINE
  5
A747
330
A5AB
100
AcDbEntity
  8
1
  6
Continuous
100
AcDbLine
 10
181.1740499999999
 20
244.757833
 30
0.0
 11
181.1740499999999
 21
258.557833
 31
0.0
  0
LINE
  5
A748
330
A5AB
100
AcDbEntity
  8
1
  6
Continuous
100
AcDbLine
 10
123.1740499999998
 20
55.33035
 30
0.0
 11
123.1740499999998
 21
41.53035
 31
0.0
  0
LINE
  5
A749
330
A5AB
100
AcDbEntity
  8
1
  6
Continuous
100
AcDbLine
 10
181.1740499999999
 20
55.33035
 30
0.0
 11
181.1740499999999
 21
41.53035
 31
0.0
  0
LINE
  5
A74A
330
A5AB
100
AcDbEntity
  8
1
  6
Continuous
100
AcDbLine
 10
33.20403999999999
 20
158.639782
 30
0.0
 11
33.20403999999999
 21
141.339782
 31
0.0
  0
ARC
  5
A74B
330
A5AB
100
AcDbEntity
  8
1
  6
Continuous
100
AcDbCircle
 10
32.20404
 20
158.639782
 30
0.0
 40
1.0
100
AcDbArc
 50
0.0
 51
90.0
  0
ARC
  5
A74C
330
A5AB
100
AcDbEntity
  8
1
  6
Continuous
100
AcDbCircle
 10
32.20404
 20
141.339782
 30
0.0
 40
1.0
100
AcDbArc
 50
270.0
 51
0.0
  0
LINE
  5
A74D
330
A5AB
100
AcDbEntity
  8
4
  6
CENTER
100
AcDbLine
 10
316.781907
 20
167.9897819999999
 30
0.0
 11
308.2819069999998
 21
167.9897819999999
 31
0.0
  0
LINE
  5
A74E
330
A5AB
100
AcDbEntity
  8
4
  6
CENTER
100
AcDbLine
 10
316.781907
 20
131.9897819999999
 30
0.0
 11
308.2819069999998
 21
131.9897819999999
 31
0.0
  0
LINE
  5
A74F
330
A5AB
100
AcDbEntity
  8
1
  6
Continuous
100
AcDbLine
 10
149.67405
 20
71.33034999999998
 30
0.0
 11
157.6740499999999
 21
71.33034999999998
 31
0.0
  0
LINE
  5
A750
330
A5AB
100
AcDbEntity
  8
1
  6
Continuous
100
AcDbLine
 10
151.78849
 20
73.46836
 30
0.0
 11
155.53679
 21
73.46836
 31
0.0
  0
LINE
  5
A751
330
A5AB
100
AcDbEntity
  8
1
  6
Continuous
100
AcDbLine
 10
151.93708
 20
76.55911
 30
0.0
 11
155.49966
 21
76.55911
 31
0.0
  0
LINE
  5
A752
330
A5AB
100
AcDbEntity
  8
1
  6
Continuous
100
AcDbLine
 10
149.1740499999998
 20
83.33034999999998
 30
0.0
 11
150.0793999999999
 21
76.55911
 31
0.0
  0
LINE
  5
A753
330
A5AB
100
AcDbEntity
  8
1
  6
Continuous
100
AcDbLine
 10
146.67405
 20
77.64516999999997
 30
0.0
 11
147.57486
 21
74.4919
 31
0.0
  0
LINE
  5
A754
330
A5AB
100
AcDbEntity
  8
1
  6
Continuous
100
AcDbLine
 10
146.67405
 20
79.33034999999998
 30
0.0
 11
147.57486
 21
76.17708
 31
0.0
  0
LINE
  5
A755
330
A5AB
100
AcDbEntity
  8
1
  6
Continuous
100
AcDbLine
 10
160.6740499999999
 20
79.33034999999998
 30
0.0
 11
159.7732399999999
 21
76.17708
 31
0.0
  0
LINE
  5
A756
330
A5AB
100
AcDbEntity
  8
1
  6
Continuous
100
AcDbLine
 10
160.6740499999999
 20
77.64516999999997
 30
0.0
 11
159.7732399999999
 21
74.4919
 31
0.0
  0
LINE
  5
A757
330
A5AB
100
AcDbEntity
  8
1
  6
Continuous
100
AcDbLine
 10
158.1740499999999
 20
83.33034999999998
 30
0.0
 11
157.2686999999999
 21
76.55911
 31
0.0
  0
LINE
  5
A758
330
A5AB
100
AcDbEntity
  8
1
  6
Continuous
100
AcDbLine
 10
149.67405
 20
71.33034999999998
 30
0.0
 11
148.3476399999998
 21
72.88625
 31
0.0
  0
LINE
  5
A759
330
A5AB
100
AcDbEntity
  8
1
  6
Continuous
100
AcDbLine
 10
157.6740499999999
 20
71.33034999999998
 30
0.0
 11
159.00046
 21
72.88625
 31
0.0
  0
ARC
  5
A75A
330
A5AB
100
AcDbEntity
  8
1
  6
Continuous
100
AcDbCircle
 10
156.3369899999998
 20
75.15689
 30
0.0
 40
3.5
100
AcDbArc
 50
319.552
 51
349.0469999999998
  0
ARC
  5
A75B
330
A5AB
100
AcDbEntity
  8
1
  6
Continuous
100
AcDbCircle
 10
151.0793999999999
 20
75.55911
 30
0.0
 40
1.0
100
AcDbArc
 50
90.0
 51
180.0
  0
ARC
  5
A75C
330
A5AB
100
AcDbEntity
  8
1
  6
Continuous
100
AcDbCircle
 10
156.2686999999999
 20
75.55911
 30
0.0
 40
1.0
100
AcDbArc
 50
0.0
 51
90.0
  0
ARC
  5
A75D
330
A5AB
100
AcDbEntity
  8
1
  6
Continuous
100
AcDbCircle
 10
156.2686999999999
 20
74.46836000000002
 30
0.0
 40
1.0
100
AcDbArc
 50
270.0
 51
0.0
  0
ARC
  5
A75E
330
A5AB
100
AcDbEntity
  8
1
  6
Continuous
100
AcDbCircle
 10
151.0793999999999
 20
74.46836000000002
 30
0.0
 40
1.0
100
AcDbArc
 50
180.0
 51
270.0
  0
ARC
  5
A75F
330
A5AB
100
AcDbEntity
  8
1
  6
Continuous
100
AcDbCircle
 10
151.01111
 20
75.15689
 30
0.0
 40
3.5
100
AcDbArc
 50
190.953
 51
220.4479999999998
  0
LINE
  5
A760
330
A5AB
100
AcDbEntity
  8
1
  6
Continuous
100
AcDbLine
 10
149.67405
 20
228.757833
 30
0.0
 11
157.6740499999999
 21
228.757833
 31
0.0
  0
LINE
  5
A761
330
A5AB
100
AcDbEntity
  8
1
  6
Continuous
100
AcDbLine
 10
151.78849
 20
226.619823
 30
0.0
 11
155.53679
 21
226.619823
 31
0.0
  0
LINE
  5
A762
330
A5AB
100
AcDbEntity
  8
1
  6
Continuous
100
AcDbLine
 10
151.93708
 20
223.529073
 30
0.0
 11
155.49966
 21
223.529073
 31
0.0
  0
LINE
  5
A763
330
A5AB
100
AcDbEntity
  8
1
  6
Continuous
100
AcDbLine
 10
158.1740499999999
 20
216.7578329999999
 30
0.0
 11
157.2686999999999
 21
223.529073
 31
0.0
  0
ARC
  5
A764
330
A5AB
100
AcDbEntity
  8
1
  6
Continuous
100
AcDbCircle
 10
156.2686999999999
 20
224.529073
 30
0.0
 40
1.0
100
AcDbArc
 50
270.0
 51
0.0
  0
ARC
  5
A765
330
A5AB
100
AcDbEntity
  8
1
  6
Continuous
100
AcDbCircle
 10
156.2686999999999
 20
225.6198229999998
 30
0.0
 40
1.0
100
AcDbArc
 50
0.0
 51
90.0
  0
LINE
  5
A766
330
A5AB
100
AcDbEntity
  8
1
  6
Continuous
100
AcDbLine
 10
157.6740499999999
 20
228.757833
 30
0.0
 11
159.00046
 21
227.201933
 31
0.0
  0
LINE
  5
A767
330
A5AB
100
AcDbEntity
  8
1
  6
Continuous
100
AcDbLine
 10
149.1740499999998
 20
216.7578329999999
 30
0.0
 11
150.0793999999999
 21
223.529073
 31
0.0
  0
LINE
  5
A768
330
A5AB
100
AcDbEntity
  8
1
  6
Continuous
100
AcDbLine
 10
149.67405
 20
228.757833
 30
0.0
 11
148.3476399999998
 21
227.201933
 31
0.0
  0
ARC
  5
A769
330
A5AB
100
AcDbEntity
  8
1
  6
Continuous
100
AcDbCircle
 10
151.01111
 20
224.931293
 30
0.0
 40
3.5
100
AcDbArc
 50
139.5519999999999
 51
169.0469999999999
  0
LINE
  5
A76A
330
A5AB
100
AcDbEntity
  8
1
  6
Continuous
100
AcDbLine
 10
146.67405
 20
220.757833
 30
0.0
 11
147.57486
 21
223.9111029999999
 31
0.0
  0
LINE
  5
A76B
330
A5AB
100
AcDbEntity
  8
1
  6
Continuous
100
AcDbLine
 10
146.67405
 20
222.443013
 30
0.0
 11
147.57486
 21
225.596283
 31
0.0
  0
ARC
  5
A76C
330
A5AB
100
AcDbEntity
  8
1
  6
Continuous
100
AcDbCircle
 10
151.0793999999999
 20
224.529073
 30
0.0
 40
1.0
100
AcDbArc
 50
180.0
 51
270.0
  0
ARC
  5
A76D
330
A5AB
100
AcDbEntity
  8
1
  6
Continuous
100
AcDbCircle
 10
151.0793999999999
 20
225.6198229999998
 30
0.0
 40
1.0
100
AcDbArc
 50
90.0
 51
180.0
  0
ARC
  5
A76E
330
A5AB
100
AcDbEntity
  8
1
  6
Continuous
100
AcDbCircle
 10
156.3369899999998
 20
224.931293
 30
0.0
 40
3.5
100
AcDbArc
 50
10.95299999999999
 51
40.448
  0
LINE
  5
A76F
330
A5AB
100
AcDbEntity
  8
1
  6
Continuous
100
AcDbLine
 10
160.6740499999999
 20
222.443013
 30
0.0
 11
159.7732399999999
 21
225.596283
 31
0.0
  0
LINE
  5
A770
330
A5AB
100
AcDbEntity
  8
1
  6
Continuous
100
AcDbLine
 10
160.6740499999999
 20
220.757833
 30
0.0
 11
159.7732399999999
 21
223.9111029999999
 31
0.0
  0
CIRCLE
  5
A771
330
A5AB
100
AcDbEntity
  8
1
  6
Continuous
100
AcDbCircle
 10
340.308489
 20
149.9897819999999
 30
0.0
 40
6.0
  0
LINE
  5
A772
330
A5AB
100
AcDbEntity
  8
5
  6
PHANTOM
100
AcDbLine
 10
118.9240499999998
 20
141.489782
 30
0.0
 11
118.9240499999998
 21
158.4897819999999
 31
0.0
  0
ARC
  5
A773
330
A5AB
100
AcDbEntity
  8
5
  6
PHANTOM
100
AcDbCircle
 10
119.9240499999998
 20
141.489782
 30
0.0
 40
1.0
100
AcDbArc
 50
180.0
 51
270.0
  0
ARC
  5
A774
330
A5AB
100
AcDbEntity
  8
5
  6
PHANTOM
100
AcDbCircle
 10
119.9240499999998
 20
158.4897819999999
 30
0.0
 40
1.0
100
AcDbArc
 50
90.0
 51
180.0
  0
ARC
  5
A775
330
A5AB
100
AcDbEntity
  8
5
  6
PHANTOM
100
AcDbCircle
 10
374.058489
 20
158.4897819999999
 30
0.0
 40
1.0
100
AcDbArc
 50
0.0
 51
90.0
  0
LINE
  5
A776
330
A5AB
100
AcDbEntity
  8
5
  6
PHANTOM
100
AcDbLine
 10
375.058489
 20
158.4897819999999
 30
0.0
 11
375.058489
 21
141.489782
 31
0.0
  0
ARC
  5
A777
330
A5AB
100
AcDbEntity
  8
5
  6
PHANTOM
100
AcDbCircle
 10
374.058489
 20
141.489782
 30
0.0
 40
1.0
100
AcDbArc
 50
270.0
 51
0.0
  0
LINE
  5
A778
330
A5AB
100
AcDbEntity
  8
1
  6
Continuous
100
AcDbLine
 10
312.808489
 20
174.9897819999999
 30
0.0
 11
312.808489
 21
183.989782
 31
0.0
  0
LINE
  5
A779
330
A5AB
100
AcDbEntity
  8
1
  6
Continuous
100
AcDbLine
 10
370.808489
 20
174.9897819999999
 30
0.0
 11
370.808489
 21
183.989782
 31
0.0
  0
ENDSEC
  0
SECTION
  2
OBJECTS
  0
DICTIONARY
  5
A599
330
0
100
AcDbDictionary
281
     1
  3
ACAD_CIP_PREVIOUS_PRODUCT_INFO
350
A7DF
  3
ACAD_COLOR
350
A7C1
  3
ACAD_DETAILVIEWSTYLE
350
A7DA
  3
ACAD_GROUP
350
A59A
  3
ACAD_LAYOUT
350
A5A6
  3
ACAD_MATERIAL
350
A78F
  3
ACAD_MLEADERSTYLE
350
A7D6
  3
ACAD_MLINESTYLE
350
A5A3
  3
ACAD_PLOTSETTINGS
350
A5A5
  3
ACAD_PLOTSTYLENAME
350
A78D
  3
ACAD_SCALELIST
350
A7C4
  3
ACAD_SECTIONVIEWSTYLE
350
A7D8
  3
ACAD_TABLESTYLE
350
A7C2
  3
ACAD_VISUALSTYLE
350
A7A8
  3
ACDB_RECOMPOSE_DATA
350
A7FD
  3
AcDbVariableDictionary
350
A7F0
  3
DWGPROPS
350
A7FE
  0
DICTIONARY
  5
A7E0
330
A59D
100
AcDbDictionary
280
     1
281
     1
  3
ADSK_XREC_LAYER_RECONCILED
360
A7E1
  0
DICTIONARY
  5
A7E2
330
A5B3
100
AcDbDictionary
280
     1
281
     1
  3
ADSK_XREC_LAYER_RECONCILED
360
A7E3
  0
DICTIONARY
  5
A7E4
330
A5B4
100
AcDbDictionary
280
     1
281
     1
  3
ADSK_XREC_LAYER_RECONCILED
360
A7E5
  0
DICTIONARY
  5
A7E6
330
A5B5
100
AcDbDictionary
280
     1
281
     1
  3
ADSK_XREC_LAYER_RECONCILED
360
A7E7
  0
DICTIONARY
  5
A7E8
330
A5B6
100
AcDbDictionary
280
     1
281
     1
  3
ADSK_XREC_LAYER_RECONCILED
360
A7E9
  0
DICTIONARY
  5
A7EA
330
A5B7
100
AcDbDictionary
280
     1
281
     1
  3
ADSK_XREC_LAYER_RECONCILED
360
A7EB
  0
DICTIONARY
  5
A7EC
330
A5B8
100
AcDbDictionary
280
     1
281
     1
  3
ADSK_XREC_LAYER_RECONCILED
360
A7ED
  0
DICTIONARY
  5
A7EE
330
A5B9
100
AcDbDictionary
280
     1
281
     1
  3
ADSK_XREC_LAYER_RECONCILED
360
A7EF
  0
DICTIONARY
  5
A788
330
A5AB
100
AcDbDictionary
281
     1
  3
ACAD_LAYOUTSELFREF
350
A789
  0
DICTIONARY
  5
A786
330
A5A7
100
AcDbDictionary
281
     1
  3
ACAD_LAYOUTSELFREF
350
A787
  0
XRECORD
  5
A7DF
102
{ACAD_REACTORS
330
A599
102
}
330
A599
100
AcDbXrecord
280
     1
300
ACDLT
300
2014
300
ACDLT_F_S
  0
DICTIONARY
  5
A7C1
102
{ACAD_REACTORS
330
A599
102
}
330
A599
100
AcDbDictionary
281
     1
  0
DICTIONARY
  5
A7DA
102
{ACAD_REACTORS
330
A599
102
}
330
A599
100
AcDbDictionary
281
     1
  3
Imperial24
350
A7DB
  0
DICTIONARY
  5
A59A
102
{ACAD_REACTORS
330
A599
102
}
330
A599
100
AcDbDictionary
281
     1
  0
DICTIONARY
  5
A5A6
102
{ACAD_REACTORS
330
A599
102
}
330
A599
100
AcDbDictionary
281
     1
  3
Model
350
A7DC
  3
レイアウト1
350
A7DD
  0
DICTIONARY
  5
A78F
102
{ACAD_REACTORS
330
A599
102
}
330
A599
100
AcDbDictionary
281
     1
  3
ByBlock
350
A798
  3
ByLayer
350
A790
  3
Global
350
A7A0
  0
DICTIONARY
  5
A7D6
102
{ACAD_REACTORS
330
A599
102
}
330
A599
100
AcDbDictionary
281
     1
  3
Standard
350
A7D7
  0
DICTIONARY
  5
A5A3
102
{ACAD_REACTORS
330
A599
102
}
330
A599
100
AcDbDictionary
281
     1
  3
STANDARD
350
A5A4
  0
DICTIONARY
  5
A5A5
102
{ACAD_REACTORS
330
A599
102
}
330
A599
100
AcDbDictionary
281
     1
  0
ACDBDICTIONARYWDFLT
  5
A78D
102
{ACAD_REACTORS
330
A599
102
}
330
A599
100
AcDbDictionary
281
     1
  3
Normal
350
A78E
100
AcDbDictionaryWithDefault
340
A78E
  0
DICTIONARY
  5
A7C4
102
{ACAD_REACTORS
330
A599
102
}
330
A599
100
AcDbDictionary
281
     1
  3
A0
350
A7C5
  3
A1
350
A7C6
  3
A2
350
A7C7
  3
A3
350
A7C8
  3
A4
350
A7C9
  3
A5
350
A7CA
  3
A6
350
A7CB
  3
A7
350
A7CC
  3
A8
350
A7CD
  3
A9
350
A7CE
  3
B0
350
A7CF
  3
B1
350
A7D0
  3
B2
350
A7D1
  3
B3
350
A7D2
  3
B4
350
A7D3
  3
B5
350
A7D4
  3
B6
350
A7D5
  0
DICTIONARY
  5
A7D8
102
{ACAD_REACTORS
330
A599
102
}
330
A599
100
AcDbDictionary
281
     1
  3
Imperial24
350
A7D9
  0
DICTIONARY
  5
A7C2
102
{ACAD_REACTORS
330
A599
102
}
330
A599
100
AcDbDictionary
281
     1
  3
Standard
350
A7C3
  0
DICTIONARY
  5
A7A8
102
{ACAD_REACTORS
330
A599
102
}
330
A599
100
AcDbDictionary
281
     1
  3
2dWireframe
350
A7AE
  3
Basic
350
A7AD
  3
Brighten
350
A7B4
  3
ColorChange
350
A7B8
  3
Conceptual
350
A7B1
  3
Dim
350
A7B3
  3
EdgeColorOff
350
A7C0
  3
Facepattern
350
A7B7
  3
Flat
350
A7A9
  3
FlatWithEdges
350
A7AA
  3
Gouraud
350
A7AB
  3
GouraudWithEdges
350
A7AC
  3
Hidden
350
A7B0
  3
JitterOff
350
A7BE
  3
Linepattern
350
A7B6
  3
OverhangOff
350
A7BF
  3
Realistic
350
A7B2
  3
Shaded
350
A7BD
  3
Shaded with edges
350
A7BC
  3
Shades of Gray
350
A7B9
  3
Sketchy
350
A7BA
  3
Thicken
350
A7B5
  3
Wireframe
350
A7AF
  3
X-Ray
350
A7BB
  0
XRECORD
  5
A7FD
102
{ACAD_REACTORS
330
A599
102
}
330
A599
100
AcDbXrecord
280
     1
 90
        1
330
A7C3
  0
DICTIONARY
  5
A7F0
102
{ACAD_REACTORS
330
A599
102
}
330
A599
100
AcDbDictionary
281
     1
  3
CANNOSCALE
350
A7F5
  3
CMLEADERSTYLE
350
A7F2
  3
CTABLESTYLE
350
A7F1
  3
CVIEWDETAILSTYLE
350
A7F3
  3
CVIEWSECTIONSTYLE
350
A7F4
  3
DIMASSOC
350
A7F8
  3
INDEXCTL
350
A7F7
  3
SORTENTS
350
A7F6
  3
XCLIPFRAME
350
A7F9
  0
XRECORD
  5
A7FE
102
{ACAD_REACTORS
330
A599
102
}
330
A599
100
AcDbXrecord
280
     1
  1
DWGPROPS COOKIE
  2

  3

  4

  6

  7

  8
Yoshitsune
  9

300
=
301
=
302
=
303
=
304
=
305
=
306
=
307
=
308
=
309
=
 40
0.0000142476851852
 41
2450737.704336111
 42
2457192.640425984
  1

 90
        0
  0
XRECORD
  5
A7E1
102
{ACAD_REACTORS
330
A7E0
102
}
330
A7E0
100
AcDbXrecord
280
     1
290
     1
  0
XRECORD
  5
A7E3
102
{ACAD_REACTORS
330
A7E2
102
}
330
A7E2
100
AcDbXrecord
280
     1
290
     1
  0
XRECORD
  5
A7E5
102
{ACAD_REACTORS
330
A7E4
102
}
330
A7E4
100
AcDbXrecord
280
     1
290
     1
  0
XRECORD
  5
A7E7
102
{ACAD_REACTORS
330
A7E6
102
}
330
A7E6
100
AcDbXrecord
280
     1
290
     1
  0
XRECORD
  5
A7E9
102
{ACAD_REACTORS
330
A7E8
102
}
330
A7E8
100
AcDbXrecord
280
     1
290
     1
  0
XRECORD
  5
A7EB
102
{ACAD_REACTORS
330
A7EA
102
}
330
A7EA
100
AcDbXrecord
280
     1
290
     1
  0
XRECORD
  5
A7ED
102
{ACAD_REACTORS
330
A7EC
102
}
330
A7EC
100
AcDbXrecord
280
     1
290
     1
  0
XRECORD
  5
A7EF
102
{ACAD_REACTORS
330
A7EE
102
}
330
A7EE
100
AcDbXrecord
280
     1
290
     1
  0
XRECORD
  5
A789
102
{ACAD_REACTORS
330
A788
102
}
330
A788
100
AcDbXrecord
280
     1
340
A5AB
  0
XRECORD
  5
A787
102
{ACAD_REACTORS
330
A786
102
}
330
A786
100
AcDbXrecord
280
     1
340
A5A7
  0
ACDBDETAILVIEWSTYLE
  5
A7DB
102
{ACAD_XDICTIONARY
360
A836
102
}
102
{ACAD_REACTORS
330
A7DA
102
}
330
A7DA
100
AcDbModelDocViewStyle
 70
     0
  3
Imperial24
290
     0
100
AcDbDetailViewStyle
 70
     0
 71
     0
 90
        3
 71
     1
340
A59E
 40
0.24
340
0
 40
0.24
300

 40
0.36
280
     3
 71
     2
340
A5A2
 90
       25
 71
     3
340
A59E
 40
0.24
 90
        1
 40
0.75
 90
        1
300
%<\AcVar ViewType \f "%tc1">% %<\AcVar ViewDetailId>%\PSCALE %<\AcVar ViewScale \f "%sn">%
 71
     4
340
A5A2
 90
       25
340
A5A2
 90
       25
280
     0
  0
LAYOUT
  5
A7DC
102
{ACAD_XDICTIONARY
360
A838
102
}
102
{ACAD_REACTORS
330
A5A6
102
}
330
A5A6
100
AcDbPlotSettings
  1

  2
Canon LBP9100C
  4

  6

 40
0.0
 41
0.0
 42
0.0
 43
0.0
 44
0.0
 45
0.0
 46
0.0
 47
0.0
 48
0.0
 49
0.0
140
0.0
141
0.0
142
1.0
143
1.0
 70
  1712
 72
     0
 73
     0
 74
     0
  7

 75
     0
147
1.0
148
0.0
149
0.0
100
AcDbLayout
  1
Model
 70
     1
 71
     0
 10
0.0
 20
0.0
 11
12.0
 21
9.0
 12
0.0
 22
0.0
 32
0.0
 14
0.0
 24
0.0
 34
0.0
 15
0.0
 25
0.0
 35
0.0
146
0.0
 13
0.0
 23
0.0
 33
0.0
 16
1.0
 26
0.0
 36
0.0
 17
0.0
 27
1.0
 37
0.0
 76
     0
330
A5AB
331
A785
  0
LAYOUT
  5
A7DD
102
{ACAD_XDICTIONARY
360
A83A
102
}
102
{ACAD_REACTORS
330
A5A6
102
}
330
A5A6
100
AcDbPlotSettings
  1

  2
Canon LBP9100C
  4

  6

 40
0.0
 41
0.0
 42
0.0
 43
0.0
 44
0.0
 45
0.0
 46
0.0
 47
0.0
 48
0.0
 49
0.0
140
0.0
141
0.0
142
1.0
143
1.0
 70
   688
 72
     0
 73
     0
 74
     5
  7

 75
    16
147
1.0
148
0.0
149
0.0
100
AcDbLayout
  1
レイアウト1
 70
     0
 71
     1
 10
0.0
 20
0.0
 11
420.0
 21
297.0
 12
0.0
 22
0.0
 32
0.0
 14
1.000000000000000E+20
 24
1.000000000000000E+20
 34
1.000000000000000E+20
 15
-1.000000000000000E+20
 25
-1.000000000000000E+20
 35
-1.000000000000000E+20
146
0.0
 13
0.0
 23
0.0
 33
0.0
 16
1.0
 26
0.0
 36
0.0
 17
0.0
 27
1.0
 37
0.0
 76
     0
330
A5A7
  0
MATERIAL
  5
A798
102
{ACAD_XDICTIONARY
360
A799
102
}
102
{ACAD_REACTORS
330
A78F
102
}
330
A78F
100
AcDbMaterial
  1
ByBlock
 72
     0
 43
0.0208333333333333
 43
0.0
 43
0.0
 43
0.0
 43
0.0
 43
0.0208333333333333
 43
0.0
 43
0.0
 43
0.0
 43
0.0
 43
1.0
 43
0.0
 43
0.0
 43
0.0
 43
0.0
 43
1.0
 77
     0
 47
0.0208333333333333
 47
0.0
 47
0.0
 47
0.0
 47
0.0
 47
0.0208333333333333
 47
0.0
 47
0.0
 47
0.0
 47
0.0
 47
1.0
 47
0.0
 47
0.0
 47
0.0
 47
0.0
 47
1.0
171
     0
 49
0.0208333333333333
 49
0.0
 49
0.0
 49
0.0
 49
0.0
 49
0.0208333333333333
 49
0.0
 49
0.0
 49
0.0
 49
0.0
 49
1.0
 49
0.0
 49
0.0
 49
0.0
 49
0.0
 49
1.0
175
     0
142
0.0208333333333333
142
0.0
142
0.0
142
0.0
142
0.0
142
0.0208333333333333
142
0.0
142
0.0
142
0.0
142
0.0
142
1.0
142
0.0
142
0.0
142
0.0
142
0.0
142
1.0
179
     0
144
0.0208333333333333
144
0.0
144
0.0
144
0.0
144
0.0
144
0.0208333333333333
144
0.0
144
0.0
144
0.0
144
0.0
144
1.0
144
0.0
144
0.0
144
0.0
144
0.0
144
1.0
147
0.0208333333333333
147
0.0
147
0.0
147
0.0
147
0.0
147
0.0208333333333333
147
0.0
147
0.0
147
0.0
147
0.0
147
1.0
147
0.0
147
0.0
147
0.0
147
0.0
147
1.0
  0
MATERIAL
  5
A790
102
{ACAD_XDICTIONARY
360
A791
102
}
102
{ACAD_REACTORS
330
A78F
102
}
330
A78F
100
AcDbMaterial
  1
ByLayer
 72
     0
 43
0.0208333333333333
 43
0.0
 43
0.0
 43
0.0
 43
0.0
 43
0.0208333333333333
 43
0.0
 43
0.0
 43
0.0
 43
0.0
 43
1.0
 43
0.0
 43
0.0
 43
0.0
 43
0.0
 43
1.0
 77
     0
 47
0.0208333333333333
 47
0.0
 47
0.0
 47
0.0
 47
0.0
 47
0.0208333333333333
 47
0.0
 47
0.0
 47
0.0
 47
0.0
 47
1.0
 47
0.0
 47
0.0
 47
0.0
 47
0.0
 47
1.0
171
     0
 49
0.0208333333333333
 49
0.0
 49
0.0
 49
0.0
 49
0.0
 49
0.0208333333333333
 49
0.0
 49
0.0
 49
0.0
 49
0.0
 49
1.0
 49
0.0
 49
0.0
 49
0.0
 49
0.0
 49
1.0
175
     0
142
0.0208333333333333
142
0.0
142
0.0
142
0.0
142
0.0
142
0.0208333333333333
142
0.0
142
0.0
142
0.0
142
0.0
142
1.0
142
0.0
142
0.0
142
0.0
142
0.0
142
1.0
179
     0
144
0.0208333333333333
144
0.0
144
0.0
144
0.0
144
0.0
144
0.0208333333333333
144
0.0
144
0.0
144
0.0
144
0.0
144
1.0
144
0.0
144
0.0
144
0.0
144
0.0
144
1.0
147
0.0208333333333333
147
0.0
147
0.0
147
0.0
147
0.0
147
0.0208333333333333
147
0.0
147
0.0
147
0.0
147
0.0
147
1.0
147
0.0
147
0.0
147
0.0
147
0.0
147
1.0
  0
MATERIAL
  5
A7A0
102
{ACAD_XDICTIONARY
360
A7A1
102
}
102
{ACAD_REACTORS
330
A78F
102
}
330
A78F
100
AcDbMaterial
  1
Global
 72
     0
 43
0.0208333333333333
 43
0.0
 43
0.0
 43
0.0
 43
0.0
 43
0.0208333333333333
 43
0.0
 43
0.0
 43
0.0
 43
0.0
 43
1.0
 43
0.0
 43
0.0
 43
0.0
 43
0.0
 43
1.0
 77
     0
 47
0.0208333333333333
 47
0.0
 47
0.0
 47
0.0
 47
0.0
 47
0.0208333333333333
 47
0.0
 47
0.0
 47
0.0
 47
0.0
 47
1.0
 47
0.0
 47
0.0
 47
0.0
 47
0.0
 47
1.0
171
     0
 49
0.0208333333333333
 49
0.0
 49
0.0
 49
0.0
 49
0.0
 49
0.0208333333333333
 49
0.0
 49
0.0
 49
0.0
 49
0.0
 49
1.0
 49
0.0
 49
0.0
 49
0.0
 49
0.0
 49
1.0
175
     0
142
0.0208333333333333
142
0.0
142
0.0
142
0.0
142
0.0
142
0.0208333333333333
142
0.0
142
0.0
142
0.0
142
0.0
142
1.0
142
0.0
142
0.0
142
0.0
142
0.0
142
1.0
179
     0
144
0.0208333333333333
144
0.0
144
0.0
144
0.0
144
0.0
144
0.0208333333333333
144
0.0
144
0.0
144
0.0
144
0.0
144
1.0
144
0.0
144
0.0
144
0.0
144
0.0
144
1.0
147
0.0208333333333333
147
0.0
147
0.0
147
0.0
147
0.0
147
0.0208333333333333
147
0.0
147
0.0
147
0.0
147
0.0
147
1.0
147
0.0
147
0.0
147
0.0
147
0.0
147
1.0
  0
MLEADERSTYLE
  5
A7D7
102
{ACAD_REACTORS
330
A7D6
102
}
330
A7D6
100
AcDbMLeaderStyle
170
     2
171
     1
172
     0
 90
        2
 40
0.0
 41
0.0
173
     1
 91
-1056964608
340
A5A0
 92
       -2
290
     1
 42
0.09
291
     1
 43
0.36
  3
Standard
 44
0.18
300

342
A59E
174
     1
178
     6
175
     1
176
     0
 93
-1056964608
 45
0.18
292
     0
297
     0
 46
0.18
 94
-1056964608
 47
1.0
 49
1.0
140
1.0
293
     1
141
0.0
294
     1
177
     0
142
1.0
295
     0
296
     0
143
0.125
1001
ACAD_MLEADERVER
1070
     2
  0
MLINESTYLE
  5
A5A4
102
{ACAD_REACTORS
330
A5A3
102
}
330
A5A3
100
AcDbMlineStyle
  2
STANDARD
 70
     0
  3

 62
   256
 51
90.0
 52
90.0
 71
     2
 49
0.5
 62
   256
  6
BYLAYER
 49
-0.5
 62
   256
  6
BYLAYER
  0
ACDBPLACEHOLDER
  5
A78E
102
{ACAD_REACTORS
330
A78D
102
}
330
A78D
  0
SCALE
  5
A7C5
102
{ACAD_REACTORS
330
A7C4
102
}
330
A7C4
100
AcDbScale
 70
     0
300
1:1
140
1.0
141
1.0
290
     1
  0
SCALE
  5
A7C6
102
{ACAD_REACTORS
330
A7C4
102
}
330
A7C4
100
AcDbScale
 70
     0
300
1/128" = 1'-0"
140
0.0078125
141
12.0
290
     0
  0
SCALE
  5
A7C7
102
{ACAD_REACTORS
330
A7C4
102
}
330
A7C4
100
AcDbScale
 70
     0
300
1/64" = 1'-0"
140
0.015625
141
12.0
290
     0
  0
SCALE
  5
A7C8
102
{ACAD_REACTORS
330
A7C4
102
}
330
A7C4
100
AcDbScale
 70
     0
300
1/32" = 1'-0"
140
0.03125
141
12.0
290
     0
  0
SCALE
  5
A7C9
102
{ACAD_REACTORS
330
A7C4
102
}
330
A7C4
100
AcDbScale
 70
     0
300
1/16" = 1'-0"
140
0.0625
141
12.0
290
     0
  0
SCALE
  5
A7CA
102
{ACAD_REACTORS
330
A7C4
102
}
330
A7C4
100
AcDbScale
 70
     0
300
3/32" = 1'-0"
140
0.09375
141
12.0
290
     0
  0
SCALE
  5
A7CB
102
{ACAD_REACTORS
330
A7C4
102
}
330
A7C4
100
AcDbScale
 70
     0
300
1/8" = 1'-0"
140
0.125
141
12.0
290
     0
  0
SCALE
  5
A7CC
102
{ACAD_REACTORS
330
A7C4
102
}
330
A7C4
100
AcDbScale
 70
     0
300
3/16" = 1'-0"
140
0.1875
141
12.0
290
     0
  0
SCALE
  5
A7CD
102
{ACAD_REACTORS
330
A7C4
102
}
330
A7C4
100
AcDbScale
 70
     0
300
1/4" = 1'-0"
140
0.25
141
12.0
290
     0
  0
SCALE
  5
A7CE
102
{ACAD_REACTORS
330
A7C4
102
}
330
A7C4
100
AcDbScale
 70
     0
300
3/8" = 1'-0"
140
0.375
141
12.0
290
     0
  0
SCALE
  5
A7CF
102
{ACAD_REACTORS
330
A7C4
102
}
330
A7C4
100
AcDbScale
 70
     0
300
1/2" = 1'-0"
140
0.5
141
12.0
290
     0
  0
SCALE
  5
A7D0
102
{ACAD_REACTORS
330
A7C4
102
}
330
A7C4
100
AcDbScale
 70
     0
300
3/4" = 1'-0"
140
0.75
141
12.0
290
     0
  0
SCALE
  5
A7D1
102
{ACAD_REACTORS
330
A7C4
102
}
330
A7C4
100
AcDbScale
 70
     0
300
1" = 1'-0"
140
1.0
141
12.0
290
     0
  0
SCALE
  5
A7D2
102
{ACAD_REACTORS
330
A7C4
102
}
330
A7C4
100
AcDbScale
 70
     0
300
1-1/2" = 1'-0"
140
1.5
141
12.0
290
     0
  0
SCALE
  5
A7D3
102
{ACAD_REACTORS
330
A7C4
102
}
330
A7C4
100
AcDbScale
 70
     0
300
3" = 1'-0"
140
3.0
141
12.0
290
     0
  0
SCALE
  5
A7D4
102
{ACAD_REACTORS
330
A7C4
102
}
330
A7C4
100
AcDbScale
 70
     0
300
6" = 1'-0"
140
6.0
141
12.0
290
     0
  0
SCALE
  5
A7D5
102
{ACAD_REACTORS
330
A7C4
102
}
330
A7C4
100
AcDbScale
 70
     0
300
1'-0" = 1'-0"
140
12.0
141
12.0
290
     0
  0
ACDBSECTIONVIEWSTYLE
  5
A7D9
102
{ACAD_XDICTIONARY
360
A834
102
}
102
{ACAD_REACTORS
330
A7D8
102
}
330
A7D8
100
AcDbModelDocViewStyle
 70
     0
  3
Imperial24
290
     0
100
AcDbSectionViewStyle
 70
     0
 71
     0
 90
       78
 71
     1
340
A59E
 40
0.24
340
0
340
0
 40
0.24
300
I, O, Q, S, X, Z
 40
0.48
 90
        3
 40
0.18
 90
        1
 71
     2
340
A5A2
 90
       25
340
A5A2
 90
       50
 40
0.24
 40
0.0
 40
0.24
 71
     3
340
A59E
 40
0.24
 90
        1
 40
0.75
 90
        1
300
%<\AcVar ViewType \f "%tc1">% %<\AcVar ViewSectionStartId>%-%<\AcVar ViewSectionEndId>%\PSCALE %<\AcVar ViewScale \f "%sn">%
 71
     4
300
ANSI31
 40
1.0
 90
        0
290
     0
290
     0
 90
        6
 40
0.0
 40
1.570796326794896
 40
0.2617993877991494
 40
1.308996938995747
 40
-0.2617993877991494
 40
1.832595714594046
  0
TABLESTYLE
  5
A7C3
102
{ACAD_XDICTIONARY
360
A7FB
102
}
102
{ACAD_REACTORS
330
A7C2
102
}
330
A7C2
100
AcDbTableStyle
  3
Standard
 70
     0
 71
     0
 40
0.06
 41
0.06
280
     0
281
     0
  7
STANDARD
140
0.18
170
     2
 62
     0
 63
     7
283
     0
274
    -2
284
     1
 64
     0
275
    -2
285
     1
 65
     0
276
    -2
286
     1
 66
     0
277
    -2
287
     1
 67
     0
278
    -2
288
     1
 68
     0
279
    -2
289
     1
 69
     0
  7
STANDARD
140
0.25
170
     5
 62
     0
 63
     7
283
     0
274
    -2
284
     1
 64
     0
275
    -2
285
     1
 65
     0
276
    -2
286
     1
 66
     0
277
    -2
287
     1
 67
     0
278
    -2
288
     1
 68
     0
279
    -2
289
     1
 69
     0
  7
STANDARD
140
0.18
170
     5
 62
     0
 63
     7
283
     0
274
    -2
284
     1
 64
     0
275
    -2
285
     1
 65
     0
276
    -2
286
     1
 66
     0
277
    -2
287
     1
 67
     0
278
    -2
288
     1
 68
     0
279
    -2
289
     1
 69
     0
  0
VISUALSTYLE
  5
A7AE
102
{ACAD_XDICTIONARY
360
A80C
102
}
102
{ACAD_REACTORS
330
A7A8
102
}
330
A7A8
100
AcDbVisualStyle
  2
2dWireframe
 70
     4
 71
     0
 72
     2
 73
     0
 90
        0
 40
-0.6
 41
-30.0
 62
     5
 63
     7
 74
     1
 91
        4
 64
     7
 65
   257
 75
     1
175
     1
 42
1.0
 92
        0
 66
   257
 43
1.0
 76
     1
 77
     6
 78
     2
 67
     7
 79
     5
170
     0
171
     0
290
     0
174
     0
 93
        1
 44
0.0
173
     0
291
     0
 45
0.0
1001
ACAD
1000
AcDbSavedByObjectVersion
1070
     0
  0
VISUALSTYLE
  5
A7AD
102
{ACAD_XDICTIONARY
360
A80A
102
}
102
{ACAD_REACTORS
330
A7A8
102
}
330
A7A8
100
AcDbVisualStyle
  2
Basic
 70
     7
 71
     1
 72
     0
 73
     1
 90
        0
 40
-0.6
 41
-30.0
 62
     5
 63
     7
 74
     0
 91
        4
 64
     7
 65
   257
 75
     1
175
     1
 42
1.0
 92
        8
 66
     7
 43
1.0
 76
     1
 77
     6
 78
     2
 67
     7
 79
     5
170
     0
171
     0
290
     0
174
     0
 93
        1
 44
0.0
173
     0
291
     1
 45
0.0
1001
ACAD
1000
AcDbSavedByObjectVersion
1070
     0
  0
VISUALSTYLE
  5
A7B4
102
{ACAD_XDICTIONARY
360
A818
102
}
102
{ACAD_REACTORS
330
A7A8
102
}
330
A7A8
100
AcDbVisualStyle
  2
Brighten
 70
    12
 71
     2
 72
     2
 73
     0
 90
        0
 40
-0.6
 41
-30.0
 62
     5
 63
     7
 74
     1
 91
        4
 64
     7
 65
   257
 75
     1
175
     1
 42
1.0
 92
        8
 66
     7
 43
1.0
 76
     1
 77
     6
 78
     2
 67
     7
 79
     5
170
     0
171
     0
290
     0
174
     0
 93
        1
 44
50.0
173
     0
291
     1
 45
0.0
1001
ACAD
1000
AcDbSavedByObjectVersion
1070
     0
  0
VISUALSTYLE
  5
A7B8
102
{ACAD_XDICTIONARY
360
A820
102
}
102
{ACAD_REACTORS
330
A7A8
102
}
330
A7A8
100
AcDbVisualStyle
  2
ColorChange
 70
    16
 71
     2
 72
     2
 73
     3
 90
        0
 40
-0.6
 41
-30.0
 62
     5
 63
     8
 74
     1
 91
        4
 64
     7
 65
   257
 75
     1
175
     1
 42
1.0
 92
        8
 66
     8
 43
1.0
 76
     1
 77
     6
 78
     2
 67
     7
 79
     5
170
     0
171
     0
290
     0
174
     0
 93
        1
 44
0.0
173
     0
291
     1
 45
0.0
1001
ACAD
1000
AcDbSavedByObjectVersion
1070
     0
  0
VISUALSTYLE
  5
A7B1
102
{ACAD_XDICTIONARY
360
A812
102
}
102
{ACAD_REACTORS
330
A7A8
102
}
330
A7A8
100
AcDbVisualStyle
  2
Conceptual
 70
     9
 71
     3
 72
     2
 73
     0
 90
        0
 40
-0.6
 41
-30.0
 62
     5
 63
     7
 74
     2
 91
        2
 64
     7
 65
   257
 75
     1
175
     1
 42
179.0
 92
        8
 66
     7
 43
1.0
 76
     1
 77
     6
 78
     2
 67
     7
 79
     3
170
     0
171
     0
290
     0
174
     0
 93
        1
 44
0.0
173
     0
291
     0
 45
0.0
1001
ACAD
1000
AcDbSavedByObjectVersion
1070
     0
  0
VISUALSTYLE
  5
A7B3
102
{ACAD_XDICTIONARY
360
A816
102
}
102
{ACAD_REACTORS
330
A7A8
102
}
330
A7A8
100
AcDbVisualStyle
  2
Dim
 70
    11
 71
     2
 72
     2
 73
     0
 90
        0
 40
-0.6
 41
-30.0
 62
     5
 63
     7
 74
     1
 91
        4
 64
     7
 65
   257
 75
     1
175
     1
 42
1.0
 92
        8
 66
     7
 43
1.0
 76
     1
 77
     6
 78
     2
 67
     7
 79
     5
170
     0
171
     0
290
     0
174
     0
 93
        1
 44
-50.0
173
     0
291
     1
 45
0.0
1001
ACAD
1000
AcDbSavedByObjectVersion
1070
     0
  0
VISUALSTYLE
  5
A7C0
102
{ACAD_XDICTIONARY
360
A830
102
}
102
{ACAD_REACTORS
330
A7A8
102
}
330
A7A8
100
AcDbVisualStyle
  2
EdgeColorOff
 70
    22
 71
     2
 72
     2
 73
     0
 90
        0
 40
-0.6
 41
-30.0
 62
     5
 63
     7
 74
     1
 91
        4
 64
     7
 65
   257
 75
     1
175
     1
 42
1.0
 92
        8
 66
     7
 43
1.0
 76
     1
 77
     6
 78
     2
 67
     7
 79
     5
170
     0
171
     0
290
     0
174
     0
 93
        1
 44
0.0
173
     0
291
     1
 45
0.0
1001
ACAD
1000
AcDbSavedByObjectVersion
1070
     0
  0
VISUALSTYLE
  5
A7B7
102
{ACAD_XDICTIONARY
360
A81E
102
}
102
{ACAD_REACTORS
330
A7A8
102
}
330
A7A8
100
AcDbVisualStyle
  2
Facepattern
 70
    15
 71
     2
 72
     2
 73
     0
 90
        0
 40
-0.6
 41
-30.0
 62
     5
 63
     7
 74
     1
 91
        4
 64
     7
 65
   257
 75
     1
175
     1
 42
1.0
 92
        8
 66
     7
 43
1.0
 76
     1
 77
     6
 78
     2
 67
     7
 79
     5
170
     0
171
     0
290
     0
174
     0
 93
        1
 44
0.0
173
     0
291
     1
 45
0.0
1001
ACAD
1000
AcDbSavedByObjectVersion
1070
     0
  0
VISUALSTYLE
  5
A7A9
102
{ACAD_XDICTIONARY
360
A802
102
}
102
{ACAD_REACTORS
330
A7A8
102
}
330
A7A8
100
AcDbVisualStyle
  2
Flat
 70
     0
 71
     2
 72
     1
 73
     1
 90
        2
 40
-0.6
 41
30.0
 62
     5
 63
     7
 74
     0
 91
        0
 64
     7
 65
   257
 75
     1
175
     1
 42
1.0
 92
        8
 66
     7
 43
1.0
 76
     1
 77
     6
 78
     2
 67
     7
 79
     5
170
     0
171
     0
290
     0
174
     0
 93
       13
 44
0.0
173
     0
291
     1
 45
0.0
1001
ACAD
1000
AcDbSavedByObjectVersion
1070
     0
  0
VISUALSTYLE
  5
A7AA
102
{ACAD_XDICTIONARY
360
A804
102
}
102
{ACAD_REACTORS
330
A7A8
102
}
330
A7A8
100
AcDbVisualStyle
  2
FlatWithEdges
 70
     1
 71
     2
 72
     1
 73
     1
 90
        2
 40
-0.6
 41
30.0
 62
     5
 63
     7
 74
     1
 91
        0
 64
     7
 65
   257
 75
     1
175
     1
 42
1.0
 92
        0
 66
   257
 43
1.0
 76
     1
 77
     6
 78
     2
 67
     7
 79
     5
170
     0
171
     0
290
     0
174
     0
 93
       13
 44
0.0
173
     0
291
     1
 45
0.0
1001
ACAD
1000
AcDbSavedByObjectVersion
1070
     0
  0
VISUALSTYLE
  5
A7AB
102
{ACAD_XDICTIONARY
360
A806
102
}
102
{ACAD_REACTORS
330
A7A8
102
}
330
A7A8
100
AcDbVisualStyle
  2
Gouraud
 70
     2
 71
     2
 72
     2
 73
     1
 90
        2
 40
-0.6
 41
30.0
 62
     5
 63
     7
 74
     0
 91
        0
 64
     7
 65
   257
 75
     1
175
     1
 42
1.0
 92
        0
 66
     7
 43
1.0
 76
     1
 77
     6
 78
     2
 67
     7
 79
     5
170
     0
171
     0
290
     0
174
     0
 93
       13
 44
0.0
173
     0
291
     1
 45
0.0
1001
ACAD
1000
AcDbSavedByObjectVersion
1070
     0
  0
VISUALSTYLE
  5
A7AC
102
{ACAD_XDICTIONARY
360
A808
102
}
102
{ACAD_REACTORS
330
A7A8
102
}
330
A7A8
100
AcDbVisualStyle
  2
GouraudWithEdges
 70
     3
 71
     2
 72
     2
 73
     1
 90
        2
 40
-0.6
 41
30.0
 62
     5
 63
     7
 74
     1
 91
        0
 64
     7
 65
   257
 75
     1
175
     1
 42
1.0
 92
        0
 66
   257
 43
1.0
 76
     1
 77
     6
 78
     2
 67
     7
 79
     5
170
     0
171
     0
290
     0
174
     0
 93
       13
 44
0.0
173
     0
291
     1
 45
0.0
1001
ACAD
1000
AcDbSavedByObjectVersion
1070
     0
  0
VISUALSTYLE
  5
A7B0
102
{ACAD_XDICTIONARY
360
A810
102
}
102
{ACAD_REACTORS
330
A7A8
102
}
330
A7A8
100
AcDbVisualStyle
  2
Hidden
 70
     6
 71
     1
 72
     2
 73
     2
 90
        0
 40
-0.6
 41
-30.0
 62
     5
 63
     7
 74
     2
 91
        2
 64
     7
 65
   257
 75
     2
175
     1
 42
40.0
 92
        0
 66
   257
 43
1.0
 76
     1
 77
     6
 78
     2
 67
     7
 79
     3
170
     0
171
     0
290
     0
174
     0
 93
        1
 44
0.0
173
     0
291
     0
 45
0.0
1001
ACAD
1000
AcDbSavedByObjectVersion
1070
     0
  0
VISUALSTYLE
  5
A7BE
102
{ACAD_XDICTIONARY
360
A82C
102
}
102
{ACAD_REACTORS
330
A7A8
102
}
330
A7A8
100
AcDbVisualStyle
  2
JitterOff
 70
    20
 71
     2
 72
     2
 73
     0
 90
        0
 40
-0.6
 41
-30.0
 62
     5
 63
     7
 74
     1
 91
        4
 64
     7
 65
   257
 75
     1
175
     1
 42
1.0
 92
       10
 66
     7
 43
1.0
 76
     1
 77
     6
 78
     2
 67
     7
 79
     5
170
     0
171
     0
290
     0
174
     0
 93
        1
 44
0.0
173
     0
291
     1
 45
0.0
1001
ACAD
1000
AcDbSavedByObjectVersion
1070
     0
  0
VISUALSTYLE
  5
A7B6
102
{ACAD_XDICTIONARY
360
A81C
102
}
102
{ACAD_REACTORS
330
A7A8
102
}
330
A7A8
100
AcDbVisualStyle
  2
Linepattern
 70
    14
 71
     2
 72
     2
 73
     0
 90
        0
 40
-0.6
 41
-30.0
 62
     5
 63
     7
 74
     1
 91
        4
 64
     7
 65
   257
 75
     7
175
     7
 42
1.0
 92
        8
 66
     7
 43
1.0
 76
     1
 77
     6
 78
     2
 67
     7
 79
     5
170
     0
171
     0
290
     0
174
     0
 93
        1
 44
0.0
173
     0
291
     1
 45
0.0
1001
ACAD
1000
AcDbSavedByObjectVersion
1070
     0
  0
VISUALSTYLE
  5
A7BF
102
{ACAD_XDICTIONARY
360
A82E
102
}
102
{ACAD_REACTORS
330
A7A8
102
}
330
A7A8
100
AcDbVisualStyle
  2
OverhangOff
 70
    21
 71
     2
 72
     2
 73
     0
 90
        0
 40
-0.6
 41
-30.0
 62
     5
 63
     7
 74
     1
 91
        4
 64
     7
 65
   257
 75
     1
175
     1
 42
1.0
 92
        9
 66
     7
 43
1.0
 76
     1
 77
     6
 78
     2
 67
     7
 79
     5
170
     0
171
     0
290
     0
174
     0
 93
        1
 44
0.0
173
     0
291
     1
 45
0.0
1001
ACAD
1000
AcDbSavedByObjectVersion
1070
     0
  0
VISUALSTYLE
  5
A7B2
102
{ACAD_XDICTIONARY
360
A814
102
}
102
{ACAD_REACTORS
330
A7A8
102
}
330
A7A8
100
AcDbVisualStyle
  2
Realistic
 70
     8
 71
     2
 72
     3
 73
     0
 90
        2
 40
-0.6
 41
30.0
 62
     5
 63
     7
 74
     0
 91
        0
 64
     7
 65
   257
 75
     1
175
     1
 42
1.0
 92
        8
 66
   257
 43
1.0
 76
     1
 77
     6
 78
     2
 67
     7
 79
     3
170
     0
171
     0
290
     0
174
     0
 93
       13
 44
0.0
173
     0
291
     0
 45
0.0
1001
ACAD
1000
AcDbSavedByObjectVersion
1070
     0
  0
VISUALSTYLE
  5
A7BD
102
{ACAD_XDICTIONARY
360
A82A
102
}
102
{ACAD_REACTORS
330
A7A8
102
}
330
A7A8
100
AcDbVisualStyle
  2
Shaded
 70
    27
 71
     2
 72
     2
 73
     1
 90
        2
 40
-0.6
 41
30.0
 62
     5
 63
     7
 74
     0
 91
        4
 64
     7
 65
   257
 75
     1
175
     1
 42
1.0
 92
        8
 66
   257
 43
1.0
 76
     1
 77
     6
 78
     2
 67
     8
 79
     3
170
     0
171
     0
290
     0
174
     0
 93
        5
 44
0.0
173
     0
291
     0
 45
0.0
1001
ACAD
1000
AcDbSavedByObjectVersion
1070
     0
  0
VISUALSTYLE
  5
A7BC
102
{ACAD_XDICTIONARY
360
A828
102
}
102
{ACAD_REACTORS
330
A7A8
102
}
330
A7A8
100
AcDbVisualStyle
  2
Shaded with edges
 70
    26
 71
     2
 72
     2
 73
     1
 90
        2
 40
-0.6
 41
30.0
 62
     5
 63
     7
 74
     1
 91
       10
 64
     7
 65
   257
 75
     2
175
     1
 42
1.0
 92
        8
 66
   257
 43
1.0
 76
     1
 77
     6
 78
     2
 67
     7
 79
     3
170
     0
171
     0
290
     0
174
     0
 93
        5
 44
0.0
173
     0
291
     0
 45
0.0
1001
ACAD
1000
AcDbSavedByObjectVersion
1070
     0
  0
VISUALSTYLE
  5
A7B9
102
{ACAD_XDICTIONARY
360
A822
102
}
102
{ACAD_REACTORS
330
A7A8
102
}
330
A7A8
100
AcDbVisualStyle
  2
Shades of Gray
 70
    23
 71
     2
 72
     2
 73
     3
 90
        0
 40
-0.6
 41
-30.0
 62
     5
 63
     7
 74
     2
 91
        2
 64
     7
 65
     7
 75
     1
175
     1
 42
40.0
 92
        8
 66
     7
 43
1.0
 76
     1
 77
     6
 78
     2
 67
     7
 79
     3
170
     0
171
     0
290
     0
174
     0
 93
        1
 44
0.0
173
     0
291
     0
 45
0.0
1001
ACAD
1000
AcDbSavedByObjectVersion
1070
     0
  0
VISUALSTYLE
  5
A7BA
102
{ACAD_XDICTIONARY
360
A824
102
}
102
{ACAD_REACTORS
330
A7A8
102
}
330
A7A8
100
AcDbVisualStyle
  2
Sketchy
 70
    24
 71
     1
 72
     2
 73
     2
 90
        0
 40
-0.6
 41
-30.0
 62
     5
 63
     7
 74
     2
 91
        2
 64
     7
 65
     7
 75
     1
175
     1
 42
40.0
 92
       11
 66
     7
 43
1.0
 76
     1
 77
     6
 78
     2
 67
     7
 79
     6
170
     0
171
     0
290
     0
174
     0
 93
        1
 44
0.0
173
     0
291
     0
 45
0.0
1001
ACAD
1000
AcDbSavedByObjectVersion
1070
     0
  0
VISUALSTYLE
  5
A7B5
102
{ACAD_XDICTIONARY
360
A81A
102
}
102
{ACAD_REACTORS
330
A7A8
102
}
330
A7A8
100
AcDbVisualStyle
  2
Thicken
 70
    13
 71
     2
 72
     2
 73
     0
 90
        0
 40
-0.6
 41
-30.0
 62
     5
 63
     7
 74
     1
 91
        4
 64
     7
 65
   257
 75
     1
175
     1
 42
1.0
 92
       12
 66
     7
 43
1.0
 76
     1
 77
     6
 78
     2
 67
     7
 79
     5
170
     0
171
     0
290
     0
174
     0
 93
        1
 44
0.0
173
     0
291
     1
 45
0.0
1001
ACAD
1000
AcDbSavedByObjectVersion
1070
     0
  0
VISUALSTYLE
  5
A7AF
102
{ACAD_XDICTIONARY
360
A80E
102
}
102
{ACAD_REACTORS
330
A7A8
102
}
330
A7A8
100
AcDbVisualStyle
  2
Wireframe
 70
     5
 71
     0
 72
     2
 73
     0
 90
        0
 40
-0.6
 41
-30.0
 62
     5
 63
     7
 74
     1
 91
        4
 64
     7
 65
   257
 75
     1
175
     1
 42
1.0
 92
        0
 66
   257
 43
1.0
 76
     1
 77
     6
 78
     2
 67
     7
 79
     3
170
     0
171
     0
290
     0
174
     0
 93
        1
 44
0.0
173
     0
291
     0
 45
0.0
1001
ACAD
1000
AcDbSavedByObjectVersion
1070
     0
  0
VISUALSTYLE
  5
A7BB
102
{ACAD_XDICTIONARY
360
A826
102
}
102
{ACAD_REACTORS
330
A7A8
102
}
330
A7A8
100
AcDbVisualStyle
  2
X-Ray
 70
    25
 71
     2
 72
     2
 73
     1
 90
        1
 40
0.5
 41
-30.0
 62
     5
 63
     7
 74
     1
 91
        0
 64
     7
 65
   257
 75
     1
175
     1
 42
1.0
 92
        8
 66
     7
 43
1.0
 76
     1
 77
     6
 78
     2
 67
     7
 79
     3
170
     0
171
     0
290
     0
174
     0
 93
       13
 44
0.0
173
     0
291
     0
 45
0.0
1001
ACAD
1000
AcDbSavedByObjectVersion
1070
     0
  0
DICTIONARYVAR
  5
A7F5
102
{ACAD_REACTORS
330
A7F0
102
}
330
A7F0
100
DictionaryVariables
280
     0
  1
1:1
  0
DICTIONARYVAR
  5
A7F2
102
{ACAD_REACTORS
330
A7F0
102
}
330
A7F0
100
DictionaryVariables
280
     0
  1
STANDARD
  0
DICTIONARYVAR
  5
A7F1
102
{ACAD_REACTORS
330
A7F0
102
}
330
A7F0
100
DictionaryVariables
280
     0
  1
STANDARD
  0
DICTIONARYVAR
  5
A7F3
102
{ACAD_REACTORS
330
A7F0
102
}
330
A7F0
100
DictionaryVariables
280
     0
  1
Imperial24
  0
DICTIONARYVAR
  5
A7F4
102
{ACAD_REACTORS
330
A7F0
102
}
330
A7F0
100
DictionaryVariables
280
     0
  1
Imperial24
  0
DICTIONARYVAR
  5
A7F8
102
{ACAD_REACTORS
330
A7F0
102
}
330
A7F0
100
DictionaryVariables
280
     0
  1
1
  0
DICTIONARYVAR
  5
A7F7
102
{ACAD_REACTORS
330
A7F0
102
}
330
A7F0
100
DictionaryVariables
280
     0
  1
0
  0
DICTIONARYVAR
  5
A7F6
102
{ACAD_REACTORS
330
A7F0
102
}
330
A7F0
100
DictionaryVariables
280
     0
  1
127
  0
DICTIONARYVAR
  5
A7F9
102
{ACAD_REACTORS
330
A7F0
102
}
330
A7F0
100
DictionaryVariables
280
     0
  1
2
  0
DICTIONARY
  5
A836
330
A7DB
100
AcDbDictionary
280
     1
281
     1
  3
ACAD_XREC_ROUNDTRIP
360
A837
  0
DICTIONARY
  5
A838
330
A7DC
100
AcDbDictionary
280
     1
281
     1
  3
ACAD_XREC_ROUNDTRIP
360
A839
  0
DICTIONARY
  5
A83A
330
A7DD
100
AcDbDictionary
280
     1
281
     1
  3
ACAD_XREC_ROUNDTRIP
360
A83B
  0
DICTIONARY
  5
A799
330
A798
100
AcDbDictionary
280
     1
281
     1
  3
ACAD_XREC_ROUNDTRIP
360
A800
  3
BUMPTILE
360
A79B
  3
DIFFUSETILE
360
A79A
  3
OPACITYTILE
360
A79E
  3
REFLECTIONTILE
360
A79D
  3
REFRACTIONTILE
360
A79F
  3
SPECULARTILE
360
A79C
  0
DICTIONARY
  5
A791
330
A790
100
AcDbDictionary
280
     1
281
     1
  3
ACAD_XREC_ROUNDTRIP
360
A7FF
  3
BUMPTILE
360
A793
  3
DIFFUSETILE
360
A792
  3
OPACITYTILE
360
A796
  3
REFLECTIONTILE
360
A795
  3
REFRACTIONTILE
360
A797
  3
SPECULARTILE
360
A794
  0
DICTIONARY
  5
A7A1
330
A7A0
100
AcDbDictionary
280
     1
281
     1
  3
ACAD_XREC_ROUNDTRIP
360
A801
  3
BUMPTILE
360
A7A3
  3
DIFFUSETILE
360
A7A2
  3
OPACITYTILE
360
A7A6
  3
REFLECTIONTILE
360
A7A5
  3
REFRACTIONTILE
360
A7A7
  3
SPECULARTILE
360
A7A4
  0
DICTIONARY
  5
A834
330
A7D9
100
AcDbDictionary
280
     1
281
     1
  3
ACAD_XREC_ROUNDTRIP
360
A835
  0
DICTIONARY
  5
A7FB
330
A7C3
100
AcDbDictionary
280
     1
281
     1
  3
ACAD_ROUNDTRIP_2008_TABLESTYLE_CELLSTYLEMAP
360
A7FC
  3
ACAD_XREC_ROUNDTRIP
360
A832
  0
DICTIONARY
  5
A80C
330
A7AE
100
AcDbDictionary
280
     1
281
     1
  3
ACAD_XREC_ROUNDTRIP
360
A80D
  0
DICTIONARY
  5
A80A
330
A7AD
100
AcDbDictionary
280
     1
281
     1
  3
ACAD_XREC_ROUNDTRIP
360
A80B
  0
DICTIONARY
  5
A818
330
A7B4
100
AcDbDictionary
280
     1
281
     1
  3
ACAD_XREC_ROUNDTRIP
360
A819
  0
DICTIONARY
  5
A820
330
A7B8
100
AcDbDictionary
280
     1
281
     1
  3
ACAD_XREC_ROUNDTRIP
360
A821
  0
DICTIONARY
  5
A812
330
A7B1
100
AcDbDictionary
280
     1
281
     1
  3
ACAD_XREC_ROUNDTRIP
360
A813
  0
DICTIONARY
  5
A816
330
A7B3
100
AcDbDictionary
280
     1
281
     1
  3
ACAD_XREC_ROUNDTRIP
360
A817
  0
DICTIONARY
  5
A830
330
A7C0
100
AcDbDictionary
280
     1
281
     1
  3
ACAD_XREC_ROUNDTRIP
360
A831
  0
DICTIONARY
  5
A81E
330
A7B7
100
AcDbDictionary
280
     1
281
     1
  3
ACAD_XREC_ROUNDTRIP
360
A81F
  0
DICTIONARY
  5
A802
330
A7A9
100
AcDbDictionary
280
     1
281
     1
  3
ACAD_XREC_ROUNDTRIP
360
A803
  0
DICTIONARY
  5
A804
330
A7AA
100
AcDbDictionary
280
     1
281
     1
  3
ACAD_XREC_ROUNDTRIP
360
A805
  0
DICTIONARY
  5
A806
330
A7AB
100
AcDbDictionary
280
     1
281
     1
  3
ACAD_XREC_ROUNDTRIP
360
A807
  0
DICTIONARY
  5
A808
330
A7AC
100
AcDbDictionary
280
     1
281
     1
  3
ACAD_XREC_ROUNDTRIP
360
A809
  0
DICTIONARY
  5
A810
330
A7B0
100
AcDbDictionary
280
     1
281
     1
  3
ACAD_XREC_ROUNDTRIP
360
A811
  0
DICTIONARY
  5
A82C
330
A7BE
100
AcDbDictionary
280
     1
281
     1
  3
ACAD_XREC_ROUNDTRIP
360
A82D
  0
DICTIONARY
  5
A81C
330
A7B6
100
AcDbDictionary
280
     1
281
     1
  3
ACAD_XREC_ROUNDTRIP
360
A81D
  0
DICTIONARY
  5
A82E
330
A7BF
100
AcDbDictionary
280
     1
281
     1
  3
ACAD_XREC_ROUNDTRIP
360
A82F
  0
DICTIONARY
  5
A814
330
A7B2
100
AcDbDictionary
280
     1
281
     1
  3
ACAD_XREC_ROUNDTRIP
360
A815
  0
DICTIONARY
  5
A82A
330
A7BD
100
AcDbDictionary
280
     1
281
     1
  3
ACAD_XREC_ROUNDTRIP
360
A82B
  0
DICTIONARY
  5
A828
330
A7BC
100
AcDbDictionary
280
     1
281
     1
  3
ACAD_XREC_ROUNDTRIP
360
A829
  0
DICTIONARY
  5
A822
330
A7B9
100
AcDbDictionary
280
     1
281
     1
  3
ACAD_XREC_ROUNDTRIP
360
A823
  0
DICTIONARY
  5
A824
330
A7BA
100
AcDbDictionary
280
     1
281
     1
  3
ACAD_XREC_ROUNDTRIP
360
A825
  0
DICTIONARY
  5
A81A
330
A7B5
100
AcDbDictionary
280
     1
281
     1
  3
ACAD_XREC_ROUNDTRIP
360
A81B
  0
DICTIONARY
  5
A80E
330
A7AF
100
AcDbDictionary
280
     1
281
     1
  3
ACAD_XREC_ROUNDTRIP
360
A80F
  0
DICTIONARY
  5
A826
330
A7BB
100
AcDbDictionary
280
     1
281
     1
  3
ACAD_XREC_ROUNDTRIP
360
A827
  0
XRECORD
  5
A837
102
{ACAD_REACTORS
330
A836
102
}
330
A836
100
AcDbXrecord
280
     1
102
DISPLAYNAME
  1
Imperial24
102
FLAGS
 90
        0
  0
XRECORD
  5
A839
102
{ACAD_REACTORS
330
A838
102
}
330
A838
100
AcDbXrecord
280
     1
102
SHADEPLOT
 70
     0
102
SHADEPLOTRESLEVEL
 70
     2
102
SHADEPLOTCUSTOMDPI
 70
   300
  0
XRECORD
  5
A83B
102
{ACAD_REACTORS
330
A83A
102
}
330
A83A
100
AcDbXrecord
280
     1
102
SHADEPLOT
 70
     0
102
SHADEPLOTRESLEVEL
 70
     2
102
SHADEPLOTCUSTOMDPI
 70
   300
  0
XRECORD
  5
A800
102
{ACAD_REACTORS
330
A799
102
}
330
A799
100
AcDbXrecord
280
     1
102
MATERIAL
148
0.0
149
0.0
149
0.0
 93
        0
 94
      127
282
     0
 72
     0
 77
     0
171
     0
175
     0
179
     0
273
     0
  0
XRECORD
  5
A79B
102
{ACAD_REACTORS
330
A799
102
}
330
A799
100
AcDbXrecord
280
     1
270
     1
271
     1
  0
XRECORD
  5
A79A
102
{ACAD_REACTORS
330
A799
102
}
330
A799
100
AcDbXrecord
280
     1
270
     1
271
     1
  0
XRECORD
  5
A79E
102
{ACAD_REACTORS
330
A799
102
}
330
A799
100
AcDbXrecord
280
     1
270
     1
271
     1
  0
XRECORD
  5
A79D
102
{ACAD_REACTORS
330
A799
102
}
330
A799
100
AcDbXrecord
280
     1
270
     1
271
     1
  0
XRECORD
  5
A79F
102
{ACAD_REACTORS
330
A799
102
}
330
A799
100
AcDbXrecord
280
     1
270
     1
271
     1
  0
XRECORD
  5
A79C
102
{ACAD_REACTORS
330
A799
102
}
330
A799
100
AcDbXrecord
280
     1
270
     1
271
     1
  0
XRECORD
  5
A7FF
102
{ACAD_REACTORS
330
A791
102
}
330
A791
100
AcDbXrecord
280
     1
102
MATERIAL
148
0.0
149
0.0
149
0.0
 93
        0
 94
      127
282
     0
 72
     0
 77
     0
171
     0
175
     0
179
     0
273
     0
  0
XRECORD
  5
A793
102
{ACAD_REACTORS
330
A791
102
}
330
A791
100
AcDbXrecord
280
     1
270
     1
271
     1
  0
XRECORD
  5
A792
102
{ACAD_REACTORS
330
A791
102
}
330
A791
100
AcDbXrecord
280
     1
270
     1
271
     1
  0
XRECORD
  5
A796
102
{ACAD_REACTORS
330
A791
102
}
330
A791
100
AcDbXrecord
280
     1
270
     1
271
     1
  0
XRECORD
  5
A795
102
{ACAD_REACTORS
330
A791
102
}
330
A791
100
AcDbXrecord
280
     1
270
     1
271
     1
  0
XRECORD
  5
A797
102
{ACAD_REACTORS
330
A791
102
}
330
A791
100
AcDbXrecord
280
     1
270
     1
271
     1
  0
XRECORD
  5
A794
102
{ACAD_REACTORS
330
A791
102
}
330
A791
100
AcDbXrecord
280
     1
270
     1
271
     1
  0
XRECORD
  5
A801
102
{ACAD_REACTORS
330
A7A1
102
}
330
A7A1
100
AcDbXrecord
280
     1
102
MATERIAL
148
0.0
149
0.0
149
0.0
 93
        0
 94
      127
282
     0
 72
     0
 77
     0
171
     0
175
     0
179
     0
273
     0
  0
XRECORD
  5
A7A3
102
{ACAD_REACTORS
330
A7A1
102
}
330
A7A1
100
AcDbXrecord
280
     1
270
     1
271
     1
  0
XRECORD
  5
A7A2
102
{ACAD_REACTORS
330
A7A1
102
}
330
A7A1
100
AcDbXrecord
280
     1
270
     1
271
     1
  0
XRECORD
  5
A7A6
102
{ACAD_REACTORS
330
A7A1
102
}
330
A7A1
100
AcDbXrecord
280
     1
270
     1
271
     1
  0
XRECORD
  5
A7A5
102
{ACAD_REACTORS
330
A7A1
102
}
330
A7A1
100
AcDbXrecord
280
     1
270
     1
271
     1
  0
XRECORD
  5
A7A7
102
{ACAD_REACTORS
330
A7A1
102
}
330
A7A1
100
AcDbXrecord
280
     1
270
     1
271
     1
  0
XRECORD
  5
A7A4
102
{ACAD_REACTORS
330
A7A1
102
}
330
A7A1
100
AcDbXrecord
280
     1
270
     1
271
     1
  0
XRECORD
  5
A835
102
{ACAD_REACTORS
330
A834
102
}
330
A834
100
AcDbXrecord
280
     1
102
DISPLAYNAME
  1
Imperial24
102
FLAGS
 90
        0
  0
CELLSTYLEMAP
  5
A7FC
102
{ACAD_REACTORS
330
A7FB
102
}
330
A7FB
100
AcDbCellStyleMap
 90
        3
300
CELLSTYLE
  1
TABLEFORMAT_BEGIN
 90
        5
170
     1
 91
        0
 92
    32768
 62
   257
 93
        1
300
CONTENTFORMAT
  1
CONTENTFORMAT_BEGIN
 90
        0
 91
        0
 92
      512
 93
        0
300

 40
0.0
140
1.0
 94
        5
 62
     0
340
A59E
144
0.25
309
CONTENTFORMAT_END
171
     0
 94
        0
309
TABLEFORMAT_END
  1
CELLSTYLE_BEGIN
 90
        1
 91
        1
300
_TITLE
309
CELLSTYLE_END
300
CELLSTYLE
  1
TABLEFORMAT_BEGIN
 90
        5
170
     1
 91
        0
 92
        0
 62
   257
 93
        1
300
CONTENTFORMAT
  1
CONTENTFORMAT_BEGIN
 90
        0
 91
        0
 92
      512
 93
        0
300

 40
0.0
140
1.0
 94
        5
 62
     0
340
A59E
144
0.18
309
CONTENTFORMAT_END
171
     0
 94
        0
309
TABLEFORMAT_END
  1
CELLSTYLE_BEGIN
 90
        2
 91
        1
300
_HEADER
309
CELLSTYLE_END
300
CELLSTYLE
  1
TABLEFORMAT_BEGIN
 90
        5
170
     1
 91
        0
 92
        0
 62
   257
 93
        1
300
CONTENTFORMAT
  1
CONTENTFORMAT_BEGIN
 90
        0
 91
        0
 92
      512
 93
        0
300

 40
0.0
140
1.0
 94
        2
 62
     0
340
A59E
144
0.18
309
CONTENTFORMAT_END
171
     0
 94
        0
309
TABLEFORMAT_END
  1
CELLSTYLE_BEGIN
 90
        3
 91
        2
300
_DATA
309
CELLSTYLE_END
  0
XRECORD
  5
A832
102
{ACAD_REACTORS
330
A7FB
102
}
330
A7FB
100
AcDbXrecord
280
     1
102
ACAD_ROUNDTRIP_PRE2007_TABLESTYLE
 90
      512
 91
        0
  1

 92
      512
 93
        0
  2

 94
      512
 95
        0
  3

  0
XRECORD
  5
A80D
102
{ACAD_REACTORS
330
A80C
102
}
330
A80C
100
AcDbXrecord
280
     1
102
RTVSPost2010Prop28
280
     1
102
RTVSPost2010PropOp28
 70
     1
102
RTVSPost2010Prop29
280
     1
102
RTVSPost2010PropOp29
 70
     1
102
RTVSPost2010Prop30
280
     0
102
RTVSPost2010PropOp30
 70
     1
102
RTVSPost2010Prop31
280
     0
102
RTVSPost2010PropOp31
 70
     1
102
RTVSPost2010Prop32
280
     0
102
RTVSPost2010PropOp32
 70
     1
102
RTVSPost2010Prop33
280
     0
102
RTVSPost2010PropOp33
 70
     1
102
RTVSPost2010Prop34
280
     0
102
RTVSPost2010PropOp34
 70
     1
102
RTVSPost2010Prop35
280
     0
102
RTVSPost2010PropOp35
 70
     1
102
RTVSPost2010Prop36
280
     0
102
RTVSPost2010PropOp36
 70
     1
102
RTVSPost2010Prop37
 90
       50
102
RTVSPost2010PropOp37
 70
     1
102
RTVSPost2010Prop38
140
0.0
102
RTVSPost2010PropOp38
 70
     1
102
RTVSPost2010Prop39
140
1.0
102
RTVSPost2010PropOp39
 70
     1
102
RTVSPost2010Prop40
 90
        0
102
RTVSPost2010PropOp40
 70
     1
102
RTVSPost2010Prop41ColorIndex
 90
       18
102
RTVSPost2010Prop41ColorRGB
 90
        0
102
RTVSPost2010PropOp41
 70
     1
102
RTVSPost2010Prop42
 90
       50
102
RTVSPost2010PropOp42
 70
     1
102
RTVSPost2010Prop43
 90
        3
102
RTVSPost2010PropOp43
 70
     1
102
RTVSPost2010Prop44ColorIndex
 90
        5
102
RTVSPost2010Prop44ColorRGB
 90
      255
102
RTVSPost2010PropOp44
 70
     1
102
RTVSPost2010Prop45
280
     0
102
RTVSPost2010PropOp45
 70
     1
102
RTVSPost2010Prop46
 90
       50
102
RTVSPost2010PropOp46
 70
     1
102
RTVSPost2010Prop47
 90
       50
102
RTVSPost2010PropOp47
 70
     1
102
RTVSPost2010Prop48
 90
       50
102
RTVSPost2010PropOp48
 70
     1
102
RTVSPost2010Prop49
280
     0
102
RTVSPost2010PropOp49
 70
     1
102
RTVSPost2010Prop50
 90
       50
102
RTVSPost2010PropOp50
 70
     1
102
RTVSPost2010Prop51ColorIndex
 90
      256
102
RTVSPost2010Prop51ColorRGB
 90
-16777216
102
RTVSPost2010PropOp51
 70
     0
102
RTVSPost2010Prop52
140
1.0
102
RTVSPost2010PropOp52
 70
     0
102
RTVSPost2010Prop53
 90
        2
102
RTVSPost2010PropOp53
 70
     1
102
RTVSPost2010Prop54
  1
strokes_ogs.tif
102
RTVSPost2010PropOp54
 70
     1
102
RTVSPost2010Prop55
280
     0
102
RTVSPost2010PropOp55
 70
     1
102
RTVSPost2010Prop56
140
1.0
102
RTVSPost2010PropOp56
 70
     1
102
RTVSPost2010Prop57
140
1.0
102
RTVSPost2010PropOp57
 70
     1
102
RTVSPropertyOp0
 70
     1
102
RTVSPropertyOp1
 70
     1
102
RTVSPropertyOp2
 70
     1
102
RTVSPropertyOp3
 70
     1
102
RTVSPropertyOp4
 70
     1
102
RTVSPropertyOp5
 70
     1
102
RTVSPropertyOp6
 70
     1
102
RTVSPropertyOp7
 70
     1
102
RTVSPropertyOp8
 70
     1
102
RTVSPropertyOp9
 70
     1
102
RTVSPropertyOp10
 70
     1
102
RTVSPropertyOp11
 70
     1
102
RTVSPropertyOp12
 70
     1
102
RTVSPropertyOp13
 70
     1
102
RTVSPropertyOp14
 70
     1
102
RTVSPropertyOp15
 70
     1
102
RTVSPropertyOp16
 70
     1
102
RTVSPropertyOp17
 70
     1
102
RTVSPropertyOp18
 70
     1
102
RTVSPropertyOp19
 70
     1
102
RTVSPropertyOp20
 70
     1
102
RTVSPropertyOp21
 70
     1
102
RTVSPropertyOp22
 70
     1
102
RTVSPropertyOp23
 70
     1
102
RTVSPropertyOp24
 70
     1
102
RTVSPropertyOp25
 70
     1
102
RTVSPropertyOp26
 70
     1
102
RTVSPropertyOp27
 70
     1
102
RTVSPropertyOp28
 70
     1
102
RTVSPropertyOp29
 70
     1
102
RTVSPropertyOp30
 70
     1
102
RTVSPropertyOp31
 70
     1
102
RTVSPropertyOp32
 70
     1
102
RTVSPropertyOp33
 70
     1
102
RTVSPropertyOp34
 70
     1
102
RTVSPropertyOp35
 70
     1
102
RTVSPropertyOp36
 70
     1
102
RTVSPropertyOp37
 70
     1
102
RTVSPropertyOp38
 70
     1
102
RTVSPropertyOp39
 70
     1
102
RTVSPropertyOp40
 70
     1
102
RTVSPropertyOp41
 70
     1
102
RTVSPropertyOp42
 70
     1
102
RTVSPropertyOp43
 70
     1
102
RTVSPropertyOp44
 70
     1
102
RTVSPropertyOp45
 70
     1
102
RTVSPropertyOp46
 70
     1
102
RTVSPropertyOp47
 70
     1
102
RTVSPropertyOp48
 70
     1
102
RTVSPropertyOp49
 70
     1
102
RTVSPropertyOp50
 70
     1
102
RTVSPropertyOp51
 70
     0
102
RTVSPropertyOp52
 70
     0
102
RTVSPropertyOp53
 70
     1
102
RTVSPropertyOp54
 70
     1
102
RTVSPropertyOp55
 70
     1
102
RTVSPropertyOp56
 70
     1
102
RTVSPropertyOp57
 70
     1
102
RTVSPropertyOp58
 70
     1
102
RTVSPropertyOp59
 70
     1
102
RTVSPropertyOp60
 70
     1
102
RTVSPropertyOp61
 70
     1
102
RTVSPropertyOp62
 70
     1
  0
XRECORD
  5
A80B
102
{ACAD_REACTORS
330
A80A
102
}
330
A80A
100
AcDbXrecord
280
     1
102
RTVSPost2010Prop28
280
     0
102
RTVSPost2010PropOp28
 70
     1
102
RTVSPost2010Prop29
280
     1
102
RTVSPost2010PropOp29
 70
     1
102
RTVSPost2010Prop30
280
     1
102
RTVSPost2010PropOp30
 70
     1
102
RTVSPost2010Prop31
280
     0
102
RTVSPost2010PropOp31
 70
     1
102
RTVSPost2010Prop32
280
     0
102
RTVSPost2010PropOp32
 70
     1
102
RTVSPost2010Prop33
280
     0
102
RTVSPost2010PropOp33
 70
     1
102
RTVSPost2010Prop34
280
     0
102
RTVSPost2010PropOp34
 70
     1
102
RTVSPost2010Prop35
280
     0
102
RTVSPost2010PropOp35
 70
     1
102
RTVSPost2010Prop36
280
     0
102
RTVSPost2010PropOp36
 70
     1
102
RTVSPost2010Prop37
 90
       50
102
RTVSPost2010PropOp37
 70
     1
102
RTVSPost2010Prop38
140
0.0
102
RTVSPost2010PropOp38
 70
     1
102
RTVSPost2010Prop39
140
1.0
102
RTVSPost2010PropOp39
 70
     1
102
RTVSPost2010Prop40
 90
        0
102
RTVSPost2010PropOp40
 70
     1
102
RTVSPost2010Prop41ColorIndex
 90
       18
102
RTVSPost2010Prop41ColorRGB
 90
        0
102
RTVSPost2010PropOp41
 70
     1
102
RTVSPost2010Prop42
 90
       50
102
RTVSPost2010PropOp42
 70
     1
102
RTVSPost2010Prop43
 90
        3
102
RTVSPost2010PropOp43
 70
     1
102
RTVSPost2010Prop44ColorIndex
 90
        5
102
RTVSPost2010Prop44ColorRGB
 90
      255
102
RTVSPost2010PropOp44
 70
     1
102
RTVSPost2010Prop45
280
     0
102
RTVSPost2010PropOp45
 70
     1
102
RTVSPost2010Prop46
 90
       50
102
RTVSPost2010PropOp46
 70
     1
102
RTVSPost2010Prop47
 90
       50
102
RTVSPost2010PropOp47
 70
     1
102
RTVSPost2010Prop48
 90
       50
102
RTVSPost2010PropOp48
 70
     1
102
RTVSPost2010Prop49
280
     0
102
RTVSPost2010PropOp49
 70
     1
102
RTVSPost2010Prop50
 90
       50
102
RTVSPost2010PropOp50
 70
     1
102
RTVSPost2010Prop51ColorIndex
 90
      256
102
RTVSPost2010Prop51ColorRGB
 90
-16777216
102
RTVSPost2010PropOp51
 70
     0
102
RTVSPost2010Prop52
140
1.0
102
RTVSPost2010PropOp52
 70
     0
102
RTVSPost2010Prop53
 90
        2
102
RTVSPost2010PropOp53
 70
     1
102
RTVSPost2010Prop54
  1
strokes_ogs.tif
102
RTVSPost2010PropOp54
 70
     1
102
RTVSPost2010Prop55
280
     0
102
RTVSPost2010PropOp55
 70
     1
102
RTVSPost2010Prop56
140
1.0
102
RTVSPost2010PropOp56
 70
     1
102
RTVSPost2010Prop57
140
1.0
102
RTVSPost2010PropOp57
 70
     1
102
RTVSPropertyOp0
 70
     1
102
RTVSPropertyOp1
 70
     1
102
RTVSPropertyOp2
 70
     1
102
RTVSPropertyOp3
 70
     1
102
RTVSPropertyOp4
 70
     1
102
RTVSPropertyOp5
 70
     1
102
RTVSPropertyOp6
 70
     1
102
RTVSPropertyOp7
 70
     1
102
RTVSPropertyOp8
 70
     1
102
RTVSPropertyOp9
 70
     1
102
RTVSPropertyOp10
 70
     1
102
RTVSPropertyOp11
 70
     1
102
RTVSPropertyOp12
 70
     1
102
RTVSPropertyOp13
 70
     1
102
RTVSPropertyOp14
 70
     1
102
RTVSPropertyOp15
 70
     1
102
RTVSPropertyOp16
 70
     1
102
RTVSPropertyOp17
 70
     1
102
RTVSPropertyOp18
 70
     1
102
RTVSPropertyOp19
 70
     1
102
RTVSPropertyOp20
 70
     1
102
RTVSPropertyOp21
 70
     1
102
RTVSPropertyOp22
 70
     1
102
RTVSPropertyOp23
 70
     1
102
RTVSPropertyOp24
 70
     1
102
RTVSPropertyOp25
 70
     1
102
RTVSPropertyOp26
 70
     1
102
RTVSPropertyOp27
 70
     1
102
RTVSPropertyOp28
 70
     1
102
RTVSPropertyOp29
 70
     1
102
RTVSPropertyOp30
 70
     1
102
RTVSPropertyOp31
 70
     1
102
RTVSPropertyOp32
 70
     1
102
RTVSPropertyOp33
 70
     1
102
RTVSPropertyOp34
 70
     1
102
RTVSPropertyOp35
 70
     1
102
RTVSPropertyOp36
 70
     1
102
RTVSPropertyOp37
 70
     1
102
RTVSPropertyOp38
 70
     1
102
RTVSPropertyOp39
 70
     1
102
RTVSPropertyOp40
 70
     1
102
RTVSPropertyOp41
 70
     1
102
RTVSPropertyOp42
 70
     1
102
RTVSPropertyOp43
 70
     1
102
RTVSPropertyOp44
 70
     1
102
RTVSPropertyOp45
 70
     1
102
RTVSPropertyOp46
 70
     1
102
RTVSPropertyOp47
 70
     1
102
RTVSPropertyOp48
 70
     1
102
RTVSPropertyOp49
 70
     1
102
RTVSPropertyOp50
 70
     1
102
RTVSPropertyOp51
 70
     0
102
RTVSPropertyOp52
 70
     0
102
RTVSPropertyOp53
 70
     1
102
RTVSPropertyOp54
 70
     1
102
RTVSPropertyOp55
 70
     1
102
RTVSPropertyOp56
 70
     1
102
RTVSPropertyOp57
 70
     1
102
RTVSPropertyOp58
 70
     1
102
RTVSPropertyOp59
 70
     1
102
RTVSPropertyOp60
 70
     1
102
RTVSPropertyOp61
 70
     1
102
RTVSPropertyOp62
 70
     1
  0
XRECORD
  5
A819
102
{ACAD_REACTORS
330
A818
102
}
330
A818
100
AcDbXrecord
280
     1
102
RTVSPost2010Prop28
280
     0
102
RTVSPost2010PropOp28
 70
     1
102
RTVSPost2010Prop29
280
     1
102
RTVSPost2010PropOp29
 70
     1
102
RTVSPost2010Prop30
280
     1
102
RTVSPost2010PropOp30
 70
     1
102
RTVSPost2010Prop31
280
     0
102
RTVSPost2010PropOp31
 70
     1
102
RTVSPost2010Prop32
280
     0
102
RTVSPost2010PropOp32
 70
     1
102
RTVSPost2010Prop33
280
     0
102
RTVSPost2010PropOp33
 70
     1
102
RTVSPost2010Prop34
280
     0
102
RTVSPost2010PropOp34
 70
     1
102
RTVSPost2010Prop35
280
     0
102
RTVSPost2010PropOp35
 70
     1
102
RTVSPost2010Prop36
280
     0
102
RTVSPost2010PropOp36
 70
     1
102
RTVSPost2010Prop37
 90
       50
102
RTVSPost2010PropOp37
 70
     1
102
RTVSPost2010Prop38
140
0.0
102
RTVSPost2010PropOp38
 70
     1
102
RTVSPost2010Prop39
140
1.0
102
RTVSPost2010PropOp39
 70
     1
102
RTVSPost2010Prop40
 90
        0
102
RTVSPost2010PropOp40
 70
     1
102
RTVSPost2010Prop41ColorIndex
 90
       18
102
RTVSPost2010Prop41ColorRGB
 90
        0
102
RTVSPost2010PropOp41
 70
     1
102
RTVSPost2010Prop42
 90
       50
102
RTVSPost2010PropOp42
 70
     1
102
RTVSPost2010Prop43
 90
        3
102
RTVSPost2010PropOp43
 70
     1
102
RTVSPost2010Prop44ColorIndex
 90
        5
102
RTVSPost2010Prop44ColorRGB
 90
      255
102
RTVSPost2010PropOp44
 70
     1
102
RTVSPost2010Prop45
280
     0
102
RTVSPost2010PropOp45
 70
     1
102
RTVSPost2010Prop46
 90
       50
102
RTVSPost2010PropOp46
 70
     1
102
RTVSPost2010Prop47
 90
       50
102
RTVSPost2010PropOp47
 70
     1
102
RTVSPost2010Prop48
 90
       50
102
RTVSPost2010PropOp48
 70
     1
102
RTVSPost2010Prop49
280
     0
102
RTVSPost2010PropOp49
 70
     1
102
RTVSPost2010Prop50
 90
       50
102
RTVSPost2010PropOp50
 70
     1
102
RTVSPost2010Prop51ColorIndex
 90
      256
102
RTVSPost2010Prop51ColorRGB
 90
-16777216
102
RTVSPost2010PropOp51
 70
     0
102
RTVSPost2010Prop52
140
1.0
102
RTVSPost2010PropOp52
 70
     0
102
RTVSPost2010Prop53
 90
        2
102
RTVSPost2010PropOp53
 70
     1
102
RTVSPost2010Prop54
  1
strokes_ogs.tif
102
RTVSPost2010PropOp54
 70
     1
102
RTVSPost2010Prop55
280
     0
102
RTVSPost2010PropOp55
 70
     1
102
RTVSPost2010Prop56
140
1.0
102
RTVSPost2010PropOp56
 70
     1
102
RTVSPost2010Prop57
140
1.0
102
RTVSPost2010PropOp57
 70
     1
102
RTVSPropertyOp0
 70
     1
102
RTVSPropertyOp1
 70
     1
102
RTVSPropertyOp2
 70
     1
102
RTVSPropertyOp3
 70
     1
102
RTVSPropertyOp4
 70
     1
102
RTVSPropertyOp5
 70
     1
102
RTVSPropertyOp6
 70
     1
102
RTVSPropertyOp7
 70
     1
102
RTVSPropertyOp8
 70
     1
102
RTVSPropertyOp9
 70
     1
102
RTVSPropertyOp10
 70
     1
102
RTVSPropertyOp11
 70
     1
102
RTVSPropertyOp12
 70
     1
102
RTVSPropertyOp13
 70
     1
102
RTVSPropertyOp14
 70
     1
102
RTVSPropertyOp15
 70
     1
102
RTVSPropertyOp16
 70
     1
102
RTVSPropertyOp17
 70
     1
102
RTVSPropertyOp18
 70
     1
102
RTVSPropertyOp19
 70
     1
102
RTVSPropertyOp20
 70
     1
102
RTVSPropertyOp21
 70
     1
102
RTVSPropertyOp22
 70
     1
102
RTVSPropertyOp23
 70
     1
102
RTVSPropertyOp24
 70
     1
102
RTVSPropertyOp25
 70
     1
102
RTVSPropertyOp26
 70
     1
102
RTVSPropertyOp27
 70
     1
102
RTVSPropertyOp28
 70
     1
102
RTVSPropertyOp29
 70
     1
102
RTVSPropertyOp30
 70
     1
102
RTVSPropertyOp31
 70
     1
102
RTVSPropertyOp32
 70
     1
102
RTVSPropertyOp33
 70
     1
102
RTVSPropertyOp34
 70
     1
102
RTVSPropertyOp35
 70
     1
102
RTVSPropertyOp36
 70
     1
102
RTVSPropertyOp37
 70
     1
102
RTVSPropertyOp38
 70
     1
102
RTVSPropertyOp39
 70
     1
102
RTVSPropertyOp40
 70
     1
102
RTVSPropertyOp41
 70
     1
102
RTVSPropertyOp42
 70
     1
102
RTVSPropertyOp43
 70
     1
102
RTVSPropertyOp44
 70
     1
102
RTVSPropertyOp45
 70
     1
102
RTVSPropertyOp46
 70
     1
102
RTVSPropertyOp47
 70
     1
102
RTVSPropertyOp48
 70
     1
102
RTVSPropertyOp49
 70
     1
102
RTVSPropertyOp50
 70
     1
102
RTVSPropertyOp51
 70
     0
102
RTVSPropertyOp52
 70
     0
102
RTVSPropertyOp53
 70
     1
102
RTVSPropertyOp54
 70
     1
102
RTVSPropertyOp55
 70
     1
102
RTVSPropertyOp56
 70
     1
102
RTVSPropertyOp57
 70
     1
102
RTVSPropertyOp58
 70
     1
102
RTVSPropertyOp59
 70
     1
102
RTVSPropertyOp60
 70
     1
102
RTVSPropertyOp61
 70
     1
102
RTVSPropertyOp62
 70
     1
  0
XRECORD
  5
A821
102
{ACAD_REACTORS
330
A820
102
}
330
A820
100
AcDbXrecord
280
     1
102
RTVSPost2010Prop28
280
     0
102
RTVSPost2010PropOp28
 70
     1
102
RTVSPost2010Prop29
280
     1
102
RTVSPost2010PropOp29
 70
     1
102
RTVSPost2010Prop30
280
     1
102
RTVSPost2010PropOp30
 70
     1
102
RTVSPost2010Prop31
280
     0
102
RTVSPost2010PropOp31
 70
     1
102
RTVSPost2010Prop32
280
     0
102
RTVSPost2010PropOp32
 70
     1
102
RTVSPost2010Prop33
280
     0
102
RTVSPost2010PropOp33
 70
     1
102
RTVSPost2010Prop34
280
     0
102
RTVSPost2010PropOp34
 70
     1
102
RTVSPost2010Prop35
280
     0
102
RTVSPost2010PropOp35
 70
     1
102
RTVSPost2010Prop36
280
     0
102
RTVSPost2010PropOp36
 70
     1
102
RTVSPost2010Prop37
 90
       50
102
RTVSPost2010PropOp37
 70
     1
102
RTVSPost2010Prop38
140
0.0
102
RTVSPost2010PropOp38
 70
     1
102
RTVSPost2010Prop39
140
1.0
102
RTVSPost2010PropOp39
 70
     1
102
RTVSPost2010Prop40
 90
        0
102
RTVSPost2010PropOp40
 70
     1
102
RTVSPost2010Prop41ColorIndex
 90
       18
102
RTVSPost2010Prop41ColorRGB
 90
        0
102
RTVSPost2010PropOp41
 70
     1
102
RTVSPost2010Prop42
 90
       50
102
RTVSPost2010PropOp42
 70
     1
102
RTVSPost2010Prop43
 90
        3
102
RTVSPost2010PropOp43
 70
     1
102
RTVSPost2010Prop44ColorIndex
 90
        5
102
RTVSPost2010Prop44ColorRGB
 90
      255
102
RTVSPost2010PropOp44
 70
     1
102
RTVSPost2010Prop45
280
     0
102
RTVSPost2010PropOp45
 70
     1
102
RTVSPost2010Prop46
 90
       50
102
RTVSPost2010PropOp46
 70
     1
102
RTVSPost2010Prop47
 90
       50
102
RTVSPost2010PropOp47
 70
     1
102
RTVSPost2010Prop48
 90
       50
102
RTVSPost2010PropOp48
 70
     1
102
RTVSPost2010Prop49
280
     0
102
RTVSPost2010PropOp49
 70
     1
102
RTVSPost2010Prop50
 90
       50
102
RTVSPost2010PropOp50
 70
     1
102
RTVSPost2010Prop51ColorIndex
 90
      256
102
RTVSPost2010Prop51ColorRGB
 90
-16777216
102
RTVSPost2010PropOp51
 70
     0
102
RTVSPost2010Prop52
140
1.0
102
RTVSPost2010PropOp52
 70
     0
102
RTVSPost2010Prop53
 90
        2
102
RTVSPost2010PropOp53
 70
     1
102
RTVSPost2010Prop54
  1
strokes_ogs.tif
102
RTVSPost2010PropOp54
 70
     1
102
RTVSPost2010Prop55
280
     0
102
RTVSPost2010PropOp55
 70
     1
102
RTVSPost2010Prop56
140
1.0
102
RTVSPost2010PropOp56
 70
     1
102
RTVSPost2010Prop57
140
1.0
102
RTVSPost2010PropOp57
 70
     1
102
RTVSPropertyOp0
 70
     1
102
RTVSPropertyOp1
 70
     1
102
RTVSPropertyOp2
 70
     1
102
RTVSPropertyOp3
 70
     1
102
RTVSPropertyOp4
 70
     1
102
RTVSPropertyOp5
 70
     1
102
RTVSPropertyOp6
 70
     1
102
RTVSPropertyOp7
 70
     1
102
RTVSPropertyOp8
 70
     1
102
RTVSPropertyOp9
 70
     1
102
RTVSPropertyOp10
 70
     1
102
RTVSPropertyOp11
 70
     1
102
RTVSPropertyOp12
 70
     1
102
RTVSPropertyOp13
 70
     1
102
RTVSPropertyOp14
 70
     1
102
RTVSPropertyOp15
 70
     1
102
RTVSPropertyOp16
 70
     1
102
RTVSPropertyOp17
 70
     1
102
RTVSPropertyOp18
 70
     1
102
RTVSPropertyOp19
 70
     1
102
RTVSPropertyOp20
 70
     1
102
RTVSPropertyOp21
 70
     1
102
RTVSPropertyOp22
 70
     1
102
RTVSPropertyOp23
 70
     1
102
RTVSPropertyOp24
 70
     1
102
RTVSPropertyOp25
 70
     1
102
RTVSPropertyOp26
 70
     1
102
RTVSPropertyOp27
 70
     1
102
RTVSPropertyOp28
 70
     1
102
RTVSPropertyOp29
 70
     1
102
RTVSPropertyOp30
 70
     1
102
RTVSPropertyOp31
 70
     1
102
RTVSPropertyOp32
 70
     1
102
RTVSPropertyOp33
 70
     1
102
RTVSPropertyOp34
 70
     1
102
RTVSPropertyOp35
 70
     1
102
RTVSPropertyOp36
 70
     1
102
RTVSPropertyOp37
 70
     1
102
RTVSPropertyOp38
 70
     1
102
RTVSPropertyOp39
 70
     1
102
RTVSPropertyOp40
 70
     1
102
RTVSPropertyOp41
 70
     1
102
RTVSPropertyOp42
 70
     1
102
RTVSPropertyOp43
 70
     1
102
RTVSPropertyOp44
 70
     1
102
RTVSPropertyOp45
 70
     1
102
RTVSPropertyOp46
 70
     1
102
RTVSPropertyOp47
 70
     1
102
RTVSPropertyOp48
 70
     1
102
RTVSPropertyOp49
 70
     1
102
RTVSPropertyOp50
 70
     1
102
RTVSPropertyOp51
 70
     0
102
RTVSPropertyOp52
 70
     0
102
RTVSPropertyOp53
 70
     1
102
RTVSPropertyOp54
 70
     1
102
RTVSPropertyOp55
 70
     1
102
RTVSPropertyOp56
 70
     1
102
RTVSPropertyOp57
 70
     1
102
RTVSPropertyOp58
 70
     1
102
RTVSPropertyOp59
 70
     1
102
RTVSPropertyOp60
 70
     1
102
RTVSPropertyOp61
 70
     1
102
RTVSPropertyOp62
 70
     1
  0
XRECORD
  5
A813
102
{ACAD_REACTORS
330
A812
102
}
330
A812
100
AcDbXrecord
280
     1
102
RTVSPost2010Prop28
280
     0
102
RTVSPost2010PropOp28
 70
     1
102
RTVSPost2010Prop29
280
     1
102
RTVSPost2010PropOp29
 70
     1
102
RTVSPost2010Prop30
280
     1
102
RTVSPost2010PropOp30
 70
     1
102
RTVSPost2010Prop31
280
     0
102
RTVSPost2010PropOp31
 70
     1
102
RTVSPost2010Prop32
280
     0
102
RTVSPost2010PropOp32
 70
     1
102
RTVSPost2010Prop33
280
     0
102
RTVSPost2010PropOp33
 70
     1
102
RTVSPost2010Prop34
280
     0
102
RTVSPost2010PropOp34
 70
     1
102
RTVSPost2010Prop35
280
     0
102
RTVSPost2010PropOp35
 70
     1
102
RTVSPost2010Prop36
280
     0
102
RTVSPost2010PropOp36
 70
     1
102
RTVSPost2010Prop37
 90
       50
102
RTVSPost2010PropOp37
 70
     1
102
RTVSPost2010Prop38
140
0.0
102
RTVSPost2010PropOp38
 70
     1
102
RTVSPost2010Prop39
140
1.0
102
RTVSPost2010PropOp39
 70
     1
102
RTVSPost2010Prop40
 90
        0
102
RTVSPost2010PropOp40
 70
     1
102
RTVSPost2010Prop41ColorIndex
 90
       18
102
RTVSPost2010Prop41ColorRGB
 90
        0
102
RTVSPost2010PropOp41
 70
     1
102
RTVSPost2010Prop42
 90
       50
102
RTVSPost2010PropOp42
 70
     1
102
RTVSPost2010Prop43
 90
        3
102
RTVSPost2010PropOp43
 70
     1
102
RTVSPost2010Prop44ColorIndex
 90
        5
102
RTVSPost2010Prop44ColorRGB
 90
      255
102
RTVSPost2010PropOp44
 70
     1
102
RTVSPost2010Prop45
280
     0
102
RTVSPost2010PropOp45
 70
     1
102
RTVSPost2010Prop46
 90
       50
102
RTVSPost2010PropOp46
 70
     1
102
RTVSPost2010Prop47
 90
       50
102
RTVSPost2010PropOp47
 70
     1
102
RTVSPost2010Prop48
 90
       50
102
RTVSPost2010PropOp48
 70
     1
102
RTVSPost2010Prop49
280
     0
102
RTVSPost2010PropOp49
 70
     1
102
RTVSPost2010Prop50
 90
       50
102
RTVSPost2010PropOp50
 70
     1
102
RTVSPost2010Prop51ColorIndex
 90
      256
102
RTVSPost2010Prop51ColorRGB
 90
-16777216
102
RTVSPost2010PropOp51
 70
     0
102
RTVSPost2010Prop52
140
1.0
102
RTVSPost2010PropOp52
 70
     0
102
RTVSPost2010Prop53
 90
        2
102
RTVSPost2010PropOp53
 70
     1
102
RTVSPost2010Prop54
  1
strokes_ogs.tif
102
RTVSPost2010PropOp54
 70
     1
102
RTVSPost2010Prop55
280
     0
102
RTVSPost2010PropOp55
 70
     1
102
RTVSPost2010Prop56
140
1.0
102
RTVSPost2010PropOp56
 70
     1
102
RTVSPost2010Prop57
140
1.0
102
RTVSPost2010PropOp57
 70
     1
102
RTVSPropertyOp0
 70
     1
102
RTVSPropertyOp1
 70
     1
102
RTVSPropertyOp2
 70
     1
102
RTVSPropertyOp3
 70
     1
102
RTVSPropertyOp4
 70
     1
102
RTVSPropertyOp5
 70
     1
102
RTVSPropertyOp6
 70
     1
102
RTVSPropertyOp7
 70
     1
102
RTVSPropertyOp8
 70
     1
102
RTVSPropertyOp9
 70
     1
102
RTVSPropertyOp10
 70
     1
102
RTVSPropertyOp11
 70
     1
102
RTVSPropertyOp12
 70
     1
102
RTVSPropertyOp13
 70
     1
102
RTVSPropertyOp14
 70
     1
102
RTVSPropertyOp15
 70
     1
102
RTVSPropertyOp16
 70
     1
102
RTVSPropertyOp17
 70
     1
102
RTVSPropertyOp18
 70
     1
102
RTVSPropertyOp19
 70
     1
102
RTVSPropertyOp20
 70
     1
102
RTVSPropertyOp21
 70
     1
102
RTVSPropertyOp22
 70
     1
102
RTVSPropertyOp23
 70
     1
102
RTVSPropertyOp24
 70
     1
102
RTVSPropertyOp25
 70
     1
102
RTVSPropertyOp26
 70
     1
102
RTVSPropertyOp27
 70
     1
102
RTVSPropertyOp28
 70
     1
102
RTVSPropertyOp29
 70
     1
102
RTVSPropertyOp30
 70
     1
102
RTVSPropertyOp31
 70
     1
102
RTVSPropertyOp32
 70
     1
102
RTVSPropertyOp33
 70
     1
102
RTVSPropertyOp34
 70
     1
102
RTVSPropertyOp35
 70
     1
102
RTVSPropertyOp36
 70
     1
102
RTVSPropertyOp37
 70
     1
102
RTVSPropertyOp38
 70
     1
102
RTVSPropertyOp39
 70
     1
102
RTVSPropertyOp40
 70
     1
102
RTVSPropertyOp41
 70
     1
102
RTVSPropertyOp42
 70
     1
102
RTVSPropertyOp43
 70
     1
102
RTVSPropertyOp44
 70
     1
102
RTVSPropertyOp45
 70
     1
102
RTVSPropertyOp46
 70
     1
102
RTVSPropertyOp47
 70
     1
102
RTVSPropertyOp48
 70
     1
102
RTVSPropertyOp49
 70
     1
102
RTVSPropertyOp50
 70
     1
102
RTVSPropertyOp51
 70
     0
102
RTVSPropertyOp52
 70
     0
102
RTVSPropertyOp53
 70
     1
102
RTVSPropertyOp54
 70
     1
102
RTVSPropertyOp55
 70
     1
102
RTVSPropertyOp56
 70
     1
102
RTVSPropertyOp57
 70
     1
102
RTVSPropertyOp58
 70
     1
102
RTVSPropertyOp59
 70
     1
102
RTVSPropertyOp60
 70
     1
102
RTVSPropertyOp61
 70
     1
102
RTVSPropertyOp62
 70
     1
  0
XRECORD
  5
A817
102
{ACAD_REACTORS
330
A816
102
}
330
A816
100
AcDbXrecord
280
     1
102
RTVSPost2010Prop28
280
     0
102
RTVSPost2010PropOp28
 70
     1
102
RTVSPost2010Prop29
280
     1
102
RTVSPost2010PropOp29
 70
     1
102
RTVSPost2010Prop30
280
     1
102
RTVSPost2010PropOp30
 70
     1
102
RTVSPost2010Prop31
280
     0
102
RTVSPost2010PropOp31
 70
     1
102
RTVSPost2010Prop32
280
     0
102
RTVSPost2010PropOp32
 70
     1
102
RTVSPost2010Prop33
280
     0
102
RTVSPost2010PropOp33
 70
     1
102
RTVSPost2010Prop34
280
     0
102
RTVSPost2010PropOp34
 70
     1
102
RTVSPost2010Prop35
280
     0
102
RTVSPost2010PropOp35
 70
     1
102
RTVSPost2010Prop36
280
     0
102
RTVSPost2010PropOp36
 70
     1
102
RTVSPost2010Prop37
 90
       50
102
RTVSPost2010PropOp37
 70
     1
102
RTVSPost2010Prop38
140
0.0
102
RTVSPost2010PropOp38
 70
     1
102
RTVSPost2010Prop39
140
1.0
102
RTVSPost2010PropOp39
 70
     1
102
RTVSPost2010Prop40
 90
        0
102
RTVSPost2010PropOp40
 70
     1
102
RTVSPost2010Prop41ColorIndex
 90
       18
102
RTVSPost2010Prop41ColorRGB
 90
        0
102
RTVSPost2010PropOp41
 70
     1
102
RTVSPost2010Prop42
 90
       50
102
RTVSPost2010PropOp42
 70
     1
102
RTVSPost2010Prop43
 90
        3
102
RTVSPost2010PropOp43
 70
     1
102
RTVSPost2010Prop44ColorIndex
 90
        5
102
RTVSPost2010Prop44ColorRGB
 90
      255
102
RTVSPost2010PropOp44
 70
     1
102
RTVSPost2010Prop45
280
     0
102
RTVSPost2010PropOp45
 70
     1
102
RTVSPost2010Prop46
 90
       50
102
RTVSPost2010PropOp46
 70
     1
102
RTVSPost2010Prop47
 90
       50
102
RTVSPost2010PropOp47
 70
     1
102
RTVSPost2010Prop48
 90
       50
102
RTVSPost2010PropOp48
 70
     1
102
RTVSPost2010Prop49
280
     0
102
RTVSPost2010PropOp49
 70
     1
102
RTVSPost2010Prop50
 90
       50
102
RTVSPost2010PropOp50
 70
     1
102
RTVSPost2010Prop51ColorIndex
 90
      256
102
RTVSPost2010Prop51ColorRGB
 90
-16777216
102
RTVSPost2010PropOp51
 70
     0
102
RTVSPost2010Prop52
140
1.0
102
RTVSPost2010PropOp52
 70
     0
102
RTVSPost2010Prop53
 90
        2
102
RTVSPost2010PropOp53
 70
     1
102
RTVSPost2010Prop54
  1
strokes_ogs.tif
102
RTVSPost2010PropOp54
 70
     1
102
RTVSPost2010Prop55
280
     0
102
RTVSPost2010PropOp55
 70
     1
102
RTVSPost2010Prop56
140
1.0
102
RTVSPost2010PropOp56
 70
     1
102
RTVSPost2010Prop57
140
1.0
102
RTVSPost2010PropOp57
 70
     1
102
RTVSPropertyOp0
 70
     1
102
RTVSPropertyOp1
 70
     1
102
RTVSPropertyOp2
 70
     1
102
RTVSPropertyOp3
 70
     1
102
RTVSPropertyOp4
 70
     1
102
RTVSPropertyOp5
 70
     1
102
RTVSPropertyOp6
 70
     1
102
RTVSPropertyOp7
 70
     1
102
RTVSPropertyOp8
 70
     1
102
RTVSPropertyOp9
 70
     1
102
RTVSPropertyOp10
 70
     1
102
RTVSPropertyOp11
 70
     1
102
RTVSPropertyOp12
 70
     1
102
RTVSPropertyOp13
 70
     1
102
RTVSPropertyOp14
 70
     1
102
RTVSPropertyOp15
 70
     1
102
RTVSPropertyOp16
 70
     1
102
RTVSPropertyOp17
 70
     1
102
RTVSPropertyOp18
 70
     1
102
RTVSPropertyOp19
 70
     1
102
RTVSPropertyOp20
 70
     1
102
RTVSPropertyOp21
 70
     1
102
RTVSPropertyOp22
 70
     1
102
RTVSPropertyOp23
 70
     1
102
RTVSPropertyOp24
 70
     1
102
RTVSPropertyOp25
 70
     1
102
RTVSPropertyOp26
 70
     1
102
RTVSPropertyOp27
 70
     1
102
RTVSPropertyOp28
 70
     1
102
RTVSPropertyOp29
 70
     1
102
RTVSPropertyOp30
 70
     1
102
RTVSPropertyOp31
 70
     1
102
RTVSPropertyOp32
 70
     1
102
RTVSPropertyOp33
 70
     1
102
RTVSPropertyOp34
 70
     1
102
RTVSPropertyOp35
 70
     1
102
RTVSPropertyOp36
 70
     1
102
RTVSPropertyOp37
 70
     1
102
RTVSPropertyOp38
 70
     1
102
RTVSPropertyOp39
 70
     1
102
RTVSPropertyOp40
 70
     1
102
RTVSPropertyOp41
 70
     1
102
RTVSPropertyOp42
 70
     1
102
RTVSPropertyOp43
 70
     1
102
RTVSPropertyOp44
 70
     1
102
RTVSPropertyOp45
 70
     1
102
RTVSPropertyOp46
 70
     1
102
RTVSPropertyOp47
 70
     1
102
RTVSPropertyOp48
 70
     1
102
RTVSPropertyOp49
 70
     1
102
RTVSPropertyOp50
 70
     1
102
RTVSPropertyOp51
 70
     0
102
RTVSPropertyOp52
 70
     0
102
RTVSPropertyOp53
 70
     1
102
RTVSPropertyOp54
 70
     1
102
RTVSPropertyOp55
 70
     1
102
RTVSPropertyOp56
 70
     1
102
RTVSPropertyOp57
 70
     1
102
RTVSPropertyOp58
 70
     1
102
RTVSPropertyOp59
 70
     1
102
RTVSPropertyOp60
 70
     1
102
RTVSPropertyOp61
 70
     1
102
RTVSPropertyOp62
 70
     1
  0
XRECORD
  5
A831
102
{ACAD_REACTORS
330
A830
102
}
330
A830
100
AcDbXrecord
280
     1
102
RTVSPost2010Prop28
280
     0
102
RTVSPost2010PropOp28
 70
     1
102
RTVSPost2010Prop29
280
     1
102
RTVSPost2010PropOp29
 70
     1
102
RTVSPost2010Prop30
280
     1
102
RTVSPost2010PropOp30
 70
     1
102
RTVSPost2010Prop31
280
     0
102
RTVSPost2010PropOp31
 70
     1
102
RTVSPost2010Prop32
280
     0
102
RTVSPost2010PropOp32
 70
     1
102
RTVSPost2010Prop33
280
     0
102
RTVSPost2010PropOp33
 70
     1
102
RTVSPost2010Prop34
280
     0
102
RTVSPost2010PropOp34
 70
     1
102
RTVSPost2010Prop35
280
     0
102
RTVSPost2010PropOp35
 70
     1
102
RTVSPost2010Prop36
280
     0
102
RTVSPost2010PropOp36
 70
     1
102
RTVSPost2010Prop37
 90
       50
102
RTVSPost2010PropOp37
 70
     0
102
RTVSPost2010Prop38
140
0.0
102
RTVSPost2010PropOp38
 70
     0
102
RTVSPost2010Prop39
140
1.0
102
RTVSPost2010PropOp39
 70
     0
102
RTVSPost2010Prop40
 90
        0
102
RTVSPost2010PropOp40
 70
     0
102
RTVSPost2010Prop41ColorIndex
 90
       18
102
RTVSPost2010Prop41ColorRGB
 90
        0
102
RTVSPost2010PropOp41
 70
     0
102
RTVSPost2010Prop42
 90
       50
102
RTVSPost2010PropOp42
 70
     0
102
RTVSPost2010Prop43
 90
        3
102
RTVSPost2010PropOp43
 70
     0
102
RTVSPost2010Prop44ColorIndex
 90
        5
102
RTVSPost2010Prop44ColorRGB
 90
      255
102
RTVSPost2010PropOp44
 70
     0
102
RTVSPost2010Prop45
280
     0
102
RTVSPost2010PropOp45
 70
     1
102
RTVSPost2010Prop46
 90
       50
102
RTVSPost2010PropOp46
 70
     0
102
RTVSPost2010Prop47
 90
       50
102
RTVSPost2010PropOp47
 70
     0
102
RTVSPost2010Prop48
 90
       50
102
RTVSPost2010PropOp48
 70
     0
102
RTVSPost2010Prop49
280
     0
102
RTVSPost2010PropOp49
 70
     1
102
RTVSPost2010Prop50
 90
       50
102
RTVSPost2010PropOp50
 70
     0
102
RTVSPost2010Prop51ColorIndex
 90
      256
102
RTVSPost2010Prop51ColorRGB
 90
-16777216
102
RTVSPost2010PropOp51
 70
     0
102
RTVSPost2010Prop52
140
1.0
102
RTVSPost2010PropOp52
 70
     0
102
RTVSPost2010Prop53
 90
        2
102
RTVSPost2010PropOp53
 70
     0
102
RTVSPost2010Prop54
  1
strokes_ogs.tif
102
RTVSPost2010PropOp54
 70
     0
102
RTVSPost2010Prop55
280
     0
102
RTVSPost2010PropOp55
 70
     1
102
RTVSPost2010Prop56
140
1.0
102
RTVSPost2010PropOp56
 70
     0
102
RTVSPost2010Prop57
140
1.0
102
RTVSPost2010PropOp57
 70
     0
102
RTVSPropertyOp0
 70
     0
102
RTVSPropertyOp1
 70
     0
102
RTVSPropertyOp2
 70
     0
102
RTVSPropertyOp3
 70
     0
102
RTVSPropertyOp4
 70
     0
102
RTVSPropertyOp5
 70
     0
102
RTVSPropertyOp6
 70
     0
102
RTVSPropertyOp7
 70
     0
102
RTVSPropertyOp8
 70
     0
102
RTVSPropertyOp9
 70
     0
102
RTVSPropertyOp10
 70
     0
102
RTVSPropertyOp11
 70
     0
102
RTVSPropertyOp12
 70
     0
102
RTVSPropertyOp13
 70
     0
102
RTVSPropertyOp14
 70
     2
102
RTVSPropertyOp15
 70
     0
102
RTVSPropertyOp16
 70
     0
102
RTVSPropertyOp17
 70
     0
102
RTVSPropertyOp18
 70
     0
102
RTVSPropertyOp19
 70
     0
102
RTVSPropertyOp20
 70
     0
102
RTVSPropertyOp21
 70
     0
102
RTVSPropertyOp22
 70
     0
102
RTVSPropertyOp23
 70
     0
102
RTVSPropertyOp24
 70
     0
102
RTVSPropertyOp25
 70
     0
102
RTVSPropertyOp26
 70
     0
102
RTVSPropertyOp27
 70
     0
102
RTVSPropertyOp28
 70
     1
102
RTVSPropertyOp29
 70
     1
102
RTVSPropertyOp30
 70
     1
102
RTVSPropertyOp31
 70
     1
102
RTVSPropertyOp32
 70
     1
102
RTVSPropertyOp33
 70
     1
102
RTVSPropertyOp34
 70
     1
102
RTVSPropertyOp35
 70
     1
102
RTVSPropertyOp36
 70
     1
102
RTVSPropertyOp37
 70
     0
102
RTVSPropertyOp38
 70
     0
102
RTVSPropertyOp39
 70
     0
102
RTVSPropertyOp40
 70
     0
102
RTVSPropertyOp41
 70
     0
102
RTVSPropertyOp42
 70
     0
102
RTVSPropertyOp43
 70
     0
102
RTVSPropertyOp44
 70
     0
102
RTVSPropertyOp45
 70
     1
102
RTVSPropertyOp46
 70
     0
102
RTVSPropertyOp47
 70
     0
102
RTVSPropertyOp48
 70
     0
102
RTVSPropertyOp49
 70
     1
102
RTVSPropertyOp50
 70
     0
102
RTVSPropertyOp51
 70
     0
102
RTVSPropertyOp52
 70
     0
102
RTVSPropertyOp53
 70
     0
102
RTVSPropertyOp54
 70
     0
102
RTVSPropertyOp55
 70
     1
102
RTVSPropertyOp56
 70
     0
102
RTVSPropertyOp57
 70
     0
102
RTVSPropertyOp58
 70
     0
102
RTVSPropertyOp59
 70
     0
102
RTVSPropertyOp60
 70
     0
102
RTVSPropertyOp61
 70
     0
102
RTVSPropertyOp62
 70
     0
  0
XRECORD
  5
A81F
102
{ACAD_REACTORS
330
A81E
102
}
330
A81E
100
AcDbXrecord
280
     1
102
RTVSPost2010Prop28
280
     0
102
RTVSPost2010PropOp28
 70
     1
102
RTVSPost2010Prop29
280
     1
102
RTVSPost2010PropOp29
 70
     1
102
RTVSPost2010Prop30
280
     1
102
RTVSPost2010PropOp30
 70
     1
102
RTVSPost2010Prop31
280
     0
102
RTVSPost2010PropOp31
 70
     1
102
RTVSPost2010Prop32
280
     0
102
RTVSPost2010PropOp32
 70
     1
102
RTVSPost2010Prop33
280
     0
102
RTVSPost2010PropOp33
 70
     1
102
RTVSPost2010Prop34
280
     0
102
RTVSPost2010PropOp34
 70
     1
102
RTVSPost2010Prop35
280
     0
102
RTVSPost2010PropOp35
 70
     1
102
RTVSPost2010Prop36
280
     0
102
RTVSPost2010PropOp36
 70
     1
102
RTVSPost2010Prop37
 90
       50
102
RTVSPost2010PropOp37
 70
     1
102
RTVSPost2010Prop38
140
0.0
102
RTVSPost2010PropOp38
 70
     1
102
RTVSPost2010Prop39
140
1.0
102
RTVSPost2010PropOp39
 70
     1
102
RTVSPost2010Prop40
 90
        0
102
RTVSPost2010PropOp40
 70
     1
102
RTVSPost2010Prop41ColorIndex
 90
       18
102
RTVSPost2010Prop41ColorRGB
 90
        0
102
RTVSPost2010PropOp41
 70
     1
102
RTVSPost2010Prop42
 90
       50
102
RTVSPost2010PropOp42
 70
     1
102
RTVSPost2010Prop43
 90
        3
102
RTVSPost2010PropOp43
 70
     1
102
RTVSPost2010Prop44ColorIndex
 90
        5
102
RTVSPost2010Prop44ColorRGB
 90
      255
102
RTVSPost2010PropOp44
 70
     1
102
RTVSPost2010Prop45
280
     0
102
RTVSPost2010PropOp45
 70
     1
102
RTVSPost2010Prop46
 90
       50
102
RTVSPost2010PropOp46
 70
     1
102
RTVSPost2010Prop47
 90
       50
102
RTVSPost2010PropOp47
 70
     1
102
RTVSPost2010Prop48
 90
       50
102
RTVSPost2010PropOp48
 70
     1
102
RTVSPost2010Prop49
280
     0
102
RTVSPost2010PropOp49
 70
     1
102
RTVSPost2010Prop50
 90
       50
102
RTVSPost2010PropOp50
 70
     1
102
RTVSPost2010Prop51ColorIndex
 90
      256
102
RTVSPost2010Prop51ColorRGB
 90
-16777216
102
RTVSPost2010PropOp51
 70
     0
102
RTVSPost2010Prop52
140
1.0
102
RTVSPost2010PropOp52
 70
     0
102
RTVSPost2010Prop53
 90
        2
102
RTVSPost2010PropOp53
 70
     1
102
RTVSPost2010Prop54
  1
strokes_ogs.tif
102
RTVSPost2010PropOp54
 70
     1
102
RTVSPost2010Prop55
280
     0
102
RTVSPost2010PropOp55
 70
     1
102
RTVSPost2010Prop56
140
1.0
102
RTVSPost2010PropOp56
 70
     1
102
RTVSPost2010Prop57
140
1.0
102
RTVSPost2010PropOp57
 70
     1
102
RTVSPropertyOp0
 70
     1
102
RTVSPropertyOp1
 70
     1
102
RTVSPropertyOp2
 70
     1
102
RTVSPropertyOp3
 70
     1
102
RTVSPropertyOp4
 70
     1
102
RTVSPropertyOp5
 70
     1
102
RTVSPropertyOp6
 70
     1
102
RTVSPropertyOp7
 70
     1
102
RTVSPropertyOp8
 70
     1
102
RTVSPropertyOp9
 70
     1
102
RTVSPropertyOp10
 70
     1
102
RTVSPropertyOp11
 70
     1
102
RTVSPropertyOp12
 70
     1
102
RTVSPropertyOp13
 70
     1
102
RTVSPropertyOp14
 70
     1
102
RTVSPropertyOp15
 70
     1
102
RTVSPropertyOp16
 70
     1
102
RTVSPropertyOp17
 70
     1
102
RTVSPropertyOp18
 70
     1
102
RTVSPropertyOp19
 70
     1
102
RTVSPropertyOp20
 70
     1
102
RTVSPropertyOp21
 70
     1
102
RTVSPropertyOp22
 70
     1
102
RTVSPropertyOp23
 70
     1
102
RTVSPropertyOp24
 70
     1
102
RTVSPropertyOp25
 70
     1
102
RTVSPropertyOp26
 70
     1
102
RTVSPropertyOp27
 70
     1
102
RTVSPropertyOp28
 70
     1
102
RTVSPropertyOp29
 70
     1
102
RTVSPropertyOp30
 70
     1
102
RTVSPropertyOp31
 70
     1
102
RTVSPropertyOp32
 70
     1
102
RTVSPropertyOp33
 70
     1
102
RTVSPropertyOp34
 70
     1
102
RTVSPropertyOp35
 70
     1
102
RTVSPropertyOp36
 70
     1
102
RTVSPropertyOp37
 70
     1
102
RTVSPropertyOp38
 70
     1
102
RTVSPropertyOp39
 70
     1
102
RTVSPropertyOp40
 70
     1
102
RTVSPropertyOp41
 70
     1
102
RTVSPropertyOp42
 70
     1
102
RTVSPropertyOp43
 70
     1
102
RTVSPropertyOp44
 70
     1
102
RTVSPropertyOp45
 70
     1
102
RTVSPropertyOp46
 70
     1
102
RTVSPropertyOp47
 70
     1
102
RTVSPropertyOp48
 70
     1
102
RTVSPropertyOp49
 70
     1
102
RTVSPropertyOp50
 70
     1
102
RTVSPropertyOp51
 70
     0
102
RTVSPropertyOp52
 70
     0
102
RTVSPropertyOp53
 70
     1
102
RTVSPropertyOp54
 70
     1
102
RTVSPropertyOp55
 70
     1
102
RTVSPropertyOp56
 70
     1
102
RTVSPropertyOp57
 70
     1
102
RTVSPropertyOp58
 70
     1
102
RTVSPropertyOp59
 70
     1
102
RTVSPropertyOp60
 70
     1
102
RTVSPropertyOp61
 70
     1
102
RTVSPropertyOp62
 70
     1
  0
XRECORD
  5
A803
102
{ACAD_REACTORS
330
A802
102
}
330
A802
100
AcDbXrecord
280
     1
102
RTVSPost2010Prop28
280
     0
102
RTVSPost2010PropOp28
 70
     1
102
RTVSPost2010Prop29
280
     1
102
RTVSPost2010PropOp29
 70
     1
102
RTVSPost2010Prop30
280
     1
102
RTVSPost2010PropOp30
 70
     1
102
RTVSPost2010Prop31
280
     0
102
RTVSPost2010PropOp31
 70
     1
102
RTVSPost2010Prop32
280
     0
102
RTVSPost2010PropOp32
 70
     1
102
RTVSPost2010Prop33
280
     0
102
RTVSPost2010PropOp33
 70
     1
102
RTVSPost2010Prop34
280
     0
102
RTVSPost2010PropOp34
 70
     1
102
RTVSPost2010Prop35
280
     0
102
RTVSPost2010PropOp35
 70
     1
102
RTVSPost2010Prop36
280
     0
102
RTVSPost2010PropOp36
 70
     1
102
RTVSPost2010Prop37
 90
       50
102
RTVSPost2010PropOp37
 70
     1
102
RTVSPost2010Prop38
140
0.0
102
RTVSPost2010PropOp38
 70
     1
102
RTVSPost2010Prop39
140
1.0
102
RTVSPost2010PropOp39
 70
     1
102
RTVSPost2010Prop40
 90
        0
102
RTVSPost2010PropOp40
 70
     1
102
RTVSPost2010Prop41ColorIndex
 90
       18
102
RTVSPost2010Prop41ColorRGB
 90
        0
102
RTVSPost2010PropOp41
 70
     1
102
RTVSPost2010Prop42
 90
       50
102
RTVSPost2010PropOp42
 70
     1
102
RTVSPost2010Prop43
 90
        3
102
RTVSPost2010PropOp43
 70
     1
102
RTVSPost2010Prop44ColorIndex
 90
        5
102
RTVSPost2010Prop44ColorRGB
 90
      255
102
RTVSPost2010PropOp44
 70
     1
102
RTVSPost2010Prop45
280
     0
102
RTVSPost2010PropOp45
 70
     1
102
RTVSPost2010Prop46
 90
       50
102
RTVSPost2010PropOp46
 70
     1
102
RTVSPost2010Prop47
 90
       50
102
RTVSPost2010PropOp47
 70
     1
102
RTVSPost2010Prop48
 90
       50
102
RTVSPost2010PropOp48
 70
     1
102
RTVSPost2010Prop49
280
     0
102
RTVSPost2010PropOp49
 70
     1
102
RTVSPost2010Prop50
 90
       50
102
RTVSPost2010PropOp50
 70
     1
102
RTVSPost2010Prop51ColorIndex
 90
      256
102
RTVSPost2010Prop51ColorRGB
 90
-16777216
102
RTVSPost2010PropOp51
 70
     0
102
RTVSPost2010Prop52
140
1.0
102
RTVSPost2010PropOp52
 70
     0
102
RTVSPost2010Prop53
 90
        2
102
RTVSPost2010PropOp53
 70
     1
102
RTVSPost2010Prop54
  1
strokes_ogs.tif
102
RTVSPost2010PropOp54
 70
     1
102
RTVSPost2010Prop55
280
     0
102
RTVSPost2010PropOp55
 70
     1
102
RTVSPost2010Prop56
140
1.0
102
RTVSPost2010PropOp56
 70
     1
102
RTVSPost2010Prop57
140
1.0
102
RTVSPost2010PropOp57
 70
     1
102
RTVSPropertyOp0
 70
     1
102
RTVSPropertyOp1
 70
     1
102
RTVSPropertyOp2
 70
     1
102
RTVSPropertyOp3
 70
     1
102
RTVSPropertyOp4
 70
     1
102
RTVSPropertyOp5
 70
     1
102
RTVSPropertyOp6
 70
     1
102
RTVSPropertyOp7
 70
     1
102
RTVSPropertyOp8
 70
     1
102
RTVSPropertyOp9
 70
     1
102
RTVSPropertyOp10
 70
     1
102
RTVSPropertyOp11
 70
     1
102
RTVSPropertyOp12
 70
     1
102
RTVSPropertyOp13
 70
     1
102
RTVSPropertyOp14
 70
     1
102
RTVSPropertyOp15
 70
     1
102
RTVSPropertyOp16
 70
     1
102
RTVSPropertyOp17
 70
     1
102
RTVSPropertyOp18
 70
     1
102
RTVSPropertyOp19
 70
     1
102
RTVSPropertyOp20
 70
     1
102
RTVSPropertyOp21
 70
     1
102
RTVSPropertyOp22
 70
     1
102
RTVSPropertyOp23
 70
     1
102
RTVSPropertyOp24
 70
     1
102
RTVSPropertyOp25
 70
     1
102
RTVSPropertyOp26
 70
     1
102
RTVSPropertyOp27
 70
     1
102
RTVSPropertyOp28
 70
     1
102
RTVSPropertyOp29
 70
     1
102
RTVSPropertyOp30
 70
     1
102
RTVSPropertyOp31
 70
     1
102
RTVSPropertyOp32
 70
     1
102
RTVSPropertyOp33
 70
     1
102
RTVSPropertyOp34
 70
     1
102
RTVSPropertyOp35
 70
     1
102
RTVSPropertyOp36
 70
     1
102
RTVSPropertyOp37
 70
     1
102
RTVSPropertyOp38
 70
     1
102
RTVSPropertyOp39
 70
     1
102
RTVSPropertyOp40
 70
     1
102
RTVSPropertyOp41
 70
     1
102
RTVSPropertyOp42
 70
     1
102
RTVSPropertyOp43
 70
     1
102
RTVSPropertyOp44
 70
     1
102
RTVSPropertyOp45
 70
     1
102
RTVSPropertyOp46
 70
     1
102
RTVSPropertyOp47
 70
     1
102
RTVSPropertyOp48
 70
     1
102
RTVSPropertyOp49
 70
     1
102
RTVSPropertyOp50
 70
     1
102
RTVSPropertyOp51
 70
     0
102
RTVSPropertyOp52
 70
     0
102
RTVSPropertyOp53
 70
     1
102
RTVSPropertyOp54
 70
     1
102
RTVSPropertyOp55
 70
     1
102
RTVSPropertyOp56
 70
     1
102
RTVSPropertyOp57
 70
     1
102
RTVSPropertyOp58
 70
     1
102
RTVSPropertyOp59
 70
     1
102
RTVSPropertyOp60
 70
     1
102
RTVSPropertyOp61
 70
     1
102
RTVSPropertyOp62
 70
     1
  0
XRECORD
  5
A805
102
{ACAD_REACTORS
330
A804
102
}
330
A804
100
AcDbXrecord
280
     1
102
RTVSPost2010Prop28
280
     0
102
RTVSPost2010PropOp28
 70
     1
102
RTVSPost2010Prop29
280
     1
102
RTVSPost2010PropOp29
 70
     1
102
RTVSPost2010Prop30
280
     1
102
RTVSPost2010PropOp30
 70
     1
102
RTVSPost2010Prop31
280
     0
102
RTVSPost2010PropOp31
 70
     1
102
RTVSPost2010Prop32
280
     0
102
RTVSPost2010PropOp32
 70
     1
102
RTVSPost2010Prop33
280
     0
102
RTVSPost2010PropOp33
 70
     1
102
RTVSPost2010Prop34
280
     0
102
RTVSPost2010PropOp34
 70
     1
102
RTVSPost2010Prop35
280
     0
102
RTVSPost2010PropOp35
 70
     1
102
RTVSPost2010Prop36
280
     0
102
RTVSPost2010PropOp36
 70
     1
102
RTVSPost2010Prop37
 90
       50
102
RTVSPost2010PropOp37
 70
     1
102
RTVSPost2010Prop38
140
0.0
102
RTVSPost2010PropOp38
 70
     1
102
RTVSPost2010Prop39
140
1.0
102
RTVSPost2010PropOp39
 70
     1
102
RTVSPost2010Prop40
 90
        0
102
RTVSPost2010PropOp40
 70
     1
102
RTVSPost2010Prop41ColorIndex
 90
       18
102
RTVSPost2010Prop41ColorRGB
 90
        0
102
RTVSPost2010PropOp41
 70
     1
102
RTVSPost2010Prop42
 90
       50
102
RTVSPost2010PropOp42
 70
     1
102
RTVSPost2010Prop43
 90
        3
102
RTVSPost2010PropOp43
 70
     1
102
RTVSPost2010Prop44ColorIndex
 90
        5
102
RTVSPost2010Prop44ColorRGB
 90
      255
102
RTVSPost2010PropOp44
 70
     1
102
RTVSPost2010Prop45
280
     0
102
RTVSPost2010PropOp45
 70
     1
102
RTVSPost2010Prop46
 90
       50
102
RTVSPost2010PropOp46
 70
     1
102
RTVSPost2010Prop47
 90
       50
102
RTVSPost2010PropOp47
 70
     1
102
RTVSPost2010Prop48
 90
       50
102
RTVSPost2010PropOp48
 70
     1
102
RTVSPost2010Prop49
280
     0
102
RTVSPost2010PropOp49
 70
     1
102
RTVSPost2010Prop50
 90
       50
102
RTVSPost2010PropOp50
 70
     1
102
RTVSPost2010Prop51ColorIndex
 90
      256
102
RTVSPost2010Prop51ColorRGB
 90
-16777216
102
RTVSPost2010PropOp51
 70
     0
102
RTVSPost2010Prop52
140
1.0
102
RTVSPost2010PropOp52
 70
     0
102
RTVSPost2010Prop53
 90
        2
102
RTVSPost2010PropOp53
 70
     1
102
RTVSPost2010Prop54
  1
strokes_ogs.tif
102
RTVSPost2010PropOp54
 70
     1
102
RTVSPost2010Prop55
280
     0
102
RTVSPost2010PropOp55
 70
     1
102
RTVSPost2010Prop56
140
1.0
102
RTVSPost2010PropOp56
 70
     1
102
RTVSPost2010Prop57
140
1.0
102
RTVSPost2010PropOp57
 70
     1
102
RTVSPropertyOp0
 70
     1
102
RTVSPropertyOp1
 70
     1
102
RTVSPropertyOp2
 70
     1
102
RTVSPropertyOp3
 70
     1
102
RTVSPropertyOp4
 70
     1
102
RTVSPropertyOp5
 70
     1
102
RTVSPropertyOp6
 70
     1
102
RTVSPropertyOp7
 70
     1
102
RTVSPropertyOp8
 70
     1
102
RTVSPropertyOp9
 70
     1
102
RTVSPropertyOp10
 70
     1
102
RTVSPropertyOp11
 70
     1
102
RTVSPropertyOp12
 70
     1
102
RTVSPropertyOp13
 70
     1
102
RTVSPropertyOp14
 70
     1
102
RTVSPropertyOp15
 70
     1
102
RTVSPropertyOp16
 70
     1
102
RTVSPropertyOp17
 70
     1
102
RTVSPropertyOp18
 70
     1
102
RTVSPropertyOp19
 70
     1
102
RTVSPropertyOp20
 70
     1
102
RTVSPropertyOp21
 70
     1
102
RTVSPropertyOp22
 70
     1
102
RTVSPropertyOp23
 70
     1
102
RTVSPropertyOp24
 70
     1
102
RTVSPropertyOp25
 70
     1
102
RTVSPropertyOp26
 70
     1
102
RTVSPropertyOp27
 70
     1
102
RTVSPropertyOp28
 70
     1
102
RTVSPropertyOp29
 70
     1
102
RTVSPropertyOp30
 70
     1
102
RTVSPropertyOp31
 70
     1
102
RTVSPropertyOp32
 70
     1
102
RTVSPropertyOp33
 70
     1
102
RTVSPropertyOp34
 70
     1
102
RTVSPropertyOp35
 70
     1
102
RTVSPropertyOp36
 70
     1
102
RTVSPropertyOp37
 70
     1
102
RTVSPropertyOp38
 70
     1
102
RTVSPropertyOp39
 70
     1
102
RTVSPropertyOp40
 70
     1
102
RTVSPropertyOp41
 70
     1
102
RTVSPropertyOp42
 70
     1
102
RTVSPropertyOp43
 70
     1
102
RTVSPropertyOp44
 70
     1
102
RTVSPropertyOp45
 70
     1
102
RTVSPropertyOp46
 70
     1
102
RTVSPropertyOp47
 70
     1
102
RTVSPropertyOp48
 70
     1
102
RTVSPropertyOp49
 70
     1
102
RTVSPropertyOp50
 70
     1
102
RTVSPropertyOp51
 70
     0
102
RTVSPropertyOp52
 70
     0
102
RTVSPropertyOp53
 70
     1
102
RTVSPropertyOp54
 70
     1
102
RTVSPropertyOp55
 70
     1
102
RTVSPropertyOp56
 70
     1
102
RTVSPropertyOp57
 70
     1
102
RTVSPropertyOp58
 70
     1
102
RTVSPropertyOp59
 70
     1
102
RTVSPropertyOp60
 70
     1
102
RTVSPropertyOp61
 70
     1
102
RTVSPropertyOp62
 70
     1
  0
XRECORD
  5
A807
102
{ACAD_REACTORS
330
A806
102
}
330
A806
100
AcDbXrecord
280
     1
102
RTVSPost2010Prop28
280
     0
102
RTVSPost2010PropOp28
 70
     1
102
RTVSPost2010Prop29
280
     1
102
RTVSPost2010PropOp29
 70
     1
102
RTVSPost2010Prop30
280
     1
102
RTVSPost2010PropOp30
 70
     1
102
RTVSPost2010Prop31
280
     0
102
RTVSPost2010PropOp31
 70
     1
102
RTVSPost2010Prop32
280
     0
102
RTVSPost2010PropOp32
 70
     1
102
RTVSPost2010Prop33
280
     0
102
RTVSPost2010PropOp33
 70
     1
102
RTVSPost2010Prop34
280
     0
102
RTVSPost2010PropOp34
 70
     1
102
RTVSPost2010Prop35
280
     0
102
RTVSPost2010PropOp35
 70
     1
102
RTVSPost2010Prop36
280
     0
102
RTVSPost2010PropOp36
 70
     1
102
RTVSPost2010Prop37
 90
       50
102
RTVSPost2010PropOp37
 70
     1
102
RTVSPost2010Prop38
140
0.0
102
RTVSPost2010PropOp38
 70
     1
102
RTVSPost2010Prop39
140
1.0
102
RTVSPost2010PropOp39
 70
     1
102
RTVSPost2010Prop40
 90
        0
102
RTVSPost2010PropOp40
 70
     1
102
RTVSPost2010Prop41ColorIndex
 90
       18
102
RTVSPost2010Prop41ColorRGB
 90
        0
102
RTVSPost2010PropOp41
 70
     1
102
RTVSPost2010Prop42
 90
       50
102
RTVSPost2010PropOp42
 70
     1
102
RTVSPost2010Prop43
 90
        3
102
RTVSPost2010PropOp43
 70
     1
102
RTVSPost2010Prop44ColorIndex
 90
        5
102
RTVSPost2010Prop44ColorRGB
 90
      255
102
RTVSPost2010PropOp44
 70
     1
102
RTVSPost2010Prop45
280
     0
102
RTVSPost2010PropOp45
 70
     1
102
RTVSPost2010Prop46
 90
       50
102
RTVSPost2010PropOp46
 70
     1
102
RTVSPost2010Prop47
 90
       50
102
RTVSPost2010PropOp47
 70
     1
102
RTVSPost2010Prop48
 90
       50
102
RTVSPost2010PropOp48
 70
     1
102
RTVSPost2010Prop49
280
     0
102
RTVSPost2010PropOp49
 70
     1
102
RTVSPost2010Prop50
 90
       50
102
RTVSPost2010PropOp50
 70
     1
102
RTVSPost2010Prop51ColorIndex
 90
      256
102
RTVSPost2010Prop51ColorRGB
 90
-16777216
102
RTVSPost2010PropOp51
 70
     0
102
RTVSPost2010Prop52
140
1.0
102
RTVSPost2010PropOp52
 70
     0
102
RTVSPost2010Prop53
 90
        2
102
RTVSPost2010PropOp53
 70
     1
102
RTVSPost2010Prop54
  1
strokes_ogs.tif
102
RTVSPost2010PropOp54
 70
     1
102
RTVSPost2010Prop55
280
     0
102
RTVSPost2010PropOp55
 70
     1
102
RTVSPost2010Prop56
140
1.0
102
RTVSPost2010PropOp56
 70
     1
102
RTVSPost2010Prop57
140
1.0
102
RTVSPost2010PropOp57
 70
     1
102
RTVSPropertyOp0
 70
     1
102
RTVSPropertyOp1
 70
     1
102
RTVSPropertyOp2
 70
     1
102
RTVSPropertyOp3
 70
     1
102
RTVSPropertyOp4
 70
     1
102
RTVSPropertyOp5
 70
     1
102
RTVSPropertyOp6
 70
     1
102
RTVSPropertyOp7
 70
     1
102
RTVSPropertyOp8
 70
     1
102
RTVSPropertyOp9
 70
     1
102
RTVSPropertyOp10
 70
     1
102
RTVSPropertyOp11
 70
     1
102
RTVSPropertyOp12
 70
     1
102
RTVSPropertyOp13
 70
     1
102
RTVSPropertyOp14
 70
     1
102
RTVSPropertyOp15
 70
     1
102
RTVSPropertyOp16
 70
     1
102
RTVSPropertyOp17
 70
     1
102
RTVSPropertyOp18
 70
     1
102
RTVSPropertyOp19
 70
     1
102
RTVSPropertyOp20
 70
     1
102
RTVSPropertyOp21
 70
     1
102
RTVSPropertyOp22
 70
     1
102
RTVSPropertyOp23
 70
     1
102
RTVSPropertyOp24
 70
     1
102
RTVSPropertyOp25
 70
     1
102
RTVSPropertyOp26
 70
     1
102
RTVSPropertyOp27
 70
     1
102
RTVSPropertyOp28
 70
     1
102
RTVSPropertyOp29
 70
     1
102
RTVSPropertyOp30
 70
     1
102
RTVSPropertyOp31
 70
     1
102
RTVSPropertyOp32
 70
     1
102
RTVSPropertyOp33
 70
     1
102
RTVSPropertyOp34
 70
     1
102
RTVSPropertyOp35
 70
     1
102
RTVSPropertyOp36
 70
     1
102
RTVSPropertyOp37
 70
     1
102
RTVSPropertyOp38
 70
     1
102
RTVSPropertyOp39
 70
     1
102
RTVSPropertyOp40
 70
     1
102
RTVSPropertyOp41
 70
     1
102
RTVSPropertyOp42
 70
     1
102
RTVSPropertyOp43
 70
     1
102
RTVSPropertyOp44
 70
     1
102
RTVSPropertyOp45
 70
     1
102
RTVSPropertyOp46
 70
     1
102
RTVSPropertyOp47
 70
     1
102
RTVSPropertyOp48
 70
     1
102
RTVSPropertyOp49
 70
     1
102
RTVSPropertyOp50
 70
     1
102
RTVSPropertyOp51
 70
     0
102
RTVSPropertyOp52
 70
     0
102
RTVSPropertyOp53
 70
     1
102
RTVSPropertyOp54
 70
     1
102
RTVSPropertyOp55
 70
     1
102
RTVSPropertyOp56
 70
     1
102
RTVSPropertyOp57
 70
     1
102
RTVSPropertyOp58
 70
     1
102
RTVSPropertyOp59
 70
     1
102
RTVSPropertyOp60
 70
     1
102
RTVSPropertyOp61
 70
     1
102
RTVSPropertyOp62
 70
     1
  0
XRECORD
  5
A809
102
{ACAD_REACTORS
330
A808
102
}
330
A808
100
AcDbXrecord
280
     1
102
RTVSPost2010Prop28
280
     0
102
RTVSPost2010PropOp28
 70
     1
102
RTVSPost2010Prop29
280
     1
102
RTVSPost2010PropOp29
 70
     1
102
RTVSPost2010Prop30
280
     1
102
RTVSPost2010PropOp30
 70
     1
102
RTVSPost2010Prop31
280
     0
102
RTVSPost2010PropOp31
 70
     1
102
RTVSPost2010Prop32
280
     0
102
RTVSPost2010PropOp32
 70
     1
102
RTVSPost2010Prop33
280
     0
102
RTVSPost2010PropOp33
 70
     1
102
RTVSPost2010Prop34
280
     0
102
RTVSPost2010PropOp34
 70
     1
102
RTVSPost2010Prop35
280
     0
102
RTVSPost2010PropOp35
 70
     1
102
RTVSPost2010Prop36
280
     0
102
RTVSPost2010PropOp36
 70
     1
102
RTVSPost2010Prop37
 90
       50
102
RTVSPost2010PropOp37
 70
     1
102
RTVSPost2010Prop38
140
0.0
102
RTVSPost2010PropOp38
 70
     1
102
RTVSPost2010Prop39
140
1.0
102
RTVSPost2010PropOp39
 70
     1
102
RTVSPost2010Prop40
 90
        0
102
RTVSPost2010PropOp40
 70
     1
102
RTVSPost2010Prop41ColorIndex
 90
       18
102
RTVSPost2010Prop41ColorRGB
 90
        0
102
RTVSPost2010PropOp41
 70
     1
102
RTVSPost2010Prop42
 90
       50
102
RTVSPost2010PropOp42
 70
     1
102
RTVSPost2010Prop43
 90
        3
102
RTVSPost2010PropOp43
 70
     1
102
RTVSPost2010Prop44ColorIndex
 90
        5
102
RTVSPost2010Prop44ColorRGB
 90
      255
102
RTVSPost2010PropOp44
 70
     1
102
RTVSPost2010Prop45
280
     0
102
RTVSPost2010PropOp45
 70
     1
102
RTVSPost2010Prop46
 90
       50
102
RTVSPost2010PropOp46
 70
     1
102
RTVSPost2010Prop47
 90
       50
102
RTVSPost2010PropOp47
 70
     1
102
RTVSPost2010Prop48
 90
       50
102
RTVSPost2010PropOp48
 70
     1
102
RTVSPost2010Prop49
280
     0
102
RTVSPost2010PropOp49
 70
     1
102
RTVSPost2010Prop50
 90
       50
102
RTVSPost2010PropOp50
 70
     1
102
RTVSPost2010Prop51ColorIndex
 90
      256
102
RTVSPost2010Prop51ColorRGB
 90
-16777216
102
RTVSPost2010PropOp51
 70
     0
102
RTVSPost2010Prop52
140
1.0
102
RTVSPost2010PropOp52
 70
     0
102
RTVSPost2010Prop53
 90
        2
102
RTVSPost2010PropOp53
 70
     1
102
RTVSPost2010Prop54
  1
strokes_ogs.tif
102
RTVSPost2010PropOp54
 70
     1
102
RTVSPost2010Prop55
280
     0
102
RTVSPost2010PropOp55
 70
     1
102
RTVSPost2010Prop56
140
1.0
102
RTVSPost2010PropOp56
 70
     1
102
RTVSPost2010Prop57
140
1.0
102
RTVSPost2010PropOp57
 70
     1
102
RTVSPropertyOp0
 70
     1
102
RTVSPropertyOp1
 70
     1
102
RTVSPropertyOp2
 70
     1
102
RTVSPropertyOp3
 70
     1
102
RTVSPropertyOp4
 70
     1
102
RTVSPropertyOp5
 70
     1
102
RTVSPropertyOp6
 70
     1
102
RTVSPropertyOp7
 70
     1
102
RTVSPropertyOp8
 70
     1
102
RTVSPropertyOp9
 70
     1
102
RTVSPropertyOp10
 70
     1
102
RTVSPropertyOp11
 70
     1
102
RTVSPropertyOp12
 70
     1
102
RTVSPropertyOp13
 70
     1
102
RTVSPropertyOp14
 70
     1
102
RTVSPropertyOp15
 70
     1
102
RTVSPropertyOp16
 70
     1
102
RTVSPropertyOp17
 70
     1
102
RTVSPropertyOp18
 70
     1
102
RTVSPropertyOp19
 70
     1
102
RTVSPropertyOp20
 70
     1
102
RTVSPropertyOp21
 70
     1
102
RTVSPropertyOp22
 70
     1
102
RTVSPropertyOp23
 70
     1
102
RTVSPropertyOp24
 70
     1
102
RTVSPropertyOp25
 70
     1
102
RTVSPropertyOp26
 70
     1
102
RTVSPropertyOp27
 70
     1
102
RTVSPropertyOp28
 70
     1
102
RTVSPropertyOp29
 70
     1
102
RTVSPropertyOp30
 70
     1
102
RTVSPropertyOp31
 70
     1
102
RTVSPropertyOp32
 70
     1
102
RTVSPropertyOp33
 70
     1
102
RTVSPropertyOp34
 70
     1
102
RTVSPropertyOp35
 70
     1
102
RTVSPropertyOp36
 70
     1
102
RTVSPropertyOp37
 70
     1
102
RTVSPropertyOp38
 70
     1
102
RTVSPropertyOp39
 70
     1
102
RTVSPropertyOp40
 70
     1
102
RTVSPropertyOp41
 70
     1
102
RTVSPropertyOp42
 70
     1
102
RTVSPropertyOp43
 70
     1
102
RTVSPropertyOp44
 70
     1
102
RTVSPropertyOp45
 70
     1
102
RTVSPropertyOp46
 70
     1
102
RTVSPropertyOp47
 70
     1
102
RTVSPropertyOp48
 70
     1
102
RTVSPropertyOp49
 70
     1
102
RTVSPropertyOp50
 70
     1
102
RTVSPropertyOp51
 70
     0
102
RTVSPropertyOp52
 70
     0
102
RTVSPropertyOp53
 70
     1
102
RTVSPropertyOp54
 70
     1
102
RTVSPropertyOp55
 70
     1
102
RTVSPropertyOp56
 70
     1
102
RTVSPropertyOp57
 70
     1
102
RTVSPropertyOp58
 70
     1
102
RTVSPropertyOp59
 70
     1
102
RTVSPropertyOp60
 70
     1
102
RTVSPropertyOp61
 70
     1
102
RTVSPropertyOp62
 70
     1
  0
XRECORD
  5
A811
102
{ACAD_REACTORS
330
A810
102
}
330
A810
100
AcDbXrecord
280
     1
102
RTVSPost2010Prop28
280
     0
102
RTVSPost2010PropOp28
 70
     1
102
RTVSPost2010Prop29
280
     1
102
RTVSPost2010PropOp29
 70
     1
102
RTVSPost2010Prop30
280
     1
102
RTVSPost2010PropOp30
 70
     1
102
RTVSPost2010Prop31
280
     0
102
RTVSPost2010PropOp31
 70
     1
102
RTVSPost2010Prop32
280
     0
102
RTVSPost2010PropOp32
 70
     1
102
RTVSPost2010Prop33
280
     0
102
RTVSPost2010PropOp33
 70
     1
102
RTVSPost2010Prop34
280
     0
102
RTVSPost2010PropOp34
 70
     1
102
RTVSPost2010Prop35
280
     0
102
RTVSPost2010PropOp35
 70
     1
102
RTVSPost2010Prop36
280
     0
102
RTVSPost2010PropOp36
 70
     1
102
RTVSPost2010Prop37
 90
       50
102
RTVSPost2010PropOp37
 70
     1
102
RTVSPost2010Prop38
140
0.0
102
RTVSPost2010PropOp38
 70
     1
102
RTVSPost2010Prop39
140
1.0
102
RTVSPost2010PropOp39
 70
     1
102
RTVSPost2010Prop40
 90
        0
102
RTVSPost2010PropOp40
 70
     1
102
RTVSPost2010Prop41ColorIndex
 90
       18
102
RTVSPost2010Prop41ColorRGB
 90
        0
102
RTVSPost2010PropOp41
 70
     1
102
RTVSPost2010Prop42
 90
       50
102
RTVSPost2010PropOp42
 70
     1
102
RTVSPost2010Prop43
 90
        3
102
RTVSPost2010PropOp43
 70
     1
102
RTVSPost2010Prop44ColorIndex
 90
        5
102
RTVSPost2010Prop44ColorRGB
 90
      255
102
RTVSPost2010PropOp44
 70
     1
102
RTVSPost2010Prop45
280
     0
102
RTVSPost2010PropOp45
 70
     1
102
RTVSPost2010Prop46
 90
       50
102
RTVSPost2010PropOp46
 70
     1
102
RTVSPost2010Prop47
 90
       50
102
RTVSPost2010PropOp47
 70
     1
102
RTVSPost2010Prop48
 90
       50
102
RTVSPost2010PropOp48
 70
     1
102
RTVSPost2010Prop49
280
     0
102
RTVSPost2010PropOp49
 70
     1
102
RTVSPost2010Prop50
 90
       50
102
RTVSPost2010PropOp50
 70
     1
102
RTVSPost2010Prop51ColorIndex
 90
      256
102
RTVSPost2010Prop51ColorRGB
 90
-16777216
102
RTVSPost2010PropOp51
 70
     0
102
RTVSPost2010Prop52
140
1.0
102
RTVSPost2010PropOp52
 70
     0
102
RTVSPost2010Prop53
 90
        2
102
RTVSPost2010PropOp53
 70
     1
102
RTVSPost2010Prop54
  1
strokes_ogs.tif
102
RTVSPost2010PropOp54
 70
     1
102
RTVSPost2010Prop55
280
     0
102
RTVSPost2010PropOp55
 70
     1
102
RTVSPost2010Prop56
140
1.0
102
RTVSPost2010PropOp56
 70
     1
102
RTVSPost2010Prop57
140
1.0
102
RTVSPost2010PropOp57
 70
     1
102
RTVSPropertyOp0
 70
     1
102
RTVSPropertyOp1
 70
     1
102
RTVSPropertyOp2
 70
     1
102
RTVSPropertyOp3
 70
     1
102
RTVSPropertyOp4
 70
     1
102
RTVSPropertyOp5
 70
     1
102
RTVSPropertyOp6
 70
     1
102
RTVSPropertyOp7
 70
     1
102
RTVSPropertyOp8
 70
     1
102
RTVSPropertyOp9
 70
     1
102
RTVSPropertyOp10
 70
     1
102
RTVSPropertyOp11
 70
     1
102
RTVSPropertyOp12
 70
     1
102
RTVSPropertyOp13
 70
     1
102
RTVSPropertyOp14
 70
     1
102
RTVSPropertyOp15
 70
     1
102
RTVSPropertyOp16
 70
     1
102
RTVSPropertyOp17
 70
     1
102
RTVSPropertyOp18
 70
     1
102
RTVSPropertyOp19
 70
     1
102
RTVSPropertyOp20
 70
     1
102
RTVSPropertyOp21
 70
     1
102
RTVSPropertyOp22
 70
     1
102
RTVSPropertyOp23
 70
     1
102
RTVSPropertyOp24
 70
     1
102
RTVSPropertyOp25
 70
     1
102
RTVSPropertyOp26
 70
     1
102
RTVSPropertyOp27
 70
     1
102
RTVSPropertyOp28
 70
     1
102
RTVSPropertyOp29
 70
     1
102
RTVSPropertyOp30
 70
     1
102
RTVSPropertyOp31
 70
     1
102
RTVSPropertyOp32
 70
     1
102
RTVSPropertyOp33
 70
     1
102
RTVSPropertyOp34
 70
     1
102
RTVSPropertyOp35
 70
     1
102
RTVSPropertyOp36
 70
     1
102
RTVSPropertyOp37
 70
     1
102
RTVSPropertyOp38
 70
     1
102
RTVSPropertyOp39
 70
     1
102
RTVSPropertyOp40
 70
     1
102
RTVSPropertyOp41
 70
     1
102
RTVSPropertyOp42
 70
     1
102
RTVSPropertyOp43
 70
     1
102
RTVSPropertyOp44
 70
     1
102
RTVSPropertyOp45
 70
     1
102
RTVSPropertyOp46
 70
     1
102
RTVSPropertyOp47
 70
     1
102
RTVSPropertyOp48
 70
     1
102
RTVSPropertyOp49
 70
     1
102
RTVSPropertyOp50
 70
     1
102
RTVSPropertyOp51
 70
     0
102
RTVSPropertyOp52
 70
     0
102
RTVSPropertyOp53
 70
     1
102
RTVSPropertyOp54
 70
     1
102
RTVSPropertyOp55
 70
     1
102
RTVSPropertyOp56
 70
     1
102
RTVSPropertyOp57
 70
     1
102
RTVSPropertyOp58
 70
     1
102
RTVSPropertyOp59
 70
     1
102
RTVSPropertyOp60
 70
     1
102
RTVSPropertyOp61
 70
     1
102
RTVSPropertyOp62
 70
     1
  0
XRECORD
  5
A82D
102
{ACAD_REACTORS
330
A82C
102
}
330
A82C
100
AcDbXrecord
280
     1
102
RTVSPost2010Prop28
280
     0
102
RTVSPost2010PropOp28
 70
     1
102
RTVSPost2010Prop29
280
     1
102
RTVSPost2010PropOp29
 70
     1
102
RTVSPost2010Prop30
280
     1
102
RTVSPost2010PropOp30
 70
     1
102
RTVSPost2010Prop31
280
     0
102
RTVSPost2010PropOp31
 70
     1
102
RTVSPost2010Prop32
280
     0
102
RTVSPost2010PropOp32
 70
     1
102
RTVSPost2010Prop33
280
     0
102
RTVSPost2010PropOp33
 70
     1
102
RTVSPost2010Prop34
280
     0
102
RTVSPost2010PropOp34
 70
     1
102
RTVSPost2010Prop35
280
     0
102
RTVSPost2010PropOp35
 70
     1
102
RTVSPost2010Prop36
280
     0
102
RTVSPost2010PropOp36
 70
     1
102
RTVSPost2010Prop37
 90
       50
102
RTVSPost2010PropOp37
 70
     0
102
RTVSPost2010Prop38
140
0.0
102
RTVSPost2010PropOp38
 70
     0
102
RTVSPost2010Prop39
140
1.0
102
RTVSPost2010PropOp39
 70
     0
102
RTVSPost2010Prop40
 90
        0
102
RTVSPost2010PropOp40
 70
     0
102
RTVSPost2010Prop41ColorIndex
 90
       18
102
RTVSPost2010Prop41ColorRGB
 90
        0
102
RTVSPost2010PropOp41
 70
     0
102
RTVSPost2010Prop42
 90
       50
102
RTVSPost2010PropOp42
 70
     0
102
RTVSPost2010Prop43
 90
        3
102
RTVSPost2010PropOp43
 70
     0
102
RTVSPost2010Prop44ColorIndex
 90
        5
102
RTVSPost2010Prop44ColorRGB
 90
      255
102
RTVSPost2010PropOp44
 70
     0
102
RTVSPost2010Prop45
280
     0
102
RTVSPost2010PropOp45
 70
     1
102
RTVSPost2010Prop46
 90
       50
102
RTVSPost2010PropOp46
 70
     0
102
RTVSPost2010Prop47
 90
       50
102
RTVSPost2010PropOp47
 70
     0
102
RTVSPost2010Prop48
 90
       50
102
RTVSPost2010PropOp48
 70
     0
102
RTVSPost2010Prop49
280
     0
102
RTVSPost2010PropOp49
 70
     1
102
RTVSPost2010Prop50
 90
       50
102
RTVSPost2010PropOp50
 70
     0
102
RTVSPost2010Prop51ColorIndex
 90
      256
102
RTVSPost2010Prop51ColorRGB
 90
-16777216
102
RTVSPost2010PropOp51
 70
     0
102
RTVSPost2010Prop52
140
1.0
102
RTVSPost2010PropOp52
 70
     0
102
RTVSPost2010Prop53
 90
        2
102
RTVSPost2010PropOp53
 70
     0
102
RTVSPost2010Prop54
  1
strokes_ogs.tif
102
RTVSPost2010PropOp54
 70
     0
102
RTVSPost2010Prop55
280
     0
102
RTVSPost2010PropOp55
 70
     1
102
RTVSPost2010Prop56
140
1.0
102
RTVSPost2010PropOp56
 70
     0
102
RTVSPost2010Prop57
140
1.0
102
RTVSPost2010PropOp57
 70
     0
102
RTVSPropertyOp0
 70
     0
102
RTVSPropertyOp1
 70
     0
102
RTVSPropertyOp2
 70
     0
102
RTVSPropertyOp3
 70
     0
102
RTVSPropertyOp4
 70
     0
102
RTVSPropertyOp5
 70
     0
102
RTVSPropertyOp6
 70
     0
102
RTVSPropertyOp7
 70
     0
102
RTVSPropertyOp8
 70
     0
102
RTVSPropertyOp9
 70
     0
102
RTVSPropertyOp10
 70
     0
102
RTVSPropertyOp11
 70
     0
102
RTVSPropertyOp12
 70
     0
102
RTVSPropertyOp13
 70
     0
102
RTVSPropertyOp14
 70
     2
102
RTVSPropertyOp15
 70
     0
102
RTVSPropertyOp16
 70
     0
102
RTVSPropertyOp17
 70
     0
102
RTVSPropertyOp18
 70
     0
102
RTVSPropertyOp19
 70
     0
102
RTVSPropertyOp20
 70
     0
102
RTVSPropertyOp21
 70
     0
102
RTVSPropertyOp22
 70
     0
102
RTVSPropertyOp23
 70
     0
102
RTVSPropertyOp24
 70
     0
102
RTVSPropertyOp25
 70
     0
102
RTVSPropertyOp26
 70
     0
102
RTVSPropertyOp27
 70
     0
102
RTVSPropertyOp28
 70
     1
102
RTVSPropertyOp29
 70
     1
102
RTVSPropertyOp30
 70
     1
102
RTVSPropertyOp31
 70
     1
102
RTVSPropertyOp32
 70
     1
102
RTVSPropertyOp33
 70
     1
102
RTVSPropertyOp34
 70
     1
102
RTVSPropertyOp35
 70
     1
102
RTVSPropertyOp36
 70
     1
102
RTVSPropertyOp37
 70
     0
102
RTVSPropertyOp38
 70
     0
102
RTVSPropertyOp39
 70
     0
102
RTVSPropertyOp40
 70
     0
102
RTVSPropertyOp41
 70
     0
102
RTVSPropertyOp42
 70
     0
102
RTVSPropertyOp43
 70
     0
102
RTVSPropertyOp44
 70
     0
102
RTVSPropertyOp45
 70
     1
102
RTVSPropertyOp46
 70
     0
102
RTVSPropertyOp47
 70
     0
102
RTVSPropertyOp48
 70
     0
102
RTVSPropertyOp49
 70
     1
102
RTVSPropertyOp50
 70
     0
102
RTVSPropertyOp51
 70
     0
102
RTVSPropertyOp52
 70
     0
102
RTVSPropertyOp53
 70
     0
102
RTVSPropertyOp54
 70
     0
102
RTVSPropertyOp55
 70
     1
102
RTVSPropertyOp56
 70
     0
102
RTVSPropertyOp57
 70
     0
102
RTVSPropertyOp58
 70
     0
102
RTVSPropertyOp59
 70
     0
102
RTVSPropertyOp60
 70
     0
102
RTVSPropertyOp61
 70
     0
102
RTVSPropertyOp62
 70
     0
  0
XRECORD
  5
A81D
102
{ACAD_REACTORS
330
A81C
102
}
330
A81C
100
AcDbXrecord
280
     1
102
RTVSPost2010Prop28
280
     0
102
RTVSPost2010PropOp28
 70
     1
102
RTVSPost2010Prop29
280
     1
102
RTVSPost2010PropOp29
 70
     1
102
RTVSPost2010Prop30
280
     1
102
RTVSPost2010PropOp30
 70
     1
102
RTVSPost2010Prop31
280
     0
102
RTVSPost2010PropOp31
 70
     1
102
RTVSPost2010Prop32
280
     0
102
RTVSPost2010PropOp32
 70
     1
102
RTVSPost2010Prop33
280
     0
102
RTVSPost2010PropOp33
 70
     1
102
RTVSPost2010Prop34
280
     0
102
RTVSPost2010PropOp34
 70
     1
102
RTVSPost2010Prop35
280
     0
102
RTVSPost2010PropOp35
 70
     1
102
RTVSPost2010Prop36
280
     0
102
RTVSPost2010PropOp36
 70
     1
102
RTVSPost2010Prop37
 90
       50
102
RTVSPost2010PropOp37
 70
     1
102
RTVSPost2010Prop38
140
0.0
102
RTVSPost2010PropOp38
 70
     1
102
RTVSPost2010Prop39
140
1.0
102
RTVSPost2010PropOp39
 70
     1
102
RTVSPost2010Prop40
 90
        0
102
RTVSPost2010PropOp40
 70
     1
102
RTVSPost2010Prop41ColorIndex
 90
       18
102
RTVSPost2010Prop41ColorRGB
 90
        0
102
RTVSPost2010PropOp41
 70
     1
102
RTVSPost2010Prop42
 90
       50
102
RTVSPost2010PropOp42
 70
     1
102
RTVSPost2010Prop43
 90
        3
102
RTVSPost2010PropOp43
 70
     1
102
RTVSPost2010Prop44ColorIndex
 90
        5
102
RTVSPost2010Prop44ColorRGB
 90
      255
102
RTVSPost2010PropOp44
 70
     1
102
RTVSPost2010Prop45
280
     0
102
RTVSPost2010PropOp45
 70
     1
102
RTVSPost2010Prop46
 90
       50
102
RTVSPost2010PropOp46
 70
     1
102
RTVSPost2010Prop47
 90
       50
102
RTVSPost2010PropOp47
 70
     1
102
RTVSPost2010Prop48
 90
       50
102
RTVSPost2010PropOp48
 70
     1
102
RTVSPost2010Prop49
280
     0
102
RTVSPost2010PropOp49
 70
     1
102
RTVSPost2010Prop50
 90
       50
102
RTVSPost2010PropOp50
 70
     1
102
RTVSPost2010Prop51ColorIndex
 90
      256
102
RTVSPost2010Prop51ColorRGB
 90
-16777216
102
RTVSPost2010PropOp51
 70
     0
102
RTVSPost2010Prop52
140
1.0
102
RTVSPost2010PropOp52
 70
     0
102
RTVSPost2010Prop53
 90
        2
102
RTVSPost2010PropOp53
 70
     1
102
RTVSPost2010Prop54
  1
strokes_ogs.tif
102
RTVSPost2010PropOp54
 70
     1
102
RTVSPost2010Prop55
280
     0
102
RTVSPost2010PropOp55
 70
     1
102
RTVSPost2010Prop56
140
1.0
102
RTVSPost2010PropOp56
 70
     1
102
RTVSPost2010Prop57
140
1.0
102
RTVSPost2010PropOp57
 70
     1
102
RTVSPropertyOp0
 70
     1
102
RTVSPropertyOp1
 70
     1
102
RTVSPropertyOp2
 70
     1
102
RTVSPropertyOp3
 70
     1
102
RTVSPropertyOp4
 70
     1
102
RTVSPropertyOp5
 70
     1
102
RTVSPropertyOp6
 70
     1
102
RTVSPropertyOp7
 70
     1
102
RTVSPropertyOp8
 70
     1
102
RTVSPropertyOp9
 70
     1
102
RTVSPropertyOp10
 70
     1
102
RTVSPropertyOp11
 70
     1
102
RTVSPropertyOp12
 70
     1
102
RTVSPropertyOp13
 70
     1
102
RTVSPropertyOp14
 70
     1
102
RTVSPropertyOp15
 70
     1
102
RTVSPropertyOp16
 70
     1
102
RTVSPropertyOp17
 70
     1
102
RTVSPropertyOp18
 70
     1
102
RTVSPropertyOp19
 70
     1
102
RTVSPropertyOp20
 70
     1
102
RTVSPropertyOp21
 70
     1
102
RTVSPropertyOp22
 70
     1
102
RTVSPropertyOp23
 70
     1
102
RTVSPropertyOp24
 70
     1
102
RTVSPropertyOp25
 70
     1
102
RTVSPropertyOp26
 70
     1
102
RTVSPropertyOp27
 70
     1
102
RTVSPropertyOp28
 70
     1
102
RTVSPropertyOp29
 70
     1
102
RTVSPropertyOp30
 70
     1
102
RTVSPropertyOp31
 70
     1
102
RTVSPropertyOp32
 70
     1
102
RTVSPropertyOp33
 70
     1
102
RTVSPropertyOp34
 70
     1
102
RTVSPropertyOp35
 70
     1
102
RTVSPropertyOp36
 70
     1
102
RTVSPropertyOp37
 70
     1
102
RTVSPropertyOp38
 70
     1
102
RTVSPropertyOp39
 70
     1
102
RTVSPropertyOp40
 70
     1
102
RTVSPropertyOp41
 70
     1
102
RTVSPropertyOp42
 70
     1
102
RTVSPropertyOp43
 70
     1
102
RTVSPropertyOp44
 70
     1
102
RTVSPropertyOp45
 70
     1
102
RTVSPropertyOp46
 70
     1
102
RTVSPropertyOp47
 70
     1
102
RTVSPropertyOp48
 70
     1
102
RTVSPropertyOp49
 70
     1
102
RTVSPropertyOp50
 70
     1
102
RTVSPropertyOp51
 70
     0
102
RTVSPropertyOp52
 70
     0
102
RTVSPropertyOp53
 70
     1
102
RTVSPropertyOp54
 70
     1
102
RTVSPropertyOp55
 70
     1
102
RTVSPropertyOp56
 70
     1
102
RTVSPropertyOp57
 70
     1
102
RTVSPropertyOp58
 70
     1
102
RTVSPropertyOp59
 70
     1
102
RTVSPropertyOp60
 70
     1
102
RTVSPropertyOp61
 70
     1
102
RTVSPropertyOp62
 70
     1
  0
XRECORD
  5
A82F
102
{ACAD_REACTORS
330
A82E
102
}
330
A82E
100
AcDbXrecord
280
     1
102
RTVSPost2010Prop28
280
     0
102
RTVSPost2010PropOp28
 70
     1
102
RTVSPost2010Prop29
280
     1
102
RTVSPost2010PropOp29
 70
     1
102
RTVSPost2010Prop30
280
     1
102
RTVSPost2010PropOp30
 70
     1
102
RTVSPost2010Prop31
280
     0
102
RTVSPost2010PropOp31
 70
     1
102
RTVSPost2010Prop32
280
     0
102
RTVSPost2010PropOp32
 70
     1
102
RTVSPost2010Prop33
280
     0
102
RTVSPost2010PropOp33
 70
     1
102
RTVSPost2010Prop34
280
     0
102
RTVSPost2010PropOp34
 70
     1
102
RTVSPost2010Prop35
280
     0
102
RTVSPost2010PropOp35
 70
     1
102
RTVSPost2010Prop36
280
     0
102
RTVSPost2010PropOp36
 70
     1
102
RTVSPost2010Prop37
 90
       50
102
RTVSPost2010PropOp37
 70
     0
102
RTVSPost2010Prop38
140
0.0
102
RTVSPost2010PropOp38
 70
     0
102
RTVSPost2010Prop39
140
1.0
102
RTVSPost2010PropOp39
 70
     0
102
RTVSPost2010Prop40
 90
        0
102
RTVSPost2010PropOp40
 70
     0
102
RTVSPost2010Prop41ColorIndex
 90
       18
102
RTVSPost2010Prop41ColorRGB
 90
        0
102
RTVSPost2010PropOp41
 70
     0
102
RTVSPost2010Prop42
 90
       50
102
RTVSPost2010PropOp42
 70
     0
102
RTVSPost2010Prop43
 90
        3
102
RTVSPost2010PropOp43
 70
     0
102
RTVSPost2010Prop44ColorIndex
 90
        5
102
RTVSPost2010Prop44ColorRGB
 90
      255
102
RTVSPost2010PropOp44
 70
     0
102
RTVSPost2010Prop45
280
     0
102
RTVSPost2010PropOp45
 70
     1
102
RTVSPost2010Prop46
 90
       50
102
RTVSPost2010PropOp46
 70
     0
102
RTVSPost2010Prop47
 90
       50
102
RTVSPost2010PropOp47
 70
     0
102
RTVSPost2010Prop48
 90
       50
102
RTVSPost2010PropOp48
 70
     0
102
RTVSPost2010Prop49
280
     0
102
RTVSPost2010PropOp49
 70
     1
102
RTVSPost2010Prop50
 90
       50
102
RTVSPost2010PropOp50
 70
     0
102
RTVSPost2010Prop51ColorIndex
 90
      256
102
RTVSPost2010Prop51ColorRGB
 90
-16777216
102
RTVSPost2010PropOp51
 70
     0
102
RTVSPost2010Prop52
140
1.0
102
RTVSPost2010PropOp52
 70
     0
102
RTVSPost2010Prop53
 90
        2
102
RTVSPost2010PropOp53
 70
     0
102
RTVSPost2010Prop54
  1
strokes_ogs.tif
102
RTVSPost2010PropOp54
 70
     0
102
RTVSPost2010Prop55
280
     0
102
RTVSPost2010PropOp55
 70
     1
102
RTVSPost2010Prop56
140
1.0
102
RTVSPost2010PropOp56
 70
     0
102
RTVSPost2010Prop57
140
1.0
102
RTVSPost2010PropOp57
 70
     0
102
RTVSPropertyOp0
 70
     0
102
RTVSPropertyOp1
 70
     0
102
RTVSPropertyOp2
 70
     0
102
RTVSPropertyOp3
 70
     0
102
RTVSPropertyOp4
 70
     0
102
RTVSPropertyOp5
 70
     0
102
RTVSPropertyOp6
 70
     0
102
RTVSPropertyOp7
 70
     0
102
RTVSPropertyOp8
 70
     0
102
RTVSPropertyOp9
 70
     0
102
RTVSPropertyOp10
 70
     0
102
RTVSPropertyOp11
 70
     0
102
RTVSPropertyOp12
 70
     0
102
RTVSPropertyOp13
 70
     0
102
RTVSPropertyOp14
 70
     2
102
RTVSPropertyOp15
 70
     0
102
RTVSPropertyOp16
 70
     0
102
RTVSPropertyOp17
 70
     0
102
RTVSPropertyOp18
 70
     0
102
RTVSPropertyOp19
 70
     0
102
RTVSPropertyOp20
 70
     0
102
RTVSPropertyOp21
 70
     0
102
RTVSPropertyOp22
 70
     0
102
RTVSPropertyOp23
 70
     0
102
RTVSPropertyOp24
 70
     0
102
RTVSPropertyOp25
 70
     0
102
RTVSPropertyOp26
 70
     0
102
RTVSPropertyOp27
 70
     0
102
RTVSPropertyOp28
 70
     1
102
RTVSPropertyOp29
 70
     1
102
RTVSPropertyOp30
 70
     1
102
RTVSPropertyOp31
 70
     1
102
RTVSPropertyOp32
 70
     1
102
RTVSPropertyOp33
 70
     1
102
RTVSPropertyOp34
 70
     1
102
RTVSPropertyOp35
 70
     1
102
RTVSPropertyOp36
 70
     1
102
RTVSPropertyOp37
 70
     0
102
RTVSPropertyOp38
 70
     0
102
RTVSPropertyOp39
 70
     0
102
RTVSPropertyOp40
 70
     0
102
RTVSPropertyOp41
 70
     0
102
RTVSPropertyOp42
 70
     0
102
RTVSPropertyOp43
 70
     0
102
RTVSPropertyOp44
 70
     0
102
RTVSPropertyOp45
 70
     1
102
RTVSPropertyOp46
 70
     0
102
RTVSPropertyOp47
 70
     0
102
RTVSPropertyOp48
 70
     0
102
RTVSPropertyOp49
 70
     1
102
RTVSPropertyOp50
 70
     0
102
RTVSPropertyOp51
 70
     0
102
RTVSPropertyOp52
 70
     0
102
RTVSPropertyOp53
 70
     0
102
RTVSPropertyOp54
 70
     0
102
RTVSPropertyOp55
 70
     1
102
RTVSPropertyOp56
 70
     0
102
RTVSPropertyOp57
 70
     0
102
RTVSPropertyOp58
 70
     0
102
RTVSPropertyOp59
 70
     0
102
RTVSPropertyOp60
 70
     0
102
RTVSPropertyOp61
 70
     0
102
RTVSPropertyOp62
 70
     0
  0
XRECORD
  5
A815
102
{ACAD_REACTORS
330
A814
102
}
330
A814
100
AcDbXrecord
280
     1
102
RTVSPost2010Prop28
280
     0
102
RTVSPost2010PropOp28
 70
     1
102
RTVSPost2010Prop29
280
     1
102
RTVSPost2010PropOp29
 70
     1
102
RTVSPost2010Prop30
280
     1
102
RTVSPost2010PropOp30
 70
     1
102
RTVSPost2010Prop31
280
     0
102
RTVSPost2010PropOp31
 70
     1
102
RTVSPost2010Prop32
280
     0
102
RTVSPost2010PropOp32
 70
     1
102
RTVSPost2010Prop33
280
     0
102
RTVSPost2010PropOp33
 70
     1
102
RTVSPost2010Prop34
280
     0
102
RTVSPost2010PropOp34
 70
     1
102
RTVSPost2010Prop35
280
     0
102
RTVSPost2010PropOp35
 70
     1
102
RTVSPost2010Prop36
280
     0
102
RTVSPost2010PropOp36
 70
     1
102
RTVSPost2010Prop37
 90
       50
102
RTVSPost2010PropOp37
 70
     1
102
RTVSPost2010Prop38
140
0.0
102
RTVSPost2010PropOp38
 70
     1
102
RTVSPost2010Prop39
140
1.0
102
RTVSPost2010PropOp39
 70
     1
102
RTVSPost2010Prop40
 90
        0
102
RTVSPost2010PropOp40
 70
     1
102
RTVSPost2010Prop41ColorIndex
 90
       18
102
RTVSPost2010Prop41ColorRGB
 90
        0
102
RTVSPost2010PropOp41
 70
     1
102
RTVSPost2010Prop42
 90
       50
102
RTVSPost2010PropOp42
 70
     1
102
RTVSPost2010Prop43
 90
        3
102
RTVSPost2010PropOp43
 70
     1
102
RTVSPost2010Prop44ColorIndex
 90
        5
102
RTVSPost2010Prop44ColorRGB
 90
      255
102
RTVSPost2010PropOp44
 70
     1
102
RTVSPost2010Prop45
280
     0
102
RTVSPost2010PropOp45
 70
     1
102
RTVSPost2010Prop46
 90
       50
102
RTVSPost2010PropOp46
 70
     1
102
RTVSPost2010Prop47
 90
       50
102
RTVSPost2010PropOp47
 70
     1
102
RTVSPost2010Prop48
 90
       50
102
RTVSPost2010PropOp48
 70
     1
102
RTVSPost2010Prop49
280
     0
102
RTVSPost2010PropOp49
 70
     1
102
RTVSPost2010Prop50
 90
       50
102
RTVSPost2010PropOp50
 70
     1
102
RTVSPost2010Prop51ColorIndex
 90
      256
102
RTVSPost2010Prop51ColorRGB
 90
-16777216
102
RTVSPost2010PropOp51
 70
     0
102
RTVSPost2010Prop52
140
1.0
102
RTVSPost2010PropOp52
 70
     0
102
RTVSPost2010Prop53
 90
        2
102
RTVSPost2010PropOp53
 70
     1
102
RTVSPost2010Prop54
  1
strokes_ogs.tif
102
RTVSPost2010PropOp54
 70
     1
102
RTVSPost2010Prop55
280
     0
102
RTVSPost2010PropOp55
 70
     1
102
RTVSPost2010Prop56
140
1.0
102
RTVSPost2010PropOp56
 70
     1
102
RTVSPost2010Prop57
140
1.0
102
RTVSPost2010PropOp57
 70
     1
102
RTVSPropertyOp0
 70
     1
102
RTVSPropertyOp1
 70
     1
102
RTVSPropertyOp2
 70
     1
102
RTVSPropertyOp3
 70
     1
102
RTVSPropertyOp4
 70
     1
102
RTVSPropertyOp5
 70
     1
102
RTVSPropertyOp6
 70
     1
102
RTVSPropertyOp7
 70
     1
102
RTVSPropertyOp8
 70
     1
102
RTVSPropertyOp9
 70
     1
102
RTVSPropertyOp10
 70
     1
102
RTVSPropertyOp11
 70
     1
102
RTVSPropertyOp12
 70
     1
102
RTVSPropertyOp13
 70
     1
102
RTVSPropertyOp14
 70
     1
102
RTVSPropertyOp15
 70
     1
102
RTVSPropertyOp16
 70
     1
102
RTVSPropertyOp17
 70
     1
102
RTVSPropertyOp18
 70
     1
102
RTVSPropertyOp19
 70
     1
102
RTVSPropertyOp20
 70
     1
102
RTVSPropertyOp21
 70
     1
102
RTVSPropertyOp22
 70
     1
102
RTVSPropertyOp23
 70
     1
102
RTVSPropertyOp24
 70
     1
102
RTVSPropertyOp25
 70
     1
102
RTVSPropertyOp26
 70
     1
102
RTVSPropertyOp27
 70
     1
102
RTVSPropertyOp28
 70
     1
102
RTVSPropertyOp29
 70
     1
102
RTVSPropertyOp30
 70
     1
102
RTVSPropertyOp31
 70
     1
102
RTVSPropertyOp32
 70
     1
102
RTVSPropertyOp33
 70
     1
102
RTVSPropertyOp34
 70
     1
102
RTVSPropertyOp35
 70
     1
102
RTVSPropertyOp36
 70
     1
102
RTVSPropertyOp37
 70
     1
102
RTVSPropertyOp38
 70
     1
102
RTVSPropertyOp39
 70
     1
102
RTVSPropertyOp40
 70
     1
102
RTVSPropertyOp41
 70
     1
102
RTVSPropertyOp42
 70
     1
102
RTVSPropertyOp43
 70
     1
102
RTVSPropertyOp44
 70
     1
102
RTVSPropertyOp45
 70
     1
102
RTVSPropertyOp46
 70
     1
102
RTVSPropertyOp47
 70
     1
102
RTVSPropertyOp48
 70
     1
102
RTVSPropertyOp49
 70
     1
102
RTVSPropertyOp50
 70
     1
102
RTVSPropertyOp51
 70
     0
102
RTVSPropertyOp52
 70
     0
102
RTVSPropertyOp53
 70
     1
102
RTVSPropertyOp54
 70
     1
102
RTVSPropertyOp55
 70
     1
102
RTVSPropertyOp56
 70
     1
102
RTVSPropertyOp57
 70
     1
102
RTVSPropertyOp58
 70
     1
102
RTVSPropertyOp59
 70
     1
102
RTVSPropertyOp60
 70
     1
102
RTVSPropertyOp61
 70
     1
102
RTVSPropertyOp62
 70
     1
  0
XRECORD
  5
A82B
102
{ACAD_REACTORS
330
A82A
102
}
330
A82A
100
AcDbXrecord
280
     1
102
RTVSPost2010Prop28
280
     0
102
RTVSPost2010PropOp28
 70
     1
102
RTVSPost2010Prop29
280
     1
102
RTVSPost2010PropOp29
 70
     1
102
RTVSPost2010Prop30
280
     1
102
RTVSPost2010PropOp30
 70
     1
102
RTVSPost2010Prop31
280
     0
102
RTVSPost2010PropOp31
 70
     1
102
RTVSPost2010Prop32
280
     0
102
RTVSPost2010PropOp32
 70
     1
102
RTVSPost2010Prop33
280
     0
102
RTVSPost2010PropOp33
 70
     1
102
RTVSPost2010Prop34
280
     0
102
RTVSPost2010PropOp34
 70
     1
102
RTVSPost2010Prop35
280
     0
102
RTVSPost2010PropOp35
 70
     1
102
RTVSPost2010Prop36
280
     0
102
RTVSPost2010PropOp36
 70
     1
102
RTVSPost2010Prop37
 90
       50
102
RTVSPost2010PropOp37
 70
     1
102
RTVSPost2010Prop38
140
0.0
102
RTVSPost2010PropOp38
 70
     1
102
RTVSPost2010Prop39
140
1.0
102
RTVSPost2010PropOp39
 70
     1
102
RTVSPost2010Prop40
 90
        0
102
RTVSPost2010PropOp40
 70
     1
102
RTVSPost2010Prop41ColorIndex
 90
       18
102
RTVSPost2010Prop41ColorRGB
 90
        0
102
RTVSPost2010PropOp41
 70
     1
102
RTVSPost2010Prop42
 90
       50
102
RTVSPost2010PropOp42
 70
     1
102
RTVSPost2010Prop43
 90
        3
102
RTVSPost2010PropOp43
 70
     1
102
RTVSPost2010Prop44ColorIndex
 90
        5
102
RTVSPost2010Prop44ColorRGB
 90
      255
102
RTVSPost2010PropOp44
 70
     1
102
RTVSPost2010Prop45
280
     0
102
RTVSPost2010PropOp45
 70
     1
102
RTVSPost2010Prop46
 90
       50
102
RTVSPost2010PropOp46
 70
     1
102
RTVSPost2010Prop47
 90
       50
102
RTVSPost2010PropOp47
 70
     1
102
RTVSPost2010Prop48
 90
       50
102
RTVSPost2010PropOp48
 70
     1
102
RTVSPost2010Prop49
280
     0
102
RTVSPost2010PropOp49
 70
     1
102
RTVSPost2010Prop50
 90
       50
102
RTVSPost2010PropOp50
 70
     1
102
RTVSPost2010Prop51ColorIndex
 90
      256
102
RTVSPost2010Prop51ColorRGB
 90
-16777216
102
RTVSPost2010PropOp51
 70
     0
102
RTVSPost2010Prop52
140
1.0
102
RTVSPost2010PropOp52
 70
     0
102
RTVSPost2010Prop53
 90
        2
102
RTVSPost2010PropOp53
 70
     1
102
RTVSPost2010Prop54
  1
strokes_ogs.tif
102
RTVSPost2010PropOp54
 70
     1
102
RTVSPost2010Prop55
280
     0
102
RTVSPost2010PropOp55
 70
     1
102
RTVSPost2010Prop56
140
1.0
102
RTVSPost2010PropOp56
 70
     1
102
RTVSPost2010Prop57
140
1.0
102
RTVSPost2010PropOp57
 70
     1
102
RTVSPropertyOp0
 70
     1
102
RTVSPropertyOp1
 70
     1
102
RTVSPropertyOp2
 70
     1
102
RTVSPropertyOp3
 70
     1
102
RTVSPropertyOp4
 70
     1
102
RTVSPropertyOp5
 70
     1
102
RTVSPropertyOp6
 70
     1
102
RTVSPropertyOp7
 70
     1
102
RTVSPropertyOp8
 70
     1
102
RTVSPropertyOp9
 70
     1
102
RTVSPropertyOp10
 70
     1
102
RTVSPropertyOp11
 70
     1
102
RTVSPropertyOp12
 70
     1
102
RTVSPropertyOp13
 70
     1
102
RTVSPropertyOp14
 70
     1
102
RTVSPropertyOp15
 70
     1
102
RTVSPropertyOp16
 70
     1
102
RTVSPropertyOp17
 70
     1
102
RTVSPropertyOp18
 70
     1
102
RTVSPropertyOp19
 70
     1
102
RTVSPropertyOp20
 70
     1
102
RTVSPropertyOp21
 70
     1
102
RTVSPropertyOp22
 70
     1
102
RTVSPropertyOp23
 70
     1
102
RTVSPropertyOp24
 70
     1
102
RTVSPropertyOp25
 70
     1
102
RTVSPropertyOp26
 70
     1
102
RTVSPropertyOp27
 70
     1
102
RTVSPropertyOp28
 70
     1
102
RTVSPropertyOp29
 70
     1
102
RTVSPropertyOp30
 70
     1
102
RTVSPropertyOp31
 70
     1
102
RTVSPropertyOp32
 70
     1
102
RTVSPropertyOp33
 70
     1
102
RTVSPropertyOp34
 70
     1
102
RTVSPropertyOp35
 70
     1
102
RTVSPropertyOp36
 70
     1
102
RTVSPropertyOp37
 70
     1
102
RTVSPropertyOp38
 70
     1
102
RTVSPropertyOp39
 70
     1
102
RTVSPropertyOp40
 70
     1
102
RTVSPropertyOp41
 70
     1
102
RTVSPropertyOp42
 70
     1
102
RTVSPropertyOp43
 70
     1
102
RTVSPropertyOp44
 70
     1
102
RTVSPropertyOp45
 70
     1
102
RTVSPropertyOp46
 70
     1
102
RTVSPropertyOp47
 70
     1
102
RTVSPropertyOp48
 70
     1
102
RTVSPropertyOp49
 70
     1
102
RTVSPropertyOp50
 70
     1
102
RTVSPropertyOp51
 70
     0
102
RTVSPropertyOp52
 70
     0
102
RTVSPropertyOp53
 70
     1
102
RTVSPropertyOp54
 70
     1
102
RTVSPropertyOp55
 70
     1
102
RTVSPropertyOp56
 70
     1
102
RTVSPropertyOp57
 70
     1
102
RTVSPropertyOp58
 70
     1
102
RTVSPropertyOp59
 70
     1
102
RTVSPropertyOp60
 70
     1
102
RTVSPropertyOp61
 70
     1
102
RTVSPropertyOp62
 70
     1
  0
XRECORD
  5
A829
102
{ACAD_REACTORS
330
A828
102
}
330
A828
100
AcDbXrecord
280
     1
102
RTVSPost2010Prop28
280
     0
102
RTVSPost2010PropOp28
 70
     1
102
RTVSPost2010Prop29
280
     1
102
RTVSPost2010PropOp29
 70
     1
102
RTVSPost2010Prop30
280
     1
102
RTVSPost2010PropOp30
 70
     1
102
RTVSPost2010Prop31
280
     0
102
RTVSPost2010PropOp31
 70
     1
102
RTVSPost2010Prop32
280
     0
102
RTVSPost2010PropOp32
 70
     1
102
RTVSPost2010Prop33
280
     0
102
RTVSPost2010PropOp33
 70
     1
102
RTVSPost2010Prop34
280
     0
102
RTVSPost2010PropOp34
 70
     1
102
RTVSPost2010Prop35
280
     0
102
RTVSPost2010PropOp35
 70
     1
102
RTVSPost2010Prop36
280
     0
102
RTVSPost2010PropOp36
 70
     1
102
RTVSPost2010Prop37
 90
       50
102
RTVSPost2010PropOp37
 70
     1
102
RTVSPost2010Prop38
140
0.0
102
RTVSPost2010PropOp38
 70
     1
102
RTVSPost2010Prop39
140
1.0
102
RTVSPost2010PropOp39
 70
     1
102
RTVSPost2010Prop40
 90
        0
102
RTVSPost2010PropOp40
 70
     1
102
RTVSPost2010Prop41ColorIndex
 90
       18
102
RTVSPost2010Prop41ColorRGB
 90
        0
102
RTVSPost2010PropOp41
 70
     1
102
RTVSPost2010Prop42
 90
       50
102
RTVSPost2010PropOp42
 70
     1
102
RTVSPost2010Prop43
 90
        3
102
RTVSPost2010PropOp43
 70
     1
102
RTVSPost2010Prop44ColorIndex
 90
        5
102
RTVSPost2010Prop44ColorRGB
 90
      255
102
RTVSPost2010PropOp44
 70
     1
102
RTVSPost2010Prop45
280
     0
102
RTVSPost2010PropOp45
 70
     1
102
RTVSPost2010Prop46
 90
       50
102
RTVSPost2010PropOp46
 70
     1
102
RTVSPost2010Prop47
 90
       50
102
RTVSPost2010PropOp47
 70
     1
102
RTVSPost2010Prop48
 90
       50
102
RTVSPost2010PropOp48
 70
     1
102
RTVSPost2010Prop49
280
     0
102
RTVSPost2010PropOp49
 70
     1
102
RTVSPost2010Prop50
 90
       50
102
RTVSPost2010PropOp50
 70
     1
102
RTVSPost2010Prop51ColorIndex
 90
      256
102
RTVSPost2010Prop51ColorRGB
 90
-16777216
102
RTVSPost2010PropOp51
 70
     0
102
RTVSPost2010Prop52
140
1.0
102
RTVSPost2010PropOp52
 70
     0
102
RTVSPost2010Prop53
 90
        2
102
RTVSPost2010PropOp53
 70
     1
102
RTVSPost2010Prop54
  1
strokes_ogs.tif
102
RTVSPost2010PropOp54
 70
     1
102
RTVSPost2010Prop55
280
     0
102
RTVSPost2010PropOp55
 70
     1
102
RTVSPost2010Prop56
140
1.0
102
RTVSPost2010PropOp56
 70
     1
102
RTVSPost2010Prop57
140
1.0
102
RTVSPost2010PropOp57
 70
     1
102
RTVSPropertyOp0
 70
     1
102
RTVSPropertyOp1
 70
     1
102
RTVSPropertyOp2
 70
     1
102
RTVSPropertyOp3
 70
     1
102
RTVSPropertyOp4
 70
     1
102
RTVSPropertyOp5
 70
     1
102
RTVSPropertyOp6
 70
     1
102
RTVSPropertyOp7
 70
     1
102
RTVSPropertyOp8
 70
     1
102
RTVSPropertyOp9
 70
     1
102
RTVSPropertyOp10
 70
     1
102
RTVSPropertyOp11
 70
     1
102
RTVSPropertyOp12
 70
     1
102
RTVSPropertyOp13
 70
     1
102
RTVSPropertyOp14
 70
     1
102
RTVSPropertyOp15
 70
     1
102
RTVSPropertyOp16
 70
     1
102
RTVSPropertyOp17
 70
     1
102
RTVSPropertyOp18
 70
     1
102
RTVSPropertyOp19
 70
     1
102
RTVSPropertyOp20
 70
     1
102
RTVSPropertyOp21
 70
     1
102
RTVSPropertyOp22
 70
     1
102
RTVSPropertyOp23
 70
     1
102
RTVSPropertyOp24
 70
     1
102
RTVSPropertyOp25
 70
     1
102
RTVSPropertyOp26
 70
     1
102
RTVSPropertyOp27
 70
     1
102
RTVSPropertyOp28
 70
     1
102
RTVSPropertyOp29
 70
     1
102
RTVSPropertyOp30
 70
     1
102
RTVSPropertyOp31
 70
     1
102
RTVSPropertyOp32
 70
     1
102
RTVSPropertyOp33
 70
     1
102
RTVSPropertyOp34
 70
     1
102
RTVSPropertyOp35
 70
     1
102
RTVSPropertyOp36
 70
     1
102
RTVSPropertyOp37
 70
     1
102
RTVSPropertyOp38
 70
     1
102
RTVSPropertyOp39
 70
     1
102
RTVSPropertyOp40
 70
     1
102
RTVSPropertyOp41
 70
     1
102
RTVSPropertyOp42
 70
     1
102
RTVSPropertyOp43
 70
     1
102
RTVSPropertyOp44
 70
     1
102
RTVSPropertyOp45
 70
     1
102
RTVSPropertyOp46
 70
     1
102
RTVSPropertyOp47
 70
     1
102
RTVSPropertyOp48
 70
     1
102
RTVSPropertyOp49
 70
     1
102
RTVSPropertyOp50
 70
     1
102
RTVSPropertyOp51
 70
     0
102
RTVSPropertyOp52
 70
     0
102
RTVSPropertyOp53
 70
     1
102
RTVSPropertyOp54
 70
     1
102
RTVSPropertyOp55
 70
     1
102
RTVSPropertyOp56
 70
     1
102
RTVSPropertyOp57
 70
     1
102
RTVSPropertyOp58
 70
     1
102
RTVSPropertyOp59
 70
     1
102
RTVSPropertyOp60
 70
     1
102
RTVSPropertyOp61
 70
     1
102
RTVSPropertyOp62
 70
     1
  0
XRECORD
  5
A823
102
{ACAD_REACTORS
330
A822
102
}
330
A822
100
AcDbXrecord
280
     1
102
RTVSPost2010Prop28
280
     0
102
RTVSPost2010PropOp28
 70
     1
102
RTVSPost2010Prop29
280
     1
102
RTVSPost2010PropOp29
 70
     1
102
RTVSPost2010Prop30
280
     1
102
RTVSPost2010PropOp30
 70
     1
102
RTVSPost2010Prop31
280
     0
102
RTVSPost2010PropOp31
 70
     1
102
RTVSPost2010Prop32
280
     0
102
RTVSPost2010PropOp32
 70
     1
102
RTVSPost2010Prop33
280
     0
102
RTVSPost2010PropOp33
 70
     1
102
RTVSPost2010Prop34
280
     0
102
RTVSPost2010PropOp34
 70
     1
102
RTVSPost2010Prop35
280
     0
102
RTVSPost2010PropOp35
 70
     1
102
RTVSPost2010Prop36
280
     0
102
RTVSPost2010PropOp36
 70
     1
102
RTVSPost2010Prop37
 90
       50
102
RTVSPost2010PropOp37
 70
     1
102
RTVSPost2010Prop38
140
0.0
102
RTVSPost2010PropOp38
 70
     1
102
RTVSPost2010Prop39
140
1.0
102
RTVSPost2010PropOp39
 70
     1
102
RTVSPost2010Prop40
 90
        0
102
RTVSPost2010PropOp40
 70
     1
102
RTVSPost2010Prop41ColorIndex
 90
       18
102
RTVSPost2010Prop41ColorRGB
 90
        0
102
RTVSPost2010PropOp41
 70
     1
102
RTVSPost2010Prop42
 90
       50
102
RTVSPost2010PropOp42
 70
     1
102
RTVSPost2010Prop43
 90
        3
102
RTVSPost2010PropOp43
 70
     1
102
RTVSPost2010Prop44ColorIndex
 90
        5
102
RTVSPost2010Prop44ColorRGB
 90
      255
102
RTVSPost2010PropOp44
 70
     1
102
RTVSPost2010Prop45
280
     0
102
RTVSPost2010PropOp45
 70
     1
102
RTVSPost2010Prop46
 90
       50
102
RTVSPost2010PropOp46
 70
     1
102
RTVSPost2010Prop47
 90
       50
102
RTVSPost2010PropOp47
 70
     1
102
RTVSPost2010Prop48
 90
       50
102
RTVSPost2010PropOp48
 70
     1
102
RTVSPost2010Prop49
280
     0
102
RTVSPost2010PropOp49
 70
     1
102
RTVSPost2010Prop50
 90
       50
102
RTVSPost2010PropOp50
 70
     1
102
RTVSPost2010Prop51ColorIndex
 90
      256
102
RTVSPost2010Prop51ColorRGB
 90
-16777216
102
RTVSPost2010PropOp51
 70
     0
102
RTVSPost2010Prop52
140
1.0
102
RTVSPost2010PropOp52
 70
     0
102
RTVSPost2010Prop53
 90
        2
102
RTVSPost2010PropOp53
 70
     1
102
RTVSPost2010Prop54
  1
strokes_ogs.tif
102
RTVSPost2010PropOp54
 70
     1
102
RTVSPost2010Prop55
280
     0
102
RTVSPost2010PropOp55
 70
     1
102
RTVSPost2010Prop56
140
1.0
102
RTVSPost2010PropOp56
 70
     1
102
RTVSPost2010Prop57
140
1.0
102
RTVSPost2010PropOp57
 70
     1
102
RTVSPropertyOp0
 70
     1
102
RTVSPropertyOp1
 70
     1
102
RTVSPropertyOp2
 70
     1
102
RTVSPropertyOp3
 70
     1
102
RTVSPropertyOp4
 70
     1
102
RTVSPropertyOp5
 70
     1
102
RTVSPropertyOp6
 70
     1
102
RTVSPropertyOp7
 70
     1
102
RTVSPropertyOp8
 70
     1
102
RTVSPropertyOp9
 70
     1
102
RTVSPropertyOp10
 70
     1
102
RTVSPropertyOp11
 70
     1
102
RTVSPropertyOp12
 70
     1
102
RTVSPropertyOp13
 70
     1
102
RTVSPropertyOp14
 70
     1
102
RTVSPropertyOp15
 70
     1
102
RTVSPropertyOp16
 70
     1
102
RTVSPropertyOp17
 70
     1
102
RTVSPropertyOp18
 70
     1
102
RTVSPropertyOp19
 70
     1
102
RTVSPropertyOp20
 70
     1
102
RTVSPropertyOp21
 70
     1
102
RTVSPropertyOp22
 70
     1
102
RTVSPropertyOp23
 70
     1
102
RTVSPropertyOp24
 70
     1
102
RTVSPropertyOp25
 70
     1
102
RTVSPropertyOp26
 70
     1
102
RTVSPropertyOp27
 70
     1
102
RTVSPropertyOp28
 70
     1
102
RTVSPropertyOp29
 70
     1
102
RTVSPropertyOp30
 70
     1
102
RTVSPropertyOp31
 70
     1
102
RTVSPropertyOp32
 70
     1
102
RTVSPropertyOp33
 70
     1
102
RTVSPropertyOp34
 70
     1
102
RTVSPropertyOp35
 70
     1
102
RTVSPropertyOp36
 70
     1
102
RTVSPropertyOp37
 70
     1
102
RTVSPropertyOp38
 70
     1
102
RTVSPropertyOp39
 70
     1
102
RTVSPropertyOp40
 70
     1
102
RTVSPropertyOp41
 70
     1
102
RTVSPropertyOp42
 70
     1
102
RTVSPropertyOp43
 70
     1
102
RTVSPropertyOp44
 70
     1
102
RTVSPropertyOp45
 70
     1
102
RTVSPropertyOp46
 70
     1
102
RTVSPropertyOp47
 70
     1
102
RTVSPropertyOp48
 70
     1
102
RTVSPropertyOp49
 70
     1
102
RTVSPropertyOp50
 70
     1
102
RTVSPropertyOp51
 70
     0
102
RTVSPropertyOp52
 70
     0
102
RTVSPropertyOp53
 70
     1
102
RTVSPropertyOp54
 70
     1
102
RTVSPropertyOp55
 70
     1
102
RTVSPropertyOp56
 70
     1
102
RTVSPropertyOp57
 70
     1
102
RTVSPropertyOp58
 70
     1
102
RTVSPropertyOp59
 70
     1
102
RTVSPropertyOp60
 70
     1
102
RTVSPropertyOp61
 70
     1
102
RTVSPropertyOp62
 70
     1
  0
XRECORD
  5
A825
102
{ACAD_REACTORS
330
A824
102
}
330
A824
100
AcDbXrecord
280
     1
102
RTVSPost2010Prop28
280
     0
102
RTVSPost2010PropOp28
 70
     1
102
RTVSPost2010Prop29
280
     1
102
RTVSPost2010PropOp29
 70
     1
102
RTVSPost2010Prop30
280
     1
102
RTVSPost2010PropOp30
 70
     1
102
RTVSPost2010Prop31
280
     0
102
RTVSPost2010PropOp31
 70
     1
102
RTVSPost2010Prop32
280
     0
102
RTVSPost2010PropOp32
 70
     1
102
RTVSPost2010Prop33
280
     0
102
RTVSPost2010PropOp33
 70
     1
102
RTVSPost2010Prop34
280
     0
102
RTVSPost2010PropOp34
 70
     1
102
RTVSPost2010Prop35
280
     0
102
RTVSPost2010PropOp35
 70
     1
102
RTVSPost2010Prop36
280
     0
102
RTVSPost2010PropOp36
 70
     1
102
RTVSPost2010Prop37
 90
       50
102
RTVSPost2010PropOp37
 70
     1
102
RTVSPost2010Prop38
140
0.0
102
RTVSPost2010PropOp38
 70
     1
102
RTVSPost2010Prop39
140
1.0
102
RTVSPost2010PropOp39
 70
     1
102
RTVSPost2010Prop40
 90
        0
102
RTVSPost2010PropOp40
 70
     1
102
RTVSPost2010Prop41ColorIndex
 90
       18
102
RTVSPost2010Prop41ColorRGB
 90
        0
102
RTVSPost2010PropOp41
 70
     1
102
RTVSPost2010Prop42
 90
       50
102
RTVSPost2010PropOp42
 70
     1
102
RTVSPost2010Prop43
 90
        3
102
RTVSPost2010PropOp43
 70
     1
102
RTVSPost2010Prop44ColorIndex
 90
        5
102
RTVSPost2010Prop44ColorRGB
 90
      255
102
RTVSPost2010PropOp44
 70
     1
102
RTVSPost2010Prop45
280
     0
102
RTVSPost2010PropOp45
 70
     1
102
RTVSPost2010Prop46
 90
       50
102
RTVSPost2010PropOp46
 70
     1
102
RTVSPost2010Prop47
 90
       50
102
RTVSPost2010PropOp47
 70
     1
102
RTVSPost2010Prop48
 90
       50
102
RTVSPost2010PropOp48
 70
     1
102
RTVSPost2010Prop49
280
     0
102
RTVSPost2010PropOp49
 70
     1
102
RTVSPost2010Prop50
 90
       50
102
RTVSPost2010PropOp50
 70
     1
102
RTVSPost2010Prop51ColorIndex
 90
      256
102
RTVSPost2010Prop51ColorRGB
 90
-16777216
102
RTVSPost2010PropOp51
 70
     0
102
RTVSPost2010Prop52
140
1.0
102
RTVSPost2010PropOp52
 70
     0
102
RTVSPost2010Prop53
 90
        2
102
RTVSPost2010PropOp53
 70
     1
102
RTVSPost2010Prop54
  1
strokes_ogs.tif
102
RTVSPost2010PropOp54
 70
     1
102
RTVSPost2010Prop55
280
     0
102
RTVSPost2010PropOp55
 70
     1
102
RTVSPost2010Prop56
140
1.0
102
RTVSPost2010PropOp56
 70
     1
102
RTVSPost2010Prop57
140
1.0
102
RTVSPost2010PropOp57
 70
     1
102
RTVSPropertyOp0
 70
     1
102
RTVSPropertyOp1
 70
     1
102
RTVSPropertyOp2
 70
     1
102
RTVSPropertyOp3
 70
     1
102
RTVSPropertyOp4
 70
     1
102
RTVSPropertyOp5
 70
     1
102
RTVSPropertyOp6
 70
     1
102
RTVSPropertyOp7
 70
     1
102
RTVSPropertyOp8
 70
     1
102
RTVSPropertyOp9
 70
     1
102
RTVSPropertyOp10
 70
     1
102
RTVSPropertyOp11
 70
     1
102
RTVSPropertyOp12
 70
     1
102
RTVSPropertyOp13
 70
     1
102
RTVSPropertyOp14
 70
     1
102
RTVSPropertyOp15
 70
     1
102
RTVSPropertyOp16
 70
     1
102
RTVSPropertyOp17
 70
     1
102
RTVSPropertyOp18
 70
     1
102
RTVSPropertyOp19
 70
     1
102
RTVSPropertyOp20
 70
     1
102
RTVSPropertyOp21
 70
     1
102
RTVSPropertyOp22
 70
     1
102
RTVSPropertyOp23
 70
     1
102
RTVSPropertyOp24
 70
     1
102
RTVSPropertyOp25
 70
     1
102
RTVSPropertyOp26
 70
     1
102
RTVSPropertyOp27
 70
     1
102
RTVSPropertyOp28
 70
     1
102
RTVSPropertyOp29
 70
     1
102
RTVSPropertyOp30
 70
     1
102
RTVSPropertyOp31
 70
     1
102
RTVSPropertyOp32
 70
     1
102
RTVSPropertyOp33
 70
     1
102
RTVSPropertyOp34
 70
     1
102
RTVSPropertyOp35
 70
     1
102
RTVSPropertyOp36
 70
     1
102
RTVSPropertyOp37
 70
     1
102
RTVSPropertyOp38
 70
     1
102
RTVSPropertyOp39
 70
     1
102
RTVSPropertyOp40
 70
     1
102
RTVSPropertyOp41
 70
     1
102
RTVSPropertyOp42
 70
     1
102
RTVSPropertyOp43
 70
     1
102
RTVSPropertyOp44
 70
     1
102
RTVSPropertyOp45
 70
     1
102
RTVSPropertyOp46
 70
     1
102
RTVSPropertyOp47
 70
     1
102
RTVSPropertyOp48
 70
     1
102
RTVSPropertyOp49
 70
     1
102
RTVSPropertyOp50
 70
     1
102
RTVSPropertyOp51
 70
     0
102
RTVSPropertyOp52
 70
     0
102
RTVSPropertyOp53
 70
     1
102
RTVSPropertyOp54
 70
     1
102
RTVSPropertyOp55
 70
     1
102
RTVSPropertyOp56
 70
     1
102
RTVSPropertyOp57
 70
     1
102
RTVSPropertyOp58
 70
     1
102
RTVSPropertyOp59
 70
     1
102
RTVSPropertyOp60
 70
     1
102
RTVSPropertyOp61
 70
     1
102
RTVSPropertyOp62
 70
     1
  0
XRECORD
  5
A81B
102
{ACAD_REACTORS
330
A81A
102
}
330
A81A
100
AcDbXrecord
280
     1
102
RTVSPost2010Prop28
280
     0
102
RTVSPost2010PropOp28
 70
     1
102
RTVSPost2010Prop29
280
     1
102
RTVSPost2010PropOp29
 70
     1
102
RTVSPost2010Prop30
280
     1
102
RTVSPost2010PropOp30
 70
     1
102
RTVSPost2010Prop31
280
     0
102
RTVSPost2010PropOp31
 70
     1
102
RTVSPost2010Prop32
280
     0
102
RTVSPost2010PropOp32
 70
     1
102
RTVSPost2010Prop33
280
     0
102
RTVSPost2010PropOp33
 70
     1
102
RTVSPost2010Prop34
280
     0
102
RTVSPost2010PropOp34
 70
     1
102
RTVSPost2010Prop35
280
     0
102
RTVSPost2010PropOp35
 70
     1
102
RTVSPost2010Prop36
280
     0
102
RTVSPost2010PropOp36
 70
     1
102
RTVSPost2010Prop37
 90
       50
102
RTVSPost2010PropOp37
 70
     1
102
RTVSPost2010Prop38
140
0.0
102
RTVSPost2010PropOp38
 70
     1
102
RTVSPost2010Prop39
140
1.0
102
RTVSPost2010PropOp39
 70
     1
102
RTVSPost2010Prop40
 90
        0
102
RTVSPost2010PropOp40
 70
     1
102
RTVSPost2010Prop41ColorIndex
 90
       18
102
RTVSPost2010Prop41ColorRGB
 90
        0
102
RTVSPost2010PropOp41
 70
     1
102
RTVSPost2010Prop42
 90
       50
102
RTVSPost2010PropOp42
 70
     1
102
RTVSPost2010Prop43
 90
        3
102
RTVSPost2010PropOp43
 70
     1
102
RTVSPost2010Prop44ColorIndex
 90
        5
102
RTVSPost2010Prop44ColorRGB
 90
      255
102
RTVSPost2010PropOp44
 70
     1
102
RTVSPost2010Prop45
280
     0
102
RTVSPost2010PropOp45
 70
     1
102
RTVSPost2010Prop46
 90
       50
102
RTVSPost2010PropOp46
 70
     1
102
RTVSPost2010Prop47
 90
       50
102
RTVSPost2010PropOp47
 70
     1
102
RTVSPost2010Prop48
 90
       50
102
RTVSPost2010PropOp48
 70
     1
102
RTVSPost2010Prop49
280
     0
102
RTVSPost2010PropOp49
 70
     1
102
RTVSPost2010Prop50
 90
       50
102
RTVSPost2010PropOp50
 70
     1
102
RTVSPost2010Prop51ColorIndex
 90
      256
102
RTVSPost2010Prop51ColorRGB
 90
-16777216
102
RTVSPost2010PropOp51
 70
     0
102
RTVSPost2010Prop52
140
1.0
102
RTVSPost2010PropOp52
 70
     0
102
RTVSPost2010Prop53
 90
        2
102
RTVSPost2010PropOp53
 70
     1
102
RTVSPost2010Prop54
  1
strokes_ogs.tif
102
RTVSPost2010PropOp54
 70
     1
102
RTVSPost2010Prop55
280
     0
102
RTVSPost2010PropOp55
 70
     1
102
RTVSPost2010Prop56
140
1.0
102
RTVSPost2010PropOp56
 70
     1
102
RTVSPost2010Prop57
140
1.0
102
RTVSPost2010PropOp57
 70
     1
102
RTVSPropertyOp0
 70
     1
102
RTVSPropertyOp1
 70
     1
102
RTVSPropertyOp2
 70
     1
102
RTVSPropertyOp3
 70
     1
102
RTVSPropertyOp4
 70
     1
102
RTVSPropertyOp5
 70
     1
102
RTVSPropertyOp6
 70
     1
102
RTVSPropertyOp7
 70
     1
102
RTVSPropertyOp8
 70
     1
102
RTVSPropertyOp9
 70
     1
102
RTVSPropertyOp10
 70
     1
102
RTVSPropertyOp11
 70
     1
102
RTVSPropertyOp12
 70
     1
102
RTVSPropertyOp13
 70
     1
102
RTVSPropertyOp14
 70
     1
102
RTVSPropertyOp15
 70
     1
102
RTVSPropertyOp16
 70
     1
102
RTVSPropertyOp17
 70
     1
102
RTVSPropertyOp18
 70
     1
102
RTVSPropertyOp19
 70
     1
102
RTVSPropertyOp20
 70
     1
102
RTVSPropertyOp21
 70
     1
102
RTVSPropertyOp22
 70
     1
102
RTVSPropertyOp23
 70
     1
102
RTVSPropertyOp24
 70
     1
102
RTVSPropertyOp25
 70
     1
102
RTVSPropertyOp26
 70
     1
102
RTVSPropertyOp27
 70
     1
102
RTVSPropertyOp28
 70
     1
102
RTVSPropertyOp29
 70
     1
102
RTVSPropertyOp30
 70
     1
102
RTVSPropertyOp31
 70
     1
102
RTVSPropertyOp32
 70
     1
102
RTVSPropertyOp33
 70
     1
102
RTVSPropertyOp34
 70
     1
102
RTVSPropertyOp35
 70
     1
102
RTVSPropertyOp36
 70
     1
102
RTVSPropertyOp37
 70
     1
102
RTVSPropertyOp38
 70
     1
102
RTVSPropertyOp39
 70
     1
102
RTVSPropertyOp40
 70
     1
102
RTVSPropertyOp41
 70
     1
102
RTVSPropertyOp42
 70
     1
102
RTVSPropertyOp43
 70
     1
102
RTVSPropertyOp44
 70
     1
102
RTVSPropertyOp45
 70
     1
102
RTVSPropertyOp46
 70
     1
102
RTVSPropertyOp47
 70
     1
102
RTVSPropertyOp48
 70
     1
102
RTVSPropertyOp49
 70
     1
102
RTVSPropertyOp50
 70
     1
102
RTVSPropertyOp51
 70
     0
102
RTVSPropertyOp52
 70
     0
102
RTVSPropertyOp53
 70
     1
102
RTVSPropertyOp54
 70
     1
102
RTVSPropertyOp55
 70
     1
102
RTVSPropertyOp56
 70
     1
102
RTVSPropertyOp57
 70
     1
102
RTVSPropertyOp58
 70
     1
102
RTVSPropertyOp59
 70
     1
102
RTVSPropertyOp60
 70
     1
102
RTVSPropertyOp61
 70
     1
102
RTVSPropertyOp62
 70
     1
  0
XRECORD
  5
A80F
102
{ACAD_REACTORS
330
A80E
102
}
330
A80E
100
AcDbXrecord
280
     1
102
RTVSPost2010Prop28
280
     0
102
RTVSPost2010PropOp28
 70
     1
102
RTVSPost2010Prop29
280
     1
102
RTVSPost2010PropOp29
 70
     1
102
RTVSPost2010Prop30
280
     1
102
RTVSPost2010PropOp30
 70
     1
102
RTVSPost2010Prop31
280
     0
102
RTVSPost2010PropOp31
 70
     1
102
RTVSPost2010Prop32
280
     0
102
RTVSPost2010PropOp32
 70
     1
102
RTVSPost2010Prop33
280
     0
102
RTVSPost2010PropOp33
 70
     1
102
RTVSPost2010Prop34
280
     0
102
RTVSPost2010PropOp34
 70
     1
102
RTVSPost2010Prop35
280
     0
102
RTVSPost2010PropOp35
 70
     1
102
RTVSPost2010Prop36
280
     0
102
RTVSPost2010PropOp36
 70
     1
102
RTVSPost2010Prop37
 90
       50
102
RTVSPost2010PropOp37
 70
     1
102
RTVSPost2010Prop38
140
0.0
102
RTVSPost2010PropOp38
 70
     1
102
RTVSPost2010Prop39
140
1.0
102
RTVSPost2010PropOp39
 70
     1
102
RTVSPost2010Prop40
 90
        0
102
RTVSPost2010PropOp40
 70
     1
102
RTVSPost2010Prop41ColorIndex
 90
       18
102
RTVSPost2010Prop41ColorRGB
 90
        0
102
RTVSPost2010PropOp41
 70
     1
102
RTVSPost2010Prop42
 90
       50
102
RTVSPost2010PropOp42
 70
     1
102
RTVSPost2010Prop43
 90
        3
102
RTVSPost2010PropOp43
 70
     1
102
RTVSPost2010Prop44ColorIndex
 90
        5
102
RTVSPost2010Prop44ColorRGB
 90
      255
102
RTVSPost2010PropOp44
 70
     1
102
RTVSPost2010Prop45
280
     0
102
RTVSPost2010PropOp45
 70
     1
102
RTVSPost2010Prop46
 90
       50
102
RTVSPost2010PropOp46
 70
     1
102
RTVSPost2010Prop47
 90
       50
102
RTVSPost2010PropOp47
 70
     1
102
RTVSPost2010Prop48
 90
       50
102
RTVSPost2010PropOp48
 70
     1
102
RTVSPost2010Prop49
280
     0
102
RTVSPost2010PropOp49
 70
     1
102
RTVSPost2010Prop50
 90
       50
102
RTVSPost2010PropOp50
 70
     1
102
RTVSPost2010Prop51ColorIndex
 90
      256
102
RTVSPost2010Prop51ColorRGB
 90
-16777216
102
RTVSPost2010PropOp51
 70
     0
102
RTVSPost2010Prop52
140
1.0
102
RTVSPost2010PropOp52
 70
     0
102
RTVSPost2010Prop53
 90
        2
102
RTVSPost2010PropOp53
 70
     1
102
RTVSPost2010Prop54
  1
strokes_ogs.tif
102
RTVSPost2010PropOp54
 70
     1
102
RTVSPost2010Prop55
280
     0
102
RTVSPost2010PropOp55
 70
     1
102
RTVSPost2010Prop56
140
1.0
102
RTVSPost2010PropOp56
 70
     1
102
RTVSPost2010Prop57
140
1.0
102
RTVSPost2010PropOp57
 70
     1
102
RTVSPropertyOp0
 70
     1
102
RTVSPropertyOp1
 70
     1
102
RTVSPropertyOp2
 70
     1
102
RTVSPropertyOp3
 70
     1
102
RTVSPropertyOp4
 70
     1
102
RTVSPropertyOp5
 70
     1
102
RTVSPropertyOp6
 70
     1
102
RTVSPropertyOp7
 70
     1
102
RTVSPropertyOp8
 70
     1
102
RTVSPropertyOp9
 70
     1
102
RTVSPropertyOp10
 70
     1
102
RTVSPropertyOp11
 70
     1
102
RTVSPropertyOp12
 70
     1
102
RTVSPropertyOp13
 70
     1
102
RTVSPropertyOp14
 70
     1
102
RTVSPropertyOp15
 70
     1
102
RTVSPropertyOp16
 70
     1
102
RTVSPropertyOp17
 70
     1
102
RTVSPropertyOp18
 70
     1
102
RTVSPropertyOp19
 70
     1
102
RTVSPropertyOp20
 70
     1
102
RTVSPropertyOp21
 70
     1
102
RTVSPropertyOp22
 70
     1
102
RTVSPropertyOp23
 70
     1
102
RTVSPropertyOp24
 70
     1
102
RTVSPropertyOp25
 70
     1
102
RTVSPropertyOp26
 70
     1
102
RTVSPropertyOp27
 70
     1
102
RTVSPropertyOp28
 70
     1
102
RTVSPropertyOp29
 70
     1
102
RTVSPropertyOp30
 70
     1
102
RTVSPropertyOp31
 70
     1
102
RTVSPropertyOp32
 70
     1
102
RTVSPropertyOp33
 70
     1
102
RTVSPropertyOp34
 70
     1
102
RTVSPropertyOp35
 70
     1
102
RTVSPropertyOp36
 70
     1
102
RTVSPropertyOp37
 70
     1
102
RTVSPropertyOp38
 70
     1
102
RTVSPropertyOp39
 70
     1
102
RTVSPropertyOp40
 70
     1
102
RTVSPropertyOp41
 70
     1
102
RTVSPropertyOp42
 70
     1
102
RTVSPropertyOp43
 70
     1
102
RTVSPropertyOp44
 70
     1
102
RTVSPropertyOp45
 70
     1
102
RTVSPropertyOp46
 70
     1
102
RTVSPropertyOp47
 70
     1
102
RTVSPropertyOp48
 70
     1
102
RTVSPropertyOp49
 70
     1
102
RTVSPropertyOp50
 70
     1
102
RTVSPropertyOp51
 70
     0
102
RTVSPropertyOp52
 70
     0
102
RTVSPropertyOp53
 70
     1
102
RTVSPropertyOp54
 70
     1
102
RTVSPropertyOp55
 70
     1
102
RTVSPropertyOp56
 70
     1
102
RTVSPropertyOp57
 70
     1
102
RTVSPropertyOp58
 70
     1
102
RTVSPropertyOp59
 70
     1
102
RTVSPropertyOp60
 70
     1
102
RTVSPropertyOp61
 70
     1
102
RTVSPropertyOp62
 70
     1
  0
XRECORD
  5
A827
102
{ACAD_REACTORS
330
A826
102
}
330
A826
100
AcDbXrecord
280
     1
102
RTVSPost2010Prop28
280
     0
102
RTVSPost2010PropOp28
 70
     1
102
RTVSPost2010Prop29
280
     1
102
RTVSPost2010PropOp29
 70
     1
102
RTVSPost2010Prop30
280
     1
102
RTVSPost2010PropOp30
 70
     1
102
RTVSPost2010Prop31
280
     0
102
RTVSPost2010PropOp31
 70
     1
102
RTVSPost2010Prop32
280
     0
102
RTVSPost2010PropOp32
 70
     1
102
RTVSPost2010Prop33
280
     0
102
RTVSPost2010PropOp33
 70
     1
102
RTVSPost2010Prop34
280
     0
102
RTVSPost2010PropOp34
 70
     1
102
RTVSPost2010Prop35
280
     0
102
RTVSPost2010PropOp35
 70
     1
102
RTVSPost2010Prop36
280
     0
102
RTVSPost2010PropOp36
 70
     1
102
RTVSPost2010Prop37
 90
       50
102
RTVSPost2010PropOp37
 70
     1
102
RTVSPost2010Prop38
140
0.0
102
RTVSPost2010PropOp38
 70
     1
102
RTVSPost2010Prop39
140
1.0
102
RTVSPost2010PropOp39
 70
     1
102
RTVSPost2010Prop40
 90
        0
102
RTVSPost2010PropOp40
 70
     1
102
RTVSPost2010Prop41ColorIndex
 90
       18
102
RTVSPost2010Prop41ColorRGB
 90
        0
102
RTVSPost2010PropOp41
 70
     1
102
RTVSPost2010Prop42
 90
       50
102
RTVSPost2010PropOp42
 70
     1
102
RTVSPost2010Prop43
 90
        3
102
RTVSPost2010PropOp43
 70
     1
102
RTVSPost2010Prop44ColorIndex
 90
        5
102
RTVSPost2010Prop44ColorRGB
 90
      255
102
RTVSPost2010PropOp44
 70
     1
102
RTVSPost2010Prop45
280
     0
102
RTVSPost2010PropOp45
 70
     1
102
RTVSPost2010Prop46
 90
       50
102
RTVSPost2010PropOp46
 70
     1
102
RTVSPost2010Prop47
 90
       50
102
RTVSPost2010PropOp47
 70
     1
102
RTVSPost2010Prop48
 90
       50
102
RTVSPost2010PropOp48
 70
     1
102
RTVSPost2010Prop49
280
     0
102
RTVSPost2010PropOp49
 70
     1
102
RTVSPost2010Prop50
 90
       50
102
RTVSPost2010PropOp50
 70
     1
102
RTVSPost2010Prop51ColorIndex
 90
      256
102
RTVSPost2010Prop51ColorRGB
 90
-16777216
102
RTVSPost2010PropOp51
 70
     0
102
RTVSPost2010Prop52
140
1.0
102
RTVSPost2010PropOp52
 70
     0
102
RTVSPost2010Prop53
 90
        2
102
RTVSPost2010PropOp53
 70
     1
102
RTVSPost2010Prop54
  1
strokes_ogs.tif
102
RTVSPost2010PropOp54
 70
     1
102
RTVSPost2010Prop55
280
     0
102
RTVSPost2010PropOp55
 70
     1
102
RTVSPost2010Prop56
140
1.0
102
RTVSPost2010PropOp56
 70
     1
102
RTVSPost2010Prop57
140
1.0
102
RTVSPost2010PropOp57
 70
     1
102
RTVSPropertyOp0
 70
     1
102
RTVSPropertyOp1
 70
     1
102
RTVSPropertyOp2
 70
     1
102
RTVSPropertyOp3
 70
     1
102
RTVSPropertyOp4
 70
     1
102
RTVSPropertyOp5
 70
     1
102
RTVSPropertyOp6
 70
     1
102
RTVSPropertyOp7
 70
     1
102
RTVSPropertyOp8
 70
     1
102
RTVSPropertyOp9
 70
     1
102
RTVSPropertyOp10
 70
     1
102
RTVSPropertyOp11
 70
     1
102
RTVSPropertyOp12
 70
     1
102
RTVSPropertyOp13
 70
     1
102
RTVSPropertyOp14
 70
     1
102
RTVSPropertyOp15
 70
     1
102
RTVSPropertyOp16
 70
     1
102
RTVSPropertyOp17
 70
     1
102
RTVSPropertyOp18
 70
     1
102
RTVSPropertyOp19
 70
     1
102
RTVSPropertyOp20
 70
     1
102
RTVSPropertyOp21
 70
     1
102
RTVSPropertyOp22
 70
     1
102
RTVSPropertyOp23
 70
     1
102
RTVSPropertyOp24
 70
     1
102
RTVSPropertyOp25
 70
     1
102
RTVSPropertyOp26
 70
     1
102
RTVSPropertyOp27
 70
     1
102
RTVSPropertyOp28
 70
     1
102
RTVSPropertyOp29
 70
     1
102
RTVSPropertyOp30
 70
     1
102
RTVSPropertyOp31
 70
     1
102
RTVSPropertyOp32
 70
     1
102
RTVSPropertyOp33
 70
     1
102
RTVSPropertyOp34
 70
     1
102
RTVSPropertyOp35
 70
     1
102
RTVSPropertyOp36
 70
     1
102
RTVSPropertyOp37
 70
     1
102
RTVSPropertyOp38
 70
     1
102
RTVSPropertyOp39
 70
     1
102
RTVSPropertyOp40
 70
     1
102
RTVSPropertyOp41
 70
     1
102
RTVSPropertyOp42
 70
     1
102
RTVSPropertyOp43
 70
     1
102
RTVSPropertyOp44
 70
     1
102
RTVSPropertyOp45
 70
     1
102
RTVSPropertyOp46
 70
     1
102
RTVSPropertyOp47
 70
     1
102
RTVSPropertyOp48
 70
     1
102
RTVSPropertyOp49
 70
     1
102
RTVSPropertyOp50
 70
     1
102
RTVSPropertyOp51
 70
     0
102
RTVSPropertyOp52
 70
     0
102
RTVSPropertyOp53
 70
     1
102
RTVSPropertyOp54
 70
     1
102
RTVSPropertyOp55
 70
     1
102
RTVSPropertyOp56
 70
     1
102
RTVSPropertyOp57
 70
     1
102
RTVSPropertyOp58
 70
     1
102
RTVSPropertyOp59
 70
     1
102
RTVSPropertyOp60
 70
     1
102
RTVSPropertyOp61
 70
     1
102
RTVSPropertyOp62
 70
     1
  0
ENDSEC
  0
EOF
