  0
SECTION
  2
HEADER
  9
$ACADVER
  1
AC1015
  9
$ACADMAINTVER
 70
    20
  9
$DWGCODEPAGE
  3
ANSI_932
  9
$INSBASE
 10
0.0
 20
0.0
 30
0.0
  9
$EXTMIN
 10
9.848805
 20
9.999999999999998
 30
0.0
  9
$EXTMAX
 10
432.5178049999998
 20
259.872074
 30
0.0
  9
$LIMMIN
 10
0.0
 20
0.0
  9
$LIMMAX
 10
495.0
 20
341.25
  9
$ORTHOMODE
 70
     1
  9
$REGENMODE
 70
     1
  9
$FILLMODE
 70
     1
  9
$QTEXTMODE
 70
     0
  9
$MIRRTEXT
 70
     1
  9
$LTSCALE
 40
20.0
  9
$ATTMODE
 70
     1
  9
$TEXTSIZE
 40
5.0
  9
$TRACEWID
 40
1.0
  9
$TEXTSTYLE
  7
STANDARD
  9
$CLAYER
  8
0
  9
$CELTYPE
  6
BYLAYER
  9
$CECOLOR
 62
   256
  9
$CELTSCALE
 40
1.0
  9
$DISPSILH
 70
     0
  9
$DIMSCALE
 40
1.0
  9
$DIMASZ
 40
3.0
  9
$DIMEXO
 40
1.0
  9
$DIMDLI
 40
10.0
  9
$DIMRND
 40
0.0
  9
$DIMDLE
 40
0.0
  9
$DIMEXE
 40
1.0
  9
$DIMTP
 40
0.0
  9
$DIMTM
 40
0.0
  9
$DIMTXT
 40
3.2
  9
$DIMCEN
 40
0.0
  9
$DIMTSZ
 40
0.0
  9
$DIMTOL
 70
     0
  9
$DIMLIM
 70
     0
  9
$DIMTIH
 70
     0
  9
$DIMTOH
 70
     0
  9
$DIMSE1
 70
     0
  9
$DIMSE2
 70
     0
  9
$DIMTAD
 70
     3
  9
$DIMZIN
 70
     8
  9
$DIMBLK
  1

  9
$DIMASO
 70
     1
  9
$DIMSHO
 70
     1
  9
$DIMPOST
  1

  9
$DIMAPOST
  1

  9
$DIMALT
 70
     0
  9
$DIMALTD
 70
     2
  9
$DIMALTF
 40
25.4
  9
$DIMLFAC
 40
1.0
  9
$DIMTOFL
 70
     1
  9
$DIMTVP
 40
0.0
  9
$DIMTIX
 70
     0
  9
$DIMSOXD
 70
     0
  9
$DIMSAH
 70
     1
  9
$DIMBLK1
  1

  9
$DIMBLK2
  1

  9
$DIMSTYLE
  2
STANDARD
  9
$DIMCLRD
 70
     0
  9
$DIMCLRE
 70
     0
  9
$DIMCLRT
 70
     0
  9
$DIMTFAC
 40
1.0
  9
$DIMGAP
 40
1.0
  9
$DIMJUST
 70
     0
  9
$DIMSD1
 70
     0
  9
$DIMSD2
 70
     0
  9
$DIMTOLJ
 70
     1
  9
$DIMTZIN
 70
     0
  9
$DIMALTZ
 70
     0
  9
$DIMALTTZ
 70
     0
  9
$DIMUPT
 70
     0
  9
$DIMDEC
 70
     4
  9
$DIMTDEC
 70
     4
  9
$DIMALTU
 70
     2
  9
$DIMALTTD
 70
     2
  9
$DIMTXSTY
  7
STANDARD
  9
$DIMAUNIT
 70
     0
  9
$DIMADEC
 70
     0
  9
$DIMALTRND
 40
0.0
  9
$DIMAZIN
 70
     0
  9
$DIMDSEP
 70
    46
  9
$DIMATFIT
 70
     3
  9
$DIMFRAC
 70
     0
  9
$DIMLDRBLK
  1

  9
$DIMLUNIT
 70
     2
  9
$DIMLWD
 70
    -2
  9
$DIMLWE
 70
    -2
  9
$DIMTMOVE
 70
     0
  9
$LUNITS
 70
     2
  9
$LUPREC
 70
     4
  9
$SKETCHINC
 40
1.0
  9
$FILLETRAD
 40
0.0
  9
$AUNITS
 70
     0
  9
$AUPREC
 70
     2
  9
$MENU
  1
.
  9
$ELEVATION
 40
0.0
  9
$PELEVATION
 40
0.0
  9
$THICKNESS
 40
0.0
  9
$LIMCHECK
 70
     0
  9
$CHAMFERA
 40
10.0
  9
$CHAMFERB
 40
10.0
  9
$CHAMFERC
 40
0.0
  9
$CHAMFERD
 40
0.0
  9
$SKPOLY
 70
     0
  9
$TDCREATE
 40
2450737.499444908
  9
$TDUCREATE
 40
2450737.124444907
  9
$TDUPDATE
 40
2457192.640477986
  9
$TDUUPDATE
 40
2457192.265477986
  9
$TDINDWG
 40
0.0000170718
  9
$TDUSRTIMER
 40
0.0000167708
  9
$USRTIMER
 70
     1
  9
$ANGBASE
 50
0.0
  9
$ANGDIR
 70
     0
  9
$PDMODE
 70
     0
  9
$PDSIZE
 40
0.0
  9
$PLINEWID
 40
0.0
  9
$SPLFRAME
 70
     0
  9
$SPLINETYPE
 70
     6
  9
$SPLINESEGS
 70
     8
  9
$HANDSEED
  5
9C7F
  9
$SURFTAB1
 70
     6
  9
$SURFTAB2
 70
     6
  9
$SURFTYPE
 70
     6
  9
$SURFU
 70
     6
  9
$SURFV
 70
     6
  9
$UCSBASE
  2

  9
$UCSNAME
  2

  9
$UCSORG
 10
0.0
 20
0.0
 30
0.0
  9
$UCSXDIR
 10
1.0
 20
0.0
 30
0.0
  9
$UCSYDIR
 10
0.0
 20
1.0
 30
0.0
  9
$UCSORTHOREF
  2

  9
$UCSORTHOVIEW
 70
     0
  9
$UCSORGTOP
 10
0.0
 20
0.0
 30
0.0
  9
$UCSORGBOTTOM
 10
0.0
 20
0.0
 30
0.0
  9
$UCSORGLEFT
 10
0.0
 20
0.0
 30
0.0
  9
$UCSORGRIGHT
 10
0.0
 20
0.0
 30
0.0
  9
$UCSORGFRONT
 10
0.0
 20
0.0
 30
0.0
  9
$UCSORGBACK
 10
0.0
 20
0.0
 30
0.0
  9
$PUCSBASE
  2

  9
$PUCSNAME
  2

  9
$PUCSORG
 10
0.0
 20
0.0
 30
0.0
  9
$PUCSXDIR
 10
1.0
 20
0.0
 30
0.0
  9
$PUCSYDIR
 10
0.0
 20
1.0
 30
0.0
  9
$PUCSORTHOREF
  2

  9
$PUCSORTHOVIEW
 70
     0
  9
$PUCSORGTOP
 10
0.0
 20
0.0
 30
0.0
  9
$PUCSORGBOTTOM
 10
0.0
 20
0.0
 30
0.0
  9
$PUCSORGLEFT
 10
0.0
 20
0.0
 30
0.0
  9
$PUCSORGRIGHT
 10
0.0
 20
0.0
 30
0.0
  9
$PUCSORGFRONT
 10
0.0
 20
0.0
 30
0.0
  9
$PUCSORGBACK
 10
0.0
 20
0.0
 30
0.0
  9
$USERI1
 70
     0
  9
$USERI2
 70
     0
  9
$USERI3
 70
     0
  9
$USERI4
 70
     0
  9
$USERI5
 70
     0
  9
$USERR1
 40
0.0
  9
$USERR2
 40
0.0
  9
$USERR3
 40
0.0
  9
$USERR4
 40
0.0
  9
$USERR5
 40
0.0
  9
$WORLDVIEW
 70
     1
  9
$SHADEDGE
 70
     3
  9
$SHADEDIF
 70
    70
  9
$TILEMODE
 70
     1
  9
$MAXACTVP
 70
    16
  9
$PINSBASE
 10
0.0
 20
0.0
 30
0.0
  9
$PLIMCHECK
 70
     0
  9
$PEXTMIN
 10
1.000000000000000E+20
 20
1.000000000000000E+20
 30
1.000000000000000E+20
  9
$PEXTMAX
 10
-1.000000000000000E+20
 20
-1.000000000000000E+20
 30
-1.000000000000000E+20
  9
$PLIMMIN
 10
0.0
 20
0.0
  9
$PLIMMAX
 10
420.0
 20
297.0
  9
$UNITMODE
 70
     0
  9
$VISRETAIN
 70
     0
  9
$PLINEGEN
 70
     0
  9
$PSLTSCALE
 70
     0
  9
$TREEDEPTH
 70
  3020
  9
$CMLSTYLE
  2
STANDARD
  9
$CMLJUST
 70
     0
  9
$CMLSCALE
 40
1.0
  9
$PROXYGRAPHICS
 70
     1
  9
$MEASUREMENT
 70
     0
  9
$CELWEIGHT
370
    -1
  9
$ENDCAPS
280
     0
  9
$JOINSTYLE
280
     0
  9
$LWDISPLAY
290
     0
  9
$INSUNITS
 70
     0
  9
$HYPERLINKBASE
  1

  9
$STYLESHEET
  1

  9
$XEDIT
290
     1
  9
$CEPSNTYPE
380
     0
  9
$PSTYLEMODE
290
     1
  9
$FINGERPRINTGUID
  2
{EA0A2587-A3BC-4AC7-B6B6-0154732BDE64}
  9
$VERSIONGUID
  2
{8A88DB99-B05B-45D6-A4D1-297DF15FA5B1}
  9
$EXTNAMES
290
     1
  9
$PSVPSCALE
 40
0.0
  9
$OLESTARTUP
290
     0
  0
ENDSEC
  0
SECTION
  2
CLASSES
  0
CLASS
  1
ACDBDICTIONARYWDFLT
  2
AcDbDictionaryWithDefault
  3
ObjectDBX Classes
 90
        0
280
     0
281
     0
  0
CLASS
  1
ACDBPLACEHOLDER
  2
AcDbPlaceHolder
  3
ObjectDBX Classes
 90
        0
280
     0
281
     0
  0
CLASS
  1
LAYOUT
  2
AcDbLayout
  3
ObjectDBX Classes
 90
        0
280
     0
281
     0
  0
CLASS
  1
DICTIONARYVAR
  2
AcDbDictionaryVar
  3
ObjectDBX Classes
 90
        0
280
     0
281
     0
  0
CLASS
  1
MATERIAL
  2
AcDbMaterial
  3
ObjectDBX Classes
 90
     1153
280
     0
281
     0
  0
CLASS
  1
VISUALSTYLE
  2
AcDbVisualStyle
  3
ObjectDBX Classes
 90
     4095
280
     0
281
     0
  0
CLASS
  1
TABLESTYLE
  2
AcDbTableStyle
  3
ObjectDBX Classes
 90
     4095
280
     0
281
     0
  0
CLASS
  1
SCALE
  2
AcDbScale
  3
ObjectDBX Classes
 90
     1153
280
     0
281
     0
  0
CLASS
  1
MLEADERSTYLE
  2
AcDbMLeaderStyle
  3
ACDB_MLEADERSTYLE_CLASS
 90
     4095
280
     0
281
     0
  0
CLASS
  1
ACDBSECTIONVIEWSTYLE
  2
AcDbSectionViewStyle
  3
ObjectDBX Classes
 90
     1025
280
     0
281
     0
  0
CLASS
  1
ACDBDETAILVIEWSTYLE
  2
AcDbDetailViewStyle
  3
ObjectDBX Classes
 90
     1025
280
     0
281
     0
  0
CLASS
  1
CELLSTYLEMAP
  2
AcDbCellStyleMap
  3
ObjectDBX Classes
 90
     1152
280
     0
281
     0
  0
ENDSEC
  0
SECTION
  2
TABLES
  0
TABLE
  2
VPORT
  5
982C
330
0
100
AcDbSymbolTable
 70
     1
  0
VPORT
  5
9BC8
330
982C
100
AcDbSymbolTableRecord
100
AcDbViewportTableRecord
  2
*ACTIVE
 70
     0
 10
0.0
 20
0.0
 11
1.0
 21
1.0
 12
296.8825595500728
 22
134.9305923362327
 13
0.0
 23
0.0
 14
10.0
 24
10.0
 15
10.0
 25
10.0
 16
0.0
 26
0.0
 36
1.0
 17
0.0
 27
0.0
 37
0.0
 40
252.6817335165497
 41
1.899603698811096
 42
50.0
 43
0.0
 44
0.0
 50
0.0
 51
0.0
 71
     0
 72
   100
 73
     1
 74
     0
 75
     0
 76
     0
 77
     0
 78
     0
281
     0
 65
     1
110
0.0
120
0.0
130
0.0
111
1.0
121
0.0
131
0.0
112
0.0
122
1.0
132
0.0
 79
     0
146
0.0
1001
ACAD_NAV_VCDISPLAY
1070
     3
  0
ENDTAB
  0
TABLE
  2
LTYPE
  5
9829
330
0
100
AcDbSymbolTable
 70
     4
  0
LTYPE
  5
9837
330
9829
100
AcDbSymbolTableRecord
100
AcDbLinetypeTableRecord
  2
BYBLOCK
 70
     0
  3

 72
    65
 73
     0
 40
0.0
  0
LTYPE
  5
9838
330
9829
100
AcDbSymbolTableRecord
100
AcDbLinetypeTableRecord
  2
BYLAYER
 70
     0
  3

 72
    65
 73
     0
 40
0.0
  0
LTYPE
  5
9839
330
9829
100
AcDbSymbolTableRecord
100
AcDbLinetypeTableRecord
  2
CONTINUOUS
 70
     0
  3
Solid line
 72
    65
 73
     0
 40
0.0
  0
LTYPE
  5
9847
330
9829
100
AcDbSymbolTableRecord
100
AcDbLinetypeTableRecord
  2
DASHED
 70
     0
  3
__ __ __ __ __ __ __ __ __ __ __ __ __ __ __ __
 72
    65
 73
     2
 40
0.75
 49
0.5
 74
     0
 49
-0.25
 74
     0
  0
LTYPE
  5
9848
330
9829
100
AcDbSymbolTableRecord
100
AcDbLinetypeTableRecord
  2
CENTER
 70
     0
  3
____ _ ____ _ ____ _ ____ _ ____ _ ____ _ ____ 
 72
    65
 73
     4
 40
2.0
 49
1.25
 74
     0
 49
-0.25
 74
     0
 49
0.25
 74
     0
 49
-0.25
 74
     0
  0
LTYPE
  5
9849
330
9829
100
AcDbSymbolTableRecord
100
AcDbLinetypeTableRecord
  2
PHANTOM
 70
     0
  3
______  __  __  ______  __  __  ______  __  __ 
 72
    65
 73
     6
 40
2.5
 49
1.25
 74
     0
 49
-0.25
 74
     0
 49
0.25
 74
     0
 49
-0.25
 74
     0
 49
0.25
 74
     0
 49
-0.25
 74
     0
  0
ENDTAB
  0
TABLE
  2
LAYER
  5
9826
330
0
100
AcDbSymbolTable
 70
     8
  0
LAYER
  5
9834
102
{ACAD_XDICTIONARY
360
9C23
102
}
330
9826
100
AcDbSymbolTableRecord
100
AcDbLayerTableRecord
  2
0
 70
     0
 62
     7
  6
CONTINUOUS
370
    -3
390
9BD1
  0
LAYER
  5
984A
102
{ACAD_XDICTIONARY
360
9C25
102
}
330
9826
100
AcDbSymbolTableRecord
100
AcDbLayerTableRecord
  2
4
 70
     0
 62
     1
  6
CENTER
370
    -3
390
9BD1
  0
LAYER
  5
984B
102
{ACAD_XDICTIONARY
360
9C27
102
}
330
9826
100
AcDbSymbolTableRecord
100
AcDbLayerTableRecord
  2
5
 70
     0
 62
     6
  6
PHANTOM
370
    -3
390
9BD1
  0
LAYER
  5
984C
102
{ACAD_XDICTIONARY
360
9C29
102
}
330
9826
100
AcDbSymbolTableRecord
100
AcDbLayerTableRecord
  2
1
 70
     0
 62
     7
  6
CONTINUOUS
370
    -3
390
9BD1
  0
LAYER
  5
984D
102
{ACAD_XDICTIONARY
360
9C2B
102
}
330
9826
100
AcDbSymbolTableRecord
100
AcDbLayerTableRecord
  2
2
 70
     0
 62
     4
  6
CONTINUOUS
370
    -3
390
9BD1
  0
LAYER
  5
984E
102
{ACAD_XDICTIONARY
360
9C2D
102
}
330
9826
100
AcDbSymbolTableRecord
100
AcDbLayerTableRecord
  2
3
 70
     0
 62
     2
  6
DASHED
370
    -3
390
9BD1
  0
LAYER
  5
984F
102
{ACAD_XDICTIONARY
360
9C2F
102
}
330
9826
100
AcDbSymbolTableRecord
100
AcDbLayerTableRecord
  2
6
 70
     0
 62
     5
  6
CONTINUOUS
370
    -3
390
9BD1
  0
LAYER
  5
9850
102
{ACAD_XDICTIONARY
360
9C31
102
}
330
9826
100
AcDbSymbolTableRecord
100
AcDbLayerTableRecord
  2
7
 70
     0
 62
     3
  6
CONTINUOUS
370
    -3
390
9BD1
  0
ENDTAB
  0
TABLE
  2
STYLE
  5
9827
330
0
100
AcDbSymbolTable
 70
     1
  0
STYLE
  5
9835
330
9827
100
AcDbSymbolTableRecord
100
AcDbTextStyleTableRecord
  2
STANDARD
 70
     0
 40
0.0
 41
1.0
 50
0.0
 71
     0
 42
5.0
  3
txt
  4

  0
ENDTAB
  0
TABLE
  2
VIEW
  5
982A
330
0
100
AcDbSymbolTable
 70
     0
  0
ENDTAB
  0
TABLE
  2
UCS
  5
982B
330
0
100
AcDbSymbolTable
 70
     0
  0
ENDTAB
  0
TABLE
  2
APPID
  5
982D
330
0
100
AcDbSymbolTable
 70
     3
  0
APPID
  5
9836
330
982D
100
AcDbSymbolTableRecord
100
AcDbRegAppTableRecord
  2
ACAD
 70
     0
  0
APPID
  5
9C3D
330
982D
100
AcDbSymbolTableRecord
100
AcDbRegAppTableRecord
  2
ACAD_NAV_VCDISPLAY
 70
     0
  0
APPID
  5
9C76
330
982D
100
AcDbSymbolTableRecord
100
AcDbRegAppTableRecord
  2
ACAD_MLEADERVER
 70
     0
  0
ENDTAB
  0
TABLE
  2
DIMSTYLE
  5
982E
330
0
100
AcDbSymbolTable
 70
     1
100
AcDbDimStyleTable
 71
     0
  0
DIMSTYLE
105
9852
330
982E
100
AcDbSymbolTableRecord
100
AcDbDimStyleTableRecord
  2
STANDARD
 70
     0
 41
3.0
 42
1.0
 43
10.0
 44
1.0
 73
     0
 74
     0
 77
     3
 78
     8
140
3.2
141
0.0
147
1.0
172
     1
173
     1
284
     8
285
     8
286
     8
340
9835
  0
ENDTAB
  0
TABLE
  2
BLOCK_RECORD
  5
9825
330
0
100
AcDbSymbolTable
 70
     0
  0
BLOCK_RECORD
  5
9842
102
{ACAD_XDICTIONARY
360
9BCB
102
}
330
9825
100
AcDbSymbolTableRecord
100
AcDbBlockTableRecord
  2
*MODEL_SPACE
340
9C1F
  0
BLOCK_RECORD
  5
983E
102
{ACAD_XDICTIONARY
360
9BC9
102
}
330
9825
100
AcDbSymbolTableRecord
100
AcDbBlockTableRecord
  2
*PAPER_SPACE
340
9C20
  0
ENDTAB
  0
ENDSEC
  0
SECTION
  2
BLOCKS
  0
BLOCK
  5
9843
330
9842
100
AcDbEntity
  8
0
100
AcDbBlockBegin
  2
*MODEL_SPACE
 70
     0
 10
0.0
 20
0.0
 30
0.0
  3
*MODEL_SPACE
  1

  0
ENDBLK
  5
9844
330
9842
100
AcDbEntity
  8
0
100
AcDbBlockEnd
  0
BLOCK
  5
983F
330
983E
100
AcDbEntity
 67
     1
  8
0
100
AcDbBlockBegin
  2
*PAPER_SPACE
 70
     0
 10
0.0
 20
0.0
 30
0.0
  3
*PAPER_SPACE
  1

  0
ENDBLK
  5
9840
330
983E
100
AcDbEntity
 67
     1
  8
0
100
AcDbBlockEnd
  0
ENDSEC
  0
SECTION
  2
ENTITIES
  0
TEXT
  5
985A
330
9842
100
AcDbEntity
  8
7
  6
Continuous
100
AcDbText
 10
10.0
 20
18.0
 30
0.0
 40
3.0
  1
TYPE No.THA-300JS-2K
100
AcDbText
  0
TEXT
  5
985B
330
9842
100
AcDbEntity
  8
7
  6
Continuous
100
AcDbText
 10
10.0
 20
26.0
 30
0.0
 40
3.0
  1
CODE No.3751
100
AcDbText
  0
TEXT
  5
985C
330
9842
100
AcDbEntity
  8
1
  6
Continuous
100
AcDbText
 10
10.0
 20
10.0
 30
0.0
 40
1.399999999999999
  1
LAYER
100
AcDbText
  0
TEXT
  5
985D
330
9842
100
AcDbEntity
  8
1
  6
Continuous
100
AcDbText
 10
17.97951099999998
 20
10.04873699999998
 30
0.0
 40
1.399999999999999
  1
1
100
AcDbText
  0
TEXT
  5
985E
330
9842
100
AcDbEntity
  8
7
  6
Continuous
100
AcDbText
 10
29.97951099999999
 20
10.04873699999998
 30
0.0
 40
1.399999999999999
  1
7
100
AcDbText
  0
TEXT
  5
985F
330
9842
100
AcDbEntity
  8
4
  6
CENTER
100
AcDbText
 10
23.97951099999999
 20
10.04873699999998
 30
0.0
 40
1.399999999999999
  1
4
100
AcDbText
  0
TEXT
  5
9860
330
9842
100
AcDbEntity
  8
3
  6
DASHED
100
AcDbText
 10
21.979511
 20
10.04873699999998
 30
0.0
 40
1.399999999999999
  1
3
100
AcDbText
  0
TEXT
  5
9861
330
9842
100
AcDbEntity
  8
2
  6
Continuous
100
AcDbText
 10
19.97951099999999
 20
10.04873699999998
 30
0.0
 40
1.399999999999999
  1
2
100
AcDbText
  0
TEXT
  5
9862
330
9842
100
AcDbEntity
  8
6
  6
Continuous
100
AcDbText
 10
27.979511
 20
10.04873699999998
 30
0.0
 40
1.399999999999999
  1
6
100
AcDbText
  0
TEXT
  5
9863
330
9842
100
AcDbEntity
  8
5
  6
PHANTOM
100
AcDbText
 10
25.97951099999999
 20
10.04873699999998
 30
0.0
 40
1.399999999999999
  1
5
100
AcDbText
  0
LINE
  5
9864
330
9842
100
AcDbEntity
  8
4
  6
CENTER
100
AcDbLine
 10
72.97880499999997
 20
145.286874
 30
0.0
 11
131.932705
 21
145.286874
 31
0.0
  0
LINE
  5
9865
330
9842
100
AcDbEntity
  8
4
  6
CENTER
100
AcDbLine
 10
125.548805
 20
158.7912739999999
 30
0.0
 11
9.848805
 21
91.991974
 31
0.0
  0
LINE
  5
9866
330
9842
100
AcDbEntity
  8
4
  6
CENTER
100
AcDbLine
 10
203.9009049999999
 20
145.286874
 30
0.0
 11
276.6592049999998
 21
145.286874
 31
0.0
  0
LINE
  5
9867
330
9842
100
AcDbEntity
  8
5
  6
PHANTOM
100
AcDbLine
 10
122.1208049999999
 20
141.5124739999999
 30
0.0
 11
94.926805
 21
125.812044
 31
0.0
  0
LINE
  5
9868
330
9842
100
AcDbEntity
  8
5
  6
PHANTOM
100
AcDbLine
 10
108.870805
 20
164.462174
 30
0.0
 11
81.67680500000001
 21
148.7616739999999
 31
0.0
  0
LINE
  5
9869
330
9842
100
AcDbEntity
  8
1
  6
Continuous
100
AcDbLine
 10
113.407805
 20
161.0090739999999
 30
0.0
 11
113.407805
 21
127.286884
 31
0.0
  0
LINE
  5
986A
330
9842
100
AcDbEntity
  8
1
  6
Continuous
100
AcDbLine
 10
90.90780499999999
 20
161.0090739999999
 30
0.0
 11
90.90780499999999
 21
127.286884
 31
0.0
  0
LINE
  5
986B
330
9842
100
AcDbEntity
  8
5
  6
PHANTOM
100
AcDbLine
 10
12.749805
 20
100.147474
 30
0.0
 11
18.361805
 21
90.426374
 31
0.0
  0
LINE
  5
986C
330
9842
100
AcDbEntity
  8
5
  6
PHANTOM
100
AcDbLine
 10
13.199805
 20
102.1341739999999
 30
0.0
 11
75.09180499999998
 21
144.609974
 31
0.0
  0
LINE
  5
986D
330
9842
100
AcDbEntity
  8
5
  6
PHANTOM
100
AcDbLine
 10
20.307805
 20
89.822874
 30
0.0
 11
88.03880500000003
 21
122.185124
 31
0.0
  0
LINE
  5
986E
330
9842
100
AcDbEntity
  8
1
  6
Continuous
100
AcDbLine
 10
209.363805
 20
164.016174
 30
0.0
 11
209.363805
 21
127.286884
 31
0.0
  0
LINE
  5
986F
330
9842
100
AcDbEntity
  8
1
  6
Continuous
100
AcDbLine
 10
223.363795
 20
166.786874
 30
0.0
 11
223.363795
 21
60.018774
 31
0.0
  0
LINE
  5
9870
330
9842
100
AcDbEntity
  8
1
  6
Continuous
100
AcDbLine
 10
252.3638049999999
 20
169.286874
 30
0.0
 11
252.3638049999999
 21
121.286884
 31
0.0
  0
LINE
  5
9871
330
9842
100
AcDbEntity
  8
1
  6
Continuous
100
AcDbLine
 10
244.363805
 20
169.286874
 30
0.0
 11
244.363805
 21
121.286884
 31
0.0
  0
LINE
  5
9872
330
9842
100
AcDbEntity
  8
1
  6
Continuous
100
AcDbLine
 10
244.363805
 20
121.286884
 30
0.0
 11
252.3638049999999
 21
121.286884
 31
0.0
  0
LINE
  5
9873
330
9842
100
AcDbEntity
  8
1
  6
Continuous
100
AcDbLine
 10
244.363805
 20
169.286874
 30
0.0
 11
252.3638049999999
 21
169.286874
 31
0.0
  0
LINE
  5
9874
330
9842
100
AcDbEntity
  8
1
  6
Continuous
100
AcDbLine
 10
223.363795
 20
123.786884
 30
0.0
 11
244.363805
 21
121.286884
 31
0.0
  0
LINE
  5
9875
330
9842
100
AcDbEntity
  8
1
  6
Continuous
100
AcDbLine
 10
223.363795
 20
166.786874
 30
0.0
 11
244.363805
 21
169.286874
 31
0.0
  0
LINE
  5
9876
330
9842
100
AcDbEntity
  8
1
  6
Continuous
100
AcDbLine
 10
272.6638049999999
 20
241.458074
 30
0.0
 11
272.6638049999999
 21
230.286074
 31
0.0
  0
LINE
  5
9877
330
9842
100
AcDbEntity
  8
1
  6
Continuous
100
AcDbLine
 10
267.6638049999999
 20
242.872074
 30
0.0
 11
267.6638049999999
 21
228.8719739999999
 31
0.0
  0
LINE
  5
9878
330
9842
100
AcDbEntity
  8
4
  6
CENTER
100
AcDbLine
 10
432.5178049999998
 20
145.286874
 30
0.0
 11
372.8078049999999
 21
145.286874
 31
0.0
  0
LINE
  5
9879
330
9842
100
AcDbEntity
  8
4
  6
CENTER
100
AcDbLine
 10
403.169805
 20
174.8197739999999
 30
0.0
 11
403.169805
 21
38.120874
 31
0.0
  0
LINE
  5
987A
330
9842
100
AcDbEntity
  8
1
  6
Continuous
100
AcDbLine
 10
118.657805
 20
161.3725739999999
 30
0.0
 11
118.657805
 21
129.201173
 31
0.0
  0
LINE
  5
987B
330
9842
100
AcDbEntity
  8
1
  6
Continuous
100
AcDbLine
 10
85.65780499999998
 20
161.3725739999999
 30
0.0
 11
85.65780499999998
 21
129.201173
 31
0.0
  0
LINE
  5
987C
330
9842
100
AcDbEntity
  8
1
  6
Continuous
100
AcDbLine
 10
252.3638049999999
 20
123.286884
 30
0.0
 11
253.3638049999999
 21
123.286884
 31
0.0
  0
LINE
  5
987D
330
9842
100
AcDbEntity
  8
1
  6
Continuous
100
AcDbLine
 10
252.3638049999999
 20
167.286874
 30
0.0
 11
253.3638049999999
 21
167.286874
 31
0.0
  0
LINE
  5
987E
330
9842
100
AcDbEntity
  8
1
  6
Continuous
100
AcDbLine
 10
253.3638049999999
 20
167.286874
 30
0.0
 11
253.3638049999999
 21
123.286884
 31
0.0
  0
LINE
  5
987F
330
9842
100
AcDbEntity
  8
1
  6
Continuous
100
AcDbLine
 10
254.863805
 20
164.786874
 30
0.0
 11
254.863805
 21
160.286874
 31
0.0
  0
LINE
  5
9880
330
9842
100
AcDbEntity
  8
1
  6
Continuous
100
AcDbLine
 10
253.3638049999999
 20
160.286874
 30
0.0
 11
254.863805
 21
160.286874
 31
0.0
  0
LINE
  5
9881
330
9842
100
AcDbEntity
  8
1
  6
Continuous
100
AcDbLine
 10
253.3638049999999
 20
130.2868839999999
 30
0.0
 11
254.863805
 21
130.2868839999999
 31
0.0
  0
LINE
  5
9882
330
9842
100
AcDbEntity
  8
1
  6
Continuous
100
AcDbLine
 10
253.3638049999999
 20
164.786874
 30
0.0
 11
254.863805
 21
164.786874
 31
0.0
  0
LINE
  5
9883
330
9842
100
AcDbEntity
  8
1
  6
Continuous
100
AcDbLine
 10
253.3638049999999
 20
125.786884
 30
0.0
 11
254.863805
 21
125.786884
 31
0.0
  0
LINE
  5
9884
330
9842
100
AcDbEntity
  8
1
  6
Continuous
100
AcDbLine
 10
254.863805
 20
130.2868839999999
 30
0.0
 11
254.863805
 21
125.786884
 31
0.0
  0
LINE
  5
9885
330
9842
100
AcDbEntity
  8
1
  6
Continuous
100
AcDbLine
 10
253.3638049999999
 20
224.8719739999999
 30
0.0
 11
266.8638049999998
 21
224.8719739999999
 31
0.0
  0
LINE
  5
9886
330
9842
100
AcDbEntity
  8
1
  6
Continuous
100
AcDbLine
 10
253.3638049999999
 20
246.872074
 30
0.0
 11
266.8638049999998
 21
246.872074
 31
0.0
  0
LINE
  5
9887
330
9842
100
AcDbEntity
  8
1
  6
Continuous
100
AcDbLine
 10
267.3638049999999
 20
246.372074
 30
0.0
 11
267.3638049999999
 21
225.371974
 31
0.0
  0
LINE
  5
9888
330
9842
100
AcDbEntity
  8
1
  6
Continuous
100
AcDbLine
 10
266.8638049999998
 20
246.872074
 30
0.0
 11
267.3638049999999
 21
246.372074
 31
0.0
  0
LINE
  5
9889
330
9842
100
AcDbEntity
  8
1
  6
Continuous
100
AcDbLine
 10
267.3638049999999
 20
225.371974
 30
0.0
 11
266.8638049999998
 21
224.872074
 31
0.0
  0
LINE
  5
988A
330
9842
100
AcDbEntity
  8
1
  6
Continuous
100
AcDbLine
 10
266.8638049999998
 20
246.872074
 30
0.0
 11
266.8638049999998
 21
224.8719739999999
 31
0.0
  0
LINE
  5
988B
330
9842
100
AcDbEntity
  8
2
  6
Continuous
100
AcDbLine
 10
253.3638049999999
 20
226.2249740000001
 30
0.0
 11
267.3638049999999
 21
226.2249740000001
 31
0.0
  0
LINE
  5
988C
330
9842
100
AcDbEntity
  8
2
  6
Continuous
100
AcDbLine
 10
253.3638049999999
 20
245.5190739999999
 30
0.0
 11
267.3638049999999
 21
245.5190739999999
 31
0.0
  0
LINE
  5
988D
330
9842
100
AcDbEntity
  8
1
  6
Continuous
100
AcDbLine
 10
267.3638049999999
 20
228.8719739999999
 30
0.0
 11
267.6638049999999
 21
228.8719739999999
 31
0.0
  0
LINE
  5
988E
330
9842
100
AcDbEntity
  8
1
  6
Continuous
100
AcDbLine
 10
267.3638049999999
 20
242.872074
 30
0.0
 11
267.6638049999999
 21
242.872074
 31
0.0
  0
LINE
  5
988F
330
9842
100
AcDbEntity
  8
1
  6
Continuous
100
AcDbLine
 10
267.6638049999999
 20
241.458074
 30
0.0
 11
272.6638049999999
 21
241.458074
 31
0.0
  0
LINE
  5
9890
330
9842
100
AcDbEntity
  8
1
  6
Continuous
100
AcDbLine
 10
267.6638049999999
 20
230.286074
 30
0.0
 11
272.6638049999999
 21
230.286074
 31
0.0
  0
LINE
  5
9891
330
9842
100
AcDbEntity
  8
1
  6
Continuous
100
AcDbLine
 10
267.6638049999999
 20
235.872074
 30
0.0
 11
272.6638049999999
 21
235.872074
 31
0.0
  0
LINE
  5
9892
330
9842
100
AcDbEntity
  8
2
  6
Continuous
100
AcDbLine
 10
267.6638049999999
 20
241.458074
 30
0.0
 11
272.6638049999999
 21
235.872074
 31
0.0
  0
LINE
  5
9893
330
9842
100
AcDbEntity
  8
2
  6
Continuous
100
AcDbLine
 10
272.6638049999999
 20
241.458074
 30
0.0
 11
267.6638049999999
 21
235.872074
 31
0.0
  0
LINE
  5
9894
330
9842
100
AcDbEntity
  8
2
  6
Continuous
100
AcDbLine
 10
267.6638049999999
 20
235.872074
 30
0.0
 11
272.6638049999999
 21
230.286074
 31
0.0
  0
LINE
  5
9895
330
9842
100
AcDbEntity
  8
2
  6
Continuous
100
AcDbLine
 10
267.6638049999999
 20
230.286074
 30
0.0
 11
272.6638049999999
 21
235.872074
 31
0.0
  0
LINE
  5
9896
330
9842
100
AcDbEntity
  8
4
  6
CENTER
100
AcDbLine
 10
204.754505
 20
235.872074
 30
0.0
 11
277.609305
 21
235.872074
 31
0.0
  0
LINE
  5
9897
330
9842
100
AcDbEntity
  8
1
  6
Continuous
100
AcDbLine
 10
223.363795
 20
249.122074
 30
0.0
 11
223.363795
 21
222.6219739999999
 31
0.0
  0
LINE
  5
9898
330
9842
100
AcDbEntity
  8
1
  6
Continuous
100
AcDbLine
 10
223.363795
 20
249.122074
 30
0.0
 11
211.6576049999999
 21
247.2810739999999
 31
0.0
  0
LINE
  5
9899
330
9842
100
AcDbEntity
  8
1
  6
Continuous
100
AcDbLine
 10
211.6576049999999
 20
224.462874
 30
0.0
 11
223.363795
 21
222.6219739999999
 31
0.0
  0
LINE
  5
989A
330
9842
100
AcDbEntity
  8
1
  6
Continuous
100
AcDbLine
 10
210.6458049999999
 20
160.3687739999998
 30
0.0
 11
210.6458049999999
 21
127.286884
 31
0.0
  0
LINE
  5
989B
330
9842
100
AcDbEntity
  8
1
  6
Continuous
100
AcDbLine
 10
212.0992049999999
 20
161.868074
 30
0.0
 11
223.363795
 21
162.218774
 31
0.0
  0
LINE
  5
989C
330
9842
100
AcDbEntity
  8
1
  6
Continuous
100
AcDbLine
 10
223.363795
 20
162.218774
 30
0.0
 11
242.7342049999999
 21
162.676774
 31
0.0
  0
LINE
  5
989D
330
9842
100
AcDbEntity
  8
1
  6
Continuous
100
AcDbLine
 10
223.363795
 20
128.3550329999999
 30
0.0
 11
242.7342049999999
 21
127.8969939999999
 31
0.0
  0
LINE
  5
989E
330
9842
100
AcDbEntity
  8
1
  6
Continuous
100
AcDbLine
 10
408.9308049999998
 20
50.28687399999999
 30
0.0
 11
397.4068049999999
 21
50.28687399999999
 31
0.0
  0
LINE
  5
989F
330
9842
100
AcDbEntity
  8
1
  6
Continuous
100
AcDbLine
 10
409.5308049999998
 20
98.28687399999999
 30
0.0
 11
408.719805
 21
98.28687399999999
 31
0.0
  0
LINE
  5
98A0
330
9842
100
AcDbEntity
  8
1
  6
Continuous
100
AcDbLine
 10
410.0248049999998
 20
100.7868739999999
 30
0.0
 11
408.719805
 21
100.7868739999999
 31
0.0
  0
LINE
  5
98A1
330
9842
100
AcDbEntity
  8
1
  6
Continuous
100
AcDbLine
 10
397.6198049999999
 20
98.28687399999999
 30
0.0
 11
396.794805
 21
98.28687399999999
 31
0.0
  0
LINE
  5
98A2
330
9842
100
AcDbEntity
  8
1
  6
Continuous
100
AcDbLine
 10
397.6198049999999
 20
100.7868739999999
 30
0.0
 11
396.2998049999998
 21
100.7868739999999
 31
0.0
  0
LINE
  5
98A3
330
9842
100
AcDbEntity
  8
1
  6
Continuous
100
AcDbLine
 10
252.3638049999999
 20
259.872074
 30
0.0
 11
252.3638049999999
 21
211.8719739999999
 31
0.0
  0
LINE
  5
98A4
330
9842
100
AcDbEntity
  8
1
  6
Continuous
100
AcDbLine
 10
244.363805
 20
257.872074
 30
0.0
 11
244.363805
 21
213.8719739999999
 31
0.0
  0
LINE
  5
98A5
330
9842
100
AcDbEntity
  8
1
  6
Continuous
100
AcDbLine
 10
242.669705
 20
252.110074
 30
0.0
 11
223.363795
 21
249.122074
 31
0.0
  0
LINE
  5
98A6
330
9842
100
AcDbEntity
  8
1
  6
Continuous
100
AcDbLine
 10
223.363795
 20
222.6219739999999
 30
0.0
 11
242.669705
 21
219.634174
 31
0.0
  0
LINE
  5
98A7
330
9842
100
AcDbEntity
  8
1
  6
Continuous
100
AcDbLine
 10
246.3638049999999
 20
259.872074
 30
0.0
 11
252.3638049999999
 21
259.872074
 31
0.0
  0
LINE
  5
98A8
330
9842
100
AcDbEntity
  8
1
  6
Continuous
100
AcDbLine
 10
246.3638049999999
 20
211.8719739999999
 30
0.0
 11
252.3638049999999
 21
211.8719739999999
 31
0.0
  0
LINE
  5
98A9
330
9842
100
AcDbEntity
  8
1
  6
Continuous
100
AcDbLine
 10
254.863805
 20
239.372074
 30
0.0
 11
254.863805
 21
232.372074
 31
0.0
  0
LINE
  5
98AA
330
9842
100
AcDbEntity
  8
1
  6
Continuous
100
AcDbLine
 10
253.3638049999999
 20
239.372074
 30
0.0
 11
254.863805
 21
239.372074
 31
0.0
  0
LINE
  5
98AB
330
9842
100
AcDbEntity
  8
1
  6
Continuous
100
AcDbLine
 10
253.3638049999999
 20
232.372074
 30
0.0
 11
254.863805
 21
232.372074
 31
0.0
  0
LINE
  5
98AC
330
9842
100
AcDbEntity
  8
1
  6
Continuous
100
AcDbLine
 10
253.3638049999999
 20
257.872074
 30
0.0
 11
253.3638049999999
 21
213.8719739999999
 31
0.0
  0
LINE
  5
98AD
330
9842
100
AcDbEntity
  8
1
  6
Continuous
100
AcDbLine
 10
252.3638049999999
 20
213.8719739999999
 30
0.0
 11
253.3638049999999
 21
213.8719739999999
 31
0.0
  0
LINE
  5
98AE
330
9842
100
AcDbEntity
  8
1
  6
Continuous
100
AcDbLine
 10
252.3638049999999
 20
257.872074
 30
0.0
 11
253.3638049999999
 21
257.872074
 31
0.0
  0
LINE
  5
98AF
330
9842
100
AcDbEntity
  8
2
  6
Continuous
100
AcDbLine
 10
267.6638049999999
 20
139.700774
 30
0.0
 11
272.6638049999999
 21
145.286874
 31
0.0
  0
LINE
  5
98B0
330
9842
100
AcDbEntity
  8
1
  6
Continuous
100
AcDbLine
 10
272.6638049999999
 20
150.873074
 30
0.0
 11
272.6638049999999
 21
139.700774
 31
0.0
  0
LINE
  5
98B1
330
9842
100
AcDbEntity
  8
1
  6
Continuous
100
AcDbLine
 10
267.6638049999999
 20
152.286874
 30
0.0
 11
267.6638049999999
 21
138.2868839999999
 31
0.0
  0
LINE
  5
98B2
330
9842
100
AcDbEntity
  8
1
  6
Continuous
100
AcDbLine
 10
253.3638049999999
 20
134.2868839999999
 30
0.0
 11
266.8638049999998
 21
134.2868839999999
 31
0.0
  0
LINE
  5
98B3
330
9842
100
AcDbEntity
  8
1
  6
Continuous
100
AcDbLine
 10
253.3638049999999
 20
156.286874
 30
0.0
 11
266.8638049999998
 21
156.286874
 31
0.0
  0
LINE
  5
98B4
330
9842
100
AcDbEntity
  8
1
  6
Continuous
100
AcDbLine
 10
267.3638049999999
 20
155.786874
 30
0.0
 11
267.3638049999999
 21
134.7868839999999
 31
0.0
  0
LINE
  5
98B5
330
9842
100
AcDbEntity
  8
1
  6
Continuous
100
AcDbLine
 10
266.8638049999998
 20
156.286874
 30
0.0
 11
267.3638049999999
 21
155.786874
 31
0.0
  0
LINE
  5
98B6
330
9842
100
AcDbEntity
  8
1
  6
Continuous
100
AcDbLine
 10
267.3638049999999
 20
134.7868839999999
 30
0.0
 11
266.8638049999998
 21
134.2868839999999
 31
0.0
  0
LINE
  5
98B7
330
9842
100
AcDbEntity
  8
1
  6
Continuous
100
AcDbLine
 10
266.8638049999998
 20
156.286874
 30
0.0
 11
266.8638049999998
 21
134.2868839999999
 31
0.0
  0
LINE
  5
98B8
330
9842
100
AcDbEntity
  8
2
  6
Continuous
100
AcDbLine
 10
253.3638049999999
 20
135.6398839999999
 30
0.0
 11
267.3638049999999
 21
135.6398839999999
 31
0.0
  0
LINE
  5
98B9
330
9842
100
AcDbEntity
  8
2
  6
Continuous
100
AcDbLine
 10
253.3638049999999
 20
154.933874
 30
0.0
 11
267.3638049999999
 21
154.933874
 31
0.0
  0
LINE
  5
98BA
330
9842
100
AcDbEntity
  8
1
  6
Continuous
100
AcDbLine
 10
267.3638049999999
 20
138.2868839999999
 30
0.0
 11
267.6638049999999
 21
138.2868839999999
 31
0.0
  0
LINE
  5
98BB
330
9842
100
AcDbEntity
  8
1
  6
Continuous
100
AcDbLine
 10
267.3638049999999
 20
152.286874
 30
0.0
 11
267.6638049999999
 21
152.286874
 31
0.0
  0
LINE
  5
98BC
330
9842
100
AcDbEntity
  8
1
  6
Continuous
100
AcDbLine
 10
267.6638049999999
 20
150.873074
 30
0.0
 11
272.6638049999999
 21
150.873074
 31
0.0
  0
LINE
  5
98BD
330
9842
100
AcDbEntity
  8
1
  6
Continuous
100
AcDbLine
 10
267.6638049999999
 20
139.700774
 30
0.0
 11
272.6638049999999
 21
139.700774
 31
0.0
  0
LINE
  5
98BE
330
9842
100
AcDbEntity
  8
1
  6
Continuous
100
AcDbLine
 10
267.6638049999999
 20
145.286874
 30
0.0
 11
272.6638049999999
 21
145.286874
 31
0.0
  0
LINE
  5
98BF
330
9842
100
AcDbEntity
  8
2
  6
Continuous
100
AcDbLine
 10
267.6638049999999
 20
150.8729739999999
 30
0.0
 11
272.6638049999999
 21
145.286874
 31
0.0
  0
LINE
  5
98C0
330
9842
100
AcDbEntity
  8
2
  6
Continuous
100
AcDbLine
 10
272.6638049999999
 20
150.873074
 30
0.0
 11
267.6638049999999
 21
145.286874
 31
0.0
  0
LINE
  5
98C1
330
9842
100
AcDbEntity
  8
2
  6
Continuous
100
AcDbLine
 10
267.6638049999999
 20
145.286874
 30
0.0
 11
272.6638049999999
 21
139.700774
 31
0.0
  0
LINE
  5
98C2
330
9842
100
AcDbEntity
  8
1
  6
Continuous
100
AcDbLine
 10
226.3637929999999
 20
123.429734
 30
0.0
 11
226.3637929999999
 21
119.286884
 31
0.0
  0
LINE
  5
98C3
330
9842
100
AcDbEntity
  8
1
  6
Continuous
100
AcDbLine
 10
227.841735
 20
98.702874
 30
0.0
 11
223.363795
 21
96.14407400000001
 31
0.0
  0
LINE
  5
98C4
330
9842
100
AcDbEntity
  8
1
  6
Continuous
100
AcDbLine
 10
408.1698049999998
 20
121.8134939999999
 30
0.0
 11
408.1698049999998
 21
96.286874
 31
0.0
  0
LINE
  5
98C5
330
9842
100
AcDbEntity
  8
1
  6
Continuous
100
AcDbLine
 10
398.1698049999998
 20
121.8134939999999
 30
0.0
 11
398.1698049999998
 21
96.286874
 31
0.0
  0
LINE
  5
98C6
330
9842
100
AcDbEntity
  8
1
  6
Continuous
100
AcDbLine
 10
398.7978049999999
 20
101.286874
 30
0.0
 11
407.418805
 21
101.286874
 31
0.0
  0
LINE
  5
98C7
330
9842
100
AcDbEntity
  8
1
  6
Continuous
100
AcDbLine
 10
399.169805
 20
95.286874
 30
0.0
 11
407.169805
 21
95.286874
 31
0.0
  0
LINE
  5
98C8
330
9842
100
AcDbEntity
  8
1
  6
Continuous
100
AcDbLine
 10
115.407805
 20
160.6877739999999
 30
0.0
 11
115.407805
 21
127.286884
 31
0.0
  0
LINE
  5
98C9
330
9842
100
AcDbEntity
  8
1
  6
Continuous
100
AcDbLine
 10
88.90780500000003
 20
160.6877739999999
 30
0.0
 11
88.90780500000003
 21
127.286884
 31
0.0
  0
LINE
  5
98CA
330
9842
100
AcDbEntity
  8
1
  6
Continuous
100
AcDbLine
 10
397.5598049999999
 20
45.28687399999999
 30
0.0
 11
408.7788049999998
 21
45.28687399999999
 31
0.0
  0
LINE
  5
98CB
330
9842
100
AcDbEntity
  8
5
  6
PHANTOM
100
AcDbLine
 10
184.008805
 20
89.822874
 30
0.0
 11
116.277805
 21
122.185134
 31
0.0
  0
LINE
  5
98CC
330
9842
100
AcDbEntity
  8
5
  6
PHANTOM
100
AcDbLine
 10
191.1167049999999
 20
102.1341739999999
 30
0.0
 11
129.2246049999999
 21
144.609974
 31
0.0
  0
LINE
  5
98CD
330
9842
100
AcDbEntity
  8
5
  6
PHANTOM
100
AcDbLine
 10
185.954505
 20
90.426374
 30
0.0
 11
191.5670049999999
 21
100.147474
 31
0.0
  0
LINE
  5
98CE
330
9842
100
AcDbEntity
  8
5
  6
PHANTOM
100
AcDbLine
 10
95.445805
 20
164.462174
 30
0.0
 11
122.639805
 21
148.7616739999999
 31
0.0
  0
LINE
  5
98CF
330
9842
100
AcDbEntity
  8
5
  6
PHANTOM
100
AcDbLine
 10
82.19580499999997
 20
141.5124739999999
 30
0.0
 11
109.389805
 21
125.812044
 31
0.0
  0
LINE
  5
98D0
330
9842
100
AcDbEntity
  8
4
  6
CENTER
100
AcDbLine
 10
96.31080500000001
 20
153.3178739999998
 30
0.0
 11
124.524805
 21
186.942374
 31
0.0
  0
LINE
  5
98D1
330
9842
100
AcDbEntity
  8
4
  6
CENTER
100
AcDbLine
 10
78.822805
 20
158.759474
 30
0.0
 11
194.4677049999999
 21
91.991974
 31
0.0
  0
LINE
  5
98D2
330
9842
100
AcDbEntity
  8
1
  6
Continuous
100
AcDbLine
 10
388.169805
 20
153.9471739999999
 30
0.0
 11
403.169805
 21
162.607374
 31
0.0
  0
LINE
  5
98D3
330
9842
100
AcDbEntity
  8
1
  6
Continuous
100
AcDbLine
 10
403.169805
 20
127.9663739999999
 30
0.0
 11
418.1698049999998
 21
136.6266339999999
 31
0.0
  0
LINE
  5
98D4
330
9842
100
AcDbEntity
  8
1
  6
Continuous
100
AcDbLine
 10
388.169805
 20
153.9471739999999
 30
0.0
 11
388.169805
 21
136.6266239999999
 31
0.0
  0
LINE
  5
98D5
330
9842
100
AcDbEntity
  8
1
  6
Continuous
100
AcDbLine
 10
418.1698049999998
 20
153.9471739999999
 30
0.0
 11
418.1698049999998
 21
136.6266239999999
 31
0.0
  0
LINE
  5
98D6
330
9842
100
AcDbEntity
  8
1
  6
Continuous
100
AcDbLine
 10
388.169805
 20
136.6266239999999
 30
0.0
 11
403.169805
 21
127.9663739999999
 31
0.0
  0
LINE
  5
98D7
330
9842
100
AcDbEntity
  8
1
  6
Continuous
100
AcDbLine
 10
403.169805
 20
162.607374
 30
0.0
 11
418.1698049999998
 21
153.9471739999999
 31
0.0
  0
LINE
  5
98D8
330
9842
100
AcDbEntity
  8
1
  6
Continuous
100
AcDbLine
 10
304.3108049999998
 20
250.872074
 30
0.0
 11
304.3108049999998
 21
220.8719739999999
 31
0.0
  0
LINE
  5
98D9
330
9842
100
AcDbEntity
  8
1
  6
Continuous
100
AcDbLine
 10
308.3108049999998
 20
250.872074
 30
0.0
 11
308.3108049999998
 21
220.8719739999999
 31
0.0
  0
LINE
  5
98DA
330
9842
100
AcDbEntity
  8
1
  6
Continuous
100
AcDbLine
 10
309.8108049999999
 20
249.872074
 30
0.0
 11
309.8108049999999
 21
221.871974
 31
0.0
  0
LINE
  5
98DB
330
9842
100
AcDbEntity
  8
1
  6
Continuous
100
AcDbLine
 10
302.8108049999999
 20
249.872074
 30
0.0
 11
302.8108049999999
 21
221.871974
 31
0.0
  0
LINE
  5
98DC
330
9842
100
AcDbEntity
  8
1
  6
Continuous
100
AcDbLine
 10
302.8108049999999
 20
249.872074
 30
0.0
 11
304.3108049999998
 21
249.872074
 31
0.0
  0
LINE
  5
98DD
330
9842
100
AcDbEntity
  8
1
  6
Continuous
100
AcDbLine
 10
302.8108049999999
 20
221.871974
 30
0.0
 11
304.3108049999998
 21
221.871974
 31
0.0
  0
LINE
  5
98DE
330
9842
100
AcDbEntity
  8
1
  6
Continuous
100
AcDbLine
 10
304.3108049999998
 20
220.8719739999999
 30
0.0
 11
308.3108049999998
 21
220.8719739999999
 31
0.0
  0
LINE
  5
98DF
330
9842
100
AcDbEntity
  8
1
  6
Continuous
100
AcDbLine
 10
304.3108049999998
 20
250.872074
 30
0.0
 11
308.3108049999998
 21
250.872074
 31
0.0
  0
LINE
  5
98E0
330
9842
100
AcDbEntity
  8
1
  6
Continuous
100
AcDbLine
 10
308.3108049999998
 20
221.871974
 30
0.0
 11
309.8108049999999
 21
221.871974
 31
0.0
  0
LINE
  5
98E1
330
9842
100
AcDbEntity
  8
1
  6
Continuous
100
AcDbLine
 10
308.3108049999998
 20
249.872074
 30
0.0
 11
309.8108049999999
 21
249.872074
 31
0.0
  0
LINE
  5
98E2
330
9842
100
AcDbEntity
  8
1
  6
Continuous
100
AcDbLine
 10
304.9326049999999
 20
235.872074
 30
0.0
 11
307.6888049999999
 21
235.872074
 31
0.0
  0
LINE
  5
98E3
330
9842
100
AcDbEntity
  8
4
  6
CENTER
100
AcDbLine
 10
294.6160699999999
 20
235.872074
 30
0.0
 11
351.9405799999999
 21
235.872074
 31
0.0
  0
LINE
  5
98E4
330
9842
100
AcDbEntity
  8
1
  6
Continuous
100
AcDbLine
 10
304.3108049999998
 20
160.286874
 30
0.0
 11
304.3108049999998
 21
130.2868839999999
 31
0.0
  0
LINE
  5
98E5
330
9842
100
AcDbEntity
  8
1
  6
Continuous
100
AcDbLine
 10
308.3108049999998
 20
160.286874
 30
0.0
 11
308.3108049999998
 21
130.2868839999999
 31
0.0
  0
LINE
  5
98E6
330
9842
100
AcDbEntity
  8
1
  6
Continuous
100
AcDbLine
 10
309.8108049999999
 20
159.286874
 30
0.0
 11
309.8108049999999
 21
131.2868839999999
 31
0.0
  0
LINE
  5
98E7
330
9842
100
AcDbEntity
  8
1
  6
Continuous
100
AcDbLine
 10
302.8108049999999
 20
159.286874
 30
0.0
 11
302.8108049999999
 21
131.2868839999999
 31
0.0
  0
LINE
  5
98E8
330
9842
100
AcDbEntity
  8
1
  6
Continuous
100
AcDbLine
 10
304.9326049999999
 20
162.607374
 30
0.0
 11
307.6888049999999
 21
162.607374
 31
0.0
  0
LINE
  5
98E9
330
9842
100
AcDbEntity
  8
1
  6
Continuous
100
AcDbLine
 10
304.9326049999999
 20
127.9663739999999
 30
0.0
 11
307.6888049999999
 21
127.9663739999999
 31
0.0
  0
LINE
  5
98EA
330
9842
100
AcDbEntity
  8
1
  6
Continuous
100
AcDbLine
 10
302.8108049999999
 20
159.286874
 30
0.0
 11
304.3108049999998
 21
159.286874
 31
0.0
  0
LINE
  5
98EB
330
9842
100
AcDbEntity
  8
1
  6
Continuous
100
AcDbLine
 10
302.8108049999999
 20
131.2868839999999
 30
0.0
 11
304.3108049999998
 21
131.2868839999999
 31
0.0
  0
LINE
  5
98EC
330
9842
100
AcDbEntity
  8
1
  6
Continuous
100
AcDbLine
 10
308.3108049999998
 20
160.286874
 30
0.0
 11
307.6888049999999
 21
162.607374
 31
0.0
  0
LINE
  5
98ED
330
9842
100
AcDbEntity
  8
1
  6
Continuous
100
AcDbLine
 10
304.9326049999999
 20
127.9663739999999
 30
0.0
 11
304.3108049999998
 21
130.2868839999999
 31
0.0
  0
LINE
  5
98EE
330
9842
100
AcDbEntity
  8
1
  6
Continuous
100
AcDbLine
 10
307.6888049999999
 20
127.9663739999999
 30
0.0
 11
308.3108049999998
 21
130.2868839999999
 31
0.0
  0
LINE
  5
98EF
330
9842
100
AcDbEntity
  8
1
  6
Continuous
100
AcDbLine
 10
304.3108049999998
 20
160.286874
 30
0.0
 11
304.9326049999999
 21
162.607374
 31
0.0
  0
LINE
  5
98F0
330
9842
100
AcDbEntity
  8
1
  6
Continuous
100
AcDbLine
 10
304.9326049999999
 20
136.6266239999999
 30
0.0
 11
307.6888049999999
 21
136.6266239999999
 31
0.0
  0
LINE
  5
98F1
330
9842
100
AcDbEntity
  8
1
  6
Continuous
100
AcDbLine
 10
304.9326049999999
 20
153.9471739999999
 30
0.0
 11
307.6888049999999
 21
153.9471739999999
 31
0.0
  0
LINE
  5
98F2
330
9842
100
AcDbEntity
  8
1
  6
Continuous
100
AcDbLine
 10
308.3108049999998
 20
131.2868839999999
 30
0.0
 11
309.8108049999999
 21
131.2868839999999
 31
0.0
  0
LINE
  5
98F3
330
9842
100
AcDbEntity
  8
1
  6
Continuous
100
AcDbLine
 10
308.3108049999998
 20
159.286874
 30
0.0
 11
309.8108049999999
 21
159.286874
 31
0.0
  0
LINE
  5
98F4
330
9842
100
AcDbEntity
  8
1
  6
Continuous
100
AcDbLine
 10
301.3108049999999
 20
247.872074
 30
0.0
 11
301.3108049999999
 21
223.871974
 31
0.0
  0
LINE
  5
98F5
330
9842
100
AcDbEntity
  8
1
  6
Continuous
100
AcDbLine
 10
326.540805
 20
244.872074
 30
0.0
 11
326.540805
 21
226.8719739999999
 31
0.0
  0
LINE
  5
98F6
330
9842
100
AcDbEntity
  8
1
  6
Continuous
100
AcDbLine
 10
324.5408049999999
 20
244.872074
 30
0.0
 11
327.5408049999999
 21
244.872074
 31
0.0
  0
LINE
  5
98F7
330
9842
100
AcDbEntity
  8
1
  6
Continuous
100
AcDbLine
 10
324.5408049999999
 20
226.8719739999999
 30
0.0
 11
327.5408049999999
 21
226.8719739999999
 31
0.0
  0
LINE
  5
98F8
330
9842
100
AcDbEntity
  8
1
  6
Continuous
100
AcDbLine
 10
341.7778049999999
 20
243.872074
 30
0.0
 11
341.7778049999999
 21
227.871974
 31
0.0
  0
LINE
  5
98F9
330
9842
100
AcDbEntity
  8
1
  6
Continuous
100
AcDbLine
 10
340.277805
 20
227.871974
 30
0.0
 11
341.7778049999999
 21
227.871974
 31
0.0
  0
LINE
  5
98FA
330
9842
100
AcDbEntity
  8
1
  6
Continuous
100
AcDbLine
 10
340.277805
 20
243.872074
 30
0.0
 11
341.7778049999999
 21
243.872074
 31
0.0
  0
LINE
  5
98FB
330
9842
100
AcDbEntity
  8
4
  6
CENTER
100
AcDbLine
 10
294.6160699999999
 20
145.286874
 30
0.0
 11
351.9405799999999
 21
145.286874
 31
0.0
  0
LINE
  5
98FC
330
9842
100
AcDbEntity
  8
1
  6
Continuous
100
AcDbLine
 10
301.3108049999999
 20
157.286874
 30
0.0
 11
301.3108049999999
 21
133.2868839999999
 31
0.0
  0
LINE
  5
98FD
330
9842
100
AcDbEntity
  8
1
  6
Continuous
100
AcDbLine
 10
341.7778049999999
 20
153.286874
 30
0.0
 11
341.7778049999999
 21
137.2868839999999
 31
0.0
  0
LINE
  5
98FE
330
9842
100
AcDbEntity
  8
1
  6
Continuous
100
AcDbLine
 10
340.277805
 20
137.2868839999999
 30
0.0
 11
341.7778049999999
 21
137.2868839999999
 31
0.0
  0
LINE
  5
98FF
330
9842
100
AcDbEntity
  8
1
  6
Continuous
100
AcDbLine
 10
340.277805
 20
153.286874
 30
0.0
 11
341.7778049999999
 21
153.286874
 31
0.0
  0
LINE
  5
9900
330
9842
100
AcDbEntity
  8
1
  6
Continuous
100
AcDbLine
 10
343.0778049999998
 20
149.905674
 30
0.0
 11
343.0778049999998
 21
140.6680739999998
 31
0.0
  0
LINE
  5
9901
330
9842
100
AcDbEntity
  8
1
  6
Continuous
100
AcDbLine
 10
343.0778049999998
 20
146.3869739999998
 30
0.0
 11
341.7778049999999
 21
145.0869739999999
 31
0.0
  0
LINE
  5
9902
330
9842
100
AcDbEntity
  8
1
  6
Continuous
100
AcDbLine
 10
343.0778049999998
 20
145.3969739999998
 30
0.0
 11
341.7778049999999
 21
144.0969739999998
 31
0.0
  0
LINE
  5
9903
330
9842
100
AcDbEntity
  8
1
  6
Continuous
100
AcDbLine
 10
343.0778049999998
 20
140.6868739999999
 30
0.0
 11
341.7778049999999
 21
140.6868739999999
 31
0.0
  0
LINE
  5
9904
330
9842
100
AcDbEntity
  8
1
  6
Continuous
100
AcDbLine
 10
343.0778049999998
 20
149.8868739999998
 30
0.0
 11
341.7778049999999
 21
149.8868739999998
 31
0.0
  0
LINE
  5
9905
330
9842
100
AcDbEntity
  8
1
  6
Continuous
100
AcDbLine
 10
346.5778049999999
 20
141.286874
 30
0.0
 11
346.5778049999999
 21
149.286874
 31
0.0
  0
LINE
  5
9906
330
9842
100
AcDbEntity
  8
1
  6
Continuous
100
AcDbLine
 10
346.220805
 20
149.905674
 30
0.0
 11
343.434805
 21
149.905674
 31
0.0
  0
LINE
  5
9907
330
9842
100
AcDbEntity
  8
1
  6
Continuous
100
AcDbLine
 10
346.220805
 20
140.6680739999998
 30
0.0
 11
343.434805
 21
140.6680739999998
 31
0.0
  0
LINE
  5
9908
330
9842
100
AcDbEntity
  8
1
  6
Continuous
100
AcDbLine
 10
346.5778049999999
 20
141.286874
 30
0.0
 11
346.220805
 21
140.6680739999998
 31
0.0
  0
LINE
  5
9909
330
9842
100
AcDbEntity
  8
1
  6
Continuous
100
AcDbLine
 10
346.5778049999999
 20
149.286874
 30
0.0
 11
346.220805
 21
149.905674
 31
0.0
  0
LINE
  5
990A
330
9842
100
AcDbEntity
  8
1
  6
Continuous
100
AcDbLine
 10
346.220805
 20
147.5962739999999
 30
0.0
 11
343.434805
 21
147.5962739999999
 31
0.0
  0
LINE
  5
990B
330
9842
100
AcDbEntity
  8
1
  6
Continuous
100
AcDbLine
 10
346.220805
 20
142.977474
 30
0.0
 11
343.434805
 21
142.977474
 31
0.0
  0
LINE
  5
990C
330
9842
100
AcDbEntity
  8
1
  6
Continuous
100
AcDbLine
 10
343.0778049999998
 20
149.286874
 30
0.0
 11
343.434805
 21
149.905674
 31
0.0
  0
LINE
  5
990D
330
9842
100
AcDbEntity
  8
1
  6
Continuous
100
AcDbLine
 10
343.0778049999998
 20
141.286874
 30
0.0
 11
343.434805
 21
140.6680739999998
 31
0.0
  0
LINE
  5
990E
330
9842
100
AcDbEntity
  8
1
  6
Continuous
100
AcDbLine
 10
343.0778049999998
 20
240.472074
 30
0.0
 11
343.0778049999998
 21
231.272074
 31
0.0
  0
LINE
  5
990F
330
9842
100
AcDbEntity
  8
1
  6
Continuous
100
AcDbLine
 10
343.0778049999998
 20
236.9720739999999
 30
0.0
 11
341.7778049999999
 21
235.672074
 31
0.0
  0
LINE
  5
9910
330
9842
100
AcDbEntity
  8
1
  6
Continuous
100
AcDbLine
 10
343.0778049999998
 20
235.9820739999999
 30
0.0
 11
341.7778049999999
 21
234.682074
 31
0.0
  0
LINE
  5
9911
330
9842
100
AcDbEntity
  8
1
  6
Continuous
100
AcDbLine
 10
343.0778049999998
 20
240.472074
 30
0.0
 11
341.7778049999999
 21
240.472074
 31
0.0
  0
LINE
  5
9912
330
9842
100
AcDbEntity
  8
1
  6
Continuous
100
AcDbLine
 10
343.0778049999998
 20
231.272074
 30
0.0
 11
341.7778049999999
 21
231.272074
 31
0.0
  0
LINE
  5
9913
330
9842
100
AcDbEntity
  8
1
  6
Continuous
100
AcDbLine
 10
343.0778049999998
 20
231.872074
 30
0.0
 11
346.5778049999999
 21
231.872074
 31
0.0
  0
LINE
  5
9914
330
9842
100
AcDbEntity
  8
1
  6
Continuous
100
AcDbLine
 10
343.434805
 20
235.872074
 30
0.0
 11
346.220805
 21
235.872074
 31
0.0
  0
LINE
  5
9915
330
9842
100
AcDbEntity
  8
1
  6
Continuous
100
AcDbLine
 10
343.0778049999998
 20
239.872074
 30
0.0
 11
346.5778049999999
 21
239.872074
 31
0.0
  0
LINE
  5
9916
330
9842
100
AcDbEntity
  8
1
  6
Continuous
100
AcDbLine
 10
346.5778049999999
 20
231.872074
 30
0.0
 11
346.5778049999999
 21
239.872074
 31
0.0
  0
LINE
  5
9917
330
9842
100
AcDbEntity
  8
1
  6
Continuous
100
AcDbLine
 10
399.169805
 20
202.4140739999999
 30
0.0
 11
403.169805
 21
204.7234739999999
 31
0.0
  0
LINE
  5
9918
330
9842
100
AcDbEntity
  8
1
  6
Continuous
100
AcDbLine
 10
403.169805
 20
204.7234739999999
 30
0.0
 11
407.169805
 21
202.4140739999999
 31
0.0
  0
LINE
  5
9919
330
9842
100
AcDbEntity
  8
1
  6
Continuous
100
AcDbLine
 10
399.169805
 20
197.795274
 30
0.0
 11
399.169805
 21
202.4140739999999
 31
0.0
  0
LINE
  5
991A
330
9842
100
AcDbEntity
  8
1
  6
Continuous
100
AcDbLine
 10
399.169805
 20
197.795274
 30
0.0
 11
403.169805
 21
195.4858739999998
 31
0.0
  0
LINE
  5
991B
330
9842
100
AcDbEntity
  8
1
  6
Continuous
100
AcDbLine
 10
403.169805
 20
195.4858739999998
 30
0.0
 11
407.169805
 21
197.795274
 31
0.0
  0
LINE
  5
991C
330
9842
100
AcDbEntity
  8
1
  6
Continuous
100
AcDbLine
 10
407.169805
 20
197.795274
 30
0.0
 11
407.169805
 21
202.4140739999999
 31
0.0
  0
LINE
  5
991D
330
9842
100
AcDbEntity
  8
4
  6
CENTER
100
AcDbLine
 10
415.669805
 20
200.104674
 30
0.0
 11
390.669805
 21
200.104674
 31
0.0
  0
LINE
  5
991E
330
9842
100
AcDbEntity
  8
4
  6
CENTER
100
AcDbLine
 10
403.169805
 20
212.604674
 30
0.0
 11
403.169805
 21
187.6046739999999
 31
0.0
  0
LINE
  5
991F
330
9842
100
AcDbEntity
  8
1
  6
Continuous
100
AcDbLine
 10
403.8908049999998
 20
199.3830739999999
 30
0.0
 11
404.4968049999998
 21
199.6656739999998
 31
0.0
  0
LINE
  5
9920
330
9842
100
AcDbEntity
  8
1
  6
Continuous
100
AcDbLine
 10
404.4968049999998
 20
199.6656739999998
 30
0.0
 11
405.582805
 21
199.684674
 31
0.0
  0
LINE
  5
9921
330
9842
100
AcDbEntity
  8
1
  6
Continuous
100
AcDbLine
 10
404.4968049999998
 20
200.543574
 30
0.0
 11
405.582805
 21
200.524674
 31
0.0
  0
LINE
  5
9922
330
9842
100
AcDbEntity
  8
1
  6
Continuous
100
AcDbLine
 10
403.8908049999998
 20
200.826274
 30
0.0
 11
404.4968049999998
 21
200.543574
 31
0.0
  0
LINE
  5
9923
330
9842
100
AcDbEntity
  8
1
  6
Continuous
100
AcDbLine
 10
403.608805
 20
201.432374
 30
0.0
 11
403.5898049999998
 21
202.518374
 31
0.0
  0
LINE
  5
9924
330
9842
100
AcDbEntity
  8
1
  6
Continuous
100
AcDbLine
 10
403.8908049999998
 20
200.826274
 30
0.0
 11
403.608805
 21
201.432374
 31
0.0
  0
LINE
  5
9925
330
9842
100
AcDbEntity
  8
1
  6
Continuous
100
AcDbLine
 10
402.4478049999998
 20
200.826274
 30
0.0
 11
402.730805
 21
201.432374
 31
0.0
  0
LINE
  5
9926
330
9842
100
AcDbEntity
  8
1
  6
Continuous
100
AcDbLine
 10
402.730805
 20
201.432374
 30
0.0
 11
402.749805
 21
202.518374
 31
0.0
  0
LINE
  5
9927
330
9842
100
AcDbEntity
  8
1
  6
Continuous
100
AcDbLine
 10
401.8418049999998
 20
200.543574
 30
0.0
 11
400.755805
 21
200.524674
 31
0.0
  0
LINE
  5
9928
330
9842
100
AcDbEntity
  8
1
  6
Continuous
100
AcDbLine
 10
402.4478049999998
 20
200.826274
 30
0.0
 11
401.8418049999998
 21
200.543574
 31
0.0
  0
LINE
  5
9929
330
9842
100
AcDbEntity
  8
1
  6
Continuous
100
AcDbLine
 10
402.4478049999998
 20
199.3829739999999
 30
0.0
 11
401.8418049999998
 21
199.6656739999998
 31
0.0
  0
LINE
  5
992A
330
9842
100
AcDbEntity
  8
1
  6
Continuous
100
AcDbLine
 10
401.8418049999998
 20
199.6656739999998
 30
0.0
 11
400.755805
 21
199.684674
 31
0.0
  0
LINE
  5
992B
330
9842
100
AcDbEntity
  8
1
  6
Continuous
100
AcDbLine
 10
402.730805
 20
198.7768739999999
 30
0.0
 11
402.749805
 21
197.690874
 31
0.0
  0
LINE
  5
992C
330
9842
100
AcDbEntity
  8
1
  6
Continuous
100
AcDbLine
 10
402.4478049999998
 20
199.3830739999999
 30
0.0
 11
402.730805
 21
198.7768739999999
 31
0.0
  0
LINE
  5
992D
330
9842
100
AcDbEntity
  8
1
  6
Continuous
100
AcDbLine
 10
403.8908049999998
 20
199.3830739999999
 30
0.0
 11
403.608805
 21
198.7768739999999
 31
0.0
  0
LINE
  5
992E
330
9842
100
AcDbEntity
  8
1
  6
Continuous
100
AcDbLine
 10
403.608805
 20
198.7768739999999
 30
0.0
 11
403.5898049999998
 21
197.690874
 31
0.0
  0
LINE
  5
992F
330
9842
100
AcDbEntity
  8
5
  6
PHANTOM
100
AcDbLine
 10
110.6948049999999
 20
152.1808739999999
 30
0.0
 11
129.598805
 21
174.7095739999998
 31
0.0
  0
LINE
  5
9930
330
9842
100
AcDbEntity
  8
5
  6
PHANTOM
100
AcDbLine
 10
92.692805
 20
167.2863739999999
 30
0.0
 11
111.5968049999999
 21
189.815074
 31
0.0
  0
LINE
  5
9931
330
9842
100
AcDbEntity
  8
3
  6
DASHED
100
AcDbLine
 10
103.2078049999999
 20
148.786874
 30
0.0
 11
103.2078049999999
 21
141.786874
 31
0.0
  0
LINE
  5
9932
330
9842
100
AcDbEntity
  8
3
  6
DASHED
100
AcDbLine
 10
101.107805
 20
148.786874
 30
0.0
 11
101.107805
 21
141.786874
 31
0.0
  0
LINE
  5
9933
330
9842
100
AcDbEntity
  8
3
  6
DASHED
100
AcDbLine
 10
101.107805
 20
148.786874
 30
0.0
 11
103.2078049999999
 21
148.786874
 31
0.0
  0
LINE
  5
9934
330
9842
100
AcDbEntity
  8
3
  6
DASHED
100
AcDbLine
 10
101.107805
 20
141.786874
 30
0.0
 11
103.2078049999999
 21
141.786874
 31
0.0
  0
LINE
  5
9935
330
9842
100
AcDbEntity
  8
1
  6
Continuous
100
AcDbLine
 10
90.40780500000002
 20
161.0090739999999
 30
0.0
 11
90.40780500000002
 21
131.5999939999999
 31
0.0
  0
LINE
  5
9936
330
9842
100
AcDbEntity
  8
1
  6
Continuous
100
AcDbLine
 10
113.907805
 20
161.0090739999999
 30
0.0
 11
113.907805
 21
131.5999939999999
 31
0.0
  0
LINE
  5
9937
330
9842
100
AcDbEntity
  8
4
  6
CENTER
100
AcDbLine
 10
102.157805
 20
174.263574
 30
0.0
 11
102.157805
 21
38.697074
 31
0.0
  0
LINE
  5
9938
330
9842
100
AcDbEntity
  8
1
  6
Continuous
100
AcDbLine
 10
212.3638049999999
 20
165.786874
 30
0.0
 11
212.3638049999999
 21
131.5999939999999
 31
0.0
  0
LINE
  5
9939
330
9842
100
AcDbEntity
  8
1
  6
Continuous
100
AcDbLine
 10
209.363805
 20
129.286882
 30
0.0
 11
212.3638049999999
 21
131.5999939999999
 31
0.0
  0
LINE
  5
993A
330
9842
100
AcDbEntity
  8
1
  6
Continuous
100
AcDbLine
 10
210.617205
 20
165.495774
 30
0.0
 11
212.3638049999999
 21
165.786874
 31
0.0
  0
LINE
  5
993B
330
9842
100
AcDbEntity
  8
1
  6
Continuous
100
AcDbLine
 10
212.3638049999999
 20
165.786874
 30
0.0
 11
223.363795
 21
166.786874
 31
0.0
  0
LINE
  5
993C
330
9842
100
AcDbEntity
  8
1
  6
Continuous
100
AcDbLine
 10
390.080805
 20
125.170044
 30
0.0
 11
396.063805
 21
46.672874
 31
0.0
  0
LINE
  5
993D
330
9842
100
AcDbEntity
  8
1
  6
Continuous
100
AcDbLine
 10
90.90780499999999
 20
127.286884
 30
0.0
 11
94.581805
 21
56.411174
 31
0.0
  0
LINE
  5
993E
330
9842
100
AcDbEntity
  8
1
  6
Continuous
100
AcDbLine
 10
113.407805
 20
127.286884
 30
0.0
 11
109.7348049999999
 21
56.411174
 31
0.0
  0
LINE
  5
993F
330
9842
100
AcDbEntity
  8
1
  6
Continuous
100
AcDbLine
 10
416.237805
 20
125.156734
 30
0.0
 11
410.2748049999998
 21
46.673274
 31
0.0
  0
LINE
  5
9940
330
9842
100
AcDbEntity
  8
1
  6
Continuous
100
AcDbLine
 10
209.363805
 20
127.286884
 30
0.0
 11
214.549805
 21
56.411174
 31
0.0
  0
LINE
  5
9941
330
9842
100
AcDbEntity
  8
1
  6
Continuous
100
AcDbLine
 10
231.3637949999999
 20
49.130374
 30
0.0
 11
231.3637949999999
 21
46.786874
 31
0.0
  0
LINE
  5
9942
330
9842
100
AcDbEntity
  8
1
  6
Continuous
100
AcDbLine
 10
226.5178249999999
 20
45.28687399999999
 30
0.0
 11
229.863795
 21
45.28687399999999
 31
0.0
  0
LINE
  5
9943
330
9842
100
AcDbEntity
  8
1
  6
Continuous
100
AcDbLine
 10
115.387805
 20
127.286884
 30
0.0
 11
109.263805
 21
46.673274
 31
0.0
  0
LINE
  5
9944
330
9842
100
AcDbEntity
  8
1
  6
Continuous
100
AcDbLine
 10
96.54780500000001
 20
45.28687399999999
 30
0.0
 11
107.767805
 21
45.28687399999999
 31
0.0
  0
LINE
  5
9945
330
9842
100
AcDbEntity
  8
1
  6
Continuous
100
AcDbLine
 10
88.90780500000003
 20
127.286884
 30
0.0
 11
95.05280500000001
 21
46.672874
 31
0.0
  0
LINE
  5
9946
330
9842
100
AcDbEntity
  8
1
  6
Continuous
100
AcDbLine
 10
413.6178049999998
 20
123.6808139999999
 30
0.0
 11
412.018805
 21
102.635374
 31
0.0
  0
LINE
  5
9947
330
9842
100
AcDbEntity
  8
1
  6
Continuous
100
AcDbLine
 10
392.7008049999998
 20
123.6904039999999
 30
0.0
 11
394.3058049999999
 21
102.6348739999999
 31
0.0
  0
LINE
  5
9948
330
9842
100
AcDbEntity
  8
1
  6
Continuous
100
AcDbLine
 10
398.119805
 20
100.286874
 30
0.0
 11
398.119805
 21
98.786874
 31
0.0
  0
LINE
  5
9949
330
9842
100
AcDbEntity
  8
1
  6
Continuous
100
AcDbLine
 10
408.219805
 20
100.286874
 30
0.0
 11
408.219805
 21
98.786874
 31
0.0
  0
LINE
  5
994A
330
9842
100
AcDbEntity
  8
1
  6
Continuous
100
AcDbLine
 10
394.8008049999998
 20
96.134874
 30
0.0
 11
398.1548049999998
 21
52.13487399999999
 31
0.0
  0
LINE
  5
994B
330
9842
100
AcDbEntity
  8
1
  6
Continuous
100
AcDbLine
 10
411.5258049999998
 20
96.13537400000002
 30
0.0
 11
408.1828049999998
 21
52.13537399999999
 31
0.0
  0
LINE
  5
994C
330
9842
100
AcDbEntity
  8
1
  6
Continuous
100
AcDbLine
 10
210.6458049999999
 20
127.286884
 30
0.0
 11
214.723705
 21
56.411174
 31
0.0
  0
LINE
  5
994D
330
9842
100
AcDbEntity
  8
1
  6
Continuous
100
AcDbLine
 10
86.34780499999997
 20
162.6098739999999
 30
0.0
 11
89.08280500000001
 21
162.192074
 31
0.0
  0
LINE
  5
994E
330
9842
100
AcDbEntity
  8
1
  6
Continuous
100
AcDbLine
 10
115.390805
 20
162.2159739999998
 30
0.0
 11
118.062805
 21
162.6243739999999
 31
0.0
  0
LINE
  5
994F
330
9842
100
AcDbEntity
  8
1
  6
Continuous
100
AcDbLine
 10
86.34780499999997
 20
127.9638939999999
 30
0.0
 11
88.632805
 21
128.3129839999998
 31
0.0
  0
LINE
  5
9950
330
9842
100
AcDbEntity
  8
1
  6
Continuous
100
AcDbLine
 10
115.6768049999999
 20
128.313982
 30
0.0
 11
118.062805
 21
127.9494139999999
 31
0.0
  0
LINE
  5
9951
330
9842
100
AcDbEntity
  8
1
  6
Continuous
100
AcDbLine
 10
212.3638049999999
 20
247.392074
 30
0.0
 11
212.3638049999999
 21
224.351874
 31
0.0
  0
ARC
  5
9952
330
9842
100
AcDbEntity
  8
1
  6
Continuous
100
AcDbCircle
 10
102.157805
 20
145.286874
 30
0.0
 40
20.0
100
AcDbArc
 50
58.19519999999999
 51
121.805
  0
ARC
  5
9953
330
9842
100
AcDbEntity
  8
5
  6
PHANTOM
100
AcDbCircle
 10
102.157805
 20
145.286874
 30
0.0
 40
21.49999999999999
100
AcDbArc
 50
356.3539999999999
 51
63.6456
  0
ARC
  5
9954
330
9842
100
AcDbEntity
  8
5
  6
PHANTOM
100
AcDbCircle
 10
110.370805
 20
161.864074
 30
0.0
 40
3.0
100
AcDbArc
 50
63.6456
 51
119.9999999999999
  0
ARC
  5
9955
330
9842
100
AcDbEntity
  8
5
  6
PHANTOM
100
AcDbCircle
 10
120.620805
 20
144.1105739999999
 30
0.0
 40
3.0
100
AcDbArc
 50
300.0
 51
356.3539999999999
  0
ARC
  5
9956
330
9842
100
AcDbEntity
  8
5
  6
PHANTOM
100
AcDbCircle
 10
44.926805
 20
212.4145739999999
 30
0.0
 40
100.0
100
AcDbArc
 50
295.5389999999998
 51
300.0
  0
ARC
  5
9957
330
9842
100
AcDbEntity
  8
5
  6
PHANTOM
100
AcDbCircle
 10
131.676805
 20
62.159174
 30
0.0
 40
100.0
100
AcDbArc
 50
119.9999999999999
 51
124.4609999999999
  0
ARC
  5
9958
330
9842
100
AcDbEntity
  8
5
  6
PHANTOM
100
AcDbCircle
 10
14.04880499999999
 20
100.897374
 30
0.0
 40
1.5
100
AcDbArc
 50
124.4609999999999
 51
210.0
  0
ARC
  5
9959
330
9842
100
AcDbEntity
  8
5
  6
PHANTOM
100
AcDbCircle
 10
19.660805
 20
91.17637399999999
 30
0.0
 40
1.5
100
AcDbArc
 50
210.0
 51
295.5389999999998
  0
ARC
  5
995A
330
9842
100
AcDbEntity
  8
1
  6
Continuous
100
AcDbCircle
 10
102.157805
 20
145.286874
 30
0.0
 40
24.0
100
AcDbArc
 50
303.2739999999999
 51
236.7259999999999
  0
ARC
  5
995B
330
9842
100
AcDbEntity
  8
1
  6
Continuous
100
AcDbCircle
 10
88.65780500000004
 20
161.3725739999999
 30
0.0
 40
3.0
100
AcDbArc
 50
130.0049999999999
 51
180.0
  0
ARC
  5
995C
330
9842
100
AcDbEntity
  8
1
  6
Continuous
100
AcDbCircle
 10
88.65780500000004
 20
129.201173
 30
0.0
 40
3.0
100
AcDbArc
 50
180.0
 51
229.995
  0
ARC
  5
995D
330
9842
100
AcDbEntity
  8
1
  6
Continuous
100
AcDbCircle
 10
115.657805
 20
161.3725739999999
 30
0.0
 40
3.0
100
AcDbArc
 50
0.0
 51
49.9948
  0
ARC
  5
995E
330
9842
100
AcDbEntity
  8
1
  6
Continuous
100
AcDbCircle
 10
115.657805
 20
129.201173
 30
0.0
 40
3.0
100
AcDbArc
 50
310.0049999999999
 51
0.0
  0
CIRCLE
  5
995F
330
9842
100
AcDbEntity
  8
1
  6
Continuous
100
AcDbCircle
 10
403.169805
 20
145.286874
 30
0.0
 40
24.0
  0
CIRCLE
  5
9960
330
9842
100
AcDbEntity
  8
1
  6
Continuous
100
AcDbCircle
 10
403.169805
 20
145.286874
 30
0.0
 40
22.5
  0
CIRCLE
  5
9961
330
9842
100
AcDbEntity
  8
1
  6
Continuous
100
AcDbCircle
 10
403.169805
 20
145.286874
 30
0.0
 40
22.0
  0
CIRCLE
  5
9962
330
9842
100
AcDbEntity
  8
1
  6
Continuous
100
AcDbCircle
 10
403.169805
 20
145.286874
 30
0.0
 40
11.0
  0
CIRCLE
  5
9963
330
9842
100
AcDbEntity
  8
2
  6
Continuous
100
AcDbCircle
 10
403.169805
 20
145.286874
 30
0.0
 40
9.647
  0
CIRCLE
  5
9964
330
9842
100
AcDbEntity
  8
1
  6
Continuous
100
AcDbCircle
 10
403.169805
 20
145.286874
 30
0.0
 40
7.049999999999998
  0
ARC
  5
9965
330
9842
100
AcDbEntity
  8
1
  6
Continuous
100
AcDbCircle
 10
403.169805
 20
129.2868809999999
 30
0.0
 40
3.5
100
AcDbArc
 50
169.0709999999999
 51
10.92899999999999
  0
ARC
  5
9966
330
9842
100
AcDbEntity
  8
1
  6
Continuous
100
AcDbCircle
 10
403.169805
 20
161.286874
 30
0.0
 40
3.5
100
AcDbArc
 50
349.0709999999999
 51
190.929
  0
ARC
  5
9967
330
9842
100
AcDbEntity
  8
1
  6
Continuous
100
AcDbCircle
 10
259.3638049999999
 20
235.872074
 30
0.0
 40
50.0
100
AcDbArc
 50
168.1889999999999
 51
191.8109999999998
  0
ARC
  5
9968
330
9842
100
AcDbEntity
  8
1
  6
Continuous
100
AcDbCircle
 10
211.8907049999999
 20
245.799074
 30
0.0
 40
1.5
100
AcDbArc
 50
98.9371
 51
168.1889999999999
  0
ARC
  5
9969
330
9842
100
AcDbEntity
  8
1
  6
Continuous
100
AcDbCircle
 10
211.8907049999999
 20
225.944674
 30
0.0
 40
1.5
100
AcDbArc
 50
191.8109999999998
 51
261.063
  0
ARC
  5
996A
330
9842
100
AcDbEntity
  8
1
  6
Continuous
100
AcDbCircle
 10
212.1458049999999
 20
160.3687739999998
 30
0.0
 40
1.5
100
AcDbArc
 50
91.78299999999998
 51
180.0
  0
ARC
  5
996B
330
9842
100
AcDbEntity
  8
1
  6
Continuous
100
AcDbCircle
 10
246.3638049999999
 20
257.872074
 30
0.0
 40
2.0
100
AcDbArc
 50
90.0
 51
180.0
  0
ARC
  5
996C
330
9842
100
AcDbEntity
  8
1
  6
Continuous
100
AcDbCircle
 10
246.3638049999999
 20
213.8719739999999
 30
0.0
 40
2.0
100
AcDbArc
 50
180.0
 51
270.0
  0
ARC
  5
996D
330
9842
100
AcDbEntity
  8
1
  6
Continuous
100
AcDbCircle
 10
242.363805
 20
217.6577739999999
 30
0.0
 40
2.0
100
AcDbArc
 50
0.0
 51
81.2026
  0
ARC
  5
996E
330
9842
100
AcDbEntity
  8
1
  6
Continuous
100
AcDbCircle
 10
242.363805
 20
254.086074
 30
0.0
 40
2.0
100
AcDbArc
 50
278.797
 51
0.0
  0
ARC
  5
996F
330
9842
100
AcDbEntity
  8
1
  6
Continuous
100
AcDbCircle
 10
256.3638049999998
 20
119.286884
 30
0.0
 40
30.0
100
AcDbArc
 50
180.0
 51
207.651
  0
ARC
  5
9970
330
9842
100
AcDbEntity
  8
1
  6
Continuous
100
AcDbCircle
 10
225.361037
 20
103.0440739999999
 30
0.0
 40
5.0
100
AcDbArc
 50
299.745
 51
27.6507
  0
ARC
  5
9971
330
9842
100
AcDbEntity
  8
1
  6
Continuous
100
AcDbCircle
 10
399.169805
 20
96.286874
 30
0.0
 40
1.0
100
AcDbArc
 50
180.0
 51
270.0
  0
ARC
  5
9972
330
9842
100
AcDbEntity
  8
1
  6
Continuous
100
AcDbCircle
 10
407.169805
 20
96.286874
 30
0.0
 40
1.0
100
AcDbArc
 50
270.0
 51
0.0
  0
ARC
  5
9973
330
9842
100
AcDbEntity
  8
1
  6
Continuous
100
AcDbCircle
 10
91.907805
 20
160.6877739999999
 30
0.0
 40
3.0
100
AcDbArc
 50
123.646
 51
180.0
  0
ARC
  5
9974
330
9842
100
AcDbEntity
  8
1
  6
Continuous
100
AcDbCircle
 10
102.157805
 20
145.286874
 30
0.0
 40
21.49999999999999
100
AcDbArc
 50
56.3544
 51
123.646
  0
ARC
  5
9975
330
9842
100
AcDbEntity
  8
1
  6
Continuous
100
AcDbCircle
 10
112.407805
 20
160.6877739999999
 30
0.0
 40
3.0
100
AcDbArc
 50
0.0
 51
56.3544
  0
ARC
  5
9976
330
9842
100
AcDbEntity
  8
5
  6
PHANTOM
100
AcDbCircle
 10
184.6554049999998
 20
91.17637399999999
 30
0.0
 40
1.5
100
AcDbArc
 50
244.4609999999999
 51
330.0
  0
ARC
  5
9977
330
9842
100
AcDbEntity
  8
5
  6
PHANTOM
100
AcDbCircle
 10
190.267905
 20
100.8974739999999
 30
0.0
 40
1.5
100
AcDbArc
 50
330.0
 51
55.53869999999999
  0
ARC
  5
9978
330
9842
100
AcDbEntity
  8
5
  6
PHANTOM
100
AcDbCircle
 10
72.63980500000002
 20
62.159174
 30
0.0
 40
100.0
100
AcDbArc
 50
55.53869999999999
 51
60.0
  0
ARC
  5
9979
330
9842
100
AcDbEntity
  8
5
  6
PHANTOM
100
AcDbCircle
 10
93.94580500000001
 20
161.864074
 30
0.0
 40
3.0
100
AcDbArc
 50
60.0
 51
116.354
  0
ARC
  5
997A
330
9842
100
AcDbEntity
  8
5
  6
PHANTOM
100
AcDbCircle
 10
102.157805
 20
145.286874
 30
0.0
 40
21.49999999999999
100
AcDbArc
 50
116.354
 51
183.6459999999999
  0
ARC
  5
997B
330
9842
100
AcDbEntity
  8
5
  6
PHANTOM
100
AcDbCircle
 10
83.69580499999997
 20
144.1105739999999
 30
0.0
 40
3.0
100
AcDbArc
 50
183.6459999999999
 51
239.9999999999999
  0
ARC
  5
997C
330
9842
100
AcDbEntity
  8
5
  6
PHANTOM
100
AcDbCircle
 10
159.3896049999999
 20
212.4145739999999
 30
0.0
 40
100.0
100
AcDbArc
 50
239.9999999999999
 51
244.4609999999999
  0
CIRCLE
  5
997D
330
9842
100
AcDbEntity
  8
1
  6
Continuous
100
AcDbCircle
 10
403.169805
 20
145.286874
 30
0.0
 40
15.0
  0
ARC
  5
997E
330
9842
100
AcDbEntity
  8
1
  6
Continuous
100
AcDbCircle
 10
319.6998049999999
 20
158.277274
 30
0.0
 40
15.3886
100
AcDbArc
 50
163.657
 51
196.3429999999999
  0
ARC
  5
997F
330
9842
100
AcDbEntity
  8
1
  6
Continuous
100
AcDbCircle
 10
364.9328049999998
 20
145.286874
 30
0.0
 40
60.6218
100
AcDbArc
 50
171.787
 51
188.213
  0
ARC
  5
9980
330
9842
100
AcDbEntity
  8
1
  6
Continuous
100
AcDbCircle
 10
319.6998049999999
 20
132.2965039999999
 30
0.0
 40
15.3886
100
AcDbArc
 50
163.657
 51
196.3429999999999
  0
ARC
  5
9981
330
9842
100
AcDbEntity
  8
1
  6
Continuous
100
AcDbCircle
 10
292.9222049999999
 20
158.277274
 30
0.0
 40
15.3886
100
AcDbArc
 50
343.6569999999999
 51
16.3429
  0
ARC
  5
9982
330
9842
100
AcDbEntity
  8
1
  6
Continuous
100
AcDbCircle
 10
247.6890049999999
 20
145.286874
 30
0.0
 40
60.6218
100
AcDbArc
 50
351.7869999999998
 51
8.21321
  0
ARC
  5
9983
330
9842
100
AcDbEntity
  8
1
  6
Continuous
100
AcDbCircle
 10
292.9222049999999
 20
132.2965039999999
 30
0.0
 40
15.3886
100
AcDbArc
 50
343.6569999999999
 51
16.3429
  0
ARC
  5
9984
330
9842
100
AcDbEntity
  8
1
  6
Continuous
100
AcDbCircle
 10
349.854805
 20
243.372074
 30
0.0
 40
45.54409999999999
100
AcDbArc
 50
170.5219999999999
 51
189.4779999999999
  0
ARC
  5
9985
330
9842
100
AcDbEntity
  8
1
  6
Continuous
100
AcDbCircle
 10
349.854805
 20
228.3719739999999
 30
0.0
 40
45.54409999999999
100
AcDbArc
 50
170.5219999999999
 51
189.4779999999999
  0
ARC
  5
9986
330
9842
100
AcDbEntity
  8
1
  6
Continuous
100
AcDbCircle
 10
262.766805
 20
243.372074
 30
0.0
 40
45.54409999999999
100
AcDbArc
 50
350.522
 51
9.4784
  0
ARC
  5
9987
330
9842
100
AcDbEntity
  8
1
  6
Continuous
100
AcDbCircle
 10
262.766805
 20
228.3719739999999
 30
0.0
 40
45.54409999999999
100
AcDbArc
 50
350.522
 51
9.4784
  0
ARC
  5
9988
330
9842
100
AcDbEntity
  8
1
  6
Continuous
100
AcDbCircle
 10
302.0608049999998
 20
247.872074
 30
0.0
 40
0.75
100
AcDbArc
 50
0.0
 51
180.0
  0
ARC
  5
9989
330
9842
100
AcDbEntity
  8
1
  6
Continuous
100
AcDbCircle
 10
302.0608049999998
 20
223.871974
 30
0.0
 40
0.75
100
AcDbArc
 50
180.0
 51
0.0
  0
ARC
  5
998A
330
9842
100
AcDbEntity
  8
1
  6
Continuous
100
AcDbCircle
 10
302.0608049999998
 20
157.286874
 30
0.0
 40
0.75
100
AcDbArc
 50
0.0
 51
180.0
  0
ARC
  5
998B
330
9842
100
AcDbEntity
  8
1
  6
Continuous
100
AcDbCircle
 10
302.0608049999998
 20
133.2868839999999
 30
0.0
 40
0.75
100
AcDbArc
 50
180.0
 51
0.0
  0
ARC
  5
998C
330
9842
100
AcDbEntity
  8
1
  6
Continuous
100
AcDbCircle
 10
344.532805
 20
148.7509739999999
 30
0.0
 40
2.044659999999999
100
AcDbArc
 50
325.6159999999998
 51
34.3842
  0
ARC
  5
998D
330
9842
100
AcDbEntity
  8
1
  6
Continuous
100
AcDbCircle
 10
344.532805
 20
141.822774
 30
0.0
 40
2.044659999999999
100
AcDbArc
 50
325.6159999999998
 51
34.3842
  0
ARC
  5
998E
330
9842
100
AcDbEntity
  8
1
  6
Continuous
100
AcDbCircle
 10
338.9348049999999
 20
145.286874
 30
0.0
 40
7.64273
100
AcDbArc
 50
342.4119999999998
 51
17.588
  0
ARC
  5
998F
330
9842
100
AcDbEntity
  8
1
  6
Continuous
100
AcDbCircle
 10
345.1228049999999
 20
141.822774
 30
0.0
 40
2.044659999999999
100
AcDbArc
 50
145.616
 51
214.3839999999999
  0
ARC
  5
9990
330
9842
100
AcDbEntity
  8
1
  6
Continuous
100
AcDbCircle
 10
350.720805
 20
145.286874
 30
0.0
 40
7.64273
100
AcDbArc
 50
162.412
 51
197.588
  0
ARC
  5
9991
330
9842
100
AcDbEntity
  8
1
  6
Continuous
100
AcDbCircle
 10
345.1228049999999
 20
148.7509739999999
 30
0.0
 40
2.044659999999999
100
AcDbArc
 50
145.616
 51
214.3839999999999
  0
ARC
  5
9992
330
9842
100
AcDbEntity
  8
1
  6
Continuous
100
AcDbCircle
 10
340.8008049999999
 20
233.872074
 30
0.0
 40
5.776709999999998
100
AcDbArc
 50
339.744
 51
20.25619999999999
  0
ARC
  5
9993
330
9842
100
AcDbEntity
  8
1
  6
Continuous
100
AcDbCircle
 10
340.8008049999999
 20
237.872074
 30
0.0
 40
5.776709999999998
100
AcDbArc
 50
339.744
 51
20.25619999999999
  0
ARC
  5
9994
330
9842
100
AcDbEntity
  8
1
  6
Continuous
100
AcDbCircle
 10
348.8548049999999
 20
233.872074
 30
0.0
 40
5.776709999999998
100
AcDbArc
 50
159.7439999999998
 51
200.2559999999999
  0
ARC
  5
9995
330
9842
100
AcDbEntity
  8
1
  6
Continuous
100
AcDbCircle
 10
348.8548049999999
 20
237.872074
 30
0.0
 40
5.776709999999998
100
AcDbArc
 50
159.7439999999998
 51
200.2559999999999
  0
CIRCLE
  5
9996
330
9842
100
AcDbEntity
  8
1
  6
Continuous
100
AcDbCircle
 10
403.169805
 20
200.104674
 30
0.0
 40
9.0
  0
CIRCLE
  5
9997
330
9842
100
AcDbEntity
  8
1
  6
Continuous
100
AcDbCircle
 10
403.169805
 20
200.104674
 30
0.0
 40
8.0
  0
CIRCLE
  5
9998
330
9842
100
AcDbEntity
  8
1
  6
Continuous
100
AcDbCircle
 10
403.169805
 20
200.104674
 30
0.0
 40
4.0
  0
ARC
  5
9999
330
9842
100
AcDbEntity
  8
1
  6
Continuous
100
AcDbCircle
 10
403.169805
 20
200.104674
 30
0.0
 40
4.599999999999997
100
AcDbArc
 50
90.4082
 51
149.592
  0
ARC
  5
999A
330
9842
100
AcDbEntity
  8
1
  6
Continuous
100
AcDbCircle
 10
403.169805
 20
200.104674
 30
0.0
 40
4.599999999999997
100
AcDbArc
 50
150.4079999999999
 51
209.592
  0
ARC
  5
999B
330
9842
100
AcDbEntity
  8
1
  6
Continuous
100
AcDbCircle
 10
403.169805
 20
200.104674
 30
0.0
 40
4.599999999999997
100
AcDbArc
 50
210.4079999999999
 51
269.592
  0
ARC
  5
999C
330
9842
100
AcDbEntity
  8
1
  6
Continuous
100
AcDbCircle
 10
403.169805
 20
200.104674
 30
0.0
 40
4.599999999999997
100
AcDbArc
 50
270.408
 51
329.5919999999999
  0
ARC
  5
999D
330
9842
100
AcDbEntity
  8
1
  6
Continuous
100
AcDbCircle
 10
403.169805
 20
200.104674
 30
0.0
 40
4.599999999999997
100
AcDbArc
 50
330.408
 51
29.59179999999999
  0
ARC
  5
999E
330
9842
100
AcDbEntity
  8
1
  6
Continuous
100
AcDbCircle
 10
403.169805
 20
200.104674
 30
0.0
 40
4.599999999999997
100
AcDbArc
 50
26.2919
 51
26.40619999999999
  0
ARC
  5
999F
330
9842
100
AcDbEntity
  8
1
  6
Continuous
100
AcDbCircle
 10
403.169805
 20
200.104674
 30
0.0
 40
4.599999999999997
100
AcDbArc
 50
27.46509999999998
 51
27.5307
  0
ARC
  5
99A0
330
9842
100
AcDbEntity
  8
1
  6
Continuous
100
AcDbCircle
 10
403.169805
 20
200.104674
 30
0.0
 40
4.599999999999997
100
AcDbArc
 50
30.4082
 51
89.59180000000001
  0
ARC
  5
99A1
330
9842
100
AcDbEntity
  8
1
  6
Continuous
100
AcDbCircle
 10
403.169805
 20
200.104674
 30
0.0
 40
2.45
100
AcDbArc
 50
350.129
 51
9.870889999999999
  0
ARC
  5
99A2
330
9842
100
AcDbEntity
  8
1
  6
Continuous
100
AcDbCircle
 10
403.169805
 20
200.104674
 30
0.0
 40
2.45
100
AcDbArc
 50
80.12909999999996
 51
99.87090000000002
  0
ARC
  5
99A3
330
9842
100
AcDbEntity
  8
1
  6
Continuous
100
AcDbCircle
 10
403.169805
 20
200.104674
 30
0.0
 40
2.45
100
AcDbArc
 50
170.129
 51
189.871
  0
ARC
  5
99A4
330
9842
100
AcDbEntity
  8
1
  6
Continuous
100
AcDbCircle
 10
403.169805
 20
200.104674
 30
0.0
 40
2.45
100
AcDbArc
 50
260.129
 51
279.8709999999999
  0
ARC
  5
99A5
330
9842
100
AcDbEntity
  8
5
  6
PHANTOM
100
AcDbCircle
 10
111.799805
 20
171.7775739999999
 30
0.0
 40
20.5
100
AcDbArc
 50
198.1949999999999
 51
261.805
  0
ARC
  5
99A6
330
9842
100
AcDbEntity
  8
5
  6
PHANTOM
100
AcDbCircle
 10
109.162805
 20
153.466474
 30
0.0
 40
2.0
100
AcDbArc
 50
261.805
 51
320.0
  0
ARC
  5
99A7
330
9842
100
AcDbEntity
  8
5
  6
PHANTOM
100
AcDbCircle
 10
94.224805
 20
166.000874
 30
0.0
 40
2.0
100
AcDbArc
 50
140.0
 51
198.1949999999999
  0
ARC
  5
99A8
330
9842
100
AcDbEntity
  8
1
  6
Continuous
100
AcDbCircle
 10
92.40780499999999
 20
161.0090739999999
 30
0.0
 40
1.5
100
AcDbArc
 50
121.805
 51
180.0
  0
ARC
  5
99A9
330
9842
100
AcDbEntity
  8
1
  6
Continuous
100
AcDbCircle
 10
111.907805
 20
161.0090739999999
 30
0.0
 40
1.5
100
AcDbArc
 50
0.0
 51
58.19519999999999
  0
ARC
  5
99AA
330
9842
100
AcDbEntity
  8
5
  6
PHANTOM
100
AcDbCircle
 10
102.157805
 20
160.286874
 30
0.0
 40
31.0
100
AcDbArc
 50
27.72619999999998
 51
72.2737
  0
CIRCLE
  5
99AB
330
9842
100
AcDbEntity
  8
3
  6
DASHED
100
AcDbCircle
 10
102.157805
 20
145.286874
 30
0.0
 40
7.65
  0
ARC
  5
99AC
330
9842
100
AcDbEntity
  8
1
  6
Continuous
100
AcDbCircle
 10
102.157805
 20
145.286874
 30
0.0
 40
20.5
100
AcDbArc
 50
58.19519999999999
 51
121.805
  0
ARC
  5
99AD
330
9842
100
AcDbEntity
  8
1
  6
Continuous
100
AcDbCircle
 10
92.40780499999999
 20
161.0090739999999
 30
0.0
 40
2.0
100
AcDbArc
 50
121.805
 51
180.0
  0
ARC
  5
99AE
330
9842
100
AcDbEntity
  8
1
  6
Continuous
100
AcDbCircle
 10
111.907805
 20
161.0090739999999
 30
0.0
 40
2.0
100
AcDbArc
 50
0.0
 51
58.19519999999999
  0
ARC
  5
99AF
330
9842
100
AcDbEntity
  8
1
  6
Continuous
100
AcDbCircle
 10
102.157805
 20
160.286874
 30
0.0
 40
31.0
100
AcDbArc
 50
247.726
 51
292.274
  0
ARC
  5
99B0
330
9842
100
AcDbEntity
  8
1
  6
Continuous
100
AcDbCircle
 10
210.8638049999999
 20
164.016174
 30
0.0
 40
1.5
100
AcDbArc
 50
99.46229999999999
 51
180.0
  0
ARC
  5
99B1
330
9842
100
AcDbEntity
  8
1
  6
Continuous
100
AcDbCircle
 10
397.5598049999999
 20
46.786874
 30
0.0
 40
1.5
100
AcDbArc
 50
184.359
 51
270.0
  0
ARC
  5
99B2
330
9842
100
AcDbEntity
  8
1
  6
Continuous
100
AcDbCircle
 10
408.7788049999998
 20
46.786874
 30
0.0
 40
1.5
100
AcDbArc
 50
270.0
 51
355.6549999999999
  0
ARC
  5
99B3
330
9842
100
AcDbEntity
  8
1
  6
Continuous
100
AcDbCircle
 10
226.5178249999999
 20
57.286874
 30
0.0
 40
12.0
100
AcDbArc
 50
184.1849999999998
 51
270.0
  0
ARC
  5
99B4
330
9842
100
AcDbEntity
  8
1
  6
Continuous
100
AcDbCircle
 10
233.3637949999999
 20
60.08487399999999
 30
0.0
 40
10.0
100
AcDbArc
 50
180.0
 51
252.2809999999999
  0
ARC
  5
99B5
330
9842
100
AcDbEntity
  8
1
  6
Continuous
100
AcDbCircle
 10
229.863795
 20
49.130374
 30
0.0
 40
1.5
100
AcDbArc
 50
0.0
 51
72.28109999999998
  0
ARC
  5
99B6
330
9842
100
AcDbEntity
  8
1
  6
Continuous
100
AcDbCircle
 10
229.863795
 20
46.786874
 30
0.0
 40
1.5
100
AcDbArc
 50
270.0
 51
0.0
  0
ARC
  5
99B7
330
9842
100
AcDbEntity
  8
1
  6
Continuous
100
AcDbCircle
 10
107.767805
 20
46.786874
 30
0.0
 40
1.5
100
AcDbArc
 50
270.0
 51
355.6549999999999
  0
ARC
  5
99B8
330
9842
100
AcDbEntity
  8
1
  6
Continuous
100
AcDbCircle
 10
96.54780500000001
 20
46.786874
 30
0.0
 40
1.5
100
AcDbArc
 50
184.359
 51
270.0
  0
ARC
  5
99B9
330
9842
100
AcDbEntity
  8
1
  6
Continuous
100
AcDbCircle
 10
397.4068049999999
 20
48.786874
 30
0.0
 40
1.5
100
AcDbArc
 50
90.0
 51
184.359
  0
ARC
  5
99BA
330
9842
100
AcDbEntity
  8
1
  6
Continuous
100
AcDbCircle
 10
408.9308049999998
 20
48.786874
 30
0.0
 40
1.5
100
AcDbArc
 50
355.6549999999999
 51
90.0
  0
ARC
  5
99BB
330
9842
100
AcDbEntity
  8
1
  6
Continuous
100
AcDbCircle
 10
400.1488049999998
 20
52.286874
 30
0.0
 40
2.0
100
AcDbArc
 50
184.359
 51
270.0
  0
ARC
  5
99BC
330
9842
100
AcDbEntity
  8
1
  6
Continuous
100
AcDbCircle
 10
406.1878049999998
 20
52.286874
 30
0.0
 40
2.0
100
AcDbArc
 50
270.0
 51
355.6549999999999
  0
ARC
  5
99BD
330
9842
100
AcDbEntity
  8
1
  6
Continuous
100
AcDbCircle
 10
408.719805
 20
100.286874
 30
0.0
 40
0.5
100
AcDbArc
 50
90.0
 51
180.0
  0
ARC
  5
99BE
330
9842
100
AcDbEntity
  8
1
  6
Continuous
100
AcDbCircle
 10
408.719805
 20
98.786874
 30
0.0
 40
0.5
100
AcDbArc
 50
180.0
 51
270.0
  0
ARC
  5
99BF
330
9842
100
AcDbEntity
  8
1
  6
Continuous
100
AcDbCircle
 10
397.6198049999999
 20
100.286874
 30
0.0
 40
0.5
100
AcDbArc
 50
0.0
 51
90.0
  0
ARC
  5
99C0
330
9842
100
AcDbEntity
  8
1
  6
Continuous
100
AcDbCircle
 10
397.6198049999999
 20
98.786874
 30
0.0
 40
0.5
100
AcDbArc
 50
270.0
 51
0.0
  0
ARC
  5
99C1
330
9842
100
AcDbEntity
  8
1
  6
Continuous
100
AcDbCircle
 10
410.0248049999998
 20
102.7868739999999
 30
0.0
 40
2.0
100
AcDbArc
 50
270.0
 51
355.6549999999999
  0
ARC
  5
99C2
330
9842
100
AcDbEntity
  8
1
  6
Continuous
100
AcDbCircle
 10
409.5308049999998
 20
96.286874
 30
0.0
 40
2.0
100
AcDbArc
 50
355.6549999999999
 51
90.0
  0
ARC
  5
99C3
330
9842
100
AcDbEntity
  8
1
  6
Continuous
100
AcDbCircle
 10
396.794805
 20
96.286874
 30
0.0
 40
2.0
100
AcDbArc
 50
90.0
 51
184.359
  0
ARC
  5
99C4
330
9842
100
AcDbEntity
  8
1
  6
Continuous
100
AcDbCircle
 10
396.2998049999998
 20
102.7868739999999
 30
0.0
 40
2.0
100
AcDbArc
 50
184.359
 51
270.0
  0
ARC
  5
99C5
330
9842
100
AcDbEntity
  8
1
  6
Continuous
100
AcDbCircle
 10
197.993105
 20
160.3687739999998
 30
0.0
 40
12.6527
100
AcDbArc
 50
0.0
 51
20.8601
  0
CIRCLE
  5
99C6
330
9842
100
AcDbEntity
  8
2
  6
Continuous
100
AcDbCircle
 10
403.169805
 20
145.286874
 30
0.0
 40
3.0
  0
CIRCLE
  5
99C7
330
9842
100
AcDbEntity
  8
1
  6
Continuous
100
AcDbCircle
 10
403.169805
 20
145.286874
 30
0.0
 40
2.458499999999999
  0
LINE
  5
99C8
330
9842
100
AcDbEntity
  8
1
  6
Continuous
100
AcDbLine
 10
406.934688
 20
94.114877
 30
0.0
 11
404.8106879999998
 21
94.114877
 31
0.0
  0
ARC
  5
99C9
330
9842
100
AcDbEntity
  8
1
  6
Continuous
100
AcDbCircle
 10
401.445688
 20
90.912877
 30
0.0
 40
5.861699999999999
100
AcDbArc
 50
22.94399999999999
 51
26.0144
  0
ARC
  5
99CA
330
9842
100
AcDbEntity
  8
1
  6
Continuous
100
AcDbCircle
 10
406.491688
 20
93.375877
 30
0.0
 40
0.24635
100
AcDbArc
 50
26.0144
 51
90.0
  0
LINE
  5
99CB
330
9842
100
AcDbEntity
  8
1
  6
Continuous
100
AcDbLine
 10
406.7986879999998
 20
93.128877
 30
0.0
 11
404.368688
 21
93.128877
 31
0.0
  0
ARC
  5
99CC
330
9842
100
AcDbEntity
  8
1
  6
Continuous
100
AcDbCircle
 10
405.583688
 20
93.86787699999999
 30
0.0
 40
1.269449999999998
100
AcDbArc
 50
35.5377
 51
76.5374
  0
LINE
  5
99CD
330
9842
100
AcDbEntity
  8
1
  6
Continuous
100
AcDbLine
 10
404.6746879999998
 20
93.62187699999998
 30
0.0
 11
406.491688
 21
93.62187699999998
 31
0.0
  0
ARC
  5
99CE
330
9842
100
AcDbEntity
  8
1
  6
Continuous
100
AcDbCircle
 10
409.7206879999998
 20
90.912877
 30
0.0
 40
5.861699999999999
100
AcDbArc
 50
153.986
 51
154.7719999999999
  0
ARC
  5
99CF
330
9842
100
AcDbEntity
  8
1
  6
Continuous
100
AcDbCircle
 10
409.7206879999998
 20
90.912877
 30
0.0
 40
5.861699999999999
100
AcDbArc
 50
153.986
 51
157.056
  0
ARC
  5
99D0
330
9842
100
AcDbEntity
  8
1
  6
Continuous
100
AcDbCircle
 10
404.368688
 20
93.17887699999998
 30
0.0
 40
0.04927
100
AcDbArc
 50
157.056
 51
270.0
  0
ARC
  5
99D1
330
9842
100
AcDbEntity
  8
1
  6
Continuous
100
AcDbCircle
 10
404.6746879999998
 20
93.375877
 30
0.0
 40
0.24635
100
AcDbArc
 50
90.0
 51
153.986
  0
ARC
  5
99D2
330
9842
100
AcDbEntity
  8
1
  6
Continuous
100
AcDbCircle
 10
405.583688
 20
93.86787699999999
 30
0.0
 40
1.269449999999998
100
AcDbArc
 50
90.0
 51
144.462
  0
ARC
  5
99D3
330
9842
100
AcDbEntity
  8
1
  6
Continuous
100
AcDbCircle
 10
406.7986879999998
 20
93.17887699999998
 30
0.0
 40
0.04927
100
AcDbArc
 50
270.0
 51
22.94399999999999
  0
ARC
  5
99D4
330
9842
100
AcDbEntity
  8
1
  6
Continuous
100
AcDbCircle
 10
401.445688
 20
90.912877
 30
0.0
 40
6.354269999999998
100
AcDbArc
 50
324.4619999999998
 51
35.5377
  0
ARC
  5
99D5
330
9842
100
AcDbEntity
  8
1
  6
Continuous
100
AcDbCircle
 10
409.7206879999998
 20
90.912877
 30
0.0
 40
6.354269999999998
100
AcDbArc
 50
144.462
 51
215.5379999999999
  0
LINE
  5
99D6
330
9842
100
AcDbEntity
  8
1
  6
Continuous
100
AcDbLine
 10
407.1614049999998
 20
86.03167399999998
 30
0.0
 11
407.1614049999998
 21
83.60167399999998
 31
0.0
  0
LINE
  5
99D7
330
9842
100
AcDbEntity
  8
1
  6
Continuous
100
AcDbLine
 10
406.2610089999997
 20
79.889768
 30
0.0
 11
406.0191429999998
 21
79.941446
 31
0.0
  0
LINE
  5
99D8
330
9842
100
AcDbEntity
  8
1
  6
Continuous
100
AcDbLine
 10
406.1680749999998
 20
80.64463399999999
 30
0.0
 11
405.9293949999998
 21
80.59916599999999
 31
0.0
  0
LINE
  5
99D9
330
9842
100
AcDbEntity
  8
1
  6
Continuous
100
AcDbLine
 10
405.9224829999998
 20
83.08413799999998
 30
0.0
 11
406.161433
 21
83.039696
 31
0.0
  0
LINE
  5
99DA
330
9842
100
AcDbEntity
  8
1
  6
Continuous
100
AcDbLine
 10
406.2247209999998
 20
72.36972800000002
 30
0.0
 11
405.9828549999998
 21
72.421406
 31
0.0
  0
LINE
  5
99DB
330
9842
100
AcDbEntity
  8
1
  6
Continuous
100
AcDbLine
 10
405.5630049999998
 20
67.19647399999999
 30
0.0
 11
407.1614049999998
 21
66.273628
 31
0.0
  0
LINE
  5
99DC
330
9842
100
AcDbEntity
  8
1
  6
Continuous
100
AcDbLine
 10
405.5684049999999
 20
67.19647399999999
 30
0.0
 11
407.1614049999998
 21
68.11334599999999
 31
0.0
  0
LINE
  5
99DD
330
9842
100
AcDbEntity
  8
1
  6
Continuous
100
AcDbLine
 10
405.5187789999997
 20
79.941446
 30
0.0
 11
405.7682049999998
 21
79.95883399999998
 31
0.0
  0
LINE
  5
99DE
330
9842
100
AcDbEntity
  8
1
  6
Continuous
100
AcDbLine
 10
405.2769129999998
 20
79.889768
 30
0.0
 11
405.5187789999997
 21
79.941446
 31
0.0
  0
LINE
  5
99DF
330
9842
100
AcDbEntity
  8
1
  6
Continuous
100
AcDbLine
 10
405.4824909999998
 20
72.421406
 30
0.0
 11
405.731917
 21
72.438794
 31
0.0
  0
LINE
  5
99E0
330
9842
100
AcDbEntity
  8
1
  6
Continuous
100
AcDbLine
 10
406.0191429999998
 20
79.941446
 30
0.0
 11
405.7697169999998
 21
79.95883399999998
 31
0.0
  0
LINE
  5
99E1
330
9842
100
AcDbEntity
  8
1
  6
Continuous
100
AcDbLine
 10
405.685315
 20
80.58939200000002
 30
0.0
 11
405.4428009999998
 21
80.61558199999998
 31
0.0
  0
LINE
  5
99E2
330
9842
100
AcDbEntity
  8
1
  6
Continuous
100
AcDbLine
 10
405.9293949999998
 20
80.59916599999999
 30
0.0
 11
405.685315
 21
80.58939200000002
 31
0.0
  0
LINE
  5
99E3
330
9842
100
AcDbEntity
  8
1
  6
Continuous
100
AcDbLine
 10
405.6783489999999
 20
83.09288599999998
 30
0.0
 11
405.9224829999998
 21
83.08413799999998
 31
0.0
  0
LINE
  5
99E4
330
9842
100
AcDbEntity
  8
1
  6
Continuous
100
AcDbLine
 10
405.435997
 20
83.06566999999999
 30
0.0
 11
405.6783489999999
 21
83.09288599999998
 31
0.0
  0
LINE
  5
99E5
330
9842
100
AcDbEntity
  8
1
  6
Continuous
100
AcDbLine
 10
405.9828549999998
 20
72.421406
 30
0.0
 11
405.733429
 21
72.438794
 31
0.0
  0
LINE
  5
99E6
330
9842
100
AcDbEntity
  8
1
  6
Continuous
100
AcDbLine
 10
405.573805
 20
71.192474
 30
0.0
 11
405.573805
 21
70.144874
 31
0.0
  0
LINE
  5
99E7
330
9842
100
AcDbEntity
  8
1
  6
Continuous
100
AcDbLine
 10
405.7250049999998
 20
76.614074
 30
0.0
 11
405.7250049999998
 21
74.680874
 31
0.0
  0
LINE
  5
99E8
330
9842
100
AcDbEntity
  8
1
  6
Continuous
100
AcDbLine
 10
407.195263
 20
78.652304
 30
0.0
 11
407.206117
 21
78.82483399999998
 31
0.0
  0
LINE
  5
99E9
330
9842
100
AcDbEntity
  8
1
  6
Continuous
100
AcDbLine
 10
407.163133
 20
78.485012
 30
0.0
 11
407.195263
 21
78.652304
 31
0.0
  0
LINE
  5
99EA
330
9842
100
AcDbEntity
  8
1
  6
Continuous
100
AcDbLine
 10
407.1105909999998
 20
78.328034
 30
0.0
 11
407.163133
 21
78.485012
 31
0.0
  0
LINE
  5
99EB
330
9842
100
AcDbEntity
  8
1
  6
Continuous
100
AcDbLine
 10
407.0393649999998
 20
78.186176
 30
0.0
 11
407.1105909999998
 21
78.328034
 31
0.0
  0
LINE
  5
99EC
330
9842
100
AcDbEntity
  8
1
  6
Continuous
100
AcDbLine
 10
406.9515069999998
 20
78.063704
 30
0.0
 11
407.0393649999998
 21
78.186176
 31
0.0
  0
LINE
  5
99ED
330
9842
100
AcDbEntity
  8
1
  6
Continuous
100
AcDbLine
 10
406.8497169999998
 20
77.96434399999998
 30
0.0
 11
406.9515069999998
 21
78.063704
 31
0.0
  0
LINE
  5
99EE
330
9842
100
AcDbEntity
  8
1
  6
Continuous
100
AcDbLine
 10
406.7371269999998
 20
77.89117399999998
 30
0.0
 11
406.8497169999998
 21
77.96434399999998
 31
0.0
  0
LINE
  5
99EF
330
9842
100
AcDbEntity
  8
1
  6
Continuous
100
AcDbLine
 10
406.6170849999998
 20
77.846354
 30
0.0
 11
406.7371269999998
 21
77.89117399999998
 31
0.0
  0
LINE
  5
99F0
330
9842
100
AcDbEntity
  8
1
  6
Continuous
100
AcDbLine
 10
406.4933169999997
 20
77.83123399999998
 30
0.0
 11
406.6170849999998
 21
77.846354
 31
0.0
  0
LINE
  5
99F1
330
9842
100
AcDbEntity
  8
1
  6
Continuous
100
AcDbLine
 10
407.158975
 20
71.13226400000002
 30
0.0
 11
407.1698289999998
 21
71.304794
 31
0.0
  0
LINE
  5
99F2
330
9842
100
AcDbEntity
  8
1
  6
Continuous
100
AcDbLine
 10
407.1268449999998
 20
70.964972
 30
0.0
 11
407.158975
 21
71.13226400000002
 31
0.0
  0
LINE
  5
99F3
330
9842
100
AcDbEntity
  8
1
  6
Continuous
100
AcDbLine
 10
407.074303
 20
70.807994
 30
0.0
 11
407.1268449999998
 21
70.964972
 31
0.0
  0
LINE
  5
99F4
330
9842
100
AcDbEntity
  8
1
  6
Continuous
100
AcDbLine
 10
407.003077
 20
70.666136
 30
0.0
 11
407.074303
 21
70.807994
 31
0.0
  0
LINE
  5
99F5
330
9842
100
AcDbEntity
  8
1
  6
Continuous
100
AcDbLine
 10
406.9152189999998
 20
70.54366400000002
 30
0.0
 11
407.003077
 21
70.666136
 31
0.0
  0
LINE
  5
99F6
330
9842
100
AcDbEntity
  8
1
  6
Continuous
100
AcDbLine
 10
406.8134289999998
 20
70.444304
 30
0.0
 11
406.9152189999998
 21
70.54366400000002
 31
0.0
  0
LINE
  5
99F7
330
9842
100
AcDbEntity
  8
1
  6
Continuous
100
AcDbLine
 10
406.7008389999998
 20
70.37113399999999
 30
0.0
 11
406.8134289999998
 21
70.444304
 31
0.0
  0
LINE
  5
99F8
330
9842
100
AcDbEntity
  8
1
  6
Continuous
100
AcDbLine
 10
406.5807969999998
 20
70.32631399999999
 30
0.0
 11
406.7008389999998
 21
70.37113399999999
 31
0.0
  0
LINE
  5
99F9
330
9842
100
AcDbEntity
  8
1
  6
Continuous
100
AcDbLine
 10
406.4570289999998
 20
70.311194
 30
0.0
 11
406.5807969999998
 21
70.32631399999999
 31
0.0
  0
LINE
  5
99FA
330
9842
100
AcDbEntity
  8
1
  6
Continuous
100
AcDbLine
 10
406.487917
 20
79.805474
 30
0.0
 11
406.2610089999997
 21
79.889768
 31
0.0
  0
LINE
  5
99FB
330
9842
100
AcDbEntity
  8
1
  6
Continuous
100
AcDbLine
 10
406.6930629999998
 20
79.69099400000001
 30
0.0
 11
406.487917
 21
79.805474
 31
0.0
  0
LINE
  5
99FC
330
9842
100
AcDbEntity
  8
1
  6
Continuous
100
AcDbLine
 10
406.8700749999998
 20
79.54989199999999
 30
0.0
 11
406.6930629999998
 21
79.69099400000001
 31
0.0
  0
LINE
  5
99FD
330
9842
100
AcDbEntity
  8
1
  6
Continuous
100
AcDbLine
 10
407.013661
 20
79.38643399999998
 30
0.0
 11
406.8700749999998
 21
79.54989199999999
 31
0.0
  0
LINE
  5
99FE
330
9842
100
AcDbEntity
  8
1
  6
Continuous
100
AcDbLine
 10
407.1195009999998
 20
79.20558800000002
 30
0.0
 11
407.013661
 21
79.38643399999998
 31
0.0
  0
LINE
  5
99FF
330
9842
100
AcDbEntity
  8
1
  6
Continuous
100
AcDbLine
 10
407.184301
 20
79.01280799999998
 30
0.0
 11
407.1195009999998
 21
79.20558800000002
 31
0.0
  0
LINE
  5
9A00
330
9842
100
AcDbEntity
  8
1
  6
Continuous
100
AcDbLine
 10
407.206117
 20
78.81403399999998
 30
0.0
 11
407.184301
 21
79.01280799999998
 31
0.0
  0
LINE
  5
9A01
330
9842
100
AcDbEntity
  8
1
  6
Continuous
100
AcDbLine
 10
406.3945509999999
 20
80.72450000000001
 30
0.0
 11
406.1680749999998
 21
80.64463399999999
 31
0.0
  0
LINE
  5
9A02
330
9842
100
AcDbEntity
  8
1
  6
Continuous
100
AcDbLine
 10
406.6021809999998
 20
80.83638800000001
 30
0.0
 11
406.3945509999999
 21
80.72450000000001
 31
0.0
  0
LINE
  5
9A03
330
9842
100
AcDbEntity
  8
1
  6
Continuous
100
AcDbLine
 10
406.7851329999998
 20
80.97716599999998
 30
0.0
 11
406.6021809999998
 21
80.83638800000001
 31
0.0
  0
LINE
  5
9A04
330
9842
100
AcDbEntity
  8
1
  6
Continuous
100
AcDbLine
 10
406.938061
 20
81.14273
 30
0.0
 11
406.7851329999998
 21
80.97716599999998
 31
0.0
  0
LINE
  5
9A05
330
9842
100
AcDbEntity
  8
1
  6
Continuous
100
AcDbLine
 10
407.056645
 20
81.328382
 30
0.0
 11
406.938061
 21
81.14273
 31
0.0
  0
LINE
  5
9A06
330
9842
100
AcDbEntity
  8
1
  6
Continuous
100
AcDbLine
 10
407.1374289999998
 20
81.52877600000001
 30
0.0
 11
407.056645
 21
81.328382
 31
0.0
  0
LINE
  5
9A07
330
9842
100
AcDbEntity
  8
1
  6
Continuous
100
AcDbLine
 10
407.178091
 20
81.738134
 30
0.0
 11
407.1374289999998
 21
81.52877600000001
 31
0.0
  0
LINE
  5
9A08
330
9842
100
AcDbEntity
  8
1
  6
Continuous
100
AcDbLine
 10
407.1774969999998
 20
81.950462
 30
0.0
 11
407.178091
 21
81.738134
 31
0.0
  0
LINE
  5
9A09
330
9842
100
AcDbEntity
  8
1
  6
Continuous
100
AcDbLine
 10
407.135647
 20
82.15965799999997
 30
0.0
 11
407.1774969999998
 21
81.950462
 31
0.0
  0
LINE
  5
9A0A
330
9842
100
AcDbEntity
  8
1
  6
Continuous
100
AcDbLine
 10
407.053783
 20
82.35967399999998
 30
0.0
 11
407.135647
 21
82.15965799999997
 31
0.0
  0
LINE
  5
9A0B
330
9842
100
AcDbEntity
  8
1
  6
Continuous
100
AcDbLine
 10
406.9341729999998
 20
82.54483999999997
 30
0.0
 11
407.053783
 21
82.35967399999998
 31
0.0
  0
LINE
  5
9A0C
330
9842
100
AcDbEntity
  8
1
  6
Continuous
100
AcDbLine
 10
406.780273
 20
82.70981
 30
0.0
 11
406.9341729999998
 21
82.54483999999997
 31
0.0
  0
LINE
  5
9A0D
330
9842
100
AcDbEntity
  8
1
  6
Continuous
100
AcDbLine
 10
406.5965649999998
 20
82.849778
 30
0.0
 11
406.780273
 21
82.70981
 31
0.0
  0
LINE
  5
9A0E
330
9842
100
AcDbEntity
  8
1
  6
Continuous
100
AcDbLine
 10
406.3882869999998
 20
82.960802
 30
0.0
 11
406.5965649999998
 21
82.849778
 31
0.0
  0
LINE
  5
9A0F
330
9842
100
AcDbEntity
  8
1
  6
Continuous
100
AcDbLine
 10
406.161433
 20
83.039696
 30
0.0
 11
406.3882869999998
 21
82.960802
 31
0.0
  0
LINE
  5
9A10
330
9842
100
AcDbEntity
  8
1
  6
Continuous
100
AcDbLine
 10
406.451629
 20
72.28543399999998
 30
0.0
 11
406.2247209999998
 21
72.36972800000002
 31
0.0
  0
LINE
  5
9A11
330
9842
100
AcDbEntity
  8
1
  6
Continuous
100
AcDbLine
 10
406.6567749999999
 20
72.17095400000002
 30
0.0
 11
406.451629
 21
72.28543399999998
 31
0.0
  0
LINE
  5
9A12
330
9842
100
AcDbEntity
  8
1
  6
Continuous
100
AcDbLine
 10
406.8337869999998
 20
72.02985200000002
 30
0.0
 11
406.6567749999999
 21
72.17095400000002
 31
0.0
  0
LINE
  5
9A13
330
9842
100
AcDbEntity
  8
1
  6
Continuous
100
AcDbLine
 10
406.9773729999998
 20
71.866394
 30
0.0
 11
406.8337869999998
 21
72.02985200000002
 31
0.0
  0
LINE
  5
9A14
330
9842
100
AcDbEntity
  8
1
  6
Continuous
100
AcDbLine
 10
407.083213
 20
71.68554799999999
 30
0.0
 11
406.9773729999998
 21
71.866394
 31
0.0
  0
LINE
  5
9A15
330
9842
100
AcDbEntity
  8
1
  6
Continuous
100
AcDbLine
 10
407.148013
 20
71.49276799999999
 30
0.0
 11
407.083213
 21
71.68554799999999
 31
0.0
  0
LINE
  5
9A16
330
9842
100
AcDbEntity
  8
1
  6
Continuous
100
AcDbLine
 10
407.1698289999998
 20
71.293994
 30
0.0
 11
407.148013
 21
71.49276799999999
 31
0.0
  0
LINE
  5
9A17
330
9842
100
AcDbEntity
  8
1
  6
Continuous
100
AcDbLine
 10
404.342659
 20
78.64150399999998
 30
0.0
 11
404.3318049999998
 21
78.81403399999998
 31
0.0
  0
LINE
  5
9A18
330
9842
100
AcDbEntity
  8
1
  6
Continuous
100
AcDbLine
 10
404.374789
 20
78.47421199999998
 30
0.0
 11
404.342659
 21
78.64150399999998
 31
0.0
  0
LINE
  5
9A19
330
9842
100
AcDbEntity
  8
1
  6
Continuous
100
AcDbLine
 10
404.4273309999998
 20
78.317234
 30
0.0
 11
404.374789
 21
78.47421199999998
 31
0.0
  0
LINE
  5
9A1A
330
9842
100
AcDbEntity
  8
1
  6
Continuous
100
AcDbLine
 10
404.4985569999998
 20
78.175376
 30
0.0
 11
404.4273309999998
 21
78.317234
 31
0.0
  0
LINE
  5
9A1B
330
9842
100
AcDbEntity
  8
1
  6
Continuous
100
AcDbLine
 10
404.5864149999998
 20
78.052904
 30
0.0
 11
404.4985569999998
 21
78.175376
 31
0.0
  0
LINE
  5
9A1C
330
9842
100
AcDbEntity
  8
1
  6
Continuous
100
AcDbLine
 10
404.6882049999998
 20
77.95354399999998
 30
0.0
 11
404.5864149999998
 21
78.052904
 31
0.0
  0
LINE
  5
9A1D
330
9842
100
AcDbEntity
  8
1
  6
Continuous
100
AcDbLine
 10
404.8007949999997
 20
77.880374
 30
0.0
 11
404.6882049999998
 21
77.95354399999998
 31
0.0
  0
LINE
  5
9A1E
330
9842
100
AcDbEntity
  8
1
  6
Continuous
100
AcDbLine
 10
404.920837
 20
77.835554
 30
0.0
 11
404.8007949999997
 21
77.880374
 31
0.0
  0
LINE
  5
9A1F
330
9842
100
AcDbEntity
  8
1
  6
Continuous
100
AcDbLine
 10
405.0446049999997
 20
77.82043399999998
 30
0.0
 11
404.920837
 21
77.835554
 31
0.0
  0
LINE
  5
9A20
330
9842
100
AcDbEntity
  8
1
  6
Continuous
100
AcDbLine
 10
404.8448589999998
 20
79.69099400000001
 30
0.0
 11
405.050005
 21
79.805474
 31
0.0
  0
LINE
  5
9A21
330
9842
100
AcDbEntity
  8
1
  6
Continuous
100
AcDbLine
 10
404.6678469999998
 20
79.54989199999999
 30
0.0
 11
404.8448589999998
 21
79.69099400000001
 31
0.0
  0
LINE
  5
9A22
330
9842
100
AcDbEntity
  8
1
  6
Continuous
100
AcDbLine
 10
404.5242609999998
 20
79.38643399999998
 30
0.0
 11
404.6678469999998
 21
79.54989199999999
 31
0.0
  0
LINE
  5
9A23
330
9842
100
AcDbEntity
  8
1
  6
Continuous
100
AcDbLine
 10
404.418421
 20
79.20558800000002
 30
0.0
 11
404.5242609999998
 21
79.38643399999998
 31
0.0
  0
LINE
  5
9A24
330
9842
100
AcDbEntity
  8
1
  6
Continuous
100
AcDbLine
 10
404.353621
 20
79.01280799999998
 30
0.0
 11
404.418421
 21
79.20558800000002
 31
0.0
  0
LINE
  5
9A25
330
9842
100
AcDbEntity
  8
1
  6
Continuous
100
AcDbLine
 10
404.3318049999998
 20
78.81403399999998
 30
0.0
 11
404.353621
 21
79.01280799999998
 31
0.0
  0
LINE
  5
9A26
330
9842
100
AcDbEntity
  8
1
  6
Continuous
100
AcDbLine
 10
405.013717
 20
72.28543399999998
 30
0.0
 11
405.240625
 21
72.36972800000002
 31
0.0
  0
LINE
  5
9A27
330
9842
100
AcDbEntity
  8
1
  6
Continuous
100
AcDbLine
 10
404.8085709999998
 20
72.17095400000002
 30
0.0
 11
405.013717
 21
72.28543399999998
 31
0.0
  0
LINE
  5
9A28
330
9842
100
AcDbEntity
  8
1
  6
Continuous
100
AcDbLine
 10
404.6315589999998
 20
72.02985200000002
 30
0.0
 11
404.8085709999998
 21
72.17095400000002
 31
0.0
  0
LINE
  5
9A29
330
9842
100
AcDbEntity
  8
1
  6
Continuous
100
AcDbLine
 10
404.4879729999998
 20
71.866394
 30
0.0
 11
404.6315589999998
 21
72.02985200000002
 31
0.0
  0
LINE
  5
9A2A
330
9842
100
AcDbEntity
  8
1
  6
Continuous
100
AcDbLine
 10
404.382133
 20
71.68554799999999
 30
0.0
 11
404.4879729999998
 21
71.866394
 31
0.0
  0
LINE
  5
9A2B
330
9842
100
AcDbEntity
  8
1
  6
Continuous
100
AcDbLine
 10
404.317333
 20
71.49276799999999
 30
0.0
 11
404.382133
 21
71.68554799999999
 31
0.0
  0
LINE
  5
9A2C
330
9842
100
AcDbEntity
  8
1
  6
Continuous
100
AcDbLine
 10
404.2955169999998
 20
71.293994
 30
0.0
 11
404.317333
 21
71.49276799999999
 31
0.0
  0
LINE
  5
9A2D
330
9842
100
AcDbEntity
  8
1
  6
Continuous
100
AcDbLine
 10
404.3115009999998
 20
71.0963
 30
0.0
 11
404.2955169999998
 21
71.293994
 31
0.0
  0
LINE
  5
9A2E
330
9842
100
AcDbEntity
  8
1
  6
Continuous
100
AcDbLine
 10
404.3589129999999
 20
70.90465400000002
 30
0.0
 11
404.3115009999998
 21
71.0963
 31
0.0
  0
LINE
  5
9A2F
330
9842
100
AcDbEntity
  8
1
  6
Continuous
100
AcDbLine
 10
404.4364029999998
 20
70.724834
 30
0.0
 11
404.3589129999999
 21
70.90465400000002
 31
0.0
  0
LINE
  5
9A30
330
9842
100
AcDbEntity
  8
1
  6
Continuous
100
AcDbLine
 10
404.541541
 20
70.56229399999998
 30
0.0
 11
404.4364029999998
 21
70.724834
 31
0.0
  0
LINE
  5
9A31
330
9842
100
AcDbEntity
  8
1
  6
Continuous
100
AcDbLine
 10
404.6711409999998
 20
70.42200200000002
 30
0.0
 11
404.541541
 21
70.56229399999998
 31
0.0
  0
LINE
  5
9A32
330
9842
100
AcDbEntity
  8
1
  6
Continuous
100
AcDbLine
 10
404.821261
 20
70.30816999999998
 30
0.0
 11
404.6711409999998
 21
70.42200200000002
 31
0.0
  0
LINE
  5
9A33
330
9842
100
AcDbEntity
  8
1
  6
Continuous
100
AcDbLine
 10
404.987365
 20
70.22430799999999
 30
0.0
 11
404.821261
 21
70.30816999999998
 31
0.0
  0
LINE
  5
9A34
330
9842
100
AcDbEntity
  8
1
  6
Continuous
100
AcDbLine
 10
405.1644309999998
 20
70.172954
 30
0.0
 11
404.987365
 21
70.22430799999999
 31
0.0
  0
LINE
  5
9A35
330
9842
100
AcDbEntity
  8
1
  6
Continuous
100
AcDbLine
 10
404.3213289999997
 20
81.62370799999996
 30
0.0
 11
404.2994049999999
 21
81.84127399999999
 31
0.0
  0
LINE
  5
9A36
330
9842
100
AcDbEntity
  8
1
  6
Continuous
100
AcDbLine
 10
404.3839689999998
 20
81.418508
 30
0.0
 11
404.3213289999997
 21
81.62370799999996
 31
0.0
  0
LINE
  5
9A37
330
9842
100
AcDbEntity
  8
1
  6
Continuous
100
AcDbLine
 10
404.4856509999998
 20
81.22540399999998
 30
0.0
 11
404.3839689999998
 21
81.418508
 31
0.0
  0
LINE
  5
9A38
330
9842
100
AcDbEntity
  8
1
  6
Continuous
100
AcDbLine
 10
404.6233509999998
 20
81.05001199999998
 30
0.0
 11
404.4856509999998
 21
81.22540399999998
 31
0.0
  0
LINE
  5
9A39
330
9842
100
AcDbEntity
  8
1
  6
Continuous
100
AcDbLine
 10
404.7931809999998
 20
80.897354
 30
0.0
 11
404.6233509999998
 21
81.05001199999998
 31
0.0
  0
LINE
  5
9A3A
330
9842
100
AcDbEntity
  8
1
  6
Continuous
100
AcDbLine
 10
404.9902809999998
 20
80.77180400000001
 30
0.0
 11
404.7931809999998
 21
80.897354
 31
0.0
  0
LINE
  5
9A3B
330
9842
100
AcDbEntity
  8
1
  6
Continuous
100
AcDbLine
 10
405.2088729999998
 20
80.67698
 30
0.0
 11
404.9902809999998
 21
80.77180400000001
 31
0.0
  0
LINE
  5
9A3C
330
9842
100
AcDbEntity
  8
1
  6
Continuous
100
AcDbLine
 10
404.9842869999998
 20
82.90755799999997
 30
0.0
 11
405.2023929999998
 21
83.00329999999998
 31
0.0
  0
LINE
  5
9A3D
330
9842
100
AcDbEntity
  8
1
  6
Continuous
100
AcDbLine
 10
404.787943
 20
82.781198
 30
0.0
 11
404.9842869999998
 21
82.90755799999997
 31
0.0
  0
LINE
  5
9A3E
330
9842
100
AcDbEntity
  8
1
  6
Continuous
100
AcDbLine
 10
404.6189769999998
 20
82.627784
 30
0.0
 11
404.787943
 21
82.781198
 31
0.0
  0
LINE
  5
9A3F
330
9842
100
AcDbEntity
  8
1
  6
Continuous
100
AcDbLine
 10
404.482249
 20
82.45185199999998
 30
0.0
 11
404.6189769999998
 21
82.627784
 31
0.0
  0
LINE
  5
9A40
330
9842
100
AcDbEntity
  8
1
  6
Continuous
100
AcDbLine
 10
404.381647
 20
82.25831599999997
 30
0.0
 11
404.482249
 21
82.45185199999998
 31
0.0
  0
LINE
  5
9A41
330
9842
100
AcDbEntity
  8
1
  6
Continuous
100
AcDbLine
 10
404.3201409999999
 20
82.052846
 30
0.0
 11
404.381647
 21
82.25831599999997
 31
0.0
  0
LINE
  5
9A42
330
9842
100
AcDbEntity
  8
1
  6
Continuous
100
AcDbLine
 10
404.2994049999999
 20
81.84127399999999
 30
0.0
 11
404.3201409999999
 21
82.052846
 31
0.0
  0
LINE
  5
9A43
330
9842
100
AcDbEntity
  8
1
  6
Continuous
100
AcDbLine
 10
402.164397
 20
79.49785799999998
 30
0.0
 11
402.1766609999998
 21
79.359762
 31
0.0
  0
LINE
  5
9A44
330
9842
100
AcDbEntity
  8
1
  6
Continuous
100
AcDbLine
 10
402.127997
 20
79.631754
 30
0.0
 11
402.164397
 21
79.49785799999998
 31
0.0
  0
LINE
  5
9A45
330
9842
100
AcDbEntity
  8
1
  6
Continuous
100
AcDbLine
 10
402.0686369999998
 20
79.757362
 30
0.0
 11
402.127997
 21
79.631754
 31
0.0
  0
LINE
  5
9A46
330
9842
100
AcDbEntity
  8
1
  6
Continuous
100
AcDbLine
 10
401.9879969999998
 20
79.87093
 30
0.0
 11
402.0686369999998
 21
79.757362
 31
0.0
  0
LINE
  5
9A47
330
9842
100
AcDbEntity
  8
1
  6
Continuous
100
AcDbLine
 10
401.888597
 20
79.96893
 30
0.0
 11
401.9879969999998
 21
79.87093
 31
0.0
  0
LINE
  5
9A48
330
9842
100
AcDbEntity
  8
1
  6
Continuous
100
AcDbLine
 10
401.995165
 20
78.92060999999998
 30
0.0
 11
401.9053969999998
 21
78.83638600000002
 31
0.0
  0
LINE
  5
9A49
330
9842
100
AcDbEntity
  8
1
  6
Continuous
100
AcDbLine
 10
402.0679089999998
 20
79.018162
 30
0.0
 11
401.995165
 21
78.92060999999998
 31
0.0
  0
LINE
  5
9A4A
330
9842
100
AcDbEntity
  8
1
  6
Continuous
100
AcDbLine
 10
402.1215569999998
 20
79.126074
 30
0.0
 11
402.0679089999998
 21
79.018162
 31
0.0
  0
LINE
  5
9A4B
330
9842
100
AcDbEntity
  8
1
  6
Continuous
100
AcDbLine
 10
402.1544289999998
 20
79.24115400000002
 30
0.0
 11
402.1215569999998
 21
79.126074
 31
0.0
  0
LINE
  5
9A4C
330
9842
100
AcDbEntity
  8
1
  6
Continuous
100
AcDbLine
 10
402.1654609999997
 20
79.359762
 30
0.0
 11
402.1544289999998
 21
79.24115400000002
 31
0.0
  0
LINE
  5
9A4D
330
9842
100
AcDbEntity
  8
1
  6
Continuous
100
AcDbLine
 10
402.1778709999998
 20
76.89835499999998
 30
0.0
 11
402.1636029999998
 21
76.74123299999997
 31
0.0
  0
LINE
  5
9A4E
330
9842
100
AcDbEntity
  8
1
  6
Continuous
100
AcDbLine
 10
402.1636029999998
 20
76.74123299999997
 30
0.0
 11
402.1212049999999
 21
76.588925
 31
0.0
  0
LINE
  5
9A4F
330
9842
100
AcDbEntity
  8
1
  6
Continuous
100
AcDbLine
 10
402.1212049999999
 20
76.588925
 30
0.0
 11
402.0520109999997
 21
76.445955
 31
0.0
  0
LINE
  5
9A50
330
9842
100
AcDbEntity
  8
1
  6
Continuous
100
AcDbLine
 10
402.0520109999997
 20
76.445955
 30
0.0
 11
401.9580509999998
 21
76.316731
 31
0.0
  0
LINE
  5
9A51
330
9842
100
AcDbEntity
  8
1
  6
Continuous
100
AcDbLine
 10
401.955325
 20
77.435203
 30
0.0
 11
402.050445
 21
77.315955
 31
0.0
  0
LINE
  5
9A52
330
9842
100
AcDbEntity
  8
1
  6
Continuous
100
AcDbLine
 10
402.050445
 20
77.315955
 30
0.0
 11
402.1205089999998
 21
77.184005
 31
0.0
  0
LINE
  5
9A53
330
9842
100
AcDbEntity
  8
1
  6
Continuous
100
AcDbLine
 10
402.1205089999998
 20
77.184005
 30
0.0
 11
402.1634289999998
 21
77.043413
 31
0.0
  0
LINE
  5
9A54
330
9842
100
AcDbEntity
  8
1
  6
Continuous
100
AcDbLine
 10
402.1634289999998
 20
77.043413
 30
0.0
 11
402.1778709999998
 21
76.89835499999998
 31
0.0
  0
LINE
  5
9A55
330
9842
100
AcDbEntity
  8
1
  6
Continuous
100
AcDbLine
 10
402.1778709999998
 20
74.07504200000002
 30
0.0
 11
402.1636029999998
 21
73.91791999999998
 31
0.0
  0
LINE
  5
9A56
330
9842
100
AcDbEntity
  8
1
  6
Continuous
100
AcDbLine
 10
402.1636029999998
 20
73.91791999999998
 30
0.0
 11
402.1212049999999
 21
73.76561200000002
 31
0.0
  0
LINE
  5
9A57
330
9842
100
AcDbEntity
  8
1
  6
Continuous
100
AcDbLine
 10
402.1212049999999
 20
73.76561200000002
 30
0.0
 11
402.0520109999997
 21
73.622642
 31
0.0
  0
LINE
  5
9A58
330
9842
100
AcDbEntity
  8
1
  6
Continuous
100
AcDbLine
 10
402.0520109999997
 20
73.622642
 30
0.0
 11
401.9580509999998
 21
73.49341800000002
 31
0.0
  0
LINE
  5
9A59
330
9842
100
AcDbEntity
  8
1
  6
Continuous
100
AcDbLine
 10
401.955325
 20
74.61189
 30
0.0
 11
402.050445
 21
74.492642
 31
0.0
  0
LINE
  5
9A5A
330
9842
100
AcDbEntity
  8
1
  6
Continuous
100
AcDbLine
 10
402.050445
 20
74.492642
 30
0.0
 11
402.1205089999998
 21
74.360692
 31
0.0
  0
LINE
  5
9A5B
330
9842
100
AcDbEntity
  8
1
  6
Continuous
100
AcDbLine
 10
402.1205089999998
 20
74.360692
 30
0.0
 11
402.1634289999998
 21
74.2201
 31
0.0
  0
LINE
  5
9A5C
330
9842
100
AcDbEntity
  8
1
  6
Continuous
100
AcDbLine
 10
402.1634289999998
 20
74.2201
 30
0.0
 11
402.1778709999998
 21
74.07504200000002
 31
0.0
  0
LINE
  5
9A5D
330
9842
100
AcDbEntity
  8
1
  6
Continuous
100
AcDbLine
 10
402.1806049999998
 20
71.074862
 30
0.0
 11
402.1806049999998
 21
69.95486200000001
 31
0.0
  0
LINE
  5
9A5E
330
9842
100
AcDbEntity
  8
1
  6
Continuous
100
AcDbLine
 10
407.1614049999998
 20
69.28087399999999
 30
0.0
 11
404.1590049999999
 21
69.28087399999999
 31
0.0
  0
LINE
  5
9A5F
330
9842
100
AcDbEntity
  8
1
  6
Continuous
100
AcDbLine
 10
407.1614049999998
 20
76.614074
 30
0.0
 11
404.1590049999999
 21
76.614074
 31
0.0
  0
LINE
  5
9A60
330
9842
100
AcDbEntity
  8
1
  6
Continuous
100
AcDbLine
 10
407.1614049999998
 20
74.680874
 30
0.0
 11
404.1590049999999
 21
74.680874
 31
0.0
  0
LINE
  5
9A61
330
9842
100
AcDbEntity
  8
1
  6
Continuous
100
AcDbLine
 10
407.1614049999998
 20
73.633274
 30
0.0
 11
404.1590049999999
 21
73.633274
 31
0.0
  0
LINE
  5
9A62
330
9842
100
AcDbEntity
  8
1
  6
Continuous
100
AcDbLine
 10
405.050005
 20
79.805474
 30
0.0
 11
405.2769129999998
 21
79.889768
 31
0.0
  0
LINE
  5
9A63
330
9842
100
AcDbEntity
  8
1
  6
Continuous
100
AcDbLine
 10
405.240625
 20
72.36972800000002
 30
0.0
 11
405.4824909999998
 21
72.421406
 31
0.0
  0
LINE
  5
9A64
330
9842
100
AcDbEntity
  8
1
  6
Continuous
100
AcDbLine
 10
405.3470049999998
 20
70.15567400000001
 30
0.0
 11
405.1644309999998
 21
70.172954
 31
0.0
  0
LINE
  5
9A65
330
9842
100
AcDbEntity
  8
1
  6
Continuous
100
AcDbLine
 10
405.4428009999998
 20
80.61558199999998
 30
0.0
 11
405.2088729999998
 21
80.67698
 31
0.0
  0
LINE
  5
9A66
330
9842
100
AcDbEntity
  8
1
  6
Continuous
100
AcDbLine
 10
405.2023929999998
 20
83.00329999999998
 30
0.0
 11
405.435997
 21
83.06566999999999
 31
0.0
  0
LINE
  5
9A67
330
9842
100
AcDbEntity
  8
1
  6
Continuous
100
AcDbLine
 10
405.5630049999998
 20
67.19647399999999
 30
0.0
 11
404.1590049999999
 21
67.19647399999999
 31
0.0
  0
LINE
  5
9A68
330
9842
100
AcDbEntity
  8
1
  6
Continuous
100
AcDbLine
 10
405.573805
 20
70.144874
 30
0.0
 11
404.1806049999998
 21
70.144874
 31
0.0
  0
LINE
  5
9A69
330
9842
100
AcDbEntity
  8
1
  6
Continuous
100
AcDbLine
 10
405.0662049999998
 20
65.241674
 30
0.0
 11
405.0662049999998
 21
63.61627399999999
 31
0.0
  0
LINE
  5
9A6A
330
9842
100
AcDbEntity
  8
1
  6
Continuous
100
AcDbLine
 10
407.2208049999998
 20
64.41547400000001
 30
0.0
 11
404.1698049999998
 21
63.28687399999999
 31
0.0
  0
LINE
  5
9A6B
330
9842
100
AcDbEntity
  8
1
  6
Continuous
100
AcDbLine
 10
407.2154049999999
 20
64.41547400000001
 30
0.0
 11
404.1698049999998
 21
65.598074
 31
0.0
  0
LINE
  5
9A6C
330
9842
100
AcDbEntity
  8
1
  6
Continuous
100
AcDbLine
 10
405.8296879999998
 20
88.20387700000003
 30
0.0
 11
406.8816879999998
 21
88.20387700000003
 31
0.0
  0
LINE
  5
9A6D
330
9842
100
AcDbEntity
  8
1
  6
Continuous
100
AcDbLine
 10
406.970688
 20
88.69587699999998
 30
0.0
 11
405.8296879999998
 21
88.69587699999998
 31
0.0
  0
LINE
  5
9A6E
330
9842
100
AcDbEntity
  8
1
  6
Continuous
100
AcDbLine
 10
406.174688
 20
89.68087699999998
 30
0.0
 11
406.9736879999998
 21
89.68087699999998
 31
0.0
  0
LINE
  5
9A6F
330
9842
100
AcDbEntity
  8
1
  6
Continuous
100
AcDbLine
 10
404.661688
 20
87.95287700000001
 30
0.0
 11
406.737688
 21
87.39587699999999
 31
0.0
  0
LINE
  5
9A70
330
9842
100
AcDbEntity
  8
1
  6
Continuous
100
AcDbLine
 10
407.202688
 20
89.188877
 30
0.0
 11
404.1186879999998
 21
89.188877
 31
0.0
  0
LINE
  5
9A71
330
9842
100
AcDbEntity
  8
1
  6
Continuous
100
AcDbLine
 10
407.204688
 20
90.173877
 30
0.0
 11
403.9616879999998
 21
90.173877
 31
0.0
  0
LINE
  5
9A72
330
9842
100
AcDbEntity
  8
1
  6
Continuous
100
AcDbLine
 10
407.3016879999998
 20
90.66587700000004
 30
0.0
 11
403.8646879999998
 21
90.66587700000004
 31
0.0
  0
ARC
  5
9A73
330
9842
100
AcDbEntity
  8
1
  6
Continuous
100
AcDbCircle
 10
405.583688
 20
87.956877
 30
0.0
 40
1.269449999999998
100
AcDbArc
 50
242.2499999999998
 51
324.4619999999998
  0
ARC
  5
9A74
330
9842
100
AcDbEntity
  8
1
  6
Continuous
100
AcDbCircle
 10
405.8296879999998
 20
88.449877
 30
0.0
 40
0.24635
100
AcDbArc
 50
90.0
 51
270.0
  0
LINE
  5
9A75
330
9842
100
AcDbEntity
  8
1
  6
Continuous
100
AcDbLine
 10
405.583688
 20
86.68787700000001
 30
0.0
 11
405.583688
 21
87.705877
 31
0.0
  0
LINE
  5
9A76
330
9842
100
AcDbEntity
  8
1
  6
Continuous
100
AcDbLine
 10
405.583688
 20
89.68087699999998
 30
0.0
 11
405.583688
 21
89.92787699999999
 31
0.0
  0
ARC
  5
9A77
330
9842
100
AcDbEntity
  8
1
  6
Continuous
100
AcDbCircle
 10
409.7206879999998
 20
90.912877
 30
0.0
 40
5.861699999999999
100
AcDbArc
 50
187.793
 51
190.1039999999999
  0
ARC
  5
9A78
330
9842
100
AcDbEntity
  8
1
  6
Continuous
100
AcDbCircle
 10
403.9616879999998
 20
90.12487699999999
 30
0.0
 40
0.04927
100
AcDbArc
 50
90.0
 51
187.793
  0
ARC
  5
9A79
330
9842
100
AcDbEntity
  8
1
  6
Continuous
100
AcDbCircle
 10
404.192688
 20
89.92787699999999
 30
0.0
 40
0.24635
100
AcDbArc
 50
190.1039999999999
 51
270.0
  0
ARC
  5
9A7A
330
9842
100
AcDbEntity
  8
1
  6
Continuous
100
AcDbCircle
 10
405.583688
 20
87.956877
 30
0.0
 40
1.269449999999998
100
AcDbArc
 50
215.5379999999999
 51
225.699
  0
LINE
  5
9A7B
330
9842
100
AcDbEntity
  8
1
  6
Continuous
100
AcDbLine
 10
405.583688
 20
88.449877
 30
0.0
 11
404.401688
 21
88.449877
 31
0.0
  0
LINE
  5
9A7C
330
9842
100
AcDbEntity
  8
1
  6
Continuous
100
AcDbLine
 10
404.192688
 20
89.68087699999998
 30
0.0
 11
405.583688
 21
89.68087699999998
 31
0.0
  0
ARC
  5
9A7D
330
9842
100
AcDbEntity
  8
1
  6
Continuous
100
AcDbCircle
 10
407.204688
 20
90.12487699999999
 30
0.0
 40
0.04927
100
AcDbArc
 50
352.2069999999998
 51
90.0
  0
ARC
  5
9A7E
330
9842
100
AcDbEntity
  8
1
  6
Continuous
100
AcDbCircle
 10
401.445688
 20
90.912877
 30
0.0
 40
5.861699999999999
100
AcDbArc
 50
349.8959999999998
 51
352.2069999999998
  0
ARC
  5
9A7F
330
9842
100
AcDbEntity
  8
1
  6
Continuous
100
AcDbCircle
 10
406.9736879999998
 20
89.92787699999999
 30
0.0
 40
0.24635
100
AcDbArc
 50
270.0
 51
349.8959999999998
  0
LINE
  5
9A80
330
9842
100
AcDbEntity
  8
1
  6
Continuous
100
AcDbLine
 10
406.174688
 20
92.14387700000001
 30
0.0
 11
407.1146879999998
 21
92.14387700000001
 31
0.0
  0
LINE
  5
9A81
330
9842
100
AcDbEntity
  8
1
  6
Continuous
100
AcDbLine
 10
407.3016879999998
 20
91.158877
 30
0.0
 11
403.8646879999998
 21
91.158877
 31
0.0
  0
LINE
  5
9A82
330
9842
100
AcDbEntity
  8
1
  6
Continuous
100
AcDbLine
 10
407.260688
 20
91.65187700000002
 30
0.0
 11
403.905688
 21
91.65187700000002
 31
0.0
  0
LINE
  5
9A83
330
9842
100
AcDbEntity
  8
1
  6
Continuous
100
AcDbLine
 10
406.862688
 20
92.636877
 30
0.0
 11
404.3036879999998
 21
92.636877
 31
0.0
  0
LINE
  5
9A84
330
9842
100
AcDbEntity
  8
1
  6
Continuous
100
AcDbLine
 10
405.583688
 20
91.158877
 30
0.0
 11
405.583688
 21
91.65187700000002
 31
0.0
  0
ARC
  5
9A85
330
9842
100
AcDbEntity
  8
1
  6
Continuous
100
AcDbCircle
 10
404.051688
 20
92.193877
 30
0.0
 40
0.04927
100
AcDbArc
 50
167.2709999999999
 51
270.0
  0
ARC
  5
9A86
330
9842
100
AcDbEntity
  8
1
  6
Continuous
100
AcDbCircle
 10
409.7206879999998
 20
90.912877
 30
0.0
 40
5.861699999999999
100
AcDbArc
 50
164.794
 51
167.2709999999999
  0
ARC
  5
9A87
330
9842
100
AcDbEntity
  8
1
  6
Continuous
100
AcDbCircle
 10
409.7206879999998
 20
90.912877
 30
0.0
 40
5.861699999999999
100
AcDbArc
 50
164.7419999999999
 51
164.794
  0
ARC
  5
9A88
330
9842
100
AcDbEntity
  8
1
  6
Continuous
100
AcDbCircle
 10
404.3036879999998
 20
92.389877
 30
0.0
 40
0.24635
100
AcDbArc
 50
90.0
 51
164.7419999999999
  0
LINE
  5
9A89
330
9842
100
AcDbEntity
  8
1
  6
Continuous
100
AcDbLine
 10
404.051688
 20
92.14387700000001
 30
0.0
 11
404.992688
 21
92.14387700000001
 31
0.0
  0
ARC
  5
9A8A
330
9842
100
AcDbEntity
  8
1
  6
Continuous
100
AcDbCircle
 10
406.862688
 20
92.389877
 30
0.0
 40
0.24635
100
AcDbArc
 50
15.2575
 51
90.0
  0
ARC
  5
9A8B
330
9842
100
AcDbEntity
  8
1
  6
Continuous
100
AcDbCircle
 10
401.445688
 20
90.912877
 30
0.0
 40
5.861699999999999
100
AcDbArc
 50
13.2681
 51
15.2575
  0
ARC
  5
9A8C
330
9842
100
AcDbEntity
  8
1
  6
Continuous
100
AcDbCircle
 10
401.445688
 20
90.912877
 30
0.0
 40
5.861699999999999
100
AcDbArc
 50
12.7289
 51
13.2681
  0
ARC
  5
9A8D
330
9842
100
AcDbEntity
  8
1
  6
Continuous
100
AcDbCircle
 10
407.1146879999998
 20
92.193877
 30
0.0
 40
0.04927
100
AcDbArc
 50
270.0
 51
12.7289
  0
LINE
  5
9A8E
330
9842
100
AcDbEntity
  8
1
  6
Continuous
100
AcDbLine
 10
407.1614049999998
 20
84.822074
 30
0.0
 11
404.1806049999998
 21
84.822074
 31
0.0
  0
LINE
  5
9A8F
330
9842
100
AcDbEntity
  8
1
  6
Continuous
100
AcDbLine
 10
402.161405
 20
90.96023800000001
 30
0.0
 11
402.161405
 21
88.53023799999998
 31
0.0
  0
LINE
  5
9A90
330
9842
100
AcDbEntity
  8
1
  6
Continuous
100
AcDbLine
 10
400.006805
 20
84.75569399999997
 30
0.0
 11
400.006805
 21
83.13029399999997
 31
0.0
  0
LINE
  5
9A91
330
9842
100
AcDbEntity
  8
1
  6
Continuous
100
AcDbLine
 10
402.1560049999997
 20
83.92949399999997
 30
0.0
 11
399.1806049999998
 21
85.084835
 31
0.0
  0
LINE
  5
9A92
330
9842
100
AcDbEntity
  8
1
  6
Continuous
100
AcDbLine
 10
400.742215
 20
63.72011
 30
0.0
 11
399.1492149999999
 21
65.14790999999999
 31
0.0
  0
LINE
  5
9A93
330
9842
100
AcDbEntity
  8
1
  6
Continuous
100
AcDbLine
 10
399.1610149999999
 20
65.14790999999999
 30
0.0
 11
399.1610149999999
 21
63.40150999999998
 31
0.0
  0
ARC
  5
9A94
330
9842
100
AcDbEntity
  8
1
  6
Continuous
100
AcDbCircle
 10
401.3204149999998
 20
64.34551
 30
0.0
 40
0.8496
100
AcDbArc
 50
227.181793
 51
90.0
  0
LINE
  5
9A95
330
9842
100
AcDbEntity
  8
1
  6
Continuous
100
AcDbLine
 10
400.6104539999998
 20
66.971884
 30
0.0
 11
400.6104539999998
 21
65.92335799999999
 31
0.0
  0
LINE
  5
9A96
330
9842
100
AcDbEntity
  8
1
  6
Continuous
100
AcDbLine
 10
401.7734609999997
 20
80.04845000000001
 30
0.0
 11
401.888597
 21
79.96893
 31
0.0
  0
LINE
  5
9A97
330
9842
100
AcDbEntity
  8
1
  6
Continuous
100
AcDbLine
 10
401.646061
 20
80.107026
 30
0.0
 11
401.7734609999997
 21
80.04845000000001
 31
0.0
  0
LINE
  5
9A98
330
9842
100
AcDbEntity
  8
1
  6
Continuous
100
AcDbLine
 10
401.510261
 20
80.142866
 30
0.0
 11
401.646061
 21
80.107026
 31
0.0
  0
LINE
  5
9A99
330
9842
100
AcDbEntity
  8
1
  6
Continuous
100
AcDbLine
 10
401.370261
 20
80.15496199999999
 30
0.0
 11
401.510261
 21
80.142866
 31
0.0
  0
LINE
  5
9A9A
330
9842
100
AcDbEntity
  8
1
  6
Continuous
100
AcDbLine
 10
399.785909
 20
80.143202
 30
0.0
 11
399.914261
 21
80.15496199999999
 31
0.0
  0
LINE
  5
9A9B
330
9842
100
AcDbEntity
  8
1
  6
Continuous
100
AcDbLine
 10
399.661421
 20
80.10836999999998
 30
0.0
 11
399.785909
 21
80.143202
 31
0.0
  0
LINE
  5
9A9C
330
9842
100
AcDbEntity
  8
1
  6
Continuous
100
AcDbLine
 10
399.5446609999999
 20
80.051418
 30
0.0
 11
399.661421
 21
80.10836999999998
 31
0.0
  0
LINE
  5
9A9D
330
9842
100
AcDbEntity
  8
1
  6
Continuous
100
AcDbLine
 10
399.439101
 20
79.97413799999998
 30
0.0
 11
399.5446609999999
 21
80.051418
 31
0.0
  0
LINE
  5
9A9E
330
9842
100
AcDbEntity
  8
1
  6
Continuous
100
AcDbLine
 10
399.3479890000001
 20
79.87888199999997
 30
0.0
 11
399.439101
 21
79.97413799999998
 31
0.0
  0
LINE
  5
9A9F
330
9842
100
AcDbEntity
  8
1
  6
Continuous
100
AcDbLine
 10
399.274069
 20
79.768562
 30
0.0
 11
399.3479890000001
 21
79.87888199999997
 31
0.0
  0
LINE
  5
9AA0
330
9842
100
AcDbEntity
  8
1
  6
Continuous
100
AcDbLine
 10
401.563853
 20
78.68692199999998
 30
0.0
 11
401.4374609999999
 21
78.676562
 31
0.0
  0
LINE
  5
9AA1
330
9842
100
AcDbEntity
  8
1
  6
Continuous
100
AcDbLine
 10
401.686437
 20
78.71777800000002
 30
0.0
 11
401.563853
 21
78.68692199999998
 31
0.0
  0
LINE
  5
9AA2
330
9842
100
AcDbEntity
  8
1
  6
Continuous
100
AcDbLine
 10
401.8014609999998
 20
78.76812199999998
 30
0.0
 11
401.686437
 21
78.71777800000002
 31
0.0
  0
LINE
  5
9AA3
330
9842
100
AcDbEntity
  8
1
  6
Continuous
100
AcDbLine
 10
401.9053969999998
 20
78.83638600000002
 30
0.0
 11
401.8014609999998
 21
78.76812199999998
 31
0.0
  0
LINE
  5
9AA4
330
9842
100
AcDbEntity
  8
1
  6
Continuous
100
AcDbLine
 10
400.060589
 20
78.65365799999998
 30
0.0
 11
399.9030609999999
 21
78.64296199999998
 31
0.0
  0
LINE
  5
9AA5
330
9842
100
AcDbEntity
  8
1
  6
Continuous
100
AcDbLine
 10
400.2133569999998
 20
78.68552199999998
 30
0.0
 11
400.060589
 21
78.65365799999998
 31
0.0
  0
LINE
  5
9AA6
330
9842
100
AcDbEntity
  8
1
  6
Continuous
100
AcDbLine
 10
400.356661
 20
78.73748999999998
 30
0.0
 11
400.2133569999998
 21
78.68552199999998
 31
0.0
  0
LINE
  5
9AA7
330
9842
100
AcDbEntity
  8
1
  6
Continuous
100
AcDbLine
 10
400.4861889999999
 20
78.80804999999998
 30
0.0
 11
400.356661
 21
78.73748999999998
 31
0.0
  0
LINE
  5
9AA8
330
9842
100
AcDbEntity
  8
1
  6
Continuous
100
AcDbLine
 10
400.598021
 20
78.89501799999997
 30
0.0
 11
400.4861889999999
 21
78.80804999999998
 31
0.0
  0
LINE
  5
9AA9
330
9842
100
AcDbEntity
  8
1
  6
Continuous
100
AcDbLine
 10
400.688741
 20
78.995762
 30
0.0
 11
400.598021
 21
78.89501799999997
 31
0.0
  0
LINE
  5
9AAA
330
9842
100
AcDbEntity
  8
1
  6
Continuous
100
AcDbLine
 10
400.7555489999998
 20
79.107258
 30
0.0
 11
400.688741
 21
78.995762
 31
0.0
  0
LINE
  5
9AAB
330
9842
100
AcDbEntity
  8
1
  6
Continuous
100
AcDbLine
 10
400.796485
 20
79.22603399999998
 30
0.0
 11
400.7555489999998
 21
79.107258
 31
0.0
  0
LINE
  5
9AAC
330
9842
100
AcDbEntity
  8
1
  6
Continuous
100
AcDbLine
 10
400.8102609999999
 20
79.348562
 30
0.0
 11
400.796485
 21
79.22603399999998
 31
0.0
  0
LINE
  5
9AAD
330
9842
100
AcDbEntity
  8
1
  6
Continuous
100
AcDbLine
 10
399.3453569999999
 20
78.90700200000002
 30
0.0
 11
399.2726129999999
 21
79.012562
 31
0.0
  0
LINE
  5
9AAE
330
9842
100
AcDbEntity
  8
1
  6
Continuous
100
AcDbLine
 10
399.435125
 20
78.81588999999998
 30
0.0
 11
399.3453569999999
 21
78.90700200000002
 31
0.0
  0
LINE
  5
9AAF
330
9842
100
AcDbEntity
  8
1
  6
Continuous
100
AcDbLine
 10
399.539061
 20
78.74196999999998
 30
0.0
 11
399.435125
 21
78.81588999999998
 31
0.0
  0
LINE
  5
9AB0
330
9842
100
AcDbEntity
  8
1
  6
Continuous
100
AcDbLine
 10
399.654085
 20
78.687538
 30
0.0
 11
399.539061
 21
78.74196999999998
 31
0.0
  0
LINE
  5
9AB1
330
9842
100
AcDbEntity
  8
1
  6
Continuous
100
AcDbLine
 10
399.7766689999999
 20
78.654218
 30
0.0
 11
399.654085
 21
78.687538
 31
0.0
  0
LINE
  5
9AB2
330
9842
100
AcDbEntity
  8
1
  6
Continuous
100
AcDbLine
 10
399.9030609999999
 20
78.64296199999998
 30
0.0
 11
399.7766689999999
 21
78.654218
 31
0.0
  0
LINE
  5
9AB3
330
9842
100
AcDbEntity
  8
1
  6
Continuous
100
AcDbLine
 10
400.8197809999998
 20
79.231858
 30
0.0
 11
400.8102609999999
 21
79.348562
 31
0.0
  0
LINE
  5
9AB4
330
9842
100
AcDbEntity
  8
1
  6
Continuous
100
AcDbLine
 10
400.8480609999998
 20
79.11873799999998
 30
0.0
 11
400.8197809999998
 21
79.231858
 31
0.0
  0
LINE
  5
9AB5
330
9842
100
AcDbEntity
  8
1
  6
Continuous
100
AcDbLine
 10
400.894317
 20
79.012562
 30
0.0
 11
400.8480609999998
 21
79.11873799999998
 31
0.0
  0
LINE
  5
9AB6
330
9842
100
AcDbEntity
  8
1
  6
Continuous
100
AcDbLine
 10
400.956981
 20
78.916634
 30
0.0
 11
400.894317
 21
79.012562
 31
0.0
  0
LINE
  5
9AB7
330
9842
100
AcDbEntity
  8
1
  6
Continuous
100
AcDbLine
 10
401.0343169999998
 20
78.833754
 30
0.0
 11
400.956981
 21
78.916634
 31
0.0
  0
LINE
  5
9AB8
330
9842
100
AcDbEntity
  8
1
  6
Continuous
100
AcDbLine
 10
401.1238609999998
 20
78.76661
 30
0.0
 11
401.0343169999998
 21
78.833754
 31
0.0
  0
LINE
  5
9AB9
330
9842
100
AcDbEntity
  8
1
  6
Continuous
100
AcDbLine
 10
401.2229249999998
 20
78.717106
 30
0.0
 11
401.1238609999998
 21
78.76661
 31
0.0
  0
LINE
  5
9ABA
330
9842
100
AcDbEntity
  8
1
  6
Continuous
100
AcDbLine
 10
401.3285409999999
 20
78.68675399999998
 30
0.0
 11
401.2229249999998
 21
78.717106
 31
0.0
  0
LINE
  5
9ABB
330
9842
100
AcDbEntity
  8
1
  6
Continuous
100
AcDbLine
 10
401.4374609999999
 20
78.676562
 30
0.0
 11
401.3285409999999
 21
78.68675399999998
 31
0.0
  0
LINE
  5
9ABC
330
9842
100
AcDbEntity
  8
1
  6
Continuous
100
AcDbLine
 10
400.8102609999999
 20
79.337362
 30
0.0
 11
400.8102609999999
 21
79.617362
 31
0.0
  0
LINE
  5
9ABD
330
9842
100
AcDbEntity
  8
1
  6
Continuous
100
AcDbLine
 10
400.6104539999998
 20
82.155675
 30
0.0
 11
400.6104539999998
 21
81.10714899999997
 31
0.0
  0
LINE
  5
9ABE
330
9842
100
AcDbEntity
  8
1
  6
Continuous
100
AcDbLine
 10
399.2196369999999
 20
79.64648199999998
 30
0.0
 11
399.274069
 21
79.768562
 31
0.0
  0
LINE
  5
9ABF
330
9842
100
AcDbEntity
  8
1
  6
Continuous
100
AcDbLine
 10
399.1863169999999
 20
79.516338
 30
0.0
 11
399.2196369999999
 21
79.64648199999998
 31
0.0
  0
LINE
  5
9AC0
330
9842
100
AcDbEntity
  8
1
  6
Continuous
100
AcDbLine
 10
399.175061
 20
79.38216199999998
 30
0.0
 11
399.1863169999999
 21
79.516338
 31
0.0
  0
LINE
  5
9AC1
330
9842
100
AcDbEntity
  8
1
  6
Continuous
100
AcDbLine
 10
399.186149
 20
79.25381
 30
0.0
 11
399.175061
 21
79.38216199999998
 31
0.0
  0
LINE
  5
9AC2
330
9842
100
AcDbEntity
  8
1
  6
Continuous
100
AcDbLine
 10
399.2189649999998
 20
79.129322
 30
0.0
 11
399.186149
 21
79.25381
 31
0.0
  0
LINE
  5
9AC3
330
9842
100
AcDbEntity
  8
1
  6
Continuous
100
AcDbLine
 10
399.2726129999999
 20
79.012562
 30
0.0
 11
399.2189649999998
 21
79.129322
 31
0.0
  0
LINE
  5
9AC4
330
9842
100
AcDbEntity
  8
1
  6
Continuous
100
AcDbLine
 10
402.161405
 20
83.92949399999997
 30
0.0
 11
399.1806049999998
 21
82.826862
 31
0.0
  0
LINE
  5
9AC5
330
9842
100
AcDbEntity
  8
1
  6
Continuous
100
AcDbLine
 10
399.300897
 20
77.315955
 30
0.0
 11
399.230833
 21
77.184005
 31
0.0
  0
LINE
  5
9AC6
330
9842
100
AcDbEntity
  8
1
  6
Continuous
100
AcDbLine
 10
399.230833
 20
77.184005
 30
0.0
 11
399.187913
 21
77.043413
 31
0.0
  0
LINE
  5
9AC7
330
9842
100
AcDbEntity
  8
1
  6
Continuous
100
AcDbLine
 10
399.187913
 20
77.043413
 30
0.0
 11
399.173471
 21
76.89835499999998
 31
0.0
  0
LINE
  5
9AC8
330
9842
100
AcDbEntity
  8
1
  6
Continuous
100
AcDbLine
 10
399.173471
 20
76.89835499999998
 30
0.0
 11
399.187739
 21
76.74123299999997
 31
0.0
  0
LINE
  5
9AC9
330
9842
100
AcDbEntity
  8
1
  6
Continuous
100
AcDbLine
 10
399.187739
 20
76.74123299999997
 30
0.0
 11
399.230137
 21
76.588925
 31
0.0
  0
LINE
  5
9ACA
330
9842
100
AcDbEntity
  8
1
  6
Continuous
100
AcDbLine
 10
399.230137
 20
76.588925
 30
0.0
 11
399.299331
 21
76.445955
 31
0.0
  0
LINE
  5
9ACB
330
9842
100
AcDbEntity
  8
1
  6
Continuous
100
AcDbLine
 10
401.226671
 20
77.73355499999998
 30
0.0
 11
400.078271
 21
77.73355499999998
 31
0.0
  0
LINE
  5
9ACC
330
9842
100
AcDbEntity
  8
1
  6
Continuous
100
AcDbLine
 10
401.249871
 20
75.993555
 30
0.0
 11
400.078271
 21
75.993555
 31
0.0
  0
LINE
  5
9ACD
330
9842
100
AcDbEntity
  8
1
  6
Continuous
100
AcDbLine
 10
401.9580509999998
 20
76.316731
 30
0.0
 11
401.8422249999998
 21
76.20525499999998
 31
0.0
  0
LINE
  5
9ACE
330
9842
100
AcDbEntity
  8
1
  6
Continuous
100
AcDbLine
 10
401.8422249999998
 20
76.20525499999998
 30
0.0
 11
401.708071
 21
76.11477499999998
 31
0.0
  0
LINE
  5
9ACF
330
9842
100
AcDbEntity
  8
1
  6
Continuous
100
AcDbLine
 10
401.708071
 20
76.11477499999998
 30
0.0
 11
401.559649
 21
76.04813299999998
 31
0.0
  0
LINE
  5
9AD0
330
9842
100
AcDbEntity
  8
1
  6
Continuous
100
AcDbLine
 10
401.559649
 20
76.04813299999998
 30
0.0
 11
401.401425
 21
76.00730099999998
 31
0.0
  0
LINE
  5
9AD1
330
9842
100
AcDbEntity
  8
1
  6
Continuous
100
AcDbLine
 10
401.401425
 20
76.00730099999998
 30
0.0
 11
401.2382709999998
 21
75.993555
 31
0.0
  0
LINE
  5
9AD2
330
9842
100
AcDbEntity
  8
1
  6
Continuous
100
AcDbLine
 10
401.226671
 20
77.73355499999998
 30
0.0
 11
401.3918549999998
 21
77.720853
 31
0.0
  0
LINE
  5
9AD3
330
9842
100
AcDbEntity
  8
1
  6
Continuous
100
AcDbLine
 10
401.3918549999998
 20
77.720853
 30
0.0
 11
401.5519929999999
 21
77.683211
 31
0.0
  0
LINE
  5
9AD4
330
9842
100
AcDbEntity
  8
1
  6
Continuous
100
AcDbLine
 10
401.5519929999999
 20
77.683211
 30
0.0
 11
401.7022709999998
 21
77.621673
 31
0.0
  0
LINE
  5
9AD5
330
9842
100
AcDbEntity
  8
1
  6
Continuous
100
AcDbLine
 10
401.7022709999998
 20
77.621673
 30
0.0
 11
401.838107
 21
77.53815299999998
 31
0.0
  0
LINE
  5
9AD6
330
9842
100
AcDbEntity
  8
1
  6
Continuous
100
AcDbLine
 10
401.838107
 20
77.53815299999998
 30
0.0
 11
401.955325
 21
77.435203
 31
0.0
  0
LINE
  5
9AD7
330
9842
100
AcDbEntity
  8
1
  6
Continuous
100
AcDbLine
 10
400.124671
 20
77.73355499999998
 30
0.0
 11
399.959487
 21
77.720853
 31
0.0
  0
LINE
  5
9AD8
330
9842
100
AcDbEntity
  8
1
  6
Continuous
100
AcDbLine
 10
399.959487
 20
77.720853
 30
0.0
 11
399.799349
 21
77.683211
 31
0.0
  0
LINE
  5
9AD9
330
9842
100
AcDbEntity
  8
1
  6
Continuous
100
AcDbLine
 10
399.799349
 20
77.683211
 30
0.0
 11
399.649071
 21
77.621673
 31
0.0
  0
LINE
  5
9ADA
330
9842
100
AcDbEntity
  8
1
  6
Continuous
100
AcDbLine
 10
399.649071
 20
77.621673
 30
0.0
 11
399.513235
 21
77.53815299999998
 31
0.0
  0
LINE
  5
9ADB
330
9842
100
AcDbEntity
  8
1
  6
Continuous
100
AcDbLine
 10
399.513235
 20
77.53815299999998
 30
0.0
 11
399.3960169999999
 21
77.435203
 31
0.0
  0
LINE
  5
9ADC
330
9842
100
AcDbEntity
  8
1
  6
Continuous
100
AcDbLine
 10
399.3960169999999
 20
77.435203
 30
0.0
 11
399.300897
 21
77.315955
 31
0.0
  0
LINE
  5
9ADD
330
9842
100
AcDbEntity
  8
1
  6
Continuous
100
AcDbLine
 10
399.299331
 20
76.445955
 30
0.0
 11
399.3932909999998
 21
76.316731
 31
0.0
  0
LINE
  5
9ADE
330
9842
100
AcDbEntity
  8
1
  6
Continuous
100
AcDbLine
 10
399.3932909999998
 20
76.316731
 30
0.0
 11
399.509117
 21
76.20525499999998
 31
0.0
  0
LINE
  5
9ADF
330
9842
100
AcDbEntity
  8
1
  6
Continuous
100
AcDbLine
 10
399.509117
 20
76.20525499999998
 30
0.0
 11
399.6432709999999
 21
76.11477499999998
 31
0.0
  0
LINE
  5
9AE0
330
9842
100
AcDbEntity
  8
1
  6
Continuous
100
AcDbLine
 10
399.6432709999999
 20
76.11477499999998
 30
0.0
 11
399.791693
 21
76.04813299999998
 31
0.0
  0
LINE
  5
9AE1
330
9842
100
AcDbEntity
  8
1
  6
Continuous
100
AcDbLine
 10
399.791693
 20
76.04813299999998
 30
0.0
 11
399.9499169999999
 21
76.00730099999998
 31
0.0
  0
LINE
  5
9AE2
330
9842
100
AcDbEntity
  8
1
  6
Continuous
100
AcDbLine
 10
399.9499169999999
 20
76.00730099999998
 30
0.0
 11
400.1130709999998
 21
75.993555
 31
0.0
  0
LINE
  5
9AE3
330
9842
100
AcDbEntity
  8
1
  6
Continuous
100
AcDbLine
 10
401.226671
 20
74.91024200000002
 30
0.0
 11
400.078271
 21
74.91024200000002
 31
0.0
  0
LINE
  5
9AE4
330
9842
100
AcDbEntity
  8
1
  6
Continuous
100
AcDbLine
 10
401.249871
 20
73.170242
 30
0.0
 11
400.078271
 21
73.170242
 31
0.0
  0
LINE
  5
9AE5
330
9842
100
AcDbEntity
  8
1
  6
Continuous
100
AcDbLine
 10
401.9580509999998
 20
73.49341800000002
 30
0.0
 11
401.8422249999998
 21
73.38194200000002
 31
0.0
  0
LINE
  5
9AE6
330
9842
100
AcDbEntity
  8
1
  6
Continuous
100
AcDbLine
 10
401.8422249999998
 20
73.38194200000002
 30
0.0
 11
401.708071
 21
73.29146199999998
 31
0.0
  0
LINE
  5
9AE7
330
9842
100
AcDbEntity
  8
1
  6
Continuous
100
AcDbLine
 10
401.708071
 20
73.29146199999998
 30
0.0
 11
401.559649
 21
73.22481999999998
 31
0.0
  0
LINE
  5
9AE8
330
9842
100
AcDbEntity
  8
1
  6
Continuous
100
AcDbLine
 10
401.559649
 20
73.22481999999998
 30
0.0
 11
401.401425
 21
73.183988
 31
0.0
  0
LINE
  5
9AE9
330
9842
100
AcDbEntity
  8
1
  6
Continuous
100
AcDbLine
 10
401.401425
 20
73.183988
 30
0.0
 11
401.2382709999998
 21
73.170242
 31
0.0
  0
LINE
  5
9AEA
330
9842
100
AcDbEntity
  8
1
  6
Continuous
100
AcDbLine
 10
401.226671
 20
74.91024200000002
 30
0.0
 11
401.3918549999998
 21
74.89754000000002
 31
0.0
  0
LINE
  5
9AEB
330
9842
100
AcDbEntity
  8
1
  6
Continuous
100
AcDbLine
 10
401.3918549999998
 20
74.89754000000002
 30
0.0
 11
401.5519929999999
 21
74.859898
 31
0.0
  0
LINE
  5
9AEC
330
9842
100
AcDbEntity
  8
1
  6
Continuous
100
AcDbLine
 10
401.5519929999999
 20
74.859898
 30
0.0
 11
401.7022709999998
 21
74.79836
 31
0.0
  0
LINE
  5
9AED
330
9842
100
AcDbEntity
  8
1
  6
Continuous
100
AcDbLine
 10
401.7022709999998
 20
74.79836
 30
0.0
 11
401.838107
 21
74.71483999999998
 31
0.0
  0
LINE
  5
9AEE
330
9842
100
AcDbEntity
  8
1
  6
Continuous
100
AcDbLine
 10
401.838107
 20
74.71483999999998
 30
0.0
 11
401.955325
 21
74.61189
 31
0.0
  0
LINE
  5
9AEF
330
9842
100
AcDbEntity
  8
1
  6
Continuous
100
AcDbLine
 10
400.124671
 20
74.91024200000002
 30
0.0
 11
399.959487
 21
74.89754000000002
 31
0.0
  0
LINE
  5
9AF0
330
9842
100
AcDbEntity
  8
1
  6
Continuous
100
AcDbLine
 10
399.959487
 20
74.89754000000002
 30
0.0
 11
399.799349
 21
74.859898
 31
0.0
  0
LINE
  5
9AF1
330
9842
100
AcDbEntity
  8
1
  6
Continuous
100
AcDbLine
 10
399.799349
 20
74.859898
 30
0.0
 11
399.649071
 21
74.79836
 31
0.0
  0
LINE
  5
9AF2
330
9842
100
AcDbEntity
  8
1
  6
Continuous
100
AcDbLine
 10
399.649071
 20
74.79836
 30
0.0
 11
399.513235
 21
74.71483999999998
 31
0.0
  0
LINE
  5
9AF3
330
9842
100
AcDbEntity
  8
1
  6
Continuous
100
AcDbLine
 10
399.513235
 20
74.71483999999998
 30
0.0
 11
399.3960169999999
 21
74.61189
 31
0.0
  0
LINE
  5
9AF4
330
9842
100
AcDbEntity
  8
1
  6
Continuous
100
AcDbLine
 10
399.3960169999999
 20
74.61189
 30
0.0
 11
399.300897
 21
74.492642
 31
0.0
  0
LINE
  5
9AF5
330
9842
100
AcDbEntity
  8
1
  6
Continuous
100
AcDbLine
 10
399.299331
 20
73.622642
 30
0.0
 11
399.3932909999998
 21
73.49341800000002
 31
0.0
  0
LINE
  5
9AF6
330
9842
100
AcDbEntity
  8
1
  6
Continuous
100
AcDbLine
 10
399.3932909999998
 20
73.49341800000002
 30
0.0
 11
399.509117
 21
73.38194200000002
 31
0.0
  0
LINE
  5
9AF7
330
9842
100
AcDbEntity
  8
1
  6
Continuous
100
AcDbLine
 10
399.509117
 20
73.38194200000002
 30
0.0
 11
399.6432709999999
 21
73.29146199999998
 31
0.0
  0
LINE
  5
9AF8
330
9842
100
AcDbEntity
  8
1
  6
Continuous
100
AcDbLine
 10
399.6432709999999
 20
73.29146199999998
 30
0.0
 11
399.791693
 21
73.22481999999998
 31
0.0
  0
LINE
  5
9AF9
330
9842
100
AcDbEntity
  8
1
  6
Continuous
100
AcDbLine
 10
399.791693
 20
73.22481999999998
 30
0.0
 11
399.9499169999999
 21
73.183988
 31
0.0
  0
LINE
  5
9AFA
330
9842
100
AcDbEntity
  8
1
  6
Continuous
100
AcDbLine
 10
399.9499169999999
 20
73.183988
 30
0.0
 11
400.1130709999998
 21
73.170242
 31
0.0
  0
LINE
  5
9AFB
330
9842
100
AcDbEntity
  8
1
  6
Continuous
100
AcDbLine
 10
399.300897
 20
74.492642
 30
0.0
 11
399.230833
 21
74.360692
 31
0.0
  0
LINE
  5
9AFC
330
9842
100
AcDbEntity
  8
1
  6
Continuous
100
AcDbLine
 10
399.230833
 20
74.360692
 30
0.0
 11
399.187913
 21
74.2201
 31
0.0
  0
LINE
  5
9AFD
330
9842
100
AcDbEntity
  8
1
  6
Continuous
100
AcDbLine
 10
399.187913
 20
74.2201
 30
0.0
 11
399.173471
 21
74.07504200000002
 31
0.0
  0
LINE
  5
9AFE
330
9842
100
AcDbEntity
  8
1
  6
Continuous
100
AcDbLine
 10
399.173471
 20
74.07504200000002
 30
0.0
 11
399.187739
 21
73.91791999999998
 31
0.0
  0
LINE
  5
9AFF
330
9842
100
AcDbEntity
  8
1
  6
Continuous
100
AcDbLine
 10
399.187739
 20
73.91791999999998
 30
0.0
 11
399.230137
 21
73.76561200000002
 31
0.0
  0
LINE
  5
9B00
330
9842
100
AcDbEntity
  8
1
  6
Continuous
100
AcDbLine
 10
399.230137
 20
73.76561200000002
 30
0.0
 11
399.299331
 21
73.622642
 31
0.0
  0
ARC
  5
9B01
330
9842
100
AcDbEntity
  8
1
  6
Continuous
100
AcDbCircle
 10
399.817405
 20
71.153262
 30
0.0
 40
0.6384
100
AcDbArc
 50
87.990448
 51
270.7026519999998
  0
LINE
  5
9B02
330
9842
100
AcDbEntity
  8
1
  6
Continuous
100
AcDbLine
 10
402.1806049999998
 20
70.51486199999998
 30
0.0
 11
399.8286049999999
 21
70.51486199999998
 31
0.0
  0
LWPOLYLINE
  5
9B03
330
9842
100
AcDbEntity
  8
1
  6
Continuous
100
AcDbPolyline
 90
       30
 70
     0
 43
0.0
 10
400.8696339999998
 20
68.170055
 10
400.8818029999998
 20
68.35762800000001
 10
400.909311
 20
68.473658
 10
400.954364
 20
68.582952
 10
401.015549
 20
68.682342
 10
401.0911659999998
 20
68.76894
 10
401.1790099999998
 20
68.840313
 10
401.2766449999999
 20
68.894366
 10
401.381185
 20
68.92962699999999
 10
401.48963
 20
68.944966
 10
401.5988679999998
 20
68.94004200000001
 10
401.705842
 20
68.914911
 10
401.8073259999998
 20
68.870367
 10
401.900546
 20
68.807711
 10
401.9827859999998
 20
68.72864100000001
 10
402.0516119999999
 20
68.63547700000001
 10
402.105155
 20
68.53093699999999
 10
402.1418319999998
 20
68.417963
 10
402.160567
 20
68.29978299999999
 10
402.160793
 20
68.17990400000001
 10
402.142625
 20
68.061666
 10
402.106457
 20
67.94852299999999
 10
402.0533659999999
 20
67.843643
 10
401.984937
 20
67.75014
 10
401.903093
 20
67.67061700000001
 10
401.8101559999998
 20
67.607451
 10
401.708786
 20
67.562341
 10
401.601981
 20
67.53670099999999
 10
401.492743
 20
67.53115499999998
 10
401.3842409999998
 20
67.54598399999999
  0
LWPOLYLINE
  5
9B23
330
9842
100
AcDbEntity
  8
1
  6
Continuous
100
AcDbPolyline
 90
       25
 70
     0
 43
0.0
 10
400.8696339999998
 20
68.170055
 10
400.8696339999998
 20
68.170055
 10
400.8696339999998
 20
68.170055
 10
400.8696339999998
 20
68.170055
 10
400.8696339999998
 20
68.170055
 10
400.8696339999998
 20
68.170055
 10
400.8696339999998
 20
68.170055
 10
400.8456919999998
 20
68.04327099999999
 10
400.7980919999998
 20
67.921978
 10
400.7283039999999
 20
67.80956999999999
 10
400.6382529999998
 20
67.709331
 10
400.5304869999998
 20
67.62414799999999
 10
400.408231
 20
67.556398
 10
400.2748809999998
 20
67.50806199999999
 10
400.134343
 20
67.480554
 10
399.990579
 20
67.47461099999999
 10
399.8478339999999
 20
67.490459
 10
399.7100699999998
 20
67.52764499999999
 10
399.5813049999999
 20
67.58503799999998
 10
399.465275
 20
67.661052
 10
399.3652629999999
 20
67.75347899999998
 10
399.2841549999998
 20
67.859661
 10
399.224329
 20
67.97654
 10
399.187425
 20
68.10077699999999
 10
399.1745209999999
 20
68.232485
  0
LWPOLYLINE
  5
9B3E
330
9842
100
AcDbEntity
  8
1
  6
Continuous
100
AcDbPolyline
 90
       10
 70
     0
 43
0.0
 10
399.1745209999999
 20
68.232485
 10
399.18669
 20
68.36057099999999
 10
399.2229699999999
 20
68.484978
 10
399.282174
 20
68.60214
 10
399.3627159999999
 20
68.70866099999999
 10
399.462218
 20
68.801485
 10
399.5777959999998
 20
68.87800799999999
 10
399.7062209999999
 20
68.935967
 10
399.8437589999999
 20
68.97371899999999
 10
399.986504
 20
68.990189
  0
LINE
  5
9B4A
330
9842
100
AcDbEntity
  8
1
  6
Continuous
100
AcDbLine
 10
402.161405
 20
89.745238
 30
0.0
 11
399.1806049999998
 21
89.745238
 31
0.0
  0
LINE
  5
9B4B
330
9842
100
AcDbEntity
  8
1
  6
Continuous
100
AcDbLine
 10
402.161405
 20
87.73456899999997
 30
0.0
 11
399.1806049999998
 21
87.73456899999997
 31
0.0
  0
LINE
  5
9B4C
330
9842
100
AcDbEntity
  8
1
  6
Continuous
100
AcDbLine
 10
402.161405
 20
85.80136899999997
 30
0.0
 11
399.1806049999998
 21
85.80136899999997
 31
0.0
  0
LINE
  5
9B4D
330
9842
100
AcDbEntity
  8
1
  6
Continuous
100
AcDbLine
 10
400.5954049999998
 20
87.73456899999997
 30
0.0
 11
400.5954049999998
 21
85.80136899999997
 31
0.0
  0
LINE
  5
9B4E
330
9842
100
AcDbEntity
  8
1
  6
Continuous
100
AcDbLine
 10
403.169805
 20
150.943728
 30
0.0
 11
408.8266589999998
 21
145.286874
 31
0.0
  0
LINE
  5
9B4F
330
9842
100
AcDbEntity
  8
1
  6
Continuous
100
AcDbLine
 10
397.512951
 20
145.286874
 30
0.0
 11
403.169805
 21
139.6300199999998
 31
0.0
  0
LINE
  5
9B50
330
9842
100
AcDbEntity
  8
1
  6
Continuous
100
AcDbLine
 10
403.169805
 20
150.943728
 30
0.0
 11
397.512951
 21
145.286874
 31
0.0
  0
LINE
  5
9B51
330
9842
100
AcDbEntity
  8
1
  6
Continuous
100
AcDbLine
 10
408.8266589999998
 20
145.286874
 30
0.0
 11
403.169805
 21
139.6300199999998
 31
0.0
  0
LINE
  5
9B52
330
9842
100
AcDbEntity
  8
1
  6
Continuous
100
AcDbLine
 10
324.5408049999999
 20
244.872074
 30
0.0
 11
324.5408049999999
 21
226.8719739999999
 31
0.0
  0
LINE
  5
9B53
330
9842
100
AcDbEntity
  8
1
  6
Continuous
100
AcDbLine
 10
327.5408049999999
 20
244.872074
 30
0.0
 11
327.5408049999999
 21
226.8719739999999
 31
0.0
  0
LINE
  5
9B54
330
9842
100
AcDbEntity
  8
1
  6
Continuous
100
AcDbLine
 10
340.277805
 20
243.872074
 30
0.0
 11
340.277805
 21
227.871974
 31
0.0
  0
LINE
  5
9B55
330
9842
100
AcDbEntity
  8
1
  6
Continuous
100
AcDbLine
 10
327.5408049999999
 20
154.286874
 30
0.0
 11
327.5408049999999
 21
136.286774
 31
0.0
  0
LINE
  5
9B56
330
9842
100
AcDbEntity
  8
1
  6
Continuous
100
AcDbLine
 10
324.5408049999999
 20
154.286874
 30
0.0
 11
324.5408049999999
 21
136.286774
 31
0.0
  0
LINE
  5
9B57
330
9842
100
AcDbEntity
  8
1
  6
Continuous
100
AcDbLine
 10
326.540805
 20
154.286874
 30
0.0
 11
326.540805
 21
136.286774
 31
0.0
  0
LINE
  5
9B58
330
9842
100
AcDbEntity
  8
1
  6
Continuous
100
AcDbLine
 10
324.5408049999999
 20
154.286874
 30
0.0
 11
327.5408049999999
 21
154.286874
 31
0.0
  0
LINE
  5
9B59
330
9842
100
AcDbEntity
  8
1
  6
Continuous
100
AcDbLine
 10
324.5408049999999
 20
136.286774
 30
0.0
 11
327.5408049999999
 21
136.286774
 31
0.0
  0
LINE
  5
9B5A
330
9842
100
AcDbEntity
  8
1
  6
Continuous
100
AcDbLine
 10
340.277805
 20
153.286874
 30
0.0
 11
340.277805
 21
137.2868839999999
 31
0.0
  0
CIRCLE
  5
9B5B
330
9842
100
AcDbEntity
  8
1
  6
Continuous
100
AcDbCircle
 10
403.169805
 20
145.286874
 30
0.0
 40
14.0
  0
LINE
  5
9B5C
330
9842
100
AcDbEntity
  8
1
  6
Continuous
100
AcDbLine
 10
102.072917
 20
239.3180819999999
 30
0.0
 11
103.6725169999999
 21
239.3180819999999
 31
0.0
  0
LINE
  5
9B5D
330
9842
100
AcDbEntity
  8
1
  6
Continuous
100
AcDbLine
 10
103.320717
 20
239.9906619999999
 30
0.0
 11
100.511217
 21
240.7444519999998
 31
0.0
  0
LINE
  5
9B5E
330
9842
100
AcDbEntity
  8
1
  6
Continuous
100
AcDbLine
 10
99.88191700000001
 20
238.3179819999998
 30
0.0
 11
104.0555169999999
 21
238.3179819999998
 31
0.0
  0
ARC
  5
9B5F
330
9842
100
AcDbEntity
  8
1
  6
Continuous
100
AcDbCircle
 10
102.072917
 20
239.9852319999999
 30
0.0
 40
1.718009999999997
100
AcDbArc
 50
35.54699999999999
 51
144.462
  0
LINE
  5
9B60
330
9842
100
AcDbEntity
  8
1
  6
Continuous
100
AcDbLine
 10
103.955317
 20
237.652152
 30
0.0
 11
102.072917
 21
237.652152
 31
0.0
  0
LINE
  5
9B61
330
9842
100
AcDbEntity
  8
1
  6
Continuous
100
AcDbLine
 10
99.87921700000001
 20
236.9849569999999
 30
0.0
 11
104.268017
 21
236.9849569999999
 31
0.0
  0
LINE
  5
9B62
330
9842
100
AcDbEntity
  8
1
  6
Continuous
100
AcDbLine
 10
99.747917
 20
236.3191679999999
 30
0.0
 11
104.3992169999999
 21
236.3191679999999
 31
0.0
  0
ARC
  5
9B63
330
9842
100
AcDbEntity
  8
1
  6
Continuous
100
AcDbCircle
 10
101.4066169999999
 20
245.984891
 30
0.0
 40
2.0
100
AcDbArc
 50
53.13009999999999
 51
90.0
  0
LINE
  5
9B64
330
9842
100
AcDbEntity
  8
1
  6
Continuous
100
AcDbLine
 10
112.073617
 20
239.2348909999999
 30
0.0
 11
102.0066169999999
 21
246.7848909999999
 31
0.0
  0
LINE
  5
9B65
330
9842
100
AcDbEntity
  8
1
  6
Continuous
100
AcDbLine
 10
102.072917
 20
241.7025919999999
 30
0.0
 11
102.072917
 21
240.3249219999999
 31
0.0
  0
ARC
  5
9B66
330
9842
100
AcDbEntity
  8
1
  6
Continuous
100
AcDbCircle
 10
101.7400169999999
 20
239.3180819999999
 30
0.0
 40
0.333453
100
AcDbArc
 50
270.0
 51
90.0
  0
LINE
  5
9B67
330
9842
100
AcDbEntity
  8
1
  6
Continuous
100
AcDbLine
 10
100.1959169999999
 20
238.985172
 30
0.0
 11
101.7400169999999
 21
238.985172
 31
0.0
  0
LINE
  5
9B68
330
9842
100
AcDbEntity
  8
1
  6
Continuous
100
AcDbLine
 10
101.7400169999999
 20
239.6509619999999
 30
0.0
 11
100.316317
 21
239.6509619999999
 31
0.0
  0
ARC
  5
9B69
330
9842
100
AcDbEntity
  8
1
  6
Continuous
100
AcDbCircle
 10
99.87921700000001
 20
237.051282
 30
0.0
 40
0.066718
100
AcDbArc
 50
172.2069999999999
 51
270.0
  0
ARC
  5
9B6A
330
9842
100
AcDbEntity
  8
1
  6
Continuous
100
AcDbCircle
 10
107.6729169999999
 20
235.984891
 30
0.0
 40
7.932639999999997
100
AcDbArc
 50
169.896
 51
172.2069999999999
  0
LINE
  5
9B6B
330
9842
100
AcDbEntity
  8
1
  6
Continuous
100
AcDbLine
 10
101.2731169999999
 20
237.652152
 30
0.0
 11
100.1918169999999
 21
237.652152
 31
0.0
  0
ARC
  5
9B6C
330
9842
100
AcDbEntity
  8
1
  6
Continuous
100
AcDbCircle
 10
100.1918169999999
 20
237.3178719999999
 30
0.0
 40
0.333453
100
AcDbArc
 50
90.0
 51
169.896
  0
LINE
  5
9B6D
330
9842
100
AcDbEntity
  8
1
  6
Continuous
100
AcDbLine
 10
102.072917
 20
237.652152
 30
0.0
 11
102.072917
 21
237.3178719999999
 31
0.0
  0
ARC
  5
9B6E
330
9842
100
AcDbEntity
  8
1
  6
Continuous
100
AcDbCircle
 10
93.07361699999999
 20
239.879116
 30
0.0
 40
1.0
100
AcDbArc
 50
146.3099319999998
 51
180.0
  0
ARC
  5
9B6F
330
9842
100
AcDbEntity
  8
1
  6
Continuous
100
AcDbCircle
 10
93.07361699999999
 20
239.8793399999999
 30
0.0
 40
2.0
100
AcDbArc
 50
146.3099319999998
 51
180.0
  0
ARC
  5
9B70
330
9842
100
AcDbEntity
  8
1
  6
Continuous
100
AcDbCircle
 10
94.57361699999998
 20
239.4848909999998
 30
0.0
 40
0.5
100
AcDbArc
 50
90.0
 51
180.0
  0
ARC
  5
9B71
330
9842
100
AcDbEntity
  8
1
  6
Continuous
100
AcDbCircle
 10
97.14361700000001
 20
245.984891
 30
0.0
 40
1.0
100
AcDbArc
 50
90.0
 51
146.31
  0
ARC
  5
9B72
330
9842
100
AcDbEntity
  8
1
  6
Continuous
100
AcDbCircle
 10
101.4066169999999
 20
245.984891
 30
0.0
 40
1.0
100
AcDbArc
 50
53.13009999999999
 51
90.0
  0
ARC
  5
9B73
330
9842
100
AcDbEntity
  8
1
  6
Continuous
100
AcDbCircle
 10
97.14361700000001
 20
245.984891
 30
0.0
 40
2.0
100
AcDbArc
 50
90.0
 51
146.31
  0
ARC
  5
9B74
330
9842
100
AcDbEntity
  8
1
  6
Continuous
100
AcDbCircle
 10
96.07361700000002
 20
239.4848909999998
 30
0.0
 40
0.5
100
AcDbArc
 50
0.0
 51
90.0
  0
LINE
  5
9B75
330
9842
100
AcDbEntity
  8
1
  6
Continuous
100
AcDbLine
 10
96.31161699999999
 20
246.538891
 30
0.0
 11
92.241566
 21
240.433816
 31
0.0
  0
LINE
  5
9B76
330
9842
100
AcDbEntity
  8
1
  6
Continuous
100
AcDbLine
 10
101.4066169999999
 20
246.984891
 30
0.0
 11
97.14361700000001
 21
246.984891
 31
0.0
  0
LINE
  5
9B77
330
9842
100
AcDbEntity
  8
1
  6
Continuous
100
AcDbLine
 10
91.40951599999999
 20
240.988741
 30
0.0
 11
95.479617
 21
247.093891
 31
0.0
  0
LINE
  5
9B78
330
9842
100
AcDbEntity
  8
1
  6
Continuous
100
AcDbLine
 10
97.14361700000001
 20
247.984891
 30
0.0
 11
101.4066169999999
 21
247.984891
 31
0.0
  0
LINE
  5
9B79
330
9842
100
AcDbEntity
  8
1
  6
Continuous
100
AcDbLine
 10
94.57361699999998
 20
239.984891
 30
0.0
 11
96.07361700000002
 21
239.984891
 31
0.0
  0
LINE
  5
9B7A
330
9842
100
AcDbEntity
  8
1
  6
Continuous
100
AcDbLine
 10
119.073617
 20
239.084891
 30
0.0
 11
135.5736169999999
 21
239.084891
 31
0.0
  0
LINE
  5
9B7B
330
9842
100
AcDbEntity
  8
1
  6
Continuous
100
AcDbLine
 10
115.5736169999999
 20
236.884891
 30
0.0
 11
137.9094059999999
 21
236.8930799999999
 31
0.0
  0
LINE
  5
9B7C
330
9842
100
AcDbEntity
  8
1
  6
Continuous
100
AcDbLine
 10
115.5736169999999
 20
239.3848909999999
 30
0.0
 11
119.073617
 21
239.3848909999999
 31
0.0
  0
LINE
  5
9B7D
330
9842
100
AcDbEntity
  8
1
  6
Continuous
100
AcDbLine
 10
112.073617
 20
240.484891
 30
0.0
 11
119.073617
 21
240.484891
 31
0.0
  0
ARC
  5
9B7E
330
9842
100
AcDbEntity
  8
1
  6
Continuous
100
AcDbCircle
 10
103.955317
 20
237.3178719999999
 30
0.0
 40
0.333453
100
AcDbArc
 50
10.10399999999999
 51
90.0
  0
ARC
  5
9B7F
330
9842
100
AcDbEntity
  8
1
  6
Continuous
100
AcDbCircle
 10
104.268017
 20
237.051282
 30
0.0
 40
0.066718
100
AcDbArc
 50
270.0
 51
7.792999999999999
  0
ARC
  5
9B80
330
9842
100
AcDbEntity
  8
1
  6
Continuous
100
AcDbCircle
 10
96.47431700000002
 20
235.984891
 30
0.0
 40
7.932639999999997
100
AcDbArc
 50
7.792999999999999
 51
10.10399999999999
  0
LINE
  5
9B81
330
9842
100
AcDbEntity
  8
1
  6
Continuous
100
AcDbLine
 10
115.5736169999999
 20
239.3848909999999
 30
0.0
 11
115.5736169999999
 21
236.884891
 31
0.0
  0
LINE
  5
9B82
330
9842
100
AcDbEntity
  8
1
  6
Continuous
100
AcDbLine
 10
102.6066169999999
 20
247.584891
 30
0.0
 11
112.073617
 21
240.484891
 31
0.0
  0
LINE
  5
9B83
330
9842
100
AcDbEntity
  8
1
  6
Continuous
100
AcDbLine
 10
119.073617
 20
240.484891
 30
0.0
 11
119.073617
 21
239.084891
 31
0.0
  0
LINE
  5
9B84
330
9842
100
AcDbEntity
  8
1
  6
Continuous
100
AcDbLine
 10
115.5736169999999
 20
234.7848909999999
 30
0.0
 11
138.4796169999999
 21
234.7848909999999
 31
0.0
  0
LINE
  5
9B85
330
9842
100
AcDbEntity
  8
1
  6
Continuous
100
AcDbLine
 10
115.5736169999999
 20
233.584891
 30
0.0
 11
137.2756169999999
 21
233.584891
 31
0.0
  0
LINE
  5
9B86
330
9842
100
AcDbEntity
  8
1
  6
Continuous
100
AcDbLine
 10
119.073617
 20
232.884891
 30
0.0
 11
136.5736169999999
 21
232.884891
 31
0.0
  0
LINE
  5
9B87
330
9842
100
AcDbEntity
  8
1
  6
Continuous
100
AcDbLine
 10
135.5736169999999
 20
239.084891
 30
0.0
 11
138.9156169999999
 21
235.948891
 31
0.0
  0
ARC
  5
9B88
330
9842
100
AcDbEntity
  8
1
  6
Continuous
100
AcDbCircle
 10
138.5736169999999
 20
235.584891
 30
0.0
 40
0.5
100
AcDbArc
 50
314.9129999999999
 51
46.82809999999999
  0
LINE
  5
9B89
330
9842
100
AcDbEntity
  8
1
  6
Continuous
100
AcDbLine
 10
136.5736169999999
 20
232.884891
 30
0.0
 11
138.9266169999999
 21
235.230891
 31
0.0
  0
LINE
  5
9B8A
330
9842
100
AcDbEntity
  8
1
  6
Continuous
100
AcDbLine
 10
112.073617
 20
231.484891
 30
0.0
 11
119.073617
 21
231.484891
 31
0.0
  0
LINE
  5
9B8B
330
9842
100
AcDbEntity
  8
1
  6
Continuous
100
AcDbLine
 10
115.5736169999999
 20
234.7848909999999
 30
0.0
 11
115.5736169999999
 21
233.584891
 31
0.0
  0
LINE
  5
9B8C
330
9842
100
AcDbEntity
  8
1
  6
Continuous
100
AcDbLine
 10
119.073617
 20
232.884891
 30
0.0
 11
119.073617
 21
231.484891
 31
0.0
  0
LINE
  5
9B8D
330
9842
100
AcDbEntity
  8
1
  6
Continuous
100
AcDbLine
 10
112.073617
 20
239.2348909999999
 30
0.0
 11
112.073617
 21
232.7348909999999
 31
0.0
  0
LINE
  5
9B8E
330
9842
100
AcDbEntity
  8
1
  6
Continuous
100
AcDbLine
 10
100.244617
 20
231.6516319999998
 30
0.0
 11
103.1190169999999
 21
231.6516319999998
 31
0.0
  0
ARC
  5
9B8F
330
9842
100
AcDbEntity
  8
1
  6
Continuous
100
AcDbCircle
 10
102.072917
 20
231.9858919999998
 30
0.0
 40
1.717879999999999
100
AcDbArc
 50
215.5309999999999
 51
324.4619999999998
  0
ARC
  5
9B90
330
9842
100
AcDbEntity
  8
1
  6
Continuous
100
AcDbCircle
 10
101.4066169999999
 20
225.984891
 30
0.0
 40
2.0
100
AcDbArc
 50
270.0
 51
306.87
  0
LINE
  5
9B91
330
9842
100
AcDbEntity
  8
1
  6
Continuous
100
AcDbLine
 10
102.0066169999999
 20
225.184891
 30
0.0
 11
112.073617
 21
232.7348909999999
 31
0.0
  0
ARC
  5
9B92
330
9842
100
AcDbEntity
  8
1
  6
Continuous
100
AcDbCircle
 10
107.6729169999999
 20
235.984891
 30
0.0
 40
8.599269999999998
100
AcDbArc
 50
144.462
 51
215.5379999999999
  0
ARC
  5
9B93
330
9842
100
AcDbEntity
  8
1
  6
Continuous
100
AcDbCircle
 10
101.4066169999999
 20
225.984891
 30
0.0
 40
1.0
100
AcDbArc
 50
270.0
 51
306.87
  0
ARC
  5
9B94
330
9842
100
AcDbEntity
  8
1
  6
Continuous
100
AcDbCircle
 10
97.14361700000001
 20
225.984891
 30
0.0
 40
1.0
100
AcDbArc
 50
213.69
 51
270.0
  0
ARC
  5
9B95
330
9842
100
AcDbEntity
  8
1
  6
Continuous
100
AcDbCircle
 10
93.07361699999999
 20
232.0898909999999
 30
0.0
 40
1.0
100
AcDbArc
 50
180.0
 51
213.69
  0
ARC
  5
9B96
330
9842
100
AcDbEntity
  8
1
  6
Continuous
100
AcDbCircle
 10
97.14361700000001
 20
225.984891
 30
0.0
 40
2.0
100
AcDbArc
 50
213.69
 51
270.0
  0
ARC
  5
9B97
330
9842
100
AcDbEntity
  8
1
  6
Continuous
100
AcDbCircle
 10
93.07361699999999
 20
232.0898909999999
 30
0.0
 40
2.0
100
AcDbArc
 50
180.0
 51
213.69
  0
ARC
  5
9B98
330
9842
100
AcDbEntity
  8
1
  6
Continuous
100
AcDbCircle
 10
96.07361700000002
 20
232.484891
 30
0.0
 40
0.5
100
AcDbArc
 50
270.0
 51
0.0
  0
ARC
  5
9B99
330
9842
100
AcDbEntity
  8
1
  6
Continuous
100
AcDbCircle
 10
94.57361699999998
 20
232.484891
 30
0.0
 40
0.5
100
AcDbArc
 50
180.0
 51
270.0
  0
LINE
  5
9B9A
330
9842
100
AcDbEntity
  8
1
  6
Continuous
100
AcDbLine
 10
97.14361700000001
 20
224.984891
 30
0.0
 11
101.4066169999999
 21
224.984891
 31
0.0
  0
LINE
  5
9B9B
330
9842
100
AcDbEntity
  8
1
  6
Continuous
100
AcDbLine
 10
92.24161700000001
 20
231.535891
 30
0.0
 11
96.31161699999999
 21
225.429891
 31
0.0
  0
LINE
  5
9B9C
330
9842
100
AcDbEntity
  8
1
  6
Continuous
100
AcDbLine
 10
91.409617
 20
230.980891
 30
0.0
 11
95.479617
 21
224.8748909999999
 31
0.0
  0
LINE
  5
9B9D
330
9842
100
AcDbEntity
  8
1
  6
Continuous
100
AcDbLine
 10
97.14361700000001
 20
223.984891
 30
0.0
 11
101.4066169999999
 21
223.984891
 31
0.0
  0
LINE
  5
9B9E
330
9842
100
AcDbEntity
  8
1
  6
Continuous
100
AcDbLine
 10
94.57361699999998
 20
231.984891
 30
0.0
 11
96.07361700000002
 21
231.984891
 31
0.0
  0
ARC
  5
9B9F
330
9842
100
AcDbEntity
  8
1
  6
Continuous
100
AcDbCircle
 10
96.47431700000002
 20
235.984891
 30
0.0
 40
8.599269999999998
100
AcDbArc
 50
324.4619999999998
 51
35.53799999999999
  0
LINE
  5
9BA0
330
9842
100
AcDbEntity
  8
1
  6
Continuous
100
AcDbLine
 10
102.6066169999999
 20
224.384891
 30
0.0
 11
112.073617
 21
231.484891
 31
0.0
  0
LINE
  5
9BA1
330
9842
100
AcDbEntity
  8
1
  6
Continuous
100
AcDbLine
 10
103.303117
 20
232.3188019999999
 30
0.0
 11
100.8441169999997
 21
232.3188019999999
 31
0.0
  0
LINE
  5
9BA2
330
9842
100
AcDbEntity
  8
1
  6
Continuous
100
AcDbLine
 10
100.428617
 20
232.985972
 30
0.0
 11
103.717217
 21
232.985972
 31
0.0
  0
LINE
  5
9BA3
330
9842
100
AcDbEntity
  8
1
  6
Continuous
100
AcDbLine
 10
100.342017
 20
233.651802
 30
0.0
 11
103.805117
 21
233.651802
 31
0.0
  0
LINE
  5
9BA4
330
9842
100
AcDbEntity
  8
1
  6
Continuous
100
AcDbLine
 10
99.80341700000003
 20
234.9847819999999
 30
0.0
 11
104.343717
 21
234.9847819999999
 31
0.0
  0
LINE
  5
9BA5
330
9842
100
AcDbEntity
  8
1
  6
Continuous
100
AcDbLine
 10
99.747917
 20
235.6519759999999
 30
0.0
 11
104.3992169999999
 21
235.6519759999999
 31
0.0
  0
LINE
  5
9BA6
330
9842
100
AcDbEntity
  8
1
  6
Continuous
100
AcDbLine
 10
102.072917
 20
235.6519759999999
 30
0.0
 11
102.072917
 21
234.9847819999999
 31
0.0
  0
ARC
  5
9BA7
330
9842
100
AcDbEntity
  8
1
  6
Continuous
100
AcDbCircle
 10
107.6729169999999
 20
235.984891
 30
0.0
 40
7.932639999999997
100
AcDbArc
 50
192.729
 51
193.2679999999999
  0
ARC
  5
9BA8
330
9842
100
AcDbEntity
  8
1
  6
Continuous
100
AcDbCircle
 10
100.001017
 20
234.251302
 30
0.0
 40
0.066718
100
AcDbArc
 50
90.0
 51
192.729
  0
ARC
  5
9BA9
330
9842
100
AcDbEntity
  8
1
  6
Continuous
100
AcDbCircle
 10
107.6729169999999
 20
235.984891
 30
0.0
 40
7.932639999999997
100
AcDbArc
 50
193.2679999999999
 51
195.258
  0
ARC
  5
9BAA
330
9842
100
AcDbEntity
  8
1
  6
Continuous
100
AcDbCircle
 10
100.428617
 20
232.9183219999999
 30
0.0
 40
0.066718
100
AcDbArc
 50
90.0
 51
202.944
  0
LINE
  5
9BAB
330
9842
100
AcDbEntity
  8
1
  6
Continuous
100
AcDbLine
 10
101.2731169999999
 20
234.3189919999999
 30
0.0
 11
100.001017
 21
234.3189919999999
 31
0.0
  0
ARC
  5
9BAC
330
9842
100
AcDbEntity
  8
1
  6
Continuous
100
AcDbCircle
 10
100.342017
 20
233.9860819999999
 30
0.0
 40
0.333453
100
AcDbArc
 50
195.258
 51
270.0
  0
ARC
  5
9BAD
330
9842
100
AcDbEntity
  8
1
  6
Continuous
100
AcDbCircle
 10
100.8441169999997
 20
232.6516919999999
 30
0.0
 40
0.333453
100
AcDbArc
 50
206.014
 51
270.0
  0
ARC
  5
9BAE
330
9842
100
AcDbEntity
  8
1
  6
Continuous
100
AcDbCircle
 10
107.6729169999999
 20
235.984891
 30
0.0
 40
7.932639999999997
100
AcDbArc
 50
202.944
 51
206.014
  0
ARC
  5
9BAF
330
9842
100
AcDbEntity
  8
1
  6
Continuous
100
AcDbCircle
 10
104.1462169999999
 20
234.251302
 30
0.0
 40
0.066718
100
AcDbArc
 50
347.2709999999998
 51
90.0
  0
ARC
  5
9BB0
330
9842
100
AcDbEntity
  8
1
  6
Continuous
100
AcDbCircle
 10
96.47431700000002
 20
235.984891
 30
0.0
 40
7.932639999999997
100
AcDbArc
 50
344.7419999999998
 51
344.794
  0
ARC
  5
9BB1
330
9842
100
AcDbEntity
  8
1
  6
Continuous
100
AcDbCircle
 10
103.805117
 20
233.9860819999999
 30
0.0
 40
0.333453
100
AcDbArc
 50
270.0
 51
344.7419999999998
  0
ARC
  5
9BB2
330
9842
100
AcDbEntity
  8
1
  6
Continuous
100
AcDbCircle
 10
96.47431700000002
 20
235.984891
 30
0.0
 40
7.932639999999997
100
AcDbArc
 50
344.794
 51
347.2709999999998
  0
ARC
  5
9BB3
330
9842
100
AcDbEntity
  8
1
  6
Continuous
100
AcDbCircle
 10
103.717217
 20
232.9183219999999
 30
0.0
 40
0.066718
100
AcDbArc
 50
337.0559999999999
 51
90.0
  0
LINE
  5
9BB4
330
9842
100
AcDbEntity
  8
1
  6
Continuous
100
AcDbLine
 10
104.1462169999999
 20
234.3189919999999
 30
0.0
 11
102.872717
 21
234.3189919999999
 31
0.0
  0
ARC
  5
9BB5
330
9842
100
AcDbEntity
  8
1
  6
Continuous
100
AcDbCircle
 10
103.303117
 20
232.6516919999999
 30
0.0
 40
0.333453
100
AcDbArc
 50
270.0
 51
333.9859999999998
  0
ARC
  5
9BB6
330
9842
100
AcDbEntity
  8
1
  6
Continuous
100
AcDbCircle
 10
96.47431700000002
 20
235.984891
 30
0.0
 40
7.932639999999997
100
AcDbArc
 50
333.9859999999998
 51
334.7719999999999
  0
ARC
  5
9BB7
330
9842
100
AcDbEntity
  8
1
  6
Continuous
100
AcDbCircle
 10
96.47431700000002
 20
235.984891
 30
0.0
 40
7.932639999999997
100
AcDbArc
 50
333.9859999999998
 51
337.0559999999999
  0
LINE
  5
9BB8
330
9842
100
AcDbEntity
  8
1
  6
Continuous
100
AcDbLine
 10
92.07361699999998
 20
239.879116
 30
0.0
 11
92.07361699999998
 21
232.0898909999999
 31
0.0
  0
LINE
  5
9BB9
330
9842
100
AcDbEntity
  8
1
  6
Continuous
100
AcDbLine
 10
96.57361700000002
 20
239.4848909999998
 30
0.0
 11
96.57361700000002
 21
232.484891
 31
0.0
  0
LINE
  5
9BBA
330
9842
100
AcDbEntity
  8
1
  6
Continuous
100
AcDbLine
 10
94.073617
 20
239.4848909999998
 30
0.0
 11
94.073617
 21
232.484891
 31
0.0
  0
LINE
  5
9BBB
330
9842
100
AcDbEntity
  8
1
  6
Continuous
100
AcDbLine
 10
91.07361700000002
 20
239.8793399999999
 30
0.0
 11
91.07361700000002
 21
232.0898909999999
 31
0.0
  0
LINE
  5
9BBC
330
9842
100
AcDbEntity
  8
4
  6
CENTER
100
AcDbLine
 10
87.05855600000004
 20
235.984616
 30
0.0
 11
142.7838949999998
 21
235.984616
 31
0.0
  0
ENDSEC
  0
SECTION
  2
OBJECTS
  0
DICTIONARY
  5
9830
330
0
100
AcDbDictionary
281
     1
  3
ACAD_CIP_PREVIOUS_PRODUCT_INFO
350
9C22
  3
ACAD_COLOR
350
9C04
  3
ACAD_DETAILVIEWSTYLE
350
9C1D
  3
ACAD_GROUP
350
9831
  3
ACAD_LAYOUT
350
983D
  3
ACAD_MATERIAL
350
9BD2
  3
ACAD_MLEADERSTYLE
350
9C19
  3
ACAD_MLINESTYLE
350
983A
  3
ACAD_PLOTSETTINGS
350
983C
  3
ACAD_PLOTSTYLENAME
350
9BD0
  3
ACAD_SCALELIST
350
9C07
  3
ACAD_SECTIONVIEWSTYLE
350
9C1B
  3
ACAD_TABLESTYLE
350
9C05
  3
ACAD_VISUALSTYLE
350
9BEB
  3
ACDB_RECOMPOSE_DATA
350
9C40
  3
AcDbVariableDictionary
350
9C33
  3
DWGPROPS
350
9C41
  0
DICTIONARY
  5
9C23
330
9834
100
AcDbDictionary
280
     1
281
     1
  3
ADSK_XREC_LAYER_RECONCILED
360
9C24
  0
DICTIONARY
  5
9C25
330
984A
100
AcDbDictionary
280
     1
281
     1
  3
ADSK_XREC_LAYER_RECONCILED
360
9C26
  0
DICTIONARY
  5
9C27
330
984B
100
AcDbDictionary
280
     1
281
     1
  3
ADSK_XREC_LAYER_RECONCILED
360
9C28
  0
DICTIONARY
  5
9C29
330
984C
100
AcDbDictionary
280
     1
281
     1
  3
ADSK_XREC_LAYER_RECONCILED
360
9C2A
  0
DICTIONARY
  5
9C2B
330
984D
100
AcDbDictionary
280
     1
281
     1
  3
ADSK_XREC_LAYER_RECONCILED
360
9C2C
  0
DICTIONARY
  5
9C2D
330
984E
100
AcDbDictionary
280
     1
281
     1
  3
ADSK_XREC_LAYER_RECONCILED
360
9C2E
  0
DICTIONARY
  5
9C2F
330
984F
100
AcDbDictionary
280
     1
281
     1
  3
ADSK_XREC_LAYER_RECONCILED
360
9C30
  0
DICTIONARY
  5
9C31
330
9850
100
AcDbDictionary
280
     1
281
     1
  3
ADSK_XREC_LAYER_RECONCILED
360
9C32
  0
DICTIONARY
  5
9BCB
330
9842
100
AcDbDictionary
281
     1
  3
ACAD_LAYOUTSELFREF
350
9BCC
  0
DICTIONARY
  5
9BC9
330
983E
100
AcDbDictionary
281
     1
  3
ACAD_LAYOUTSELFREF
350
9BCA
  0
XRECORD
  5
9C22
102
{ACAD_REACTORS
330
9830
102
}
330
9830
100
AcDbXrecord
280
     1
300
ACDLT
300
2014
300
ACDLT_F_S
  0
DICTIONARY
  5
9C04
102
{ACAD_REACTORS
330
9830
102
}
330
9830
100
AcDbDictionary
281
     1
  0
DICTIONARY
  5
9C1D
102
{ACAD_REACTORS
330
9830
102
}
330
9830
100
AcDbDictionary
281
     1
  3
Imperial24
350
9C1E
  0
DICTIONARY
  5
9831
102
{ACAD_REACTORS
330
9830
102
}
330
9830
100
AcDbDictionary
281
     1
  0
DICTIONARY
  5
983D
102
{ACAD_REACTORS
330
9830
102
}
330
9830
100
AcDbDictionary
281
     1
  3
Model
350
9C1F
  3
レイアウト1
350
9C20
  0
DICTIONARY
  5
9BD2
102
{ACAD_REACTORS
330
9830
102
}
330
9830
100
AcDbDictionary
281
     1
  3
ByBlock
350
9BDB
  3
ByLayer
350
9BD3
  3
Global
350
9BE3
  0
DICTIONARY
  5
9C19
102
{ACAD_REACTORS
330
9830
102
}
330
9830
100
AcDbDictionary
281
     1
  3
Standard
350
9C1A
  0
DICTIONARY
  5
983A
102
{ACAD_REACTORS
330
9830
102
}
330
9830
100
AcDbDictionary
281
     1
  3
STANDARD
350
983B
  0
DICTIONARY
  5
983C
102
{ACAD_REACTORS
330
9830
102
}
330
9830
100
AcDbDictionary
281
     1
  0
ACDBDICTIONARYWDFLT
  5
9BD0
102
{ACAD_REACTORS
330
9830
102
}
330
9830
100
AcDbDictionary
281
     1
  3
Normal
350
9BD1
100
AcDbDictionaryWithDefault
340
9BD1
  0
DICTIONARY
  5
9C07
102
{ACAD_REACTORS
330
9830
102
}
330
9830
100
AcDbDictionary
281
     1
  3
A0
350
9C08
  3
A1
350
9C09
  3
A2
350
9C0A
  3
A3
350
9C0B
  3
A4
350
9C0C
  3
A5
350
9C0D
  3
A6
350
9C0E
  3
A7
350
9C0F
  3
A8
350
9C10
  3
A9
350
9C11
  3
B0
350
9C12
  3
B1
350
9C13
  3
B2
350
9C14
  3
B3
350
9C15
  3
B4
350
9C16
  3
B5
350
9C17
  3
B6
350
9C18
  0
DICTIONARY
  5
9C1B
102
{ACAD_REACTORS
330
9830
102
}
330
9830
100
AcDbDictionary
281
     1
  3
Imperial24
350
9C1C
  0
DICTIONARY
  5
9C05
102
{ACAD_REACTORS
330
9830
102
}
330
9830
100
AcDbDictionary
281
     1
  3
Standard
350
9C06
  0
DICTIONARY
  5
9BEB
102
{ACAD_REACTORS
330
9830
102
}
330
9830
100
AcDbDictionary
281
     1
  3
2dWireframe
350
9BF1
  3
Basic
350
9BF0
  3
Brighten
350
9BF7
  3
ColorChange
350
9BFB
  3
Conceptual
350
9BF4
  3
Dim
350
9BF6
  3
EdgeColorOff
350
9C03
  3
Facepattern
350
9BFA
  3
Flat
350
9BEC
  3
FlatWithEdges
350
9BED
  3
Gouraud
350
9BEE
  3
GouraudWithEdges
350
9BEF
  3
Hidden
350
9BF3
  3
JitterOff
350
9C01
  3
Linepattern
350
9BF9
  3
OverhangOff
350
9C02
  3
Realistic
350
9BF5
  3
Shaded
350
9C00
  3
Shaded with edges
350
9BFF
  3
Shades of Gray
350
9BFC
  3
Sketchy
350
9BFD
  3
Thicken
350
9BF8
  3
Wireframe
350
9BF2
  3
X-Ray
350
9BFE
  0
XRECORD
  5
9C40
102
{ACAD_REACTORS
330
9830
102
}
330
9830
100
AcDbXrecord
280
     1
 90
        1
330
9C06
  0
DICTIONARY
  5
9C33
102
{ACAD_REACTORS
330
9830
102
}
330
9830
100
AcDbDictionary
281
     1
  3
CANNOSCALE
350
9C38
  3
CMLEADERSTYLE
350
9C35
  3
CTABLESTYLE
350
9C34
  3
CVIEWDETAILSTYLE
350
9C36
  3
CVIEWSECTIONSTYLE
350
9C37
  3
DIMASSOC
350
9C3B
  3
INDEXCTL
350
9C3A
  3
SORTENTS
350
9C39
  3
XCLIPFRAME
350
9C3C
  0
XRECORD
  5
9C41
102
{ACAD_REACTORS
330
9830
102
}
330
9830
100
AcDbXrecord
280
     1
  1
DWGPROPS COOKIE
  2

  3

  4

  6

  7

  8
Yoshitsune
  9

300
=
301
=
302
=
303
=
304
=
305
=
306
=
307
=
308
=
309
=
 40
0.0000163888888889
 41
2450737.499444908
 42
2457192.640477986
  1

 90
        0
  0
XRECORD
  5
9C24
102
{ACAD_REACTORS
330
9C23
102
}
330
9C23
100
AcDbXrecord
280
     1
290
     1
  0
XRECORD
  5
9C26
102
{ACAD_REACTORS
330
9C25
102
}
330
9C25
100
AcDbXrecord
280
     1
290
     1
  0
XRECORD
  5
9C28
102
{ACAD_REACTORS
330
9C27
102
}
330
9C27
100
AcDbXrecord
280
     1
290
     1
  0
XRECORD
  5
9C2A
102
{ACAD_REACTORS
330
9C29
102
}
330
9C29
100
AcDbXrecord
280
     1
290
     1
  0
XRECORD
  5
9C2C
102
{ACAD_REACTORS
330
9C2B
102
}
330
9C2B
100
AcDbXrecord
280
     1
290
     1
  0
XRECORD
  5
9C2E
102
{ACAD_REACTORS
330
9C2D
102
}
330
9C2D
100
AcDbXrecord
280
     1
290
     1
  0
XRECORD
  5
9C30
102
{ACAD_REACTORS
330
9C2F
102
}
330
9C2F
100
AcDbXrecord
280
     1
290
     1
  0
XRECORD
  5
9C32
102
{ACAD_REACTORS
330
9C31
102
}
330
9C31
100
AcDbXrecord
280
     1
290
     1
  0
XRECORD
  5
9BCC
102
{ACAD_REACTORS
330
9BCB
102
}
330
9BCB
100
AcDbXrecord
280
     1
340
9842
  0
XRECORD
  5
9BCA
102
{ACAD_REACTORS
330
9BC9
102
}
330
9BC9
100
AcDbXrecord
280
     1
340
983E
  0
ACDBDETAILVIEWSTYLE
  5
9C1E
102
{ACAD_XDICTIONARY
360
9C79
102
}
102
{ACAD_REACTORS
330
9C1D
102
}
330
9C1D
100
AcDbModelDocViewStyle
 70
     0
  3
Imperial24
290
     0
100
AcDbDetailViewStyle
 70
     0
 71
     0
 90
        3
 71
     1
340
9835
 40
0.24
340
0
 40
0.24
300

 40
0.36
280
     3
 71
     2
340
9839
 90
       25
 71
     3
340
9835
 40
0.24
 90
        1
 40
0.75
 90
        1
300
%<\AcVar ViewType \f "%tc1">% %<\AcVar ViewDetailId>%\PSCALE %<\AcVar ViewScale \f "%sn">%
 71
     4
340
9839
 90
       25
340
9839
 90
       25
280
     0
  0
LAYOUT
  5
9C1F
102
{ACAD_XDICTIONARY
360
9C7B
102
}
102
{ACAD_REACTORS
330
983D
102
}
330
983D
100
AcDbPlotSettings
  1

  2
Canon LBP9100C
  4

  6

 40
0.0
 41
0.0
 42
0.0
 43
0.0
 44
0.0
 45
0.0
 46
0.0
 47
0.0
 48
0.0
 49
0.0
140
0.0
141
0.0
142
1.0
143
1.0
 70
  1712
 72
     0
 73
     0
 74
     0
  7

 75
     0
147
1.0
148
0.0
149
0.0
100
AcDbLayout
  1
Model
 70
     1
 71
     0
 10
0.0
 20
0.0
 11
12.0
 21
9.0
 12
0.0
 22
0.0
 32
0.0
 14
0.0
 24
0.0
 34
0.0
 15
0.0
 25
0.0
 35
0.0
146
0.0
 13
0.0
 23
0.0
 33
0.0
 16
1.0
 26
0.0
 36
0.0
 17
0.0
 27
1.0
 37
0.0
 76
     0
330
9842
331
9BC8
  0
LAYOUT
  5
9C20
102
{ACAD_XDICTIONARY
360
9C7D
102
}
102
{ACAD_REACTORS
330
983D
102
}
330
983D
100
AcDbPlotSettings
  1

  2
Canon LBP9100C
  4

  6

 40
0.0
 41
0.0
 42
0.0
 43
0.0
 44
0.0
 45
0.0
 46
0.0
 47
0.0
 48
0.0
 49
0.0
140
0.0
141
0.0
142
1.0
143
1.0
 70
   688
 72
     0
 73
     0
 74
     5
  7

 75
    16
147
1.0
148
0.0
149
0.0
100
AcDbLayout
  1
レイアウト1
 70
     0
 71
     1
 10
0.0
 20
0.0
 11
420.0
 21
297.0
 12
0.0
 22
0.0
 32
0.0
 14
1.000000000000000E+20
 24
1.000000000000000E+20
 34
1.000000000000000E+20
 15
-1.000000000000000E+20
 25
-1.000000000000000E+20
 35
-1.000000000000000E+20
146
0.0
 13
0.0
 23
0.0
 33
0.0
 16
1.0
 26
0.0
 36
0.0
 17
0.0
 27
1.0
 37
0.0
 76
     0
330
983E
  0
MATERIAL
  5
9BDB
102
{ACAD_XDICTIONARY
360
9BDC
102
}
102
{ACAD_REACTORS
330
9BD2
102
}
330
9BD2
100
AcDbMaterial
  1
ByBlock
 72
     0
 43
0.0208333333333333
 43
0.0
 43
0.0
 43
0.0
 43
0.0
 43
0.0208333333333333
 43
0.0
 43
0.0
 43
0.0
 43
0.0
 43
1.0
 43
0.0
 43
0.0
 43
0.0
 43
0.0
 43
1.0
 77
     0
 47
0.0208333333333333
 47
0.0
 47
0.0
 47
0.0
 47
0.0
 47
0.0208333333333333
 47
0.0
 47
0.0
 47
0.0
 47
0.0
 47
1.0
 47
0.0
 47
0.0
 47
0.0
 47
0.0
 47
1.0
171
     0
 49
0.0208333333333333
 49
0.0
 49
0.0
 49
0.0
 49
0.0
 49
0.0208333333333333
 49
0.0
 49
0.0
 49
0.0
 49
0.0
 49
1.0
 49
0.0
 49
0.0
 49
0.0
 49
0.0
 49
1.0
175
     0
142
0.0208333333333333
142
0.0
142
0.0
142
0.0
142
0.0
142
0.0208333333333333
142
0.0
142
0.0
142
0.0
142
0.0
142
1.0
142
0.0
142
0.0
142
0.0
142
0.0
142
1.0
179
     0
144
0.0208333333333333
144
0.0
144
0.0
144
0.0
144
0.0
144
0.0208333333333333
144
0.0
144
0.0
144
0.0
144
0.0
144
1.0
144
0.0
144
0.0
144
0.0
144
0.0
144
1.0
147
0.0208333333333333
147
0.0
147
0.0
147
0.0
147
0.0
147
0.0208333333333333
147
0.0
147
0.0
147
0.0
147
0.0
147
1.0
147
0.0
147
0.0
147
0.0
147
0.0
147
1.0
  0
MATERIAL
  5
9BD3
102
{ACAD_XDICTIONARY
360
9BD4
102
}
102
{ACAD_REACTORS
330
9BD2
102
}
330
9BD2
100
AcDbMaterial
  1
ByLayer
 72
     0
 43
0.0208333333333333
 43
0.0
 43
0.0
 43
0.0
 43
0.0
 43
0.0208333333333333
 43
0.0
 43
0.0
 43
0.0
 43
0.0
 43
1.0
 43
0.0
 43
0.0
 43
0.0
 43
0.0
 43
1.0
 77
     0
 47
0.0208333333333333
 47
0.0
 47
0.0
 47
0.0
 47
0.0
 47
0.0208333333333333
 47
0.0
 47
0.0
 47
0.0
 47
0.0
 47
1.0
 47
0.0
 47
0.0
 47
0.0
 47
0.0
 47
1.0
171
     0
 49
0.0208333333333333
 49
0.0
 49
0.0
 49
0.0
 49
0.0
 49
0.0208333333333333
 49
0.0
 49
0.0
 49
0.0
 49
0.0
 49
1.0
 49
0.0
 49
0.0
 49
0.0
 49
0.0
 49
1.0
175
     0
142
0.0208333333333333
142
0.0
142
0.0
142
0.0
142
0.0
142
0.0208333333333333
142
0.0
142
0.0
142
0.0
142
0.0
142
1.0
142
0.0
142
0.0
142
0.0
142
0.0
142
1.0
179
     0
144
0.0208333333333333
144
0.0
144
0.0
144
0.0
144
0.0
144
0.0208333333333333
144
0.0
144
0.0
144
0.0
144
0.0
144
1.0
144
0.0
144
0.0
144
0.0
144
0.0
144
1.0
147
0.0208333333333333
147
0.0
147
0.0
147
0.0
147
0.0
147
0.0208333333333333
147
0.0
147
0.0
147
0.0
147
0.0
147
1.0
147
0.0
147
0.0
147
0.0
147
0.0
147
1.0
  0
MATERIAL
  5
9BE3
102
{ACAD_XDICTIONARY
360
9BE4
102
}
102
{ACAD_REACTORS
330
9BD2
102
}
330
9BD2
100
AcDbMaterial
  1
Global
 72
     0
 43
0.0208333333333333
 43
0.0
 43
0.0
 43
0.0
 43
0.0
 43
0.0208333333333333
 43
0.0
 43
0.0
 43
0.0
 43
0.0
 43
1.0
 43
0.0
 43
0.0
 43
0.0
 43
0.0
 43
1.0
 77
     0
 47
0.0208333333333333
 47
0.0
 47
0.0
 47
0.0
 47
0.0
 47
0.0208333333333333
 47
0.0
 47
0.0
 47
0.0
 47
0.0
 47
1.0
 47
0.0
 47
0.0
 47
0.0
 47
0.0
 47
1.0
171
     0
 49
0.0208333333333333
 49
0.0
 49
0.0
 49
0.0
 49
0.0
 49
0.0208333333333333
 49
0.0
 49
0.0
 49
0.0
 49
0.0
 49
1.0
 49
0.0
 49
0.0
 49
0.0
 49
0.0
 49
1.0
175
     0
142
0.0208333333333333
142
0.0
142
0.0
142
0.0
142
0.0
142
0.0208333333333333
142
0.0
142
0.0
142
0.0
142
0.0
142
1.0
142
0.0
142
0.0
142
0.0
142
0.0
142
1.0
179
     0
144
0.0208333333333333
144
0.0
144
0.0
144
0.0
144
0.0
144
0.0208333333333333
144
0.0
144
0.0
144
0.0
144
0.0
144
1.0
144
0.0
144
0.0
144
0.0
144
0.0
144
1.0
147
0.0208333333333333
147
0.0
147
0.0
147
0.0
147
0.0
147
0.0208333333333333
147
0.0
147
0.0
147
0.0
147
0.0
147
1.0
147
0.0
147
0.0
147
0.0
147
0.0
147
1.0
  0
MLEADERSTYLE
  5
9C1A
102
{ACAD_REACTORS
330
9C19
102
}
330
9C19
100
AcDbMLeaderStyle
170
     2
171
     1
172
     0
 90
        2
 40
0.0
 41
0.0
173
     1
 91
-1056964608
340
9837
 92
       -2
290
     1
 42
0.09
291
     1
 43
0.36
  3
Standard
 44
0.18
300

342
9835
174
     1
178
     6
175
     1
176
     0
 93
-1056964608
 45
0.18
292
     0
297
     0
 46
0.18
 94
-1056964608
 47
1.0
 49
1.0
140
1.0
293
     1
141
0.0
294
     1
177
     0
142
1.0
295
     0
296
     0
143
0.125
1001
ACAD_MLEADERVER
1070
     2
  0
MLINESTYLE
  5
983B
102
{ACAD_REACTORS
330
983A
102
}
330
983A
100
AcDbMlineStyle
  2
STANDARD
 70
     0
  3

 62
   256
 51
90.0
 52
90.0
 71
     2
 49
0.5
 62
   256
  6
BYLAYER
 49
-0.5
 62
   256
  6
BYLAYER
  0
ACDBPLACEHOLDER
  5
9BD1
102
{ACAD_REACTORS
330
9BD0
102
}
330
9BD0
  0
SCALE
  5
9C08
102
{ACAD_REACTORS
330
9C07
102
}
330
9C07
100
AcDbScale
 70
     0
300
1:1
140
1.0
141
1.0
290
     1
  0
SCALE
  5
9C09
102
{ACAD_REACTORS
330
9C07
102
}
330
9C07
100
AcDbScale
 70
     0
300
1/128" = 1'-0"
140
0.0078125
141
12.0
290
     0
  0
SCALE
  5
9C0A
102
{ACAD_REACTORS
330
9C07
102
}
330
9C07
100
AcDbScale
 70
     0
300
1/64" = 1'-0"
140
0.015625
141
12.0
290
     0
  0
SCALE
  5
9C0B
102
{ACAD_REACTORS
330
9C07
102
}
330
9C07
100
AcDbScale
 70
     0
300
1/32" = 1'-0"
140
0.03125
141
12.0
290
     0
  0
SCALE
  5
9C0C
102
{ACAD_REACTORS
330
9C07
102
}
330
9C07
100
AcDbScale
 70
     0
300
1/16" = 1'-0"
140
0.0625
141
12.0
290
     0
  0
SCALE
  5
9C0D
102
{ACAD_REACTORS
330
9C07
102
}
330
9C07
100
AcDbScale
 70
     0
300
3/32" = 1'-0"
140
0.09375
141
12.0
290
     0
  0
SCALE
  5
9C0E
102
{ACAD_REACTORS
330
9C07
102
}
330
9C07
100
AcDbScale
 70
     0
300
1/8" = 1'-0"
140
0.125
141
12.0
290
     0
  0
SCALE
  5
9C0F
102
{ACAD_REACTORS
330
9C07
102
}
330
9C07
100
AcDbScale
 70
     0
300
3/16" = 1'-0"
140
0.1875
141
12.0
290
     0
  0
SCALE
  5
9C10
102
{ACAD_REACTORS
330
9C07
102
}
330
9C07
100
AcDbScale
 70
     0
300
1/4" = 1'-0"
140
0.25
141
12.0
290
     0
  0
SCALE
  5
9C11
102
{ACAD_REACTORS
330
9C07
102
}
330
9C07
100
AcDbScale
 70
     0
300
3/8" = 1'-0"
140
0.375
141
12.0
290
     0
  0
SCALE
  5
9C12
102
{ACAD_REACTORS
330
9C07
102
}
330
9C07
100
AcDbScale
 70
     0
300
1/2" = 1'-0"
140
0.5
141
12.0
290
     0
  0
SCALE
  5
9C13
102
{ACAD_REACTORS
330
9C07
102
}
330
9C07
100
AcDbScale
 70
     0
300
3/4" = 1'-0"
140
0.75
141
12.0
290
     0
  0
SCALE
  5
9C14
102
{ACAD_REACTORS
330
9C07
102
}
330
9C07
100
AcDbScale
 70
     0
300
1" = 1'-0"
140
1.0
141
12.0
290
     0
  0
SCALE
  5
9C15
102
{ACAD_REACTORS
330
9C07
102
}
330
9C07
100
AcDbScale
 70
     0
300
1-1/2" = 1'-0"
140
1.5
141
12.0
290
     0
  0
SCALE
  5
9C16
102
{ACAD_REACTORS
330
9C07
102
}
330
9C07
100
AcDbScale
 70
     0
300
3" = 1'-0"
140
3.0
141
12.0
290
     0
  0
SCALE
  5
9C17
102
{ACAD_REACTORS
330
9C07
102
}
330
9C07
100
AcDbScale
 70
     0
300
6" = 1'-0"
140
6.0
141
12.0
290
     0
  0
SCALE
  5
9C18
102
{ACAD_REACTORS
330
9C07
102
}
330
9C07
100
AcDbScale
 70
     0
300
1'-0" = 1'-0"
140
12.0
141
12.0
290
     0
  0
ACDBSECTIONVIEWSTYLE
  5
9C1C
102
{ACAD_XDICTIONARY
360
9C77
102
}
102
{ACAD_REACTORS
330
9C1B
102
}
330
9C1B
100
AcDbModelDocViewStyle
 70
     0
  3
Imperial24
290
     0
100
AcDbSectionViewStyle
 70
     0
 71
     0
 90
       78
 71
     1
340
9835
 40
0.24
340
0
340
0
 40
0.24
300
I, O, Q, S, X, Z
 40
0.48
 90
        3
 40
0.18
 90
        1
 71
     2
340
9839
 90
       25
340
9839
 90
       50
 40
0.24
 40
0.0
 40
0.24
 71
     3
340
9835
 40
0.24
 90
        1
 40
0.75
 90
        1
300
%<\AcVar ViewType \f "%tc1">% %<\AcVar ViewSectionStartId>%-%<\AcVar ViewSectionEndId>%\PSCALE %<\AcVar ViewScale \f "%sn">%
 71
     4
300
ANSI31
 40
1.0
 90
        0
290
     0
290
     0
 90
        6
 40
0.0
 40
1.570796326794896
 40
0.2617993877991494
 40
1.308996938995747
 40
-0.2617993877991494
 40
1.832595714594046
  0
TABLESTYLE
  5
9C06
102
{ACAD_XDICTIONARY
360
9C3E
102
}
102
{ACAD_REACTORS
330
9C05
102
}
330
9C05
100
AcDbTableStyle
  3
Standard
 70
     0
 71
     0
 40
0.06
 41
0.06
280
     0
281
     0
  7
STANDARD
140
0.18
170
     2
 62
     0
 63
     7
283
     0
274
    -2
284
     1
 64
     0
275
    -2
285
     1
 65
     0
276
    -2
286
     1
 66
     0
277
    -2
287
     1
 67
     0
278
    -2
288
     1
 68
     0
279
    -2
289
     1
 69
     0
  7
STANDARD
140
0.25
170
     5
 62
     0
 63
     7
283
     0
274
    -2
284
     1
 64
     0
275
    -2
285
     1
 65
     0
276
    -2
286
     1
 66
     0
277
    -2
287
     1
 67
     0
278
    -2
288
     1
 68
     0
279
    -2
289
     1
 69
     0
  7
STANDARD
140
0.18
170
     5
 62
     0
 63
     7
283
     0
274
    -2
284
     1
 64
     0
275
    -2
285
     1
 65
     0
276
    -2
286
     1
 66
     0
277
    -2
287
     1
 67
     0
278
    -2
288
     1
 68
     0
279
    -2
289
     1
 69
     0
  0
VISUALSTYLE
  5
9BF1
102
{ACAD_XDICTIONARY
360
9C4F
102
}
102
{ACAD_REACTORS
330
9BEB
102
}
330
9BEB
100
AcDbVisualStyle
  2
2dWireframe
 70
     4
 71
     0
 72
     2
 73
     0
 90
        0
 40
-0.6
 41
-30.0
 62
     5
 63
     7
 74
     1
 91
        4
 64
     7
 65
   257
 75
     1
175
     1
 42
1.0
 92
        0
 66
   257
 43
1.0
 76
     1
 77
     6
 78
     2
 67
     7
 79
     5
170
     0
171
     0
290
     0
174
     0
 93
        1
 44
0.0
173
     0
291
     0
 45
0.0
1001
ACAD
1000
AcDbSavedByObjectVersion
1070
     0
  0
VISUALSTYLE
  5
9BF0
102
{ACAD_XDICTIONARY
360
9C4D
102
}
102
{ACAD_REACTORS
330
9BEB
102
}
330
9BEB
100
AcDbVisualStyle
  2
Basic
 70
     7
 71
     1
 72
     0
 73
     1
 90
        0
 40
-0.6
 41
-30.0
 62
     5
 63
     7
 74
     0
 91
        4
 64
     7
 65
   257
 75
     1
175
     1
 42
1.0
 92
        8
 66
     7
 43
1.0
 76
     1
 77
     6
 78
     2
 67
     7
 79
     5
170
     0
171
     0
290
     0
174
     0
 93
        1
 44
0.0
173
     0
291
     1
 45
0.0
1001
ACAD
1000
AcDbSavedByObjectVersion
1070
     0
  0
VISUALSTYLE
  5
9BF7
102
{ACAD_XDICTIONARY
360
9C5B
102
}
102
{ACAD_REACTORS
330
9BEB
102
}
330
9BEB
100
AcDbVisualStyle
  2
Brighten
 70
    12
 71
     2
 72
     2
 73
     0
 90
        0
 40
-0.6
 41
-30.0
 62
     5
 63
     7
 74
     1
 91
        4
 64
     7
 65
   257
 75
     1
175
     1
 42
1.0
 92
        8
 66
     7
 43
1.0
 76
     1
 77
     6
 78
     2
 67
     7
 79
     5
170
     0
171
     0
290
     0
174
     0
 93
        1
 44
50.0
173
     0
291
     1
 45
0.0
1001
ACAD
1000
AcDbSavedByObjectVersion
1070
     0
  0
VISUALSTYLE
  5
9BFB
102
{ACAD_XDICTIONARY
360
9C63
102
}
102
{ACAD_REACTORS
330
9BEB
102
}
330
9BEB
100
AcDbVisualStyle
  2
ColorChange
 70
    16
 71
     2
 72
     2
 73
     3
 90
        0
 40
-0.6
 41
-30.0
 62
     5
 63
     8
 74
     1
 91
        4
 64
     7
 65
   257
 75
     1
175
     1
 42
1.0
 92
        8
 66
     8
 43
1.0
 76
     1
 77
     6
 78
     2
 67
     7
 79
     5
170
     0
171
     0
290
     0
174
     0
 93
        1
 44
0.0
173
     0
291
     1
 45
0.0
1001
ACAD
1000
AcDbSavedByObjectVersion
1070
     0
  0
VISUALSTYLE
  5
9BF4
102
{ACAD_XDICTIONARY
360
9C55
102
}
102
{ACAD_REACTORS
330
9BEB
102
}
330
9BEB
100
AcDbVisualStyle
  2
Conceptual
 70
     9
 71
     3
 72
     2
 73
     0
 90
        0
 40
-0.6
 41
-30.0
 62
     5
 63
     7
 74
     2
 91
        2
 64
     7
 65
   257
 75
     1
175
     1
 42
179.0
 92
        8
 66
     7
 43
1.0
 76
     1
 77
     6
 78
     2
 67
     7
 79
     3
170
     0
171
     0
290
     0
174
     0
 93
        1
 44
0.0
173
     0
291
     0
 45
0.0
1001
ACAD
1000
AcDbSavedByObjectVersion
1070
     0
  0
VISUALSTYLE
  5
9BF6
102
{ACAD_XDICTIONARY
360
9C59
102
}
102
{ACAD_REACTORS
330
9BEB
102
}
330
9BEB
100
AcDbVisualStyle
  2
Dim
 70
    11
 71
     2
 72
     2
 73
     0
 90
        0
 40
-0.6
 41
-30.0
 62
     5
 63
     7
 74
     1
 91
        4
 64
     7
 65
   257
 75
     1
175
     1
 42
1.0
 92
        8
 66
     7
 43
1.0
 76
     1
 77
     6
 78
     2
 67
     7
 79
     5
170
     0
171
     0
290
     0
174
     0
 93
        1
 44
-50.0
173
     0
291
     1
 45
0.0
1001
ACAD
1000
AcDbSavedByObjectVersion
1070
     0
  0
VISUALSTYLE
  5
9C03
102
{ACAD_XDICTIONARY
360
9C73
102
}
102
{ACAD_REACTORS
330
9BEB
102
}
330
9BEB
100
AcDbVisualStyle
  2
EdgeColorOff
 70
    22
 71
     2
 72
     2
 73
     0
 90
        0
 40
-0.6
 41
-30.0
 62
     5
 63
     7
 74
     1
 91
        4
 64
     7
 65
   257
 75
     1
175
     1
 42
1.0
 92
        8
 66
     7
 43
1.0
 76
     1
 77
     6
 78
     2
 67
     7
 79
     5
170
     0
171
     0
290
     0
174
     0
 93
        1
 44
0.0
173
     0
291
     1
 45
0.0
1001
ACAD
1000
AcDbSavedByObjectVersion
1070
     0
  0
VISUALSTYLE
  5
9BFA
102
{ACAD_XDICTIONARY
360
9C61
102
}
102
{ACAD_REACTORS
330
9BEB
102
}
330
9BEB
100
AcDbVisualStyle
  2
Facepattern
 70
    15
 71
     2
 72
     2
 73
     0
 90
        0
 40
-0.6
 41
-30.0
 62
     5
 63
     7
 74
     1
 91
        4
 64
     7
 65
   257
 75
     1
175
     1
 42
1.0
 92
        8
 66
     7
 43
1.0
 76
     1
 77
     6
 78
     2
 67
     7
 79
     5
170
     0
171
     0
290
     0
174
     0
 93
        1
 44
0.0
173
     0
291
     1
 45
0.0
1001
ACAD
1000
AcDbSavedByObjectVersion
1070
     0
  0
VISUALSTYLE
  5
9BEC
102
{ACAD_XDICTIONARY
360
9C45
102
}
102
{ACAD_REACTORS
330
9BEB
102
}
330
9BEB
100
AcDbVisualStyle
  2
Flat
 70
     0
 71
     2
 72
     1
 73
     1
 90
        2
 40
-0.6
 41
30.0
 62
     5
 63
     7
 74
     0
 91
        0
 64
     7
 65
   257
 75
     1
175
     1
 42
1.0
 92
        8
 66
     7
 43
1.0
 76
     1
 77
     6
 78
     2
 67
     7
 79
     5
170
     0
171
     0
290
     0
174
     0
 93
       13
 44
0.0
173
     0
291
     1
 45
0.0
1001
ACAD
1000
AcDbSavedByObjectVersion
1070
     0
  0
VISUALSTYLE
  5
9BED
102
{ACAD_XDICTIONARY
360
9C47
102
}
102
{ACAD_REACTORS
330
9BEB
102
}
330
9BEB
100
AcDbVisualStyle
  2
FlatWithEdges
 70
     1
 71
     2
 72
     1
 73
     1
 90
        2
 40
-0.6
 41
30.0
 62
     5
 63
     7
 74
     1
 91
        0
 64
     7
 65
   257
 75
     1
175
     1
 42
1.0
 92
        0
 66
   257
 43
1.0
 76
     1
 77
     6
 78
     2
 67
     7
 79
     5
170
     0
171
     0
290
     0
174
     0
 93
       13
 44
0.0
173
     0
291
     1
 45
0.0
1001
ACAD
1000
AcDbSavedByObjectVersion
1070
     0
  0
VISUALSTYLE
  5
9BEE
102
{ACAD_XDICTIONARY
360
9C49
102
}
102
{ACAD_REACTORS
330
9BEB
102
}
330
9BEB
100
AcDbVisualStyle
  2
Gouraud
 70
     2
 71
     2
 72
     2
 73
     1
 90
        2
 40
-0.6
 41
30.0
 62
     5
 63
     7
 74
     0
 91
        0
 64
     7
 65
   257
 75
     1
175
     1
 42
1.0
 92
        0
 66
     7
 43
1.0
 76
     1
 77
     6
 78
     2
 67
     7
 79
     5
170
     0
171
     0
290
     0
174
     0
 93
       13
 44
0.0
173
     0
291
     1
 45
0.0
1001
ACAD
1000
AcDbSavedByObjectVersion
1070
     0
  0
VISUALSTYLE
  5
9BEF
102
{ACAD_XDICTIONARY
360
9C4B
102
}
102
{ACAD_REACTORS
330
9BEB
102
}
330
9BEB
100
AcDbVisualStyle
  2
GouraudWithEdges
 70
     3
 71
     2
 72
     2
 73
     1
 90
        2
 40
-0.6
 41
30.0
 62
     5
 63
     7
 74
     1
 91
        0
 64
     7
 65
   257
 75
     1
175
     1
 42
1.0
 92
        0
 66
   257
 43
1.0
 76
     1
 77
     6
 78
     2
 67
     7
 79
     5
170
     0
171
     0
290
     0
174
     0
 93
       13
 44
0.0
173
     0
291
     1
 45
0.0
1001
ACAD
1000
AcDbSavedByObjectVersion
1070
     0
  0
VISUALSTYLE
  5
9BF3
102
{ACAD_XDICTIONARY
360
9C53
102
}
102
{ACAD_REACTORS
330
9BEB
102
}
330
9BEB
100
AcDbVisualStyle
  2
Hidden
 70
     6
 71
     1
 72
     2
 73
     2
 90
        0
 40
-0.6
 41
-30.0
 62
     5
 63
     7
 74
     2
 91
        2
 64
     7
 65
   257
 75
     2
175
     1
 42
40.0
 92
        0
 66
   257
 43
1.0
 76
     1
 77
     6
 78
     2
 67
     7
 79
     3
170
     0
171
     0
290
     0
174
     0
 93
        1
 44
0.0
173
     0
291
     0
 45
0.0
1001
ACAD
1000
AcDbSavedByObjectVersion
1070
     0
  0
VISUALSTYLE
  5
9C01
102
{ACAD_XDICTIONARY
360
9C6F
102
}
102
{ACAD_REACTORS
330
9BEB
102
}
330
9BEB
100
AcDbVisualStyle
  2
JitterOff
 70
    20
 71
     2
 72
     2
 73
     0
 90
        0
 40
-0.6
 41
-30.0
 62
     5
 63
     7
 74
     1
 91
        4
 64
     7
 65
   257
 75
     1
175
     1
 42
1.0
 92
       10
 66
     7
 43
1.0
 76
     1
 77
     6
 78
     2
 67
     7
 79
     5
170
     0
171
     0
290
     0
174
     0
 93
        1
 44
0.0
173
     0
291
     1
 45
0.0
1001
ACAD
1000
AcDbSavedByObjectVersion
1070
     0
  0
VISUALSTYLE
  5
9BF9
102
{ACAD_XDICTIONARY
360
9C5F
102
}
102
{ACAD_REACTORS
330
9BEB
102
}
330
9BEB
100
AcDbVisualStyle
  2
Linepattern
 70
    14
 71
     2
 72
     2
 73
     0
 90
        0
 40
-0.6
 41
-30.0
 62
     5
 63
     7
 74
     1
 91
        4
 64
     7
 65
   257
 75
     7
175
     7
 42
1.0
 92
        8
 66
     7
 43
1.0
 76
     1
 77
     6
 78
     2
 67
     7
 79
     5
170
     0
171
     0
290
     0
174
     0
 93
        1
 44
0.0
173
     0
291
     1
 45
0.0
1001
ACAD
1000
AcDbSavedByObjectVersion
1070
     0
  0
VISUALSTYLE
  5
9C02
102
{ACAD_XDICTIONARY
360
9C71
102
}
102
{ACAD_REACTORS
330
9BEB
102
}
330
9BEB
100
AcDbVisualStyle
  2
OverhangOff
 70
    21
 71
     2
 72
     2
 73
     0
 90
        0
 40
-0.6
 41
-30.0
 62
     5
 63
     7
 74
     1
 91
        4
 64
     7
 65
   257
 75
     1
175
     1
 42
1.0
 92
        9
 66
     7
 43
1.0
 76
     1
 77
     6
 78
     2
 67
     7
 79
     5
170
     0
171
     0
290
     0
174
     0
 93
        1
 44
0.0
173
     0
291
     1
 45
0.0
1001
ACAD
1000
AcDbSavedByObjectVersion
1070
     0
  0
VISUALSTYLE
  5
9BF5
102
{ACAD_XDICTIONARY
360
9C57
102
}
102
{ACAD_REACTORS
330
9BEB
102
}
330
9BEB
100
AcDbVisualStyle
  2
Realistic
 70
     8
 71
     2
 72
     3
 73
     0
 90
        2
 40
-0.6
 41
30.0
 62
     5
 63
     7
 74
     0
 91
        0
 64
     7
 65
   257
 75
     1
175
     1
 42
1.0
 92
        8
 66
   257
 43
1.0
 76
     1
 77
     6
 78
     2
 67
     7
 79
     3
170
     0
171
     0
290
     0
174
     0
 93
       13
 44
0.0
173
     0
291
     0
 45
0.0
1001
ACAD
1000
AcDbSavedByObjectVersion
1070
     0
  0
VISUALSTYLE
  5
9C00
102
{ACAD_XDICTIONARY
360
9C6D
102
}
102
{ACAD_REACTORS
330
9BEB
102
}
330
9BEB
100
AcDbVisualStyle
  2
Shaded
 70
    27
 71
     2
 72
     2
 73
     1
 90
        2
 40
-0.6
 41
30.0
 62
     5
 63
     7
 74
     0
 91
        4
 64
     7
 65
   257
 75
     1
175
     1
 42
1.0
 92
        8
 66
   257
 43
1.0
 76
     1
 77
     6
 78
     2
 67
     8
 79
     3
170
     0
171
     0
290
     0
174
     0
 93
        5
 44
0.0
173
     0
291
     0
 45
0.0
1001
ACAD
1000
AcDbSavedByObjectVersion
1070
     0
  0
VISUALSTYLE
  5
9BFF
102
{ACAD_XDICTIONARY
360
9C6B
102
}
102
{ACAD_REACTORS
330
9BEB
102
}
330
9BEB
100
AcDbVisualStyle
  2
Shaded with edges
 70
    26
 71
     2
 72
     2
 73
     1
 90
        2
 40
-0.6
 41
30.0
 62
     5
 63
     7
 74
     1
 91
       10
 64
     7
 65
   257
 75
     2
175
     1
 42
1.0
 92
        8
 66
   257
 43
1.0
 76
     1
 77
     6
 78
     2
 67
     7
 79
     3
170
     0
171
     0
290
     0
174
     0
 93
        5
 44
0.0
173
     0
291
     0
 45
0.0
1001
ACAD
1000
AcDbSavedByObjectVersion
1070
     0
  0
VISUALSTYLE
  5
9BFC
102
{ACAD_XDICTIONARY
360
9C65
102
}
102
{ACAD_REACTORS
330
9BEB
102
}
330
9BEB
100
AcDbVisualStyle
  2
Shades of Gray
 70
    23
 71
     2
 72
     2
 73
     3
 90
        0
 40
-0.6
 41
-30.0
 62
     5
 63
     7
 74
     2
 91
        2
 64
     7
 65
     7
 75
     1
175
     1
 42
40.0
 92
        8
 66
     7
 43
1.0
 76
     1
 77
     6
 78
     2
 67
     7
 79
     3
170
     0
171
     0
290
     0
174
     0
 93
        1
 44
0.0
173
     0
291
     0
 45
0.0
1001
ACAD
1000
AcDbSavedByObjectVersion
1070
     0
  0
VISUALSTYLE
  5
9BFD
102
{ACAD_XDICTIONARY
360
9C67
102
}
102
{ACAD_REACTORS
330
9BEB
102
}
330
9BEB
100
AcDbVisualStyle
  2
Sketchy
 70
    24
 71
     1
 72
     2
 73
     2
 90
        0
 40
-0.6
 41
-30.0
 62
     5
 63
     7
 74
     2
 91
        2
 64
     7
 65
     7
 75
     1
175
     1
 42
40.0
 92
       11
 66
     7
 43
1.0
 76
     1
 77
     6
 78
     2
 67
     7
 79
     6
170
     0
171
     0
290
     0
174
     0
 93
        1
 44
0.0
173
     0
291
     0
 45
0.0
1001
ACAD
1000
AcDbSavedByObjectVersion
1070
     0
  0
VISUALSTYLE
  5
9BF8
102
{ACAD_XDICTIONARY
360
9C5D
102
}
102
{ACAD_REACTORS
330
9BEB
102
}
330
9BEB
100
AcDbVisualStyle
  2
Thicken
 70
    13
 71
     2
 72
     2
 73
     0
 90
        0
 40
-0.6
 41
-30.0
 62
     5
 63
     7
 74
     1
 91
        4
 64
     7
 65
   257
 75
     1
175
     1
 42
1.0
 92
       12
 66
     7
 43
1.0
 76
     1
 77
     6
 78
     2
 67
     7
 79
     5
170
     0
171
     0
290
     0
174
     0
 93
        1
 44
0.0
173
     0
291
     1
 45
0.0
1001
ACAD
1000
AcDbSavedByObjectVersion
1070
     0
  0
VISUALSTYLE
  5
9BF2
102
{ACAD_XDICTIONARY
360
9C51
102
}
102
{ACAD_REACTORS
330
9BEB
102
}
330
9BEB
100
AcDbVisualStyle
  2
Wireframe
 70
     5
 71
     0
 72
     2
 73
     0
 90
        0
 40
-0.6
 41
-30.0
 62
     5
 63
     7
 74
     1
 91
        4
 64
     7
 65
   257
 75
     1
175
     1
 42
1.0
 92
        0
 66
   257
 43
1.0
 76
     1
 77
     6
 78
     2
 67
     7
 79
     3
170
     0
171
     0
290
     0
174
     0
 93
        1
 44
0.0
173
     0
291
     0
 45
0.0
1001
ACAD
1000
AcDbSavedByObjectVersion
1070
     0
  0
VISUALSTYLE
  5
9BFE
102
{ACAD_XDICTIONARY
360
9C69
102
}
102
{ACAD_REACTORS
330
9BEB
102
}
330
9BEB
100
AcDbVisualStyle
  2
X-Ray
 70
    25
 71
     2
 72
     2
 73
     1
 90
        1
 40
0.5
 41
-30.0
 62
     5
 63
     7
 74
     1
 91
        0
 64
     7
 65
   257
 75
     1
175
     1
 42
1.0
 92
        8
 66
     7
 43
1.0
 76
     1
 77
     6
 78
     2
 67
     7
 79
     3
170
     0
171
     0
290
     0
174
     0
 93
       13
 44
0.0
173
     0
291
     0
 45
0.0
1001
ACAD
1000
AcDbSavedByObjectVersion
1070
     0
  0
DICTIONARYVAR
  5
9C38
102
{ACAD_REACTORS
330
9C33
102
}
330
9C33
100
DictionaryVariables
280
     0
  1
1:1
  0
DICTIONARYVAR
  5
9C35
102
{ACAD_REACTORS
330
9C33
102
}
330
9C33
100
DictionaryVariables
280
     0
  1
STANDARD
  0
DICTIONARYVAR
  5
9C34
102
{ACAD_REACTORS
330
9C33
102
}
330
9C33
100
DictionaryVariables
280
     0
  1
STANDARD
  0
DICTIONARYVAR
  5
9C36
102
{ACAD_REACTORS
330
9C33
102
}
330
9C33
100
DictionaryVariables
280
     0
  1
Imperial24
  0
DICTIONARYVAR
  5
9C37
102
{ACAD_REACTORS
330
9C33
102
}
330
9C33
100
DictionaryVariables
280
     0
  1
Imperial24
  0
DICTIONARYVAR
  5
9C3B
102
{ACAD_REACTORS
330
9C33
102
}
330
9C33
100
DictionaryVariables
280
     0
  1
1
  0
DICTIONARYVAR
  5
9C3A
102
{ACAD_REACTORS
330
9C33
102
}
330
9C33
100
DictionaryVariables
280
     0
  1
0
  0
DICTIONARYVAR
  5
9C39
102
{ACAD_REACTORS
330
9C33
102
}
330
9C33
100
DictionaryVariables
280
     0
  1
127
  0
DICTIONARYVAR
  5
9C3C
102
{ACAD_REACTORS
330
9C33
102
}
330
9C33
100
DictionaryVariables
280
     0
  1
2
  0
DICTIONARY
  5
9C79
330
9C1E
100
AcDbDictionary
280
     1
281
     1
  3
ACAD_XREC_ROUNDTRIP
360
9C7A
  0
DICTIONARY
  5
9C7B
330
9C1F
100
AcDbDictionary
280
     1
281
     1
  3
ACAD_XREC_ROUNDTRIP
360
9C7C
  0
DICTIONARY
  5
9C7D
330
9C20
100
AcDbDictionary
280
     1
281
     1
  3
ACAD_XREC_ROUNDTRIP
360
9C7E
  0
DICTIONARY
  5
9BDC
330
9BDB
100
AcDbDictionary
280
     1
281
     1
  3
ACAD_XREC_ROUNDTRIP
360
9C43
  3
BUMPTILE
360
9BDE
  3
DIFFUSETILE
360
9BDD
  3
OPACITYTILE
360
9BE1
  3
REFLECTIONTILE
360
9BE0
  3
REFRACTIONTILE
360
9BE2
  3
SPECULARTILE
360
9BDF
  0
DICTIONARY
  5
9BD4
330
9BD3
100
AcDbDictionary
280
     1
281
     1
  3
ACAD_XREC_ROUNDTRIP
360
9C42
  3
BUMPTILE
360
9BD6
  3
DIFFUSETILE
360
9BD5
  3
OPACITYTILE
360
9BD9
  3
REFLECTIONTILE
360
9BD8
  3
REFRACTIONTILE
360
9BDA
  3
SPECULARTILE
360
9BD7
  0
DICTIONARY
  5
9BE4
330
9BE3
100
AcDbDictionary
280
     1
281
     1
  3
ACAD_XREC_ROUNDTRIP
360
9C44
  3
BUMPTILE
360
9BE6
  3
DIFFUSETILE
360
9BE5
  3
OPACITYTILE
360
9BE9
  3
REFLECTIONTILE
360
9BE8
  3
REFRACTIONTILE
360
9BEA
  3
SPECULARTILE
360
9BE7
  0
DICTIONARY
  5
9C77
330
9C1C
100
AcDbDictionary
280
     1
281
     1
  3
ACAD_XREC_ROUNDTRIP
360
9C78
  0
DICTIONARY
  5
9C3E
330
9C06
100
AcDbDictionary
280
     1
281
     1
  3
ACAD_ROUNDTRIP_2008_TABLESTYLE_CELLSTYLEMAP
360
9C3F
  3
ACAD_XREC_ROUNDTRIP
360
9C75
  0
DICTIONARY
  5
9C4F
330
9BF1
100
AcDbDictionary
280
     1
281
     1
  3
ACAD_XREC_ROUNDTRIP
360
9C50
  0
DICTIONARY
  5
9C4D
330
9BF0
100
AcDbDictionary
280
     1
281
     1
  3
ACAD_XREC_ROUNDTRIP
360
9C4E
  0
DICTIONARY
  5
9C5B
330
9BF7
100
AcDbDictionary
280
     1
281
     1
  3
ACAD_XREC_ROUNDTRIP
360
9C5C
  0
DICTIONARY
  5
9C63
330
9BFB
100
AcDbDictionary
280
     1
281
     1
  3
ACAD_XREC_ROUNDTRIP
360
9C64
  0
DICTIONARY
  5
9C55
330
9BF4
100
AcDbDictionary
280
     1
281
     1
  3
ACAD_XREC_ROUNDTRIP
360
9C56
  0
DICTIONARY
  5
9C59
330
9BF6
100
AcDbDictionary
280
     1
281
     1
  3
ACAD_XREC_ROUNDTRIP
360
9C5A
  0
DICTIONARY
  5
9C73
330
9C03
100
AcDbDictionary
280
     1
281
     1
  3
ACAD_XREC_ROUNDTRIP
360
9C74
  0
DICTIONARY
  5
9C61
330
9BFA
100
AcDbDictionary
280
     1
281
     1
  3
ACAD_XREC_ROUNDTRIP
360
9C62
  0
DICTIONARY
  5
9C45
330
9BEC
100
AcDbDictionary
280
     1
281
     1
  3
ACAD_XREC_ROUNDTRIP
360
9C46
  0
DICTIONARY
  5
9C47
330
9BED
100
AcDbDictionary
280
     1
281
     1
  3
ACAD_XREC_ROUNDTRIP
360
9C48
  0
DICTIONARY
  5
9C49
330
9BEE
100
AcDbDictionary
280
     1
281
     1
  3
ACAD_XREC_ROUNDTRIP
360
9C4A
  0
DICTIONARY
  5
9C4B
330
9BEF
100
AcDbDictionary
280
     1
281
     1
  3
ACAD_XREC_ROUNDTRIP
360
9C4C
  0
DICTIONARY
  5
9C53
330
9BF3
100
AcDbDictionary
280
     1
281
     1
  3
ACAD_XREC_ROUNDTRIP
360
9C54
  0
DICTIONARY
  5
9C6F
330
9C01
100
AcDbDictionary
280
     1
281
     1
  3
ACAD_XREC_ROUNDTRIP
360
9C70
  0
DICTIONARY
  5
9C5F
330
9BF9
100
AcDbDictionary
280
     1
281
     1
  3
ACAD_XREC_ROUNDTRIP
360
9C60
  0
DICTIONARY
  5
9C71
330
9C02
100
AcDbDictionary
280
     1
281
     1
  3
ACAD_XREC_ROUNDTRIP
360
9C72
  0
DICTIONARY
  5
9C57
330
9BF5
100
AcDbDictionary
280
     1
281
     1
  3
ACAD_XREC_ROUNDTRIP
360
9C58
  0
DICTIONARY
  5
9C6D
330
9C00
100
AcDbDictionary
280
     1
281
     1
  3
ACAD_XREC_ROUNDTRIP
360
9C6E
  0
DICTIONARY
  5
9C6B
330
9BFF
100
AcDbDictionary
280
     1
281
     1
  3
ACAD_XREC_ROUNDTRIP
360
9C6C
  0
DICTIONARY
  5
9C65
330
9BFC
100
AcDbDictionary
280
     1
281
     1
  3
ACAD_XREC_ROUNDTRIP
360
9C66
  0
DICTIONARY
  5
9C67
330
9BFD
100
AcDbDictionary
280
     1
281
     1
  3
ACAD_XREC_ROUNDTRIP
360
9C68
  0
DICTIONARY
  5
9C5D
330
9BF8
100
AcDbDictionary
280
     1
281
     1
  3
ACAD_XREC_ROUNDTRIP
360
9C5E
  0
DICTIONARY
  5
9C51
330
9BF2
100
AcDbDictionary
280
     1
281
     1
  3
ACAD_XREC_ROUNDTRIP
360
9C52
  0
DICTIONARY
  5
9C69
330
9BFE
100
AcDbDictionary
280
     1
281
     1
  3
ACAD_XREC_ROUNDTRIP
360
9C6A
  0
XRECORD
  5
9C7A
102
{ACAD_REACTORS
330
9C79
102
}
330
9C79
100
AcDbXrecord
280
     1
102
DISPLAYNAME
  1
Imperial24
102
FLAGS
 90
        0
  0
XRECORD
  5
9C7C
102
{ACAD_REACTORS
330
9C7B
102
}
330
9C7B
100
AcDbXrecord
280
     1
102
SHADEPLOT
 70
     0
102
SHADEPLOTRESLEVEL
 70
     2
102
SHADEPLOTCUSTOMDPI
 70
   300
  0
XRECORD
  5
9C7E
102
{ACAD_REACTORS
330
9C7D
102
}
330
9C7D
100
AcDbXrecord
280
     1
102
SHADEPLOT
 70
     0
102
SHADEPLOTRESLEVEL
 70
     2
102
SHADEPLOTCUSTOMDPI
 70
   300
  0
XRECORD
  5
9C43
102
{ACAD_REACTORS
330
9BDC
102
}
330
9BDC
100
AcDbXrecord
280
     1
102
MATERIAL
148
0.0
149
0.0
149
0.0
 93
        0
 94
      127
282
     0
 72
     0
 77
     0
171
     0
175
     0
179
     0
273
     0
  0
XRECORD
  5
9BDE
102
{ACAD_REACTORS
330
9BDC
102
}
330
9BDC
100
AcDbXrecord
280
     1
270
     1
271
     1
  0
XRECORD
  5
9BDD
102
{ACAD_REACTORS
330
9BDC
102
}
330
9BDC
100
AcDbXrecord
280
     1
270
     1
271
     1
  0
XRECORD
  5
9BE1
102
{ACAD_REACTORS
330
9BDC
102
}
330
9BDC
100
AcDbXrecord
280
     1
270
     1
271
     1
  0
XRECORD
  5
9BE0
102
{ACAD_REACTORS
330
9BDC
102
}
330
9BDC
100
AcDbXrecord
280
     1
270
     1
271
     1
  0
XRECORD
  5
9BE2
102
{ACAD_REACTORS
330
9BDC
102
}
330
9BDC
100
AcDbXrecord
280
     1
270
     1
271
     1
  0
XRECORD
  5
9BDF
102
{ACAD_REACTORS
330
9BDC
102
}
330
9BDC
100
AcDbXrecord
280
     1
270
     1
271
     1
  0
XRECORD
  5
9C42
102
{ACAD_REACTORS
330
9BD4
102
}
330
9BD4
100
AcDbXrecord
280
     1
102
MATERIAL
148
0.0
149
0.0
149
0.0
 93
        0
 94
      127
282
     0
 72
     0
 77
     0
171
     0
175
     0
179
     0
273
     0
  0
XRECORD
  5
9BD6
102
{ACAD_REACTORS
330
9BD4
102
}
330
9BD4
100
AcDbXrecord
280
     1
270
     1
271
     1
  0
XRECORD
  5
9BD5
102
{ACAD_REACTORS
330
9BD4
102
}
330
9BD4
100
AcDbXrecord
280
     1
270
     1
271
     1
  0
XRECORD
  5
9BD9
102
{ACAD_REACTORS
330
9BD4
102
}
330
9BD4
100
AcDbXrecord
280
     1
270
     1
271
     1
  0
XRECORD
  5
9BD8
102
{ACAD_REACTORS
330
9BD4
102
}
330
9BD4
100
AcDbXrecord
280
     1
270
     1
271
     1
  0
XRECORD
  5
9BDA
102
{ACAD_REACTORS
330
9BD4
102
}
330
9BD4
100
AcDbXrecord
280
     1
270
     1
271
     1
  0
XRECORD
  5
9BD7
102
{ACAD_REACTORS
330
9BD4
102
}
330
9BD4
100
AcDbXrecord
280
     1
270
     1
271
     1
  0
XRECORD
  5
9C44
102
{ACAD_REACTORS
330
9BE4
102
}
330
9BE4
100
AcDbXrecord
280
     1
102
MATERIAL
148
0.0
149
0.0
149
0.0
 93
        0
 94
      127
282
     0
 72
     0
 77
     0
171
     0
175
     0
179
     0
273
     0
  0
XRECORD
  5
9BE6
102
{ACAD_REACTORS
330
9BE4
102
}
330
9BE4
100
AcDbXrecord
280
     1
270
     1
271
     1
  0
XRECORD
  5
9BE5
102
{ACAD_REACTORS
330
9BE4
102
}
330
9BE4
100
AcDbXrecord
280
     1
270
     1
271
     1
  0
XRECORD
  5
9BE9
102
{ACAD_REACTORS
330
9BE4
102
}
330
9BE4
100
AcDbXrecord
280
     1
270
     1
271
     1
  0
XRECORD
  5
9BE8
102
{ACAD_REACTORS
330
9BE4
102
}
330
9BE4
100
AcDbXrecord
280
     1
270
     1
271
     1
  0
XRECORD
  5
9BEA
102
{ACAD_REACTORS
330
9BE4
102
}
330
9BE4
100
AcDbXrecord
280
     1
270
     1
271
     1
  0
XRECORD
  5
9BE7
102
{ACAD_REACTORS
330
9BE4
102
}
330
9BE4
100
AcDbXrecord
280
     1
270
     1
271
     1
  0
XRECORD
  5
9C78
102
{ACAD_REACTORS
330
9C77
102
}
330
9C77
100
AcDbXrecord
280
     1
102
DISPLAYNAME
  1
Imperial24
102
FLAGS
 90
        0
  0
CELLSTYLEMAP
  5
9C3F
102
{ACAD_REACTORS
330
9C3E
102
}
330
9C3E
100
AcDbCellStyleMap
 90
        3
300
CELLSTYLE
  1
TABLEFORMAT_BEGIN
 90
        5
170
     1
 91
        0
 92
    32768
 62
   257
 93
        1
300
CONTENTFORMAT
  1
CONTENTFORMAT_BEGIN
 90
        0
 91
        0
 92
      512
 93
        0
300

 40
0.0
140
1.0
 94
        5
 62
     0
340
9835
144
0.25
309
CONTENTFORMAT_END
171
     0
 94
        0
309
TABLEFORMAT_END
  1
CELLSTYLE_BEGIN
 90
        1
 91
        1
300
_TITLE
309
CELLSTYLE_END
300
CELLSTYLE
  1
TABLEFORMAT_BEGIN
 90
        5
170
     1
 91
        0
 92
        0
 62
   257
 93
        1
300
CONTENTFORMAT
  1
CONTENTFORMAT_BEGIN
 90
        0
 91
        0
 92
      512
 93
        0
300

 40
0.0
140
1.0
 94
        5
 62
     0
340
9835
144
0.18
309
CONTENTFORMAT_END
171
     0
 94
        0
309
TABLEFORMAT_END
  1
CELLSTYLE_BEGIN
 90
        2
 91
        1
300
_HEADER
309
CELLSTYLE_END
300
CELLSTYLE
  1
TABLEFORMAT_BEGIN
 90
        5
170
     1
 91
        0
 92
        0
 62
   257
 93
        1
300
CONTENTFORMAT
  1
CONTENTFORMAT_BEGIN
 90
        0
 91
        0
 92
      512
 93
        0
300

 40
0.0
140
1.0
 94
        2
 62
     0
340
9835
144
0.18
309
CONTENTFORMAT_END
171
     0
 94
        0
309
TABLEFORMAT_END
  1
CELLSTYLE_BEGIN
 90
        3
 91
        2
300
_DATA
309
CELLSTYLE_END
  0
XRECORD
  5
9C75
102
{ACAD_REACTORS
330
9C3E
102
}
330
9C3E
100
AcDbXrecord
280
     1
102
ACAD_ROUNDTRIP_PRE2007_TABLESTYLE
 90
      512
 91
        0
  1

 92
      512
 93
        0
  2

 94
      512
 95
        0
  3

  0
XRECORD
  5
9C50
102
{ACAD_REACTORS
330
9C4F
102
}
330
9C4F
100
AcDbXrecord
280
     1
102
RTVSPost2010Prop28
280
     1
102
RTVSPost2010PropOp28
 70
     1
102
RTVSPost2010Prop29
280
     1
102
RTVSPost2010PropOp29
 70
     1
102
RTVSPost2010Prop30
280
     0
102
RTVSPost2010PropOp30
 70
     1
102
RTVSPost2010Prop31
280
     0
102
RTVSPost2010PropOp31
 70
     1
102
RTVSPost2010Prop32
280
     0
102
RTVSPost2010PropOp32
 70
     1
102
RTVSPost2010Prop33
280
     0
102
RTVSPost2010PropOp33
 70
     1
102
RTVSPost2010Prop34
280
     0
102
RTVSPost2010PropOp34
 70
     1
102
RTVSPost2010Prop35
280
     0
102
RTVSPost2010PropOp35
 70
     1
102
RTVSPost2010Prop36
280
     0
102
RTVSPost2010PropOp36
 70
     1
102
RTVSPost2010Prop37
 90
       50
102
RTVSPost2010PropOp37
 70
     1
102
RTVSPost2010Prop38
140
0.0
102
RTVSPost2010PropOp38
 70
     1
102
RTVSPost2010Prop39
140
1.0
102
RTVSPost2010PropOp39
 70
     1
102
RTVSPost2010Prop40
 90
        0
102
RTVSPost2010PropOp40
 70
     1
102
RTVSPost2010Prop41ColorIndex
 90
       18
102
RTVSPost2010Prop41ColorRGB
 90
        0
102
RTVSPost2010PropOp41
 70
     1
102
RTVSPost2010Prop42
 90
       50
102
RTVSPost2010PropOp42
 70
     1
102
RTVSPost2010Prop43
 90
        3
102
RTVSPost2010PropOp43
 70
     1
102
RTVSPost2010Prop44ColorIndex
 90
        5
102
RTVSPost2010Prop44ColorRGB
 90
      255
102
RTVSPost2010PropOp44
 70
     1
102
RTVSPost2010Prop45
280
     0
102
RTVSPost2010PropOp45
 70
     1
102
RTVSPost2010Prop46
 90
       50
102
RTVSPost2010PropOp46
 70
     1
102
RTVSPost2010Prop47
 90
       50
102
RTVSPost2010PropOp47
 70
     1
102
RTVSPost2010Prop48
 90
       50
102
RTVSPost2010PropOp48
 70
     1
102
RTVSPost2010Prop49
280
     0
102
RTVSPost2010PropOp49
 70
     1
102
RTVSPost2010Prop50
 90
       50
102
RTVSPost2010PropOp50
 70
     1
102
RTVSPost2010Prop51ColorIndex
 90
      256
102
RTVSPost2010Prop51ColorRGB
 90
-16777216
102
RTVSPost2010PropOp51
 70
     0
102
RTVSPost2010Prop52
140
1.0
102
RTVSPost2010PropOp52
 70
     0
102
RTVSPost2010Prop53
 90
        2
102
RTVSPost2010PropOp53
 70
     1
102
RTVSPost2010Prop54
  1
strokes_ogs.tif
102
RTVSPost2010PropOp54
 70
     1
102
RTVSPost2010Prop55
280
     0
102
RTVSPost2010PropOp55
 70
     1
102
RTVSPost2010Prop56
140
1.0
102
RTVSPost2010PropOp56
 70
     1
102
RTVSPost2010Prop57
140
1.0
102
RTVSPost2010PropOp57
 70
     1
102
RTVSPropertyOp0
 70
     1
102
RTVSPropertyOp1
 70
     1
102
RTVSPropertyOp2
 70
     1
102
RTVSPropertyOp3
 70
     1
102
RTVSPropertyOp4
 70
     1
102
RTVSPropertyOp5
 70
     1
102
RTVSPropertyOp6
 70
     1
102
RTVSPropertyOp7
 70
     1
102
RTVSPropertyOp8
 70
     1
102
RTVSPropertyOp9
 70
     1
102
RTVSPropertyOp10
 70
     1
102
RTVSPropertyOp11
 70
     1
102
RTVSPropertyOp12
 70
     1
102
RTVSPropertyOp13
 70
     1
102
RTVSPropertyOp14
 70
     1
102
RTVSPropertyOp15
 70
     1
102
RTVSPropertyOp16
 70
     1
102
RTVSPropertyOp17
 70
     1
102
RTVSPropertyOp18
 70
     1
102
RTVSPropertyOp19
 70
     1
102
RTVSPropertyOp20
 70
     1
102
RTVSPropertyOp21
 70
     1
102
RTVSPropertyOp22
 70
     1
102
RTVSPropertyOp23
 70
     1
102
RTVSPropertyOp24
 70
     1
102
RTVSPropertyOp25
 70
     1
102
RTVSPropertyOp26
 70
     1
102
RTVSPropertyOp27
 70
     1
102
RTVSPropertyOp28
 70
     1
102
RTVSPropertyOp29
 70
     1
102
RTVSPropertyOp30
 70
     1
102
RTVSPropertyOp31
 70
     1
102
RTVSPropertyOp32
 70
     1
102
RTVSPropertyOp33
 70
     1
102
RTVSPropertyOp34
 70
     1
102
RTVSPropertyOp35
 70
     1
102
RTVSPropertyOp36
 70
     1
102
RTVSPropertyOp37
 70
     1
102
RTVSPropertyOp38
 70
     1
102
RTVSPropertyOp39
 70
     1
102
RTVSPropertyOp40
 70
     1
102
RTVSPropertyOp41
 70
     1
102
RTVSPropertyOp42
 70
     1
102
RTVSPropertyOp43
 70
     1
102
RTVSPropertyOp44
 70
     1
102
RTVSPropertyOp45
 70
     1
102
RTVSPropertyOp46
 70
     1
102
RTVSPropertyOp47
 70
     1
102
RTVSPropertyOp48
 70
     1
102
RTVSPropertyOp49
 70
     1
102
RTVSPropertyOp50
 70
     1
102
RTVSPropertyOp51
 70
     0
102
RTVSPropertyOp52
 70
     0
102
RTVSPropertyOp53
 70
     1
102
RTVSPropertyOp54
 70
     1
102
RTVSPropertyOp55
 70
     1
102
RTVSPropertyOp56
 70
     1
102
RTVSPropertyOp57
 70
     1
102
RTVSPropertyOp58
 70
     1
102
RTVSPropertyOp59
 70
     1
102
RTVSPropertyOp60
 70
     1
102
RTVSPropertyOp61
 70
     1
102
RTVSPropertyOp62
 70
     1
  0
XRECORD
  5
9C4E
102
{ACAD_REACTORS
330
9C4D
102
}
330
9C4D
100
AcDbXrecord
280
     1
102
RTVSPost2010Prop28
280
     0
102
RTVSPost2010PropOp28
 70
     1
102
RTVSPost2010Prop29
280
     1
102
RTVSPost2010PropOp29
 70
     1
102
RTVSPost2010Prop30
280
     1
102
RTVSPost2010PropOp30
 70
     1
102
RTVSPost2010Prop31
280
     0
102
RTVSPost2010PropOp31
 70
     1
102
RTVSPost2010Prop32
280
     0
102
RTVSPost2010PropOp32
 70
     1
102
RTVSPost2010Prop33
280
     0
102
RTVSPost2010PropOp33
 70
     1
102
RTVSPost2010Prop34
280
     0
102
RTVSPost2010PropOp34
 70
     1
102
RTVSPost2010Prop35
280
     0
102
RTVSPost2010PropOp35
 70
     1
102
RTVSPost2010Prop36
280
     0
102
RTVSPost2010PropOp36
 70
     1
102
RTVSPost2010Prop37
 90
       50
102
RTVSPost2010PropOp37
 70
     1
102
RTVSPost2010Prop38
140
0.0
102
RTVSPost2010PropOp38
 70
     1
102
RTVSPost2010Prop39
140
1.0
102
RTVSPost2010PropOp39
 70
     1
102
RTVSPost2010Prop40
 90
        0
102
RTVSPost2010PropOp40
 70
     1
102
RTVSPost2010Prop41ColorIndex
 90
       18
102
RTVSPost2010Prop41ColorRGB
 90
        0
102
RTVSPost2010PropOp41
 70
     1
102
RTVSPost2010Prop42
 90
       50
102
RTVSPost2010PropOp42
 70
     1
102
RTVSPost2010Prop43
 90
        3
102
RTVSPost2010PropOp43
 70
     1
102
RTVSPost2010Prop44ColorIndex
 90
        5
102
RTVSPost2010Prop44ColorRGB
 90
      255
102
RTVSPost2010PropOp44
 70
     1
102
RTVSPost2010Prop45
280
     0
102
RTVSPost2010PropOp45
 70
     1
102
RTVSPost2010Prop46
 90
       50
102
RTVSPost2010PropOp46
 70
     1
102
RTVSPost2010Prop47
 90
       50
102
RTVSPost2010PropOp47
 70
     1
102
RTVSPost2010Prop48
 90
       50
102
RTVSPost2010PropOp48
 70
     1
102
RTVSPost2010Prop49
280
     0
102
RTVSPost2010PropOp49
 70
     1
102
RTVSPost2010Prop50
 90
       50
102
RTVSPost2010PropOp50
 70
     1
102
RTVSPost2010Prop51ColorIndex
 90
      256
102
RTVSPost2010Prop51ColorRGB
 90
-16777216
102
RTVSPost2010PropOp51
 70
     0
102
RTVSPost2010Prop52
140
1.0
102
RTVSPost2010PropOp52
 70
     0
102
RTVSPost2010Prop53
 90
        2
102
RTVSPost2010PropOp53
 70
     1
102
RTVSPost2010Prop54
  1
strokes_ogs.tif
102
RTVSPost2010PropOp54
 70
     1
102
RTVSPost2010Prop55
280
     0
102
RTVSPost2010PropOp55
 70
     1
102
RTVSPost2010Prop56
140
1.0
102
RTVSPost2010PropOp56
 70
     1
102
RTVSPost2010Prop57
140
1.0
102
RTVSPost2010PropOp57
 70
     1
102
RTVSPropertyOp0
 70
     1
102
RTVSPropertyOp1
 70
     1
102
RTVSPropertyOp2
 70
     1
102
RTVSPropertyOp3
 70
     1
102
RTVSPropertyOp4
 70
     1
102
RTVSPropertyOp5
 70
     1
102
RTVSPropertyOp6
 70
     1
102
RTVSPropertyOp7
 70
     1
102
RTVSPropertyOp8
 70
     1
102
RTVSPropertyOp9
 70
     1
102
RTVSPropertyOp10
 70
     1
102
RTVSPropertyOp11
 70
     1
102
RTVSPropertyOp12
 70
     1
102
RTVSPropertyOp13
 70
     1
102
RTVSPropertyOp14
 70
     1
102
RTVSPropertyOp15
 70
     1
102
RTVSPropertyOp16
 70
     1
102
RTVSPropertyOp17
 70
     1
102
RTVSPropertyOp18
 70
     1
102
RTVSPropertyOp19
 70
     1
102
RTVSPropertyOp20
 70
     1
102
RTVSPropertyOp21
 70
     1
102
RTVSPropertyOp22
 70
     1
102
RTVSPropertyOp23
 70
     1
102
RTVSPropertyOp24
 70
     1
102
RTVSPropertyOp25
 70
     1
102
RTVSPropertyOp26
 70
     1
102
RTVSPropertyOp27
 70
     1
102
RTVSPropertyOp28
 70
     1
102
RTVSPropertyOp29
 70
     1
102
RTVSPropertyOp30
 70
     1
102
RTVSPropertyOp31
 70
     1
102
RTVSPropertyOp32
 70
     1
102
RTVSPropertyOp33
 70
     1
102
RTVSPropertyOp34
 70
     1
102
RTVSPropertyOp35
 70
     1
102
RTVSPropertyOp36
 70
     1
102
RTVSPropertyOp37
 70
     1
102
RTVSPropertyOp38
 70
     1
102
RTVSPropertyOp39
 70
     1
102
RTVSPropertyOp40
 70
     1
102
RTVSPropertyOp41
 70
     1
102
RTVSPropertyOp42
 70
     1
102
RTVSPropertyOp43
 70
     1
102
RTVSPropertyOp44
 70
     1
102
RTVSPropertyOp45
 70
     1
102
RTVSPropertyOp46
 70
     1
102
RTVSPropertyOp47
 70
     1
102
RTVSPropertyOp48
 70
     1
102
RTVSPropertyOp49
 70
     1
102
RTVSPropertyOp50
 70
     1
102
RTVSPropertyOp51
 70
     0
102
RTVSPropertyOp52
 70
     0
102
RTVSPropertyOp53
 70
     1
102
RTVSPropertyOp54
 70
     1
102
RTVSPropertyOp55
 70
     1
102
RTVSPropertyOp56
 70
     1
102
RTVSPropertyOp57
 70
     1
102
RTVSPropertyOp58
 70
     1
102
RTVSPropertyOp59
 70
     1
102
RTVSPropertyOp60
 70
     1
102
RTVSPropertyOp61
 70
     1
102
RTVSPropertyOp62
 70
     1
  0
XRECORD
  5
9C5C
102
{ACAD_REACTORS
330
9C5B
102
}
330
9C5B
100
AcDbXrecord
280
     1
102
RTVSPost2010Prop28
280
     0
102
RTVSPost2010PropOp28
 70
     1
102
RTVSPost2010Prop29
280
     1
102
RTVSPost2010PropOp29
 70
     1
102
RTVSPost2010Prop30
280
     1
102
RTVSPost2010PropOp30
 70
     1
102
RTVSPost2010Prop31
280
     0
102
RTVSPost2010PropOp31
 70
     1
102
RTVSPost2010Prop32
280
     0
102
RTVSPost2010PropOp32
 70
     1
102
RTVSPost2010Prop33
280
     0
102
RTVSPost2010PropOp33
 70
     1
102
RTVSPost2010Prop34
280
     0
102
RTVSPost2010PropOp34
 70
     1
102
RTVSPost2010Prop35
280
     0
102
RTVSPost2010PropOp35
 70
     1
102
RTVSPost2010Prop36
280
     0
102
RTVSPost2010PropOp36
 70
     1
102
RTVSPost2010Prop37
 90
       50
102
RTVSPost2010PropOp37
 70
     1
102
RTVSPost2010Prop38
140
0.0
102
RTVSPost2010PropOp38
 70
     1
102
RTVSPost2010Prop39
140
1.0
102
RTVSPost2010PropOp39
 70
     1
102
RTVSPost2010Prop40
 90
        0
102
RTVSPost2010PropOp40
 70
     1
102
RTVSPost2010Prop41ColorIndex
 90
       18
102
RTVSPost2010Prop41ColorRGB
 90
        0
102
RTVSPost2010PropOp41
 70
     1
102
RTVSPost2010Prop42
 90
       50
102
RTVSPost2010PropOp42
 70
     1
102
RTVSPost2010Prop43
 90
        3
102
RTVSPost2010PropOp43
 70
     1
102
RTVSPost2010Prop44ColorIndex
 90
        5
102
RTVSPost2010Prop44ColorRGB
 90
      255
102
RTVSPost2010PropOp44
 70
     1
102
RTVSPost2010Prop45
280
     0
102
RTVSPost2010PropOp45
 70
     1
102
RTVSPost2010Prop46
 90
       50
102
RTVSPost2010PropOp46
 70
     1
102
RTVSPost2010Prop47
 90
       50
102
RTVSPost2010PropOp47
 70
     1
102
RTVSPost2010Prop48
 90
       50
102
RTVSPost2010PropOp48
 70
     1
102
RTVSPost2010Prop49
280
     0
102
RTVSPost2010PropOp49
 70
     1
102
RTVSPost2010Prop50
 90
       50
102
RTVSPost2010PropOp50
 70
     1
102
RTVSPost2010Prop51ColorIndex
 90
      256
102
RTVSPost2010Prop51ColorRGB
 90
-16777216
102
RTVSPost2010PropOp51
 70
     0
102
RTVSPost2010Prop52
140
1.0
102
RTVSPost2010PropOp52
 70
     0
102
RTVSPost2010Prop53
 90
        2
102
RTVSPost2010PropOp53
 70
     1
102
RTVSPost2010Prop54
  1
strokes_ogs.tif
102
RTVSPost2010PropOp54
 70
     1
102
RTVSPost2010Prop55
280
     0
102
RTVSPost2010PropOp55
 70
     1
102
RTVSPost2010Prop56
140
1.0
102
RTVSPost2010PropOp56
 70
     1
102
RTVSPost2010Prop57
140
1.0
102
RTVSPost2010PropOp57
 70
     1
102
RTVSPropertyOp0
 70
     1
102
RTVSPropertyOp1
 70
     1
102
RTVSPropertyOp2
 70
     1
102
RTVSPropertyOp3
 70
     1
102
RTVSPropertyOp4
 70
     1
102
RTVSPropertyOp5
 70
     1
102
RTVSPropertyOp6
 70
     1
102
RTVSPropertyOp7
 70
     1
102
RTVSPropertyOp8
 70
     1
102
RTVSPropertyOp9
 70
     1
102
RTVSPropertyOp10
 70
     1
102
RTVSPropertyOp11
 70
     1
102
RTVSPropertyOp12
 70
     1
102
RTVSPropertyOp13
 70
     1
102
RTVSPropertyOp14
 70
     1
102
RTVSPropertyOp15
 70
     1
102
RTVSPropertyOp16
 70
     1
102
RTVSPropertyOp17
 70
     1
102
RTVSPropertyOp18
 70
     1
102
RTVSPropertyOp19
 70
     1
102
RTVSPropertyOp20
 70
     1
102
RTVSPropertyOp21
 70
     1
102
RTVSPropertyOp22
 70
     1
102
RTVSPropertyOp23
 70
     1
102
RTVSPropertyOp24
 70
     1
102
RTVSPropertyOp25
 70
     1
102
RTVSPropertyOp26
 70
     1
102
RTVSPropertyOp27
 70
     1
102
RTVSPropertyOp28
 70
     1
102
RTVSPropertyOp29
 70
     1
102
RTVSPropertyOp30
 70
     1
102
RTVSPropertyOp31
 70
     1
102
RTVSPropertyOp32
 70
     1
102
RTVSPropertyOp33
 70
     1
102
RTVSPropertyOp34
 70
     1
102
RTVSPropertyOp35
 70
     1
102
RTVSPropertyOp36
 70
     1
102
RTVSPropertyOp37
 70
     1
102
RTVSPropertyOp38
 70
     1
102
RTVSPropertyOp39
 70
     1
102
RTVSPropertyOp40
 70
     1
102
RTVSPropertyOp41
 70
     1
102
RTVSPropertyOp42
 70
     1
102
RTVSPropertyOp43
 70
     1
102
RTVSPropertyOp44
 70
     1
102
RTVSPropertyOp45
 70
     1
102
RTVSPropertyOp46
 70
     1
102
RTVSPropertyOp47
 70
     1
102
RTVSPropertyOp48
 70
     1
102
RTVSPropertyOp49
 70
     1
102
RTVSPropertyOp50
 70
     1
102
RTVSPropertyOp51
 70
     0
102
RTVSPropertyOp52
 70
     0
102
RTVSPropertyOp53
 70
     1
102
RTVSPropertyOp54
 70
     1
102
RTVSPropertyOp55
 70
     1
102
RTVSPropertyOp56
 70
     1
102
RTVSPropertyOp57
 70
     1
102
RTVSPropertyOp58
 70
     1
102
RTVSPropertyOp59
 70
     1
102
RTVSPropertyOp60
 70
     1
102
RTVSPropertyOp61
 70
     1
102
RTVSPropertyOp62
 70
     1
  0
XRECORD
  5
9C64
102
{ACAD_REACTORS
330
9C63
102
}
330
9C63
100
AcDbXrecord
280
     1
102
RTVSPost2010Prop28
280
     0
102
RTVSPost2010PropOp28
 70
     1
102
RTVSPost2010Prop29
280
     1
102
RTVSPost2010PropOp29
 70
     1
102
RTVSPost2010Prop30
280
     1
102
RTVSPost2010PropOp30
 70
     1
102
RTVSPost2010Prop31
280
     0
102
RTVSPost2010PropOp31
 70
     1
102
RTVSPost2010Prop32
280
     0
102
RTVSPost2010PropOp32
 70
     1
102
RTVSPost2010Prop33
280
     0
102
RTVSPost2010PropOp33
 70
     1
102
RTVSPost2010Prop34
280
     0
102
RTVSPost2010PropOp34
 70
     1
102
RTVSPost2010Prop35
280
     0
102
RTVSPost2010PropOp35
 70
     1
102
RTVSPost2010Prop36
280
     0
102
RTVSPost2010PropOp36
 70
     1
102
RTVSPost2010Prop37
 90
       50
102
RTVSPost2010PropOp37
 70
     1
102
RTVSPost2010Prop38
140
0.0
102
RTVSPost2010PropOp38
 70
     1
102
RTVSPost2010Prop39
140
1.0
102
RTVSPost2010PropOp39
 70
     1
102
RTVSPost2010Prop40
 90
        0
102
RTVSPost2010PropOp40
 70
     1
102
RTVSPost2010Prop41ColorIndex
 90
       18
102
RTVSPost2010Prop41ColorRGB
 90
        0
102
RTVSPost2010PropOp41
 70
     1
102
RTVSPost2010Prop42
 90
       50
102
RTVSPost2010PropOp42
 70
     1
102
RTVSPost2010Prop43
 90
        3
102
RTVSPost2010PropOp43
 70
     1
102
RTVSPost2010Prop44ColorIndex
 90
        5
102
RTVSPost2010Prop44ColorRGB
 90
      255
102
RTVSPost2010PropOp44
 70
     1
102
RTVSPost2010Prop45
280
     0
102
RTVSPost2010PropOp45
 70
     1
102
RTVSPost2010Prop46
 90
       50
102
RTVSPost2010PropOp46
 70
     1
102
RTVSPost2010Prop47
 90
       50
102
RTVSPost2010PropOp47
 70
     1
102
RTVSPost2010Prop48
 90
       50
102
RTVSPost2010PropOp48
 70
     1
102
RTVSPost2010Prop49
280
     0
102
RTVSPost2010PropOp49
 70
     1
102
RTVSPost2010Prop50
 90
       50
102
RTVSPost2010PropOp50
 70
     1
102
RTVSPost2010Prop51ColorIndex
 90
      256
102
RTVSPost2010Prop51ColorRGB
 90
-16777216
102
RTVSPost2010PropOp51
 70
     0
102
RTVSPost2010Prop52
140
1.0
102
RTVSPost2010PropOp52
 70
     0
102
RTVSPost2010Prop53
 90
        2
102
RTVSPost2010PropOp53
 70
     1
102
RTVSPost2010Prop54
  1
strokes_ogs.tif
102
RTVSPost2010PropOp54
 70
     1
102
RTVSPost2010Prop55
280
     0
102
RTVSPost2010PropOp55
 70
     1
102
RTVSPost2010Prop56
140
1.0
102
RTVSPost2010PropOp56
 70
     1
102
RTVSPost2010Prop57
140
1.0
102
RTVSPost2010PropOp57
 70
     1
102
RTVSPropertyOp0
 70
     1
102
RTVSPropertyOp1
 70
     1
102
RTVSPropertyOp2
 70
     1
102
RTVSPropertyOp3
 70
     1
102
RTVSPropertyOp4
 70
     1
102
RTVSPropertyOp5
 70
     1
102
RTVSPropertyOp6
 70
     1
102
RTVSPropertyOp7
 70
     1
102
RTVSPropertyOp8
 70
     1
102
RTVSPropertyOp9
 70
     1
102
RTVSPropertyOp10
 70
     1
102
RTVSPropertyOp11
 70
     1
102
RTVSPropertyOp12
 70
     1
102
RTVSPropertyOp13
 70
     1
102
RTVSPropertyOp14
 70
     1
102
RTVSPropertyOp15
 70
     1
102
RTVSPropertyOp16
 70
     1
102
RTVSPropertyOp17
 70
     1
102
RTVSPropertyOp18
 70
     1
102
RTVSPropertyOp19
 70
     1
102
RTVSPropertyOp20
 70
     1
102
RTVSPropertyOp21
 70
     1
102
RTVSPropertyOp22
 70
     1
102
RTVSPropertyOp23
 70
     1
102
RTVSPropertyOp24
 70
     1
102
RTVSPropertyOp25
 70
     1
102
RTVSPropertyOp26
 70
     1
102
RTVSPropertyOp27
 70
     1
102
RTVSPropertyOp28
 70
     1
102
RTVSPropertyOp29
 70
     1
102
RTVSPropertyOp30
 70
     1
102
RTVSPropertyOp31
 70
     1
102
RTVSPropertyOp32
 70
     1
102
RTVSPropertyOp33
 70
     1
102
RTVSPropertyOp34
 70
     1
102
RTVSPropertyOp35
 70
     1
102
RTVSPropertyOp36
 70
     1
102
RTVSPropertyOp37
 70
     1
102
RTVSPropertyOp38
 70
     1
102
RTVSPropertyOp39
 70
     1
102
RTVSPropertyOp40
 70
     1
102
RTVSPropertyOp41
 70
     1
102
RTVSPropertyOp42
 70
     1
102
RTVSPropertyOp43
 70
     1
102
RTVSPropertyOp44
 70
     1
102
RTVSPropertyOp45
 70
     1
102
RTVSPropertyOp46
 70
     1
102
RTVSPropertyOp47
 70
     1
102
RTVSPropertyOp48
 70
     1
102
RTVSPropertyOp49
 70
     1
102
RTVSPropertyOp50
 70
     1
102
RTVSPropertyOp51
 70
     0
102
RTVSPropertyOp52
 70
     0
102
RTVSPropertyOp53
 70
     1
102
RTVSPropertyOp54
 70
     1
102
RTVSPropertyOp55
 70
     1
102
RTVSPropertyOp56
 70
     1
102
RTVSPropertyOp57
 70
     1
102
RTVSPropertyOp58
 70
     1
102
RTVSPropertyOp59
 70
     1
102
RTVSPropertyOp60
 70
     1
102
RTVSPropertyOp61
 70
     1
102
RTVSPropertyOp62
 70
     1
  0
XRECORD
  5
9C56
102
{ACAD_REACTORS
330
9C55
102
}
330
9C55
100
AcDbXrecord
280
     1
102
RTVSPost2010Prop28
280
     0
102
RTVSPost2010PropOp28
 70
     1
102
RTVSPost2010Prop29
280
     1
102
RTVSPost2010PropOp29
 70
     1
102
RTVSPost2010Prop30
280
     1
102
RTVSPost2010PropOp30
 70
     1
102
RTVSPost2010Prop31
280
     0
102
RTVSPost2010PropOp31
 70
     1
102
RTVSPost2010Prop32
280
     0
102
RTVSPost2010PropOp32
 70
     1
102
RTVSPost2010Prop33
280
     0
102
RTVSPost2010PropOp33
 70
     1
102
RTVSPost2010Prop34
280
     0
102
RTVSPost2010PropOp34
 70
     1
102
RTVSPost2010Prop35
280
     0
102
RTVSPost2010PropOp35
 70
     1
102
RTVSPost2010Prop36
280
     0
102
RTVSPost2010PropOp36
 70
     1
102
RTVSPost2010Prop37
 90
       50
102
RTVSPost2010PropOp37
 70
     1
102
RTVSPost2010Prop38
140
0.0
102
RTVSPost2010PropOp38
 70
     1
102
RTVSPost2010Prop39
140
1.0
102
RTVSPost2010PropOp39
 70
     1
102
RTVSPost2010Prop40
 90
        0
102
RTVSPost2010PropOp40
 70
     1
102
RTVSPost2010Prop41ColorIndex
 90
       18
102
RTVSPost2010Prop41ColorRGB
 90
        0
102
RTVSPost2010PropOp41
 70
     1
102
RTVSPost2010Prop42
 90
       50
102
RTVSPost2010PropOp42
 70
     1
102
RTVSPost2010Prop43
 90
        3
102
RTVSPost2010PropOp43
 70
     1
102
RTVSPost2010Prop44ColorIndex
 90
        5
102
RTVSPost2010Prop44ColorRGB
 90
      255
102
RTVSPost2010PropOp44
 70
     1
102
RTVSPost2010Prop45
280
     0
102
RTVSPost2010PropOp45
 70
     1
102
RTVSPost2010Prop46
 90
       50
102
RTVSPost2010PropOp46
 70
     1
102
RTVSPost2010Prop47
 90
       50
102
RTVSPost2010PropOp47
 70
     1
102
RTVSPost2010Prop48
 90
       50
102
RTVSPost2010PropOp48
 70
     1
102
RTVSPost2010Prop49
280
     0
102
RTVSPost2010PropOp49
 70
     1
102
RTVSPost2010Prop50
 90
       50
102
RTVSPost2010PropOp50
 70
     1
102
RTVSPost2010Prop51ColorIndex
 90
      256
102
RTVSPost2010Prop51ColorRGB
 90
-16777216
102
RTVSPost2010PropOp51
 70
     0
102
RTVSPost2010Prop52
140
1.0
102
RTVSPost2010PropOp52
 70
     0
102
RTVSPost2010Prop53
 90
        2
102
RTVSPost2010PropOp53
 70
     1
102
RTVSPost2010Prop54
  1
strokes_ogs.tif
102
RTVSPost2010PropOp54
 70
     1
102
RTVSPost2010Prop55
280
     0
102
RTVSPost2010PropOp55
 70
     1
102
RTVSPost2010Prop56
140
1.0
102
RTVSPost2010PropOp56
 70
     1
102
RTVSPost2010Prop57
140
1.0
102
RTVSPost2010PropOp57
 70
     1
102
RTVSPropertyOp0
 70
     1
102
RTVSPropertyOp1
 70
     1
102
RTVSPropertyOp2
 70
     1
102
RTVSPropertyOp3
 70
     1
102
RTVSPropertyOp4
 70
     1
102
RTVSPropertyOp5
 70
     1
102
RTVSPropertyOp6
 70
     1
102
RTVSPropertyOp7
 70
     1
102
RTVSPropertyOp8
 70
     1
102
RTVSPropertyOp9
 70
     1
102
RTVSPropertyOp10
 70
     1
102
RTVSPropertyOp11
 70
     1
102
RTVSPropertyOp12
 70
     1
102
RTVSPropertyOp13
 70
     1
102
RTVSPropertyOp14
 70
     1
102
RTVSPropertyOp15
 70
     1
102
RTVSPropertyOp16
 70
     1
102
RTVSPropertyOp17
 70
     1
102
RTVSPropertyOp18
 70
     1
102
RTVSPropertyOp19
 70
     1
102
RTVSPropertyOp20
 70
     1
102
RTVSPropertyOp21
 70
     1
102
RTVSPropertyOp22
 70
     1
102
RTVSPropertyOp23
 70
     1
102
RTVSPropertyOp24
 70
     1
102
RTVSPropertyOp25
 70
     1
102
RTVSPropertyOp26
 70
     1
102
RTVSPropertyOp27
 70
     1
102
RTVSPropertyOp28
 70
     1
102
RTVSPropertyOp29
 70
     1
102
RTVSPropertyOp30
 70
     1
102
RTVSPropertyOp31
 70
     1
102
RTVSPropertyOp32
 70
     1
102
RTVSPropertyOp33
 70
     1
102
RTVSPropertyOp34
 70
     1
102
RTVSPropertyOp35
 70
     1
102
RTVSPropertyOp36
 70
     1
102
RTVSPropertyOp37
 70
     1
102
RTVSPropertyOp38
 70
     1
102
RTVSPropertyOp39
 70
     1
102
RTVSPropertyOp40
 70
     1
102
RTVSPropertyOp41
 70
     1
102
RTVSPropertyOp42
 70
     1
102
RTVSPropertyOp43
 70
     1
102
RTVSPropertyOp44
 70
     1
102
RTVSPropertyOp45
 70
     1
102
RTVSPropertyOp46
 70
     1
102
RTVSPropertyOp47
 70
     1
102
RTVSPropertyOp48
 70
     1
102
RTVSPropertyOp49
 70
     1
102
RTVSPropertyOp50
 70
     1
102
RTVSPropertyOp51
 70
     0
102
RTVSPropertyOp52
 70
     0
102
RTVSPropertyOp53
 70
     1
102
RTVSPropertyOp54
 70
     1
102
RTVSPropertyOp55
 70
     1
102
RTVSPropertyOp56
 70
     1
102
RTVSPropertyOp57
 70
     1
102
RTVSPropertyOp58
 70
     1
102
RTVSPropertyOp59
 70
     1
102
RTVSPropertyOp60
 70
     1
102
RTVSPropertyOp61
 70
     1
102
RTVSPropertyOp62
 70
     1
  0
XRECORD
  5
9C5A
102
{ACAD_REACTORS
330
9C59
102
}
330
9C59
100
AcDbXrecord
280
     1
102
RTVSPost2010Prop28
280
     0
102
RTVSPost2010PropOp28
 70
     1
102
RTVSPost2010Prop29
280
     1
102
RTVSPost2010PropOp29
 70
     1
102
RTVSPost2010Prop30
280
     1
102
RTVSPost2010PropOp30
 70
     1
102
RTVSPost2010Prop31
280
     0
102
RTVSPost2010PropOp31
 70
     1
102
RTVSPost2010Prop32
280
     0
102
RTVSPost2010PropOp32
 70
     1
102
RTVSPost2010Prop33
280
     0
102
RTVSPost2010PropOp33
 70
     1
102
RTVSPost2010Prop34
280
     0
102
RTVSPost2010PropOp34
 70
     1
102
RTVSPost2010Prop35
280
     0
102
RTVSPost2010PropOp35
 70
     1
102
RTVSPost2010Prop36
280
     0
102
RTVSPost2010PropOp36
 70
     1
102
RTVSPost2010Prop37
 90
       50
102
RTVSPost2010PropOp37
 70
     1
102
RTVSPost2010Prop38
140
0.0
102
RTVSPost2010PropOp38
 70
     1
102
RTVSPost2010Prop39
140
1.0
102
RTVSPost2010PropOp39
 70
     1
102
RTVSPost2010Prop40
 90
        0
102
RTVSPost2010PropOp40
 70
     1
102
RTVSPost2010Prop41ColorIndex
 90
       18
102
RTVSPost2010Prop41ColorRGB
 90
        0
102
RTVSPost2010PropOp41
 70
     1
102
RTVSPost2010Prop42
 90
       50
102
RTVSPost2010PropOp42
 70
     1
102
RTVSPost2010Prop43
 90
        3
102
RTVSPost2010PropOp43
 70
     1
102
RTVSPost2010Prop44ColorIndex
 90
        5
102
RTVSPost2010Prop44ColorRGB
 90
      255
102
RTVSPost2010PropOp44
 70
     1
102
RTVSPost2010Prop45
280
     0
102
RTVSPost2010PropOp45
 70
     1
102
RTVSPost2010Prop46
 90
       50
102
RTVSPost2010PropOp46
 70
     1
102
RTVSPost2010Prop47
 90
       50
102
RTVSPost2010PropOp47
 70
     1
102
RTVSPost2010Prop48
 90
       50
102
RTVSPost2010PropOp48
 70
     1
102
RTVSPost2010Prop49
280
     0
102
RTVSPost2010PropOp49
 70
     1
102
RTVSPost2010Prop50
 90
       50
102
RTVSPost2010PropOp50
 70
     1
102
RTVSPost2010Prop51ColorIndex
 90
      256
102
RTVSPost2010Prop51ColorRGB
 90
-16777216
102
RTVSPost2010PropOp51
 70
     0
102
RTVSPost2010Prop52
140
1.0
102
RTVSPost2010PropOp52
 70
     0
102
RTVSPost2010Prop53
 90
        2
102
RTVSPost2010PropOp53
 70
     1
102
RTVSPost2010Prop54
  1
strokes_ogs.tif
102
RTVSPost2010PropOp54
 70
     1
102
RTVSPost2010Prop55
280
     0
102
RTVSPost2010PropOp55
 70
     1
102
RTVSPost2010Prop56
140
1.0
102
RTVSPost2010PropOp56
 70
     1
102
RTVSPost2010Prop57
140
1.0
102
RTVSPost2010PropOp57
 70
     1
102
RTVSPropertyOp0
 70
     1
102
RTVSPropertyOp1
 70
     1
102
RTVSPropertyOp2
 70
     1
102
RTVSPropertyOp3
 70
     1
102
RTVSPropertyOp4
 70
     1
102
RTVSPropertyOp5
 70
     1
102
RTVSPropertyOp6
 70
     1
102
RTVSPropertyOp7
 70
     1
102
RTVSPropertyOp8
 70
     1
102
RTVSPropertyOp9
 70
     1
102
RTVSPropertyOp10
 70
     1
102
RTVSPropertyOp11
 70
     1
102
RTVSPropertyOp12
 70
     1
102
RTVSPropertyOp13
 70
     1
102
RTVSPropertyOp14
 70
     1
102
RTVSPropertyOp15
 70
     1
102
RTVSPropertyOp16
 70
     1
102
RTVSPropertyOp17
 70
     1
102
RTVSPropertyOp18
 70
     1
102
RTVSPropertyOp19
 70
     1
102
RTVSPropertyOp20
 70
     1
102
RTVSPropertyOp21
 70
     1
102
RTVSPropertyOp22
 70
     1
102
RTVSPropertyOp23
 70
     1
102
RTVSPropertyOp24
 70
     1
102
RTVSPropertyOp25
 70
     1
102
RTVSPropertyOp26
 70
     1
102
RTVSPropertyOp27
 70
     1
102
RTVSPropertyOp28
 70
     1
102
RTVSPropertyOp29
 70
     1
102
RTVSPropertyOp30
 70
     1
102
RTVSPropertyOp31
 70
     1
102
RTVSPropertyOp32
 70
     1
102
RTVSPropertyOp33
 70
     1
102
RTVSPropertyOp34
 70
     1
102
RTVSPropertyOp35
 70
     1
102
RTVSPropertyOp36
 70
     1
102
RTVSPropertyOp37
 70
     1
102
RTVSPropertyOp38
 70
     1
102
RTVSPropertyOp39
 70
     1
102
RTVSPropertyOp40
 70
     1
102
RTVSPropertyOp41
 70
     1
102
RTVSPropertyOp42
 70
     1
102
RTVSPropertyOp43
 70
     1
102
RTVSPropertyOp44
 70
     1
102
RTVSPropertyOp45
 70
     1
102
RTVSPropertyOp46
 70
     1
102
RTVSPropertyOp47
 70
     1
102
RTVSPropertyOp48
 70
     1
102
RTVSPropertyOp49
 70
     1
102
RTVSPropertyOp50
 70
     1
102
RTVSPropertyOp51
 70
     0
102
RTVSPropertyOp52
 70
     0
102
RTVSPropertyOp53
 70
     1
102
RTVSPropertyOp54
 70
     1
102
RTVSPropertyOp55
 70
     1
102
RTVSPropertyOp56
 70
     1
102
RTVSPropertyOp57
 70
     1
102
RTVSPropertyOp58
 70
     1
102
RTVSPropertyOp59
 70
     1
102
RTVSPropertyOp60
 70
     1
102
RTVSPropertyOp61
 70
     1
102
RTVSPropertyOp62
 70
     1
  0
XRECORD
  5
9C74
102
{ACAD_REACTORS
330
9C73
102
}
330
9C73
100
AcDbXrecord
280
     1
102
RTVSPost2010Prop28
280
     0
102
RTVSPost2010PropOp28
 70
     1
102
RTVSPost2010Prop29
280
     1
102
RTVSPost2010PropOp29
 70
     1
102
RTVSPost2010Prop30
280
     1
102
RTVSPost2010PropOp30
 70
     1
102
RTVSPost2010Prop31
280
     0
102
RTVSPost2010PropOp31
 70
     1
102
RTVSPost2010Prop32
280
     0
102
RTVSPost2010PropOp32
 70
     1
102
RTVSPost2010Prop33
280
     0
102
RTVSPost2010PropOp33
 70
     1
102
RTVSPost2010Prop34
280
     0
102
RTVSPost2010PropOp34
 70
     1
102
RTVSPost2010Prop35
280
     0
102
RTVSPost2010PropOp35
 70
     1
102
RTVSPost2010Prop36
280
     0
102
RTVSPost2010PropOp36
 70
     1
102
RTVSPost2010Prop37
 90
       50
102
RTVSPost2010PropOp37
 70
     0
102
RTVSPost2010Prop38
140
0.0
102
RTVSPost2010PropOp38
 70
     0
102
RTVSPost2010Prop39
140
1.0
102
RTVSPost2010PropOp39
 70
     0
102
RTVSPost2010Prop40
 90
        0
102
RTVSPost2010PropOp40
 70
     0
102
RTVSPost2010Prop41ColorIndex
 90
       18
102
RTVSPost2010Prop41ColorRGB
 90
        0
102
RTVSPost2010PropOp41
 70
     0
102
RTVSPost2010Prop42
 90
       50
102
RTVSPost2010PropOp42
 70
     0
102
RTVSPost2010Prop43
 90
        3
102
RTVSPost2010PropOp43
 70
     0
102
RTVSPost2010Prop44ColorIndex
 90
        5
102
RTVSPost2010Prop44ColorRGB
 90
      255
102
RTVSPost2010PropOp44
 70
     0
102
RTVSPost2010Prop45
280
     0
102
RTVSPost2010PropOp45
 70
     1
102
RTVSPost2010Prop46
 90
       50
102
RTVSPost2010PropOp46
 70
     0
102
RTVSPost2010Prop47
 90
       50
102
RTVSPost2010PropOp47
 70
     0
102
RTVSPost2010Prop48
 90
       50
102
RTVSPost2010PropOp48
 70
     0
102
RTVSPost2010Prop49
280
     0
102
RTVSPost2010PropOp49
 70
     1
102
RTVSPost2010Prop50
 90
       50
102
RTVSPost2010PropOp50
 70
     0
102
RTVSPost2010Prop51ColorIndex
 90
      256
102
RTVSPost2010Prop51ColorRGB
 90
-16777216
102
RTVSPost2010PropOp51
 70
     0
102
RTVSPost2010Prop52
140
1.0
102
RTVSPost2010PropOp52
 70
     0
102
RTVSPost2010Prop53
 90
        2
102
RTVSPost2010PropOp53
 70
     0
102
RTVSPost2010Prop54
  1
strokes_ogs.tif
102
RTVSPost2010PropOp54
 70
     0
102
RTVSPost2010Prop55
280
     0
102
RTVSPost2010PropOp55
 70
     1
102
RTVSPost2010Prop56
140
1.0
102
RTVSPost2010PropOp56
 70
     0
102
RTVSPost2010Prop57
140
1.0
102
RTVSPost2010PropOp57
 70
     0
102
RTVSPropertyOp0
 70
     0
102
RTVSPropertyOp1
 70
     0
102
RTVSPropertyOp2
 70
     0
102
RTVSPropertyOp3
 70
     0
102
RTVSPropertyOp4
 70
     0
102
RTVSPropertyOp5
 70
     0
102
RTVSPropertyOp6
 70
     0
102
RTVSPropertyOp7
 70
     0
102
RTVSPropertyOp8
 70
     0
102
RTVSPropertyOp9
 70
     0
102
RTVSPropertyOp10
 70
     0
102
RTVSPropertyOp11
 70
     0
102
RTVSPropertyOp12
 70
     0
102
RTVSPropertyOp13
 70
     0
102
RTVSPropertyOp14
 70
     2
102
RTVSPropertyOp15
 70
     0
102
RTVSPropertyOp16
 70
     0
102
RTVSPropertyOp17
 70
     0
102
RTVSPropertyOp18
 70
     0
102
RTVSPropertyOp19
 70
     0
102
RTVSPropertyOp20
 70
     0
102
RTVSPropertyOp21
 70
     0
102
RTVSPropertyOp22
 70
     0
102
RTVSPropertyOp23
 70
     0
102
RTVSPropertyOp24
 70
     0
102
RTVSPropertyOp25
 70
     0
102
RTVSPropertyOp26
 70
     0
102
RTVSPropertyOp27
 70
     0
102
RTVSPropertyOp28
 70
     1
102
RTVSPropertyOp29
 70
     1
102
RTVSPropertyOp30
 70
     1
102
RTVSPropertyOp31
 70
     1
102
RTVSPropertyOp32
 70
     1
102
RTVSPropertyOp33
 70
     1
102
RTVSPropertyOp34
 70
     1
102
RTVSPropertyOp35
 70
     1
102
RTVSPropertyOp36
 70
     1
102
RTVSPropertyOp37
 70
     0
102
RTVSPropertyOp38
 70
     0
102
RTVSPropertyOp39
 70
     0
102
RTVSPropertyOp40
 70
     0
102
RTVSPropertyOp41
 70
     0
102
RTVSPropertyOp42
 70
     0
102
RTVSPropertyOp43
 70
     0
102
RTVSPropertyOp44
 70
     0
102
RTVSPropertyOp45
 70
     1
102
RTVSPropertyOp46
 70
     0
102
RTVSPropertyOp47
 70
     0
102
RTVSPropertyOp48
 70
     0
102
RTVSPropertyOp49
 70
     1
102
RTVSPropertyOp50
 70
     0
102
RTVSPropertyOp51
 70
     0
102
RTVSPropertyOp52
 70
     0
102
RTVSPropertyOp53
 70
     0
102
RTVSPropertyOp54
 70
     0
102
RTVSPropertyOp55
 70
     1
102
RTVSPropertyOp56
 70
     0
102
RTVSPropertyOp57
 70
     0
102
RTVSPropertyOp58
 70
     0
102
RTVSPropertyOp59
 70
     0
102
RTVSPropertyOp60
 70
     0
102
RTVSPropertyOp61
 70
     0
102
RTVSPropertyOp62
 70
     0
  0
XRECORD
  5
9C62
102
{ACAD_REACTORS
330
9C61
102
}
330
9C61
100
AcDbXrecord
280
     1
102
RTVSPost2010Prop28
280
     0
102
RTVSPost2010PropOp28
 70
     1
102
RTVSPost2010Prop29
280
     1
102
RTVSPost2010PropOp29
 70
     1
102
RTVSPost2010Prop30
280
     1
102
RTVSPost2010PropOp30
 70
     1
102
RTVSPost2010Prop31
280
     0
102
RTVSPost2010PropOp31
 70
     1
102
RTVSPost2010Prop32
280
     0
102
RTVSPost2010PropOp32
 70
     1
102
RTVSPost2010Prop33
280
     0
102
RTVSPost2010PropOp33
 70
     1
102
RTVSPost2010Prop34
280
     0
102
RTVSPost2010PropOp34
 70
     1
102
RTVSPost2010Prop35
280
     0
102
RTVSPost2010PropOp35
 70
     1
102
RTVSPost2010Prop36
280
     0
102
RTVSPost2010PropOp36
 70
     1
102
RTVSPost2010Prop37
 90
       50
102
RTVSPost2010PropOp37
 70
     1
102
RTVSPost2010Prop38
140
0.0
102
RTVSPost2010PropOp38
 70
     1
102
RTVSPost2010Prop39
140
1.0
102
RTVSPost2010PropOp39
 70
     1
102
RTVSPost2010Prop40
 90
        0
102
RTVSPost2010PropOp40
 70
     1
102
RTVSPost2010Prop41ColorIndex
 90
       18
102
RTVSPost2010Prop41ColorRGB
 90
        0
102
RTVSPost2010PropOp41
 70
     1
102
RTVSPost2010Prop42
 90
       50
102
RTVSPost2010PropOp42
 70
     1
102
RTVSPost2010Prop43
 90
        3
102
RTVSPost2010PropOp43
 70
     1
102
RTVSPost2010Prop44ColorIndex
 90
        5
102
RTVSPost2010Prop44ColorRGB
 90
      255
102
RTVSPost2010PropOp44
 70
     1
102
RTVSPost2010Prop45
280
     0
102
RTVSPost2010PropOp45
 70
     1
102
RTVSPost2010Prop46
 90
       50
102
RTVSPost2010PropOp46
 70
     1
102
RTVSPost2010Prop47
 90
       50
102
RTVSPost2010PropOp47
 70
     1
102
RTVSPost2010Prop48
 90
       50
102
RTVSPost2010PropOp48
 70
     1
102
RTVSPost2010Prop49
280
     0
102
RTVSPost2010PropOp49
 70
     1
102
RTVSPost2010Prop50
 90
       50
102
RTVSPost2010PropOp50
 70
     1
102
RTVSPost2010Prop51ColorIndex
 90
      256
102
RTVSPost2010Prop51ColorRGB
 90
-16777216
102
RTVSPost2010PropOp51
 70
     0
102
RTVSPost2010Prop52
140
1.0
102
RTVSPost2010PropOp52
 70
     0
102
RTVSPost2010Prop53
 90
        2
102
RTVSPost2010PropOp53
 70
     1
102
RTVSPost2010Prop54
  1
strokes_ogs.tif
102
RTVSPost2010PropOp54
 70
     1
102
RTVSPost2010Prop55
280
     0
102
RTVSPost2010PropOp55
 70
     1
102
RTVSPost2010Prop56
140
1.0
102
RTVSPost2010PropOp56
 70
     1
102
RTVSPost2010Prop57
140
1.0
102
RTVSPost2010PropOp57
 70
     1
102
RTVSPropertyOp0
 70
     1
102
RTVSPropertyOp1
 70
     1
102
RTVSPropertyOp2
 70
     1
102
RTVSPropertyOp3
 70
     1
102
RTVSPropertyOp4
 70
     1
102
RTVSPropertyOp5
 70
     1
102
RTVSPropertyOp6
 70
     1
102
RTVSPropertyOp7
 70
     1
102
RTVSPropertyOp8
 70
     1
102
RTVSPropertyOp9
 70
     1
102
RTVSPropertyOp10
 70
     1
102
RTVSPropertyOp11
 70
     1
102
RTVSPropertyOp12
 70
     1
102
RTVSPropertyOp13
 70
     1
102
RTVSPropertyOp14
 70
     1
102
RTVSPropertyOp15
 70
     1
102
RTVSPropertyOp16
 70
     1
102
RTVSPropertyOp17
 70
     1
102
RTVSPropertyOp18
 70
     1
102
RTVSPropertyOp19
 70
     1
102
RTVSPropertyOp20
 70
     1
102
RTVSPropertyOp21
 70
     1
102
RTVSPropertyOp22
 70
     1
102
RTVSPropertyOp23
 70
     1
102
RTVSPropertyOp24
 70
     1
102
RTVSPropertyOp25
 70
     1
102
RTVSPropertyOp26
 70
     1
102
RTVSPropertyOp27
 70
     1
102
RTVSPropertyOp28
 70
     1
102
RTVSPropertyOp29
 70
     1
102
RTVSPropertyOp30
 70
     1
102
RTVSPropertyOp31
 70
     1
102
RTVSPropertyOp32
 70
     1
102
RTVSPropertyOp33
 70
     1
102
RTVSPropertyOp34
 70
     1
102
RTVSPropertyOp35
 70
     1
102
RTVSPropertyOp36
 70
     1
102
RTVSPropertyOp37
 70
     1
102
RTVSPropertyOp38
 70
     1
102
RTVSPropertyOp39
 70
     1
102
RTVSPropertyOp40
 70
     1
102
RTVSPropertyOp41
 70
     1
102
RTVSPropertyOp42
 70
     1
102
RTVSPropertyOp43
 70
     1
102
RTVSPropertyOp44
 70
     1
102
RTVSPropertyOp45
 70
     1
102
RTVSPropertyOp46
 70
     1
102
RTVSPropertyOp47
 70
     1
102
RTVSPropertyOp48
 70
     1
102
RTVSPropertyOp49
 70
     1
102
RTVSPropertyOp50
 70
     1
102
RTVSPropertyOp51
 70
     0
102
RTVSPropertyOp52
 70
     0
102
RTVSPropertyOp53
 70
     1
102
RTVSPropertyOp54
 70
     1
102
RTVSPropertyOp55
 70
     1
102
RTVSPropertyOp56
 70
     1
102
RTVSPropertyOp57
 70
     1
102
RTVSPropertyOp58
 70
     1
102
RTVSPropertyOp59
 70
     1
102
RTVSPropertyOp60
 70
     1
102
RTVSPropertyOp61
 70
     1
102
RTVSPropertyOp62
 70
     1
  0
XRECORD
  5
9C46
102
{ACAD_REACTORS
330
9C45
102
}
330
9C45
100
AcDbXrecord
280
     1
102
RTVSPost2010Prop28
280
     0
102
RTVSPost2010PropOp28
 70
     1
102
RTVSPost2010Prop29
280
     1
102
RTVSPost2010PropOp29
 70
     1
102
RTVSPost2010Prop30
280
     1
102
RTVSPost2010PropOp30
 70
     1
102
RTVSPost2010Prop31
280
     0
102
RTVSPost2010PropOp31
 70
     1
102
RTVSPost2010Prop32
280
     0
102
RTVSPost2010PropOp32
 70
     1
102
RTVSPost2010Prop33
280
     0
102
RTVSPost2010PropOp33
 70
     1
102
RTVSPost2010Prop34
280
     0
102
RTVSPost2010PropOp34
 70
     1
102
RTVSPost2010Prop35
280
     0
102
RTVSPost2010PropOp35
 70
     1
102
RTVSPost2010Prop36
280
     0
102
RTVSPost2010PropOp36
 70
     1
102
RTVSPost2010Prop37
 90
       50
102
RTVSPost2010PropOp37
 70
     1
102
RTVSPost2010Prop38
140
0.0
102
RTVSPost2010PropOp38
 70
     1
102
RTVSPost2010Prop39
140
1.0
102
RTVSPost2010PropOp39
 70
     1
102
RTVSPost2010Prop40
 90
        0
102
RTVSPost2010PropOp40
 70
     1
102
RTVSPost2010Prop41ColorIndex
 90
       18
102
RTVSPost2010Prop41ColorRGB
 90
        0
102
RTVSPost2010PropOp41
 70
     1
102
RTVSPost2010Prop42
 90
       50
102
RTVSPost2010PropOp42
 70
     1
102
RTVSPost2010Prop43
 90
        3
102
RTVSPost2010PropOp43
 70
     1
102
RTVSPost2010Prop44ColorIndex
 90
        5
102
RTVSPost2010Prop44ColorRGB
 90
      255
102
RTVSPost2010PropOp44
 70
     1
102
RTVSPost2010Prop45
280
     0
102
RTVSPost2010PropOp45
 70
     1
102
RTVSPost2010Prop46
 90
       50
102
RTVSPost2010PropOp46
 70
     1
102
RTVSPost2010Prop47
 90
       50
102
RTVSPost2010PropOp47
 70
     1
102
RTVSPost2010Prop48
 90
       50
102
RTVSPost2010PropOp48
 70
     1
102
RTVSPost2010Prop49
280
     0
102
RTVSPost2010PropOp49
 70
     1
102
RTVSPost2010Prop50
 90
       50
102
RTVSPost2010PropOp50
 70
     1
102
RTVSPost2010Prop51ColorIndex
 90
      256
102
RTVSPost2010Prop51ColorRGB
 90
-16777216
102
RTVSPost2010PropOp51
 70
     0
102
RTVSPost2010Prop52
140
1.0
102
RTVSPost2010PropOp52
 70
     0
102
RTVSPost2010Prop53
 90
        2
102
RTVSPost2010PropOp53
 70
     1
102
RTVSPost2010Prop54
  1
strokes_ogs.tif
102
RTVSPost2010PropOp54
 70
     1
102
RTVSPost2010Prop55
280
     0
102
RTVSPost2010PropOp55
 70
     1
102
RTVSPost2010Prop56
140
1.0
102
RTVSPost2010PropOp56
 70
     1
102
RTVSPost2010Prop57
140
1.0
102
RTVSPost2010PropOp57
 70
     1
102
RTVSPropertyOp0
 70
     1
102
RTVSPropertyOp1
 70
     1
102
RTVSPropertyOp2
 70
     1
102
RTVSPropertyOp3
 70
     1
102
RTVSPropertyOp4
 70
     1
102
RTVSPropertyOp5
 70
     1
102
RTVSPropertyOp6
 70
     1
102
RTVSPropertyOp7
 70
     1
102
RTVSPropertyOp8
 70
     1
102
RTVSPropertyOp9
 70
     1
102
RTVSPropertyOp10
 70
     1
102
RTVSPropertyOp11
 70
     1
102
RTVSPropertyOp12
 70
     1
102
RTVSPropertyOp13
 70
     1
102
RTVSPropertyOp14
 70
     1
102
RTVSPropertyOp15
 70
     1
102
RTVSPropertyOp16
 70
     1
102
RTVSPropertyOp17
 70
     1
102
RTVSPropertyOp18
 70
     1
102
RTVSPropertyOp19
 70
     1
102
RTVSPropertyOp20
 70
     1
102
RTVSPropertyOp21
 70
     1
102
RTVSPropertyOp22
 70
     1
102
RTVSPropertyOp23
 70
     1
102
RTVSPropertyOp24
 70
     1
102
RTVSPropertyOp25
 70
     1
102
RTVSPropertyOp26
 70
     1
102
RTVSPropertyOp27
 70
     1
102
RTVSPropertyOp28
 70
     1
102
RTVSPropertyOp29
 70
     1
102
RTVSPropertyOp30
 70
     1
102
RTVSPropertyOp31
 70
     1
102
RTVSPropertyOp32
 70
     1
102
RTVSPropertyOp33
 70
     1
102
RTVSPropertyOp34
 70
     1
102
RTVSPropertyOp35
 70
     1
102
RTVSPropertyOp36
 70
     1
102
RTVSPropertyOp37
 70
     1
102
RTVSPropertyOp38
 70
     1
102
RTVSPropertyOp39
 70
     1
102
RTVSPropertyOp40
 70
     1
102
RTVSPropertyOp41
 70
     1
102
RTVSPropertyOp42
 70
     1
102
RTVSPropertyOp43
 70
     1
102
RTVSPropertyOp44
 70
     1
102
RTVSPropertyOp45
 70
     1
102
RTVSPropertyOp46
 70
     1
102
RTVSPropertyOp47
 70
     1
102
RTVSPropertyOp48
 70
     1
102
RTVSPropertyOp49
 70
     1
102
RTVSPropertyOp50
 70
     1
102
RTVSPropertyOp51
 70
     0
102
RTVSPropertyOp52
 70
     0
102
RTVSPropertyOp53
 70
     1
102
RTVSPropertyOp54
 70
     1
102
RTVSPropertyOp55
 70
     1
102
RTVSPropertyOp56
 70
     1
102
RTVSPropertyOp57
 70
     1
102
RTVSPropertyOp58
 70
     1
102
RTVSPropertyOp59
 70
     1
102
RTVSPropertyOp60
 70
     1
102
RTVSPropertyOp61
 70
     1
102
RTVSPropertyOp62
 70
     1
  0
XRECORD
  5
9C48
102
{ACAD_REACTORS
330
9C47
102
}
330
9C47
100
AcDbXrecord
280
     1
102
RTVSPost2010Prop28
280
     0
102
RTVSPost2010PropOp28
 70
     1
102
RTVSPost2010Prop29
280
     1
102
RTVSPost2010PropOp29
 70
     1
102
RTVSPost2010Prop30
280
     1
102
RTVSPost2010PropOp30
 70
     1
102
RTVSPost2010Prop31
280
     0
102
RTVSPost2010PropOp31
 70
     1
102
RTVSPost2010Prop32
280
     0
102
RTVSPost2010PropOp32
 70
     1
102
RTVSPost2010Prop33
280
     0
102
RTVSPost2010PropOp33
 70
     1
102
RTVSPost2010Prop34
280
     0
102
RTVSPost2010PropOp34
 70
     1
102
RTVSPost2010Prop35
280
     0
102
RTVSPost2010PropOp35
 70
     1
102
RTVSPost2010Prop36
280
     0
102
RTVSPost2010PropOp36
 70
     1
102
RTVSPost2010Prop37
 90
       50
102
RTVSPost2010PropOp37
 70
     1
102
RTVSPost2010Prop38
140
0.0
102
RTVSPost2010PropOp38
 70
     1
102
RTVSPost2010Prop39
140
1.0
102
RTVSPost2010PropOp39
 70
     1
102
RTVSPost2010Prop40
 90
        0
102
RTVSPost2010PropOp40
 70
     1
102
RTVSPost2010Prop41ColorIndex
 90
       18
102
RTVSPost2010Prop41ColorRGB
 90
        0
102
RTVSPost2010PropOp41
 70
     1
102
RTVSPost2010Prop42
 90
       50
102
RTVSPost2010PropOp42
 70
     1
102
RTVSPost2010Prop43
 90
        3
102
RTVSPost2010PropOp43
 70
     1
102
RTVSPost2010Prop44ColorIndex
 90
        5
102
RTVSPost2010Prop44ColorRGB
 90
      255
102
RTVSPost2010PropOp44
 70
     1
102
RTVSPost2010Prop45
280
     0
102
RTVSPost2010PropOp45
 70
     1
102
RTVSPost2010Prop46
 90
       50
102
RTVSPost2010PropOp46
 70
     1
102
RTVSPost2010Prop47
 90
       50
102
RTVSPost2010PropOp47
 70
     1
102
RTVSPost2010Prop48
 90
       50
102
RTVSPost2010PropOp48
 70
     1
102
RTVSPost2010Prop49
280
     0
102
RTVSPost2010PropOp49
 70
     1
102
RTVSPost2010Prop50
 90
       50
102
RTVSPost2010PropOp50
 70
     1
102
RTVSPost2010Prop51ColorIndex
 90
      256
102
RTVSPost2010Prop51ColorRGB
 90
-16777216
102
RTVSPost2010PropOp51
 70
     0
102
RTVSPost2010Prop52
140
1.0
102
RTVSPost2010PropOp52
 70
     0
102
RTVSPost2010Prop53
 90
        2
102
RTVSPost2010PropOp53
 70
     1
102
RTVSPost2010Prop54
  1
strokes_ogs.tif
102
RTVSPost2010PropOp54
 70
     1
102
RTVSPost2010Prop55
280
     0
102
RTVSPost2010PropOp55
 70
     1
102
RTVSPost2010Prop56
140
1.0
102
RTVSPost2010PropOp56
 70
     1
102
RTVSPost2010Prop57
140
1.0
102
RTVSPost2010PropOp57
 70
     1
102
RTVSPropertyOp0
 70
     1
102
RTVSPropertyOp1
 70
     1
102
RTVSPropertyOp2
 70
     1
102
RTVSPropertyOp3
 70
     1
102
RTVSPropertyOp4
 70
     1
102
RTVSPropertyOp5
 70
     1
102
RTVSPropertyOp6
 70
     1
102
RTVSPropertyOp7
 70
     1
102
RTVSPropertyOp8
 70
     1
102
RTVSPropertyOp9
 70
     1
102
RTVSPropertyOp10
 70
     1
102
RTVSPropertyOp11
 70
     1
102
RTVSPropertyOp12
 70
     1
102
RTVSPropertyOp13
 70
     1
102
RTVSPropertyOp14
 70
     1
102
RTVSPropertyOp15
 70
     1
102
RTVSPropertyOp16
 70
     1
102
RTVSPropertyOp17
 70
     1
102
RTVSPropertyOp18
 70
     1
102
RTVSPropertyOp19
 70
     1
102
RTVSPropertyOp20
 70
     1
102
RTVSPropertyOp21
 70
     1
102
RTVSPropertyOp22
 70
     1
102
RTVSPropertyOp23
 70
     1
102
RTVSPropertyOp24
 70
     1
102
RTVSPropertyOp25
 70
     1
102
RTVSPropertyOp26
 70
     1
102
RTVSPropertyOp27
 70
     1
102
RTVSPropertyOp28
 70
     1
102
RTVSPropertyOp29
 70
     1
102
RTVSPropertyOp30
 70
     1
102
RTVSPropertyOp31
 70
     1
102
RTVSPropertyOp32
 70
     1
102
RTVSPropertyOp33
 70
     1
102
RTVSPropertyOp34
 70
     1
102
RTVSPropertyOp35
 70
     1
102
RTVSPropertyOp36
 70
     1
102
RTVSPropertyOp37
 70
     1
102
RTVSPropertyOp38
 70
     1
102
RTVSPropertyOp39
 70
     1
102
RTVSPropertyOp40
 70
     1
102
RTVSPropertyOp41
 70
     1
102
RTVSPropertyOp42
 70
     1
102
RTVSPropertyOp43
 70
     1
102
RTVSPropertyOp44
 70
     1
102
RTVSPropertyOp45
 70
     1
102
RTVSPropertyOp46
 70
     1
102
RTVSPropertyOp47
 70
     1
102
RTVSPropertyOp48
 70
     1
102
RTVSPropertyOp49
 70
     1
102
RTVSPropertyOp50
 70
     1
102
RTVSPropertyOp51
 70
     0
102
RTVSPropertyOp52
 70
     0
102
RTVSPropertyOp53
 70
     1
102
RTVSPropertyOp54
 70
     1
102
RTVSPropertyOp55
 70
     1
102
RTVSPropertyOp56
 70
     1
102
RTVSPropertyOp57
 70
     1
102
RTVSPropertyOp58
 70
     1
102
RTVSPropertyOp59
 70
     1
102
RTVSPropertyOp60
 70
     1
102
RTVSPropertyOp61
 70
     1
102
RTVSPropertyOp62
 70
     1
  0
XRECORD
  5
9C4A
102
{ACAD_REACTORS
330
9C49
102
}
330
9C49
100
AcDbXrecord
280
     1
102
RTVSPost2010Prop28
280
     0
102
RTVSPost2010PropOp28
 70
     1
102
RTVSPost2010Prop29
280
     1
102
RTVSPost2010PropOp29
 70
     1
102
RTVSPost2010Prop30
280
     1
102
RTVSPost2010PropOp30
 70
     1
102
RTVSPost2010Prop31
280
     0
102
RTVSPost2010PropOp31
 70
     1
102
RTVSPost2010Prop32
280
     0
102
RTVSPost2010PropOp32
 70
     1
102
RTVSPost2010Prop33
280
     0
102
RTVSPost2010PropOp33
 70
     1
102
RTVSPost2010Prop34
280
     0
102
RTVSPost2010PropOp34
 70
     1
102
RTVSPost2010Prop35
280
     0
102
RTVSPost2010PropOp35
 70
     1
102
RTVSPost2010Prop36
280
     0
102
RTVSPost2010PropOp36
 70
     1
102
RTVSPost2010Prop37
 90
       50
102
RTVSPost2010PropOp37
 70
     1
102
RTVSPost2010Prop38
140
0.0
102
RTVSPost2010PropOp38
 70
     1
102
RTVSPost2010Prop39
140
1.0
102
RTVSPost2010PropOp39
 70
     1
102
RTVSPost2010Prop40
 90
        0
102
RTVSPost2010PropOp40
 70
     1
102
RTVSPost2010Prop41ColorIndex
 90
       18
102
RTVSPost2010Prop41ColorRGB
 90
        0
102
RTVSPost2010PropOp41
 70
     1
102
RTVSPost2010Prop42
 90
       50
102
RTVSPost2010PropOp42
 70
     1
102
RTVSPost2010Prop43
 90
        3
102
RTVSPost2010PropOp43
 70
     1
102
RTVSPost2010Prop44ColorIndex
 90
        5
102
RTVSPost2010Prop44ColorRGB
 90
      255
102
RTVSPost2010PropOp44
 70
     1
102
RTVSPost2010Prop45
280
     0
102
RTVSPost2010PropOp45
 70
     1
102
RTVSPost2010Prop46
 90
       50
102
RTVSPost2010PropOp46
 70
     1
102
RTVSPost2010Prop47
 90
       50
102
RTVSPost2010PropOp47
 70
     1
102
RTVSPost2010Prop48
 90
       50
102
RTVSPost2010PropOp48
 70
     1
102
RTVSPost2010Prop49
280
     0
102
RTVSPost2010PropOp49
 70
     1
102
RTVSPost2010Prop50
 90
       50
102
RTVSPost2010PropOp50
 70
     1
102
RTVSPost2010Prop51ColorIndex
 90
      256
102
RTVSPost2010Prop51ColorRGB
 90
-16777216
102
RTVSPost2010PropOp51
 70
     0
102
RTVSPost2010Prop52
140
1.0
102
RTVSPost2010PropOp52
 70
     0
102
RTVSPost2010Prop53
 90
        2
102
RTVSPost2010PropOp53
 70
     1
102
RTVSPost2010Prop54
  1
strokes_ogs.tif
102
RTVSPost2010PropOp54
 70
     1
102
RTVSPost2010Prop55
280
     0
102
RTVSPost2010PropOp55
 70
     1
102
RTVSPost2010Prop56
140
1.0
102
RTVSPost2010PropOp56
 70
     1
102
RTVSPost2010Prop57
140
1.0
102
RTVSPost2010PropOp57
 70
     1
102
RTVSPropertyOp0
 70
     1
102
RTVSPropertyOp1
 70
     1
102
RTVSPropertyOp2
 70
     1
102
RTVSPropertyOp3
 70
     1
102
RTVSPropertyOp4
 70
     1
102
RTVSPropertyOp5
 70
     1
102
RTVSPropertyOp6
 70
     1
102
RTVSPropertyOp7
 70
     1
102
RTVSPropertyOp8
 70
     1
102
RTVSPropertyOp9
 70
     1
102
RTVSPropertyOp10
 70
     1
102
RTVSPropertyOp11
 70
     1
102
RTVSPropertyOp12
 70
     1
102
RTVSPropertyOp13
 70
     1
102
RTVSPropertyOp14
 70
     1
102
RTVSPropertyOp15
 70
     1
102
RTVSPropertyOp16
 70
     1
102
RTVSPropertyOp17
 70
     1
102
RTVSPropertyOp18
 70
     1
102
RTVSPropertyOp19
 70
     1
102
RTVSPropertyOp20
 70
     1
102
RTVSPropertyOp21
 70
     1
102
RTVSPropertyOp22
 70
     1
102
RTVSPropertyOp23
 70
     1
102
RTVSPropertyOp24
 70
     1
102
RTVSPropertyOp25
 70
     1
102
RTVSPropertyOp26
 70
     1
102
RTVSPropertyOp27
 70
     1
102
RTVSPropertyOp28
 70
     1
102
RTVSPropertyOp29
 70
     1
102
RTVSPropertyOp30
 70
     1
102
RTVSPropertyOp31
 70
     1
102
RTVSPropertyOp32
 70
     1
102
RTVSPropertyOp33
 70
     1
102
RTVSPropertyOp34
 70
     1
102
RTVSPropertyOp35
 70
     1
102
RTVSPropertyOp36
 70
     1
102
RTVSPropertyOp37
 70
     1
102
RTVSPropertyOp38
 70
     1
102
RTVSPropertyOp39
 70
     1
102
RTVSPropertyOp40
 70
     1
102
RTVSPropertyOp41
 70
     1
102
RTVSPropertyOp42
 70
     1
102
RTVSPropertyOp43
 70
     1
102
RTVSPropertyOp44
 70
     1
102
RTVSPropertyOp45
 70
     1
102
RTVSPropertyOp46
 70
     1
102
RTVSPropertyOp47
 70
     1
102
RTVSPropertyOp48
 70
     1
102
RTVSPropertyOp49
 70
     1
102
RTVSPropertyOp50
 70
     1
102
RTVSPropertyOp51
 70
     0
102
RTVSPropertyOp52
 70
     0
102
RTVSPropertyOp53
 70
     1
102
RTVSPropertyOp54
 70
     1
102
RTVSPropertyOp55
 70
     1
102
RTVSPropertyOp56
 70
     1
102
RTVSPropertyOp57
 70
     1
102
RTVSPropertyOp58
 70
     1
102
RTVSPropertyOp59
 70
     1
102
RTVSPropertyOp60
 70
     1
102
RTVSPropertyOp61
 70
     1
102
RTVSPropertyOp62
 70
     1
  0
XRECORD
  5
9C4C
102
{ACAD_REACTORS
330
9C4B
102
}
330
9C4B
100
AcDbXrecord
280
     1
102
RTVSPost2010Prop28
280
     0
102
RTVSPost2010PropOp28
 70
     1
102
RTVSPost2010Prop29
280
     1
102
RTVSPost2010PropOp29
 70
     1
102
RTVSPost2010Prop30
280
     1
102
RTVSPost2010PropOp30
 70
     1
102
RTVSPost2010Prop31
280
     0
102
RTVSPost2010PropOp31
 70
     1
102
RTVSPost2010Prop32
280
     0
102
RTVSPost2010PropOp32
 70
     1
102
RTVSPost2010Prop33
280
     0
102
RTVSPost2010PropOp33
 70
     1
102
RTVSPost2010Prop34
280
     0
102
RTVSPost2010PropOp34
 70
     1
102
RTVSPost2010Prop35
280
     0
102
RTVSPost2010PropOp35
 70
     1
102
RTVSPost2010Prop36
280
     0
102
RTVSPost2010PropOp36
 70
     1
102
RTVSPost2010Prop37
 90
       50
102
RTVSPost2010PropOp37
 70
     1
102
RTVSPost2010Prop38
140
0.0
102
RTVSPost2010PropOp38
 70
     1
102
RTVSPost2010Prop39
140
1.0
102
RTVSPost2010PropOp39
 70
     1
102
RTVSPost2010Prop40
 90
        0
102
RTVSPost2010PropOp40
 70
     1
102
RTVSPost2010Prop41ColorIndex
 90
       18
102
RTVSPost2010Prop41ColorRGB
 90
        0
102
RTVSPost2010PropOp41
 70
     1
102
RTVSPost2010Prop42
 90
       50
102
RTVSPost2010PropOp42
 70
     1
102
RTVSPost2010Prop43
 90
        3
102
RTVSPost2010PropOp43
 70
     1
102
RTVSPost2010Prop44ColorIndex
 90
        5
102
RTVSPost2010Prop44ColorRGB
 90
      255
102
RTVSPost2010PropOp44
 70
     1
102
RTVSPost2010Prop45
280
     0
102
RTVSPost2010PropOp45
 70
     1
102
RTVSPost2010Prop46
 90
       50
102
RTVSPost2010PropOp46
 70
     1
102
RTVSPost2010Prop47
 90
       50
102
RTVSPost2010PropOp47
 70
     1
102
RTVSPost2010Prop48
 90
       50
102
RTVSPost2010PropOp48
 70
     1
102
RTVSPost2010Prop49
280
     0
102
RTVSPost2010PropOp49
 70
     1
102
RTVSPost2010Prop50
 90
       50
102
RTVSPost2010PropOp50
 70
     1
102
RTVSPost2010Prop51ColorIndex
 90
      256
102
RTVSPost2010Prop51ColorRGB
 90
-16777216
102
RTVSPost2010PropOp51
 70
     0
102
RTVSPost2010Prop52
140
1.0
102
RTVSPost2010PropOp52
 70
     0
102
RTVSPost2010Prop53
 90
        2
102
RTVSPost2010PropOp53
 70
     1
102
RTVSPost2010Prop54
  1
strokes_ogs.tif
102
RTVSPost2010PropOp54
 70
     1
102
RTVSPost2010Prop55
280
     0
102
RTVSPost2010PropOp55
 70
     1
102
RTVSPost2010Prop56
140
1.0
102
RTVSPost2010PropOp56
 70
     1
102
RTVSPost2010Prop57
140
1.0
102
RTVSPost2010PropOp57
 70
     1
102
RTVSPropertyOp0
 70
     1
102
RTVSPropertyOp1
 70
     1
102
RTVSPropertyOp2
 70
     1
102
RTVSPropertyOp3
 70
     1
102
RTVSPropertyOp4
 70
     1
102
RTVSPropertyOp5
 70
     1
102
RTVSPropertyOp6
 70
     1
102
RTVSPropertyOp7
 70
     1
102
RTVSPropertyOp8
 70
     1
102
RTVSPropertyOp9
 70
     1
102
RTVSPropertyOp10
 70
     1
102
RTVSPropertyOp11
 70
     1
102
RTVSPropertyOp12
 70
     1
102
RTVSPropertyOp13
 70
     1
102
RTVSPropertyOp14
 70
     1
102
RTVSPropertyOp15
 70
     1
102
RTVSPropertyOp16
 70
     1
102
RTVSPropertyOp17
 70
     1
102
RTVSPropertyOp18
 70
     1
102
RTVSPropertyOp19
 70
     1
102
RTVSPropertyOp20
 70
     1
102
RTVSPropertyOp21
 70
     1
102
RTVSPropertyOp22
 70
     1
102
RTVSPropertyOp23
 70
     1
102
RTVSPropertyOp24
 70
     1
102
RTVSPropertyOp25
 70
     1
102
RTVSPropertyOp26
 70
     1
102
RTVSPropertyOp27
 70
     1
102
RTVSPropertyOp28
 70
     1
102
RTVSPropertyOp29
 70
     1
102
RTVSPropertyOp30
 70
     1
102
RTVSPropertyOp31
 70
     1
102
RTVSPropertyOp32
 70
     1
102
RTVSPropertyOp33
 70
     1
102
RTVSPropertyOp34
 70
     1
102
RTVSPropertyOp35
 70
     1
102
RTVSPropertyOp36
 70
     1
102
RTVSPropertyOp37
 70
     1
102
RTVSPropertyOp38
 70
     1
102
RTVSPropertyOp39
 70
     1
102
RTVSPropertyOp40
 70
     1
102
RTVSPropertyOp41
 70
     1
102
RTVSPropertyOp42
 70
     1
102
RTVSPropertyOp43
 70
     1
102
RTVSPropertyOp44
 70
     1
102
RTVSPropertyOp45
 70
     1
102
RTVSPropertyOp46
 70
     1
102
RTVSPropertyOp47
 70
     1
102
RTVSPropertyOp48
 70
     1
102
RTVSPropertyOp49
 70
     1
102
RTVSPropertyOp50
 70
     1
102
RTVSPropertyOp51
 70
     0
102
RTVSPropertyOp52
 70
     0
102
RTVSPropertyOp53
 70
     1
102
RTVSPropertyOp54
 70
     1
102
RTVSPropertyOp55
 70
     1
102
RTVSPropertyOp56
 70
     1
102
RTVSPropertyOp57
 70
     1
102
RTVSPropertyOp58
 70
     1
102
RTVSPropertyOp59
 70
     1
102
RTVSPropertyOp60
 70
     1
102
RTVSPropertyOp61
 70
     1
102
RTVSPropertyOp62
 70
     1
  0
XRECORD
  5
9C54
102
{ACAD_REACTORS
330
9C53
102
}
330
9C53
100
AcDbXrecord
280
     1
102
RTVSPost2010Prop28
280
     0
102
RTVSPost2010PropOp28
 70
     1
102
RTVSPost2010Prop29
280
     1
102
RTVSPost2010PropOp29
 70
     1
102
RTVSPost2010Prop30
280
     1
102
RTVSPost2010PropOp30
 70
     1
102
RTVSPost2010Prop31
280
     0
102
RTVSPost2010PropOp31
 70
     1
102
RTVSPost2010Prop32
280
     0
102
RTVSPost2010PropOp32
 70
     1
102
RTVSPost2010Prop33
280
     0
102
RTVSPost2010PropOp33
 70
     1
102
RTVSPost2010Prop34
280
     0
102
RTVSPost2010PropOp34
 70
     1
102
RTVSPost2010Prop35
280
     0
102
RTVSPost2010PropOp35
 70
     1
102
RTVSPost2010Prop36
280
     0
102
RTVSPost2010PropOp36
 70
     1
102
RTVSPost2010Prop37
 90
       50
102
RTVSPost2010PropOp37
 70
     1
102
RTVSPost2010Prop38
140
0.0
102
RTVSPost2010PropOp38
 70
     1
102
RTVSPost2010Prop39
140
1.0
102
RTVSPost2010PropOp39
 70
     1
102
RTVSPost2010Prop40
 90
        0
102
RTVSPost2010PropOp40
 70
     1
102
RTVSPost2010Prop41ColorIndex
 90
       18
102
RTVSPost2010Prop41ColorRGB
 90
        0
102
RTVSPost2010PropOp41
 70
     1
102
RTVSPost2010Prop42
 90
       50
102
RTVSPost2010PropOp42
 70
     1
102
RTVSPost2010Prop43
 90
        3
102
RTVSPost2010PropOp43
 70
     1
102
RTVSPost2010Prop44ColorIndex
 90
        5
102
RTVSPost2010Prop44ColorRGB
 90
      255
102
RTVSPost2010PropOp44
 70
     1
102
RTVSPost2010Prop45
280
     0
102
RTVSPost2010PropOp45
 70
     1
102
RTVSPost2010Prop46
 90
       50
102
RTVSPost2010PropOp46
 70
     1
102
RTVSPost2010Prop47
 90
       50
102
RTVSPost2010PropOp47
 70
     1
102
RTVSPost2010Prop48
 90
       50
102
RTVSPost2010PropOp48
 70
     1
102
RTVSPost2010Prop49
280
     0
102
RTVSPost2010PropOp49
 70
     1
102
RTVSPost2010Prop50
 90
       50
102
RTVSPost2010PropOp50
 70
     1
102
RTVSPost2010Prop51ColorIndex
 90
      256
102
RTVSPost2010Prop51ColorRGB
 90
-16777216
102
RTVSPost2010PropOp51
 70
     0
102
RTVSPost2010Prop52
140
1.0
102
RTVSPost2010PropOp52
 70
     0
102
RTVSPost2010Prop53
 90
        2
102
RTVSPost2010PropOp53
 70
     1
102
RTVSPost2010Prop54
  1
strokes_ogs.tif
102
RTVSPost2010PropOp54
 70
     1
102
RTVSPost2010Prop55
280
     0
102
RTVSPost2010PropOp55
 70
     1
102
RTVSPost2010Prop56
140
1.0
102
RTVSPost2010PropOp56
 70
     1
102
RTVSPost2010Prop57
140
1.0
102
RTVSPost2010PropOp57
 70
     1
102
RTVSPropertyOp0
 70
     1
102
RTVSPropertyOp1
 70
     1
102
RTVSPropertyOp2
 70
     1
102
RTVSPropertyOp3
 70
     1
102
RTVSPropertyOp4
 70
     1
102
RTVSPropertyOp5
 70
     1
102
RTVSPropertyOp6
 70
     1
102
RTVSPropertyOp7
 70
     1
102
RTVSPropertyOp8
 70
     1
102
RTVSPropertyOp9
 70
     1
102
RTVSPropertyOp10
 70
     1
102
RTVSPropertyOp11
 70
     1
102
RTVSPropertyOp12
 70
     1
102
RTVSPropertyOp13
 70
     1
102
RTVSPropertyOp14
 70
     1
102
RTVSPropertyOp15
 70
     1
102
RTVSPropertyOp16
 70
     1
102
RTVSPropertyOp17
 70
     1
102
RTVSPropertyOp18
 70
     1
102
RTVSPropertyOp19
 70
     1
102
RTVSPropertyOp20
 70
     1
102
RTVSPropertyOp21
 70
     1
102
RTVSPropertyOp22
 70
     1
102
RTVSPropertyOp23
 70
     1
102
RTVSPropertyOp24
 70
     1
102
RTVSPropertyOp25
 70
     1
102
RTVSPropertyOp26
 70
     1
102
RTVSPropertyOp27
 70
     1
102
RTVSPropertyOp28
 70
     1
102
RTVSPropertyOp29
 70
     1
102
RTVSPropertyOp30
 70
     1
102
RTVSPropertyOp31
 70
     1
102
RTVSPropertyOp32
 70
     1
102
RTVSPropertyOp33
 70
     1
102
RTVSPropertyOp34
 70
     1
102
RTVSPropertyOp35
 70
     1
102
RTVSPropertyOp36
 70
     1
102
RTVSPropertyOp37
 70
     1
102
RTVSPropertyOp38
 70
     1
102
RTVSPropertyOp39
 70
     1
102
RTVSPropertyOp40
 70
     1
102
RTVSPropertyOp41
 70
     1
102
RTVSPropertyOp42
 70
     1
102
RTVSPropertyOp43
 70
     1
102
RTVSPropertyOp44
 70
     1
102
RTVSPropertyOp45
 70
     1
102
RTVSPropertyOp46
 70
     1
102
RTVSPropertyOp47
 70
     1
102
RTVSPropertyOp48
 70
     1
102
RTVSPropertyOp49
 70
     1
102
RTVSPropertyOp50
 70
     1
102
RTVSPropertyOp51
 70
     0
102
RTVSPropertyOp52
 70
     0
102
RTVSPropertyOp53
 70
     1
102
RTVSPropertyOp54
 70
     1
102
RTVSPropertyOp55
 70
     1
102
RTVSPropertyOp56
 70
     1
102
RTVSPropertyOp57
 70
     1
102
RTVSPropertyOp58
 70
     1
102
RTVSPropertyOp59
 70
     1
102
RTVSPropertyOp60
 70
     1
102
RTVSPropertyOp61
 70
     1
102
RTVSPropertyOp62
 70
     1
  0
XRECORD
  5
9C70
102
{ACAD_REACTORS
330
9C6F
102
}
330
9C6F
100
AcDbXrecord
280
     1
102
RTVSPost2010Prop28
280
     0
102
RTVSPost2010PropOp28
 70
     1
102
RTVSPost2010Prop29
280
     1
102
RTVSPost2010PropOp29
 70
     1
102
RTVSPost2010Prop30
280
     1
102
RTVSPost2010PropOp30
 70
     1
102
RTVSPost2010Prop31
280
     0
102
RTVSPost2010PropOp31
 70
     1
102
RTVSPost2010Prop32
280
     0
102
RTVSPost2010PropOp32
 70
     1
102
RTVSPost2010Prop33
280
     0
102
RTVSPost2010PropOp33
 70
     1
102
RTVSPost2010Prop34
280
     0
102
RTVSPost2010PropOp34
 70
     1
102
RTVSPost2010Prop35
280
     0
102
RTVSPost2010PropOp35
 70
     1
102
RTVSPost2010Prop36
280
     0
102
RTVSPost2010PropOp36
 70
     1
102
RTVSPost2010Prop37
 90
       50
102
RTVSPost2010PropOp37
 70
     0
102
RTVSPost2010Prop38
140
0.0
102
RTVSPost2010PropOp38
 70
     0
102
RTVSPost2010Prop39
140
1.0
102
RTVSPost2010PropOp39
 70
     0
102
RTVSPost2010Prop40
 90
        0
102
RTVSPost2010PropOp40
 70
     0
102
RTVSPost2010Prop41ColorIndex
 90
       18
102
RTVSPost2010Prop41ColorRGB
 90
        0
102
RTVSPost2010PropOp41
 70
     0
102
RTVSPost2010Prop42
 90
       50
102
RTVSPost2010PropOp42
 70
     0
102
RTVSPost2010Prop43
 90
        3
102
RTVSPost2010PropOp43
 70
     0
102
RTVSPost2010Prop44ColorIndex
 90
        5
102
RTVSPost2010Prop44ColorRGB
 90
      255
102
RTVSPost2010PropOp44
 70
     0
102
RTVSPost2010Prop45
280
     0
102
RTVSPost2010PropOp45
 70
     1
102
RTVSPost2010Prop46
 90
       50
102
RTVSPost2010PropOp46
 70
     0
102
RTVSPost2010Prop47
 90
       50
102
RTVSPost2010PropOp47
 70
     0
102
RTVSPost2010Prop48
 90
       50
102
RTVSPost2010PropOp48
 70
     0
102
RTVSPost2010Prop49
280
     0
102
RTVSPost2010PropOp49
 70
     1
102
RTVSPost2010Prop50
 90
       50
102
RTVSPost2010PropOp50
 70
     0
102
RTVSPost2010Prop51ColorIndex
 90
      256
102
RTVSPost2010Prop51ColorRGB
 90
-16777216
102
RTVSPost2010PropOp51
 70
     0
102
RTVSPost2010Prop52
140
1.0
102
RTVSPost2010PropOp52
 70
     0
102
RTVSPost2010Prop53
 90
        2
102
RTVSPost2010PropOp53
 70
     0
102
RTVSPost2010Prop54
  1
strokes_ogs.tif
102
RTVSPost2010PropOp54
 70
     0
102
RTVSPost2010Prop55
280
     0
102
RTVSPost2010PropOp55
 70
     1
102
RTVSPost2010Prop56
140
1.0
102
RTVSPost2010PropOp56
 70
     0
102
RTVSPost2010Prop57
140
1.0
102
RTVSPost2010PropOp57
 70
     0
102
RTVSPropertyOp0
 70
     0
102
RTVSPropertyOp1
 70
     0
102
RTVSPropertyOp2
 70
     0
102
RTVSPropertyOp3
 70
     0
102
RTVSPropertyOp4
 70
     0
102
RTVSPropertyOp5
 70
     0
102
RTVSPropertyOp6
 70
     0
102
RTVSPropertyOp7
 70
     0
102
RTVSPropertyOp8
 70
     0
102
RTVSPropertyOp9
 70
     0
102
RTVSPropertyOp10
 70
     0
102
RTVSPropertyOp11
 70
     0
102
RTVSPropertyOp12
 70
     0
102
RTVSPropertyOp13
 70
     0
102
RTVSPropertyOp14
 70
     2
102
RTVSPropertyOp15
 70
     0
102
RTVSPropertyOp16
 70
     0
102
RTVSPropertyOp17
 70
     0
102
RTVSPropertyOp18
 70
     0
102
RTVSPropertyOp19
 70
     0
102
RTVSPropertyOp20
 70
     0
102
RTVSPropertyOp21
 70
     0
102
RTVSPropertyOp22
 70
     0
102
RTVSPropertyOp23
 70
     0
102
RTVSPropertyOp24
 70
     0
102
RTVSPropertyOp25
 70
     0
102
RTVSPropertyOp26
 70
     0
102
RTVSPropertyOp27
 70
     0
102
RTVSPropertyOp28
 70
     1
102
RTVSPropertyOp29
 70
     1
102
RTVSPropertyOp30
 70
     1
102
RTVSPropertyOp31
 70
     1
102
RTVSPropertyOp32
 70
     1
102
RTVSPropertyOp33
 70
     1
102
RTVSPropertyOp34
 70
     1
102
RTVSPropertyOp35
 70
     1
102
RTVSPropertyOp36
 70
     1
102
RTVSPropertyOp37
 70
     0
102
RTVSPropertyOp38
 70
     0
102
RTVSPropertyOp39
 70
     0
102
RTVSPropertyOp40
 70
     0
102
RTVSPropertyOp41
 70
     0
102
RTVSPropertyOp42
 70
     0
102
RTVSPropertyOp43
 70
     0
102
RTVSPropertyOp44
 70
     0
102
RTVSPropertyOp45
 70
     1
102
RTVSPropertyOp46
 70
     0
102
RTVSPropertyOp47
 70
     0
102
RTVSPropertyOp48
 70
     0
102
RTVSPropertyOp49
 70
     1
102
RTVSPropertyOp50
 70
     0
102
RTVSPropertyOp51
 70
     0
102
RTVSPropertyOp52
 70
     0
102
RTVSPropertyOp53
 70
     0
102
RTVSPropertyOp54
 70
     0
102
RTVSPropertyOp55
 70
     1
102
RTVSPropertyOp56
 70
     0
102
RTVSPropertyOp57
 70
     0
102
RTVSPropertyOp58
 70
     0
102
RTVSPropertyOp59
 70
     0
102
RTVSPropertyOp60
 70
     0
102
RTVSPropertyOp61
 70
     0
102
RTVSPropertyOp62
 70
     0
  0
XRECORD
  5
9C60
102
{ACAD_REACTORS
330
9C5F
102
}
330
9C5F
100
AcDbXrecord
280
     1
102
RTVSPost2010Prop28
280
     0
102
RTVSPost2010PropOp28
 70
     1
102
RTVSPost2010Prop29
280
     1
102
RTVSPost2010PropOp29
 70
     1
102
RTVSPost2010Prop30
280
     1
102
RTVSPost2010PropOp30
 70
     1
102
RTVSPost2010Prop31
280
     0
102
RTVSPost2010PropOp31
 70
     1
102
RTVSPost2010Prop32
280
     0
102
RTVSPost2010PropOp32
 70
     1
102
RTVSPost2010Prop33
280
     0
102
RTVSPost2010PropOp33
 70
     1
102
RTVSPost2010Prop34
280
     0
102
RTVSPost2010PropOp34
 70
     1
102
RTVSPost2010Prop35
280
     0
102
RTVSPost2010PropOp35
 70
     1
102
RTVSPost2010Prop36
280
     0
102
RTVSPost2010PropOp36
 70
     1
102
RTVSPost2010Prop37
 90
       50
102
RTVSPost2010PropOp37
 70
     1
102
RTVSPost2010Prop38
140
0.0
102
RTVSPost2010PropOp38
 70
     1
102
RTVSPost2010Prop39
140
1.0
102
RTVSPost2010PropOp39
 70
     1
102
RTVSPost2010Prop40
 90
        0
102
RTVSPost2010PropOp40
 70
     1
102
RTVSPost2010Prop41ColorIndex
 90
       18
102
RTVSPost2010Prop41ColorRGB
 90
        0
102
RTVSPost2010PropOp41
 70
     1
102
RTVSPost2010Prop42
 90
       50
102
RTVSPost2010PropOp42
 70
     1
102
RTVSPost2010Prop43
 90
        3
102
RTVSPost2010PropOp43
 70
     1
102
RTVSPost2010Prop44ColorIndex
 90
        5
102
RTVSPost2010Prop44ColorRGB
 90
      255
102
RTVSPost2010PropOp44
 70
     1
102
RTVSPost2010Prop45
280
     0
102
RTVSPost2010PropOp45
 70
     1
102
RTVSPost2010Prop46
 90
       50
102
RTVSPost2010PropOp46
 70
     1
102
RTVSPost2010Prop47
 90
       50
102
RTVSPost2010PropOp47
 70
     1
102
RTVSPost2010Prop48
 90
       50
102
RTVSPost2010PropOp48
 70
     1
102
RTVSPost2010Prop49
280
     0
102
RTVSPost2010PropOp49
 70
     1
102
RTVSPost2010Prop50
 90
       50
102
RTVSPost2010PropOp50
 70
     1
102
RTVSPost2010Prop51ColorIndex
 90
      256
102
RTVSPost2010Prop51ColorRGB
 90
-16777216
102
RTVSPost2010PropOp51
 70
     0
102
RTVSPost2010Prop52
140
1.0
102
RTVSPost2010PropOp52
 70
     0
102
RTVSPost2010Prop53
 90
        2
102
RTVSPost2010PropOp53
 70
     1
102
RTVSPost2010Prop54
  1
strokes_ogs.tif
102
RTVSPost2010PropOp54
 70
     1
102
RTVSPost2010Prop55
280
     0
102
RTVSPost2010PropOp55
 70
     1
102
RTVSPost2010Prop56
140
1.0
102
RTVSPost2010PropOp56
 70
     1
102
RTVSPost2010Prop57
140
1.0
102
RTVSPost2010PropOp57
 70
     1
102
RTVSPropertyOp0
 70
     1
102
RTVSPropertyOp1
 70
     1
102
RTVSPropertyOp2
 70
     1
102
RTVSPropertyOp3
 70
     1
102
RTVSPropertyOp4
 70
     1
102
RTVSPropertyOp5
 70
     1
102
RTVSPropertyOp6
 70
     1
102
RTVSPropertyOp7
 70
     1
102
RTVSPropertyOp8
 70
     1
102
RTVSPropertyOp9
 70
     1
102
RTVSPropertyOp10
 70
     1
102
RTVSPropertyOp11
 70
     1
102
RTVSPropertyOp12
 70
     1
102
RTVSPropertyOp13
 70
     1
102
RTVSPropertyOp14
 70
     1
102
RTVSPropertyOp15
 70
     1
102
RTVSPropertyOp16
 70
     1
102
RTVSPropertyOp17
 70
     1
102
RTVSPropertyOp18
 70
     1
102
RTVSPropertyOp19
 70
     1
102
RTVSPropertyOp20
 70
     1
102
RTVSPropertyOp21
 70
     1
102
RTVSPropertyOp22
 70
     1
102
RTVSPropertyOp23
 70
     1
102
RTVSPropertyOp24
 70
     1
102
RTVSPropertyOp25
 70
     1
102
RTVSPropertyOp26
 70
     1
102
RTVSPropertyOp27
 70
     1
102
RTVSPropertyOp28
 70
     1
102
RTVSPropertyOp29
 70
     1
102
RTVSPropertyOp30
 70
     1
102
RTVSPropertyOp31
 70
     1
102
RTVSPropertyOp32
 70
     1
102
RTVSPropertyOp33
 70
     1
102
RTVSPropertyOp34
 70
     1
102
RTVSPropertyOp35
 70
     1
102
RTVSPropertyOp36
 70
     1
102
RTVSPropertyOp37
 70
     1
102
RTVSPropertyOp38
 70
     1
102
RTVSPropertyOp39
 70
     1
102
RTVSPropertyOp40
 70
     1
102
RTVSPropertyOp41
 70
     1
102
RTVSPropertyOp42
 70
     1
102
RTVSPropertyOp43
 70
     1
102
RTVSPropertyOp44
 70
     1
102
RTVSPropertyOp45
 70
     1
102
RTVSPropertyOp46
 70
     1
102
RTVSPropertyOp47
 70
     1
102
RTVSPropertyOp48
 70
     1
102
RTVSPropertyOp49
 70
     1
102
RTVSPropertyOp50
 70
     1
102
RTVSPropertyOp51
 70
     0
102
RTVSPropertyOp52
 70
     0
102
RTVSPropertyOp53
 70
     1
102
RTVSPropertyOp54
 70
     1
102
RTVSPropertyOp55
 70
     1
102
RTVSPropertyOp56
 70
     1
102
RTVSPropertyOp57
 70
     1
102
RTVSPropertyOp58
 70
     1
102
RTVSPropertyOp59
 70
     1
102
RTVSPropertyOp60
 70
     1
102
RTVSPropertyOp61
 70
     1
102
RTVSPropertyOp62
 70
     1
  0
XRECORD
  5
9C72
102
{ACAD_REACTORS
330
9C71
102
}
330
9C71
100
AcDbXrecord
280
     1
102
RTVSPost2010Prop28
280
     0
102
RTVSPost2010PropOp28
 70
     1
102
RTVSPost2010Prop29
280
     1
102
RTVSPost2010PropOp29
 70
     1
102
RTVSPost2010Prop30
280
     1
102
RTVSPost2010PropOp30
 70
     1
102
RTVSPost2010Prop31
280
     0
102
RTVSPost2010PropOp31
 70
     1
102
RTVSPost2010Prop32
280
     0
102
RTVSPost2010PropOp32
 70
     1
102
RTVSPost2010Prop33
280
     0
102
RTVSPost2010PropOp33
 70
     1
102
RTVSPost2010Prop34
280
     0
102
RTVSPost2010PropOp34
 70
     1
102
RTVSPost2010Prop35
280
     0
102
RTVSPost2010PropOp35
 70
     1
102
RTVSPost2010Prop36
280
     0
102
RTVSPost2010PropOp36
 70
     1
102
RTVSPost2010Prop37
 90
       50
102
RTVSPost2010PropOp37
 70
     0
102
RTVSPost2010Prop38
140
0.0
102
RTVSPost2010PropOp38
 70
     0
102
RTVSPost2010Prop39
140
1.0
102
RTVSPost2010PropOp39
 70
     0
102
RTVSPost2010Prop40
 90
        0
102
RTVSPost2010PropOp40
 70
     0
102
RTVSPost2010Prop41ColorIndex
 90
       18
102
RTVSPost2010Prop41ColorRGB
 90
        0
102
RTVSPost2010PropOp41
 70
     0
102
RTVSPost2010Prop42
 90
       50
102
RTVSPost2010PropOp42
 70
     0
102
RTVSPost2010Prop43
 90
        3
102
RTVSPost2010PropOp43
 70
     0
102
RTVSPost2010Prop44ColorIndex
 90
        5
102
RTVSPost2010Prop44ColorRGB
 90
      255
102
RTVSPost2010PropOp44
 70
     0
102
RTVSPost2010Prop45
280
     0
102
RTVSPost2010PropOp45
 70
     1
102
RTVSPost2010Prop46
 90
       50
102
RTVSPost2010PropOp46
 70
     0
102
RTVSPost2010Prop47
 90
       50
102
RTVSPost2010PropOp47
 70
     0
102
RTVSPost2010Prop48
 90
       50
102
RTVSPost2010PropOp48
 70
     0
102
RTVSPost2010Prop49
280
     0
102
RTVSPost2010PropOp49
 70
     1
102
RTVSPost2010Prop50
 90
       50
102
RTVSPost2010PropOp50
 70
     0
102
RTVSPost2010Prop51ColorIndex
 90
      256
102
RTVSPost2010Prop51ColorRGB
 90
-16777216
102
RTVSPost2010PropOp51
 70
     0
102
RTVSPost2010Prop52
140
1.0
102
RTVSPost2010PropOp52
 70
     0
102
RTVSPost2010Prop53
 90
        2
102
RTVSPost2010PropOp53
 70
     0
102
RTVSPost2010Prop54
  1
strokes_ogs.tif
102
RTVSPost2010PropOp54
 70
     0
102
RTVSPost2010Prop55
280
     0
102
RTVSPost2010PropOp55
 70
     1
102
RTVSPost2010Prop56
140
1.0
102
RTVSPost2010PropOp56
 70
     0
102
RTVSPost2010Prop57
140
1.0
102
RTVSPost2010PropOp57
 70
     0
102
RTVSPropertyOp0
 70
     0
102
RTVSPropertyOp1
 70
     0
102
RTVSPropertyOp2
 70
     0
102
RTVSPropertyOp3
 70
     0
102
RTVSPropertyOp4
 70
     0
102
RTVSPropertyOp5
 70
     0
102
RTVSPropertyOp6
 70
     0
102
RTVSPropertyOp7
 70
     0
102
RTVSPropertyOp8
 70
     0
102
RTVSPropertyOp9
 70
     0
102
RTVSPropertyOp10
 70
     0
102
RTVSPropertyOp11
 70
     0
102
RTVSPropertyOp12
 70
     0
102
RTVSPropertyOp13
 70
     0
102
RTVSPropertyOp14
 70
     2
102
RTVSPropertyOp15
 70
     0
102
RTVSPropertyOp16
 70
     0
102
RTVSPropertyOp17
 70
     0
102
RTVSPropertyOp18
 70
     0
102
RTVSPropertyOp19
 70
     0
102
RTVSPropertyOp20
 70
     0
102
RTVSPropertyOp21
 70
     0
102
RTVSPropertyOp22
 70
     0
102
RTVSPropertyOp23
 70
     0
102
RTVSPropertyOp24
 70
     0
102
RTVSPropertyOp25
 70
     0
102
RTVSPropertyOp26
 70
     0
102
RTVSPropertyOp27
 70
     0
102
RTVSPropertyOp28
 70
     1
102
RTVSPropertyOp29
 70
     1
102
RTVSPropertyOp30
 70
     1
102
RTVSPropertyOp31
 70
     1
102
RTVSPropertyOp32
 70
     1
102
RTVSPropertyOp33
 70
     1
102
RTVSPropertyOp34
 70
     1
102
RTVSPropertyOp35
 70
     1
102
RTVSPropertyOp36
 70
     1
102
RTVSPropertyOp37
 70
     0
102
RTVSPropertyOp38
 70
     0
102
RTVSPropertyOp39
 70
     0
102
RTVSPropertyOp40
 70
     0
102
RTVSPropertyOp41
 70
     0
102
RTVSPropertyOp42
 70
     0
102
RTVSPropertyOp43
 70
     0
102
RTVSPropertyOp44
 70
     0
102
RTVSPropertyOp45
 70
     1
102
RTVSPropertyOp46
 70
     0
102
RTVSPropertyOp47
 70
     0
102
RTVSPropertyOp48
 70
     0
102
RTVSPropertyOp49
 70
     1
102
RTVSPropertyOp50
 70
     0
102
RTVSPropertyOp51
 70
     0
102
RTVSPropertyOp52
 70
     0
102
RTVSPropertyOp53
 70
     0
102
RTVSPropertyOp54
 70
     0
102
RTVSPropertyOp55
 70
     1
102
RTVSPropertyOp56
 70
     0
102
RTVSPropertyOp57
 70
     0
102
RTVSPropertyOp58
 70
     0
102
RTVSPropertyOp59
 70
     0
102
RTVSPropertyOp60
 70
     0
102
RTVSPropertyOp61
 70
     0
102
RTVSPropertyOp62
 70
     0
  0
XRECORD
  5
9C58
102
{ACAD_REACTORS
330
9C57
102
}
330
9C57
100
AcDbXrecord
280
     1
102
RTVSPost2010Prop28
280
     0
102
RTVSPost2010PropOp28
 70
     1
102
RTVSPost2010Prop29
280
     1
102
RTVSPost2010PropOp29
 70
     1
102
RTVSPost2010Prop30
280
     1
102
RTVSPost2010PropOp30
 70
     1
102
RTVSPost2010Prop31
280
     0
102
RTVSPost2010PropOp31
 70
     1
102
RTVSPost2010Prop32
280
     0
102
RTVSPost2010PropOp32
 70
     1
102
RTVSPost2010Prop33
280
     0
102
RTVSPost2010PropOp33
 70
     1
102
RTVSPost2010Prop34
280
     0
102
RTVSPost2010PropOp34
 70
     1
102
RTVSPost2010Prop35
280
     0
102
RTVSPost2010PropOp35
 70
     1
102
RTVSPost2010Prop36
280
     0
102
RTVSPost2010PropOp36
 70
     1
102
RTVSPost2010Prop37
 90
       50
102
RTVSPost2010PropOp37
 70
     1
102
RTVSPost2010Prop38
140
0.0
102
RTVSPost2010PropOp38
 70
     1
102
RTVSPost2010Prop39
140
1.0
102
RTVSPost2010PropOp39
 70
     1
102
RTVSPost2010Prop40
 90
        0
102
RTVSPost2010PropOp40
 70
     1
102
RTVSPost2010Prop41ColorIndex
 90
       18
102
RTVSPost2010Prop41ColorRGB
 90
        0
102
RTVSPost2010PropOp41
 70
     1
102
RTVSPost2010Prop42
 90
       50
102
RTVSPost2010PropOp42
 70
     1
102
RTVSPost2010Prop43
 90
        3
102
RTVSPost2010PropOp43
 70
     1
102
RTVSPost2010Prop44ColorIndex
 90
        5
102
RTVSPost2010Prop44ColorRGB
 90
      255
102
RTVSPost2010PropOp44
 70
     1
102
RTVSPost2010Prop45
280
     0
102
RTVSPost2010PropOp45
 70
     1
102
RTVSPost2010Prop46
 90
       50
102
RTVSPost2010PropOp46
 70
     1
102
RTVSPost2010Prop47
 90
       50
102
RTVSPost2010PropOp47
 70
     1
102
RTVSPost2010Prop48
 90
       50
102
RTVSPost2010PropOp48
 70
     1
102
RTVSPost2010Prop49
280
     0
102
RTVSPost2010PropOp49
 70
     1
102
RTVSPost2010Prop50
 90
       50
102
RTVSPost2010PropOp50
 70
     1
102
RTVSPost2010Prop51ColorIndex
 90
      256
102
RTVSPost2010Prop51ColorRGB
 90
-16777216
102
RTVSPost2010PropOp51
 70
     0
102
RTVSPost2010Prop52
140
1.0
102
RTVSPost2010PropOp52
 70
     0
102
RTVSPost2010Prop53
 90
        2
102
RTVSPost2010PropOp53
 70
     1
102
RTVSPost2010Prop54
  1
strokes_ogs.tif
102
RTVSPost2010PropOp54
 70
     1
102
RTVSPost2010Prop55
280
     0
102
RTVSPost2010PropOp55
 70
     1
102
RTVSPost2010Prop56
140
1.0
102
RTVSPost2010PropOp56
 70
     1
102
RTVSPost2010Prop57
140
1.0
102
RTVSPost2010PropOp57
 70
     1
102
RTVSPropertyOp0
 70
     1
102
RTVSPropertyOp1
 70
     1
102
RTVSPropertyOp2
 70
     1
102
RTVSPropertyOp3
 70
     1
102
RTVSPropertyOp4
 70
     1
102
RTVSPropertyOp5
 70
     1
102
RTVSPropertyOp6
 70
     1
102
RTVSPropertyOp7
 70
     1
102
RTVSPropertyOp8
 70
     1
102
RTVSPropertyOp9
 70
     1
102
RTVSPropertyOp10
 70
     1
102
RTVSPropertyOp11
 70
     1
102
RTVSPropertyOp12
 70
     1
102
RTVSPropertyOp13
 70
     1
102
RTVSPropertyOp14
 70
     1
102
RTVSPropertyOp15
 70
     1
102
RTVSPropertyOp16
 70
     1
102
RTVSPropertyOp17
 70
     1
102
RTVSPropertyOp18
 70
     1
102
RTVSPropertyOp19
 70
     1
102
RTVSPropertyOp20
 70
     1
102
RTVSPropertyOp21
 70
     1
102
RTVSPropertyOp22
 70
     1
102
RTVSPropertyOp23
 70
     1
102
RTVSPropertyOp24
 70
     1
102
RTVSPropertyOp25
 70
     1
102
RTVSPropertyOp26
 70
     1
102
RTVSPropertyOp27
 70
     1
102
RTVSPropertyOp28
 70
     1
102
RTVSPropertyOp29
 70
     1
102
RTVSPropertyOp30
 70
     1
102
RTVSPropertyOp31
 70
     1
102
RTVSPropertyOp32
 70
     1
102
RTVSPropertyOp33
 70
     1
102
RTVSPropertyOp34
 70
     1
102
RTVSPropertyOp35
 70
     1
102
RTVSPropertyOp36
 70
     1
102
RTVSPropertyOp37
 70
     1
102
RTVSPropertyOp38
 70
     1
102
RTVSPropertyOp39
 70
     1
102
RTVSPropertyOp40
 70
     1
102
RTVSPropertyOp41
 70
     1
102
RTVSPropertyOp42
 70
     1
102
RTVSPropertyOp43
 70
     1
102
RTVSPropertyOp44
 70
     1
102
RTVSPropertyOp45
 70
     1
102
RTVSPropertyOp46
 70
     1
102
RTVSPropertyOp47
 70
     1
102
RTVSPropertyOp48
 70
     1
102
RTVSPropertyOp49
 70
     1
102
RTVSPropertyOp50
 70
     1
102
RTVSPropertyOp51
 70
     0
102
RTVSPropertyOp52
 70
     0
102
RTVSPropertyOp53
 70
     1
102
RTVSPropertyOp54
 70
     1
102
RTVSPropertyOp55
 70
     1
102
RTVSPropertyOp56
 70
     1
102
RTVSPropertyOp57
 70
     1
102
RTVSPropertyOp58
 70
     1
102
RTVSPropertyOp59
 70
     1
102
RTVSPropertyOp60
 70
     1
102
RTVSPropertyOp61
 70
     1
102
RTVSPropertyOp62
 70
     1
  0
XRECORD
  5
9C6E
102
{ACAD_REACTORS
330
9C6D
102
}
330
9C6D
100
AcDbXrecord
280
     1
102
RTVSPost2010Prop28
280
     0
102
RTVSPost2010PropOp28
 70
     1
102
RTVSPost2010Prop29
280
     1
102
RTVSPost2010PropOp29
 70
     1
102
RTVSPost2010Prop30
280
     1
102
RTVSPost2010PropOp30
 70
     1
102
RTVSPost2010Prop31
280
     0
102
RTVSPost2010PropOp31
 70
     1
102
RTVSPost2010Prop32
280
     0
102
RTVSPost2010PropOp32
 70
     1
102
RTVSPost2010Prop33
280
     0
102
RTVSPost2010PropOp33
 70
     1
102
RTVSPost2010Prop34
280
     0
102
RTVSPost2010PropOp34
 70
     1
102
RTVSPost2010Prop35
280
     0
102
RTVSPost2010PropOp35
 70
     1
102
RTVSPost2010Prop36
280
     0
102
RTVSPost2010PropOp36
 70
     1
102
RTVSPost2010Prop37
 90
       50
102
RTVSPost2010PropOp37
 70
     1
102
RTVSPost2010Prop38
140
0.0
102
RTVSPost2010PropOp38
 70
     1
102
RTVSPost2010Prop39
140
1.0
102
RTVSPost2010PropOp39
 70
     1
102
RTVSPost2010Prop40
 90
        0
102
RTVSPost2010PropOp40
 70
     1
102
RTVSPost2010Prop41ColorIndex
 90
       18
102
RTVSPost2010Prop41ColorRGB
 90
        0
102
RTVSPost2010PropOp41
 70
     1
102
RTVSPost2010Prop42
 90
       50
102
RTVSPost2010PropOp42
 70
     1
102
RTVSPost2010Prop43
 90
        3
102
RTVSPost2010PropOp43
 70
     1
102
RTVSPost2010Prop44ColorIndex
 90
        5
102
RTVSPost2010Prop44ColorRGB
 90
      255
102
RTVSPost2010PropOp44
 70
     1
102
RTVSPost2010Prop45
280
     0
102
RTVSPost2010PropOp45
 70
     1
102
RTVSPost2010Prop46
 90
       50
102
RTVSPost2010PropOp46
 70
     1
102
RTVSPost2010Prop47
 90
       50
102
RTVSPost2010PropOp47
 70
     1
102
RTVSPost2010Prop48
 90
       50
102
RTVSPost2010PropOp48
 70
     1
102
RTVSPost2010Prop49
280
     0
102
RTVSPost2010PropOp49
 70
     1
102
RTVSPost2010Prop50
 90
       50
102
RTVSPost2010PropOp50
 70
     1
102
RTVSPost2010Prop51ColorIndex
 90
      256
102
RTVSPost2010Prop51ColorRGB
 90
-16777216
102
RTVSPost2010PropOp51
 70
     0
102
RTVSPost2010Prop52
140
1.0
102
RTVSPost2010PropOp52
 70
     0
102
RTVSPost2010Prop53
 90
        2
102
RTVSPost2010PropOp53
 70
     1
102
RTVSPost2010Prop54
  1
strokes_ogs.tif
102
RTVSPost2010PropOp54
 70
     1
102
RTVSPost2010Prop55
280
     0
102
RTVSPost2010PropOp55
 70
     1
102
RTVSPost2010Prop56
140
1.0
102
RTVSPost2010PropOp56
 70
     1
102
RTVSPost2010Prop57
140
1.0
102
RTVSPost2010PropOp57
 70
     1
102
RTVSPropertyOp0
 70
     1
102
RTVSPropertyOp1
 70
     1
102
RTVSPropertyOp2
 70
     1
102
RTVSPropertyOp3
 70
     1
102
RTVSPropertyOp4
 70
     1
102
RTVSPropertyOp5
 70
     1
102
RTVSPropertyOp6
 70
     1
102
RTVSPropertyOp7
 70
     1
102
RTVSPropertyOp8
 70
     1
102
RTVSPropertyOp9
 70
     1
102
RTVSPropertyOp10
 70
     1
102
RTVSPropertyOp11
 70
     1
102
RTVSPropertyOp12
 70
     1
102
RTVSPropertyOp13
 70
     1
102
RTVSPropertyOp14
 70
     1
102
RTVSPropertyOp15
 70
     1
102
RTVSPropertyOp16
 70
     1
102
RTVSPropertyOp17
 70
     1
102
RTVSPropertyOp18
 70
     1
102
RTVSPropertyOp19
 70
     1
102
RTVSPropertyOp20
 70
     1
102
RTVSPropertyOp21
 70
     1
102
RTVSPropertyOp22
 70
     1
102
RTVSPropertyOp23
 70
     1
102
RTVSPropertyOp24
 70
     1
102
RTVSPropertyOp25
 70
     1
102
RTVSPropertyOp26
 70
     1
102
RTVSPropertyOp27
 70
     1
102
RTVSPropertyOp28
 70
     1
102
RTVSPropertyOp29
 70
     1
102
RTVSPropertyOp30
 70
     1
102
RTVSPropertyOp31
 70
     1
102
RTVSPropertyOp32
 70
     1
102
RTVSPropertyOp33
 70
     1
102
RTVSPropertyOp34
 70
     1
102
RTVSPropertyOp35
 70
     1
102
RTVSPropertyOp36
 70
     1
102
RTVSPropertyOp37
 70
     1
102
RTVSPropertyOp38
 70
     1
102
RTVSPropertyOp39
 70
     1
102
RTVSPropertyOp40
 70
     1
102
RTVSPropertyOp41
 70
     1
102
RTVSPropertyOp42
 70
     1
102
RTVSPropertyOp43
 70
     1
102
RTVSPropertyOp44
 70
     1
102
RTVSPropertyOp45
 70
     1
102
RTVSPropertyOp46
 70
     1
102
RTVSPropertyOp47
 70
     1
102
RTVSPropertyOp48
 70
     1
102
RTVSPropertyOp49
 70
     1
102
RTVSPropertyOp50
 70
     1
102
RTVSPropertyOp51
 70
     0
102
RTVSPropertyOp52
 70
     0
102
RTVSPropertyOp53
 70
     1
102
RTVSPropertyOp54
 70
     1
102
RTVSPropertyOp55
 70
     1
102
RTVSPropertyOp56
 70
     1
102
RTVSPropertyOp57
 70
     1
102
RTVSPropertyOp58
 70
     1
102
RTVSPropertyOp59
 70
     1
102
RTVSPropertyOp60
 70
     1
102
RTVSPropertyOp61
 70
     1
102
RTVSPropertyOp62
 70
     1
  0
XRECORD
  5
9C6C
102
{ACAD_REACTORS
330
9C6B
102
}
330
9C6B
100
AcDbXrecord
280
     1
102
RTVSPost2010Prop28
280
     0
102
RTVSPost2010PropOp28
 70
     1
102
RTVSPost2010Prop29
280
     1
102
RTVSPost2010PropOp29
 70
     1
102
RTVSPost2010Prop30
280
     1
102
RTVSPost2010PropOp30
 70
     1
102
RTVSPost2010Prop31
280
     0
102
RTVSPost2010PropOp31
 70
     1
102
RTVSPost2010Prop32
280
     0
102
RTVSPost2010PropOp32
 70
     1
102
RTVSPost2010Prop33
280
     0
102
RTVSPost2010PropOp33
 70
     1
102
RTVSPost2010Prop34
280
     0
102
RTVSPost2010PropOp34
 70
     1
102
RTVSPost2010Prop35
280
     0
102
RTVSPost2010PropOp35
 70
     1
102
RTVSPost2010Prop36
280
     0
102
RTVSPost2010PropOp36
 70
     1
102
RTVSPost2010Prop37
 90
       50
102
RTVSPost2010PropOp37
 70
     1
102
RTVSPost2010Prop38
140
0.0
102
RTVSPost2010PropOp38
 70
     1
102
RTVSPost2010Prop39
140
1.0
102
RTVSPost2010PropOp39
 70
     1
102
RTVSPost2010Prop40
 90
        0
102
RTVSPost2010PropOp40
 70
     1
102
RTVSPost2010Prop41ColorIndex
 90
       18
102
RTVSPost2010Prop41ColorRGB
 90
        0
102
RTVSPost2010PropOp41
 70
     1
102
RTVSPost2010Prop42
 90
       50
102
RTVSPost2010PropOp42
 70
     1
102
RTVSPost2010Prop43
 90
        3
102
RTVSPost2010PropOp43
 70
     1
102
RTVSPost2010Prop44ColorIndex
 90
        5
102
RTVSPost2010Prop44ColorRGB
 90
      255
102
RTVSPost2010PropOp44
 70
     1
102
RTVSPost2010Prop45
280
     0
102
RTVSPost2010PropOp45
 70
     1
102
RTVSPost2010Prop46
 90
       50
102
RTVSPost2010PropOp46
 70
     1
102
RTVSPost2010Prop47
 90
       50
102
RTVSPost2010PropOp47
 70
     1
102
RTVSPost2010Prop48
 90
       50
102
RTVSPost2010PropOp48
 70
     1
102
RTVSPost2010Prop49
280
     0
102
RTVSPost2010PropOp49
 70
     1
102
RTVSPost2010Prop50
 90
       50
102
RTVSPost2010PropOp50
 70
     1
102
RTVSPost2010Prop51ColorIndex
 90
      256
102
RTVSPost2010Prop51ColorRGB
 90
-16777216
102
RTVSPost2010PropOp51
 70
     0
102
RTVSPost2010Prop52
140
1.0
102
RTVSPost2010PropOp52
 70
     0
102
RTVSPost2010Prop53
 90
        2
102
RTVSPost2010PropOp53
 70
     1
102
RTVSPost2010Prop54
  1
strokes_ogs.tif
102
RTVSPost2010PropOp54
 70
     1
102
RTVSPost2010Prop55
280
     0
102
RTVSPost2010PropOp55
 70
     1
102
RTVSPost2010Prop56
140
1.0
102
RTVSPost2010PropOp56
 70
     1
102
RTVSPost2010Prop57
140
1.0
102
RTVSPost2010PropOp57
 70
     1
102
RTVSPropertyOp0
 70
     1
102
RTVSPropertyOp1
 70
     1
102
RTVSPropertyOp2
 70
     1
102
RTVSPropertyOp3
 70
     1
102
RTVSPropertyOp4
 70
     1
102
RTVSPropertyOp5
 70
     1
102
RTVSPropertyOp6
 70
     1
102
RTVSPropertyOp7
 70
     1
102
RTVSPropertyOp8
 70
     1
102
RTVSPropertyOp9
 70
     1
102
RTVSPropertyOp10
 70
     1
102
RTVSPropertyOp11
 70
     1
102
RTVSPropertyOp12
 70
     1
102
RTVSPropertyOp13
 70
     1
102
RTVSPropertyOp14
 70
     1
102
RTVSPropertyOp15
 70
     1
102
RTVSPropertyOp16
 70
     1
102
RTVSPropertyOp17
 70
     1
102
RTVSPropertyOp18
 70
     1
102
RTVSPropertyOp19
 70
     1
102
RTVSPropertyOp20
 70
     1
102
RTVSPropertyOp21
 70
     1
102
RTVSPropertyOp22
 70
     1
102
RTVSPropertyOp23
 70
     1
102
RTVSPropertyOp24
 70
     1
102
RTVSPropertyOp25
 70
     1
102
RTVSPropertyOp26
 70
     1
102
RTVSPropertyOp27
 70
     1
102
RTVSPropertyOp28
 70
     1
102
RTVSPropertyOp29
 70
     1
102
RTVSPropertyOp30
 70
     1
102
RTVSPropertyOp31
 70
     1
102
RTVSPropertyOp32
 70
     1
102
RTVSPropertyOp33
 70
     1
102
RTVSPropertyOp34
 70
     1
102
RTVSPropertyOp35
 70
     1
102
RTVSPropertyOp36
 70
     1
102
RTVSPropertyOp37
 70
     1
102
RTVSPropertyOp38
 70
     1
102
RTVSPropertyOp39
 70
     1
102
RTVSPropertyOp40
 70
     1
102
RTVSPropertyOp41
 70
     1
102
RTVSPropertyOp42
 70
     1
102
RTVSPropertyOp43
 70
     1
102
RTVSPropertyOp44
 70
     1
102
RTVSPropertyOp45
 70
     1
102
RTVSPropertyOp46
 70
     1
102
RTVSPropertyOp47
 70
     1
102
RTVSPropertyOp48
 70
     1
102
RTVSPropertyOp49
 70
     1
102
RTVSPropertyOp50
 70
     1
102
RTVSPropertyOp51
 70
     0
102
RTVSPropertyOp52
 70
     0
102
RTVSPropertyOp53
 70
     1
102
RTVSPropertyOp54
 70
     1
102
RTVSPropertyOp55
 70
     1
102
RTVSPropertyOp56
 70
     1
102
RTVSPropertyOp57
 70
     1
102
RTVSPropertyOp58
 70
     1
102
RTVSPropertyOp59
 70
     1
102
RTVSPropertyOp60
 70
     1
102
RTVSPropertyOp61
 70
     1
102
RTVSPropertyOp62
 70
     1
  0
XRECORD
  5
9C66
102
{ACAD_REACTORS
330
9C65
102
}
330
9C65
100
AcDbXrecord
280
     1
102
RTVSPost2010Prop28
280
     0
102
RTVSPost2010PropOp28
 70
     1
102
RTVSPost2010Prop29
280
     1
102
RTVSPost2010PropOp29
 70
     1
102
RTVSPost2010Prop30
280
     1
102
RTVSPost2010PropOp30
 70
     1
102
RTVSPost2010Prop31
280
     0
102
RTVSPost2010PropOp31
 70
     1
102
RTVSPost2010Prop32
280
     0
102
RTVSPost2010PropOp32
 70
     1
102
RTVSPost2010Prop33
280
     0
102
RTVSPost2010PropOp33
 70
     1
102
RTVSPost2010Prop34
280
     0
102
RTVSPost2010PropOp34
 70
     1
102
RTVSPost2010Prop35
280
     0
102
RTVSPost2010PropOp35
 70
     1
102
RTVSPost2010Prop36
280
     0
102
RTVSPost2010PropOp36
 70
     1
102
RTVSPost2010Prop37
 90
       50
102
RTVSPost2010PropOp37
 70
     1
102
RTVSPost2010Prop38
140
0.0
102
RTVSPost2010PropOp38
 70
     1
102
RTVSPost2010Prop39
140
1.0
102
RTVSPost2010PropOp39
 70
     1
102
RTVSPost2010Prop40
 90
        0
102
RTVSPost2010PropOp40
 70
     1
102
RTVSPost2010Prop41ColorIndex
 90
       18
102
RTVSPost2010Prop41ColorRGB
 90
        0
102
RTVSPost2010PropOp41
 70
     1
102
RTVSPost2010Prop42
 90
       50
102
RTVSPost2010PropOp42
 70
     1
102
RTVSPost2010Prop43
 90
        3
102
RTVSPost2010PropOp43
 70
     1
102
RTVSPost2010Prop44ColorIndex
 90
        5
102
RTVSPost2010Prop44ColorRGB
 90
      255
102
RTVSPost2010PropOp44
 70
     1
102
RTVSPost2010Prop45
280
     0
102
RTVSPost2010PropOp45
 70
     1
102
RTVSPost2010Prop46
 90
       50
102
RTVSPost2010PropOp46
 70
     1
102
RTVSPost2010Prop47
 90
       50
102
RTVSPost2010PropOp47
 70
     1
102
RTVSPost2010Prop48
 90
       50
102
RTVSPost2010PropOp48
 70
     1
102
RTVSPost2010Prop49
280
     0
102
RTVSPost2010PropOp49
 70
     1
102
RTVSPost2010Prop50
 90
       50
102
RTVSPost2010PropOp50
 70
     1
102
RTVSPost2010Prop51ColorIndex
 90
      256
102
RTVSPost2010Prop51ColorRGB
 90
-16777216
102
RTVSPost2010PropOp51
 70
     0
102
RTVSPost2010Prop52
140
1.0
102
RTVSPost2010PropOp52
 70
     0
102
RTVSPost2010Prop53
 90
        2
102
RTVSPost2010PropOp53
 70
     1
102
RTVSPost2010Prop54
  1
strokes_ogs.tif
102
RTVSPost2010PropOp54
 70
     1
102
RTVSPost2010Prop55
280
     0
102
RTVSPost2010PropOp55
 70
     1
102
RTVSPost2010Prop56
140
1.0
102
RTVSPost2010PropOp56
 70
     1
102
RTVSPost2010Prop57
140
1.0
102
RTVSPost2010PropOp57
 70
     1
102
RTVSPropertyOp0
 70
     1
102
RTVSPropertyOp1
 70
     1
102
RTVSPropertyOp2
 70
     1
102
RTVSPropertyOp3
 70
     1
102
RTVSPropertyOp4
 70
     1
102
RTVSPropertyOp5
 70
     1
102
RTVSPropertyOp6
 70
     1
102
RTVSPropertyOp7
 70
     1
102
RTVSPropertyOp8
 70
     1
102
RTVSPropertyOp9
 70
     1
102
RTVSPropertyOp10
 70
     1
102
RTVSPropertyOp11
 70
     1
102
RTVSPropertyOp12
 70
     1
102
RTVSPropertyOp13
 70
     1
102
RTVSPropertyOp14
 70
     1
102
RTVSPropertyOp15
 70
     1
102
RTVSPropertyOp16
 70
     1
102
RTVSPropertyOp17
 70
     1
102
RTVSPropertyOp18
 70
     1
102
RTVSPropertyOp19
 70
     1
102
RTVSPropertyOp20
 70
     1
102
RTVSPropertyOp21
 70
     1
102
RTVSPropertyOp22
 70
     1
102
RTVSPropertyOp23
 70
     1
102
RTVSPropertyOp24
 70
     1
102
RTVSPropertyOp25
 70
     1
102
RTVSPropertyOp26
 70
     1
102
RTVSPropertyOp27
 70
     1
102
RTVSPropertyOp28
 70
     1
102
RTVSPropertyOp29
 70
     1
102
RTVSPropertyOp30
 70
     1
102
RTVSPropertyOp31
 70
     1
102
RTVSPropertyOp32
 70
     1
102
RTVSPropertyOp33
 70
     1
102
RTVSPropertyOp34
 70
     1
102
RTVSPropertyOp35
 70
     1
102
RTVSPropertyOp36
 70
     1
102
RTVSPropertyOp37
 70
     1
102
RTVSPropertyOp38
 70
     1
102
RTVSPropertyOp39
 70
     1
102
RTVSPropertyOp40
 70
     1
102
RTVSPropertyOp41
 70
     1
102
RTVSPropertyOp42
 70
     1
102
RTVSPropertyOp43
 70
     1
102
RTVSPropertyOp44
 70
     1
102
RTVSPropertyOp45
 70
     1
102
RTVSPropertyOp46
 70
     1
102
RTVSPropertyOp47
 70
     1
102
RTVSPropertyOp48
 70
     1
102
RTVSPropertyOp49
 70
     1
102
RTVSPropertyOp50
 70
     1
102
RTVSPropertyOp51
 70
     0
102
RTVSPropertyOp52
 70
     0
102
RTVSPropertyOp53
 70
     1
102
RTVSPropertyOp54
 70
     1
102
RTVSPropertyOp55
 70
     1
102
RTVSPropertyOp56
 70
     1
102
RTVSPropertyOp57
 70
     1
102
RTVSPropertyOp58
 70
     1
102
RTVSPropertyOp59
 70
     1
102
RTVSPropertyOp60
 70
     1
102
RTVSPropertyOp61
 70
     1
102
RTVSPropertyOp62
 70
     1
  0
XRECORD
  5
9C68
102
{ACAD_REACTORS
330
9C67
102
}
330
9C67
100
AcDbXrecord
280
     1
102
RTVSPost2010Prop28
280
     0
102
RTVSPost2010PropOp28
 70
     1
102
RTVSPost2010Prop29
280
     1
102
RTVSPost2010PropOp29
 70
     1
102
RTVSPost2010Prop30
280
     1
102
RTVSPost2010PropOp30
 70
     1
102
RTVSPost2010Prop31
280
     0
102
RTVSPost2010PropOp31
 70
     1
102
RTVSPost2010Prop32
280
     0
102
RTVSPost2010PropOp32
 70
     1
102
RTVSPost2010Prop33
280
     0
102
RTVSPost2010PropOp33
 70
     1
102
RTVSPost2010Prop34
280
     0
102
RTVSPost2010PropOp34
 70
     1
102
RTVSPost2010Prop35
280
     0
102
RTVSPost2010PropOp35
 70
     1
102
RTVSPost2010Prop36
280
     0
102
RTVSPost2010PropOp36
 70
     1
102
RTVSPost2010Prop37
 90
       50
102
RTVSPost2010PropOp37
 70
     1
102
RTVSPost2010Prop38
140
0.0
102
RTVSPost2010PropOp38
 70
     1
102
RTVSPost2010Prop39
140
1.0
102
RTVSPost2010PropOp39
 70
     1
102
RTVSPost2010Prop40
 90
        0
102
RTVSPost2010PropOp40
 70
     1
102
RTVSPost2010Prop41ColorIndex
 90
       18
102
RTVSPost2010Prop41ColorRGB
 90
        0
102
RTVSPost2010PropOp41
 70
     1
102
RTVSPost2010Prop42
 90
       50
102
RTVSPost2010PropOp42
 70
     1
102
RTVSPost2010Prop43
 90
        3
102
RTVSPost2010PropOp43
 70
     1
102
RTVSPost2010Prop44ColorIndex
 90
        5
102
RTVSPost2010Prop44ColorRGB
 90
      255
102
RTVSPost2010PropOp44
 70
     1
102
RTVSPost2010Prop45
280
     0
102
RTVSPost2010PropOp45
 70
     1
102
RTVSPost2010Prop46
 90
       50
102
RTVSPost2010PropOp46
 70
     1
102
RTVSPost2010Prop47
 90
       50
102
RTVSPost2010PropOp47
 70
     1
102
RTVSPost2010Prop48
 90
       50
102
RTVSPost2010PropOp48
 70
     1
102
RTVSPost2010Prop49
280
     0
102
RTVSPost2010PropOp49
 70
     1
102
RTVSPost2010Prop50
 90
       50
102
RTVSPost2010PropOp50
 70
     1
102
RTVSPost2010Prop51ColorIndex
 90
      256
102
RTVSPost2010Prop51ColorRGB
 90
-16777216
102
RTVSPost2010PropOp51
 70
     0
102
RTVSPost2010Prop52
140
1.0
102
RTVSPost2010PropOp52
 70
     0
102
RTVSPost2010Prop53
 90
        2
102
RTVSPost2010PropOp53
 70
     1
102
RTVSPost2010Prop54
  1
strokes_ogs.tif
102
RTVSPost2010PropOp54
 70
     1
102
RTVSPost2010Prop55
280
     0
102
RTVSPost2010PropOp55
 70
     1
102
RTVSPost2010Prop56
140
1.0
102
RTVSPost2010PropOp56
 70
     1
102
RTVSPost2010Prop57
140
1.0
102
RTVSPost2010PropOp57
 70
     1
102
RTVSPropertyOp0
 70
     1
102
RTVSPropertyOp1
 70
     1
102
RTVSPropertyOp2
 70
     1
102
RTVSPropertyOp3
 70
     1
102
RTVSPropertyOp4
 70
     1
102
RTVSPropertyOp5
 70
     1
102
RTVSPropertyOp6
 70
     1
102
RTVSPropertyOp7
 70
     1
102
RTVSPropertyOp8
 70
     1
102
RTVSPropertyOp9
 70
     1
102
RTVSPropertyOp10
 70
     1
102
RTVSPropertyOp11
 70
     1
102
RTVSPropertyOp12
 70
     1
102
RTVSPropertyOp13
 70
     1
102
RTVSPropertyOp14
 70
     1
102
RTVSPropertyOp15
 70
     1
102
RTVSPropertyOp16
 70
     1
102
RTVSPropertyOp17
 70
     1
102
RTVSPropertyOp18
 70
     1
102
RTVSPropertyOp19
 70
     1
102
RTVSPropertyOp20
 70
     1
102
RTVSPropertyOp21
 70
     1
102
RTVSPropertyOp22
 70
     1
102
RTVSPropertyOp23
 70
     1
102
RTVSPropertyOp24
 70
     1
102
RTVSPropertyOp25
 70
     1
102
RTVSPropertyOp26
 70
     1
102
RTVSPropertyOp27
 70
     1
102
RTVSPropertyOp28
 70
     1
102
RTVSPropertyOp29
 70
     1
102
RTVSPropertyOp30
 70
     1
102
RTVSPropertyOp31
 70
     1
102
RTVSPropertyOp32
 70
     1
102
RTVSPropertyOp33
 70
     1
102
RTVSPropertyOp34
 70
     1
102
RTVSPropertyOp35
 70
     1
102
RTVSPropertyOp36
 70
     1
102
RTVSPropertyOp37
 70
     1
102
RTVSPropertyOp38
 70
     1
102
RTVSPropertyOp39
 70
     1
102
RTVSPropertyOp40
 70
     1
102
RTVSPropertyOp41
 70
     1
102
RTVSPropertyOp42
 70
     1
102
RTVSPropertyOp43
 70
     1
102
RTVSPropertyOp44
 70
     1
102
RTVSPropertyOp45
 70
     1
102
RTVSPropertyOp46
 70
     1
102
RTVSPropertyOp47
 70
     1
102
RTVSPropertyOp48
 70
     1
102
RTVSPropertyOp49
 70
     1
102
RTVSPropertyOp50
 70
     1
102
RTVSPropertyOp51
 70
     0
102
RTVSPropertyOp52
 70
     0
102
RTVSPropertyOp53
 70
     1
102
RTVSPropertyOp54
 70
     1
102
RTVSPropertyOp55
 70
     1
102
RTVSPropertyOp56
 70
     1
102
RTVSPropertyOp57
 70
     1
102
RTVSPropertyOp58
 70
     1
102
RTVSPropertyOp59
 70
     1
102
RTVSPropertyOp60
 70
     1
102
RTVSPropertyOp61
 70
     1
102
RTVSPropertyOp62
 70
     1
  0
XRECORD
  5
9C5E
102
{ACAD_REACTORS
330
9C5D
102
}
330
9C5D
100
AcDbXrecord
280
     1
102
RTVSPost2010Prop28
280
     0
102
RTVSPost2010PropOp28
 70
     1
102
RTVSPost2010Prop29
280
     1
102
RTVSPost2010PropOp29
 70
     1
102
RTVSPost2010Prop30
280
     1
102
RTVSPost2010PropOp30
 70
     1
102
RTVSPost2010Prop31
280
     0
102
RTVSPost2010PropOp31
 70
     1
102
RTVSPost2010Prop32
280
     0
102
RTVSPost2010PropOp32
 70
     1
102
RTVSPost2010Prop33
280
     0
102
RTVSPost2010PropOp33
 70
     1
102
RTVSPost2010Prop34
280
     0
102
RTVSPost2010PropOp34
 70
     1
102
RTVSPost2010Prop35
280
     0
102
RTVSPost2010PropOp35
 70
     1
102
RTVSPost2010Prop36
280
     0
102
RTVSPost2010PropOp36
 70
     1
102
RTVSPost2010Prop37
 90
       50
102
RTVSPost2010PropOp37
 70
     1
102
RTVSPost2010Prop38
140
0.0
102
RTVSPost2010PropOp38
 70
     1
102
RTVSPost2010Prop39
140
1.0
102
RTVSPost2010PropOp39
 70
     1
102
RTVSPost2010Prop40
 90
        0
102
RTVSPost2010PropOp40
 70
     1
102
RTVSPost2010Prop41ColorIndex
 90
       18
102
RTVSPost2010Prop41ColorRGB
 90
        0
102
RTVSPost2010PropOp41
 70
     1
102
RTVSPost2010Prop42
 90
       50
102
RTVSPost2010PropOp42
 70
     1
102
RTVSPost2010Prop43
 90
        3
102
RTVSPost2010PropOp43
 70
     1
102
RTVSPost2010Prop44ColorIndex
 90
        5
102
RTVSPost2010Prop44ColorRGB
 90
      255
102
RTVSPost2010PropOp44
 70
     1
102
RTVSPost2010Prop45
280
     0
102
RTVSPost2010PropOp45
 70
     1
102
RTVSPost2010Prop46
 90
       50
102
RTVSPost2010PropOp46
 70
     1
102
RTVSPost2010Prop47
 90
       50
102
RTVSPost2010PropOp47
 70
     1
102
RTVSPost2010Prop48
 90
       50
102
RTVSPost2010PropOp48
 70
     1
102
RTVSPost2010Prop49
280
     0
102
RTVSPost2010PropOp49
 70
     1
102
RTVSPost2010Prop50
 90
       50
102
RTVSPost2010PropOp50
 70
     1
102
RTVSPost2010Prop51ColorIndex
 90
      256
102
RTVSPost2010Prop51ColorRGB
 90
-16777216
102
RTVSPost2010PropOp51
 70
     0
102
RTVSPost2010Prop52
140
1.0
102
RTVSPost2010PropOp52
 70
     0
102
RTVSPost2010Prop53
 90
        2
102
RTVSPost2010PropOp53
 70
     1
102
RTVSPost2010Prop54
  1
strokes_ogs.tif
102
RTVSPost2010PropOp54
 70
     1
102
RTVSPost2010Prop55
280
     0
102
RTVSPost2010PropOp55
 70
     1
102
RTVSPost2010Prop56
140
1.0
102
RTVSPost2010PropOp56
 70
     1
102
RTVSPost2010Prop57
140
1.0
102
RTVSPost2010PropOp57
 70
     1
102
RTVSPropertyOp0
 70
     1
102
RTVSPropertyOp1
 70
     1
102
RTVSPropertyOp2
 70
     1
102
RTVSPropertyOp3
 70
     1
102
RTVSPropertyOp4
 70
     1
102
RTVSPropertyOp5
 70
     1
102
RTVSPropertyOp6
 70
     1
102
RTVSPropertyOp7
 70
     1
102
RTVSPropertyOp8
 70
     1
102
RTVSPropertyOp9
 70
     1
102
RTVSPropertyOp10
 70
     1
102
RTVSPropertyOp11
 70
     1
102
RTVSPropertyOp12
 70
     1
102
RTVSPropertyOp13
 70
     1
102
RTVSPropertyOp14
 70
     1
102
RTVSPropertyOp15
 70
     1
102
RTVSPropertyOp16
 70
     1
102
RTVSPropertyOp17
 70
     1
102
RTVSPropertyOp18
 70
     1
102
RTVSPropertyOp19
 70
     1
102
RTVSPropertyOp20
 70
     1
102
RTVSPropertyOp21
 70
     1
102
RTVSPropertyOp22
 70
     1
102
RTVSPropertyOp23
 70
     1
102
RTVSPropertyOp24
 70
     1
102
RTVSPropertyOp25
 70
     1
102
RTVSPropertyOp26
 70
     1
102
RTVSPropertyOp27
 70
     1
102
RTVSPropertyOp28
 70
     1
102
RTVSPropertyOp29
 70
     1
102
RTVSPropertyOp30
 70
     1
102
RTVSPropertyOp31
 70
     1
102
RTVSPropertyOp32
 70
     1
102
RTVSPropertyOp33
 70
     1
102
RTVSPropertyOp34
 70
     1
102
RTVSPropertyOp35
 70
     1
102
RTVSPropertyOp36
 70
     1
102
RTVSPropertyOp37
 70
     1
102
RTVSPropertyOp38
 70
     1
102
RTVSPropertyOp39
 70
     1
102
RTVSPropertyOp40
 70
     1
102
RTVSPropertyOp41
 70
     1
102
RTVSPropertyOp42
 70
     1
102
RTVSPropertyOp43
 70
     1
102
RTVSPropertyOp44
 70
     1
102
RTVSPropertyOp45
 70
     1
102
RTVSPropertyOp46
 70
     1
102
RTVSPropertyOp47
 70
     1
102
RTVSPropertyOp48
 70
     1
102
RTVSPropertyOp49
 70
     1
102
RTVSPropertyOp50
 70
     1
102
RTVSPropertyOp51
 70
     0
102
RTVSPropertyOp52
 70
     0
102
RTVSPropertyOp53
 70
     1
102
RTVSPropertyOp54
 70
     1
102
RTVSPropertyOp55
 70
     1
102
RTVSPropertyOp56
 70
     1
102
RTVSPropertyOp57
 70
     1
102
RTVSPropertyOp58
 70
     1
102
RTVSPropertyOp59
 70
     1
102
RTVSPropertyOp60
 70
     1
102
RTVSPropertyOp61
 70
     1
102
RTVSPropertyOp62
 70
     1
  0
XRECORD
  5
9C52
102
{ACAD_REACTORS
330
9C51
102
}
330
9C51
100
AcDbXrecord
280
     1
102
RTVSPost2010Prop28
280
     0
102
RTVSPost2010PropOp28
 70
     1
102
RTVSPost2010Prop29
280
     1
102
RTVSPost2010PropOp29
 70
     1
102
RTVSPost2010Prop30
280
     1
102
RTVSPost2010PropOp30
 70
     1
102
RTVSPost2010Prop31
280
     0
102
RTVSPost2010PropOp31
 70
     1
102
RTVSPost2010Prop32
280
     0
102
RTVSPost2010PropOp32
 70
     1
102
RTVSPost2010Prop33
280
     0
102
RTVSPost2010PropOp33
 70
     1
102
RTVSPost2010Prop34
280
     0
102
RTVSPost2010PropOp34
 70
     1
102
RTVSPost2010Prop35
280
     0
102
RTVSPost2010PropOp35
 70
     1
102
RTVSPost2010Prop36
280
     0
102
RTVSPost2010PropOp36
 70
     1
102
RTVSPost2010Prop37
 90
       50
102
RTVSPost2010PropOp37
 70
     1
102
RTVSPost2010Prop38
140
0.0
102
RTVSPost2010PropOp38
 70
     1
102
RTVSPost2010Prop39
140
1.0
102
RTVSPost2010PropOp39
 70
     1
102
RTVSPost2010Prop40
 90
        0
102
RTVSPost2010PropOp40
 70
     1
102
RTVSPost2010Prop41ColorIndex
 90
       18
102
RTVSPost2010Prop41ColorRGB
 90
        0
102
RTVSPost2010PropOp41
 70
     1
102
RTVSPost2010Prop42
 90
       50
102
RTVSPost2010PropOp42
 70
     1
102
RTVSPost2010Prop43
 90
        3
102
RTVSPost2010PropOp43
 70
     1
102
RTVSPost2010Prop44ColorIndex
 90
        5
102
RTVSPost2010Prop44ColorRGB
 90
      255
102
RTVSPost2010PropOp44
 70
     1
102
RTVSPost2010Prop45
280
     0
102
RTVSPost2010PropOp45
 70
     1
102
RTVSPost2010Prop46
 90
       50
102
RTVSPost2010PropOp46
 70
     1
102
RTVSPost2010Prop47
 90
       50
102
RTVSPost2010PropOp47
 70
     1
102
RTVSPost2010Prop48
 90
       50
102
RTVSPost2010PropOp48
 70
     1
102
RTVSPost2010Prop49
280
     0
102
RTVSPost2010PropOp49
 70
     1
102
RTVSPost2010Prop50
 90
       50
102
RTVSPost2010PropOp50
 70
     1
102
RTVSPost2010Prop51ColorIndex
 90
      256
102
RTVSPost2010Prop51ColorRGB
 90
-16777216
102
RTVSPost2010PropOp51
 70
     0
102
RTVSPost2010Prop52
140
1.0
102
RTVSPost2010PropOp52
 70
     0
102
RTVSPost2010Prop53
 90
        2
102
RTVSPost2010PropOp53
 70
     1
102
RTVSPost2010Prop54
  1
strokes_ogs.tif
102
RTVSPost2010PropOp54
 70
     1
102
RTVSPost2010Prop55
280
     0
102
RTVSPost2010PropOp55
 70
     1
102
RTVSPost2010Prop56
140
1.0
102
RTVSPost2010PropOp56
 70
     1
102
RTVSPost2010Prop57
140
1.0
102
RTVSPost2010PropOp57
 70
     1
102
RTVSPropertyOp0
 70
     1
102
RTVSPropertyOp1
 70
     1
102
RTVSPropertyOp2
 70
     1
102
RTVSPropertyOp3
 70
     1
102
RTVSPropertyOp4
 70
     1
102
RTVSPropertyOp5
 70
     1
102
RTVSPropertyOp6
 70
     1
102
RTVSPropertyOp7
 70
     1
102
RTVSPropertyOp8
 70
     1
102
RTVSPropertyOp9
 70
     1
102
RTVSPropertyOp10
 70
     1
102
RTVSPropertyOp11
 70
     1
102
RTVSPropertyOp12
 70
     1
102
RTVSPropertyOp13
 70
     1
102
RTVSPropertyOp14
 70
     1
102
RTVSPropertyOp15
 70
     1
102
RTVSPropertyOp16
 70
     1
102
RTVSPropertyOp17
 70
     1
102
RTVSPropertyOp18
 70
     1
102
RTVSPropertyOp19
 70
     1
102
RTVSPropertyOp20
 70
     1
102
RTVSPropertyOp21
 70
     1
102
RTVSPropertyOp22
 70
     1
102
RTVSPropertyOp23
 70
     1
102
RTVSPropertyOp24
 70
     1
102
RTVSPropertyOp25
 70
     1
102
RTVSPropertyOp26
 70
     1
102
RTVSPropertyOp27
 70
     1
102
RTVSPropertyOp28
 70
     1
102
RTVSPropertyOp29
 70
     1
102
RTVSPropertyOp30
 70
     1
102
RTVSPropertyOp31
 70
     1
102
RTVSPropertyOp32
 70
     1
102
RTVSPropertyOp33
 70
     1
102
RTVSPropertyOp34
 70
     1
102
RTVSPropertyOp35
 70
     1
102
RTVSPropertyOp36
 70
     1
102
RTVSPropertyOp37
 70
     1
102
RTVSPropertyOp38
 70
     1
102
RTVSPropertyOp39
 70
     1
102
RTVSPropertyOp40
 70
     1
102
RTVSPropertyOp41
 70
     1
102
RTVSPropertyOp42
 70
     1
102
RTVSPropertyOp43
 70
     1
102
RTVSPropertyOp44
 70
     1
102
RTVSPropertyOp45
 70
     1
102
RTVSPropertyOp46
 70
     1
102
RTVSPropertyOp47
 70
     1
102
RTVSPropertyOp48
 70
     1
102
RTVSPropertyOp49
 70
     1
102
RTVSPropertyOp50
 70
     1
102
RTVSPropertyOp51
 70
     0
102
RTVSPropertyOp52
 70
     0
102
RTVSPropertyOp53
 70
     1
102
RTVSPropertyOp54
 70
     1
102
RTVSPropertyOp55
 70
     1
102
RTVSPropertyOp56
 70
     1
102
RTVSPropertyOp57
 70
     1
102
RTVSPropertyOp58
 70
     1
102
RTVSPropertyOp59
 70
     1
102
RTVSPropertyOp60
 70
     1
102
RTVSPropertyOp61
 70
     1
102
RTVSPropertyOp62
 70
     1
  0
XRECORD
  5
9C6A
102
{ACAD_REACTORS
330
9C69
102
}
330
9C69
100
AcDbXrecord
280
     1
102
RTVSPost2010Prop28
280
     0
102
RTVSPost2010PropOp28
 70
     1
102
RTVSPost2010Prop29
280
     1
102
RTVSPost2010PropOp29
 70
     1
102
RTVSPost2010Prop30
280
     1
102
RTVSPost2010PropOp30
 70
     1
102
RTVSPost2010Prop31
280
     0
102
RTVSPost2010PropOp31
 70
     1
102
RTVSPost2010Prop32
280
     0
102
RTVSPost2010PropOp32
 70
     1
102
RTVSPost2010Prop33
280
     0
102
RTVSPost2010PropOp33
 70
     1
102
RTVSPost2010Prop34
280
     0
102
RTVSPost2010PropOp34
 70
     1
102
RTVSPost2010Prop35
280
     0
102
RTVSPost2010PropOp35
 70
     1
102
RTVSPost2010Prop36
280
     0
102
RTVSPost2010PropOp36
 70
     1
102
RTVSPost2010Prop37
 90
       50
102
RTVSPost2010PropOp37
 70
     1
102
RTVSPost2010Prop38
140
0.0
102
RTVSPost2010PropOp38
 70
     1
102
RTVSPost2010Prop39
140
1.0
102
RTVSPost2010PropOp39
 70
     1
102
RTVSPost2010Prop40
 90
        0
102
RTVSPost2010PropOp40
 70
     1
102
RTVSPost2010Prop41ColorIndex
 90
       18
102
RTVSPost2010Prop41ColorRGB
 90
        0
102
RTVSPost2010PropOp41
 70
     1
102
RTVSPost2010Prop42
 90
       50
102
RTVSPost2010PropOp42
 70
     1
102
RTVSPost2010Prop43
 90
        3
102
RTVSPost2010PropOp43
 70
     1
102
RTVSPost2010Prop44ColorIndex
 90
        5
102
RTVSPost2010Prop44ColorRGB
 90
      255
102
RTVSPost2010PropOp44
 70
     1
102
RTVSPost2010Prop45
280
     0
102
RTVSPost2010PropOp45
 70
     1
102
RTVSPost2010Prop46
 90
       50
102
RTVSPost2010PropOp46
 70
     1
102
RTVSPost2010Prop47
 90
       50
102
RTVSPost2010PropOp47
 70
     1
102
RTVSPost2010Prop48
 90
       50
102
RTVSPost2010PropOp48
 70
     1
102
RTVSPost2010Prop49
280
     0
102
RTVSPost2010PropOp49
 70
     1
102
RTVSPost2010Prop50
 90
       50
102
RTVSPost2010PropOp50
 70
     1
102
RTVSPost2010Prop51ColorIndex
 90
      256
102
RTVSPost2010Prop51ColorRGB
 90
-16777216
102
RTVSPost2010PropOp51
 70
     0
102
RTVSPost2010Prop52
140
1.0
102
RTVSPost2010PropOp52
 70
     0
102
RTVSPost2010Prop53
 90
        2
102
RTVSPost2010PropOp53
 70
     1
102
RTVSPost2010Prop54
  1
strokes_ogs.tif
102
RTVSPost2010PropOp54
 70
     1
102
RTVSPost2010Prop55
280
     0
102
RTVSPost2010PropOp55
 70
     1
102
RTVSPost2010Prop56
140
1.0
102
RTVSPost2010PropOp56
 70
     1
102
RTVSPost2010Prop57
140
1.0
102
RTVSPost2010PropOp57
 70
     1
102
RTVSPropertyOp0
 70
     1
102
RTVSPropertyOp1
 70
     1
102
RTVSPropertyOp2
 70
     1
102
RTVSPropertyOp3
 70
     1
102
RTVSPropertyOp4
 70
     1
102
RTVSPropertyOp5
 70
     1
102
RTVSPropertyOp6
 70
     1
102
RTVSPropertyOp7
 70
     1
102
RTVSPropertyOp8
 70
     1
102
RTVSPropertyOp9
 70
     1
102
RTVSPropertyOp10
 70
     1
102
RTVSPropertyOp11
 70
     1
102
RTVSPropertyOp12
 70
     1
102
RTVSPropertyOp13
 70
     1
102
RTVSPropertyOp14
 70
     1
102
RTVSPropertyOp15
 70
     1
102
RTVSPropertyOp16
 70
     1
102
RTVSPropertyOp17
 70
     1
102
RTVSPropertyOp18
 70
     1
102
RTVSPropertyOp19
 70
     1
102
RTVSPropertyOp20
 70
     1
102
RTVSPropertyOp21
 70
     1
102
RTVSPropertyOp22
 70
     1
102
RTVSPropertyOp23
 70
     1
102
RTVSPropertyOp24
 70
     1
102
RTVSPropertyOp25
 70
     1
102
RTVSPropertyOp26
 70
     1
102
RTVSPropertyOp27
 70
     1
102
RTVSPropertyOp28
 70
     1
102
RTVSPropertyOp29
 70
     1
102
RTVSPropertyOp30
 70
     1
102
RTVSPropertyOp31
 70
     1
102
RTVSPropertyOp32
 70
     1
102
RTVSPropertyOp33
 70
     1
102
RTVSPropertyOp34
 70
     1
102
RTVSPropertyOp35
 70
     1
102
RTVSPropertyOp36
 70
     1
102
RTVSPropertyOp37
 70
     1
102
RTVSPropertyOp38
 70
     1
102
RTVSPropertyOp39
 70
     1
102
RTVSPropertyOp40
 70
     1
102
RTVSPropertyOp41
 70
     1
102
RTVSPropertyOp42
 70
     1
102
RTVSPropertyOp43
 70
     1
102
RTVSPropertyOp44
 70
     1
102
RTVSPropertyOp45
 70
     1
102
RTVSPropertyOp46
 70
     1
102
RTVSPropertyOp47
 70
     1
102
RTVSPropertyOp48
 70
     1
102
RTVSPropertyOp49
 70
     1
102
RTVSPropertyOp50
 70
     1
102
RTVSPropertyOp51
 70
     0
102
RTVSPropertyOp52
 70
     0
102
RTVSPropertyOp53
 70
     1
102
RTVSPropertyOp54
 70
     1
102
RTVSPropertyOp55
 70
     1
102
RTVSPropertyOp56
 70
     1
102
RTVSPropertyOp57
 70
     1
102
RTVSPropertyOp58
 70
     1
102
RTVSPropertyOp59
 70
     1
102
RTVSPropertyOp60
 70
     1
102
RTVSPropertyOp61
 70
     1
102
RTVSPropertyOp62
 70
     1
  0
ENDSEC
  0
EOF
