  0
SECTION
  2
HEADER
  9
$ACADVER
  1
AC1027
  9
$DWGCODEPAGE
  3
ANSI_932
  9
$LTSCALE
 40
20.0
  9
$FILLMODE
 70
     1
  9
$CLAYER
  8
0
  9
$PDMODE
 70
     0
  9
$SPLFRAME
 70
     0
  9
$SPLINETYPE
 70
     6
  9
$SPLINESEGS
 70
     8
  9
$DIMASZ
 40
2.000000
  9
$DIMEXE
 40
1.500000
  9
$DIMEXO
 40
0.800000
  9
$DIMTAD
 70
     1
  9
$DIMTIH
 70
     0
  9
$DIMTOH
 70
     0
  9
$DIMTVP
 40
0.500000
  9
$DIMTXT
 40
3.100000
  9
$EXTMIN
 10
0.000000
 20
0.000000
 30
0.000000
  9
$EXTMAX
 10
297.000000
 20
420.000000
 30
0.000000
  9
$MEASUREMENT
 70
  1
  9
$LIMMIN
 10
0.000000
 20
0.000000
  9
$LIMMAX
 10
297.000000
 20
420.000000
  9
$HANDSEED
  5
3C0
  9
$LWDISPLAY
290
     0
  9
$DIMBLK
  1
_OPEN
  9
$DIMDEC
 70
     2
  9
$DIMADEC
 70
     2
  9
$DIMAUNIT
 70
     0
  9
$DIMZIN
 70
     8
  9
$DIMAZIN
 70
     2
  9
$DIMTOFL
 70
     1
  0
ENDSEC
  0
SECTION
  2
CLASSES
  0
ENDSEC
  0
SECTION
  2
TABLES
  0
TABLE
  2
VPORT
  5
38F
100
AcDbSymbolTable
 70
     1
  0
VPORT
  5
390
100
AcDbSymbolTableRecord
100
AcDbViewportTableRecord
  2
*ACTIVE
 70
     0
 12
321.136754
 22
238.113105
 40
440.226210
 41
1.413531
  0
ENDTAB
  0
TABLE
  2
LTYPE
  5
391
100
AcDbSymbolTable
 70
     3
  0
LTYPE
  5
392
100
AcDbSymbolTableRecord
100
AcDbLinetypeTableRecord
  2
BYBLOCK
 70
     0
  3

 72
    65
 73
     0
 40
0.0
  0
LTYPE
  5
393
100
AcDbSymbolTableRecord
100
AcDbLinetypeTableRecord
  2
BYLAYER
 70
     0
  3

 72
    65
 73
     0
 40
0.0
  0
LTYPE
  5
394
100
AcDbSymbolTableRecord
100
AcDbLinetypeTableRecord
  2
CONTINUOUS
 70
     0
  3
Solid line (NEC CAE2D for Win R17.0 : 2022.11.25)
 72
    65
 73
     0
 40
0.0
  0
LTYPE
  5
395
100
AcDbSymbolTableRecord
100
AcDbLinetypeTableRecord
  2
CENTER
 70
     0
  3
____ _ ____ _ ____ _ ____ _ ____ _ ____
 72
    65
 73
     4
 40
2.0
 49
1.25
 74
     0
 49
-0.25
 74
     0
 49
0.25
 74
     0
 49
-0.25
 74
     0
  0
LTYPE
  5
396
100
AcDbSymbolTableRecord
100
AcDbLinetypeTableRecord
  2
PHANTOM
 70
     0
  3
______  __  __  ______  __  __  ______ 
 72
    65
 73
     6
 40
2.5
 49
1.25
 74
     0
 49
-0.25
 74
     0
 49
0.25
 74
     0
 49
-0.25
 74
     0
 49
0.25
 74
     0
 49
-0.25
 74
     0
  0
ENDTAB
  0
TABLE
  2
LAYER
  5
397
100
AcDbSymbolTable
 70
    10
  0
LAYER
  5
398
100
AcDbSymbolTableRecord
100
AcDbLayerTableRecord
  2
0
 70
     0
 62
     7
  6
CONTINUOUS
370
    -3
390

  0
LAYER
  5
399
100
AcDbSymbolTableRecord
100
AcDbLayerTableRecord
  2
DXF0
 70
     0
 62
     7
  6
CONTINUOUS
370
    -3
390

  0
LAYER
  5
39A
100
AcDbSymbolTableRecord
100
AcDbLayerTableRecord
  2
4
 70
     0
 62
     1
  6
CONTINUOUS
370
    -3
390

  0
LAYER
  5
39B
100
AcDbSymbolTableRecord
100
AcDbLayerTableRecord
  2
5
 70
     0
 62
     6
  6
CONTINUOUS
370
    -3
390

  0
LAYER
  5
39C
100
AcDbSymbolTableRecord
100
AcDbLayerTableRecord
  2
1
 70
     0
 62
     7
  6
CONTINUOUS
370
    -3
390

  0
LAYER
  5
39D
100
AcDbSymbolTableRecord
100
AcDbLayerTableRecord
  2
2
 70
     0
 62
     4
  6
CONTINUOUS
370
    -3
390

  0
LAYER
  5
39E
100
AcDbSymbolTableRecord
100
AcDbLayerTableRecord
  2
3
 70
     0
 62
     2
  6
CONTINUOUS
370
    -3
390

  0
LAYER
  5
39F
100
AcDbSymbolTableRecord
100
AcDbLayerTableRecord
  2
6
 70
     0
 62
     5
  6
CONTINUOUS
370
    -3
390

  0
LAYER
  5
3A0
100
AcDbSymbolTableRecord
100
AcDbLayerTableRecord
  2
7
 70
     0
 62
     3
  6
CONTINUOUS
370
    -3
390

  0
LAYER
  5
3A1
100
AcDbSymbolTableRecord
100
AcDbLayerTableRecord
  2
DXF1023
 70
     0
 62
    16
  6
CONTINUOUS
370
    -3
390

  0
ENDTAB
  0
TABLE
  2
STYLE
  5
3A2
100
AcDbSymbolTable
 70
     4
  0
STYLE
  5
3A3
100
AcDbSymbolTableRecord
100
AcDbTextStyleTableRecord
  2
STANDARD
 70
    64
 40
0.0
 41
1.0
 50
0.0
 71
     0
 42
3.000000000000000
  3
TXT
  4

  0
STYLE
  5
3A4
100
AcDbSymbolTableRecord
100
AcDbTextStyleTableRecord
  2
ANKTATE
 70
    68
 40
0.0
 41
1.0
 50
0.0
 71
     0
 42
3.000000000000000
  3
TXT
  4

  0
STYLE
  5
3A5
100
AcDbSymbolTableRecord
100
AcDbTextStyleTableRecord
  2
KNJYOKO
 70
    64
 40
0.0
 41
1.0
 50
0.0
 71
     0
 42
3.000000000000000
  3
TXT
  4
BIGFONT
  0
STYLE
  5
3A6
100
AcDbSymbolTableRecord
100
AcDbTextStyleTableRecord
  2
KNJTATE
 70
    68
 40
0.0
 41
1.0
 50
0.0
 71
     0
 42
3.000000000000000
  3
TXT
  4
BIGFONT
  0
ENDTAB
  0
TABLE
  2
VIEW
  5
3A7
100
AcDbSymbolTable
 70
     0
  0
ENDTAB
  0
TABLE
  2
UCS
  5
3A8
100
AcDbSymbolTable
 70
     0
  0
ENDTAB
  0
TABLE
  2
APPID
  5
3A9
100
AcDbSymbolTable
 70
     1
  0
APPID
  5
3AA
100
AcDbSymbolTableRecord
100
AcDbRegAppTableRecord
  2
ACAD
 70
     0
  0
ENDTAB
  0
TABLE
  2
DIMSTYLE
  5
3AB
100
AcDbSymbolTable
 70
     2
100
AcDbDimStyleTable
  0
DIMSTYLE
105
3AC
100
AcDbSymbolTableRecord
100
AcDbDimStyleTableRecord
  2
STANDARD
 70
     0
 41
2.000000
 44
1.500000
 42
0.800000
145
0.661290
140
3.100000
144
1.000000
146
0.645161
340
3A3
  0
DIMSTYLE
105
3AD
100
AcDbSymbolTableRecord
100
AcDbDimStyleTableRecord
  2
DXF001
 70
     0
 41
2.000000
 44
1.500000
 42
0.800000
145
0.661290
140
3.100000
144
1.000000
146
0.645161
 77
     1
 73
     0
 74
     0
271
     2
179
     2
275
     0
 78
     8
 79
     2
172
     1
340
3A3
  0
ENDTAB
  0
TABLE
  2
BLOCK_RECORD
  5
3AE
100
AcDbSymbolTable
 70
    12
  0
BLOCK_RECORD
  5
3AF
100
AcDbSymbolTableRecord
100
AcDbBlockTableRecord
  2
*MODEL_SPACE
  0
BLOCK_RECORD
  5
3B0
100
AcDbSymbolTableRecord
100
AcDbBlockTableRecord
  2
*PAPER_SPACE
  0
BLOCK_RECORD
  5
3B1
100
AcDbSymbolTableRecord
100
AcDbBlockTableRecord
  2
*PAPER_SPACE0
  0
BLOCK_RECORD
  5
1
100
AcDbSymbolTableRecord
100
AcDbBlockTableRecord
  2
_NONE
  0
BLOCK_RECORD
  5
4
100
AcDbSymbolTableRecord
100
AcDbBlockTableRecord
  2
_CLOSED
  0
BLOCK_RECORD
  5
B
100
AcDbSymbolTableRecord
100
AcDbBlockTableRecord
  2
_DOT
  0
BLOCK_RECORD
  5
13
100
AcDbSymbolTableRecord
100
AcDbBlockTableRecord
  2
_OPEN
  0
BLOCK_RECORD
  5
19
100
AcDbSymbolTableRecord
100
AcDbBlockTableRecord
  2
_ORIGIN
  0
BLOCK_RECORD
  5
1E
100
AcDbSymbolTableRecord
100
AcDbBlockTableRecord
  2
_OPEN30
  0
BLOCK_RECORD
  5
24
100
AcDbSymbolTableRecord
100
AcDbBlockTableRecord
  2
_BOXFILLED
  0
BLOCK_RECORD
  5
29
100
AcDbSymbolTableRecord
100
AcDbBlockTableRecord
  2
_BOXBLANK
  0
BLOCK_RECORD
  5
31
100
AcDbSymbolTableRecord
100
AcDbBlockTableRecord
  2
_OBLIQUE
  0
BLOCK_RECORD
  5
35
100
AcDbSymbolTableRecord
100
AcDbBlockTableRecord
  2
_OPEN90
  0
BLOCK_RECORD
  5
3B
100
AcDbSymbolTableRecord
100
AcDbBlockTableRecord
  2
_CLOSEDBLANK
  0
BLOCK_RECORD
  5
41
100
AcDbSymbolTableRecord
100
AcDbBlockTableRecord
  2
_DOTBLANK
  0
ENDTAB
  0
ENDSEC
  0
SECTION
  2
BLOCKS
  0
BLOCK
  5
3B2
100
AcDbEntity
  8
0
100
AcDbBlockBegin
  2
*MODEL_SPACE
 70
     0
 10
0.0
 20
0.0
 30
0.0
  3
*MODEL_SPACE
  1

  0
ENDBLK
  5
3B3
100
AcDbEntity
  8
0
100
AcDbBlockEnd
  0
BLOCK
  5
3B4
100
AcDbEntity
  8
0
100
AcDbBlockBegin
  2
*PAPER_SPACE
 70
     0
 10
0.0
 20
0.0
 30
0.0
  3
*PAPER_SPACE
  1

  0
ENDBLK
  5
3B5
100
AcDbEntity
  8
0
100
AcDbBlockEnd
  0
BLOCK
  5
3B6
100
AcDbEntity
  8
0
100
AcDbBlockBegin
  2
*PAPER_SPACE0
 70
     0
 10
0.0
 20
0.0
 30
0.0
  3
*PAPER_SPACE0
  1

  0
ENDBLK
  5
3B7
100
AcDbEntity
  8
0
100
AcDbBlockEnd
  0
BLOCK
  5
2
330
1
100
AcDbEntity
  8
0
100
AcDbBlockBegin
  2
_NONE
 70
     0
 10
0.0
 20
0.0
 30
0.0
  3
_NONE
  1

  0
ENDBLK
  5
3
330
1
100
AcDbEntity
  8
0
100
AcDbBlockEnd
  0
BLOCK
  5
5
330
4
100
AcDbEntity
  8
0
100
AcDbBlockBegin
  2
_CLOSED
 70
     0
 10
0.0
 20
0.0
 30
0.0
  3
_CLOSED
  1

  0
LINE
  5
6
330
4
100
AcDbEntity
  8
0
  6
BYBLOCK
 62
     0
370
    -2
100
AcDbLine
 10
-1.0
 20
0.166667
 30
0.0
 11
0.0
 21
0.0
 31
0.0
  0
LINE
  5
7
330
4
100
AcDbEntity
  8
0
  6
BYBLOCK
 62
     0
370
    -2
100
AcDbLine
 10
0.0
 20
0.0
 30
0.0
 11
-1.0
 21
-0.166667
 31
0.0
  0
LINE
  5
8
330
4
100
AcDbEntity
  8
0
  6
BYBLOCK
 62
     0
370
    -2
100
AcDbLine
 10
-1.0
 20
0.166667
 30
0.0
 11
-1.0
 21
-0.166667
 31
0.0
  0
LINE
  5
9
330
4
100
AcDbEntity
  8
0
  6
BYBLOCK
 62
     0
370
    -2
100
AcDbLine
 10
0.0
 20
0.0
 30
0.0
 11
-1.0
 21
0.0
 31
0.0
  0
ENDBLK
  5
A
330
4
100
AcDbEntity
  8
0
100
AcDbBlockEnd
  0
BLOCK
  5
C
330
B
100
AcDbEntity
  8
0
100
AcDbBlockBegin
  2
_DOT
 70
     0
 10
0.0
 20
0.0
 30
0.0
  3
_DOT
  1

  0
POLYLINE
  5
D
330
B
100
AcDbEntity
  8
0
  6
BYBLOCK
 62
     0
370
    -2
100
AcDb2dPolyline
 66
     1
 10
0.0
 20
0.0
 30
0.0
 70
     1
 40
0.5
 41
0.5
  0
VERTEX
  5
E
330
B
100
AcDbEntity
  8
0
  6
BYBLOCK
 62
     0
370
    -2
100
AcDbVertex
100
AcDb2dVertex
 10
-0.25
 20
0.0
 30
0.0
 42
1.0
  0
VERTEX
  5
F
330
B
100
AcDbEntity
  8
0
  6
BYBLOCK
 62
     0
370
    -2
100
AcDbVertex
100
AcDb2dVertex
 10
0.25
 20
0.0
 30
0.0
 42
1.0
  0
SEQEND
  5
10
330
B
100
AcDbEntity
  8
0
  6
BYBLOCK
 62
     0
370
    -2
  0
LINE
  5
11
330
B
100
AcDbEntity
  8
0
  6
BYBLOCK
 62
     0
370
    -2
100
AcDbLine
 10
-0.5
 20
0.0
 30
0.0
 11
-1.0
 21
0.0
 31
0.0
  0
ENDBLK
  5
12
330
B
100
AcDbEntity
  8
0
100
AcDbBlockEnd
  0
BLOCK
  5
14
330
13
100
AcDbEntity
  8
0
100
AcDbBlockBegin
  2
_OPEN
 70
     0
 10
0.0
 20
0.0
 30
0.0
  3
_OPEN
  1

  0
LINE
  5
15
330
13
100
AcDbEntity
  8
0
  6
BYBLOCK
 62
     0
370
    -2
100
AcDbLine
 10
-1.0
 20
0.166667
 30
0.0
 11
0.0
 21
0.0
 31
0.0
  0
LINE
  5
16
330
13
100
AcDbEntity
  8
0
  6
BYBLOCK
 62
     0
370
    -2
100
AcDbLine
 10
0.0
 20
0.0
 30
0.0
 11
-1.0
 21
-0.166667
 31
0.0
  0
LINE
  5
17
330
13
100
AcDbEntity
  8
0
  6
BYBLOCK
 62
     0
370
    -2
100
AcDbLine
 10
0.0
 20
0.0
 30
0.0
 11
-1.0
 21
0.0
 31
0.0
  0
ENDBLK
  5
18
330
13
100
AcDbEntity
  8
0
100
AcDbBlockEnd
  0
BLOCK
  5
1A
330
19
100
AcDbEntity
  8
0
100
AcDbBlockBegin
  2
_ORIGIN
 70
     0
 10
0.0
 20
0.0
 30
0.0
  3
_ORIGIN
  1

  0
CIRCLE
  5
1B
330
19
100
AcDbEntity
  8
0
  6
BYBLOCK
 62
     0
370
    -2
100
AcDbCircle
 10
0.0
 20
0.0
 30
0.0
 40
0.5
  0
LINE
  5
1C
330
19
100
AcDbEntity
  8
0
  6
BYBLOCK
 62
     0
370
    -2
100
AcDbLine
 10
0.0
 20
0.0
 30
0.0
 11
-1.0
 21
0.0
 31
0.0
  0
ENDBLK
  5
1D
330
19
100
AcDbEntity
  8
0
100
AcDbBlockEnd
  0
BLOCK
  5
1F
330
1E
100
AcDbEntity
  8
0
100
AcDbBlockBegin
  2
_OPEN30
 70
     0
 10
0.0
 20
0.0
 30
0.0
  3
_OPEN30
  1

  0
LINE
  5
20
330
1E
100
AcDbEntity
  8
0
  6
BYBLOCK
 62
     0
370
    -2
100
AcDbLine
 10
-1.0
 20
0.267949
 30
0.0
 11
0.0
 21
0.0
 31
0.0
  0
LINE
  5
21
330
1E
100
AcDbEntity
  8
0
  6
BYBLOCK
 62
     0
370
    -2
100
AcDbLine
 10
0.0
 20
0.0
 30
0.0
 11
-1.0
 21
-0.267949
 31
0.0
  0
LINE
  5
22
330
1E
100
AcDbEntity
  8
0
  6
BYBLOCK
 62
     0
370
    -2
100
AcDbLine
 10
0.0
 20
0.0
 30
0.0
 11
-1.0
 21
0.0
 31
0.0
  0
ENDBLK
  5
23
330
1E
100
AcDbEntity
  8
0
100
AcDbBlockEnd
  0
BLOCK
  5
25
330
24
100
AcDbEntity
  8
0
100
AcDbBlockBegin
  2
_BOXFILLED
 70
     0
 10
0.0
 20
0.0
 30
0.0
  3
_BOXFILLED
  1

  0
SOLID
  5
26
330
24
100
AcDbEntity
  8
0
  6
BYBLOCK
 62
     0
370
    -2
100
AcDbTrace
 10
-0.5
 20
0.5
 30
0.0
 11
0.5
 21
0.5
 31
0.0
 12
-0.5
 22
-0.5
 32
0.0
 13
0.5
 23
-0.5
 33
0.0
  0
LINE
  5
27
330
24
100
AcDbEntity
  8
0
  6
BYBLOCK
 62
     0
370
    -2
100
AcDbLine
 10
-0.5
 20
0.0
 30
0.0
 11
-1.0
 21
0.0
 31
0.0
  0
ENDBLK
  5
28
330
24
100
AcDbEntity
  8
0
100
AcDbBlockEnd
  0
BLOCK
  5
2A
330
29
100
AcDbEntity
  8
0
100
AcDbBlockBegin
  2
_BOXBLANK
 70
     0
 10
0.0
 20
0.0
 30
0.0
  3
_BOXBLANK
  1

  0
LINE
  5
2B
330
29
100
AcDbEntity
  8
0
  6
BYBLOCK
 62
     0
370
    -2
100
AcDbLine
 10
-0.5
 20
-0.5
 30
0.0
 11
0.5
 21
-0.5
 31
0.0
  0
LINE
  5
2C
330
29
100
AcDbEntity
  8
0
  6
BYBLOCK
 62
     0
370
    -2
100
AcDbLine
 10
0.5
 20
-0.5
 30
0.0
 11
0.5
 21
0.5
 31
0.0
  0
LINE
  5
2D
330
29
100
AcDbEntity
  8
0
  6
BYBLOCK
 62
     0
370
    -2
100
AcDbLine
 10
0.5
 20
0.5
 30
0.0
 11
-0.5
 21
0.5
 31
0.0
  0
LINE
  5
2E
330
29
100
AcDbEntity
  8
0
  6
BYBLOCK
 62
     0
370
    -2
100
AcDbLine
 10
-0.5
 20
0.5
 30
0.0
 11
-0.5
 21
-0.5
 31
0.0
  0
LINE
  5
2F
330
29
100
AcDbEntity
  8
0
  6
BYBLOCK
 62
     0
370
    -2
100
AcDbLine
 10
-0.5
 20
0.0
 30
0.0
 11
-1.0
 21
0.0
 31
0.0
  0
ENDBLK
  5
30
330
29
100
AcDbEntity
  8
0
100
AcDbBlockEnd
  0
BLOCK
  5
32
330
31
100
AcDbEntity
  8
0
100
AcDbBlockBegin
  2
_OBLIQUE
 70
     0
 10
0.0
 20
0.0
 30
0.0
  3
_OBLIQUE
  1

  0
LINE
  5
33
330
31
100
AcDbEntity
  8
0
  6
BYBLOCK
 62
     0
370
    -2
100
AcDbLine
 10
-0.5
 20
-0.5
 30
0.0
 11
0.5
 21
0.5
 31
0.0
  0
ENDBLK
  5
34
330
31
100
AcDbEntity
  8
0
100
AcDbBlockEnd
  0
BLOCK
  5
36
330
35
100
AcDbEntity
  8
0
100
AcDbBlockBegin
  2
_OPEN90
 70
     0
 10
0.0
 20
0.0
 30
0.0
  3
_OPEN90
  1

  0
LINE
  5
37
330
35
100
AcDbEntity
  8
0
  6
BYBLOCK
 62
     0
370
    -2
100
AcDbLine
 10
-0.5
 20
0.5
 30
0.0
 11
0.0
 21
0.0
 31
0.0
  0
LINE
  5
38
330
35
100
AcDbEntity
  8
0
  6
BYBLOCK
 62
     0
370
    -2
100
AcDbLine
 10
0.0
 20
0.0
 30
0.0
 11
-0.5
 21
-0.5
 31
0.0
  0
LINE
  5
39
330
35
100
AcDbEntity
  8
0
  6
BYBLOCK
 62
     0
370
    -2
100
AcDbLine
 10
0.0
 20
0.0
 30
0.0
 11
-1.0
 21
0.0
 31
0.0
  0
ENDBLK
  5
3A
330
35
100
AcDbEntity
  8
0
100
AcDbBlockEnd
  0
BLOCK
  5
3C
330
3B
100
AcDbEntity
  8
0
100
AcDbBlockBegin
  2
_CLOSEDBLANK
 70
     0
 10
0.0
 20
0.0
 30
0.0
  3
_CLOSEDBLANK
  1

  0
LINE
  5
3D
330
3B
100
AcDbEntity
  8
0
  6
BYBLOCK
 62
     0
370
    -2
100
AcDbLine
 10
-1.0
 20
0.1666666666666666
 30
0.0
 11
0.0
 21
0.0
 31
0.0
  0
LINE
  5
3E
330
3B
100
AcDbEntity
  8
0
  6
BYBLOCK
 62
     0
370
    -2
100
AcDbLine
 10
0.0
 20
0.0
 30
0.0
 11
-1.0
 21
-0.1666666666666666
 31
0.0
  0
LINE
  5
3F
330
3B
100
AcDbEntity
  8
0
  6
BYBLOCK
 62
     0
370
    -2
100
AcDbLine
 10
-1.0
 20
0.1666666666666666
 30
0.0
 11
-1.0
 21
-0.1666666666666666
 31
0.0
  0
ENDBLK
  5
40
330
3B
100
AcDbEntity
  8
0
100
AcDbBlockEnd
  0
BLOCK
  5
42
330
41
100
AcDbEntity
  8
0
100
AcDbBlockBegin
  2
_DOTBLANK
 70
     0
 10
0.0
 20
0.0
 30
0.0
  3
_DOTBLANK
  1

  0
CIRCLE
  5
43
330
41
100
AcDbEntity
  8
0
  6
BYBLOCK
 62
     0
370
    -2
100
AcDbCircle
 10
0.0
 20
0.0
 30
0.0
 40
0.5
  0
LINE
  5
44
330
41
100
AcDbEntity
  8
0
  6
BYBLOCK
 62
     0
370
    -2
100
AcDbLine
 10
-0.5
 20
0.0
 30
0.0
 11
-1.0
 21
0.0
 31
0.0
  0
ENDBLK
  5
45
330
41
100
AcDbEntity
  8
0
100
AcDbBlockEnd
  0
ENDSEC
  0
SECTION
  2
ENTITIES
  0
LINE
  5
46
100
AcDbEntity
  8
1
  6
CONTINUOUS
 62
7
100
AcDbLine
 10
300.7920500000000
 20
60.44428199999997
 30
0.000000000000000
 11
302.2920500000000
 21
61.94428199999997
 31
0.000000000000000
  0
LINE
  5
47
100
AcDbEntity
  8
1
  6
CONTINUOUS
 62
7
100
AcDbLine
 10
300.7920500000001
 20
61.94428199999999
 30
0.000000000000000
 11
302.2920500000001
 21
63.44428200000002
 31
0.000000000000000
  0
LINE
  5
48
100
AcDbEntity
  8
1
  6
CONTINUOUS
 62
7
100
AcDbLine
 10
300.7920500000001
 20
312.5113089999999
 30
0.000000000000000
 11
302.2920500000001
 21
314.0113090000000
 31
0.000000000000000
  0
LINE
  5
49
100
AcDbEntity
  8
1
  6
CONTINUOUS
 62
7
100
AcDbLine
 10
300.7920500000000
 20
314.0113090000000
 30
0.000000000000000
 11
302.2920500000000
 21
315.5113089999999
 31
0.000000000000000
  0
LINE
  5
4A
100
AcDbEntity
  8
1
  6
CONTINUOUS
 62
7
100
AcDbLine
 10
302.2920500000000
 20
56.19428199999997
 30
0.000000000000000
 11
300.7920500000000
 21
56.19428199999997
 31
0.000000000000000
  0
LINE
  5
4B
100
AcDbEntity
  8
1
  6
CONTINUOUS
 62
7
100
AcDbLine
 10
302.2920500000000
 20
67.69428200000000
 30
0.000000000000000
 11
300.7920500000000
 21
67.69428200000000
 31
0.000000000000000
  0
LINE
  5
4C
100
AcDbEntity
  8
4
  6
CENTER
 62
1
100
AcDbLine
 10
309.5190499999998
 20
61.94428199999999
 30
0.000000000000000
 11
294.1920499999998
 21
61.94428199999999
 31
0.000000000000000
  0
LINE
  5
4D
100
AcDbEntity
  8
1
  6
CONTINUOUS
 62
7
100
AcDbLine
 10
302.2920500000000
 20
319.7613089999999
 30
0.000000000000000
 11
300.7920500000000
 21
319.7613089999999
 31
0.000000000000000
  0
LINE
  5
4E
100
AcDbEntity
  8
1
  6
CONTINUOUS
 62
7
100
AcDbLine
 10
302.2920500000000
 20
308.2613089999998
 30
0.000000000000000
 11
300.7920500000000
 21
308.2613089999998
 31
0.000000000000000
  0
LINE
  5
4F
100
AcDbEntity
  8
4
  6
CENTER
 62
1
100
AcDbLine
 10
309.2920500000000
 20
314.0113089999999
 30
0.000000000000000
 11
294.1920499999998
 21
314.0113089999999
 31
0.000000000000000
  0
LINE
  5
50
100
AcDbEntity
  8
1
  6
CONTINUOUS
 62
7
100
AcDbLine
 10
272.5670500000000
 20
198.0109090000000
 30
0.000000000000000
 11
272.5670500000000
 21
169.0544339999999
 31
0.000000000000000
  0
LINE
  5
51
100
AcDbEntity
  8
1
  6
CONTINUOUS
 62
7
100
AcDbLine
 10
248.0670500000000
 20
198.0109090000000
 30
0.000000000000000
 11
248.0670500000000
 21
168.0109089999999
 31
0.000000000000000
  0
ARC
  5
52
100
AcDbEntity
  8
1
  6
CONTINUOUS
 62
7
100
AcDbCircle
 10
60.67624999999998
 20
196.0109089999999
 30
0.000000000000000
 40
1.000000000000000
100
AcDbArc
 50
2.200000000000000e-05
 51
90.00000000000000
  0
ARC
  5
53
100
AcDbEntity
  8
1
  6
CONTINUOUS
 62
7
100
AcDbCircle
 10
59.17624999999998
 20
200.0109090000000
 30
0.000000000000000
 40
2.500000000000000
100
AcDbArc
 50
270.0000000000000
 51
360.0000220000000
  0
ARC
  5
54
100
AcDbEntity
  8
1
  6
CONTINUOUS
 62
7
100
AcDbCircle
 10
40.67624999999997
 20
196.0109089999999
 30
0.000000000000000
 40
1.000000000000000
100
AcDbArc
 50
90.00000000000000
 51
180.0000000000000
  0
ARC
  5
55
100
AcDbEntity
  8
1
  6
CONTINUOUS
 62
7
100
AcDbCircle
 10
42.17624999999997
 20
200.0109090000000
 30
0.000000000000000
 40
2.500000000000000
100
AcDbArc
 50
180.0000000000000
 51
270.0000000000000
  0
LINE
  5
56
100
AcDbEntity
  8
1
  6
CONTINUOUS
 62
7
100
AcDbLine
 10
71.67624999999998
 20
333.0113089999998
 30
0.000000000000000
 11
71.67624999999998
 21
166.0109089999999
 31
0.000000000000000
  0
LINE
  5
57
100
AcDbEntity
  8
1
  6
CONTINUOUS
 62
7
100
AcDbLine
 10
29.67624999999998
 20
333.0113089999998
 30
0.000000000000000
 11
29.67624999999998
 21
166.0109089999999
 31
0.000000000000000
  0
LINE
  5
58
100
AcDbEntity
  8
1
  6
CONTINUOUS
 62
7
100
AcDbLine
 10
61.92624999999998
 20
304.2613089999998
 30
0.000000000000000
 11
61.92624999999998
 21
162.0109089999999
 31
0.000000000000000
  0
LINE
  5
59
100
AcDbEntity
  8
1
  6
CONTINUOUS
 62
7
100
AcDbLine
 10
39.42624999999998
 20
304.2613089999998
 30
0.000000000000000
 11
39.42624999999998
 21
162.0109089999999
 31
0.000000000000000
  0
LINE
  5
5A
100
AcDbEntity
  8
1
  6
CONTINUOUS
 62
7
100
AcDbLine
 10
245.0670500000000
 20
337.0113089999998
 30
0.000000000000000
 11
245.0670500000000
 21
162.0109089999999
 31
0.000000000000000
  0
LINE
  5
5B
100
AcDbEntity
  8
1
  6
CONTINUOUS
 62
7
100
AcDbLine
 10
243.0670500000000
 20
337.0113089999998
 30
0.000000000000000
 11
243.0670500000000
 21
162.0109089999999
 31
0.000000000000000
  0
LINE
  5
5C
100
AcDbEntity
  8
1
  6
CONTINUOUS
 62
7
100
AcDbLine
 10
240.0670499999999
 20
332.5113089999998
 30
0.000000000000000
 11
240.0670499999999
 21
166.5109089999999
 31
0.000000000000000
  0
LINE
  5
5D
100
AcDbEntity
  8
4
  6
CENTER
 62
1
100
AcDbLine
 10
50.67624999999998
 20
340.0113089999998
 30
0.000000000000000
 11
50.67624999999998
 21
152.8054089999999
 31
0.000000000000000
  0
LINE
  5
5E
100
AcDbEntity
  8
1
  6
CONTINUOUS
 62
7
100
AcDbLine
 10
246.0670499999999
 20
337.0113089999998
 30
0.000000000000000
 11
246.0670499999999
 21
162.0109089999999
 31
0.000000000000000
  0
MTEXT
  5
5F
100
AcDbEntity
  8
7
  6
CONTINUOUS
 62
3
100
AcDbMText
 10
10.00000000000000
 20
18.00000000000000
 30
0.000000000000000
 40
3.000000000000000
 41
0.000000000000000
 44
0.6739999771118164
 71
     7
 72
     1
  1
{\H0.94x;{TYPE No.THA-302J-1K(No.200)}}
 11
1.000000000000000
 21
0.000000000000000
 31
0.000000000000000
  7
STANDARD
  0
LINE
  5
60
100
AcDbEntity
  8
1
  6
CONTINUOUS
 62
7
100
AcDbLine
 10
67.67624999999998
 20
162.0109089999999
 30
0.000000000000000
 11
33.67624999999998
 21
162.0109089999999
 31
0.000000000000000
  0
ARC
  5
61
100
AcDbEntity
  8
1
  6
CONTINUOUS
 62
7
100
AcDbCircle
 10
33.67624999999998
 20
166.0109089999999
 30
0.000000000000000
 40
4.000000000000000
100
AcDbArc
 50
180.0000000000000
 51
270.0000000000000
  0
LINE
  5
62
100
AcDbEntity
  8
1
  6
CONTINUOUS
 62
7
100
AcDbLine
 10
38.92624999999997
 20
166.2800090000000
 30
0.000000000000000
 11
31.32754999999997
 21
162.7729090000000
 31
0.000000000000000
  0
LINE
  5
63
100
AcDbEntity
  8
1
  6
CONTINUOUS
 62
7
100
AcDbLine
 10
61.67624999999998
 20
196.0109089999999
 30
0.000000000000000
 11
61.67624999999998
 21
162.0109089999999
 31
0.000000000000000
  0
LINE
  5
64
100
AcDbEntity
  8
1
  6
CONTINUOUS
 62
7
100
AcDbLine
 10
39.67624999999998
 20
196.0109089999999
 30
0.000000000000000
 11
39.67624999999998
 21
162.0109089999999
 31
0.000000000000000
  0
LINE
  5
65
100
AcDbEntity
  8
1
  6
CONTINUOUS
 62
7
100
AcDbLine
 10
61.67624999999998
 20
166.5109089999999
 30
0.000000000000000
 11
39.67624999999998
 21
166.5109089999999
 31
0.000000000000000
  0
LINE
  5
66
100
AcDbEntity
  8
5
  6
PHANTOM
 62
6
100
AcDbLine
 10
61.67624999999998
 20
158.0109090000000
 30
0.000000000000000
 11
39.67624999999998
 21
158.0109090000000
 31
0.000000000000000
  0
LINE
  5
67
100
AcDbEntity
  8
1
  6
CONTINUOUS
 62
7
100
AcDbLine
 10
39.67624999999998
 20
166.5109089999999
 30
0.000000000000000
 11
39.42624999999998
 21
166.5109089999999
 31
0.000000000000000
  0
LINE
  5
68
100
AcDbEntity
  8
5
  6
PHANTOM
 62
6
100
AcDbLine
 10
39.67624999999998
 20
162.0109089999999
 30
0.000000000000000
 11
39.67624999999998
 21
158.0109090000000
 31
0.000000000000000
  0
LINE
  5
69
100
AcDbEntity
  8
1
  6
CONTINUOUS
 62
7
100
AcDbLine
 10
61.92624999999998
 20
166.5109089999999
 30
0.000000000000000
 11
61.67624999999998
 21
166.5109089999999
 31
0.000000000000000
  0
LINE
  5
6A
100
AcDbEntity
  8
5
  6
PHANTOM
 62
6
100
AcDbLine
 10
61.67624999999998
 20
162.0109089999999
 30
0.000000000000000
 11
61.67624999999998
 21
158.0109090000000
 31
0.000000000000000
  0
LINE
  5
6B
100
AcDbEntity
  8
1
  6
CONTINUOUS
 62
7
100
AcDbLine
 10
62.42624999999998
 20
166.2801089999999
 30
0.000000000000000
 11
70.02485000000001
 21
162.7730090000000
 31
0.000000000000000
  0
ARC
  5
6C
100
AcDbEntity
  8
1
  6
CONTINUOUS
 62
7
100
AcDbCircle
 10
67.67624999999998
 20
166.0109089999999
 30
0.000000000000000
 40
4.000000000000000
100
AcDbArc
 50
270.0000000000000
 51
360.0000220000000
  0
LINE
  5
6D
100
AcDbEntity
  8
1
  6
CONTINUOUS
 62
7
100
AcDbLine
 10
60.67624999999998
 20
197.0109089999999
 30
0.000000000000000
 11
40.67624999999997
 21
197.0109089999999
 31
0.000000000000000
  0
LINE
  5
6E
100
AcDbEntity
  8
4
  6
CENTER
 62
1
100
AcDbLine
 10
41.37625000000002
 20
187.0109089999997
 30
0.000000000000000
 11
59.97625000000005
 21
187.0109089999997
 31
0.000000000000000
  0
ARC
  5
6F
100
AcDbEntity
  8
1
  6
CONTINUOUS
 62
7
100
AcDbCircle
 10
50.67624999999998
 20
208.5410089999998
 30
0.000000000000000
 40
30.00000000000000
100
AcDbArc
 50
248.4900000000000
 51
291.5099999999998
  0
ARC
  5
70
100
AcDbEntity
  8
1
  6
CONTINUOUS
 62
7
100
AcDbCircle
 10
50.67624999999998
 20
208.5410089999998
 30
0.000000000000000
 40
29.33010000000000
100
AcDbArc
 50
247.9729999999999
 51
292.0270000000000
  0
LINE
  5
71
100
AcDbEntity
  8
1
  6
CONTINUOUS
 62
7
100
AcDbLine
 10
51.72625000000005
 20
190.5109090000000
 30
0.000000000000000
 11
51.72625000000005
 21
183.5109089999999
 31
0.000000000000000
  0
LINE
  5
72
100
AcDbEntity
  8
1
  6
CONTINUOUS
 62
7
100
AcDbLine
 10
51.72625000000005
 20
190.5109090000000
 30
0.000000000000000
 11
49.62625000000002
 21
190.5109090000000
 31
0.000000000000000
  0
LINE
  5
73
100
AcDbEntity
  8
1
  6
CONTINUOUS
 62
7
100
AcDbLine
 10
49.62625000000002
 20
190.5109090000000
 30
0.000000000000000
 11
49.62625000000002
 21
183.5109089999999
 31
0.000000000000000
  0
LINE
  5
74
100
AcDbEntity
  8
1
  6
CONTINUOUS
 62
7
100
AcDbLine
 10
51.72625000000005
 20
183.5109089999999
 30
0.000000000000000
 11
49.62625000000002
 21
183.5109089999999
 31
0.000000000000000
  0
LINE
  5
75
100
AcDbEntity
  8
1
  6
CONTINUOUS
 62
7
100
AcDbLine
 10
55.67624999999998
 20
174.5109089999999
 30
0.000000000000000
 11
45.67624999999998
 21
174.5109089999999
 31
0.000000000000000
  0
CIRCLE
  5
76
100
AcDbEntity
  8
1
  6
CONTINUOUS
 62
7
100
AcDbCircle
 10
50.67624999999998
 20
187.0109089999997
 30
0.000000000000000
 40
7.650000000000000
  0
LINE
  5
77
100
AcDbEntity
  8
1
  6
CONTINUOUS
 62
7
100
AcDbLine
 10
45.67624999999997
 20
174.5109089999999
 30
0.000000000000000
 11
50.67624999999997
 21
171.5109089999999
 31
0.000000000000000
  0
LINE
  5
78
100
AcDbEntity
  8
1
  6
CONTINUOUS
 62
7
100
AcDbLine
 10
55.67624999999998
 20
174.5109089999999
 30
0.000000000000000
 11
50.67624999999998
 21
171.5108090000000
 31
0.000000000000000
  0
ARC
  5
79
100
AcDbEntity
  8
1
  6
CONTINUOUS
 62
7
100
AcDbCircle
 10
61.37625000000003
 20
180.9103089999999
 30
0.000000000000000
 40
0.3000000000000000
100
AcDbArc
 50
2.200000000000000e-05
 51
111.1690000000000
  0
LINE
  5
7A
100
AcDbEntity
  8
1
  6
CONTINUOUS
 62
7
100
AcDbLine
 10
272.5670500000000
 20
73.94428200000000
 30
0.000000000000000
 11
272.5670500000000
 21
49.94428200000000
 31
0.000000000000000
  0
LINE
  5
7B
100
AcDbEntity
  8
1
  6
CONTINUOUS
 62
7
100
AcDbLine
 10
300.7920500000000
 20
53.94428200000000
 30
0.000000000000000
 11
300.7920500000000
 21
69.94428200000000
 31
0.000000000000000
  0
LINE
  5
7C
100
AcDbEntity
  8
1
  6
CONTINUOUS
 62
7
100
AcDbLine
 10
280.0670499999998
 20
69.01528200000000
 30
0.000000000000000
 11
280.0670499999998
 21
54.87328200000000
 31
0.000000000000000
  0
LINE
  5
7D
100
AcDbEntity
  8
2
  6
CONTINUOUS
 62
4
100
AcDbLine
 10
280.0670499999998
 20
54.87328199999996
 30
0.000000000000000
 11
276.0670499999998
 21
61.94428199999993
 31
0.000000000000000
  0
LINE
  5
7E
100
AcDbEntity
  8
2
  6
CONTINUOUS
 62
4
100
AcDbLine
 10
280.0670499999998
 20
61.94428199999997
 30
0.000000000000000
 11
276.0670499999998
 21
54.87328200000000
 31
0.000000000000000
  0
LINE
  5
7F
100
AcDbEntity
  8
1
  6
CONTINUOUS
 62
7
100
AcDbLine
 10
273.8670500000000
 20
48.94428200000000
 30
0.000000000000000
 11
273.8670500000000
 21
73.20328200000000
 31
0.000000000000000
  0
LINE
  5
80
100
AcDbEntity
  8
1
  6
CONTINUOUS
 62
7
100
AcDbLine
 10
299.1920499999999
 20
72.94428200000000
 30
0.000000000000000
 11
299.1920499999999
 21
50.94428200000000
 31
0.000000000000000
  0
LINE
  5
81
100
AcDbEntity
  8
1
  6
CONTINUOUS
 62
7
100
AcDbLine
 10
297.1920499999999
 20
50.94428200000000
 30
0.000000000000000
 11
297.1920499999999
 21
72.94428200000000
 31
0.000000000000000
  0
LINE
  5
82
100
AcDbEntity
  8
1
  6
CONTINUOUS
 62
7
100
AcDbLine
 10
276.0670499999998
 20
73.20328200000000
 30
0.000000000000000
 11
276.0670499999998
 21
48.94428200000000
 31
0.000000000000000
  0
LINE
  5
83
100
AcDbEntity
  8
1
  6
CONTINUOUS
 62
7
100
AcDbLine
 10
240.0670499999999
 20
73.39428199999998
 30
0.000000000000000
 11
240.0670499999999
 21
50.49428200000000
 31
0.000000000000000
  0
ARC
  5
84
100
AcDbEntity
  8
1
  6
CONTINUOUS
 62
7
100
AcDbCircle
 10
389.6670500000000
 20
61.94428199999999
 30
0.000000000000000
 40
150.0000000000000
100
AcDbArc
 50
176.1519999999999
 51
183.8479999999999
  0
LINE
  5
85
100
AcDbEntity
  8
1
  6
CONTINUOUS
 62
7
100
AcDbLine
 10
246.0670499999999
 20
82.94428200000000
 30
0.000000000000000
 11
246.0670499999999
 21
40.94428200000000
 31
0.000000000000000
  0
LINE
  5
86
100
AcDbEntity
  8
1
  6
CONTINUOUS
 62
7
100
AcDbLine
 10
243.0670500000000
 20
82.94428200000000
 30
0.000000000000000
 11
243.0670500000000
 21
40.94428200000000
 31
0.000000000000000
  0
LINE
  5
87
100
AcDbEntity
  8
1
  6
CONTINUOUS
 62
7
100
AcDbLine
 10
245.0670500000000
 20
82.94428200000000
 30
0.000000000000000
 11
245.0670500000000
 21
40.94428200000000
 31
0.000000000000000
  0
ARC
  5
88
100
AcDbEntity
  8
1
  6
CONTINUOUS
 62
7
100
AcDbCircle
 10
271.5670499999998
 20
49.94428200000000
 30
0.000000000000000
 40
1.000000000000000
100
AcDbArc
 50
270.0000000000000
 51
360.0000000000000
  0
LINE
  5
89
100
AcDbEntity
  8
1
  6
CONTINUOUS
 62
7
100
AcDbLine
 10
272.5670500000000
 20
49.89428199999998
 30
0.000000000000000
 11
272.8670500000000
 21
49.89428199999998
 31
0.000000000000000
  0
LINE
  5
8A
100
AcDbEntity
  8
1
  6
CONTINUOUS
 62
7
100
AcDbLine
 10
246.0670499999999
 20
48.94428200000000
 30
0.000000000000000
 11
271.5670499999998
 21
48.94428200000000
 31
0.000000000000000
  0
LINE
  5
8B
100
AcDbEntity
  8
1
  6
CONTINUOUS
 62
7
100
AcDbLine
 10
246.0670499999999
 20
45.44428200000000
 30
0.000000000000000
 11
262.0670500000000
 21
45.44428200000000
 31
0.000000000000000
  0
LINE
  5
8C
100
AcDbEntity
  8
1
  6
CONTINUOUS
 62
7
100
AcDbLine
 10
248.0670500000000
 20
48.94428200000000
 30
0.000000000000000
 11
248.0670500000000
 21
46.44428200000000
 31
0.000000000000000
  0
LINE
  5
8D
100
AcDbEntity
  8
1
  6
CONTINUOUS
 62
7
100
AcDbLine
 10
240.0760500000001
 20
50.43428200000002
 30
0.000000000000000
 11
243.0670500000001
 21
40.94428200000001
 31
0.000000000000000
  0
LINE
  5
8E
100
AcDbEntity
  8
1
  6
CONTINUOUS
 62
7
100
AcDbLine
 10
243.0670500000000
 20
40.94428200000000
 30
0.000000000000000
 11
246.0670499999999
 21
40.94428200000000
 31
0.000000000000000
  0
ARC
  5
8F
100
AcDbEntity
  8
1
  6
CONTINUOUS
 62
7
100
AcDbCircle
 10
241.0030499999999
 20
51.94428200000000
 30
0.000000000000000
 40
1.000000000000000
100
AcDbArc
 50
183.8479999999999
 51
200.6179999999997
  0
ARC
  5
90
100
AcDbEntity
  8
1
  6
CONTINUOUS
 62
7
100
AcDbCircle
 10
240.2670500000000
 20
50.49428200000000
 30
0.000000000000000
 40
0.2000000000000000
100
AcDbArc
 50
180.0000000000000
 51
197.4920000000000
  0
ARC
  5
91
100
AcDbEntity
  8
1
  6
CONTINUOUS
 62
7
100
AcDbCircle
 10
247.0670500000000
 20
46.44428200000000
 30
0.000000000000000
 40
1.000000000000000
100
AcDbArc
 50
270.0000000000000
 51
360.0000320000000
  0
LINE
  5
92
100
AcDbEntity
  8
1
  6
CONTINUOUS
 62
7
100
AcDbLine
 10
263.0670499999999
 20
48.94428200000000
 30
0.000000000000000
 11
263.0670499999999
 21
46.44428200000000
 31
0.000000000000000
  0
ARC
  5
93
100
AcDbEntity
  8
1
  6
CONTINUOUS
 62
7
100
AcDbCircle
 10
262.0670500000000
 20
46.44428200000000
 30
0.000000000000000
 40
1.000000000000000
100
AcDbArc
 50
270.0000000000000
 51
360.0000000000000
  0
LINE
  5
94
100
AcDbEntity
  8
1
  6
CONTINUOUS
 62
7
100
AcDbLine
 10
280.0670499999998
 20
54.87328200000000
 30
0.000000000000000
 11
276.0670499999998
 21
54.87328200000000
 31
0.000000000000000
  0
LINE
  5
95
100
AcDbEntity
  8
1
  6
CONTINUOUS
 62
7
100
AcDbLine
 10
273.8670500000000
 20
48.94428200000000
 30
0.000000000000000
 11
276.0670499999998
 21
48.94428200000000
 31
0.000000000000000
  0
ARC
  5
96
100
AcDbEntity
  8
1
  6
CONTINUOUS
 62
7
100
AcDbCircle
 10
272.8670500000000
 20
50.89428200000000
 30
0.000000000000000
 40
1.000000000000000
100
AcDbArc
 50
270.0000000000000
 51
360.0000000000000
  0
LINE
  5
97
100
AcDbEntity
  8
1
  6
CONTINUOUS
 62
7
100
AcDbLine
 10
273.8670500000000
 20
54.94428199999997
 30
0.000000000000000
 11
273.8670500000000
 21
50.68528200000000
 31
0.000000000000000
  0
LINE
  5
98
100
AcDbEntity
  8
1
  6
CONTINUOUS
 62
7
100
AcDbLine
 10
300.7920500000000
 20
53.94428200000000
 30
0.000000000000000
 11
299.1920499999999
 21
53.94428200000000
 31
0.000000000000000
  0
LINE
  5
99
100
AcDbEntity
  8
1
  6
CONTINUOUS
 62
7
100
AcDbLine
 10
299.1920499999999
 20
50.94428200000000
 30
0.000000000000000
 11
297.1920499999999
 21
50.94428200000000
 31
0.000000000000000
  0
ARC
  5
9A
100
AcDbEntity
  8
1
  6
CONTINUOUS
 62
7
100
AcDbCircle
 10
271.5670499999998
 20
73.94428200000000
 30
0.000000000000000
 40
1.000000000000000
100
AcDbArc
 50
0.000000000000000
 51
90.00000000000000
  0
LINE
  5
9B
100
AcDbEntity
  8
1
  6
CONTINUOUS
 62
7
100
AcDbLine
 10
272.5670500000000
 20
73.99428200000000
 30
0.000000000000000
 11
272.8670500000000
 21
73.99428200000000
 31
0.000000000000000
  0
LINE
  5
9C
100
AcDbEntity
  8
4
  6
CENTER
 62
1
100
AcDbLine
 10
236.6670500000000
 20
61.94428199999999
 30
0.000000000000000
 11
286.5199430000000
 21
61.94428199999999
 31
0.000000000000000
  0
LINE
  5
9D
100
AcDbEntity
  8
1
  6
CONTINUOUS
 62
7
100
AcDbLine
 10
240.0760500000000
 20
73.45428199999998
 30
0.000000000000000
 11
243.0670500000000
 21
82.94428199999999
 31
0.000000000000000
  0
LINE
  5
9E
100
AcDbEntity
  8
1
  6
CONTINUOUS
 62
7
100
AcDbLine
 10
246.0670499999999
 20
74.94428200000000
 30
0.000000000000000
 11
271.5670499999998
 21
74.94428200000000
 31
0.000000000000000
  0
LINE
  5
9F
100
AcDbEntity
  8
1
  6
CONTINUOUS
 62
7
100
AcDbLine
 10
246.0670499999999
 20
78.44428200000000
 30
0.000000000000000
 11
262.0670500000000
 21
78.44428200000000
 31
0.000000000000000
  0
ARC
  5
A0
100
AcDbEntity
  8
1
  6
CONTINUOUS
 62
7
100
AcDbCircle
 10
247.0670500000000
 20
77.44428200000000
 30
0.000000000000000
 40
1.000000000000000
100
AcDbArc
 50
2.500000000000000e-05
 51
90.00000000000000
  0
ARC
  5
A1
100
AcDbEntity
  8
1
  6
CONTINUOUS
 62
7
100
AcDbCircle
 10
241.0030499999999
 20
71.94428200000000
 30
0.000000000000000
 40
1.000000000000000
100
AcDbArc
 50
159.3820000000000
 51
176.1519999999999
  0
ARC
  5
A2
100
AcDbEntity
  8
1
  6
CONTINUOUS
 62
7
100
AcDbCircle
 10
240.2670500000000
 20
73.39428199999998
 30
0.000000000000000
 40
0.2000000000000000
100
AcDbArc
 50
162.5079999999998
 51
180.0000000000000
  0
LINE
  5
A3
100
AcDbEntity
  8
1
  6
CONTINUOUS
 62
7
100
AcDbLine
 10
248.0670500000000
 20
77.44428200000000
 30
0.000000000000000
 11
248.0670500000000
 21
74.94428200000000
 31
0.000000000000000
  0
ARC
  5
A4
100
AcDbEntity
  8
1
  6
CONTINUOUS
 62
7
100
AcDbCircle
 10
262.0670500000000
 20
77.44428200000000
 30
0.000000000000000
 40
1.000000000000000
100
AcDbArc
 50
0.000000000000000
 51
90.00000000000000
  0
LINE
  5
A5
100
AcDbEntity
  8
1
  6
CONTINUOUS
 62
7
100
AcDbLine
 10
263.0670499999999
 20
77.44428200000000
 30
0.000000000000000
 11
263.0670499999999
 21
74.94428200000000
 31
0.000000000000000
  0
LINE
  5
A6
100
AcDbEntity
  8
1
  6
CONTINUOUS
 62
7
100
AcDbLine
 10
243.0670500000000
 20
82.94428200000000
 30
0.000000000000000
 11
246.0670499999999
 21
82.94428200000000
 31
0.000000000000000
  0
LINE
  5
A7
100
AcDbEntity
  8
2
  6
CONTINUOUS
 62
4
100
AcDbLine
 10
276.0670499999998
 20
69.01528200000003
 30
0.000000000000000
 11
280.0670499999998
 21
61.94428200000000
 31
0.000000000000000
  0
LINE
  5
A8
100
AcDbEntity
  8
2
  6
CONTINUOUS
 62
4
100
AcDbLine
 10
276.0670499999998
 20
61.94428199999997
 30
0.000000000000000
 11
280.0670499999998
 21
69.01528200000000
 31
0.000000000000000
  0
LINE
  5
A9
100
AcDbEntity
  8
1
  6
CONTINUOUS
 62
7
100
AcDbLine
 10
276.0670499999998
 20
61.94428199999999
 30
0.000000000000000
 11
280.0670499999998
 21
61.94428199999999
 31
0.000000000000000
  0
ARC
  5
AA
100
AcDbEntity
  8
1
  6
CONTINUOUS
 62
7
100
AcDbCircle
 10
272.8670500000000
 20
72.99428200000000
 30
0.000000000000000
 40
1.000000000000000
100
AcDbArc
 50
0.000000000000000
 51
90.00000000000000
  0
LINE
  5
AB
100
AcDbEntity
  8
1
  6
CONTINUOUS
 62
7
100
AcDbLine
 10
280.0670499999998
 20
69.01528200000000
 30
0.000000000000000
 11
276.0670499999998
 21
69.01528200000000
 31
0.000000000000000
  0
LINE
  5
AC
100
AcDbEntity
  8
1
  6
CONTINUOUS
 62
7
100
AcDbLine
 10
273.8670500000000
 20
73.20328200000000
 30
0.000000000000000
 11
276.0670499999998
 21
73.20328200000000
 31
0.000000000000000
  0
LINE
  5
AD
100
AcDbEntity
  8
1
  6
CONTINUOUS
 62
7
100
AcDbLine
 10
299.1920499999999
 20
72.94428200000000
 30
0.000000000000000
 11
297.1920499999999
 21
72.94428200000000
 31
0.000000000000000
  0
LINE
  5
AE
100
AcDbEntity
  8
1
  6
CONTINUOUS
 62
7
100
AcDbLine
 10
300.7920500000000
 20
69.94428200000000
 30
0.000000000000000
 11
299.1920499999999
 21
69.94428200000000
 31
0.000000000000000
  0
LINE
  5
AF
100
AcDbEntity
  8
4
  6
CENTER
 62
1
100
AcDbLine
 10
275.5670499999999
 20
184.5109089999999
 30
0.000000000000000
 11
269.5670499999998
 21
184.5109089999999
 31
0.000000000000000
  0
ARC
  5
B0
100
AcDbEntity
  8
1
  6
CONTINUOUS
 62
7
100
AcDbCircle
 10
271.5670499999998
 20
169.0544339999999
 30
0.000000000000000
 40
1.000000000000000
100
AcDbArc
 50
272.4368039999998
 51
360.0000000000000
  0
LINE
  5
B1
100
AcDbEntity
  8
1
  6
CONTINUOUS
 62
7
100
AcDbLine
 10
247.0670500000000
 20
167.0109089999999
 30
0.000000000000000
 11
271.6095680000000
 21
168.0553390000000
 31
0.000000000000000
  0
LINE
  5
B2
100
AcDbEntity
  8
1
  6
CONTINUOUS
 62
7
100
AcDbLine
 10
246.0670499999999
 20
167.0109089999999
 30
0.000000000000000
 11
247.0670500000000
 21
167.0109089999999
 31
0.000000000000000
  0
ARC
  5
B3
100
AcDbEntity
  8
1
  6
CONTINUOUS
 62
7
100
AcDbCircle
 10
247.0670500000000
 20
168.0109089999999
 30
0.000000000000000
 40
1.000000000000000
100
AcDbArc
 50
270.0000000000000
 51
360.0000220000000
  0
LINE
  5
B4
100
AcDbEntity
  8
1
  6
CONTINUOUS
 62
7
100
AcDbLine
 10
243.0670500000000
 20
162.0109089999999
 30
0.000000000000000
 11
240.0670499999999
 21
166.5109089999999
 31
0.000000000000000
  0
LINE
  5
B5
100
AcDbEntity
  8
1
  6
CONTINUOUS
 62
7
100
AcDbLine
 10
246.0670499999999
 20
162.0109089999999
 30
0.000000000000000
 11
243.0670500000000
 21
162.0109089999999
 31
0.000000000000000
  0
LINE
  5
B6
100
AcDbEntity
  8
5
  6
PHANTOM
 62
6
100
AcDbLine
 10
49.54984999999999
 20
325.0113089999998
 30
0.000000000000000
 11
164.6767499999998
 21
325.0113089999998
 31
0.000000000000000
  0
LINE
  5
B7
100
AcDbEntity
  8
5
  6
PHANTOM
 62
6
100
AcDbLine
 10
49.54984999999999
 20
303.0113089999998
 30
0.000000000000000
 11
164.6767499999998
 21
303.0113089999998
 31
0.000000000000000
  0
LINE
  5
B8
100
AcDbEntity
  8
4
  6
CENTER
 62
1
100
AcDbLine
 10
26.67624999999998
 20
314.0113089999999
 30
0.000000000000000
 11
173.7927500000000
 21
314.0113089999999
 31
0.000000000000000
  0
ARC
  5
B9
100
AcDbEntity
  8
1
  6
CONTINUOUS
 62
7
100
AcDbCircle
 10
65.92624999999998
 20
304.2613089999998
 30
0.000000000000000
 40
4.000000000000000
100
AcDbArc
 50
170.9309999999998
 51
180.0000000000000
  0
ARC
  5
BA
100
AcDbEntity
  8
1
  6
CONTINUOUS
 62
7
100
AcDbCircle
 10
35.42624999999997
 20
304.2613089999998
 30
0.000000000000000
 40
4.000000000000000
100
AcDbArc
 50
2.200000000000000e-05
 51
9.068720000000001
  0
LINE
  5
BB
100
AcDbEntity
  8
5
  6
PHANTOM
 62
6
100
AcDbLine
 10
46.36255000000004
 20
323.3113089999998
 30
0.000000000000000
 11
46.36255000000004
 21
304.7113089999998
 31
0.000000000000000
  0
LINE
  5
BC
100
AcDbEntity
  8
1
  6
CONTINUOUS
 62
7
100
AcDbLine
 10
61.97625000000005
 20
325.3387089999999
 30
0.000000000000000
 11
61.97625000000005
 21
302.9833089999999
 31
0.000000000000000
  0
LINE
  5
BD
100
AcDbEntity
  8
1
  6
CONTINUOUS
 62
7
100
AcDbLine
 10
39.37625000000003
 20
325.3387089999999
 30
0.000000000000000
 11
39.37625000000003
 21
302.9833089999999
 31
0.000000000000000
  0
ARC
  5
BE
100
AcDbEntity
  8
5
  6
PHANTOM
 62
6
100
AcDbCircle
 10
-0.5117500000000064
 20
314.0113089999999
 30
0.000000000000000
 40
50.10280000000000
100
AcDbArc
 50
348.7149999999999
 51
371.2847000000000
  0
ARC
  5
BF
100
AcDbEntity
  8
1
  6
CONTINUOUS
 62
7
100
AcDbCircle
 10
50.67624999999998
 20
314.0113089999999
 30
0.000000000000000
 40
16.10000000000000
100
AcDbArc
 50
314.3274240000000
 51
585.6725759999998
  0
ARC
  5
C0
100
AcDbEntity
  8
1
  6
CONTINUOUS
 62
7
100
AcDbCircle
 10
50.67624999999998
 20
314.0113089999999
 30
0.000000000000000
 40
16.00000000000000
100
AcDbArc
 50
316.4320000000001
 51
583.5707689999999
  0
LINE
  5
C1
100
AcDbEntity
  8
1
  6
CONTINUOUS
 62
7
100
AcDbLine
 10
39.67624999999998
 20
315.1373089999998
 30
0.000000000000000
 11
39.67624999999998
 21
200.0109090000000
 31
0.000000000000000
  0
LINE
  5
C2
100
AcDbEntity
  8
1
  6
CONTINUOUS
 62
7
100
AcDbLine
 10
61.67624999999998
 20
315.1373089999998
 30
0.000000000000000
 11
61.67624999999998
 21
200.0109090000000
 31
0.000000000000000
  0
LINE
  5
C3
100
AcDbEntity
  8
1
  6
CONTINUOUS
 62
7
100
AcDbLine
 10
59.17624999999998
 20
197.5109089999998
 30
0.000000000000000
 11
42.17624999999997
 21
197.5109089999998
 31
0.000000000000000
  0
LINE
  5
C4
100
AcDbEntity
  8
5
  6
PHANTOM
 62
6
100
AcDbLine
 10
39.34884999999996
 20
302.7113089999998
 30
0.000000000000000
 11
61.70365000000003
 21
302.7113089999998
 31
0.000000000000000
  0
LINE
  5
C5
100
AcDbEntity
  8
1
  6
CONTINUOUS
 62
7
100
AcDbLine
 10
39.37625000000003
 20
302.9833089999999
 30
0.000000000000000
 11
39.08325000000002
 21
302.9833089999999
 31
0.000000000000000
  0
ARC
  5
C6
100
AcDbEntity
  8
5
  6
PHANTOM
 62
6
100
AcDbCircle
 10
49.60305000000005
 20
304.0113089999998
 30
0.000000000000000
 40
1.000000000000000
100
AcDbArc
 50
168.7150000000000
 51
270.0000000000000
  0
ARC
  5
C7
100
AcDbEntity
  8
5
  6
PHANTOM
 62
6
100
AcDbCircle
 10
48.36255000000004
 20
304.7113089999998
 30
0.000000000000000
 40
2.000000000000000
100
AcDbArc
 50
180.0000000000000
 51
270.0000000000000
  0
LINE
  5
C8
100
AcDbEntity
  8
1
  6
CONTINUOUS
 62
7
100
AcDbLine
 10
62.26914999999998
 20
302.9833089999999
 30
0.000000000000000
 11
61.97625000000005
 21
302.9833089999999
 31
0.000000000000000
  0
LINE
  5
C9
100
AcDbEntity
  8
1
  6
CONTINUOUS
 62
7
100
AcDbLine
 10
67.67624999999998
 20
337.0113089999998
 30
0.000000000000000
 11
33.67624999999998
 21
337.0113089999998
 31
0.000000000000000
  0
LINE
  5
CA
100
AcDbEntity
  8
1
  6
CONTINUOUS
 62
7
100
AcDbLine
 10
39.42624999999995
 20
332.5113089999998
 30
0.000000000000000
 11
31.32754999999996
 21
336.2483089999999
 31
0.000000000000000
  0
ARC
  5
CB
100
AcDbEntity
  8
1
  6
CONTINUOUS
 62
7
100
AcDbCircle
 10
33.67624999999998
 20
333.0113089999998
 30
0.000000000000000
 40
4.000000000000000
100
AcDbArc
 50
90.00000000000000
 51
180.0000000000000
  0
LINE
  5
CC
100
AcDbEntity
  8
1
  6
CONTINUOUS
 62
7
100
AcDbLine
 10
61.92624999999998
 20
332.5113089999998
 30
0.000000000000000
 11
61.92624999999998
 21
325.5283089999999
 31
0.000000000000000
  0
LINE
  5
CD
100
AcDbEntity
  8
1
  6
CONTINUOUS
 62
7
100
AcDbLine
 10
39.42624999999998
 20
332.5113089999998
 30
0.000000000000000
 11
39.42624999999998
 21
325.5283089999999
 31
0.000000000000000
  0
LINE
  5
CE
100
AcDbEntity
  8
5
  6
PHANTOM
 62
6
100
AcDbLine
 10
39.34884999999996
 20
325.3113089999998
 30
0.000000000000000
 11
61.70365000000003
 21
325.3113089999998
 31
0.000000000000000
  0
LINE
  5
CF
100
AcDbEntity
  8
1
  6
CONTINUOUS
 62
7
100
AcDbLine
 10
59.97625000000005
 20
318.3243089999998
 30
0.000000000000000
 11
41.37625000000002
 21
318.3243089999998
 31
0.000000000000000
  0
ARC
  5
D0
100
AcDbEntity
  8
1
  6
CONTINUOUS
 62
7
100
AcDbCircle
 10
50.67624999999998
 20
365.1993089999999
 30
0.000000000000000
 40
50.10280000000000
100
AcDbArc
 50
258.7149999999999
 51
281.2850000000000
  0
ARC
  5
D1
100
AcDbEntity
  8
5
  6
PHANTOM
 62
6
100
AcDbCircle
 10
49.60305000000005
 20
324.0113089999999
 30
0.000000000000000
 40
1.000000000000000
100
AcDbArc
 50
90.00000000000000
 51
191.2850000000000
  0
ARC
  5
D2
100
AcDbEntity
  8
1
  6
CONTINUOUS
 62
7
100
AcDbCircle
 10
40.67624999999997
 20
315.0843089999999
 30
0.000000000000000
 40
1.000000000000000
100
AcDbArc
 50
78.71529999999997
 51
180.0000000000000
  0
ARC
  5
D3
100
AcDbEntity
  8
1
  6
CONTINUOUS
 62
7
100
AcDbCircle
 10
41.37625000000002
 20
316.3243089999998
 30
0.000000000000000
 40
2.000000000000000
100
AcDbArc
 50
90.00000000000000
 51
180.0000000000000
  0
ARC
  5
D4
100
AcDbEntity
  8
5
  6
PHANTOM
 62
6
100
AcDbCircle
 10
48.36255000000004
 20
323.3113089999998
 30
0.000000000000000
 40
2.000000000000000
100
AcDbArc
 50
90.00000000000000
 51
180.0000000000000
  0
ARC
  5
D5
100
AcDbEntity
  8
1
  6
CONTINUOUS
 62
7
100
AcDbCircle
 10
60.67624999999998
 20
315.0843089999999
 30
0.000000000000000
 40
1.000000000000000
100
AcDbArc
 50
2.200000000000000e-05
 51
101.2849999999999
  0
ARC
  5
D6
100
AcDbEntity
  8
1
  6
CONTINUOUS
 62
7
100
AcDbCircle
 10
59.97625000000005
 20
316.3243089999998
 30
0.000000000000000
 40
2.000000000000000
100
AcDbArc
 50
0.000000000000000
 51
90.00000000000000
  0
LINE
  5
D7
100
AcDbEntity
  8
1
  6
CONTINUOUS
 62
7
100
AcDbLine
 10
61.92624999999998
 20
332.5113089999998
 30
0.000000000000000
 11
39.42624999999998
 21
332.5113089999998
 31
0.000000000000000
  0
LINE
  5
D8
100
AcDbEntity
  8
1
  6
CONTINUOUS
 62
7
100
AcDbLine
 10
61.92625000000000
 20
332.5113089999998
 30
0.000000000000000
 11
70.02485000000003
 21
336.2483090000000
 31
0.000000000000000
  0
ARC
  5
D9
100
AcDbEntity
  8
1
  6
CONTINUOUS
 62
7
100
AcDbCircle
 10
67.67624999999998
 20
333.0113089999998
 30
0.000000000000000
 40
4.000000000000000
100
AcDbArc
 50
2.200000000000000e-05
 51
90.00000000000000
  0
LINE
  5
DA
100
AcDbEntity
  8
1
  6
CONTINUOUS
 62
7
100
AcDbLine
 10
30.04721199999994
 20
377.2030120000001
 30
0.000000000000000
 11
40.24721200000002
 21
381.4530120000001
 31
0.000000000000000
  0
LINE
  5
DB
100
AcDbEntity
  8
1
  6
CONTINUOUS
 62
7
100
AcDbLine
 10
30.04721199999994
 20
386.6260890000000
 30
0.000000000000000
 11
40.24721200000002
 21
382.3760890000000
 31
0.000000000000000
  0
LINE
  5
DC
100
AcDbEntity
  8
1
  6
CONTINUOUS
 62
7
100
AcDbLine
 10
29.35490400000004
 20
377.6645509999998
 30
0.000000000000000
 11
29.35490400000004
 21
386.1645509999998
 31
0.000000000000000
  0
ARC
  5
DD
100
AcDbEntity
  8
1
  6
CONTINUOUS
 62
7
100
AcDbCircle
 10
29.85490400000003
 20
386.1645509999998
 30
0.000000000000000
 40
0.5000000000000000
100
AcDbArc
 50
67.38013500000000
 51
180.0000000000000
  0
ARC
  5
DE
100
AcDbEntity
  8
1
  6
CONTINUOUS
 62
7
100
AcDbCircle
 10
29.85490400000003
 20
377.6645509999998
 30
0.000000000000000
 40
0.5000000000000000
100
AcDbArc
 50
180.0000000000000
 51
292.6198649999999
  0
ARC
  5
DF
100
AcDbEntity
  8
1
  6
CONTINUOUS
 62
7
100
AcDbCircle
 10
40.05490400000008
 20
381.9145500000000
 30
0.000000000000000
 40
0.5000000000000000
100
AcDbArc
 50
292.6198649999999
 51
427.3801350000000
  0
LINE
  5
E0
100
AcDbEntity
  8
1
  6
CONTINUOUS
 62
7
100
AcDbLine
 10
297.1920499999999
 20
303.0113089999998
 30
0.000000000000000
 11
297.1920499999999
 21
325.0113089999998
 31
0.000000000000000
  0
LINE
  5
E1
100
AcDbEntity
  8
1
  6
CONTINUOUS
 62
7
100
AcDbLine
 10
299.1920499999999
 20
325.0113089999998
 30
0.000000000000000
 11
299.1920499999999
 21
303.0113089999998
 31
0.000000000000000
  0
LINE
  5
E2
100
AcDbEntity
  8
1
  6
CONTINUOUS
 62
7
100
AcDbLine
 10
273.8670500000000
 20
302.9613089999998
 30
0.000000000000000
 11
273.8670500000000
 21
324.4463089999998
 31
0.000000000000000
  0
LINE
  5
E3
100
AcDbEntity
  8
1
  6
CONTINUOUS
 62
7
100
AcDbLine
 10
276.0670499999998
 20
325.2696399999998
 30
0.000000000000000
 11
276.0670499999998
 21
301.0113089999999
 31
0.000000000000000
  0
LINE
  5
E4
100
AcDbEntity
  8
1
  6
CONTINUOUS
 62
7
100
AcDbLine
 10
274.0670499999998
 20
322.9309600000001
 30
0.000000000000000
 11
274.0670499999998
 21
301.0113089999999
 31
0.000000000000000
  0
LINE
  5
E5
100
AcDbEntity
  8
1
  6
CONTINUOUS
 62
7
100
AcDbLine
 10
263.0670499999999
 20
329.5113089999998
 30
0.000000000000000
 11
263.0670499999999
 21
298.5113089999998
 31
0.000000000000000
  0
ARC
  5
E6
100
AcDbEntity
  8
1
  6
CONTINUOUS
 62
7
100
AcDbCircle
 10
196.3690500000000
 20
314.0113089999999
 30
0.000000000000000
 40
45.19010000000000
100
AcDbArc
 50
345.2350000000000
 51
374.7654000000000
  0
ARC
  5
E7
100
AcDbEntity
  8
5
  6
PHANTOM
 62
6
100
AcDbCircle
 10
164.6767499999998
 20
305.5113089999999
 30
0.000000000000000
 40
2.500000000000000
100
AcDbArc
 50
270.0000000000000
 51
360.0000320000000
  0
LINE
  5
E8
100
AcDbEntity
  8
5
  6
PHANTOM
 62
6
100
AcDbLine
 10
160.1640499999999
 20
237.5723089999997
 30
0.000000000000000
 11
239.6670499999999
 21
317.0763089999999
 31
0.000000000000000
  0
LINE
  5
E9
100
AcDbEntity
  8
1
  6
CONTINUOUS
 62
7
100
AcDbLine
 10
239.6670499999999
 20
198.5109090000000
 30
0.000000000000000
 11
239.6670499999999
 21
314.6823089999998
 31
0.000000000000000
  0
LINE
  5
EA
100
AcDbEntity
  8
5
  6
PHANTOM
 62
6
100
AcDbLine
 10
233.6320499999999
 20
199.0564089999998
 30
0.000000000000000
 11
239.5170500000000
 21
311.3373090000001
 31
0.000000000000000
  0
ARC
  5
EB
100
AcDbEntity
  8
5
  6
PHANTOM
 62
6
100
AcDbCircle
 10
234.6310499999999
 20
199.0041089999998
 30
0.000000000000000
 40
1.000000000000000
100
AcDbArc
 50
177.0000000000000
 51
270.4190000000000
  0
LINE
  5
EC
100
AcDbEntity
  8
5
  6
PHANTOM
 62
6
100
AcDbLine
 10
175.6490499999999
 20
239.7643089999997
 30
0.000000000000000
 11
237.7470500000000
 21
301.8623089999998
 31
0.000000000000000
  0
LINE
  5
ED
100
AcDbEntity
  8
5
  6
PHANTOM
 62
6
100
AcDbLine
 10
172.9740500000000
 20
227.1893089999999
 30
0.000000000000000
 11
176.3560499999999
 21
230.5723089999999
 31
0.000000000000000
  0
ARC
  5
EE
100
AcDbEntity
  8
5
  6
PHANTOM
 62
6
100
AcDbCircle
 10
178.4780499999999
 20
236.9363089999999
 30
0.000000000000000
 40
4.000000000000000
100
AcDbArc
 50
135.0000000000000
 51
225.0000000000000
  0
LINE
  5
EF
100
AcDbEntity
  8
5
  6
PHANTOM
 62
6
100
AcDbLine
 10
166.4570499999999
 20
230.5723089999999
 30
0.000000000000000
 11
170.2070499999999
 21
227.1303089999999
 31
0.000000000000000
  0
ARC
  5
F0
100
AcDbEntity
  8
5
  6
PHANTOM
 62
6
100
AcDbCircle
 10
171.5590500000000
 20
228.6033089999997
 30
0.000000000000000
 40
2.000000000000000
100
AcDbArc
 50
227.4540000000000
 51
315.0000000000000
  0
ARC
  5
F1
100
AcDbEntity
  8
5
  6
PHANTOM
 62
6
100
AcDbCircle
 10
160.8710499999999
 20
236.8653089999999
 30
0.000000000000000
 40
1.000000000000000
100
AcDbArc
 50
135.0000000000000
 51
228.4190000000000
  0
LINE
  5
F2
100
AcDbEntity
  8
5
  6
PHANTOM
 62
6
100
AcDbLine
 10
160.2070499999999
 20
236.1173089999999
 30
0.000000000000000
 11
166.4570499999999
 21
230.5723089999999
 31
0.000000000000000
  0
LINE
  5
F3
100
AcDbEntity
  8
5
  6
PHANTOM
 62
6
100
AcDbLine
 10
176.3560499999999
 20
233.4003089999999
 30
0.000000000000000
 11
175.6490499999999
 21
234.1073090000000
 31
0.000000000000000
  0
ARC
  5
F4
100
AcDbEntity
  8
5
  6
PHANTOM
 62
6
100
AcDbCircle
 10
174.9420500000000
 20
231.9863089999997
 30
0.000000000000000
 40
2.000000000000000
100
AcDbArc
 50
315.0000000000000
 51
404.9999999999999
  0
LINE
  5
F5
100
AcDbEntity
  8
1
  6
CONTINUOUS
 62
7
100
AcDbLine
 10
256.0670500000000
 20
303.8493089999998
 30
0.000000000000000
 11
256.0670500000000
 21
212.0113089999999
 31
0.000000000000000
  0
ARC
  5
F6
100
AcDbEntity
  8
1
  6
CONTINUOUS
 62
7
100
AcDbCircle
 10
271.5670499999998
 20
198.0109090000000
 30
0.000000000000000
 40
1.000000000000000
100
AcDbArc
 50
2.200000000000000e-05
 51
90.00000000000000
  0
LINE
  5
F7
100
AcDbEntity
  8
1
  6
CONTINUOUS
 62
7
100
AcDbLine
 10
246.0670499999999
 20
199.0109089999999
 30
0.000000000000000
 11
247.0670500000000
 21
199.0109089999999
 31
0.000000000000000
  0
ARC
  5
F8
100
AcDbEntity
  8
1
  6
CONTINUOUS
 62
7
100
AcDbCircle
 10
247.0670500000000
 20
198.0109090000000
 30
0.000000000000000
 40
1.000000000000000
100
AcDbArc
 50
2.200000000000000e-05
 51
90.00000000000000
  0
LINE
  5
F9
100
AcDbEntity
  8
5
  6
PHANTOM
 62
6
100
AcDbLine
 10
234.6380499999999
 20
198.0041089999999
 30
0.000000000000000
 11
240.0670499999999
 21
198.0438089999999
 31
0.000000000000000
  0
ARC
  5
FA
100
AcDbEntity
  8
1
  6
CONTINUOUS
 62
7
100
AcDbCircle
 10
240.6670500000000
 20
198.5109090000000
 30
0.000000000000000
 40
1.000000000000000
100
AcDbArc
 50
180.0000000000000
 51
233.1300000000000
  0
LINE
  5
FB
100
AcDbEntity
  8
1
  6
CONTINUOUS
 62
7
100
AcDbLine
 10
258.0670500000000
 20
210.0113089999999
 30
0.000000000000000
 11
258.0670500000000
 21
200.0109090000000
 31
0.000000000000000
  0
ARC
  5
FC
100
AcDbEntity
  8
1
  6
CONTINUOUS
 62
7
100
AcDbCircle
 10
259.0670499999998
 20
200.0109090000000
 30
0.000000000000000
 40
1.000000000000000
100
AcDbArc
 50
180.0000000000000
 51
270.0000000000000
  0
ARC
  5
FD
100
AcDbEntity
  8
1
  6
CONTINUOUS
 62
7
100
AcDbCircle
 10
257.0670499999998
 20
210.0113089999999
 30
0.000000000000000
 40
1.000000000000000
100
AcDbArc
 50
2.200000000000000e-05
 51
90.00000000000000
  0
ARC
  5
FE
100
AcDbEntity
  8
1
  6
CONTINUOUS
 62
7
100
AcDbCircle
 10
257.0670499999998
 20
212.0113089999999
 30
0.000000000000000
 40
1.000000000000000
100
AcDbArc
 50
180.0000000000000
 51
270.0000000000000
  0
LINE
  5
FF
100
AcDbEntity
  8
1
  6
CONTINUOUS
 62
7
100
AcDbLine
 10
271.5670499999998
 20
199.0109089999999
 30
0.000000000000000
 11
259.0670499999998
 21
199.0109089999999
 31
0.000000000000000
  0
LINE
  5
100
100
AcDbEntity
  8
4
  6
CENTER
 62
1
100
AcDbLine
 10
264.9160499999999
 20
237.0113089999999
 30
0.000000000000000
 11
252.7950500000000
 21
237.0113089999999
 31
0.000000000000000
  0
ARC
  5
101
100
AcDbEntity
  8
1
  6
CONTINUOUS
 62
7
100
AcDbCircle
 10
258.0670500000000
 20
243.5113089999999
 30
0.000000000000000
 40
2.000000000000000
100
AcDbArc
 50
180.0000000000000
 51
270.0000000000000
  0
LINE
  5
102
100
AcDbEntity
  8
1
  6
CONTINUOUS
 62
7
100
AcDbLine
 10
261.0670499999999
 20
241.5113089999999
 30
0.000000000000000
 11
258.0670500000000
 21
241.5113089999999
 31
0.000000000000000
  0
ARC
  5
103
100
AcDbEntity
  8
1
  6
CONTINUOUS
 62
7
100
AcDbCircle
 10
258.0670500000000
 20
230.5113089999999
 30
0.000000000000000
 40
2.000000000000000
100
AcDbArc
 50
90.00000000000000
 51
180.0000000000000
  0
LINE
  5
104
100
AcDbEntity
  8
1
  6
CONTINUOUS
 62
7
100
AcDbLine
 10
261.0670499999999
 20
232.5113089999999
 30
0.000000000000000
 11
258.0670500000000
 21
232.5113089999999
 31
0.000000000000000
  0
LINE
  5
105
100
AcDbEntity
  8
1
  6
CONTINUOUS
 62
7
100
AcDbLine
 10
261.0670499999999
 20
241.5113089999999
 30
0.000000000000000
 11
261.0670499999999
 21
232.5113089999999
 31
0.000000000000000
  0
LINE
  5
106
100
AcDbEntity
  8
1
  6
CONTINUOUS
 62
7
100
AcDbLine
 10
264.0670500000000
 20
301.9613089999998
 30
0.000000000000000
 11
272.8670500000000
 21
301.9613089999998
 31
0.000000000000000
  0
LINE
  5
107
100
AcDbEntity
  8
1
  6
CONTINUOUS
 62
7
100
AcDbLine
 10
256.0670500000000
 20
303.8493089999998
 30
0.000000000000000
 11
246.0670499999999
 21
303.8493089999998
 31
0.000000000000000
  0
LINE
  5
108
100
AcDbEntity
  8
4
  6
CENTER
 62
1
100
AcDbLine
 10
264.1580499999998
 20
287.0113089999998
 30
0.000000000000000
 11
252.0380499999999
 21
287.0113089999998
 31
0.000000000000000
  0
ARC
  5
109
100
AcDbEntity
  8
1
  6
CONTINUOUS
 62
7
100
AcDbCircle
 10
262.0670500000000
 20
298.5113089999998
 30
0.000000000000000
 40
1.000000000000000
100
AcDbArc
 50
270.0000000000000
 51
360.0000220000000
  0
ARC
  5
10A
100
AcDbEntity
  8
1
  6
CONTINUOUS
 62
7
100
AcDbCircle
 10
264.0670500000000
 20
300.9613089999998
 30
0.000000000000000
 40
1.000000000000000
100
AcDbArc
 50
90.00000000000000
 51
180.0000000000000
  0
LINE
  5
10B
100
AcDbEntity
  8
1
  6
CONTINUOUS
 62
7
100
AcDbLine
 10
261.0670499999999
 20
291.5113089999998
 30
0.000000000000000
 11
261.0670499999999
 21
282.5113089999998
 31
0.000000000000000
  0
ARC
  5
10C
100
AcDbEntity
  8
1
  6
CONTINUOUS
 62
7
100
AcDbCircle
 10
257.0670499999998
 20
296.5113089999998
 30
0.000000000000000
 40
1.000000000000000
100
AcDbArc
 50
90.00000000000000
 51
180.0000000000000
  0
ARC
  5
10D
100
AcDbEntity
  8
1
  6
CONTINUOUS
 62
7
100
AcDbCircle
 10
258.0670500000000
 20
293.5113089999998
 30
0.000000000000000
 40
2.000000000000000
100
AcDbArc
 50
180.0000000000000
 51
270.0000000000000
  0
ARC
  5
10E
100
AcDbEntity
  8
1
  6
CONTINUOUS
 62
7
100
AcDbCircle
 10
258.0670500000000
 20
280.5113089999999
 30
0.000000000000000
 40
2.000000000000000
100
AcDbArc
 50
90.00000000000000
 51
180.0000000000000
  0
LINE
  5
10F
100
AcDbEntity
  8
1
  6
CONTINUOUS
 62
7
100
AcDbLine
 10
262.0670500000000
 20
297.5113089999998
 30
0.000000000000000
 11
257.0670499999998
 21
297.5113089999998
 31
0.000000000000000
  0
LINE
  5
110
100
AcDbEntity
  8
1
  6
CONTINUOUS
 62
7
100
AcDbLine
 10
261.0670499999999
 20
282.5113089999998
 30
0.000000000000000
 11
258.0670500000000
 21
282.5113089999998
 31
0.000000000000000
  0
LINE
  5
111
100
AcDbEntity
  8
1
  6
CONTINUOUS
 62
7
100
AcDbLine
 10
261.0670499999999
 20
291.5113089999998
 30
0.000000000000000
 11
258.0670500000000
 21
291.5113089999998
 31
0.000000000000000
  0
ARC
  5
112
100
AcDbEntity
  8
1
  6
CONTINUOUS
 62
7
100
AcDbCircle
 10
272.8670500000000
 20
302.9613089999998
 30
0.000000000000000
 40
1.000000000000000
100
AcDbArc
 50
270.0000000000000
 51
360.0000220000000
  0
LINE
  5
113
100
AcDbEntity
  8
1
  6
CONTINUOUS
 62
7
100
AcDbLine
 10
276.0670499999998
 20
301.0113089999999
 30
0.000000000000000
 11
274.0670499999998
 21
301.0113089999999
 31
0.000000000000000
  0
LINE
  5
114
100
AcDbEntity
  8
1
  6
CONTINUOUS
 62
7
100
AcDbLine
 10
299.1920499999999
 20
303.0113089999998
 30
0.000000000000000
 11
297.1920499999999
 21
303.0113089999998
 31
0.000000000000000
  0
LINE
  5
115
100
AcDbEntity
  8
4
  6
CENTER
 62
1
100
AcDbLine
 10
286.5199430000000
 20
314.0113089999999
 30
0.000000000000000
 11
233.6420500000000
 21
314.0113089999999
 31
0.000000000000000
  0
ARC
  5
116
100
AcDbEntity
  8
5
  6
PHANTOM
 62
6
100
AcDbCircle
 10
164.6767499999998
 20
322.5113089999998
 30
0.000000000000000
 40
2.500000000000000
100
AcDbArc
 50
2.500000000000000e-05
 51
90.00000000000000
  0
LINE
  5
117
100
AcDbEntity
  8
5
  6
PHANTOM
 62
6
100
AcDbLine
 10
167.1767499999999
 20
322.5113089999998
 30
0.000000000000000
 11
167.1767499999999
 21
305.5113089999999
 31
0.000000000000000
  0
LINE
  5
118
100
AcDbEntity
  8
1
  6
CONTINUOUS
 62
7
100
AcDbLine
 10
274.6670500000000
 20
328.0113089999998
 30
0.000000000000000
 11
263.0670499999999
 21
328.0113089999998
 31
0.000000000000000
  0
LINE
  5
119
100
AcDbEntity
  8
1
  6
CONTINUOUS
 62
7
100
AcDbLine
 10
273.8670500000000
 20
324.4463089999998
 30
0.000000000000000
 11
263.0670499999999
 21
324.4463089999998
 31
0.000000000000000
  0
ARC
  5
11A
100
AcDbEntity
  8
1
  6
CONTINUOUS
 62
7
100
AcDbCircle
 10
247.0670500000000
 20
331.0113089999998
 30
0.000000000000000
 40
1.000000000000000
100
AcDbArc
 50
2.200000000000000e-05
 51
90.00000000000000
  0
LINE
  5
11B
100
AcDbEntity
  8
1
  6
CONTINUOUS
 62
7
100
AcDbLine
 10
262.0670500000000
 20
330.5113089999999
 30
0.000000000000000
 11
248.0670500000000
 21
330.5113089999999
 31
0.000000000000000
  0
ARC
  5
11C
100
AcDbEntity
  8
1
  6
CONTINUOUS
 62
7
100
AcDbCircle
 10
240.6670500000000
 20
314.6823089999998
 30
0.000000000000000
 40
1.000000000000000
100
AcDbArc
 50
135.0000000000000
 51
180.0000000000000
  0
ARC
  5
11D
100
AcDbEntity
  8
1
  6
CONTINUOUS
 62
7
100
AcDbCircle
 10
240.6670500000000
 20
314.6823089999998
 30
0.000000000000000
 40
1.000000000000000
100
AcDbArc
 50
135.0000000000000
 51
180.0000000000000
  0
LINE
  5
11E
100
AcDbEntity
  8
1
  6
CONTINUOUS
 62
7
100
AcDbLine
 10
248.0670500000000
 20
331.0113089999998
 30
0.000000000000000
 11
248.0670500000000
 21
314.0113089999999
 31
0.000000000000000
  0
ARC
  5
11F
100
AcDbEntity
  8
1
  6
CONTINUOUS
 62
7
100
AcDbCircle
 10
262.0670500000000
 20
329.5113089999998
 30
0.000000000000000
 40
1.000000000000000
100
AcDbArc
 50
2.200000000000000e-05
 51
90.00000000000000
  0
LINE
  5
120
100
AcDbEntity
  8
1
  6
CONTINUOUS
 62
7
100
AcDbLine
 10
246.0670499999999
 20
332.0113089999998
 30
0.000000000000000
 11
247.0670500000000
 21
332.0113089999998
 31
0.000000000000000
  0
LINE
  5
121
100
AcDbEntity
  8
1
  6
CONTINUOUS
 62
7
100
AcDbLine
 10
243.0670500000000
 20
337.0113089999998
 30
0.000000000000000
 11
240.0670499999999
 21
332.5113089999998
 31
0.000000000000000
  0
LINE
  5
122
100
AcDbEntity
  8
1
  6
CONTINUOUS
 62
7
100
AcDbLine
 10
246.0670499999999
 20
337.0113089999998
 30
0.000000000000000
 11
243.0670500000000
 21
337.0113089999998
 31
0.000000000000000
  0
LINE
  5
123
100
AcDbEntity
  8
6
  6
CONTINUOUS
 62
5
100
AcDbLine
 10
275.6670500000000
 20
325.2696399999998
 30
0.000000000000000
 11
276.0670499999998
 21
325.2696399999998
 31
0.000000000000000
  0
LINE
  5
124
100
AcDbEntity
  8
1
  6
CONTINUOUS
 62
7
100
AcDbLine
 10
276.0670499999998
 20
314.0113089999999
 30
0.000000000000000
 11
280.0670499999998
 21
314.0113089999999
 31
0.000000000000000
  0
LINE
  5
125
100
AcDbEntity
  8
2
  6
CONTINUOUS
 62
4
100
AcDbLine
 10
276.0670499999998
 20
321.0823090000000
 30
0.000000000000000
 11
280.0670499999998
 21
314.0113089999999
 31
0.000000000000000
  0
LINE
  5
126
100
AcDbEntity
  8
1
  6
CONTINUOUS
 62
7
100
AcDbLine
 10
280.0670499999998
 20
321.0823090000000
 30
0.000000000000000
 11
280.0670499999998
 21
306.9393089999998
 31
0.000000000000000
  0
LINE
  5
127
100
AcDbEntity
  8
1
  6
CONTINUOUS
 62
7
100
AcDbLine
 10
280.0670499999998
 20
321.0823090000000
 30
0.000000000000000
 11
276.0670499999998
 21
321.0823090000000
 31
0.000000000000000
  0
LINE
  5
128
100
AcDbEntity
  8
2
  6
CONTINUOUS
 62
4
100
AcDbLine
 10
276.0670499999999
 20
314.0113090000000
 30
0.000000000000000
 11
280.0670499999998
 21
321.0823090000000
 31
0.000000000000000
  0
LINE
  5
129
100
AcDbEntity
  8
1
  6
CONTINUOUS
 62
7
100
AcDbLine
 10
280.0670499999998
 20
306.9393089999998
 30
0.000000000000000
 11
276.0670499999998
 21
306.9393089999998
 31
0.000000000000000
  0
LINE
  5
12A
100
AcDbEntity
  8
2
  6
CONTINUOUS
 62
4
100
AcDbLine
 10
280.0670499999998
 20
314.0113089999999
 30
0.000000000000000
 11
276.0670499999998
 21
306.9393089999998
 31
0.000000000000000
  0
LINE
  5
12B
100
AcDbEntity
  8
2
  6
CONTINUOUS
 62
4
100
AcDbLine
 10
280.0670499999998
 20
306.9393089999998
 30
0.000000000000000
 11
276.0670499999998
 21
314.0113089999999
 31
0.000000000000000
  0
LINE
  5
12C
100
AcDbEntity
  8
1
  6
CONTINUOUS
 62
7
100
AcDbLine
 10
274.0670499999998
 20
321.2113089999998
 30
0.000000000000000
 11
273.8670500000000
 21
321.2113089999998
 31
0.000000000000000
  0
LINE
  5
12D
100
AcDbEntity
  8
1
  6
CONTINUOUS
 62
7
100
AcDbLine
 10
275.6670500000000
 20
322.9309600000001
 30
0.000000000000000
 11
273.8670500000000
 21
322.9309600000001
 31
0.000000000000000
  0
LINE
  5
12E
100
AcDbEntity
  8
1
  6
CONTINUOUS
 62
7
100
AcDbLine
 10
275.6670500000000
 20
327.0113089999998
 30
0.000000000000000
 11
275.6670500000000
 21
322.9309600000001
 31
0.000000000000000
  0
LINE
  5
12F
100
AcDbEntity
  8
1
  6
CONTINUOUS
 62
7
100
AcDbLine
 10
274.0670499999998
 20
306.8113089999998
 30
0.000000000000000
 11
273.8670500000000
 21
306.8113089999998
 31
0.000000000000000
  0
LINE
  5
130
100
AcDbEntity
  8
1
  6
CONTINUOUS
 62
7
100
AcDbLine
 10
276.0670499999998
 20
307.5113089999998
 30
0.000000000000000
 11
274.0670499999998
 21
307.5113089999998
 31
0.000000000000000
  0
LINE
  5
131
100
AcDbEntity
  8
1
  6
CONTINUOUS
 62
7
100
AcDbLine
 10
276.0670499999998
 20
309.0113089999998
 30
0.000000000000000
 11
274.0670499999998
 21
309.0113089999998
 31
0.000000000000000
  0
ARC
  5
132
100
AcDbEntity
  8
1
  6
CONTINUOUS
 62
7
100
AcDbCircle
 10
274.6670500000000
 20
327.0113089999998
 30
0.000000000000000
 40
1.000000000000000
100
AcDbArc
 50
0.000000000000000
 51
90.00000000000000
  0
LINE
  5
133
100
AcDbEntity
  8
1
  6
CONTINUOUS
 62
7
100
AcDbLine
 10
300.7920500000000
 20
306.0113089999998
 30
0.000000000000000
 11
300.7920500000000
 21
322.0113089999999
 31
0.000000000000000
  0
LINE
  5
134
100
AcDbEntity
  8
1
  6
CONTINUOUS
 62
7
100
AcDbLine
 10
300.7920500000000
 20
322.0113089999999
 30
0.000000000000000
 11
299.1920499999999
 21
322.0113089999999
 31
0.000000000000000
  0
LINE
  5
135
100
AcDbEntity
  8
1
  6
CONTINUOUS
 62
7
100
AcDbLine
 10
300.7920500000000
 20
306.0113089999998
 30
0.000000000000000
 11
299.1920499999999
 21
306.0113089999998
 31
0.000000000000000
  0
LINE
  5
136
100
AcDbEntity
  8
1
  6
CONTINUOUS
 62
7
100
AcDbLine
 10
299.1920499999999
 20
325.0113089999998
 30
0.000000000000000
 11
297.1920499999999
 21
325.0113089999998
 31
0.000000000000000
  0
LINE
  5
137
100
AcDbEntity
  8
1
  6
CONTINUOUS
 62
7
100
AcDbLine
 10
412.9577789999998
 20
166.0109089999999
 30
0.000000000000000
 11
412.9577789999997
 21
178.0113090005394
 31
0.000000000000000
  0
LINE
  5
138
100
AcDbEntity
  8
1
  6
CONTINUOUS
 62
7
100
AcDbLine
 10
416.4577790000000
 20
172.0109090000000
 30
0.000000000000000
 11
416.4577790000000
 21
200.0113090003400
 31
0.000000000000000
  0
LINE
  5
139
100
AcDbEntity
  8
1
  6
CONTINUOUS
 62
7
100
AcDbLine
 10
419.9577789999998
 20
168.0422090000000
 30
0.000000000000000
 11
419.9577789999998
 21
200.0113090003400
 31
0.000000000000000
  0
LINE
  5
13A
100
AcDbEntity
  8
1
  6
CONTINUOUS
 62
7
100
AcDbLine
 10
445.9577789999998
 20
168.0422090000000
 30
0.000000000000000
 11
445.9577789999998
 21
200.0113090003400
 31
0.000000000000000
  0
LINE
  5
13B
100
AcDbEntity
  8
1
  6
CONTINUOUS
 62
7
100
AcDbLine
 10
449.4577790000000
 20
172.0109090000000
 30
0.000000000000000
 11
449.4577790000000
 21
200.0113090003400
 31
0.000000000000000
  0
LINE
  5
13C
100
AcDbEntity
  8
1
  6
CONTINUOUS
 62
7
100
AcDbLine
 10
452.9577789999998
 20
178.0113090005134
 30
0.000000000000000
 11
452.9577789999998
 21
166.0109089999999
 31
0.000000000000000
  0
LINE
  5
13D
100
AcDbEntity
  8
1
  6
CONTINUOUS
 62
7
100
AcDbLine
 10
453.9577790000000
 20
333.0113089999998
 30
0.000000000000000
 11
453.9577790000000
 21
166.0109089999999
 31
0.000000000000000
  0
LINE
  5
13E
100
AcDbEntity
  8
1
  6
CONTINUOUS
 62
7
100
AcDbLine
 10
411.9577790000000
 20
333.0113089999998
 30
0.000000000000000
 11
411.9577790000000
 21
166.0109089999999
 31
0.000000000000000
  0
LINE
  5
13F
100
AcDbEntity
  8
4
  6
CENTER
 62
1
100
AcDbLine
 10
432.9577790000000
 20
159.0109090000000
 30
0.000000000000000
 11
432.9577790000000
 21
340.0113089999998
 31
0.000000000000000
  0
ARC
  5
140
100
AcDbEntity
  8
1
  6
CONTINUOUS
 62
7
100
AcDbCircle
 10
309.5130500000000
 20
64.44428200000000
 30
0.000000000000000
 40
7.220389999999997
100
AcDbArc
 50
159.7419999999999
 51
200.2580000000000
  0
ARC
  5
141
100
AcDbEntity
  8
1
  6
CONTINUOUS
 62
7
100
AcDbCircle
 10
299.0720499999998
 20
64.44428200000000
 30
0.000000000000000
 40
7.220389999999997
100
AcDbArc
 50
339.7419999999998
 51
380.2576000000000
  0
LINE
  5
142
100
AcDbEntity
  8
1
  6
CONTINUOUS
 62
7
100
AcDbLine
 10
306.2920500000000
 20
66.94428200000000
 30
0.000000000000000
 11
306.2920500000000
 21
56.94428199999999
 31
0.000000000000000
  0
LINE
  5
143
100
AcDbEntity
  8
1
  6
CONTINUOUS
 62
7
100
AcDbLine
 10
302.2920500000000
 20
67.69428200000000
 30
0.000000000000000
 11
302.2920500000000
 21
56.19428199999997
 31
0.000000000000000
  0
ARC
  5
144
100
AcDbEntity
  8
1
  6
CONTINUOUS
 62
7
100
AcDbCircle
 10
299.0720499999998
 20
59.44428199999999
 30
0.000000000000000
 40
7.220389999999997
100
AcDbArc
 50
339.7419999999998
 51
380.2576000000000
  0
ARC
  5
145
100
AcDbEntity
  8
1
  6
CONTINUOUS
 62
7
100
AcDbCircle
 10
309.5130500000000
 20
59.44428199999999
 30
0.000000000000000
 40
7.220389999999997
100
AcDbArc
 50
159.7419999999999
 51
200.2580000000000
  0
LINE
  5
146
100
AcDbEntity
  8
1
  6
CONTINUOUS
 62
7
100
AcDbLine
 10
305.7470499999999
 20
61.94428199999999
 30
0.000000000000000
 11
302.7390500000000
 21
61.94428199999999
 31
0.000000000000000
  0
LINE
  5
147
100
AcDbEntity
  8
1
  6
CONTINUOUS
 62
7
100
AcDbLine
 10
306.2920500000000
 20
56.94428199999999
 30
0.000000000000000
 11
302.2920500000000
 21
56.94428199999999
 31
0.000000000000000
  0
LINE
  5
148
100
AcDbEntity
  8
1
  6
CONTINUOUS
 62
7
100
AcDbLine
 10
306.2920500000000
 20
66.94428200000000
 30
0.000000000000000
 11
302.2920500000000
 21
66.94428200000000
 31
0.000000000000000
  0
ARC
  5
149
100
AcDbEntity
  8
1
  6
CONTINUOUS
 62
7
100
AcDbCircle
 10
444.4577789999998
 20
172.0109090000000
 30
0.000000000000000
 40
5.000000000000000
100
AcDbArc
 50
270.0000000000000
 51
360.0000220000000
  0
ARC
  5
14A
100
AcDbEntity
  8
1
  6
CONTINUOUS
 62
7
100
AcDbCircle
 10
444.9577789999998
 20
168.0422090000000
 30
0.000000000000000
 40
1.000000000000000
100
AcDbArc
 50
277.1809999999999
 51
360.0000220000000
  0
LINE
  5
14B
100
AcDbEntity
  8
1
  6
CONTINUOUS
 62
7
100
AcDbLine
 10
449.9577790000000
 20
162.0109089999999
 30
0.000000000000000
 11
415.9577789999998
 21
162.0109089999999
 31
0.000000000000000
  0
LINE
  5
14C
100
AcDbEntity
  8
1
  6
CONTINUOUS
 62
7
100
AcDbLine
 10
449.9577790000000
 20
163.0109089999999
 30
0.000000000000000
 11
415.9577789999998
 21
163.0109089999999
 31
0.000000000000000
  0
ARC
  5
14D
100
AcDbEntity
  8
1
  6
CONTINUOUS
 62
7
100
AcDbCircle
 10
421.4577789999998
 20
172.0109090000000
 30
0.000000000000000
 40
5.000000000000000
100
AcDbArc
 50
180.0000000000000
 51
270.0000000000000
  0
LINE
  5
14E
100
AcDbEntity
  8
1
  6
CONTINUOUS
 62
7
100
AcDbLine
 10
444.4577789999998
 20
167.0109089999999
 30
0.000000000000000
 11
421.4577789999998
 21
167.0109089999999
 31
0.000000000000000
  0
ARC
  5
14F
100
AcDbEntity
  8
1
  6
CONTINUOUS
 62
7
100
AcDbCircle
 10
420.9577789999998
 20
168.0422090000000
 30
0.000000000000000
 40
1.000000000000000
100
AcDbArc
 50
180.0000000000000
 51
262.8190000000000
  0
ARC
  5
150
100
AcDbEntity
  8
1
  6
CONTINUOUS
 62
7
100
AcDbCircle
 10
415.9577789999998
 20
166.0109089999999
 30
0.000000000000000
 40
4.000000000000000
100
AcDbArc
 50
180.0000000000000
 51
270.0000000000000
  0
ARC
  5
151
100
AcDbEntity
  8
1
  6
CONTINUOUS
 62
7
100
AcDbCircle
 10
415.9577789999998
 20
166.0109089999999
 30
0.000000000000000
 40
3.000000000000000
100
AcDbArc
 50
180.0000000000000
 51
270.0000000000000
  0
LINE
  5
152
100
AcDbEntity
  8
4
  6
CENTER
 62
1
100
AcDbLine
 10
421.5007789999998
 20
184.5109089999999
 30
0.000000000000000
 11
427.4317790000000
 21
184.5109089999999
 31
0.000000000000000
  0
CIRCLE
  5
153
100
AcDbEntity
  8
1
  6
CONTINUOUS
 62
7
100
AcDbCircle
 10
424.4577789999998
 20
184.5109089999999
 30
0.000000000000000
 40
2.600000000000000
  0
LINE
  5
154
100
AcDbEntity
  8
1
  6
CONTINUOUS
 62
7
100
AcDbLine
 10
425.1140450000000
 20
184.5108389999998
 30
0.000000000000000
 11
425.3157120000000
 21
185.0360780000000
 31
0.000000000000000
  0
LINE
  5
155
100
AcDbEntity
  8
1
  6
CONTINUOUS
 62
7
100
AcDbLine
 10
425.3157120000000
 20
185.0360779999999
 30
0.000000000000000
 11
425.5248040000000
 21
185.2526639999998
 31
0.000000000000000
  0
LINE
  5
156
100
AcDbEntity
  8
1
  6
CONTINUOUS
 62
7
100
AcDbLine
 10
424.4577789999997
 20
185.1671040000000
 30
0.000000000000000
 11
424.9830180000000
 21
185.3687710000000
 31
0.000000000000000
  0
LINE
  5
157
100
AcDbEntity
  8
1
  6
CONTINUOUS
 62
7
100
AcDbLine
 10
424.9830180000001
 20
185.3687710000001
 30
0.000000000000000
 11
425.1995339999998
 21
185.5779339999999
 31
0.000000000000000
  0
LINE
  5
158
100
AcDbEntity
  8
1
  6
CONTINUOUS
 62
7
100
AcDbLine
 10
423.5994929999999
 20
185.0354409999999
 30
0.000000000000000
 11
423.3904019999998
 21
185.2530180000001
 31
0.000000000000000
  0
LINE
  5
159
100
AcDbEntity
  8
1
  6
CONTINUOUS
 62
7
100
AcDbLine
 10
423.8015839999998
 20
184.5109089999999
 30
0.000000000000000
 11
423.5994929999998
 21
185.0354409999999
 31
0.000000000000000
  0
LINE
  5
15A
100
AcDbEntity
  8
1
  6
CONTINUOUS
 62
7
100
AcDbLine
 10
423.9325400000001
 20
185.3684879999999
 30
0.000000000000000
 11
423.7156709999999
 21
185.5782869999999
 31
0.000000000000000
  0
LINE
  5
15B
100
AcDbEntity
  8
1
  6
CONTINUOUS
 62
7
100
AcDbLine
 10
424.4577789999997
 20
185.1671040000000
 30
0.000000000000000
 11
423.9325400000000
 21
185.3684879999998
 31
0.000000000000000
  0
LINE
  5
15C
100
AcDbEntity
  8
1
  6
CONTINUOUS
 62
7
100
AcDbLine
 10
423.9326109999998
 20
183.6529770000000
 30
0.000000000000000
 11
423.7153170000001
 21
183.4431779999999
 31
0.000000000000000
  0
LINE
  5
15D
100
AcDbEntity
  8
1
  6
CONTINUOUS
 62
7
100
AcDbLine
 10
424.4578500000000
 20
183.8546440000000
 30
0.000000000000000
 11
423.9326109999998
 21
183.6529770000000
 31
0.000000000000000
  0
LINE
  5
15E
100
AcDbEntity
  8
1
  6
CONTINUOUS
 62
7
100
AcDbLine
 10
423.5999170000001
 20
183.9856700000000
 30
0.000000000000000
 11
423.3900480000000
 21
183.7684470000000
 31
0.000000000000000
  0
LINE
  5
15F
100
AcDbEntity
  8
1
  6
CONTINUOUS
 62
7
100
AcDbLine
 10
423.8015839999998
 20
184.5109089999999
 30
0.000000000000000
 11
423.5999169999999
 21
183.9856699999999
 31
0.000000000000000
  0
LINE
  5
160
100
AcDbEntity
  8
1
  6
CONTINUOUS
 62
7
100
AcDbLine
 10
425.3154290000001
 20
183.9856000000000
 30
0.000000000000000
 11
425.5251570000001
 21
183.7688010000000
 31
0.000000000000000
  0
LINE
  5
161
100
AcDbEntity
  8
1
  6
CONTINUOUS
 62
7
100
AcDbLine
 10
425.1140449999999
 20
184.5108389999998
 30
0.000000000000000
 11
425.3153589999997
 21
183.9856700000000
 31
0.000000000000000
  0
LINE
  5
162
100
AcDbEntity
  8
1
  6
CONTINUOUS
 62
7
100
AcDbLine
 10
424.9823109999999
 20
183.6526230000000
 30
0.000000000000000
 11
425.1998880000000
 21
183.4435320000000
 31
0.000000000000000
  0
LINE
  5
163
100
AcDbEntity
  8
1
  6
CONTINUOUS
 62
7
100
AcDbLine
 10
424.4578500000000
 20
183.8546440000001
 30
0.000000000000000
 11
424.9823820000000
 21
183.6525520000000
 31
0.000000000000000
  0
LINE
  5
164
100
AcDbEntity
  8
4
  6
CENTER
 62
1
100
AcDbLine
 10
424.4577789999998
 20
187.6460089999999
 30
0.000000000000000
 11
424.4577789999998
 21
181.5065089999999
 31
0.000000000000000
  0
ARC
  5
165
100
AcDbEntity
  8
1
  6
CONTINUOUS
 62
7
100
AcDbCircle
 10
424.4577789999998
 20
184.5109089999999
 30
0.000000000000000
 40
1.300000000000000
100
AcDbArc
 50
34.80900000000000
 51
55.19060000000000
  0
ARC
  5
166
100
AcDbEntity
  8
1
  6
CONTINUOUS
 62
7
100
AcDbCircle
 10
424.4577789999998
 20
184.5109089999999
 30
0.000000000000000
 40
1.300000000000000
100
AcDbArc
 50
124.8094000000000
 51
145.1909999999998
  0
ARC
  5
167
100
AcDbEntity
  8
1
  6
CONTINUOUS
 62
7
100
AcDbCircle
 10
424.4577789999998
 20
184.5109089999999
 30
0.000000000000000
 40
1.300000000000000
100
AcDbArc
 50
214.8090000000000
 51
235.1909999999999
  0
ARC
  5
168
100
AcDbEntity
  8
1
  6
CONTINUOUS
 62
7
100
AcDbCircle
 10
424.4577789999998
 20
184.5109089999999
 30
0.000000000000000
 40
1.300000000000000
100
AcDbArc
 50
304.8090000000001
 51
325.1909999999998
  0
LINE
  5
169
100
AcDbEntity
  8
1
  6
CONTINUOUS
 62
7
100
AcDbLine
 10
438.9577789999998
 20
196.0109089999999
 30
0.000000000000000
 11
426.9577789999998
 21
196.0109089999999
 31
0.000000000000000
  0
LINE
  5
16A
100
AcDbEntity
  8
1
  6
CONTINUOUS
 62
7
100
AcDbLine
 10
442.1140450000000
 20
184.5108389999998
 30
0.000000000000000
 11
442.3157119999998
 21
185.0360780000001
 31
0.000000000000000
  0
LINE
  5
16B
100
AcDbEntity
  8
1
  6
CONTINUOUS
 62
7
100
AcDbLine
 10
442.3157119999997
 20
185.0360779999999
 30
0.000000000000000
 11
442.5248039999999
 21
185.2526639999998
 31
0.000000000000000
  0
LINE
  5
16C
100
AcDbEntity
  8
1
  6
CONTINUOUS
 62
7
100
AcDbLine
 10
441.4577790000001
 20
185.1671040000000
 30
0.000000000000000
 11
441.9830179999999
 21
185.3687710000001
 31
0.000000000000000
  0
LINE
  5
16D
100
AcDbEntity
  8
1
  6
CONTINUOUS
 62
7
100
AcDbLine
 10
441.9830179999998
 20
185.3687710000000
 30
0.000000000000000
 11
442.1995339999999
 21
185.5779339999999
 31
0.000000000000000
  0
LINE
  5
16E
100
AcDbEntity
  8
1
  6
CONTINUOUS
 62
7
100
AcDbLine
 10
440.5994929999999
 20
185.0354409999999
 30
0.000000000000000
 11
440.3904019999998
 21
185.2530180000000
 31
0.000000000000000
  0
LINE
  5
16F
100
AcDbEntity
  8
1
  6
CONTINUOUS
 62
7
100
AcDbLine
 10
440.8015839999999
 20
184.5109089999999
 30
0.000000000000000
 11
440.5994929999999
 21
185.0354409999999
 31
0.000000000000000
  0
LINE
  5
170
100
AcDbEntity
  8
1
  6
CONTINUOUS
 62
7
100
AcDbLine
 10
440.9325400000000
 20
185.3684880000000
 30
0.000000000000000
 11
440.7156709999999
 21
185.5782870000000
 31
0.000000000000000
  0
LINE
  5
171
100
AcDbEntity
  8
1
  6
CONTINUOUS
 62
7
100
AcDbLine
 10
441.4577789999999
 20
185.1671039999999
 30
0.000000000000000
 11
440.9325399999999
 21
185.3684879999998
 31
0.000000000000000
  0
LINE
  5
172
100
AcDbEntity
  8
1
  6
CONTINUOUS
 62
7
100
AcDbLine
 10
440.9326110000001
 20
183.6529769999999
 30
0.000000000000000
 11
440.7153169999998
 21
183.4431779999998
 31
0.000000000000000
  0
LINE
  5
173
100
AcDbEntity
  8
1
  6
CONTINUOUS
 62
7
100
AcDbLine
 10
441.4577790000000
 20
183.8547139999999
 30
0.000000000000000
 11
440.9326110000001
 21
183.6529770000000
 31
0.000000000000000
  0
LINE
  5
174
100
AcDbEntity
  8
1
  6
CONTINUOUS
 62
7
100
AcDbLine
 10
440.5999170000001
 20
183.9856700000000
 30
0.000000000000000
 11
440.3900480000000
 21
183.7684470000000
 31
0.000000000000000
  0
LINE
  5
175
100
AcDbEntity
  8
1
  6
CONTINUOUS
 62
7
100
AcDbLine
 10
440.8015839999998
 20
184.5109089999999
 30
0.000000000000000
 11
440.5999169999999
 21
183.9856700000000
 31
0.000000000000000
  0
LINE
  5
176
100
AcDbEntity
  8
1
  6
CONTINUOUS
 62
7
100
AcDbLine
 10
442.3153589999998
 20
183.9856700000000
 30
0.000000000000000
 11
442.5251570000000
 21
183.7688009999999
 31
0.000000000000000
  0
LINE
  5
177
100
AcDbEntity
  8
1
  6
CONTINUOUS
 62
7
100
AcDbLine
 10
442.1140450000000
 20
184.5108389999998
 30
0.000000000000000
 11
442.3153589999998
 21
183.9856700000000
 31
0.000000000000000
  0
LINE
  5
178
100
AcDbEntity
  8
1
  6
CONTINUOUS
 62
7
100
AcDbLine
 10
441.9823110000001
 20
183.6526230000001
 30
0.000000000000000
 11
442.1998880000001
 21
183.4435320000000
 31
0.000000000000000
  0
LINE
  5
179
100
AcDbEntity
  8
1
  6
CONTINUOUS
 62
7
100
AcDbLine
 10
441.4578500000000
 20
183.8546440000001
 30
0.000000000000000
 11
441.9823820000000
 21
183.6525520000000
 31
0.000000000000000
  0
LINE
  5
17A
100
AcDbEntity
  8
4
  6
CENTER
 62
1
100
AcDbLine
 10
438.5007789999998
 20
184.5109089999999
 30
0.000000000000000
 11
444.4317790000000
 21
184.5109089999999
 31
0.000000000000000
  0
LINE
  5
17B
100
AcDbEntity
  8
4
  6
CENTER
 62
1
100
AcDbLine
 10
441.4577790000000
 20
187.6460089999999
 30
0.000000000000000
 11
441.4577790000000
 21
181.5065089999999
 31
0.000000000000000
  0
ARC
  5
17C
100
AcDbEntity
  8
1
  6
CONTINUOUS
 62
7
100
AcDbCircle
 10
441.4577790000000
 20
184.5109089999999
 30
0.000000000000000
 40
1.300000000000000
100
AcDbArc
 50
34.80900000000000
 51
55.19060000000000
  0
ARC
  5
17D
100
AcDbEntity
  8
1
  6
CONTINUOUS
 62
7
100
AcDbCircle
 10
441.4577790000000
 20
184.5109089999999
 30
0.000000000000000
 40
1.300000000000000
100
AcDbArc
 50
124.8094000000000
 51
145.1909999999998
  0
ARC
  5
17E
100
AcDbEntity
  8
1
  6
CONTINUOUS
 62
7
100
AcDbCircle
 10
441.4577790000000
 20
184.5109089999999
 30
0.000000000000000
 40
1.300000000000000
100
AcDbArc
 50
214.8090000000000
 51
235.1909999999999
  0
ARC
  5
17F
100
AcDbEntity
  8
1
  6
CONTINUOUS
 62
7
100
AcDbCircle
 10
441.4577790000000
 20
184.5109089999999
 30
0.000000000000000
 40
1.300000000000000
100
AcDbArc
 50
304.8090000000001
 51
325.1909999999998
  0
CIRCLE
  5
180
100
AcDbEntity
  8
1
  6
CONTINUOUS
 62
7
100
AcDbCircle
 10
441.4577790000000
 20
184.5109089999999
 30
0.000000000000000
 40
2.600000000000000
  0
LINE
  5
181
100
AcDbEntity
  8
1
  6
CONTINUOUS
 62
7
100
AcDbLine
 10
438.9577789999998
 20
191.0109089999999
 30
0.000000000000000
 11
426.9577789999998
 21
191.0109089999999
 31
0.000000000000000
  0
LINE
  5
182
100
AcDbEntity
  8
1
  6
CONTINUOUS
 62
7
100
AcDbLine
 10
438.9577789999998
 20
196.0109089999999
 30
0.000000000000000
 11
438.9577789999998
 21
191.0109089999999
 31
0.000000000000000
  0
LINE
  5
183
100
AcDbEntity
  8
1
  6
CONTINUOUS
 62
7
100
AcDbLine
 10
426.9577789999998
 20
196.0109089999999
 30
0.000000000000000
 11
426.9577789999998
 21
191.0109089999999
 31
0.000000000000000
  0
ARC
  5
184
100
AcDbEntity
  8
1
  6
CONTINUOUS
 62
7
100
AcDbCircle
 10
449.9577790000000
 20
166.0109089999999
 30
0.000000000000000
 40
4.000000000000000
100
AcDbArc
 50
270.0000000000000
 51
360.0000220000000
  0
ARC
  5
185
100
AcDbEntity
  8
1
  6
CONTINUOUS
 62
7
100
AcDbCircle
 10
449.9577790000000
 20
166.0109089999999
 30
0.000000000000000
 40
3.000000000000000
100
AcDbArc
 50
270.0000000000000
 51
360.0000220000000
  0
LINE
  5
186
100
AcDbEntity
  8
4
  6
CENTER
 62
1
100
AcDbLine
 10
408.9577789999999
 20
314.0113089999999
 30
0.000000000000000
 11
456.9577789999998
 21
314.0113089999999
 31
0.000000000000000
  0
LINE
  5
187
100
AcDbEntity
  8
1
  6
CONTINUOUS
 62
7
100
AcDbLine
 10
302.2920500000000
 20
319.7613089999999
 30
0.000000000000000
 11
302.2920500000000
 21
308.2613089999998
 31
0.000000000000000
  0
LINE
  5
188
100
AcDbEntity
  8
1
  6
CONTINUOUS
 62
7
100
AcDbLine
 10
305.8460499999998
 20
308.2373089999999
 30
0.000000000000000
 11
302.7390500000000
 21
308.2373089999999
 31
0.000000000000000
  0
LINE
  5
189
100
AcDbEntity
  8
1
  6
CONTINUOUS
 62
7
100
AcDbLine
 10
305.8460499999998
 20
311.1243089999998
 30
0.000000000000000
 11
302.7390500000000
 21
311.1243089999998
 31
0.000000000000000
  0
LINE
  5
18A
100
AcDbEntity
  8
1
  6
CONTINUOUS
 62
7
100
AcDbLine
 10
305.8460499999998
 20
316.8973090000000
 30
0.000000000000000
 11
302.7390500000000
 21
316.8973090000000
 31
0.000000000000000
  0
LINE
  5
18B
100
AcDbEntity
  8
1
  6
CONTINUOUS
 62
7
100
AcDbLine
 10
305.8460499999998
 20
319.7843090000000
 30
0.000000000000000
 11
302.7390500000000
 21
319.7843090000000
 31
0.000000000000000
  0
LINE
  5
18C
100
AcDbEntity
  8
1
  6
CONTINUOUS
 62
7
100
AcDbLine
 10
306.2920500000000
 20
318.3413089999999
 30
0.000000000000000
 11
306.2920500000000
 21
309.6803089999998
 31
0.000000000000000
  0
ARC
  5
18D
100
AcDbEntity
  8
1
  6
CONTINUOUS
 62
7
100
AcDbCircle
 10
304.8480500000000
 20
309.6803089999998
 30
0.000000000000000
 40
2.555660000000000
100
AcDbArc
 50
145.6129999999997
 51
214.3869999999997
  0
ARC
  5
18E
100
AcDbEntity
  8
1
  6
CONTINUOUS
 62
7
100
AcDbCircle
 10
296.7400500000000
 20
314.0103089999998
 30
0.000000000000000
 40
9.552700000000000
100
AcDbArc
 50
342.4110000000000
 51
377.5893000000000
  0
ARC
  5
18F
100
AcDbEntity
  8
1
  6
CONTINUOUS
 62
7
100
AcDbCircle
 10
303.7370500000000
 20
309.6803089999998
 30
0.000000000000000
 40
2.555660000000000
100
AcDbArc
 50
325.6130000000000
 51
394.3866000000000
  0
ARC
  5
190
100
AcDbEntity
  8
1
  6
CONTINUOUS
 62
7
100
AcDbCircle
 10
303.7370500000000
 20
318.3413089999999
 30
0.000000000000000
 40
2.555660000000000
100
AcDbArc
 50
325.6130000000000
 51
394.3866000000000
  0
ARC
  5
191
100
AcDbEntity
  8
1
  6
CONTINUOUS
 62
7
100
AcDbCircle
 10
304.8480500000000
 20
318.3413089999999
 30
0.000000000000000
 40
2.555660000000000
100
AcDbArc
 50
145.6129999999997
 51
214.3869999999997
  0
ARC
  5
192
100
AcDbEntity
  8
1
  6
CONTINUOUS
 62
7
100
AcDbCircle
 10
311.8450500000000
 20
314.0103089999998
 30
0.000000000000000
 40
9.552700000000000
100
AcDbArc
 50
162.4109999999998
 51
197.5890000000000
  0
LINE
  5
193
100
AcDbEntity
  8
1
  6
CONTINUOUS
 62
7
100
AcDbLine
 10
449.4577790000000
 20
297.0113089999999
 30
0.000000000000000
 11
449.4577790000000
 21
327.0113089999998
 31
0.000000000000000
  0
LINE
  5
194
100
AcDbEntity
  8
1
  6
CONTINUOUS
 62
7
100
AcDbLine
 10
416.4577790000000
 20
297.0113089999999
 30
0.000000000000000
 11
416.4577790000000
 21
327.0113089999998
 31
0.000000000000000
  0
CIRCLE
  5
195
100
AcDbEntity
  8
1
  6
CONTINUOUS
 62
7
100
AcDbCircle
 10
432.9577790000000
 20
314.0113089999999
 30
0.000000000000000
 40
11.00000000000000
  0
ARC
  5
196
100
AcDbEntity
  8
1
  6
CONTINUOUS
 62
7
100
AcDbCircle
 10
432.9577790000000
 20
314.0113089999999
 30
0.000000000000000
 40
13.00000000000000
100
AcDbArc
 50
210.0000000000000
 51
420.0000000000000
  0
LINE
  5
197
100
AcDbEntity
  8
1
  6
CONTINUOUS
 62
7
100
AcDbLine
 10
452.9577789999998
 20
333.0113089999998
 30
0.000000000000000
 11
452.9577789999998
 21
321.0113089999998
 31
0.000000000000000
  0
LINE
  5
198
100
AcDbEntity
  8
1
  6
CONTINUOUS
 62
7
100
AcDbLine
 10
412.9577789999998
 20
321.0113089999998
 30
0.000000000000000
 11
412.9577789999998
 21
333.0113089999998
 31
0.000000000000000
  0
CIRCLE
  5
199
100
AcDbEntity
  8
1
  6
CONTINUOUS
 62
7
100
AcDbCircle
 10
432.9577790000000
 20
314.0113089999999
 30
0.000000000000000
 40
16.50000000000000
  0
ARC
  5
19A
100
AcDbEntity
  8
1
  6
CONTINUOUS
 62
7
100
AcDbCircle
 10
444.9577789999998
 20
198.0109090000000
 30
0.000000000000000
 40
1.000000000000000
100
AcDbArc
 50
2.200000000000000e-05
 51
90.00000000000000
  0
LINE
  5
19B
100
AcDbEntity
  8
1
  6
CONTINUOUS
 62
7
100
AcDbLine
 10
444.9577789999998
 20
199.0109089999999
 30
0.000000000000000
 11
420.9577789999998
 21
199.0109089999999
 31
0.000000000000000
  0
LINE
  5
19C
100
AcDbEntity
  8
1
  6
CONTINUOUS
 62
7
100
AcDbLine
 10
418.9577789999998
 20
199.0109089999999
 30
0.000000000000000
 11
417.4577789999998
 21
199.0109089999999
 31
0.000000000000000
  0
ARC
  5
19D
100
AcDbEntity
  8
1
  6
CONTINUOUS
 62
7
100
AcDbCircle
 10
420.9577789999998
 20
198.0109090000000
 30
0.000000000000000
 40
1.000000000000000
100
AcDbArc
 50
90.00000000000000
 51
180.0000000000000
  0
ARC
  5
19E
100
AcDbEntity
  8
1
  6
CONTINUOUS
 62
7
100
AcDbCircle
 10
418.9577789999998
 20
200.0109090000000
 30
0.000000000000000
 40
1.000000000000000
100
AcDbArc
 50
270.0000000000000
 51
360.0000220000000
  0
ARC
  5
19F
100
AcDbEntity
  8
1
  6
CONTINUOUS
 62
7
100
AcDbCircle
 10
417.4577789999998
 20
198.0109090000000
 30
0.000000000000000
 40
1.000000000000000
100
AcDbArc
 50
90.00000000000000
 51
180.0000000000000
  0
ARC
  5
1A0
100
AcDbEntity
  8
1
  6
CONTINUOUS
 62
7
100
AcDbCircle
 10
432.9577790000000
 20
237.0113089999999
 30
0.000000000000000
 40
2.450000000000000
100
AcDbArc
 50
305.1290000000000
 51
324.8709999999999
  0
ARC
  5
1A1
100
AcDbEntity
  8
1
  6
CONTINUOUS
 62
7
100
AcDbCircle
 10
432.9577790000000
 20
237.0113089999999
 30
0.000000000000000
 40
2.450000000000000
100
AcDbArc
 50
215.1289999999999
 51
234.8710000000000
  0
LINE
  5
1A2
100
AcDbEntity
  8
1
  6
CONTINUOUS
 62
7
100
AcDbLine
 10
432.3291610000000
 20
235.7618519999999
 30
0.000000000000000
 11
431.5478080000000
 21
235.0073689999999
 31
0.000000000000000
  0
LINE
  5
1A3
100
AcDbEntity
  8
1
  6
CONTINUOUS
 62
7
100
AcDbLine
 10
433.5863969999998
 20
235.7618519999999
 30
0.000000000000000
 11
434.3677499999999
 21
235.0073689999999
 31
0.000000000000000
  0
LINE
  5
1A4
100
AcDbEntity
  8
1
  6
CONTINUOUS
 62
7
100
AcDbLine
 10
433.9788419999998
 20
237.0113089999998
 30
0.000000000000000
 11
434.2072369999998
 21
237.6399269999999
 31
0.000000000000000
  0
LINE
  5
1A5
100
AcDbEntity
  8
1
  6
CONTINUOUS
 62
7
100
AcDbLine
 10
434.2072369999999
 20
237.6399269999999
 30
0.000000000000000
 11
434.9617199999998
 21
238.4212799999999
 31
0.000000000000000
  0
LINE
  5
1A6
100
AcDbEntity
  8
1
  6
CONTINUOUS
 62
7
100
AcDbLine
 10
433.9788419999998
 20
237.0113089999999
 30
0.000000000000000
 11
434.2072369999997
 21
236.3826910000000
 31
0.000000000000000
  0
LINE
  5
1A7
100
AcDbEntity
  8
1
  6
CONTINUOUS
 62
7
100
AcDbLine
 10
434.2072369999997
 20
236.3826909999999
 30
0.000000000000000
 11
434.9617199999997
 21
235.6013379999998
 31
0.000000000000000
  0
ARC
  5
1A8
100
AcDbEntity
  8
1
  6
CONTINUOUS
 62
7
100
AcDbCircle
 10
432.9577790000000
 20
237.0113089999999
 30
0.000000000000000
 40
2.450000000000000
100
AcDbArc
 50
35.12899999999999
 51
54.87089000000000
  0
LINE
  5
1A9
100
AcDbEntity
  8
1
  6
CONTINUOUS
 62
7
100
AcDbLine
 10
432.9577790000001
 20
238.0323719999999
 30
0.000000000000000
 11
433.5863969999999
 21
238.2607669999999
 31
0.000000000000000
  0
LINE
  5
1AA
100
AcDbEntity
  8
1
  6
CONTINUOUS
 62
7
100
AcDbLine
 10
432.9577790000000
 20
238.0323719999999
 30
0.000000000000000
 11
432.3291610000000
 21
238.2607669999999
 31
0.000000000000000
  0
LINE
  5
1AB
100
AcDbEntity
  8
1
  6
CONTINUOUS
 62
7
100
AcDbLine
 10
431.9374240000002
 20
237.0120160000000
 30
0.000000000000000
 11
431.7083219999999
 21
237.6399269999999
 31
0.000000000000000
  0
LINE
  5
1AC
100
AcDbEntity
  8
1
  6
CONTINUOUS
 62
7
100
AcDbLine
 10
431.9374240000001
 20
237.0120160000000
 30
0.000000000000000
 11
431.7083219999997
 21
236.3826910000000
 31
0.000000000000000
  0
LINE
  5
1AD
100
AcDbEntity
  8
1
  6
CONTINUOUS
 62
7
100
AcDbLine
 10
432.9584869999997
 20
235.9909539999999
 30
0.000000000000000
 11
432.3291610000000
 21
235.7618519999999
 31
0.000000000000000
  0
LINE
  5
1AE
100
AcDbEntity
  8
1
  6
CONTINUOUS
 62
7
100
AcDbLine
 10
432.9584869999996
 20
235.9909539999999
 30
0.000000000000000
 11
433.5863969999997
 21
235.7618519999999
 31
0.000000000000000
  0
ARC
  5
1AF
100
AcDbEntity
  8
1
  6
CONTINUOUS
 62
7
100
AcDbCircle
 10
432.9577790000000
 20
237.0113089999999
 30
0.000000000000000
 40
2.450000000000000
100
AcDbArc
 50
125.1291000000000
 51
144.8709000000000
  0
LINE
  5
1B0
100
AcDbEntity
  8
1
  6
CONTINUOUS
 62
7
100
AcDbLine
 10
432.3291609999999
 20
238.2607669999998
 30
0.000000000000000
 11
431.5478079999999
 21
239.0152499999999
 31
0.000000000000000
  0
LINE
  5
1B1
100
AcDbEntity
  8
1
  6
CONTINUOUS
 62
7
100
AcDbLine
 10
431.7083219999997
 20
237.6399269999998
 30
0.000000000000000
 11
430.9538389999998
 21
238.4212799999999
 31
0.000000000000000
  0
LINE
  5
1B2
100
AcDbEntity
  8
1
  6
CONTINUOUS
 62
7
100
AcDbLine
 10
431.7083219999997
 20
236.3826910000000
 30
0.000000000000000
 11
430.9538389999998
 21
235.6013379999999
 31
0.000000000000000
  0
LINE
  5
1B3
100
AcDbEntity
  8
1
  6
CONTINUOUS
 62
7
100
AcDbLine
 10
433.5863969999998
 20
238.2607669999999
 30
0.000000000000000
 11
434.3677500000000
 21
239.0152500000000
 31
0.000000000000000
  0
LINE
  5
1B4
100
AcDbEntity
  8
4
  6
CENTER
 62
1
100
AcDbLine
 10
426.9577789999998
 20
237.0113089999999
 30
0.000000000000000
 11
438.9577789999998
 21
237.0113089999999
 31
0.000000000000000
  0
CIRCLE
  5
1B5
100
AcDbEntity
  8
1
  6
CONTINUOUS
 62
7
100
AcDbCircle
 10
432.9577790000000
 20
237.0113089999999
 30
0.000000000000000
 40
4.500000000000000
  0
CIRCLE
  5
1B6
100
AcDbEntity
  8
1
  6
CONTINUOUS
 62
7
100
AcDbCircle
 10
432.9577790000000
 20
237.0113089999999
 30
0.000000000000000
 40
4.599999999999996
  0
LINE
  5
1B7
100
AcDbEntity
  8
1
  6
CONTINUOUS
 62
7
100
AcDbLine
 10
419.9577789999998
 20
297.0113089999999
 30
0.000000000000000
 11
419.9577789999998
 21
303.8493089999998
 31
0.000000000000000
  0
LINE
  5
1B8
100
AcDbEntity
  8
1
  6
CONTINUOUS
 62
7
100
AcDbLine
 10
433.5863969999997
 20
285.7618519999997
 30
0.000000000000000
 11
434.3677499999999
 21
285.0073689999998
 31
0.000000000000000
  0
LINE
  5
1B9
100
AcDbEntity
  8
1
  6
CONTINUOUS
 62
7
100
AcDbLine
 10
433.5863969999997
 20
288.2607669999998
 30
0.000000000000000
 11
434.3677499999999
 21
289.0152499999997
 31
0.000000000000000
  0
LINE
  5
1BA
100
AcDbEntity
  8
1
  6
CONTINUOUS
 62
7
100
AcDbLine
 10
432.3291610000000
 20
285.7618519999998
 30
0.000000000000000
 11
431.5478080000000
 21
285.0073689999998
 31
0.000000000000000
  0
LINE
  5
1BB
100
AcDbEntity
  8
1
  6
CONTINUOUS
 62
7
100
AcDbLine
 10
431.7083219999998
 20
286.3826910000000
 30
0.000000000000000
 11
430.9538390000000
 21
285.6013379999999
 31
0.000000000000000
  0
LINE
  5
1BC
100
AcDbEntity
  8
1
  6
CONTINUOUS
 62
7
100
AcDbLine
 10
431.7083219999997
 20
287.6399269999998
 30
0.000000000000000
 11
430.9538389999998
 21
288.4212799999999
 31
0.000000000000000
  0
LINE
  5
1BD
100
AcDbEntity
  8
1
  6
CONTINUOUS
 62
7
100
AcDbLine
 10
432.3291610000000
 20
288.2607669999998
 30
0.000000000000000
 11
431.5478080000000
 21
289.0152499999998
 31
0.000000000000000
  0
ARC
  5
1BE
100
AcDbEntity
  8
1
  6
CONTINUOUS
 62
7
100
AcDbCircle
 10
432.9577790000000
 20
287.0113089999998
 30
0.000000000000000
 40
2.450000000000000
100
AcDbArc
 50
215.1289999999999
 51
234.8710000000000
  0
ARC
  5
1BF
100
AcDbEntity
  8
1
  6
CONTINUOUS
 62
7
100
AcDbCircle
 10
432.9577790000000
 20
287.0113089999998
 30
0.000000000000000
 40
2.450000000000000
100
AcDbArc
 50
125.1291000000000
 51
144.8709000000000
  0
LINE
  5
1C0
100
AcDbEntity
  8
1
  6
CONTINUOUS
 62
7
100
AcDbLine
 10
432.9584869999997
 20
285.9909539999999
 30
0.000000000000000
 11
433.5863969999998
 21
285.7618519999998
 31
0.000000000000000
  0
LINE
  5
1C1
100
AcDbEntity
  8
1
  6
CONTINUOUS
 62
7
100
AcDbLine
 10
432.9584869999998
 20
285.9909539999999
 30
0.000000000000000
 11
432.3291610000001
 21
285.7618519999998
 31
0.000000000000000
  0
LINE
  5
1C2
100
AcDbEntity
  8
1
  6
CONTINUOUS
 62
7
100
AcDbLine
 10
431.9374240000000
 20
287.0120160000000
 30
0.000000000000000
 11
431.7083219999997
 21
286.3826910000000
 31
0.000000000000000
  0
LINE
  5
1C3
100
AcDbEntity
  8
1
  6
CONTINUOUS
 62
7
100
AcDbLine
 10
431.9374240000001
 20
287.0120160000001
 30
0.000000000000000
 11
431.7083219999998
 21
287.6399269999999
 31
0.000000000000000
  0
LINE
  5
1C4
100
AcDbEntity
  8
1
  6
CONTINUOUS
 62
7
100
AcDbLine
 10
432.9577790000001
 20
288.0323719999999
 30
0.000000000000000
 11
432.3291610000001
 21
288.2607669999999
 31
0.000000000000000
  0
LINE
  5
1C5
100
AcDbEntity
  8
1
  6
CONTINUOUS
 62
7
100
AcDbLine
 10
432.9577790000001
 20
288.0323719999998
 30
0.000000000000000
 11
433.5863970000000
 21
288.2607669999999
 31
0.000000000000000
  0
ARC
  5
1C6
100
AcDbEntity
  8
1
  6
CONTINUOUS
 62
7
100
AcDbCircle
 10
432.9577790000000
 20
287.0113089999998
 30
0.000000000000000
 40
2.450000000000000
100
AcDbArc
 50
305.1290000000000
 51
324.8709999999999
  0
ARC
  5
1C7
100
AcDbEntity
  8
1
  6
CONTINUOUS
 62
7
100
AcDbCircle
 10
432.9577790000000
 20
287.0113089999998
 30
0.000000000000000
 40
2.450000000000000
100
AcDbArc
 50
35.12899999999999
 51
54.87089000000000
  0
LINE
  5
1C8
100
AcDbEntity
  8
1
  6
CONTINUOUS
 62
7
100
AcDbLine
 10
434.2072369999997
 20
286.3826909999999
 30
0.000000000000000
 11
434.9617199999997
 21
285.6013379999998
 31
0.000000000000000
  0
LINE
  5
1C9
100
AcDbEntity
  8
1
  6
CONTINUOUS
 62
7
100
AcDbLine
 10
433.9788419999999
 20
287.0113089999999
 30
0.000000000000000
 11
434.2072369999999
 21
286.3826910000001
 31
0.000000000000000
  0
LINE
  5
1CA
100
AcDbEntity
  8
1
  6
CONTINUOUS
 62
7
100
AcDbLine
 10
434.2072369999998
 20
287.6399269999999
 30
0.000000000000000
 11
434.9617199999998
 21
288.4212799999999
 31
0.000000000000000
  0
LINE
  5
1CB
100
AcDbEntity
  8
1
  6
CONTINUOUS
 62
7
100
AcDbLine
 10
433.9788419999999
 20
287.0113089999998
 30
0.000000000000000
 11
434.2072369999999
 21
287.6399270000000
 31
0.000000000000000
  0
LINE
  5
1CC
100
AcDbEntity
  8
4
  6
CENTER
 62
1
100
AcDbLine
 10
426.9577789999998
 20
287.0113089999998
 30
0.000000000000000
 11
438.9577789999998
 21
287.0113089999998
 31
0.000000000000000
  0
CIRCLE
  5
1CD
100
AcDbEntity
  8
1
  6
CONTINUOUS
 62
7
100
AcDbCircle
 10
432.9577790000000
 20
287.0113089999998
 30
0.000000000000000
 40
4.599999999999996
  0
CIRCLE
  5
1CE
100
AcDbEntity
  8
1
  6
CONTINUOUS
 62
7
100
AcDbCircle
 10
432.9577790000000
 20
287.0113089999998
 30
0.000000000000000
 40
4.500000000000000
  0
LINE
  5
1CF
100
AcDbEntity
  8
1
  6
CONTINUOUS
 62
7
100
AcDbLine
 10
448.4577789999998
 20
199.0109089999999
 30
0.000000000000000
 11
446.9577789999998
 21
199.0109089999999
 31
0.000000000000000
  0
ARC
  5
1D0
100
AcDbEntity
  8
1
  6
CONTINUOUS
 62
7
100
AcDbCircle
 10
448.4577789999998
 20
198.0109090000000
 30
0.000000000000000
 40
1.000000000000000
100
AcDbArc
 50
2.200000000000000e-05
 51
90.00000000000000
  0
ARC
  5
1D1
100
AcDbEntity
  8
1
  6
CONTINUOUS
 62
7
100
AcDbCircle
 10
446.9577789999998
 20
200.0109090000000
 30
0.000000000000000
 40
1.000000000000000
100
AcDbArc
 50
180.0000000000000
 51
270.0000000000000
  0
LINE
  5
1D2
100
AcDbEntity
  8
1
  6
CONTINUOUS
 62
7
100
AcDbLine
 10
445.9577789999998
 20
297.0113089999999
 30
0.000000000000000
 11
445.9577789999998
 21
303.8493089999998
 31
0.000000000000000
  0
LINE
  5
1D3
100
AcDbEntity
  8
1
  6
CONTINUOUS
 62
7
100
AcDbLine
 10
449.9577790000000
 20
337.0113089999998
 30
0.000000000000000
 11
415.9577789999998
 21
337.0113089999998
 31
0.000000000000000
  0
LINE
  5
1D4
100
AcDbEntity
  8
1
  6
CONTINUOUS
 62
7
100
AcDbLine
 10
415.9577789999998
 20
336.0113089999998
 30
0.000000000000000
 11
449.9577790000000
 21
336.0113089999998
 31
0.000000000000000
  0
ARC
  5
1D5
100
AcDbEntity
  8
1
  6
CONTINUOUS
 62
7
100
AcDbCircle
 10
444.4577789999998
 20
327.0113089999998
 30
0.000000000000000
 40
5.000000000000000
100
AcDbArc
 50
2.200000000000000e-05
 51
90.00000000000000
  0
ARC
  5
1D6
100
AcDbEntity
  8
1
  6
CONTINUOUS
 62
7
100
AcDbCircle
 10
421.4577789999998
 20
327.0113089999998
 30
0.000000000000000
 40
5.000000000000000
100
AcDbArc
 50
90.00000000000000
 51
180.0000000000000
  0
ARC
  5
1D7
100
AcDbEntity
  8
1
  6
CONTINUOUS
 62
7
100
AcDbCircle
 10
432.9577790000000
 20
314.0113089999999
 30
0.000000000000000
 40
12.05000000000000
100
AcDbArc
 50
119.9999999999999
 51
210.0000000000000
  0
CIRCLE
  5
1D8
100
AcDbEntity
  8
1
  6
CONTINUOUS
 62
7
100
AcDbCircle
 10
432.9577790000000
 20
314.0113089999999
 30
0.000000000000000
 40
8.000000000000000
  0
LINE
  5
1D9
100
AcDbEntity
  8
1
  6
CONTINUOUS
 62
7
100
AcDbLine
 10
423.4315000000000
 20
308.5113089999998
 30
0.000000000000000
 11
421.6994490000001
 21
307.5113089999999
 31
0.000000000000000
  0
LINE
  5
1DA
100
AcDbEntity
  8
1
  6
CONTINUOUS
 62
7
100
AcDbLine
 10
437.9577789999998
 20
311.1243089999998
 30
0.000000000000000
 11
437.9577789999998
 21
316.8983089999998
 31
0.000000000000000
  0
LINE
  5
1DB
100
AcDbEntity
  8
1
  6
CONTINUOUS
 62
7
100
AcDbLine
 10
431.9085569875126
 20
315.0605310124874
 30
0.000000000000000
 11
431.9058204842693
 21
315.0590757867318
 31
0.000000000000000
  0
LINE
  5
1DC
100
AcDbEntity
  8
1
  6
CONTINUOUS
 62
7
100
AcDbLine
 10
431.9085569875126
 20
315.0605310124874
 30
0.000000000000000
 11
431.9100129203754
 21
315.0632682228376
 31
0.000000000000000
  0
LINE
  5
1DD
100
AcDbEntity
  8
1
  6
CONTINUOUS
 62
7
100
AcDbLine
 10
431.9100129203753
 20
315.0632682228375
 30
0.000000000000000
 11
431.9427788344016
 21
316.9404344943483
 31
0.000000000000000
  0
LINE
  5
1DE
100
AcDbEntity
  8
1
  6
CONTINUOUS
 62
7
100
AcDbLine
 10
430.0286535056518
 20
315.0263091655983
 30
0.000000000000000
 11
431.9058204842693
 21
315.0590757867317
 31
0.000000000000000
  0
LINE
  5
1DF
100
AcDbEntity
  8
1
  6
CONTINUOUS
 62
7
100
AcDbLine
 10
432.9577789999999
 20
319.7843090000000
 30
0.000000000000000
 11
427.9577789999997
 21
316.8983089999998
 31
0.000000000000000
  0
ARC
  5
1E0
100
AcDbEntity
  8
1
  6
CONTINUOUS
 62
7
100
AcDbCircle
 10
432.9577790000000
 20
314.0113090000000
 30
0.000000000000000
 40
3.100000000000000
100
AcDbArc
 50
160.8877849999999
 51
199.1122149999999
  0
LINE
  5
1E1
100
AcDbEntity
  8
1
  6
CONTINUOUS
 62
7
100
AcDbLine
 10
435.8869037872414
 20
312.9963095415087
 30
0.000000000000000
 11
434.0097375157306
 21
312.9635436274821
 31
0.000000000000000
  0
LINE
  5
1E2
100
AcDbEntity
  8
1
  6
CONTINUOUS
 62
7
100
AcDbLine
 10
434.0070010124872
 20
315.0605310124872
 30
0.000000000000000
 11
434.0055450796245
 21
315.0632682228372
 31
0.000000000000000
  0
LINE
  5
1E3
100
AcDbEntity
  8
1
  6
CONTINUOUS
 62
7
100
AcDbLine
 10
434.0070010124873
 20
315.0605310124873
 30
0.000000000000000
 11
434.0097375157303
 21
315.0590757867317
 31
0.000000000000000
  0
LINE
  5
1E4
100
AcDbEntity
  8
1
  6
CONTINUOUS
 62
7
100
AcDbLine
 10
434.0070003053804
 20
312.9620876946195
 30
0.000000000000000
 11
434.0097375157306
 21
312.9635436274820
 31
0.000000000000000
  0
LINE
  5
1E5
100
AcDbEntity
  8
1
  6
CONTINUOUS
 62
7
100
AcDbLine
 10
434.0070003053805
 20
312.9620876946195
 30
0.000000000000000
 11
434.0055450796248
 21
312.9593511913763
 31
0.000000000000000
  0
LINE
  5
1E6
100
AcDbEntity
  8
1
  6
CONTINUOUS
 62
7
100
AcDbLine
 10
431.9085576946193
 20
312.9620876946194
 30
0.000000000000000
 11
431.9100129203750
 21
312.9593511913761
 31
0.000000000000000
  0
LINE
  5
1E7
100
AcDbEntity
  8
1
  6
CONTINUOUS
 62
7
100
AcDbLine
 10
431.9085576946192
 20
312.9620876946193
 30
0.000000000000000
 11
431.9058204842693
 21
312.9635436274818
 31
0.000000000000000
  0
LINE
  5
1E8
100
AcDbEntity
  8
1
  6
CONTINUOUS
 62
7
100
AcDbLine
 10
434.0055450796248
 20
312.9593511913763
 30
0.000000000000000
 11
433.9727784584915
 21
311.0821842127586
 31
0.000000000000000
  0
LINE
  5
1E9
100
AcDbEntity
  8
1
  6
CONTINUOUS
 62
7
100
AcDbLine
 10
427.9577789999998
 20
311.1243089999998
 30
0.000000000000000
 11
432.9577790000000
 21
308.2373089999999
 31
0.000000000000000
  0
ARC
  5
1EA
100
AcDbEntity
  8
1
  6
CONTINUOUS
 62
7
100
AcDbCircle
 10
432.9577790000000
 20
314.0113090000000
 30
0.000000000000000
 40
3.100000000000000
100
AcDbArc
 50
250.8877849999999
 51
289.1122150000000
  0
LINE
  5
1EB
100
AcDbEntity
  8
1
  6
CONTINUOUS
 62
7
100
AcDbLine
 10
431.9100129203750
 20
312.9593511913761
 30
0.000000000000000
 11
431.9427795415086
 21
311.0821842127586
 31
0.000000000000000
  0
LINE
  5
1EC
100
AcDbEntity
  8
1
  6
CONTINUOUS
 62
7
100
AcDbLine
 10
427.9577789999998
 20
311.1243089999998
 30
0.000000000000000
 11
427.9577789999998
 21
316.8983089999998
 31
0.000000000000000
  0
LINE
  5
1ED
100
AcDbEntity
  8
1
  6
CONTINUOUS
 62
7
100
AcDbLine
 10
430.0286542127587
 20
312.9963095415086
 30
0.000000000000000
 11
431.9058204842694
 21
312.9635436274818
 31
0.000000000000000
  0
LINE
  5
1EE
100
AcDbEntity
  8
1
  6
CONTINUOUS
 62
7
100
AcDbLine
 10
432.9577790000001
 20
319.7843090000000
 30
0.000000000000000
 11
437.9577789999998
 21
316.8983089999998
 31
0.000000000000000
  0
LINE
  5
1EF
100
AcDbEntity
  8
1
  6
CONTINUOUS
 62
7
100
AcDbLine
 10
437.9577789999998
 20
311.1243089999999
 30
0.000000000000000
 11
432.9577790000000
 21
308.2373090000000
 31
0.000000000000000
  0
CIRCLE
  5
1F0
100
AcDbEntity
  8
1
  6
CONTINUOUS
 62
7
100
AcDbCircle
 10
432.9577790000000
 20
314.0113089999999
 30
0.000000000000000
 40
5.000000000000000
  0
CIRCLE
  5
1F1
100
AcDbEntity
  8
1
  6
CONTINUOUS
 62
7
100
AcDbCircle
 10
432.9577790000000
 20
314.0113089999999
 30
0.000000000000000
 40
4.049999999999998
  0
ARC
  5
1F2
100
AcDbEntity
  8
1
  6
CONTINUOUS
 62
7
100
AcDbCircle
 10
432.9577790000000
 20
314.0113090000000
 30
0.000000000000000
 40
3.100000000000000
100
AcDbArc
 50
340.8877850000000
 51
379.1122149999999
  0
LINE
  5
1F3
100
AcDbEntity
  8
1
  6
CONTINUOUS
 62
7
100
AcDbLine
 10
435.8869044943481
 20
315.0263091655983
 30
0.000000000000000
 11
434.0097375157304
 21
315.0590757867317
 31
0.000000000000000
  0
LINE
  5
1F4
100
AcDbEntity
  8
1
  6
CONTINUOUS
 62
7
100
AcDbLine
 10
434.0055450796245
 20
315.0632682228372
 30
0.000000000000000
 11
433.9727791655980
 21
316.9404344943482
 31
0.000000000000000
  0
ARC
  5
1F5
100
AcDbEntity
  8
1
  6
CONTINUOUS
 62
7
100
AcDbCircle
 10
432.9577790000000
 20
314.0113090000000
 30
0.000000000000000
 40
3.100000000000000
100
AcDbArc
 50
70.88778500000001
 51
109.1122150000000
  0
LINE
  5
1F6
100
AcDbEntity
  8
1
  6
CONTINUOUS
 62
7
100
AcDbLine
 10
438.4579369999997
 20
323.5374979999997
 30
0.000000000000000
 11
439.7027789999999
 21
325.6943089999997
 31
0.000000000000000
  0
ARC
  5
1F7
100
AcDbEntity
  8
1
  6
CONTINUOUS
 62
7
100
AcDbCircle
 10
439.2697789999998
 20
325.9443089999998
 30
0.000000000000000
 40
0.5000000000000000
100
AcDbArc
 50
329.9999999999999
 51
422.1226000000000
  0
ARC
  5
1F8
100
AcDbEntity
  8
1
  6
CONTINUOUS
 62
7
100
AcDbCircle
 10
432.9577790000000
 20
314.0113089999999
 30
0.000000000000000
 40
5.750000000000000
100
AcDbArc
 50
30.39506200000000
 51
89.60066399999999
  0
ARC
  5
1F9
100
AcDbEntity
  8
1
  6
CONTINUOUS
 62
7
100
AcDbCircle
 10
432.9577790000000
 20
314.0113089999999
 30
0.000000000000000
 40
5.750000000000000
100
AcDbArc
 50
330.4081540000000
 51
389.5918459999999
  0
ARC
  5
1FA
100
AcDbEntity
  8
1
  6
CONTINUOUS
 62
7
100
AcDbCircle
 10
432.9577790000000
 20
314.0113089999999
 30
0.000000000000000
 40
5.750000000000000
100
AcDbArc
 50
270.4168090000000
 51
329.5874640000001
  0
LINE
  5
1FB
100
AcDbEntity
  8
1
  6
CONTINUOUS
 62
7
100
AcDbLine
 10
427.4575249999997
 20
323.5374419999998
 30
0.000000000000000
 11
426.2117789999996
 21
325.6943089999997
 31
0.000000000000000
  0
ARC
  5
1FC
100
AcDbEntity
  8
1
  6
CONTINUOUS
 62
7
100
AcDbCircle
 10
426.6447789999999
 20
325.9443089999998
 30
0.000000000000000
 40
0.5000000000000000
100
AcDbArc
 50
117.8770000000000
 51
210.0000000000000
  0
ARC
  5
1FD
100
AcDbEntity
  8
1
  6
CONTINUOUS
 62
7
100
AcDbCircle
 10
432.9577790000000
 20
314.0113089999999
 30
0.000000000000000
 40
5.750000000000000
100
AcDbArc
 50
150.4081540000000
 51
209.5918460000000
  0
ARC
  5
1FE
100
AcDbEntity
  8
1
  6
CONTINUOUS
 62
7
100
AcDbCircle
 10
432.9577790000000
 20
314.0113089999999
 30
0.000000000000000
 40
5.750000000000000
100
AcDbArc
 50
90.39933600000001
 51
149.6049380000000
  0
ARC
  5
1FF
100
AcDbEntity
  8
1
  6
CONTINUOUS
 62
7
100
AcDbCircle
 10
432.9577790000000
 20
314.0113089999999
 30
0.000000000000000
 40
5.750000000000000
100
AcDbArc
 50
210.4125359999999
 51
269.5831909999998
  0
ARC
  5
200
100
AcDbEntity
  8
1
  6
CONTINUOUS
 62
7
100
AcDbCircle
 10
432.9577790000000
 20
314.0113089999999
 30
0.000000000000000
 40
14.00000000000000
100
AcDbArc
 50
62.12260000000001
 51
117.8770000000000
  0
LINE
  5
201
100
AcDbEntity
  8
1
  6
CONTINUOUS
 62
7
100
AcDbLine
 10
444.4577789999998
 20
332.0113089999998
 30
0.000000000000000
 11
421.4577789999998
 21
332.0113089999998
 31
0.000000000000000
  0
ARC
  5
202
100
AcDbEntity
  8
1
  6
CONTINUOUS
 62
7
100
AcDbCircle
 10
415.9577789999998
 20
333.0113089999998
 30
0.000000000000000
 40
4.000000000000000
100
AcDbArc
 50
90.00000000000000
 51
180.0000000000000
  0
ARC
  5
203
100
AcDbEntity
  8
1
  6
CONTINUOUS
 62
7
100
AcDbCircle
 10
415.9577789999998
 20
333.0113089999998
 30
0.000000000000000
 40
3.000000000000000
100
AcDbArc
 50
90.00000000000000
 51
180.0000000000000
  0
ARC
  5
204
100
AcDbEntity
  8
1
  6
CONTINUOUS
 62
7
100
AcDbCircle
 10
449.9577790000000
 20
333.0113089999998
 30
0.000000000000000
 40
4.000000000000000
100
AcDbArc
 50
2.200000000000000e-05
 51
90.00000000000000
  0
ARC
  5
205
100
AcDbEntity
  8
1
  6
CONTINUOUS
 62
7
100
AcDbCircle
 10
449.9577790000000
 20
333.0113089999998
 30
0.000000000000000
 40
3.000000000000000
100
AcDbArc
 50
2.200000000000000e-05
 51
90.00000000000000
  0
LINE
  5
206
100
AcDbEntity
  8
1
  6
CONTINUOUS
 62
7
100
AcDbLine
 10
300.7920500000001
 20
437.2262099999999
 30
0.000000000000000
 11
302.2920500000001
 21
438.7262100000001
 31
0.000000000000000
  0
LINE
  5
207
100
AcDbEntity
  8
1
  6
CONTINUOUS
 62
7
100
AcDbLine
 10
300.7920500000001
 20
435.7262099999999
 30
0.000000000000000
 11
302.2920500000001
 21
437.2262099999999
 31
0.000000000000000
  0
LINE
  5
208
100
AcDbEntity
  8
1
  6
CONTINUOUS
 62
7
100
AcDbLine
 10
302.2920500000000
 20
442.9762099999998
 30
0.000000000000000
 11
300.7920500000000
 21
442.9762099999998
 31
0.000000000000000
  0
LINE
  5
209
100
AcDbEntity
  8
1
  6
CONTINUOUS
 62
7
100
AcDbLine
 10
302.2920500000000
 20
431.4762099999998
 30
0.000000000000000
 11
300.7920500000000
 21
431.4762099999998
 31
0.000000000000000
  0
LINE
  5
20A
100
AcDbEntity
  8
4
  6
CENTER
 62
1
100
AcDbLine
 10
309.5190499999998
 20
437.2262099999998
 30
0.000000000000000
 11
294.1920499999998
 21
437.2262099999998
 31
0.000000000000000
  0
LINE
  5
20B
100
AcDbEntity
  8
4
  6
CENTER
 62
1
100
AcDbLine
 10
27.66132100000004
 20
437.2262039999998
 30
0.000000000000000
 11
78.69574199999998
 21
437.2262039999998
 31
0.000000000000000
  0
LINE
  5
20C
100
AcDbEntity
  8
1
  6
CONTINUOUS
 62
7
100
AcDbLine
 10
40.34016700000009
 20
448.0262039999998
 30
0.000000000000000
 11
50.40683400000003
 21
440.4762039999998
 31
0.000000000000000
  0
LINE
  5
20D
100
AcDbEntity
  8
1
  6
CONTINUOUS
 62
7
100
AcDbLine
 10
40.94016699999995
 20
448.8262039999998
 30
0.000000000000000
 11
50.40683400000003
 21
441.7262039999998
 31
0.000000000000000
  0
LINE
  5
20E
100
AcDbEntity
  8
1
  6
CONTINUOUS
 62
7
100
AcDbLine
 10
34.64515099999994
 20
447.7809040000000
 30
0.000000000000000
 11
30.57478400000002
 21
441.6753529999998
 31
0.000000000000000
  0
LINE
  5
20F
100
AcDbEntity
  8
1
  6
CONTINUOUS
 62
7
100
AcDbLine
 10
29.74273300000002
 20
442.2300529999999
 30
0.000000000000000
 11
33.81310099999993
 21
448.3356039999999
 31
0.000000000000000
  0
LINE
  5
210
100
AcDbEntity
  8
1
  6
CONTINUOUS
 62
7
100
AcDbLine
 10
37.69353000000001
 20
437.6161870000000
 30
0.000000000000000
 11
43.12013899999999
 21
437.6161870000000
 31
0.000000000000000
  0
LINE
  5
211
100
AcDbEntity
  8
1
  6
CONTINUOUS
 62
7
100
AcDbLine
 10
38.27297799999996
 20
432.1722099999998
 30
0.000000000000000
 11
41.62651900000002
 21
432.1722099999998
 31
0.000000000000000
  0
LINE
  5
212
100
AcDbEntity
  8
1
  6
CONTINUOUS
 62
7
100
AcDbLine
 10
38.48770600000000
 20
433.7274070000000
 30
0.000000000000000
 11
42.32438400000001
 21
433.7274070000000
 31
0.000000000000000
  0
LINE
  5
213
100
AcDbEntity
  8
1
  6
CONTINUOUS
 62
7
100
AcDbLine
 10
39.47292700000003
 20
435.2826030000001
 30
0.000000000000000
 11
37.98878000000001
 21
435.2826030000001
 31
0.000000000000000
  0
ARC
  5
214
100
AcDbEntity
  8
1
  6
CONTINUOUS
 62
7
100
AcDbCircle
 10
38.97242200000004
 20
433.3390019999998
 30
0.000000000000000
 40
0.3889570000000000
100
AcDbArc
 50
206.0144000000000
 51
270.0000000000000
  0
LINE
  5
215
100
AcDbEntity
  8
1
  6
CONTINUOUS
 62
7
100
AcDbLine
 10
38.38665800000001
 20
434.5042149999998
 30
0.000000000000000
 11
42.42701099999999
 21
434.5042149999998
 31
0.000000000000000
  0
LINE
  5
216
100
AcDbEntity
  8
1
  6
CONTINUOUS
 62
7
100
AcDbLine
 10
37.75826400000005
 20
436.0609909999998
 30
0.000000000000000
 11
43.05540500000006
 21
436.0609909999998
 31
0.000000000000000
  0
LINE
  5
217
100
AcDbEntity
  8
1
  6
CONTINUOUS
 62
7
100
AcDbLine
 10
37.69353000000001
 20
436.8377999999998
 30
0.000000000000000
 11
43.12013899999999
 21
436.8377999999998
 31
0.000000000000000
  0
LINE
  5
218
100
AcDbEntity
  8
1
  6
CONTINUOUS
 62
7
100
AcDbLine
 10
39.47292700000003
 20
439.1713839999998
 30
0.000000000000000
 11
38.21140200000002
 21
439.1713839999998
 31
0.000000000000000
  0
LINE
  5
219
100
AcDbEntity
  8
1
  6
CONTINUOUS
 62
7
100
AcDbLine
 10
38.21613900000000
 20
440.7265809999998
 30
0.000000000000000
 11
40.01764099999991
 21
440.7265809999998
 31
0.000000000000000
  0
LINE
  5
21A
100
AcDbEntity
  8
1
  6
CONTINUOUS
 62
7
100
AcDbLine
 10
40.01764099999991
 20
441.5049679999998
 30
0.000000000000000
 11
38.35665900000004
 21
441.5049679999998
 31
0.000000000000000
  0
LINE
  5
21B
100
AcDbEntity
  8
1
  6
CONTINUOUS
 62
7
100
AcDbLine
 10
41.86177199999996
 20
441.8996880000000
 30
0.000000000000000
 11
38.58401800000001
 21
442.7791240000001
 31
0.000000000000000
  0
ARC
  5
21C
100
AcDbEntity
  8
1
  6
CONTINUOUS
 62
7
100
AcDbCircle
 10
40.40604499999995
 20
441.8933730000000
 30
0.000000000000000
 40
2.004309000000000
100
AcDbArc
 50
62.25000000000000
 51
144.4620000000000
  0
LINE
  5
21D
100
AcDbEntity
  8
1
  6
CONTINUOUS
 62
7
100
AcDbLine
 10
37.84668099999999
 20
438.3929959999998
 30
0.000000000000000
 11
42.96698800000000
 21
438.3929959999998
 31
0.000000000000000
  0
LINE
  5
21E
100
AcDbEntity
  8
1
  6
CONTINUOUS
 62
7
100
AcDbLine
 10
37.84983899999997
 20
439.9481929999998
 30
0.000000000000000
 11
42.71910400000002
 21
439.9481929999998
 31
0.000000000000000
  0
ARC
  5
21F
100
AcDbEntity
  8
1
  6
CONTINUOUS
 62
7
100
AcDbCircle
 10
40.40604499999995
 20
432.5606139999998
 30
0.000000000000000
 40
2.004309000000000
100
AcDbArc
 50
215.5377000000000
 51
256.5374000000000
  0
LINE
  5
220
100
AcDbEntity
  8
1
  6
CONTINUOUS
 62
7
100
AcDbLine
 10
39.74016699999992
 20
426.2262039999998
 30
0.000000000000000
 11
35.47720099999992
 21
426.2262039999998
 31
0.000000000000000
  0
LINE
  5
221
100
AcDbEntity
  8
1
  6
CONTINUOUS
 62
7
100
AcDbLine
 10
35.47720099999992
 20
425.2262039999997
 30
0.000000000000000
 11
39.74016699999992
 21
425.2262039999997
 31
0.000000000000000
  0
ARC
  5
222
100
AcDbEntity
  8
1
  6
CONTINUOUS
 62
7
100
AcDbCircle
 10
46.93944899999997
 20
437.2262039999998
 30
0.000000000000000
 40
10.03262800000000
100
AcDbArc
 50
144.4620000000000
 51
215.5377000000000
  0
ARC
  5
223
100
AcDbEntity
  8
1
  6
CONTINUOUS
 62
7
100
AcDbCircle
 10
46.93944899999997
 20
437.2262039999998
 30
0.000000000000000
 40
9.254918999999999
100
AcDbArc
 50
202.9440000000000
 51
206.0144000000000
  0
ARC
  5
224
100
AcDbEntity
  8
1
  6
CONTINUOUS
 62
7
100
AcDbCircle
 10
38.48770600000000
 20
433.6500409999998
 30
0.000000000000000
 40
0.07779100000000000
100
AcDbArc
 50
90.00000000000000
 51
202.9440000000000
  0
ARC
  5
225
100
AcDbEntity
  8
1
  6
CONTINUOUS
 62
7
100
AcDbCircle
 10
37.98878000000001
 20
435.2052379999998
 30
0.000000000000000
 40
0.07779100000000000
100
AcDbArc
 50
90.00000000000000
 51
192.7289000000000
  0
ARC
  5
226
100
AcDbEntity
  8
1
  6
CONTINUOUS
 62
7
100
AcDbCircle
 10
46.93944899999997
 20
437.2262039999998
 30
0.000000000000000
 40
9.254918999999999
100
AcDbArc
 50
192.7289000000000
 51
193.2680999999999
  0
ARC
  5
227
100
AcDbEntity
  8
1
  6
CONTINUOUS
 62
7
100
AcDbCircle
 10
46.93944899999997
 20
437.2262039999998
 30
0.000000000000000
 40
9.254918999999999
100
AcDbArc
 50
193.2680999999999
 51
195.2574999999999
  0
ARC
  5
228
100
AcDbEntity
  8
1
  6
CONTINUOUS
 62
7
100
AcDbCircle
 10
38.38665800000001
 20
434.8941990000000
 30
0.000000000000000
 40
0.3889570000000000
100
AcDbArc
 50
195.2574999999999
 51
270.0000000000000
  0
ARC
  5
229
100
AcDbEntity
  8
1
  6
CONTINUOUS
 62
7
100
AcDbCircle
 10
38.21140200000002
 20
438.7829799999998
 30
0.000000000000000
 40
0.3889570000000000
100
AcDbArc
 50
90.00000000000000
 51
169.8960000000000
  0
ARC
  5
22A
100
AcDbEntity
  8
1
  6
CONTINUOUS
 62
7
100
AcDbCircle
 10
46.93944899999997
 20
437.2262039999998
 30
0.000000000000000
 40
9.254918999999999
100
AcDbArc
 50
169.8960000000000
 51
172.2069999999999
  0
ARC
  5
22B
100
AcDbEntity
  8
1
  6
CONTINUOUS
 62
7
100
AcDbCircle
 10
37.84668099999999
 20
438.4719400000000
 30
0.000000000000000
 40
0.07779100000000000
100
AcDbArc
 50
172.2069999999999
 51
270.0000000000000
  0
LINE
  5
22C
100
AcDbEntity
  8
1
  6
CONTINUOUS
 62
7
100
AcDbLine
 10
34.64515099999997
 20
426.6715040000000
 30
0.000000000000000
 11
30.57478400000005
 21
432.7770549999998
 31
0.000000000000000
  0
ARC
  5
22D
100
AcDbEntity
  8
1
  6
CONTINUOUS
 62
7
100
AcDbCircle
 10
31.40683400000000
 20
441.1206529999998
 30
0.000000000000000
 40
1.000000000000000
100
AcDbArc
 50
146.3099319999997
 51
180.0000000000000
  0
LINE
  5
22E
100
AcDbEntity
  8
1
  6
CONTINUOUS
 62
7
100
AcDbLine
 10
30.40683400000001
 20
433.3317549999998
 30
0.000000000000000
 11
30.40683400000001
 21
441.1206529999998
 31
0.000000000000000
  0
ARC
  5
22F
100
AcDbEntity
  8
1
  6
CONTINUOUS
 62
7
100
AcDbCircle
 10
31.40683400000000
 20
433.3317549999998
 30
0.000000000000000
 40
1.000000000000000
100
AcDbArc
 50
180.0000000000000
 51
213.6900680000000
  0
ARC
  5
230
100
AcDbEntity
  8
1
  6
CONTINUOUS
 62
7
100
AcDbCircle
 10
35.47720099999992
 20
427.2262039999998
 30
0.000000000000000
 40
1.000000000000000
100
AcDbArc
 50
213.6900680000000
 51
270.0000000000000
  0
ARC
  5
231
100
AcDbEntity
  8
1
  6
CONTINUOUS
 62
7
100
AcDbCircle
 10
31.90683400000001
 20
440.7262039999998
 30
0.000000000000000
 40
0.5000000000000000
100
AcDbArc
 50
90.00000000000000
 51
180.0000000000000
  0
ARC
  5
232
100
AcDbEntity
  8
1
  6
CONTINUOUS
 62
7
100
AcDbCircle
 10
35.47720099999992
 20
427.2262039999998
 30
0.000000000000000
 40
2.000000000000000
100
AcDbArc
 50
213.6900680000000
 51
270.0000000000000
  0
ARC
  5
233
100
AcDbEntity
  8
1
  6
CONTINUOUS
 62
7
100
AcDbCircle
 10
31.40683400000000
 20
433.3317549999998
 30
0.000000000000000
 40
2.000000000000000
100
AcDbArc
 50
180.0000000000000
 51
213.6900680000000
  0
ARC
  5
234
100
AcDbEntity
  8
1
  6
CONTINUOUS
 62
7
100
AcDbCircle
 10
31.40683400000000
 20
441.1206529999998
 30
0.000000000000000
 40
2.000000000000000
100
AcDbArc
 50
146.3099319999997
 51
180.0000000000000
  0
ARC
  5
235
100
AcDbEntity
  8
1
  6
CONTINUOUS
 62
7
100
AcDbCircle
 10
34.90683400000000
 20
440.7262039999998
 30
0.000000000000000
 40
0.5000000000000000
100
AcDbArc
 50
0.000000000000000
 51
90.00000000000000
  0
ARC
  5
236
100
AcDbEntity
  8
1
  6
CONTINUOUS
 62
7
100
AcDbCircle
 10
34.90683400000000
 20
433.7262039999997
 30
0.000000000000000
 40
0.5000000000000000
100
AcDbArc
 50
270.0000000000000
 51
360.0000000000000
  0
ARC
  5
237
100
AcDbEntity
  8
1
  6
CONTINUOUS
 62
7
100
AcDbCircle
 10
31.90683400000001
 20
433.7262039999997
 30
0.000000000000000
 40
0.5000000000000000
100
AcDbArc
 50
180.0000000000000
 51
270.0000000000000
  0
LINE
  5
238
100
AcDbEntity
  8
1
  6
CONTINUOUS
 62
7
100
AcDbLine
 10
29.74273300000004
 20
432.2223549999998
 30
0.000000000000000
 11
33.81310099999993
 21
426.1168039999998
 31
0.000000000000000
  0
LINE
  5
239
100
AcDbEntity
  8
1
  6
CONTINUOUS
 62
7
100
AcDbLine
 10
31.90683400000001
 20
441.2262039999998
 30
0.000000000000000
 11
34.90683400000000
 21
441.2262039999998
 31
0.000000000000000
  0
LINE
  5
23A
100
AcDbEntity
  8
1
  6
CONTINUOUS
 62
7
100
AcDbLine
 10
31.90683400000001
 20
433.2262039999998
 30
0.000000000000000
 11
34.90683400000000
 21
433.2262039999998
 31
0.000000000000000
  0
LINE
  5
23B
100
AcDbEntity
  8
1
  6
CONTINUOUS
 62
7
100
AcDbLine
 10
35.40683400000001
 20
440.7262039999998
 30
0.000000000000000
 11
35.40683400000001
 21
433.7262039999997
 31
0.000000000000000
  0
LINE
  5
23C
100
AcDbEntity
  8
1
  6
CONTINUOUS
 62
7
100
AcDbLine
 10
31.40683400000000
 20
440.7262039999998
 30
0.000000000000000
 11
31.40683400000000
 21
433.7262039999997
 31
0.000000000000000
  0
LINE
  5
23D
100
AcDbEntity
  8
1
  6
CONTINUOUS
 62
7
100
AcDbLine
 10
29.40683400000001
 20
441.1206529999998
 30
0.000000000000000
 11
29.40683400000001
 21
433.3317549999998
 31
0.000000000000000
  0
LINE
  5
23E
100
AcDbEntity
  8
1
  6
CONTINUOUS
 62
7
100
AcDbLine
 10
53.90683400000000
 20
436.7262039999998
 30
0.000000000000000
 11
76.67827999999997
 21
436.7262039999998
 31
0.000000000000000
  0
LINE
  5
23F
100
AcDbEntity
  8
1
  6
CONTINUOUS
 62
7
100
AcDbLine
 10
53.90683400000000
 20
437.9262039999998
 30
0.000000000000000
 11
77.31410400000004
 21
437.9262039999998
 31
0.000000000000000
  0
LINE
  5
240
100
AcDbEntity
  8
1
  6
CONTINUOUS
 62
7
100
AcDbLine
 10
57.40683399999999
 20
440.3262039999998
 30
0.000000000000000
 11
74.90683400000000
 21
440.3262039999998
 31
0.000000000000000
  0
LINE
  5
241
100
AcDbEntity
  8
1
  6
CONTINUOUS
 62
7
100
AcDbLine
 10
57.40683399999999
 20
434.1262039999998
 30
0.000000000000000
 11
73.90683400000000
 21
434.1262039999998
 31
0.000000000000000
  0
ARC
  5
242
100
AcDbEntity
  8
1
  6
CONTINUOUS
 62
7
100
AcDbCircle
 10
57.10683399999993
 20
433.0262040000000
 30
0.000000000000000
 40
0.3000000000000000
100
AcDbArc
 50
270.0000000000000
 51
360.0000000000000
  0
ARC
  5
243
100
AcDbEntity
  8
1
  6
CONTINUOUS
 62
7
100
AcDbCircle
 10
57.10683399999993
 20
441.4262039999998
 30
0.000000000000000
 40
0.3000000000000000
100
AcDbArc
 50
0.000000000000000
 51
90.00000000000000
  0
LINE
  5
244
100
AcDbEntity
  8
1
  6
CONTINUOUS
 62
7
100
AcDbLine
 10
57.40683399999999
 20
434.1262039999998
 30
0.000000000000000
 11
57.40683399999999
 21
433.0262040000000
 31
0.000000000000000
  0
LINE
  5
245
100
AcDbEntity
  8
1
  6
CONTINUOUS
 62
7
100
AcDbLine
 10
57.40683399999999
 20
441.4262039999998
 30
0.000000000000000
 11
57.40683399999999
 21
440.3262039999998
 31
0.000000000000000
  0
LINE
  5
246
100
AcDbEntity
  8
1
  6
CONTINUOUS
 62
7
100
AcDbLine
 10
53.90683400000000
 20
437.9262039999998
 30
0.000000000000000
 11
53.90683400000000
 21
436.7262039999998
 31
0.000000000000000
  0
LINE
  5
247
100
AcDbEntity
  8
1
  6
CONTINUOUS
 62
7
100
AcDbLine
 10
50.40683400000000
 20
433.9762040000000
 30
0.000000000000000
 11
50.40683400000000
 21
440.4762039999998
 31
0.000000000000000
  0
ARC
  5
248
100
AcDbEntity
  8
1
  6
CONTINUOUS
 62
7
100
AcDbCircle
 10
39.74016699999992
 20
427.2262039999998
 30
0.000000000000000
 40
1.000000000000000
100
AcDbArc
 50
270.0000000000000
 51
306.8698979999998
  0
LINE
  5
249
100
AcDbEntity
  8
1
  6
CONTINUOUS
 62
7
100
AcDbLine
 10
50.40683400000000
 20
433.9762040000001
 30
0.000000000000000
 11
40.34016700000006
 21
426.4262039999999
 31
0.000000000000000
  0
ARC
  5
24A
100
AcDbEntity
  8
1
  6
CONTINUOUS
 62
7
100
AcDbCircle
 10
39.74016699999992
 20
427.2262039999998
 30
0.000000000000000
 40
2.000000000000000
100
AcDbArc
 50
270.0000000000000
 51
306.8698979999998
  0
LINE
  5
24B
100
AcDbEntity
  8
1
  6
CONTINUOUS
 62
7
100
AcDbLine
 10
40.94016699999997
 20
425.6262039999999
 30
0.000000000000000
 11
50.40683400000003
 21
432.7262039999999
 31
0.000000000000000
  0
ARC
  5
24C
100
AcDbEntity
  8
1
  6
CONTINUOUS
 62
7
100
AcDbCircle
 10
40.40604499999995
 20
432.5606139999998
 30
0.000000000000000
 40
2.004309000000000
100
AcDbArc
 50
270.0000000000000
 51
324.4619999999998
  0
ARC
  5
24D
100
AcDbEntity
  8
1
  6
CONTINUOUS
 62
7
100
AcDbCircle
 10
33.87421900000004
 20
437.2262039999998
 30
0.000000000000000
 40
10.03262800000000
100
AcDbArc
 50
324.4619999999998
 51
395.5380000000000
  0
LINE
  5
24E
100
AcDbEntity
  8
1
  6
CONTINUOUS
 62
7
100
AcDbLine
 10
41.84124700000007
 20
432.9490189999998
 30
0.000000000000000
 11
38.97242200000004
 21
432.9490189999998
 31
0.000000000000000
  0
LINE
  5
24F
100
AcDbEntity
  8
1
  6
CONTINUOUS
 62
7
100
AcDbLine
 10
40.40604499999995
 20
436.8377999999998
 30
0.000000000000000
 11
40.40604499999995
 21
436.0609909999998
 31
0.000000000000000
  0
ARC
  5
250
100
AcDbEntity
  8
1
  6
CONTINUOUS
 62
7
100
AcDbCircle
 10
41.84124700000007
 20
433.3390019999998
 30
0.000000000000000
 40
0.3889570000000000
100
AcDbArc
 50
270.0000000000000
 51
333.9859999999998
  0
ARC
  5
251
100
AcDbEntity
  8
1
  6
CONTINUOUS
 62
7
100
AcDbCircle
 10
42.42701099999999
 20
434.8941990000000
 30
0.000000000000000
 40
0.3889570000000000
100
AcDbArc
 50
270.0000000000000
 51
344.7419999999998
  0
ARC
  5
252
100
AcDbEntity
  8
1
  6
CONTINUOUS
 62
7
100
AcDbCircle
 10
33.87421900000004
 20
437.2262039999998
 30
0.000000000000000
 40
9.254918999999999
100
AcDbArc
 50
344.7419999999998
 51
344.7940000000000
  0
ARC
  5
253
100
AcDbEntity
  8
1
  6
CONTINUOUS
 62
7
100
AcDbCircle
 10
33.87421900000004
 20
437.2262039999998
 30
0.000000000000000
 40
9.254918999999999
100
AcDbArc
 50
344.7940000000000
 51
347.2709999999998
  0
ARC
  5
254
100
AcDbEntity
  8
1
  6
CONTINUOUS
 62
7
100
AcDbCircle
 10
42.82488899999997
 20
435.2052379999998
 30
0.000000000000000
 40
0.07779100000000000
100
AcDbArc
 50
347.2709999999998
 51
450.0000000000000
  0
LINE
  5
255
100
AcDbEntity
  8
1
  6
CONTINUOUS
 62
7
100
AcDbLine
 10
42.82488899999997
 20
435.2826030000001
 30
0.000000000000000
 11
41.33916299999998
 21
435.2826030000001
 31
0.000000000000000
  0
ARC
  5
256
100
AcDbEntity
  8
1
  6
CONTINUOUS
 62
7
100
AcDbCircle
 10
42.32438400000001
 20
433.6500409999998
 30
0.000000000000000
 40
0.07779100000000000
100
AcDbArc
 50
337.0559999999998
 51
450.0000000000000
  0
ARC
  5
257
100
AcDbEntity
  8
1
  6
CONTINUOUS
 62
7
100
AcDbCircle
 10
33.87421900000004
 20
437.2262039999998
 30
0.000000000000000
 40
9.254918999999999
100
AcDbArc
 50
333.9859999999998
 51
337.0559999999998
  0
LINE
  5
258
100
AcDbEntity
  8
1
  6
CONTINUOUS
 62
7
100
AcDbLine
 10
40.40604499999995
 20
439.1713839999998
 30
0.000000000000000
 11
40.40604499999995
 21
438.7829799999998
 31
0.000000000000000
  0
LINE
  5
259
100
AcDbEntity
  8
1
  6
CONTINUOUS
 62
7
100
AcDbLine
 10
40.40604499999995
 20
441.1149849999998
 30
0.000000000000000
 11
42.27228100000002
 21
441.1149849999998
 31
0.000000000000000
  0
LINE
  5
25A
100
AcDbEntity
  8
1
  6
CONTINUOUS
 62
7
100
AcDbLine
 10
40.40604499999995
 20
443.8969709999998
 30
0.000000000000000
 11
40.40604499999995
 21
442.2896709999998
 31
0.000000000000000
  0
ARC
  5
25B
100
AcDbEntity
  8
1
  6
CONTINUOUS
 62
7
100
AcDbCircle
 10
40.01764099999991
 20
441.1149849999998
 30
0.000000000000000
 40
0.3889570000000000
100
AcDbArc
 50
270.0000000000000
 51
450.0000000000000
  0
ARC
  5
25C
100
AcDbEntity
  8
1
  6
CONTINUOUS
 62
7
100
AcDbCircle
 10
40.40604499999995
 20
441.8933730000000
 30
0.000000000000000
 40
2.004309000000000
100
AcDbArc
 50
35.53799999999998
 51
45.69899999999998
  0
ARC
  5
25D
100
AcDbEntity
  8
1
  6
CONTINUOUS
 62
7
100
AcDbCircle
 10
42.60226699999997
 20
438.7829799999998
 30
0.000000000000000
 40
0.3889570000000000
100
AcDbArc
 50
10.10399999999999
 51
90.00000000000000
  0
ARC
  5
25E
100
AcDbEntity
  8
1
  6
CONTINUOUS
 62
7
100
AcDbCircle
 10
42.96698800000000
 20
438.4719400000000
 30
0.000000000000000
 40
0.07779100000000000
100
AcDbArc
 50
270.0000000000000
 51
367.7930000000000
  0
ARC
  5
25F
100
AcDbEntity
  8
1
  6
CONTINUOUS
 62
7
100
AcDbCircle
 10
33.87421900000004
 20
437.2262039999998
 30
0.000000000000000
 40
9.254918999999999
100
AcDbArc
 50
7.792999999999998
 51
10.10399999999999
  0
LINE
  5
260
100
AcDbEntity
  8
1
  6
CONTINUOUS
 62
7
100
AcDbLine
 10
42.60226699999997
 20
439.1713839999998
 30
0.000000000000000
 11
40.40604499999995
 21
439.1713839999998
 31
0.000000000000000
  0
LINE
  5
261
100
AcDbEntity
  8
1
  6
CONTINUOUS
 62
7
100
AcDbLine
 10
50.40683400000000
 20
441.7262039999998
 30
0.000000000000000
 11
57.10683399999993
 21
441.7262039999998
 31
0.000000000000000
  0
LINE
  5
262
100
AcDbEntity
  8
1
  6
CONTINUOUS
 62
7
100
AcDbLine
 10
50.40683400000000
 20
432.7262039999998
 30
0.000000000000000
 11
57.10683399999993
 21
432.7262039999998
 31
0.000000000000000
  0
LINE
  5
263
100
AcDbEntity
  8
1
  6
CONTINUOUS
 62
7
100
AcDbLine
 10
73.90683399999998
 20
434.1262039999997
 30
0.000000000000000
 11
77.24892800000003
 21
437.2615509999999
 31
0.000000000000000
  0
LINE
  5
264
100
AcDbEntity
  8
1
  6
CONTINUOUS
 62
7
100
AcDbLine
 10
74.90683400000000
 20
440.3262039999998
 30
0.000000000000000
 11
77.25985199999994
 21
437.9802920000001
 31
0.000000000000000
  0
ARC
  5
265
100
AcDbEntity
  8
1
  6
CONTINUOUS
 62
7
100
AcDbCircle
 10
76.90683400000000
 20
437.6262039999998
 30
0.000000000000000
 40
0.5000000000000000
100
AcDbArc
 50
313.1718549999998
 51
405.0866460000000
  0
LINE
  5
266
100
AcDbEntity
  8
1
  6
CONTINUOUS
 62
7
100
AcDbLine
 10
35.47720099999992
 20
448.2262039999998
 30
0.000000000000000
 11
39.74016699999992
 21
448.2262039999998
 31
0.000000000000000
  0
LINE
  5
267
100
AcDbEntity
  8
1
  6
CONTINUOUS
 62
7
100
AcDbLine
 10
35.47720099999992
 20
449.2262039999998
 30
0.000000000000000
 11
39.74016699999992
 21
449.2262039999998
 31
0.000000000000000
  0
ARC
  5
268
100
AcDbEntity
  8
1
  6
CONTINUOUS
 62
7
100
AcDbCircle
 10
35.47720099999992
 20
447.2262039999998
 30
0.000000000000000
 40
1.000000000000000
100
AcDbArc
 50
90.00000000000000
 51
146.3099319999997
  0
ARC
  5
269
100
AcDbEntity
  8
1
  6
CONTINUOUS
 62
7
100
AcDbCircle
 10
35.47720099999992
 20
447.2262039999998
 30
0.000000000000000
 40
2.000000000000000
100
AcDbArc
 50
90.00000000000000
 51
146.3099319999997
  0
ARC
  5
26A
100
AcDbEntity
  8
1
  6
CONTINUOUS
 62
7
100
AcDbCircle
 10
39.74016699999992
 20
447.2262039999998
 30
0.000000000000000
 40
1.000000000000000
100
AcDbArc
 50
53.13010200000000
 51
90.00000000000000
  0
ARC
  5
26B
100
AcDbEntity
  8
1
  6
CONTINUOUS
 62
7
100
AcDbCircle
 10
39.74016699999992
 20
447.2262039999998
 30
0.000000000000000
 40
2.000000000000000
100
AcDbArc
 50
53.13010200000000
 51
90.00000000000000
  0
LINE
  5
26C
100
AcDbEntity
  8
1
  6
CONTINUOUS
 62
7
100
AcDbLine
 10
297.1920499999999
 20
426.2262099999999
 30
0.000000000000000
 11
297.1920499999999
 21
448.2262099999998
 31
0.000000000000000
  0
LINE
  5
26D
100
AcDbEntity
  8
1
  6
CONTINUOUS
 62
7
100
AcDbLine
 10
299.1920499999999
 20
448.2262099999998
 30
0.000000000000000
 11
299.1920499999999
 21
426.2262099999999
 31
0.000000000000000
  0
LINE
  5
26E
100
AcDbEntity
  8
1
  6
CONTINUOUS
 62
7
100
AcDbLine
 10
263.0670499999999
 20
452.7262099999998
 30
0.000000000000000
 11
263.0670499999999
 21
421.7262099999998
 31
0.000000000000000
  0
LINE
  5
26F
100
AcDbEntity
  8
1
  6
CONTINUOUS
 62
7
100
AcDbLine
 10
273.8670500000000
 20
450.2262099999998
 30
0.000000000000000
 11
273.8670500000000
 21
444.2262099999998
 31
0.000000000000000
  0
LINE
  5
270
100
AcDbEntity
  8
1
  6
CONTINUOUS
 62
7
100
AcDbLine
 10
276.0670499999998
 20
425.9672099999998
 30
0.000000000000000
 11
276.0670499999998
 21
450.2262099999998
 31
0.000000000000000
  0
ARC
  5
271
100
AcDbEntity
  8
1
  6
CONTINUOUS
 62
7
100
AcDbCircle
 10
389.6670500000000
 20
437.2262099999998
 30
0.000000000000000
 40
150.0000000000000
100
AcDbArc
 50
176.1519999999999
 51
183.8479999999999
  0
LINE
  5
272
100
AcDbEntity
  8
1
  6
CONTINUOUS
 62
7
100
AcDbLine
 10
240.0670499999999
 20
448.6762099999999
 30
0.000000000000000
 11
240.0670499999999
 21
425.7762099999998
 31
0.000000000000000
  0
LINE
  5
273
100
AcDbEntity
  8
1
  6
CONTINUOUS
 62
7
100
AcDbLine
 10
245.0670500000000
 20
458.2262099999998
 30
0.000000000000000
 11
245.0670500000000
 21
416.2262099999998
 31
0.000000000000000
  0
LINE
  5
274
100
AcDbEntity
  8
1
  6
CONTINUOUS
 62
7
100
AcDbLine
 10
243.0670500000000
 20
458.2262099999998
 30
0.000000000000000
 11
243.0670500000000
 21
416.2262099999998
 31
0.000000000000000
  0
LINE
  5
275
100
AcDbEntity
  8
1
  6
CONTINUOUS
 62
7
100
AcDbLine
 10
248.0670500000000
 20
452.7262099999998
 30
0.000000000000000
 11
248.0670500000000
 21
421.7262099999998
 31
0.000000000000000
  0
LINE
  5
276
100
AcDbEntity
  8
1
  6
CONTINUOUS
 62
7
100
AcDbLine
 10
246.0670499999999
 20
458.2262099999998
 30
0.000000000000000
 11
246.0670499999999
 21
416.2262099999998
 31
0.000000000000000
  0
LINE
  5
277
100
AcDbEntity
  8
1
  6
CONTINUOUS
 62
7
100
AcDbLine
 10
263.0670499999999
 20
430.2262099999999
 30
0.000000000000000
 11
275.1670500000000
 21
430.2262099999999
 31
0.000000000000000
  0
LINE
  5
278
100
AcDbEntity
  8
1
  6
CONTINUOUS
 62
7
100
AcDbLine
 10
263.0670499999999
 20
444.2262099999998
 30
0.000000000000000
 11
275.1670500000000
 21
444.2262099999998
 31
0.000000000000000
  0
LINE
  5
279
100
AcDbEntity
  8
1
  6
CONTINUOUS
 62
7
100
AcDbLine
 10
263.0670499999999
 20
425.1762099999998
 30
0.000000000000000
 11
272.8670500000000
 21
425.1762099999998
 31
0.000000000000000
  0
LINE
  5
27A
100
AcDbEntity
  8
4
  6
CENTER
 62
1
100
AcDbLine
 10
236.6670500000000
 20
437.2262099999998
 30
0.000000000000000
 11
286.5199430000000
 21
437.2262099999998
 31
0.000000000000000
  0
LINE
  5
27B
100
AcDbEntity
  8
1
  6
CONTINUOUS
 62
7
100
AcDbLine
 10
240.0760500000001
 20
425.7162099999999
 30
0.000000000000000
 11
243.0670500000001
 21
416.2262099999999
 31
0.000000000000000
  0
LINE
  5
27C
100
AcDbEntity
  8
1
  6
CONTINUOUS
 62
7
100
AcDbLine
 10
243.0670500000000
 20
416.2262099999998
 30
0.000000000000000
 11
246.0670499999999
 21
416.2262099999998
 31
0.000000000000000
  0
LINE
  5
27D
100
AcDbEntity
  8
1
  6
CONTINUOUS
 62
7
100
AcDbLine
 10
246.0670499999999
 20
420.7262099999998
 30
0.000000000000000
 11
262.0670500000000
 21
420.7262099999998
 31
0.000000000000000
  0
ARC
  5
27E
100
AcDbEntity
  8
1
  6
CONTINUOUS
 62
7
100
AcDbCircle
 10
247.0670500000000
 20
421.7262099999998
 30
0.000000000000000
 40
1.000000000000000
100
AcDbArc
 50
270.0000000000000
 51
360.0000320000000
  0
ARC
  5
27F
100
AcDbEntity
  8
1
  6
CONTINUOUS
 62
7
100
AcDbCircle
 10
240.2670500000000
 20
425.7762099999998
 30
0.000000000000000
 40
0.2000000000000000
100
AcDbArc
 50
180.0000000000000
 51
197.4920000000000
  0
ARC
  5
280
100
AcDbEntity
  8
1
  6
CONTINUOUS
 62
7
100
AcDbCircle
 10
241.0030499999999
 20
427.2262099999998
 30
0.000000000000000
 40
1.000000000000000
100
AcDbArc
 50
183.8479999999999
 51
200.6179999999997
  0
ARC
  5
281
100
AcDbEntity
  8
1
  6
CONTINUOUS
 62
7
100
AcDbCircle
 10
262.0670500000000
 20
421.7262099999998
 30
0.000000000000000
 40
1.000000000000000
100
AcDbArc
 50
270.0000000000000
 51
360.0000000000000
  0
LINE
  5
282
100
AcDbEntity
  8
1
  6
CONTINUOUS
 62
7
100
AcDbLine
 10
280.0670499999998
 20
444.2972099999998
 30
0.000000000000000
 11
280.0670499999998
 21
430.1552099999998
 31
0.000000000000000
  0
LINE
  5
283
100
AcDbEntity
  8
1
  6
CONTINUOUS
 62
7
100
AcDbLine
 10
280.0670499999998
 20
430.1552099999998
 30
0.000000000000000
 11
276.0670499999998
 21
430.1552099999998
 31
0.000000000000000
  0
LINE
  5
284
100
AcDbEntity
  8
1
  6
CONTINUOUS
 62
7
100
AcDbLine
 10
280.0670499999998
 20
444.2972099999998
 30
0.000000000000000
 11
276.0670499999998
 21
444.2972099999998
 31
0.000000000000000
  0
LINE
  5
285
100
AcDbEntity
  8
2
  6
CONTINUOUS
 62
4
100
AcDbLine
 10
280.0670499999998
 20
437.2262099999998
 30
0.000000000000000
 11
276.0670499999998
 21
430.1552099999998
 31
0.000000000000000
  0
LINE
  5
286
100
AcDbEntity
  8
2
  6
CONTINUOUS
 62
4
100
AcDbLine
 10
280.0670499999998
 20
430.1552099999997
 30
0.000000000000000
 11
276.0670499999998
 21
437.2262099999998
 31
0.000000000000000
  0
LINE
  5
287
100
AcDbEntity
  8
2
  6
CONTINUOUS
 62
4
100
AcDbLine
 10
276.0670499999998
 20
437.2262099999999
 30
0.000000000000000
 11
280.0670499999998
 21
444.2972099999997
 31
0.000000000000000
  0
LINE
  5
288
100
AcDbEntity
  8
2
  6
CONTINUOUS
 62
4
100
AcDbLine
 10
276.0670499999998
 20
444.2972099999997
 30
0.000000000000000
 11
280.0670499999998
 21
437.2262099999998
 31
0.000000000000000
  0
LINE
  5
289
100
AcDbEntity
  8
1
  6
CONTINUOUS
 62
7
100
AcDbLine
 10
276.0670499999998
 20
437.2262099999998
 30
0.000000000000000
 11
280.0670499999998
 21
437.2262099999998
 31
0.000000000000000
  0
LINE
  5
28A
100
AcDbEntity
  8
1
  6
CONTINUOUS
 62
7
100
AcDbLine
 10
275.6670500000000
 20
443.7262099999998
 30
0.000000000000000
 11
275.6670500000000
 21
430.7262099999999
 31
0.000000000000000
  0
ARC
  5
28B
100
AcDbEntity
  8
1
  6
CONTINUOUS
 62
7
100
AcDbCircle
 10
275.1670500000000
 20
443.7262099999998
 30
0.000000000000000
 40
0.5000000000000000
100
AcDbArc
 50
0.000000000000000
 51
90.00000000000000
  0
ARC
  5
28C
100
AcDbEntity
  8
1
  6
CONTINUOUS
 62
7
100
AcDbCircle
 10
275.1670500000000
 20
430.7262099999999
 30
0.000000000000000
 40
0.5000000000000000
100
AcDbArc
 50
270.0000000000000
 51
360.0000000000000
  0
LINE
  5
28D
100
AcDbEntity
  8
1
  6
CONTINUOUS
 62
7
100
AcDbLine
 10
273.8670500000000
 20
427.2262099999998
 30
0.000000000000000
 11
276.0670499999998
 21
427.2262099999998
 31
0.000000000000000
  0
LINE
  5
28E
100
AcDbEntity
  8
1
  6
CONTINUOUS
 62
7
100
AcDbLine
 10
275.6670500000000
 20
443.7262099999998
 30
0.000000000000000
 11
276.0670499999998
 21
443.7262099999998
 31
0.000000000000000
  0
ARC
  5
28F
100
AcDbEntity
  8
1
  6
CONTINUOUS
 62
7
100
AcDbCircle
 10
272.8670500000000
 20
426.1762099999998
 30
0.000000000000000
 40
1.000000000000000
100
AcDbArc
 50
270.0000000000000
 51
360.0000000000000
  0
LINE
  5
290
100
AcDbEntity
  8
1
  6
CONTINUOUS
 62
7
100
AcDbLine
 10
273.8670500000000
 20
425.9672099999998
 30
0.000000000000000
 11
276.0670499999998
 21
425.9672099999998
 31
0.000000000000000
  0
LINE
  5
291
100
AcDbEntity
  8
1
  6
CONTINUOUS
 62
7
100
AcDbLine
 10
273.8670500000000
 20
430.2262099999999
 30
0.000000000000000
 11
273.8670500000000
 21
425.9672099999998
 31
0.000000000000000
  0
LINE
  5
292
100
AcDbEntity
  8
1
  6
CONTINUOUS
 62
7
100
AcDbLine
 10
300.7920500000000
 20
429.2262099999998
 30
0.000000000000000
 11
300.7920500000000
 21
445.2262099999998
 31
0.000000000000000
  0
LINE
  5
293
100
AcDbEntity
  8
1
  6
CONTINUOUS
 62
7
100
AcDbLine
 10
300.7920500000000
 20
445.2262099999998
 30
0.000000000000000
 11
299.1920499999999
 21
445.2262099999998
 31
0.000000000000000
  0
LINE
  5
294
100
AcDbEntity
  8
1
  6
CONTINUOUS
 62
7
100
AcDbLine
 10
300.7920500000000
 20
429.2262099999998
 30
0.000000000000000
 11
299.1920499999999
 21
429.2262099999998
 31
0.000000000000000
  0
LINE
  5
295
100
AcDbEntity
  8
1
  6
CONTINUOUS
 62
7
100
AcDbLine
 10
299.1920499999999
 20
426.2262099999999
 30
0.000000000000000
 11
297.1920499999999
 21
426.2262099999999
 31
0.000000000000000
  0
LINE
  5
296
100
AcDbEntity
  8
1
  6
CONTINUOUS
 62
7
100
AcDbLine
 10
263.0670499999999
 20
449.2762099999998
 30
0.000000000000000
 11
272.8670500000000
 21
449.2762099999998
 31
0.000000000000000
  0
LINE
  5
297
100
AcDbEntity
  8
1
  6
CONTINUOUS
 62
7
100
AcDbLine
 10
246.0670499999999
 20
453.7262099999998
 30
0.000000000000000
 11
262.0670500000000
 21
453.7262099999998
 31
0.000000000000000
  0
ARC
  5
298
100
AcDbEntity
  8
1
  6
CONTINUOUS
 62
7
100
AcDbCircle
 10
247.0670500000000
 20
452.7262099999998
 30
0.000000000000000
 40
1.000000000000000
100
AcDbArc
 50
2.500000000000000e-05
 51
90.00000000000000
  0
LINE
  5
299
100
AcDbEntity
  8
1
  6
CONTINUOUS
 62
7
100
AcDbLine
 10
243.0670500000000
 20
458.2262099999998
 30
0.000000000000000
 11
246.0670499999999
 21
458.2262099999998
 31
0.000000000000000
  0
ARC
  5
29A
100
AcDbEntity
  8
1
  6
CONTINUOUS
 62
7
100
AcDbCircle
 10
240.2670500000000
 20
448.6762099999999
 30
0.000000000000000
 40
0.2000000000000000
100
AcDbArc
 50
162.5079999999998
 51
180.0000000000000
  0
ARC
  5
29B
100
AcDbEntity
  8
1
  6
CONTINUOUS
 62
7
100
AcDbCircle
 10
241.0030499999999
 20
447.2262099999999
 30
0.000000000000000
 40
1.000000000000000
100
AcDbArc
 50
159.3820000000000
 51
176.1519999999999
  0
LINE
  5
29C
100
AcDbEntity
  8
1
  6
CONTINUOUS
 62
7
100
AcDbLine
 10
240.0760500000001
 20
448.7362099999999
 30
0.000000000000000
 11
243.0670500000001
 21
458.2262100000000
 31
0.000000000000000
  0
ARC
  5
29D
100
AcDbEntity
  8
1
  6
CONTINUOUS
 62
7
100
AcDbCircle
 10
262.0670500000000
 20
452.7262099999998
 30
0.000000000000000
 40
1.000000000000000
100
AcDbArc
 50
0.000000000000000
 51
90.00000000000000
  0
LINE
  5
29E
100
AcDbEntity
  8
1
  6
CONTINUOUS
 62
7
100
AcDbLine
 10
273.8670500000000
 20
450.2262099999998
 30
0.000000000000000
 11
276.0670499999998
 21
450.2262099999998
 31
0.000000000000000
  0
ARC
  5
29F
100
AcDbEntity
  8
1
  6
CONTINUOUS
 62
7
100
AcDbCircle
 10
272.8670500000000
 20
448.2762099999998
 30
0.000000000000000
 40
1.000000000000000
100
AcDbArc
 50
0.000000000000000
 51
90.00000000000000
  0
LINE
  5
2A0
100
AcDbEntity
  8
1
  6
CONTINUOUS
 62
7
100
AcDbLine
 10
299.1920499999999
 20
448.2262099999998
 30
0.000000000000000
 11
297.1920499999999
 21
448.2262099999998
 31
0.000000000000000
  0
LINE
  5
2A1
100
AcDbEntity
  8
1
  6
CONTINUOUS
 62
7
100
AcDbLine
 10
302.2920500000000
 20
442.9762099999998
 30
0.000000000000000
 11
302.2920500000000
 21
431.4762099999998
 31
0.000000000000000
  0
LINE
  5
2A2
100
AcDbEntity
  8
1
  6
CONTINUOUS
 62
7
100
AcDbLine
 10
306.2920500000000
 20
442.2262099999998
 30
0.000000000000000
 11
306.2920500000000
 21
432.2262099999998
 31
0.000000000000000
  0
LINE
  5
2A3
100
AcDbEntity
  8
1
  6
CONTINUOUS
 62
7
100
AcDbLine
 10
306.2920500000000
 20
442.2262099999998
 30
0.000000000000000
 11
302.2920500000000
 21
442.2262099999998
 31
0.000000000000000
  0
LINE
  5
2A4
100
AcDbEntity
  8
1
  6
CONTINUOUS
 62
7
100
AcDbLine
 10
306.2920500000000
 20
432.2262099999998
 30
0.000000000000000
 11
302.2920500000000
 21
432.2262099999998
 31
0.000000000000000
  0
LINE
  5
2A5
100
AcDbEntity
  8
1
  6
CONTINUOUS
 62
7
100
AcDbLine
 10
305.7470499999999
 20
437.2262099999998
 30
0.000000000000000
 11
302.7390500000000
 21
437.2262099999998
 31
0.000000000000000
  0
ARC
  5
2A6
100
AcDbEntity
  8
1
  6
CONTINUOUS
 62
7
100
AcDbCircle
 10
309.5130500000000
 20
434.7262099999999
 30
0.000000000000000
 40
7.220389999999997
100
AcDbArc
 50
159.7419999999999
 51
200.2580000000000
  0
ARC
  5
2A7
100
AcDbEntity
  8
1
  6
CONTINUOUS
 62
7
100
AcDbCircle
 10
299.0720499999998
 20
439.7262099999998
 30
0.000000000000000
 40
7.220389999999997
100
AcDbArc
 50
339.7419999999998
 51
380.2576000000000
  0
ARC
  5
2A8
100
AcDbEntity
  8
1
  6
CONTINUOUS
 62
7
100
AcDbCircle
 10
299.0720499999998
 20
434.7262099999999
 30
0.000000000000000
 40
7.220389999999997
100
AcDbArc
 50
339.7419999999998
 51
380.2576000000000
  0
ARC
  5
2A9
100
AcDbEntity
  8
1
  6
CONTINUOUS
 62
7
100
AcDbCircle
 10
309.5130500000000
 20
439.7262099999998
 30
0.000000000000000
 40
7.220389999999997
100
AcDbArc
 50
159.7419999999999
 51
200.2580000000000
  0
LINE
  5
2AA
100
AcDbEntity
  8
1
  6
CONTINUOUS
 62
7
100
AcDbLine
 10
593.3485080000000
 20
198.0109090000000
 30
0.000000000000000
 11
593.3485080000000
 21
169.0544339999999
 31
0.000000000000000
  0
LINE
  5
2AB
100
AcDbEntity
  8
1
  6
CONTINUOUS
 62
7
100
AcDbLine
 10
617.8485079999997
 20
198.0109090000000
 30
0.000000000000000
 11
617.8485079999997
 21
168.0109089999999
 31
0.000000000000000
  0
LINE
  5
2AC
100
AcDbEntity
  8
1
  6
CONTINUOUS
 62
7
100
AcDbLine
 10
625.8485079999998
 20
332.5113089999998
 30
0.000000000000000
 11
625.8485079999998
 21
166.5109089999999
 31
0.000000000000000
  0
LINE
  5
2AD
100
AcDbEntity
  8
1
  6
CONTINUOUS
 62
7
100
AcDbLine
 10
620.8485080000000
 20
337.0113089999998
 30
0.000000000000000
 11
620.8485080000000
 21
162.0109089999999
 31
0.000000000000000
  0
LINE
  5
2AE
100
AcDbEntity
  8
1
  6
CONTINUOUS
 62
7
100
AcDbLine
 10
622.8485080000000
 20
337.0113089999998
 30
0.000000000000000
 11
622.8485080000000
 21
162.0109089999999
 31
0.000000000000000
  0
LINE
  5
2AF
100
AcDbEntity
  8
1
  6
CONTINUOUS
 62
7
100
AcDbLine
 10
619.8485080000002
 20
337.0113089999998
 30
0.000000000000000
 11
619.8485080000002
 21
162.0109089999999
 31
0.000000000000000
  0
ARC
  5
2B0
100
AcDbEntity
  8
1
  6
CONTINUOUS
 62
7
100
AcDbCircle
 10
618.8485080000002
 20
168.0109089999999
 30
0.000000000000000
 40
1.000000000000000
100
AcDbArc
 50
179.9999780000000
 51
270.0000000000000
  0
LINE
  5
2B1
100
AcDbEntity
  8
1
  6
CONTINUOUS
 62
7
100
AcDbLine
 10
618.8485080000002
 20
167.0109089999999
 30
0.000000000000000
 11
594.3059909999997
 21
168.0553390000000
 31
0.000000000000000
  0
ARC
  5
2B2
100
AcDbEntity
  8
1
  6
CONTINUOUS
 62
7
100
AcDbCircle
 10
594.3485080000000
 20
169.0544339999999
 30
0.000000000000000
 40
1.000000000000000
100
AcDbArc
 50
180.0000000000000
 51
267.5631960000000
  0
LINE
  5
2B3
100
AcDbEntity
  8
4
  6
CENTER
 62
1
100
AcDbLine
 10
590.3485080000000
 20
184.5109089999999
 30
0.000000000000000
 11
596.3485080000000
 21
184.5109089999999
 31
0.000000000000000
  0
LINE
  5
2B4
100
AcDbEntity
  8
1
  6
CONTINUOUS
 62
7
100
AcDbLine
 10
619.8485080000002
 20
167.0109089999999
 30
0.000000000000000
 11
618.8485080000002
 21
167.0109089999999
 31
0.000000000000000
  0
LINE
  5
2B5
100
AcDbEntity
  8
1
  6
CONTINUOUS
 62
7
100
AcDbLine
 10
619.8485080000002
 20
162.0109089999999
 30
0.000000000000000
 11
622.8485080000000
 21
162.0109089999999
 31
0.000000000000000
  0
LINE
  5
2B6
100
AcDbEntity
  8
1
  6
CONTINUOUS
 62
7
100
AcDbLine
 10
622.8485079999999
 20
162.0109089999999
 30
0.000000000000000
 11
625.8485079999997
 21
166.5109089999999
 31
0.000000000000000
  0
LINE
  5
2B7
100
AcDbEntity
  8
1
  6
CONTINUOUS
 62
7
100
AcDbLine
 10
568.7235080000000
 20
303.0113089999998
 30
0.000000000000000
 11
568.7235080000000
 21
325.0113089999998
 31
0.000000000000000
  0
LINE
  5
2B8
100
AcDbEntity
  8
1
  6
CONTINUOUS
 62
7
100
AcDbLine
 10
566.7235080000000
 20
325.0113089999998
 30
0.000000000000000
 11
566.7235080000000
 21
303.0113089999998
 31
0.000000000000000
  0
LINE
  5
2B9
100
AcDbEntity
  8
1
  6
CONTINUOUS
 62
7
100
AcDbLine
 10
566.7235080000000
 20
303.0113089999998
 30
0.000000000000000
 11
568.7235080000000
 21
303.0113089999998
 31
0.000000000000000
  0
LINE
  5
2BA
100
AcDbEntity
  8
4
  6
CENTER
 62
1
100
AcDbLine
 10
556.6235080000000
 20
314.0113089999999
 30
0.000000000000000
 11
571.7235080000000
 21
314.0113089999999
 31
0.000000000000000
  0
LINE
  5
2BB
100
AcDbEntity
  8
1
  6
CONTINUOUS
 62
7
100
AcDbLine
 10
565.1235079999999
 20
314.0113089999999
 30
0.000000000000000
 11
563.6235079999996
 21
312.5113089999998
 31
0.000000000000000
  0
LINE
  5
2BC
100
AcDbEntity
  8
1
  6
CONTINUOUS
 62
7
100
AcDbLine
 10
565.1235080000001
 20
315.5113089999999
 30
0.000000000000000
 11
563.6235079999999
 21
314.0113090000000
 31
0.000000000000000
  0
LINE
  5
2BD
100
AcDbEntity
  8
1
  6
CONTINUOUS
 62
7
100
AcDbLine
 10
560.0695080000000
 20
319.7843090000000
 30
0.000000000000000
 11
563.1765080000000
 21
319.7843090000000
 31
0.000000000000000
  0
LINE
  5
2BE
100
AcDbEntity
  8
1
  6
CONTINUOUS
 62
7
100
AcDbLine
 10
563.6235079999997
 20
319.7613089999999
 30
0.000000000000000
 11
565.1235080000000
 21
319.7613089999999
 31
0.000000000000000
  0
LINE
  5
2BF
100
AcDbEntity
  8
1
  6
CONTINUOUS
 62
7
100
AcDbLine
 10
565.1235080000000
 20
322.0113089999999
 30
0.000000000000000
 11
566.7235080000000
 21
322.0113089999999
 31
0.000000000000000
  0
LINE
  5
2C0
100
AcDbEntity
  8
1
  6
CONTINUOUS
 62
7
100
AcDbLine
 10
566.7235080000000
 20
325.0113089999998
 30
0.000000000000000
 11
568.7235080000000
 21
325.0113089999998
 31
0.000000000000000
  0
LINE
  5
2C1
100
AcDbEntity
  8
1
  6
CONTINUOUS
 62
7
100
AcDbLine
 10
560.0695080000000
 20
316.8973090000000
 30
0.000000000000000
 11
563.1765080000000
 21
316.8973090000000
 31
0.000000000000000
  0
ARC
  5
2C2
100
AcDbEntity
  8
1
  6
CONTINUOUS
 62
7
100
AcDbCircle
 10
562.1785079999999
 20
318.3413089999999
 30
0.000000000000000
 40
2.555660000000000
100
AcDbArc
 50
145.6134000000000
 51
214.3869999999997
  0
ARC
  5
2C3
100
AcDbEntity
  8
1
  6
CONTINUOUS
 62
7
100
AcDbCircle
 10
561.0675079999997
 20
318.3413089999999
 30
0.000000000000000
 40
2.555660000000000
100
AcDbArc
 50
325.6130000000000
 51
394.3870000000000
  0
LINE
  5
2C4
100
AcDbEntity
  8
1
  6
CONTINUOUS
 62
7
100
AcDbLine
 10
565.1235080000000
 20
306.0113089999998
 30
0.000000000000000
 11
566.7235080000000
 21
306.0113089999998
 31
0.000000000000000
  0
LINE
  5
2C5
100
AcDbEntity
  8
1
  6
CONTINUOUS
 62
7
100
AcDbLine
 10
560.0695080000000
 20
308.2373089999999
 30
0.000000000000000
 11
563.1765080000000
 21
308.2373089999999
 31
0.000000000000000
  0
LINE
  5
2C6
100
AcDbEntity
  8
1
  6
CONTINUOUS
 62
7
100
AcDbLine
 10
560.0695080000000
 20
311.1243089999998
 30
0.000000000000000
 11
563.1765080000000
 21
311.1243089999998
 31
0.000000000000000
  0
ARC
  5
2C7
100
AcDbEntity
  8
1
  6
CONTINUOUS
 62
7
100
AcDbCircle
 10
561.0675079999997
 20
309.6803089999998
 30
0.000000000000000
 40
2.555660000000000
100
AcDbArc
 50
325.6130000000000
 51
394.3870000000000
  0
ARC
  5
2C8
100
AcDbEntity
  8
1
  6
CONTINUOUS
 62
7
100
AcDbCircle
 10
562.1785079999999
 20
309.6803089999998
 30
0.000000000000000
 40
2.555660000000000
100
AcDbArc
 50
145.6134000000000
 51
214.3869999999997
  0
LINE
  5
2C9
100
AcDbEntity
  8
1
  6
CONTINUOUS
 62
7
100
AcDbLine
 10
563.6235079999997
 20
308.2613089999998
 30
0.000000000000000
 11
565.1235080000000
 21
308.2613089999998
 31
0.000000000000000
  0
LINE
  5
2CA
100
AcDbEntity
  8
1
  6
CONTINUOUS
 62
7
100
AcDbLine
 10
565.1235080000000
 20
306.0113089999998
 30
0.000000000000000
 11
565.1235080000000
 21
322.0113089999999
 31
0.000000000000000
  0
LINE
  5
2CB
100
AcDbEntity
  8
1
  6
CONTINUOUS
 62
7
100
AcDbLine
 10
559.6235079999998
 20
318.3413089999999
 30
0.000000000000000
 11
559.6235079999998
 21
309.6803089999998
 31
0.000000000000000
  0
ARC
  5
2CC
100
AcDbEntity
  8
1
  6
CONTINUOUS
 62
7
100
AcDbCircle
 10
569.1755080000000
 20
314.0103089999998
 30
0.000000000000000
 40
9.552700000000000
100
AcDbArc
 50
162.4106999999999
 51
197.5890000000000
  0
ARC
  5
2CD
100
AcDbEntity
  8
1
  6
CONTINUOUS
 62
7
100
AcDbCircle
 10
554.0705080000000
 20
314.0103089999998
 30
0.000000000000000
 40
9.552700000000000
100
AcDbArc
 50
342.4110000000000
 51
377.5890000000000
  0
LINE
  5
2CE
100
AcDbEntity
  8
1
  6
CONTINUOUS
 62
7
100
AcDbLine
 10
563.6235079999997
 20
319.7613089999999
 30
0.000000000000000
 11
563.6235079999997
 21
308.2613089999998
 31
0.000000000000000
  0
LINE
  5
2CF
100
AcDbEntity
  8
1
  6
CONTINUOUS
 62
7
100
AcDbLine
 10
602.8485080000002
 20
329.5113089999998
 30
0.000000000000000
 11
602.8485080000002
 21
298.5113089999998
 31
0.000000000000000
  0
LINE
  5
2D0
100
AcDbEntity
  8
1
  6
CONTINUOUS
 62
7
100
AcDbLine
 10
592.0485079999997
 20
302.9613089999998
 30
0.000000000000000
 11
592.0485079999997
 21
324.4463089999998
 31
0.000000000000000
  0
LINE
  5
2D1
100
AcDbEntity
  8
1
  6
CONTINUOUS
 62
7
100
AcDbLine
 10
589.8485080000000
 20
325.2696399999998
 30
0.000000000000000
 11
589.8485080000000
 21
301.0113089999999
 31
0.000000000000000
  0
LINE
  5
2D2
100
AcDbEntity
  8
1
  6
CONTINUOUS
 62
7
100
AcDbLine
 10
591.8485080000000
 20
325.2696399999998
 30
0.000000000000000
 11
591.8485080000000
 21
301.0113089999999
 31
0.000000000000000
  0
ARC
  5
2D3
100
AcDbEntity
  8
1
  6
CONTINUOUS
 62
7
100
AcDbCircle
 10
669.5465079999999
 20
314.0113089999999
 30
0.000000000000000
 40
45.19010000000000
100
AcDbArc
 50
165.2346000000000
 51
194.7649999999999
  0
LINE
  5
2D4
100
AcDbEntity
  8
1
  6
CONTINUOUS
 62
7
100
AcDbLine
 10
626.2485080000001
 20
198.5109090000000
 30
0.000000000000000
 11
626.2485080000001
 21
314.6823089999998
 31
0.000000000000000
  0
LINE
  5
2D5
100
AcDbEntity
  8
1
  6
CONTINUOUS
 62
7
100
AcDbLine
 10
609.8485079999997
 20
303.8493089999998
 30
0.000000000000000
 11
609.8485079999997
 21
212.0113089999999
 31
0.000000000000000
  0
ARC
  5
2D6
100
AcDbEntity
  8
1
  6
CONTINUOUS
 62
7
100
AcDbCircle
 10
618.8485080000002
 20
198.0109090000000
 30
0.000000000000000
 40
1.000000000000000
100
AcDbArc
 50
90.00000000000000
 51
179.9999780000000
  0
LINE
  5
2D7
100
AcDbEntity
  8
1
  6
CONTINUOUS
 62
7
100
AcDbLine
 10
594.3485080000000
 20
199.0109089999999
 30
0.000000000000000
 11
606.8485080000000
 21
199.0109089999999
 31
0.000000000000000
  0
ARC
  5
2D8
100
AcDbEntity
  8
1
  6
CONTINUOUS
 62
7
100
AcDbCircle
 10
594.3485080000000
 20
198.0109090000000
 30
0.000000000000000
 40
1.000000000000000
100
AcDbArc
 50
90.00000000000000
 51
179.9999780000000
  0
ARC
  5
2D9
100
AcDbEntity
  8
1
  6
CONTINUOUS
 62
7
100
AcDbCircle
 10
608.8485079999998
 20
210.0113089999999
 30
0.000000000000000
 40
1.000000000000000
100
AcDbArc
 50
90.00000000000000
 51
179.9999780000000
  0
ARC
  5
2DA
100
AcDbEntity
  8
1
  6
CONTINUOUS
 62
7
100
AcDbCircle
 10
608.8485079999998
 20
212.0113089999999
 30
0.000000000000000
 40
1.000000000000000
100
AcDbArc
 50
270.0000000000000
 51
360.0000000000000
  0
ARC
  5
2DB
100
AcDbEntity
  8
1
  6
CONTINUOUS
 62
7
100
AcDbCircle
 10
606.8485080000000
 20
200.0109090000000
 30
0.000000000000000
 40
1.000000000000000
100
AcDbArc
 50
270.0000000000000
 51
360.0000000000000
  0
LINE
  5
2DC
100
AcDbEntity
  8
1
  6
CONTINUOUS
 62
7
100
AcDbLine
 10
607.8485080000000
 20
210.0113089999999
 30
0.000000000000000
 11
607.8485080000000
 21
200.0109090000000
 31
0.000000000000000
  0
LINE
  5
2DD
100
AcDbEntity
  8
1
  6
CONTINUOUS
 62
7
100
AcDbLine
 10
604.8485080000000
 20
241.5113089999999
 30
0.000000000000000
 11
604.8485080000000
 21
232.5113089999999
 31
0.000000000000000
  0
ARC
  5
2DE
100
AcDbEntity
  8
1
  6
CONTINUOUS
 62
7
100
AcDbCircle
 10
607.8485080000000
 20
243.5113089999999
 30
0.000000000000000
 40
2.000000000000000
100
AcDbArc
 50
270.0000000000000
 51
360.0000000000000
  0
LINE
  5
2DF
100
AcDbEntity
  8
1
  6
CONTINUOUS
 62
7
100
AcDbLine
 10
604.8485080000000
 20
232.5113089999999
 30
0.000000000000000
 11
607.8485080000000
 21
232.5113089999999
 31
0.000000000000000
  0
ARC
  5
2E0
100
AcDbEntity
  8
1
  6
CONTINUOUS
 62
7
100
AcDbCircle
 10
607.8485080000000
 20
230.5113089999999
 30
0.000000000000000
 40
2.000000000000000
100
AcDbArc
 50
0.000000000000000
 51
90.00000000000000
  0
LINE
  5
2E1
100
AcDbEntity
  8
1
  6
CONTINUOUS
 62
7
100
AcDbLine
 10
604.8485080000000
 20
241.5113089999999
 30
0.000000000000000
 11
607.8485080000000
 21
241.5113089999999
 31
0.000000000000000
  0
LINE
  5
2E2
100
AcDbEntity
  8
4
  6
CENTER
 62
1
100
AcDbLine
 10
600.9995079999997
 20
237.0113089999999
 30
0.000000000000000
 11
613.1205079999999
 21
237.0113089999999
 31
0.000000000000000
  0
ARC
  5
2E3
100
AcDbEntity
  8
1
  6
CONTINUOUS
 62
7
100
AcDbCircle
 10
625.2485079999999
 20
198.5109090000000
 30
0.000000000000000
 40
1.000000000000000
100
AcDbArc
 50
306.8700000000000
 51
360.0000000000000
  0
LINE
  5
2E4
100
AcDbEntity
  8
1
  6
CONTINUOUS
 62
7
100
AcDbLine
 10
619.8485080000002
 20
199.0109089999999
 30
0.000000000000000
 11
618.8485080000002
 21
199.0109089999999
 31
0.000000000000000
  0
LINE
  5
2E5
100
AcDbEntity
  8
1
  6
CONTINUOUS
 62
7
100
AcDbLine
 10
609.8485079999997
 20
303.8493089999998
 30
0.000000000000000
 11
619.8485080000002
 21
303.8493089999998
 31
0.000000000000000
  0
LINE
  5
2E6
100
AcDbEntity
  8
1
  6
CONTINUOUS
 62
7
100
AcDbLine
 10
601.8485080000002
 20
301.9613089999998
 30
0.000000000000000
 11
593.0485079999997
 21
301.9613089999998
 31
0.000000000000000
  0
ARC
  5
2E7
100
AcDbEntity
  8
1
  6
CONTINUOUS
 62
7
100
AcDbCircle
 10
593.0485079999997
 20
302.9613089999998
 30
0.000000000000000
 40
1.000000000000000
100
AcDbArc
 50
179.9999780000000
 51
270.0000000000000
  0
LINE
  5
2E8
100
AcDbEntity
  8
1
  6
CONTINUOUS
 62
7
100
AcDbLine
 10
589.8485080000000
 20
301.0113089999999
 30
0.000000000000000
 11
591.8485080000000
 21
301.0113089999999
 31
0.000000000000000
  0
LINE
  5
2E9
100
AcDbEntity
  8
1
  6
CONTINUOUS
 62
7
100
AcDbLine
 10
603.8485080000000
 20
297.5113089999998
 30
0.000000000000000
 11
608.8485079999998
 21
297.5113089999998
 31
0.000000000000000
  0
ARC
  5
2EA
100
AcDbEntity
  8
1
  6
CONTINUOUS
 62
7
100
AcDbCircle
 10
601.8485080000002
 20
300.9613089999998
 30
0.000000000000000
 40
1.000000000000000
100
AcDbArc
 50
0.000000000000000
 51
90.00000000000000
  0
ARC
  5
2EB
100
AcDbEntity
  8
1
  6
CONTINUOUS
 62
7
100
AcDbCircle
 10
607.8485080000000
 20
293.5113089999998
 30
0.000000000000000
 40
2.000000000000000
100
AcDbArc
 50
270.0000000000000
 51
360.0000000000000
  0
LINE
  5
2EC
100
AcDbEntity
  8
1
  6
CONTINUOUS
 62
7
100
AcDbLine
 10
604.8485080000000
 20
291.5113089999998
 30
0.000000000000000
 11
607.8485080000000
 21
291.5113089999998
 31
0.000000000000000
  0
ARC
  5
2ED
100
AcDbEntity
  8
1
  6
CONTINUOUS
 62
7
100
AcDbCircle
 10
603.8485080000000
 20
298.5113089999998
 30
0.000000000000000
 40
1.000000000000000
100
AcDbArc
 50
179.9999780000000
 51
270.0000000000000
  0
ARC
  5
2EE
100
AcDbEntity
  8
1
  6
CONTINUOUS
 62
7
100
AcDbCircle
 10
608.8485079999998
 20
296.5113089999998
 30
0.000000000000000
 40
1.000000000000000
100
AcDbArc
 50
0.000000000000000
 51
90.00000000000000
  0
ARC
  5
2EF
100
AcDbEntity
  8
1
  6
CONTINUOUS
 62
7
100
AcDbCircle
 10
607.8485080000000
 20
280.5113089999999
 30
0.000000000000000
 40
2.000000000000000
100
AcDbArc
 50
0.000000000000000
 51
90.00000000000000
  0
LINE
  5
2F0
100
AcDbEntity
  8
1
  6
CONTINUOUS
 62
7
100
AcDbLine
 10
604.8485080000000
 20
282.5113089999998
 30
0.000000000000000
 11
607.8485080000000
 21
282.5113089999998
 31
0.000000000000000
  0
LINE
  5
2F1
100
AcDbEntity
  8
1
  6
CONTINUOUS
 62
7
100
AcDbLine
 10
604.8485080000000
 20
291.5113089999998
 30
0.000000000000000
 11
604.8485080000000
 21
282.5113089999998
 31
0.000000000000000
  0
LINE
  5
2F2
100
AcDbEntity
  8
4
  6
CENTER
 62
1
100
AcDbLine
 10
601.7575080000000
 20
287.0113089999998
 30
0.000000000000000
 11
613.8775080000000
 21
287.0113089999998
 31
0.000000000000000
  0
ARC
  5
2F3
100
AcDbEntity
  8
1
  6
CONTINUOUS
 62
7
100
AcDbCircle
 10
618.8485080000002
 20
331.0113089999998
 30
0.000000000000000
 40
1.000000000000000
100
AcDbArc
 50
90.00000000000000
 51
179.9999780000000
  0
LINE
  5
2F4
100
AcDbEntity
  8
4
  6
CENTER
 62
1
100
AcDbLine
 10
579.3956150000000
 20
314.0113089999999
 30
0.000000000000000
 11
632.2735079999999
 21
314.0113089999999
 31
0.000000000000000
  0
LINE
  5
2F5
100
AcDbEntity
  8
1
  6
CONTINUOUS
 62
7
100
AcDbLine
 10
591.2485080000000
 20
328.0113089999998
 30
0.000000000000000
 11
602.8485080000002
 21
328.0113089999998
 31
0.000000000000000
  0
LINE
  5
2F6
100
AcDbEntity
  8
1
  6
CONTINUOUS
 62
7
100
AcDbLine
 10
592.0485079999997
 20
324.4463089999998
 30
0.000000000000000
 11
602.8485080000002
 21
324.4463089999998
 31
0.000000000000000
  0
LINE
  5
2F7
100
AcDbEntity
  8
1
  6
CONTINUOUS
 62
7
100
AcDbLine
 10
589.8485080000000
 20
325.2696399999998
 30
0.000000000000000
 11
591.8485080000000
 21
325.2696399999998
 31
0.000000000000000
  0
LINE
  5
2F8
100
AcDbEntity
  8
1
  6
CONTINUOUS
 62
7
100
AcDbLine
 10
585.8485080000000
 20
321.0823090000000
 30
0.000000000000000
 11
589.8485080000000
 21
321.0823090000000
 31
0.000000000000000
  0
LINE
  5
2F9
100
AcDbEntity
  8
1
  6
CONTINUOUS
 62
7
100
AcDbLine
 10
591.8485080000000
 20
321.2113089999998
 30
0.000000000000000
 11
592.0485079999997
 21
321.2113089999998
 31
0.000000000000000
  0
LINE
  5
2FA
100
AcDbEntity
  8
1
  6
CONTINUOUS
 62
7
100
AcDbLine
 10
591.8485080000000
 20
322.9309600000001
 30
0.000000000000000
 11
592.0485079999997
 21
322.9309600000001
 31
0.000000000000000
  0
LINE
  5
2FB
100
AcDbEntity
  8
1
  6
CONTINUOUS
 62
7
100
AcDbLine
 10
590.2485079999999
 20
327.0113089999998
 30
0.000000000000000
 11
590.2485079999999
 21
325.2696399999998
 31
0.000000000000000
  0
ARC
  5
2FC
100
AcDbEntity
  8
1
  6
CONTINUOUS
 62
7
100
AcDbCircle
 10
591.2485080000000
 20
327.0113089999998
 30
0.000000000000000
 40
1.000000000000000
100
AcDbArc
 50
90.00000000000000
 51
180.0000000000000
  0
LINE
  5
2FD
100
AcDbEntity
  8
1
  6
CONTINUOUS
 62
7
100
AcDbLine
 10
589.8485080000000
 20
314.0113089999999
 30
0.000000000000000
 11
585.8485080000000
 21
314.0113089999999
 31
0.000000000000000
  0
LINE
  5
2FE
100
AcDbEntity
  8
2
  6
CONTINUOUS
 62
4
100
AcDbLine
 10
589.8485080000000
 20
321.0823090000000
 30
0.000000000000000
 11
585.8485080000002
 21
314.0113090000000
 31
0.000000000000000
  0
LINE
  5
2FF
100
AcDbEntity
  8
2
  6
CONTINUOUS
 62
4
100
AcDbLine
 10
589.8485080000002
 20
314.0113090000000
 30
0.000000000000000
 11
585.8485080000002
 21
321.0823090000000
 31
0.000000000000000
  0
LINE
  5
300
100
AcDbEntity
  8
1
  6
CONTINUOUS
 62
7
100
AcDbLine
 10
585.8485080000000
 20
306.9393089999998
 30
0.000000000000000
 11
589.8485080000000
 21
306.9393089999998
 31
0.000000000000000
  0
LINE
  5
301
100
AcDbEntity
  8
1
  6
CONTINUOUS
 62
7
100
AcDbLine
 10
591.8485080000000
 20
306.8113089999998
 30
0.000000000000000
 11
592.0485079999997
 21
306.8113089999998
 31
0.000000000000000
  0
LINE
  5
302
100
AcDbEntity
  8
2
  6
CONTINUOUS
 62
4
100
AcDbLine
 10
585.8485080000000
 20
314.0113089999999
 30
0.000000000000000
 11
589.8485080000000
 21
306.9393089999999
 31
0.000000000000000
  0
LINE
  5
303
100
AcDbEntity
  8
2
  6
CONTINUOUS
 62
4
100
AcDbLine
 10
585.8485080000000
 20
306.9393089999998
 30
0.000000000000000
 11
589.8485080000000
 21
314.0113089999998
 31
0.000000000000000
  0
LINE
  5
304
100
AcDbEntity
  8
1
  6
CONTINUOUS
 62
7
100
AcDbLine
 10
585.8485080000000
 20
321.0823090000000
 30
0.000000000000000
 11
585.8485080000000
 21
306.9393089999998
 31
0.000000000000000
  0
ARC
  5
305
100
AcDbEntity
  8
1
  6
CONTINUOUS
 62
7
100
AcDbCircle
 10
603.8485080000000
 20
329.5113089999998
 30
0.000000000000000
 40
1.000000000000000
100
AcDbArc
 50
90.00000000000000
 51
179.9999780000000
  0
LINE
  5
306
100
AcDbEntity
  8
1
  6
CONTINUOUS
 62
7
100
AcDbLine
 10
617.8485079999997
 20
331.0113089999998
 30
0.000000000000000
 11
617.8485079999997
 21
314.0113089999999
 31
0.000000000000000
  0
LINE
  5
307
100
AcDbEntity
  8
1
  6
CONTINUOUS
 62
7
100
AcDbLine
 10
603.8485080000000
 20
330.5113089999999
 30
0.000000000000000
 11
617.8485079999997
 21
330.5113089999999
 31
0.000000000000000
  0
ARC
  5
308
100
AcDbEntity
  8
1
  6
CONTINUOUS
 62
7
100
AcDbCircle
 10
625.2485079999999
 20
314.6823089999998
 30
0.000000000000000
 40
1.000000000000000
100
AcDbArc
 50
0.000000000000000
 51
45.00000000000000
  0
ARC
  5
309
100
AcDbEntity
  8
1
  6
CONTINUOUS
 62
7
100
AcDbCircle
 10
625.2485079999999
 20
314.6823089999998
 30
0.000000000000000
 40
1.000000000000000
100
AcDbArc
 50
0.000000000000000
 51
45.00000000000000
  0
LINE
  5
30A
100
AcDbEntity
  8
1
  6
CONTINUOUS
 62
7
100
AcDbLine
 10
619.8485080000002
 20
337.0113089999998
 30
0.000000000000000
 11
622.8485080000000
 21
337.0113089999998
 31
0.000000000000000
  0
LINE
  5
30B
100
AcDbEntity
  8
1
  6
CONTINUOUS
 62
7
100
AcDbLine
 10
619.8485080000002
 20
332.0113089999998
 30
0.000000000000000
 11
618.8485080000002
 21
332.0113089999998
 31
0.000000000000000
  0
LINE
  5
30C
100
AcDbEntity
  8
1
  6
CONTINUOUS
 62
7
100
AcDbLine
 10
622.8485079999999
 20
337.0113089999997
 30
0.000000000000000
 11
625.8485079999997
 21
332.5113089999998
 31
0.000000000000000
  0
LINE
  5
30D
100
AcDbEntity
  8
1
  6
CONTINUOUS
 62
7
100
AcDbLine
 10
41.45490399999993
 20
387.9145509999998
 30
0.000000000000000
 11
28.45490399999994
 21
387.9145509999998
 31
0.000000000000000
  0
LINE
  5
30E
100
AcDbEntity
  8
1
  6
CONTINUOUS
 62
7
100
AcDbLine
 10
41.45490399999993
 20
375.9145509999998
 30
0.000000000000000
 11
28.45490399999994
 21
375.9145509999998
 31
0.000000000000000
  0
LINE
  5
30F
100
AcDbEntity
  8
1
  6
CONTINUOUS
 62
7
100
AcDbLine
 10
41.95490399999993
 20
387.4145509999999
 30
0.000000000000000
 11
41.95490399999993
 21
376.4145509999999
 31
0.000000000000000
  0
LINE
  5
310
100
AcDbEntity
  8
1
  6
CONTINUOUS
 62
7
100
AcDbLine
 10
27.95490399999994
 20
387.4145509999999
 30
0.000000000000000
 11
27.95490399999994
 21
376.4145509999999
 31
0.000000000000000
  0
ARC
  5
311
100
AcDbEntity
  8
1
  6
CONTINUOUS
 62
7
100
AcDbCircle
 10
28.45490399999994
 20
387.4145509999999
 30
0.000000000000000
 40
0.5000000000000000
100
AcDbArc
 50
90.00000000000000
 51
180.0000000000000
  0
ARC
  5
312
100
AcDbEntity
  8
1
  6
CONTINUOUS
 62
7
100
AcDbCircle
 10
41.45490399999993
 20
387.4145509999999
 30
0.000000000000000
 40
0.5000000000000000
100
AcDbArc
 50
0.000000000000000
 51
90.00000000000000
  0
ARC
  5
313
100
AcDbEntity
  8
1
  6
CONTINUOUS
 62
7
100
AcDbCircle
 10
41.45490399999993
 20
376.4145509999999
 30
0.000000000000000
 40
0.5000000000000000
100
AcDbArc
 50
270.0000000000000
 51
360.0000000000000
  0
ARC
  5
314
100
AcDbEntity
  8
1
  6
CONTINUOUS
 62
7
100
AcDbCircle
 10
28.45490399999994
 20
376.4145509999999
 30
0.000000000000000
 40
0.5000000000000000
100
AcDbArc
 50
180.0000000000000
 51
270.0000000000000
  0
LINE
  5
315
100
AcDbEntity
  8
4
  6
CENTER
 62
1
100
AcDbLine
 10
315.0257911432254
 20
437.2262099999998
 30
0.000000000000000
 11
341.7210499999996
 21
437.2262099999998
 31
0.000000000000000
  0
ARC
  5
316
100
AcDbEntity
  8
1
  6
CONTINUOUS
 62
7
100
AcDbCircle
 10
335.9890499999997
 20
440.0042099999997
 30
0.000000000000000
 40
1.600000000000000
100
AcDbArc
 50
15.49400000000195
 51
84.99990000000028
  0
ARC
  5
317
100
AcDbEntity
  8
1
  6
CONTINUOUS
 62
7
100
AcDbCircle
 10
335.9890499999997
 20
434.4482099999998
 30
0.000000000000000
 40
1.600000000000000
100
AcDbArc
 50
274.9999999999998
 51
344.5059999999980
  0
LINE
  5
318
100
AcDbEntity
  8
1
  6
CONTINUOUS
 62
7
100
AcDbLine
 10
330.1670499999977
 20
457.8262099999998
 30
0.000000000000000
 11
330.1670500000020
 21
416.6262099999943
 31
0.000000000000000
  0
LINE
  5
319
100
AcDbEntity
  8
1
  6
CONTINUOUS
 62
7
100
AcDbLine
 10
333.3670499999980
 20
454.6262100000003
 30
0.000000000000000
 11
333.3670500000017
 21
419.8262099999946
 31
0.000000000000000
  0
LINE
  5
31A
100
AcDbEntity
  8
1
  6
CONTINUOUS
 62
7
100
AcDbLine
 10
330.1670500000017
 20
419.8262099999998
 30
0.000000000000000
 11
316.1670500000009
 21
419.8262099999998
 31
0.000000000000000
  0
LINE
  5
31B
100
AcDbEntity
  8
1
  6
CONTINUOUS
 62
7
100
AcDbLine
 10
330.1670500000029
 20
416.6262099999943
 30
0.000000000000000
 11
316.1670500000009
 21
416.6262099999880
 31
0.000000000000000
  0
LINE
  5
31C
100
AcDbEntity
  8
1
  6
CONTINUOUS
 62
7
100
AcDbLine
 10
316.1670500000017
 20
419.8262099999998
 30
0.000000000000000
 11
316.1670500000020
 21
416.6262099999882
 31
0.000000000000000
  0
ARC
  5
31D
100
AcDbEntity
  8
1
  6
CONTINUOUS
 62
7
100
AcDbCircle
 10
330.1670500000017
 20
419.8262099999942
 30
0.000000000000000
 40
3.200000000000000
100
AcDbArc
 50
270.0000000000000
 51
360.0000000000000
  0
LINE
  5
31E
100
AcDbEntity
  8
1
  6
CONTINUOUS
 62
7
100
AcDbLine
 10
334.6670499999997
 20
437.2262099999998
 30
0.000000000000000
 11
333.3670499999998
 21
435.9262099999996
 31
0.000000000000000
  0
LINE
  5
31F
100
AcDbEntity
  8
1
  6
CONTINUOUS
 62
7
100
AcDbLine
 10
334.6670499999997
 20
432.6262099999996
 30
0.000000000000000
 11
334.6670499999997
 21
441.8262099999997
 31
0.000000000000000
  0
LINE
  5
320
100
AcDbEntity
  8
1
  6
CONTINUOUS
 62
7
100
AcDbLine
 10
333.3670499999998
 20
432.6262099999996
 30
0.000000000000000
 11
334.6670499999997
 21
432.6262099999996
 31
0.000000000000000
  0
LINE
  5
321
100
AcDbEntity
  8
1
  6
CONTINUOUS
 62
7
100
AcDbLine
 10
336.1280499999995
 20
432.8542100000000
 30
0.000000000000000
 11
334.6670499999997
 21
432.7262099999996
 31
0.000000000000000
  0
LINE
  5
322
100
AcDbEntity
  8
1
  6
CONTINUOUS
 62
7
100
AcDbLine
 10
333.3670499999998
 20
441.8262099999997
 30
0.000000000000000
 11
334.6670499999997
 21
441.8262099999997
 31
0.000000000000000
  0
LINE
  5
323
100
AcDbEntity
  8
1
  6
CONTINUOUS
 62
7
100
AcDbLine
 10
334.6670499999997
 20
438.5262099999998
 30
0.000000000000000
 11
333.3670499999998
 21
437.2262099999998
 31
0.000000000000000
  0
LINE
  5
324
100
AcDbEntity
  8
1
  6
CONTINUOUS
 62
7
100
AcDbLine
 10
336.1280499999995
 20
441.5982099999997
 30
0.000000000000000
 11
334.6670499999996
 21
441.7262099999998
 31
0.000000000000000
  0
LINE
  5
325
100
AcDbEntity
  8
1
  6
CONTINUOUS
 62
7
100
AcDbLine
 10
330.1670499999979
 20
454.6262100000086
 30
0.000000000000000
 11
316.1670500000009
 21
454.6262100000173
 31
0.000000000000000
  0
LINE
  5
326
100
AcDbEntity
  8
1
  6
CONTINUOUS
 62
7
100
AcDbLine
 10
330.1670499999979
 20
457.8262099999998
 30
0.000000000000000
 11
316.1670500000009
 21
457.8262099999998
 31
0.000000000000000
  0
LINE
  5
327
100
AcDbEntity
  8
1
  6
CONTINUOUS
 62
7
100
AcDbLine
 10
316.1670499999977
 20
457.8262099999998
 30
0.000000000000000
 11
316.1670499999979
 21
454.6262100000173
 31
0.000000000000000
  0
ARC
  5
328
100
AcDbEntity
  8
1
  6
CONTINUOUS
 62
7
100
AcDbCircle
 10
330.1670499999979
 20
454.6262099999998
 30
0.000000000000000
 40
3.200000000000000
100
AcDbArc
 50
0.000000000000000
 51
90.00000000000000
  0
ARC
  5
329
100
AcDbEntity
  8
1
  6
CONTINUOUS
 62
7
100
AcDbCircle
 10
325.9670499999999
 20
437.2262099999998
 30
0.000000000000000
 40
12.00000000000000
100
AcDbArc
 50
344.5059999999980
 51
375.4940000000020
  0
ARC
  5
32A
100
AcDbEntity
  8
1
  6
CONTINUOUS
 62
7
100
AcDbCircle
 10
325.9670500000006
 20
287.0113089999998
 30
0.000000000000000
 40
12.00000000000000
100
AcDbArc
 50
344.5059999999980
 51
375.4940000000020
  0
LINE
  5
32B
100
AcDbEntity
  8
1
  6
CONTINUOUS
 62
7
100
AcDbLine
 10
334.6670500000002
 20
287.0113089999998
 30
0.000000000000000
 11
333.3670500000005
 21
288.3113090000000
 31
0.000000000000000
  0
LINE
  5
32C
100
AcDbEntity
  8
1
  6
CONTINUOUS
 62
7
100
AcDbLine
 10
333.3670500000005
 20
297.0113089999998
 30
0.000000000000000
 11
333.3670500000005
 21
200.0113090003491
 31
0.000000000000000
  0
LINE
  5
32D
100
AcDbEntity
  8
1
  6
CONTINUOUS
 62
7
100
AcDbLine
 10
316.1670500000002
 20
318.0113089999998
 30
0.000000000000000
 11
316.1670500000002
 21
181.0113090005648
 31
0.000000000000000
  0
LINE
  5
32E
100
AcDbEntity
  8
1
  6
CONTINUOUS
 62
7
100
AcDbLine
 10
334.6670500000002
 20
282.4113089999999
 30
0.000000000000000
 11
334.6670500000002
 21
291.6113089999999
 31
0.000000000000000
  0
LINE
  5
32F
100
AcDbEntity
  8
1
  6
CONTINUOUS
 62
7
100
AcDbLine
 10
330.1670500000004
 20
200.0113090003486
 30
0.000000000000000
 11
330.1670500000004
 21
181.0113090005744
 31
0.000000000000000
  0
LINE
  5
330
100
AcDbEntity
  8
1
  6
CONTINUOUS
 62
7
100
AcDbLine
 10
319.1670500000038
 20
178.0113090005649
 30
0.000000000000000
 11
327.1670500000039
 21
178.0113090005744
 31
0.000000000000000
  0
ARC
  5
331
100
AcDbEntity
  8
1
  6
CONTINUOUS
 62
7
100
AcDbCircle
 10
319.1670500000002
 20
181.0113090005648
 30
0.000000000000000
 40
3.000000000000000
100
AcDbArc
 50
180.0000000000000
 51
270.0000000000000
  0
ARC
  5
332
100
AcDbEntity
  8
1
  6
CONTINUOUS
 62
7
100
AcDbCircle
 10
327.1670500000003
 20
181.0113090005744
 30
0.000000000000000
 40
3.000000000000000
100
AcDbArc
 50
270.0000000000000
 51
360.0000000000000
  0
LINE
  5
333
100
AcDbEntity
  8
1
  6
CONTINUOUS
 62
7
100
AcDbLine
 10
330.1670500000002
 20
200.0113090003486
 30
0.000000000000000
 11
333.3670500000237
 21
200.0113090003491
 31
0.000000000000000
  0
LINE
  5
334
100
AcDbEntity
  8
4
  6
CENTER
 62
1
100
AcDbLine
 10
340.9670500000006
 20
287.0113089999998
 30
0.000000000000000
 11
330.5520500000002
 21
287.0113089999998
 31
0.000000000000000
  0
ARC
  5
335
100
AcDbEntity
  8
1
  6
CONTINUOUS
 62
7
100
AcDbCircle
 10
335.9890500000003
 20
284.2333089999998
 30
0.000000000000000
 40
1.600000000000000
100
AcDbArc
 50
274.9999999999998
 51
344.5059999999980
  0
LINE
  5
336
100
AcDbEntity
  8
4
  6
CENTER
 62
1
100
AcDbLine
 10
340.9670500000006
 20
237.0113089999998
 30
0.000000000000000
 11
330.5520500000002
 21
237.0113089999998
 31
0.000000000000000
  0
ARC
  5
337
100
AcDbEntity
  8
1
  6
CONTINUOUS
 62
7
100
AcDbCircle
 10
335.9890500000003
 20
239.7893090000000
 30
0.000000000000000
 40
1.600000000000000
100
AcDbArc
 50
15.49400000000195
 51
84.99990000000028
  0
ARC
  5
338
100
AcDbEntity
  8
1
  6
CONTINUOUS
 62
7
100
AcDbCircle
 10
335.9890500000003
 20
234.2333089999999
 30
0.000000000000000
 40
1.600000000000000
100
AcDbArc
 50
274.9999999999998
 51
344.5059999999980
  0
LINE
  5
339
100
AcDbEntity
  8
1
  6
CONTINUOUS
 62
7
100
AcDbLine
 10
334.6670500000002
 20
232.4113089999999
 30
0.000000000000000
 11
334.6670500000002
 21
241.6113090000000
 31
0.000000000000000
  0
LINE
  5
33A
100
AcDbEntity
  8
1
  6
CONTINUOUS
 62
7
100
AcDbLine
 10
336.1280500000000
 20
232.6393090000000
 30
0.000000000000000
 11
334.6670500000002
 21
232.5113090000001
 31
0.000000000000000
  0
LINE
  5
33B
100
AcDbEntity
  8
1
  6
CONTINUOUS
 62
7
100
AcDbLine
 10
333.3670500000005
 20
232.4113089999999
 30
0.000000000000000
 11
334.6670500000002
 21
232.4113089999999
 31
0.000000000000000
  0
LINE
  5
33C
100
AcDbEntity
  8
1
  6
CONTINUOUS
 62
7
100
AcDbLine
 10
336.1280500000000
 20
241.3833089999999
 30
0.000000000000000
 11
334.6670500000002
 21
241.5113089999998
 31
0.000000000000000
  0
LINE
  5
33D
100
AcDbEntity
  8
1
  6
CONTINUOUS
 62
7
100
AcDbLine
 10
333.3670500000005
 20
241.6113090000000
 30
0.000000000000000
 11
334.6670500000002
 21
241.6113090000000
 31
0.000000000000000
  0
LINE
  5
33E
100
AcDbEntity
  8
1
  6
CONTINUOUS
 62
7
100
AcDbLine
 10
334.6670500000001
 20
237.0113089999998
 30
0.000000000000000
 11
333.3670500000005
 21
238.3113090000000
 31
0.000000000000000
  0
LINE
  5
33F
100
AcDbEntity
  8
1
  6
CONTINUOUS
 62
7
100
AcDbLine
 10
334.6670500000001
 20
235.7113089999999
 30
0.000000000000000
 11
333.3670500000005
 21
237.0113089999998
 31
0.000000000000000
  0
LINE
  5
340
100
AcDbEntity
  8
1
  6
CONTINUOUS
 62
7
100
AcDbLine
 10
333.3670500000005
 20
282.4113089999999
 30
0.000000000000000
 11
334.6670500000002
 21
282.4113089999999
 31
0.000000000000000
  0
LINE
  5
341
100
AcDbEntity
  8
1
  6
CONTINUOUS
 62
7
100
AcDbLine
 10
336.1280500000000
 20
282.6393090000000
 30
0.000000000000000
 11
334.6670500000002
 21
282.5113090000001
 31
0.000000000000000
  0
LINE
  5
342
100
AcDbEntity
  8
1
  6
CONTINUOUS
 62
7
100
AcDbLine
 10
334.6670500000002
 20
285.7113089999999
 30
0.000000000000000
 11
333.3670500000006
 21
287.0113089999999
 31
0.000000000000000
  0
ARC
  5
343
100
AcDbEntity
  8
1
  6
CONTINUOUS
 62
7
100
AcDbCircle
 10
325.9670500000006
 20
237.0113089999998
 30
0.000000000000000
 40
12.00000000000000
100
AcDbArc
 50
344.5059999999980
 51
375.4940000000020
  0
ARC
  5
344
100
AcDbEntity
  8
1
  6
CONTINUOUS
 62
7
100
AcDbCircle
 10
335.9890500000003
 20
289.7893089999998
 30
0.000000000000000
 40
1.600000000000000
100
AcDbArc
 50
15.49400000000195
 51
84.99990000000028
  0
LINE
  5
345
100
AcDbEntity
  8
1
  6
CONTINUOUS
 62
7
100
AcDbLine
 10
330.1670500000002
 20
318.0113089999998
 30
0.000000000000000
 11
330.1670500000002
 21
297.0113089999998
 31
0.000000000000000
  0
LINE
  5
346
100
AcDbEntity
  8
1
  6
CONTINUOUS
 62
7
100
AcDbLine
 10
330.1670500000002
 20
297.0113089999998
 30
0.000000000000000
 11
333.3670500000237
 21
297.0113089999998
 31
0.000000000000000
  0
LINE
  5
347
100
AcDbEntity
  8
1
  6
CONTINUOUS
 62
7
100
AcDbLine
 10
333.3670500000005
 20
291.6113089999999
 30
0.000000000000000
 11
334.6670500000002
 21
291.6113089999999
 31
0.000000000000000
  0
LINE
  5
348
100
AcDbEntity
  8
1
  6
CONTINUOUS
 62
7
100
AcDbLine
 10
336.1280500000000
 20
291.3833089999999
 30
0.000000000000000
 11
334.6670500000002
 21
291.5113089999998
 31
0.000000000000000
  0
LINE
  5
349
100
AcDbEntity
  8
1
  6
CONTINUOUS
 62
7
100
AcDbLine
 10
319.1670500000002
 20
321.0113089999998
 30
0.000000000000000
 11
327.1670500000002
 21
321.0113089999998
 31
0.000000000000000
  0
ARC
  5
34A
100
AcDbEntity
  8
1
  6
CONTINUOUS
 62
7
100
AcDbCircle
 10
319.1670500000002
 20
318.0113089999998
 30
0.000000000000000
 40
3.000000000000000
100
AcDbArc
 50
90.00000000000000
 51
180.0000000000000
  0
ARC
  5
34B
100
AcDbEntity
  8
1
  6
CONTINUOUS
 62
7
100
AcDbCircle
 10
327.1670500000002
 20
318.0113089999998
 30
0.000000000000000
 40
3.000000000000000
100
AcDbArc
 50
0.000000000000000
 51
90.00000000000000
  0
LINE
  5
34C
100
AcDbEntity
  8
4
  6
CENTER
 62
1
100
AcDbLine
 10
315.0257911432258
 20
61.94428200000015
 30
0.000000000000000
 11
341.7210500000001
 21
61.94428200000015
 31
0.000000000000000
  0
ARC
  5
34D
100
AcDbEntity
  8
1
  6
CONTINUOUS
 62
7
100
AcDbCircle
 10
335.9890499999997
 20
59.16628199999998
 30
0.000000000000000
 40
1.600000000000000
100
AcDbArc
 50
274.9999999999998
 51
344.5059999999980
  0
ARC
  5
34E
100
AcDbEntity
  8
1
  6
CONTINUOUS
 62
7
100
AcDbCircle
 10
335.9890499999997
 20
64.72228199999999
 30
0.000000000000000
 40
1.600000000000000
100
AcDbArc
 50
15.49400000000195
 51
84.99990000000028
  0
LINE
  5
34F
100
AcDbEntity
  8
1
  6
CONTINUOUS
 62
7
100
AcDbLine
 10
330.1670499999981
 20
82.54428200000029
 30
0.000000000000000
 11
330.1670500000025
 21
41.34428199999450
 31
0.000000000000000
  0
LINE
  5
350
100
AcDbEntity
  8
1
  6
CONTINUOUS
 62
7
100
AcDbLine
 10
333.3670499999984
 20
79.34428200000070
 30
0.000000000000000
 11
333.3670500000021
 21
44.54428199999500
 31
0.000000000000000
  0
LINE
  5
351
100
AcDbEntity
  8
1
  6
CONTINUOUS
 62
7
100
AcDbLine
 10
334.6670499999997
 20
57.34428200000002
 30
0.000000000000000
 11
334.6670499999997
 21
66.54428200000001
 31
0.000000000000000
  0
LINE
  5
352
100
AcDbEntity
  8
1
  6
CONTINUOUS
 62
7
100
AcDbLine
 10
316.1670500000020
 20
44.54428200000022
 30
0.000000000000000
 11
316.1670500000025
 21
41.34428199998859
 31
0.000000000000000
  0
ARC
  5
353
100
AcDbEntity
  8
1
  6
CONTINUOUS
 62
7
100
AcDbCircle
 10
330.1670500000020
 20
44.54428199999454
 30
0.000000000000000
 40
3.200000000000000
100
AcDbArc
 50
270.0000000000000
 51
360.0000000000000
  0
LINE
  5
354
100
AcDbEntity
  8
1
  6
CONTINUOUS
 62
7
100
AcDbLine
 10
330.1670500000034
 20
41.34428199999450
 30
0.000000000000000
 11
316.1670500000013
 21
41.34428199998835
 31
0.000000000000000
  0
LINE
  5
355
100
AcDbEntity
  8
1
  6
CONTINUOUS
 62
7
100
AcDbLine
 10
330.1670500000020
 20
44.54428200000022
 30
0.000000000000000
 11
316.1670500000013
 21
44.54428200000022
 31
0.000000000000000
  0
LINE
  5
356
100
AcDbEntity
  8
1
  6
CONTINUOUS
 62
7
100
AcDbLine
 10
336.1280499999996
 20
57.57228199999999
 30
0.000000000000000
 11
334.6670499999997
 21
57.44428199999998
 31
0.000000000000000
  0
LINE
  5
357
100
AcDbEntity
  8
1
  6
CONTINUOUS
 62
7
100
AcDbLine
 10
333.3670499999998
 20
57.34428200000002
 30
0.000000000000000
 11
334.6670499999997
 21
57.34428200000002
 31
0.000000000000000
  0
LINE
  5
358
100
AcDbEntity
  8
1
  6
CONTINUOUS
 62
7
100
AcDbLine
 10
334.6670499999997
 20
63.24428199999997
 30
0.000000000000000
 11
333.3670499999998
 21
61.94428200000002
 31
0.000000000000000
  0
LINE
  5
359
100
AcDbEntity
  8
1
  6
CONTINUOUS
 62
7
100
AcDbLine
 10
334.6670499999997
 20
61.94428199999999
 30
0.000000000000000
 11
333.3670499999998
 21
60.64428200000000
 31
0.000000000000000
  0
LINE
  5
35A
100
AcDbEntity
  8
1
  6
CONTINUOUS
 62
7
100
AcDbLine
 10
330.1670499999984
 20
79.34428200000889
 30
0.000000000000000
 11
316.1670500000013
 21
79.34428200001774
 31
0.000000000000000
  0
LINE
  5
35B
100
AcDbEntity
  8
1
  6
CONTINUOUS
 62
7
100
AcDbLine
 10
330.1670499999984
 20
82.54428200000029
 30
0.000000000000000
 11
316.1670500000013
 21
82.54428200000029
 31
0.000000000000000
  0
LINE
  5
35C
100
AcDbEntity
  8
1
  6
CONTINUOUS
 62
7
100
AcDbLine
 10
316.1670499999981
 20
82.54428200000029
 30
0.000000000000000
 11
316.1670499999984
 21
79.34428200001774
 31
0.000000000000000
  0
LINE
  5
35D
100
AcDbEntity
  8
1
  6
CONTINUOUS
 62
7
100
AcDbLine
 10
333.3670499999998
 20
66.54428200000001
 30
0.000000000000000
 11
334.6670499999997
 21
66.54428200000001
 31
0.000000000000000
  0
LINE
  5
35E
100
AcDbEntity
  8
1
  6
CONTINUOUS
 62
7
100
AcDbLine
 10
336.1280499999996
 20
66.31628200000000
 30
0.000000000000000
 11
334.6670499999997
 21
66.44428199999999
 31
0.000000000000000
  0
ARC
  5
35F
100
AcDbEntity
  8
1
  6
CONTINUOUS
 62
7
100
AcDbCircle
 10
330.1670499999984
 20
79.34428200000019
 30
0.000000000000000
 40
3.200000000000000
100
AcDbArc
 50
0.000000000000000
 51
90.00000000000000
  0
ARC
  5
360
100
AcDbEntity
  8
1
  6
CONTINUOUS
 62
7
100
AcDbCircle
 10
325.9670499999999
 20
61.94428199999999
 30
0.000000000000000
 40
12.00000000000000
100
AcDbArc
 50
344.5059999999980
 51
375.4940000000020
  0
LINE
  5
361
100
AcDbEntity
  8
1
  6
CONTINUOUS
 62
7
100
AcDbLine
 10
531.2485080000000
 20
287.0113089999998
 30
0.000000000000000
 11
532.5485079999999
 21
288.3113090000000
 31
0.000000000000000
  0
ARC
  5
362
100
AcDbEntity
  8
1
  6
CONTINUOUS
 62
7
100
AcDbCircle
 10
539.9485079999997
 20
287.0113089999998
 30
0.000000000000000
 40
12.00000000000000
100
AcDbArc
 50
164.5059999999980
 51
195.4940000000019
  0
LINE
  5
363
100
AcDbEntity
  8
1
  6
CONTINUOUS
 62
7
100
AcDbLine
 10
531.2485080000000
 20
282.4113089999999
 30
0.000000000000000
 11
531.2485080000000
 21
291.6113089999999
 31
0.000000000000000
  0
LINE
  5
364
100
AcDbEntity
  8
1
  6
CONTINUOUS
 62
7
100
AcDbLine
 10
532.5485079999999
 20
297.0113089999998
 30
0.000000000000000
 11
532.5485079999999
 21
200.0113090003491
 31
0.000000000000000
  0
LINE
  5
365
100
AcDbEntity
  8
1
  6
CONTINUOUS
 62
7
100
AcDbLine
 10
549.7485080000001
 20
318.0113089999998
 30
0.000000000000000
 11
549.7485080000001
 21
181.0113090005648
 31
0.000000000000000
  0
LINE
  5
366
100
AcDbEntity
  8
1
  6
CONTINUOUS
 62
7
100
AcDbLine
 10
535.7485080000001
 20
200.0113090003486
 30
0.000000000000000
 11
532.5485079999766
 21
200.0113090003491
 31
0.000000000000000
  0
LINE
  5
367
100
AcDbEntity
  8
1
  6
CONTINUOUS
 62
7
100
AcDbLine
 10
535.7485079999999
 20
200.0113090003486
 30
0.000000000000000
 11
535.7485079999999
 21
181.0113090005744
 31
0.000000000000000
  0
ARC
  5
368
100
AcDbEntity
  8
1
  6
CONTINUOUS
 62
7
100
AcDbCircle
 10
546.7485080000001
 20
181.0113090005648
 30
0.000000000000000
 40
3.000000000000000
100
AcDbArc
 50
270.0000000000000
 51
360.0000000000000
  0
LINE
  5
369
100
AcDbEntity
  8
1
  6
CONTINUOUS
 62
7
100
AcDbLine
 10
546.7485079999963
 20
178.0113090005649
 30
0.000000000000000
 11
538.7485079999963
 21
178.0113090005744
 31
0.000000000000000
  0
ARC
  5
36A
100
AcDbEntity
  8
1
  6
CONTINUOUS
 62
7
100
AcDbCircle
 10
538.7485079999999
 20
181.0113090005744
 30
0.000000000000000
 40
3.000000000000000
100
AcDbArc
 50
180.0000000000000
 51
270.0000000000000
  0
LINE
  5
36B
100
AcDbEntity
  8
4
  6
CENTER
 62
1
100
AcDbLine
 10
524.9485079999997
 20
237.0113089999998
 30
0.000000000000000
 11
535.3635080000001
 21
237.0113089999998
 31
0.000000000000000
  0
LINE
  5
36C
100
AcDbEntity
  8
1
  6
CONTINUOUS
 62
7
100
AcDbLine
 10
531.2485080000000
 20
232.4113089999999
 30
0.000000000000000
 11
531.2485080000000
 21
241.6113090000000
 31
0.000000000000000
  0
ARC
  5
36D
100
AcDbEntity
  8
1
  6
CONTINUOUS
 62
7
100
AcDbCircle
 10
539.9485079999997
 20
237.0113089999998
 30
0.000000000000000
 40
12.00000000000000
100
AcDbArc
 50
164.5059999999980
 51
195.4940000000019
  0
LINE
  5
36E
100
AcDbEntity
  8
1
  6
CONTINUOUS
 62
7
100
AcDbLine
 10
529.7875080000003
 20
232.6393090000000
 30
0.000000000000000
 11
531.2485080000001
 21
232.5113090000001
 31
0.000000000000000
  0
ARC
  5
36F
100
AcDbEntity
  8
1
  6
CONTINUOUS
 62
7
100
AcDbCircle
 10
529.9265080000000
 20
234.2333089999999
 30
0.000000000000000
 40
1.600000000000000
100
AcDbArc
 50
195.4940000000019
 51
265.0000000000003
  0
LINE
  5
370
100
AcDbEntity
  8
1
  6
CONTINUOUS
 62
7
100
AcDbLine
 10
532.5485079999999
 20
232.4113089999999
 30
0.000000000000000
 11
531.2485080000000
 21
232.4113089999999
 31
0.000000000000000
  0
LINE
  5
371
100
AcDbEntity
  8
1
  6
CONTINUOUS
 62
7
100
AcDbLine
 10
529.7875080000003
 20
241.3833089999999
 30
0.000000000000000
 11
531.2485080000000
 21
241.5113089999998
 31
0.000000000000000
  0
ARC
  5
372
100
AcDbEntity
  8
1
  6
CONTINUOUS
 62
7
100
AcDbCircle
 10
529.9265080000000
 20
239.7893090000000
 30
0.000000000000000
 40
1.600000000000000
100
AcDbArc
 50
95.00009999999972
 51
164.5059999999980
  0
LINE
  5
373
100
AcDbEntity
  8
1
  6
CONTINUOUS
 62
7
100
AcDbLine
 10
532.5485079999999
 20
241.6113090000000
 30
0.000000000000000
 11
531.2485080000000
 21
241.6113090000000
 31
0.000000000000000
  0
LINE
  5
374
100
AcDbEntity
  8
1
  6
CONTINUOUS
 62
7
100
AcDbLine
 10
531.2485080000000
 20
235.7113089999999
 30
0.000000000000000
 11
532.5485079999999
 21
237.0113089999998
 31
0.000000000000000
  0
LINE
  5
375
100
AcDbEntity
  8
1
  6
CONTINUOUS
 62
7
100
AcDbLine
 10
531.2485080000000
 20
237.0113089999998
 30
0.000000000000000
 11
532.5485079999997
 21
238.3113089999999
 31
0.000000000000000
  0
LINE
  5
376
100
AcDbEntity
  8
4
  6
CENTER
 62
1
100
AcDbLine
 10
524.9485079999997
 20
287.0113089999998
 30
0.000000000000000
 11
535.3635080000001
 21
287.0113089999998
 31
0.000000000000000
  0
LINE
  5
377
100
AcDbEntity
  8
1
  6
CONTINUOUS
 62
7
100
AcDbLine
 10
532.5485079999999
 20
282.4113089999999
 30
0.000000000000000
 11
531.2485080000000
 21
282.4113089999999
 31
0.000000000000000
  0
ARC
  5
378
100
AcDbEntity
  8
1
  6
CONTINUOUS
 62
7
100
AcDbCircle
 10
529.9265080000000
 20
284.2333089999998
 30
0.000000000000000
 40
1.600000000000000
100
AcDbArc
 50
195.4940000000019
 51
265.0000000000003
  0
LINE
  5
379
100
AcDbEntity
  8
1
  6
CONTINUOUS
 62
7
100
AcDbLine
 10
529.7875080000005
 20
282.6393090000000
 30
0.000000000000000
 11
531.2485080000001
 21
282.5113090000001
 31
0.000000000000000
  0
LINE
  5
37A
100
AcDbEntity
  8
1
  6
CONTINUOUS
 62
7
100
AcDbLine
 10
531.2485080000000
 20
285.7113089999998
 30
0.000000000000000
 11
532.5485079999999
 21
287.0113089999999
 31
0.000000000000000
  0
LINE
  5
37B
100
AcDbEntity
  8
1
  6
CONTINUOUS
 62
7
100
AcDbLine
 10
535.7485080000001
 20
297.0113089999998
 30
0.000000000000000
 11
532.5485079999766
 21
297.0113089999998
 31
0.000000000000000
  0
LINE
  5
37C
100
AcDbEntity
  8
1
  6
CONTINUOUS
 62
7
100
AcDbLine
 10
532.5485079999999
 20
291.6113089999999
 30
0.000000000000000
 11
531.2485080000000
 21
291.6113089999999
 31
0.000000000000000
  0
ARC
  5
37D
100
AcDbEntity
  8
1
  6
CONTINUOUS
 62
7
100
AcDbCircle
 10
529.9265080000000
 20
289.7893089999998
 30
0.000000000000000
 40
1.600000000000000
100
AcDbArc
 50
95.00009999999972
 51
164.5059999999980
  0
LINE
  5
37E
100
AcDbEntity
  8
1
  6
CONTINUOUS
 62
7
100
AcDbLine
 10
529.7875080000005
 20
291.3833089999999
 30
0.000000000000000
 11
531.2485080000001
 21
291.5113089999998
 31
0.000000000000000
  0
LINE
  5
37F
100
AcDbEntity
  8
1
  6
CONTINUOUS
 62
7
100
AcDbLine
 10
535.7485080000001
 20
318.0113089999998
 30
0.000000000000000
 11
535.7485080000001
 21
297.0113089999998
 31
0.000000000000000
  0
ARC
  5
380
100
AcDbEntity
  8
1
  6
CONTINUOUS
 62
7
100
AcDbCircle
 10
546.7485080000001
 20
318.0113089999998
 30
0.000000000000000
 40
3.000000000000000
100
AcDbArc
 50
0.000000000000000
 51
90.00000000000000
  0
ARC
  5
381
100
AcDbEntity
  8
1
  6
CONTINUOUS
 62
7
100
AcDbCircle
 10
538.7485080000001
 20
318.0113089999998
 30
0.000000000000000
 40
3.000000000000000
100
AcDbArc
 50
90.00000000000000
 51
180.0000000000000
  0
LINE
  5
382
100
AcDbEntity
  8
1
  6
CONTINUOUS
 62
7
100
AcDbLine
 10
546.7485080000001
 20
321.0113089999998
 30
0.000000000000000
 11
538.7485080000001
 21
321.0113089999998
 31
0.000000000000000
  0
LINE
  5
383
100
AcDbEntity
  8
1
  6
CONTINUOUS
 62
7
100
AcDbLine
 10
412.3577789999997
 20
321.0113089999998
 30
0.000000000000000
 11
412.3577789999997
 21
178.0113090005398
 31
0.000000000000000
  0
LINE
  5
384
100
AcDbEntity
  8
1
  6
CONTINUOUS
 62
7
100
AcDbLine
 10
453.5577789999998
 20
321.0113089999998
 30
0.000000000000000
 11
453.5577789999998
 21
178.0113090005130
 31
0.000000000000000
  0
LINE
  5
385
100
AcDbEntity
  8
1
  6
CONTINUOUS
 62
7
100
AcDbLine
 10
412.3577789999997
 20
200.0113090003400
 30
0.000000000000000
 11
453.5577789999998
 21
200.0113090003400
 31
0.000000000000000
  0
LINE
  5
386
100
AcDbEntity
  8
1
  6
CONTINUOUS
 62
7
100
AcDbLine
 10
415.5577789999998
 20
200.0113090003400
 30
0.000000000000000
 11
415.5577789999998
 21
178.0113090005378
 31
0.000000000000000
  0
LINE
  5
387
100
AcDbEntity
  8
1
  6
CONTINUOUS
 62
7
100
AcDbLine
 10
412.3577789999997
 20
178.0113090005398
 30
0.000000000000000
 11
415.5577789999998
 21
178.0113090005379
 31
0.000000000000000
  0
LINE
  5
388
100
AcDbEntity
  8
1
  6
CONTINUOUS
 62
7
100
AcDbLine
 10
450.3577789999998
 20
200.0113090003400
 30
0.000000000000000
 11
450.3577789999998
 21
178.0113090005150
 31
0.000000000000000
  0
LINE
  5
389
100
AcDbEntity
  8
1
  6
CONTINUOUS
 62
7
100
AcDbLine
 10
450.3577789999998
 20
178.0113090005152
 30
0.000000000000000
 11
453.5577789999998
 21
178.0113090005130
 31
0.000000000000000
  0
LINE
  5
38A
100
AcDbEntity
  8
1
  6
CONTINUOUS
 62
7
100
AcDbLine
 10
412.3577789999997
 20
297.0113089999998
 30
0.000000000000000
 11
453.5577789999998
 21
297.0113089999998
 31
0.000000000000000
  0
LINE
  5
38B
100
AcDbEntity
  8
1
  6
CONTINUOUS
 62
7
100
AcDbLine
 10
415.5577789999998
 20
321.0113089999998
 30
0.000000000000000
 11
415.5577789999998
 21
297.0113089999998
 31
0.000000000000000
  0
LINE
  5
38C
100
AcDbEntity
  8
1
  6
CONTINUOUS
 62
7
100
AcDbLine
 10
412.3577789999997
 20
321.0113089999998
 30
0.000000000000000
 11
415.5577789999998
 21
321.0113089999998
 31
0.000000000000000
  0
LINE
  5
38D
100
AcDbEntity
  8
1
  6
CONTINUOUS
 62
7
100
AcDbLine
 10
450.3577790000000
 20
321.0113089999998
 30
0.000000000000000
 11
450.3577790000000
 21
297.0113090000001
 31
0.000000000000000
  0
LINE
  5
38E
100
AcDbEntity
  8
1
  6
CONTINUOUS
 62
7
100
AcDbLine
 10
450.3577789999998
 20
321.0113089999998
 30
0.000000000000000
 11
453.5577789999998
 21
321.0113089999998
 31
0.000000000000000
  0
ENDSEC
  0
SECTION
  2
OBJECTS
  0
DICTIONARY
  5
3B8
100
AcDbDictionary
  3
ACAD_GROUP
350
3B9
  3
ACAD_LAYOUT
350
3BA
  3
ACAD_MLINESTYLE
350
3BB
  0
DICTIONARY
  5
3B9
102
{ACAD_REACTORS
330
3B8
102
}
330
3B8
100
AcDbDictionary
  0
DICTIONARY
  5
3BA
102
{ACAD_REACTORS
330
3B8
102
}
330
3B8
100
AcDbDictionary
  3
Model
350
3BC
  3
ﾚｲｱｳﾄ1
350
3BD
  3
ﾚｲｱｳﾄ2
350
3BE
  0
DICTIONARY
  5
3BB
102
{ACAD_REACTORS
330
3B8
102
}
330
3B8
100
AcDbDictionary
  3
STANDARD
350
3BF
  0
LAYOUT
  5
3BC
102
{ACAD_REACTORS
330
3BA
102
}
330
3BA
100
AcDbPlotSettings
 70
11952
  4
A3
 44
297.000000
 45
420.000000
 73
  1
 72
  1
100
AcDbLayout
  1
Model
 71
0
330
3AF
  0
LAYOUT
  5
3BD
102
{ACAD_REACTORS
330
3BA
102
}
330
3BA
100
AcDbPlotSettings
100
AcDbLayout
  1
ﾚｲｱｳﾄ1
 71
1
330
3B0
  0
LAYOUT
  5
3BE
102
{ACAD_REACTORS
330
3BA
102
}
330
3BA
100
AcDbPlotSettings
100
AcDbLayout
  1
ﾚｲｱｳﾄ2
 71
2
330
3B1
  0
MLINESTYLE
  5
3BF
102
{ACAD_REACTORS
330
3BB
102
}
330
3BB
100
AcDbMlineStyle
  2
STANDARD
 70
     0
  3

 62
   256
 51
90.00
 52
90.00
 71
     2
 49
0.50
 62
   256
  6
BYLAYER
 49
-0.50
 62
   256
  6
BYLAYER
  0
ENDSEC
  0
EOF
