  0
SECTION
  2
HEADER
  9
$ACADVER
  1
AC1015
  9
$ACADMAINTVER
 70
    20
  9
$DWGCODEPAGE
  3
ANSI_932
  9
$INSBASE
 10
0.0
 20
0.0
 30
0.0
  9
$EXTMIN
 10
10.0
 20
9.999999999999998
 30
0.0
  9
$EXTMAX
 10
673.7686210000001
 20
435.1097779999998
 30
0.0
  9
$LIMMIN
 10
0.0
 20
0.0
  9
$LIMMAX
 10
792.0
 20
546.0
  9
$ORTHOMODE
 70
     1
  9
$REGENMODE
 70
     1
  9
$FILLMODE
 70
     1
  9
$QTEXTMODE
 70
     0
  9
$MIRRTEXT
 70
     1
  9
$LTSCALE
 40
20.0
  9
$ATTMODE
 70
     1
  9
$TEXTSIZE
 40
5.0
  9
$TRACEWID
 40
1.0
  9
$TEXTSTYLE
  7
STANDARD
  9
$CLAYER
  8
0
  9
$CELTYPE
  6
BYLAYER
  9
$CECOLOR
 62
   256
  9
$CELTSCALE
 40
1.0
  9
$DISPSILH
 70
     0
  9
$DIMSCALE
 40
1.0
  9
$DIMASZ
 40
2.5
  9
$DIMEXO
 40
1.0
  9
$DIMDLI
 40
10.0
  9
$DIMRND
 40
0.0
  9
$DIMDLE
 40
0.0
  9
$DIMEXE
 40
1.0
  9
$DIMTP
 40
0.0
  9
$DIMTM
 40
0.0
  9
$DIMTXT
 40
3.2
  9
$DIMCEN
 40
0.0
  9
$DIMTSZ
 40
0.0
  9
$DIMTOL
 70
     0
  9
$DIMLIM
 70
     0
  9
$DIMTIH
 70
     0
  9
$DIMTOH
 70
     0
  9
$DIMSE1
 70
     0
  9
$DIMSE2
 70
     0
  9
$DIMTAD
 70
     3
  9
$DIMZIN
 70
     8
  9
$DIMBLK
  1

  9
$DIMASO
 70
     1
  9
$DIMSHO
 70
     1
  9
$DIMPOST
  1

  9
$DIMAPOST
  1

  9
$DIMALT
 70
     0
  9
$DIMALTD
 70
     2
  9
$DIMALTF
 40
25.4
  9
$DIMLFAC
 40
1.0
  9
$DIMTOFL
 70
     1
  9
$DIMTVP
 40
0.0
  9
$DIMTIX
 70
     0
  9
$DIMSOXD
 70
     0
  9
$DIMSAH
 70
     1
  9
$DIMBLK1
  1
OPEN
  9
$DIMBLK2
  1
OPEN
  9
$DIMSTYLE
  2
STANDARD
  9
$DIMCLRD
 70
     0
  9
$DIMCLRE
 70
     0
  9
$DIMCLRT
 70
     0
  9
$DIMTFAC
 40
1.0
  9
$DIMGAP
 40
1.0
  9
$DIMJUST
 70
     0
  9
$DIMSD1
 70
     0
  9
$DIMSD2
 70
     0
  9
$DIMTOLJ
 70
     1
  9
$DIMTZIN
 70
     0
  9
$DIMALTZ
 70
     0
  9
$DIMALTTZ
 70
     0
  9
$DIMUPT
 70
     0
  9
$DIMDEC
 70
     4
  9
$DIMTDEC
 70
     4
  9
$DIMALTU
 70
     2
  9
$DIMALTTD
 70
     2
  9
$DIMTXSTY
  7
STANDARD
  9
$DIMAUNIT
 70
     0
  9
$DIMADEC
 70
     0
  9
$DIMALTRND
 40
0.0
  9
$DIMAZIN
 70
     0
  9
$DIMDSEP
 70
    46
  9
$DIMATFIT
 70
     3
  9
$DIMFRAC
 70
     0
  9
$DIMLDRBLK
  1
OPEN
  9
$DIMLUNIT
 70
     2
  9
$DIMLWD
 70
    -2
  9
$DIMLWE
 70
    -2
  9
$DIMTMOVE
 70
     0
  9
$LUNITS
 70
     2
  9
$LUPREC
 70
     4
  9
$SKETCHINC
 40
1.0
  9
$FILLETRAD
 40
2.5
  9
$AUNITS
 70
     0
  9
$AUPREC
 70
     2
  9
$MENU
  1
.
  9
$ELEVATION
 40
0.0
  9
$PELEVATION
 40
0.0
  9
$THICKNESS
 40
0.0
  9
$LIMCHECK
 70
     0
  9
$CHAMFERA
 40
10.0
  9
$CHAMFERB
 40
10.0
  9
$CHAMFERC
 40
0.0
  9
$CHAMFERD
 40
0.0
  9
$SKPOLY
 70
     0
  9
$TDCREATE
 40
2451417.567985533
  9
$TDUCREATE
 40
2451417.192985533
  9
$TDUPDATE
 40
2457192.640527893
  9
$TDUUPDATE
 40
2457192.265527893
  9
$TDINDWG
 40
0.0000176736
  9
$TDUSRTIMER
 40
0.0000171644
  9
$USRTIMER
 70
     1
  9
$ANGBASE
 50
0.0
  9
$ANGDIR
 70
     0
  9
$PDMODE
 70
     0
  9
$PDSIZE
 40
0.0
  9
$PLINEWID
 40
0.0
  9
$SPLFRAME
 70
     0
  9
$SPLINETYPE
 70
     6
  9
$SPLINESEGS
 70
     8
  9
$HANDSEED
  5
B93C
  9
$SURFTAB1
 70
     6
  9
$SURFTAB2
 70
     6
  9
$SURFTYPE
 70
     6
  9
$SURFU
 70
     6
  9
$SURFV
 70
     6
  9
$UCSBASE
  2

  9
$UCSNAME
  2

  9
$UCSORG
 10
0.0
 20
0.0
 30
0.0
  9
$UCSXDIR
 10
1.0
 20
0.0
 30
0.0
  9
$UCSYDIR
 10
0.0
 20
1.0
 30
0.0
  9
$UCSORTHOREF
  2

  9
$UCSORTHOVIEW
 70
     0
  9
$UCSORGTOP
 10
0.0
 20
0.0
 30
0.0
  9
$UCSORGBOTTOM
 10
0.0
 20
0.0
 30
0.0
  9
$UCSORGLEFT
 10
0.0
 20
0.0
 30
0.0
  9
$UCSORGRIGHT
 10
0.0
 20
0.0
 30
0.0
  9
$UCSORGFRONT
 10
0.0
 20
0.0
 30
0.0
  9
$UCSORGBACK
 10
0.0
 20
0.0
 30
0.0
  9
$PUCSBASE
  2

  9
$PUCSNAME
  2

  9
$PUCSORG
 10
0.0
 20
0.0
 30
0.0
  9
$PUCSXDIR
 10
1.0
 20
0.0
 30
0.0
  9
$PUCSYDIR
 10
0.0
 20
1.0
 30
0.0
  9
$PUCSORTHOREF
  2

  9
$PUCSORTHOVIEW
 70
     0
  9
$PUCSORGTOP
 10
0.0
 20
0.0
 30
0.0
  9
$PUCSORGBOTTOM
 10
0.0
 20
0.0
 30
0.0
  9
$PUCSORGLEFT
 10
0.0
 20
0.0
 30
0.0
  9
$PUCSORGRIGHT
 10
0.0
 20
0.0
 30
0.0
  9
$PUCSORGFRONT
 10
0.0
 20
0.0
 30
0.0
  9
$PUCSORGBACK
 10
0.0
 20
0.0
 30
0.0
  9
$USERI1
 70
     0
  9
$USERI2
 70
     0
  9
$USERI3
 70
     0
  9
$USERI4
 70
     0
  9
$USERI5
 70
     0
  9
$USERR1
 40
0.0
  9
$USERR2
 40
0.0
  9
$USERR3
 40
0.0
  9
$USERR4
 40
0.0
  9
$USERR5
 40
0.0
  9
$WORLDVIEW
 70
     1
  9
$SHADEDGE
 70
     3
  9
$SHADEDIF
 70
    70
  9
$TILEMODE
 70
     1
  9
$MAXACTVP
 70
    16
  9
$PINSBASE
 10
0.0
 20
0.0
 30
0.0
  9
$PLIMCHECK
 70
     0
  9
$PEXTMIN
 10
1.000000000000000E+20
 20
1.000000000000000E+20
 30
1.000000000000000E+20
  9
$PEXTMAX
 10
-1.000000000000000E+20
 20
-1.000000000000000E+20
 30
-1.000000000000000E+20
  9
$PLIMMIN
 10
0.0
 20
0.0
  9
$PLIMMAX
 10
420.0
 20
297.0
  9
$UNITMODE
 70
     0
  9
$VISRETAIN
 70
     0
  9
$PLINEGEN
 70
     0
  9
$PSLTSCALE
 70
     0
  9
$TREEDEPTH
 70
  3020
  9
$CMLSTYLE
  2
STANDARD
  9
$CMLJUST
 70
     0
  9
$CMLSCALE
 40
1.0
  9
$PROXYGRAPHICS
 70
     1
  9
$MEASUREMENT
 70
     0
  9
$CELWEIGHT
370
    -1
  9
$ENDCAPS
280
     0
  9
$JOINSTYLE
280
     0
  9
$LWDISPLAY
290
     0
  9
$INSUNITS
 70
     0
  9
$HYPERLINKBASE
  1

  9
$STYLESHEET
  1

  9
$XEDIT
290
     1
  9
$CEPSNTYPE
380
     0
  9
$PSTYLEMODE
290
     1
  9
$FINGERPRINTGUID
  2
{8F3824AF-D9E3-4795-87F4-984EB737E4F6}
  9
$VERSIONGUID
  2
{06D87BB8-B7A8-4D96-BFDD-485DE067EF8E}
  9
$EXTNAMES
290
     1
  9
$PSVPSCALE
 40
0.0
  9
$OLESTARTUP
290
     0
  0
ENDSEC
  0
SECTION
  2
CLASSES
  0
CLASS
  1
ACDBDICTIONARYWDFLT
  2
AcDbDictionaryWithDefault
  3
ObjectDBX Classes
 90
        0
280
     0
281
     0
  0
CLASS
  1
ACDBPLACEHOLDER
  2
AcDbPlaceHolder
  3
ObjectDBX Classes
 90
        0
280
     0
281
     0
  0
CLASS
  1
LAYOUT
  2
AcDbLayout
  3
ObjectDBX Classes
 90
        0
280
     0
281
     0
  0
CLASS
  1
DICTIONARYVAR
  2
AcDbDictionaryVar
  3
ObjectDBX Classes
 90
        0
280
     0
281
     0
  0
CLASS
  1
MATERIAL
  2
AcDbMaterial
  3
ObjectDBX Classes
 90
     1153
280
     0
281
     0
  0
CLASS
  1
VISUALSTYLE
  2
AcDbVisualStyle
  3
ObjectDBX Classes
 90
     4095
280
     0
281
     0
  0
CLASS
  1
TABLESTYLE
  2
AcDbTableStyle
  3
ObjectDBX Classes
 90
     4095
280
     0
281
     0
  0
CLASS
  1
SCALE
  2
AcDbScale
  3
ObjectDBX Classes
 90
     1153
280
     0
281
     0
  0
CLASS
  1
MLEADERSTYLE
  2
AcDbMLeaderStyle
  3
ACDB_MLEADERSTYLE_CLASS
 90
     4095
280
     0
281
     0
  0
CLASS
  1
ACDBSECTIONVIEWSTYLE
  2
AcDbSectionViewStyle
  3
ObjectDBX Classes
 90
     1025
280
     0
281
     0
  0
CLASS
  1
ACDBDETAILVIEWSTYLE
  2
AcDbDetailViewStyle
  3
ObjectDBX Classes
 90
     1025
280
     0
281
     0
  0
CLASS
  1
CELLSTYLEMAP
  2
AcDbCellStyleMap
  3
ObjectDBX Classes
 90
     1152
280
     0
281
     0
  0
ENDSEC
  0
SECTION
  2
TABLES
  0
TABLE
  2
VPORT
  5
B4E9
330
0
100
AcDbSymbolTable
 70
     1
  0
VPORT
  5
B885
330
B4E9
100
AcDbSymbolTableRecord
100
AcDbViewportTableRecord
  2
*ACTIVE
 70
     0
 10
0.0
 20
0.0
 11
1.0
 21
1.0
 12
470.6284829933371
 22
222.5539868082314
 13
0.0
 23
0.0
 14
10.0
 24
10.0
 15
10.0
 25
10.0
 16
0.0
 26
0.0
 36
1.0
 17
0.0
 27
0.0
 37
0.0
 40
429.901191500587
 41
1.899603698811096
 42
50.0
 43
0.0
 44
0.0
 50
0.0
 51
0.0
 71
     0
 72
   100
 73
     1
 74
     0
 75
     0
 76
     0
 77
     0
 78
     0
281
     0
 65
     1
110
0.0
120
0.0
130
0.0
111
1.0
121
0.0
131
0.0
112
0.0
122
1.0
132
0.0
 79
     0
146
0.0
1001
ACAD_NAV_VCDISPLAY
1070
     3
  0
ENDTAB
  0
TABLE
  2
LTYPE
  5
B4E6
330
0
100
AcDbSymbolTable
 70
     4
  0
LTYPE
  5
B4F4
330
B4E6
100
AcDbSymbolTableRecord
100
AcDbLinetypeTableRecord
  2
BYBLOCK
 70
     0
  3

 72
    65
 73
     0
 40
0.0
  0
LTYPE
  5
B4F5
330
B4E6
100
AcDbSymbolTableRecord
100
AcDbLinetypeTableRecord
  2
BYLAYER
 70
     0
  3

 72
    65
 73
     0
 40
0.0
  0
LTYPE
  5
B4F6
330
B4E6
100
AcDbSymbolTableRecord
100
AcDbLinetypeTableRecord
  2
CONTINUOUS
 70
     0
  3
Solid line
 72
    65
 73
     0
 40
0.0
  0
LTYPE
  5
B504
330
B4E6
100
AcDbSymbolTableRecord
100
AcDbLinetypeTableRecord
  2
DASHED
 70
     0
  3
__ __ __ __ __ __ __ __ __ __ __ __ __ __ __ __
 72
    65
 73
     2
 40
0.75
 49
0.5
 74
     0
 49
-0.25
 74
     0
  0
LTYPE
  5
B505
330
B4E6
100
AcDbSymbolTableRecord
100
AcDbLinetypeTableRecord
  2
CENTER
 70
     0
  3
____ _ ____ _ ____ _ ____ _ ____ _ ____ _ ____ 
 72
    65
 73
     4
 40
2.0
 49
1.25
 74
     0
 49
-0.25
 74
     0
 49
0.25
 74
     0
 49
-0.25
 74
     0
  0
LTYPE
  5
B506
330
B4E6
100
AcDbSymbolTableRecord
100
AcDbLinetypeTableRecord
  2
PHANTOM
 70
     0
  3
______  __  __  ______  __  __  ______  __  __ 
 72
    65
 73
     6
 40
2.5
 49
1.25
 74
     0
 49
-0.25
 74
     0
 49
0.25
 74
     0
 49
-0.25
 74
     0
 49
0.25
 74
     0
 49
-0.25
 74
     0
  0
ENDTAB
  0
TABLE
  2
LAYER
  5
B4E3
330
0
100
AcDbSymbolTable
 70
     8
  0
LAYER
  5
B4F1
102
{ACAD_XDICTIONARY
360
B8E0
102
}
330
B4E3
100
AcDbSymbolTableRecord
100
AcDbLayerTableRecord
  2
0
 70
     0
 62
     7
  6
CONTINUOUS
370
    -3
390
B88E
  0
LAYER
  5
B507
102
{ACAD_XDICTIONARY
360
B8E2
102
}
330
B4E3
100
AcDbSymbolTableRecord
100
AcDbLayerTableRecord
  2
4
 70
     0
 62
     1
  6
CENTER
370
    -3
390
B88E
  0
LAYER
  5
B508
102
{ACAD_XDICTIONARY
360
B8E4
102
}
330
B4E3
100
AcDbSymbolTableRecord
100
AcDbLayerTableRecord
  2
5
 70
     0
 62
     6
  6
PHANTOM
370
    -3
390
B88E
  0
LAYER
  5
B509
102
{ACAD_XDICTIONARY
360
B8E6
102
}
330
B4E3
100
AcDbSymbolTableRecord
100
AcDbLayerTableRecord
  2
1
 70
     0
 62
     7
  6
CONTINUOUS
370
    -3
390
B88E
  0
LAYER
  5
B50A
102
{ACAD_XDICTIONARY
360
B8E8
102
}
330
B4E3
100
AcDbSymbolTableRecord
100
AcDbLayerTableRecord
  2
2
 70
     0
 62
     4
  6
CONTINUOUS
370
    -3
390
B88E
  0
LAYER
  5
B50B
102
{ACAD_XDICTIONARY
360
B8EA
102
}
330
B4E3
100
AcDbSymbolTableRecord
100
AcDbLayerTableRecord
  2
3
 70
     0
 62
     2
  6
DASHED
370
    -3
390
B88E
  0
LAYER
  5
B50C
102
{ACAD_XDICTIONARY
360
B8EC
102
}
330
B4E3
100
AcDbSymbolTableRecord
100
AcDbLayerTableRecord
  2
6
 70
     0
 62
     5
  6
CONTINUOUS
370
    -3
390
B88E
  0
LAYER
  5
B50D
102
{ACAD_XDICTIONARY
360
B8EE
102
}
330
B4E3
100
AcDbSymbolTableRecord
100
AcDbLayerTableRecord
  2
7
 70
     0
 62
     3
  6
CONTINUOUS
370
    -3
390
B88E
  0
ENDTAB
  0
TABLE
  2
STYLE
  5
B4E4
330
0
100
AcDbSymbolTable
 70
     1
  0
STYLE
  5
B4F2
330
B4E4
100
AcDbSymbolTableRecord
100
AcDbTextStyleTableRecord
  2
STANDARD
 70
     0
 40
0.0
 41
1.0
 50
0.0
 71
     0
 42
5.0
  3
txt
  4

  0
ENDTAB
  0
TABLE
  2
VIEW
  5
B4E7
330
0
100
AcDbSymbolTable
 70
     0
  0
ENDTAB
  0
TABLE
  2
UCS
  5
B4E8
330
0
100
AcDbSymbolTable
 70
     0
  0
ENDTAB
  0
TABLE
  2
APPID
  5
B4EA
330
0
100
AcDbSymbolTable
 70
     3
  0
APPID
  5
B4F3
330
B4EA
100
AcDbSymbolTableRecord
100
AcDbRegAppTableRecord
  2
ACAD
 70
     0
  0
APPID
  5
B8FA
330
B4EA
100
AcDbSymbolTableRecord
100
AcDbRegAppTableRecord
  2
ACAD_NAV_VCDISPLAY
 70
     0
  0
APPID
  5
B933
330
B4EA
100
AcDbSymbolTableRecord
100
AcDbRegAppTableRecord
  2
ACAD_MLEADERVER
 70
     0
  0
ENDTAB
  0
TABLE
  2
DIMSTYLE
  5
B4EB
330
0
100
AcDbSymbolTable
 70
     1
100
AcDbDimStyleTable
 71
     0
  0
DIMSTYLE
105
B50F
330
B4EB
100
AcDbSymbolTableRecord
100
AcDbDimStyleTableRecord
  2
STANDARD
 70
     0
 41
2.5
 42
1.0
 43
10.0
 44
1.0
 73
     0
 74
     0
 77
     3
 78
     8
140
3.2
141
0.0
147
1.0
172
     1
173
     1
284
     8
285
     8
286
     8
340
B4F2
  0
ENDTAB
  0
TABLE
  2
BLOCK_RECORD
  5
B4E2
330
0
100
AcDbSymbolTable
 70
     1
  0
BLOCK_RECORD
  5
B4FF
102
{ACAD_XDICTIONARY
360
B888
102
}
330
B4E2
100
AcDbSymbolTableRecord
100
AcDbBlockTableRecord
  2
*MODEL_SPACE
340
B8DC
  0
BLOCK_RECORD
  5
B4FB
102
{ACAD_XDICTIONARY
360
B886
102
}
330
B4E2
100
AcDbSymbolTableRecord
100
AcDbBlockTableRecord
  2
*PAPER_SPACE
340
B8DD
  0
BLOCK_RECORD
  5
B517
330
B4E2
100
AcDbSymbolTableRecord
100
AcDbBlockTableRecord
  2
_OPEN
340
0
  0
ENDTAB
  0
ENDSEC
  0
SECTION
  2
BLOCKS
  0
BLOCK
  5
B500
330
B4FF
100
AcDbEntity
  8
0
100
AcDbBlockBegin
  2
*MODEL_SPACE
 70
     0
 10
0.0
 20
0.0
 30
0.0
  3
*MODEL_SPACE
  1

  0
ENDBLK
  5
B501
330
B4FF
100
AcDbEntity
  8
0
100
AcDbBlockEnd
  0
BLOCK
  5
B4FC
330
B4FB
100
AcDbEntity
 67
     1
  8
0
100
AcDbBlockBegin
  2
*PAPER_SPACE
 70
     0
 10
0.0
 20
0.0
 30
0.0
  3
*PAPER_SPACE
  1

  0
ENDBLK
  5
B4FD
330
B4FB
100
AcDbEntity
 67
     1
  8
0
100
AcDbBlockEnd
  0
BLOCK
  5
B518
330
B517
100
AcDbEntity
  8
0
100
AcDbBlockBegin
  2
_OPEN
 70
     0
 10
0.0
 20
0.0
 30
0.0
  3
_OPEN
  1

  0
LINE
  5
B519
330
B517
100
AcDbEntity
  8
0
  6
ByBlock
 62
     0
100
AcDbLine
 10
-1.0
 20
0.166667
 30
0.0
 11
0.0
 21
0.0
 31
0.0
  0
LINE
  5
B51A
330
B517
100
AcDbEntity
  8
0
  6
ByBlock
 62
     0
100
AcDbLine
 10
0.0
 20
0.0
 30
0.0
 11
-1.0
 21
-0.166667
 31
0.0
  0
LINE
  5
B51B
330
B517
100
AcDbEntity
  8
0
  6
ByBlock
 62
     0
100
AcDbLine
 10
0.0
 20
0.0
 30
0.0
 11
-1.0
 21
0.0
 31
0.0
  0
ENDBLK
  5
B51C
330
B517
100
AcDbEntity
  8
0
100
AcDbBlockEnd
  0
ENDSEC
  0
SECTION
  2
ENTITIES
  0
ARC
  5
B51D
330
B4FF
100
AcDbEntity
  8
1
  6
Continuous
100
AcDbCircle
 10
511.446763
 20
265.921676
 30
0.0
 40
1.3
100
AcDbArc
 50
95.0
 51
164.119
  0
ARC
  5
B51E
330
B4FF
100
AcDbEntity
  8
1
  6
Continuous
100
AcDbCircle
 10
511.446763
 20
261.7076759999998
 30
0.0
 40
1.3
100
AcDbArc
 50
195.8809999999998
 51
265.0
  0
LINE
  5
B51F
330
B4FF
100
AcDbEntity
  8
4
  6
CENTER
100
AcDbLine
 10
506.853763
 20
263.8146759999999
 30
0.0
 11
515.950663
 21
263.8146759999999
 31
0.0
  0
ARC
  5
B520
330
B4FF
100
AcDbEntity
  8
1
  6
Continuous
100
AcDbCircle
 10
511.446763
 20
219.707718
 30
0.0
 40
1.3
100
AcDbArc
 50
195.8809999999998
 51
265.0
  0
ARC
  5
B521
330
B4FF
100
AcDbEntity
  8
1
  6
Continuous
100
AcDbCircle
 10
511.446763
 20
223.921718
 30
0.0
 40
1.3
100
AcDbArc
 50
95.0
 51
164.119
  0
LINE
  5
B522
330
B4FF
100
AcDbEntity
  8
4
  6
CENTER
100
AcDbLine
 10
506.853763
 20
221.814718
 30
0.0
 11
515.808163
 21
221.814718
 31
0.0
  0
LINE
  5
B523
330
B4FF
100
AcDbEntity
  8
4
  6
CENTER
100
AcDbLine
 10
510.453763
 20
242.814718
 30
0.0
 11
535.453763
 21
242.814718
 31
0.0
  0
ARC
  5
B524
330
B4FF
100
AcDbEntity
  8
1
  6
Continuous
100
AcDbCircle
 10
207.8396469999999
 20
176.8516179999998
 30
0.0
 40
1.0
100
AcDbArc
 50
271.0529999999998
 51
0.0
  0
ARC
  5
B525
330
B4FF
100
AcDbEntity
  8
1
  6
Continuous
100
AcDbCircle
 10
232.339947
 20
177.802018
 30
0.0
 40
1.5
100
AcDbArc
 50
271.0529999999998
 51
0.0
  0
LINE
  5
B526
330
B4FF
100
AcDbEntity
  8
1
  6
Continuous
100
AcDbLine
 10
60.774647
 20
291.4213179999999
 30
0.0
 11
60.774647
 21
171.814718
 31
0.0
  0
LINE
  5
B527
330
B4FF
100
AcDbEntity
  8
1
  6
Continuous
100
AcDbLine
 10
38.77464699999999
 20
291.4213179999999
 30
0.0
 11
38.77464699999999
 21
171.814718
 31
0.0
  0
LINE
  5
B528
330
B4FF
100
AcDbEntity
  8
1
  6
Continuous
100
AcDbLine
 10
200.839647
 20
308.314718
 30
0.0
 11
200.839647
 21
175.314718
 31
0.0
  0
LINE
  5
B529
330
B4FF
100
AcDbEntity
  8
1
  6
Continuous
100
AcDbLine
 10
203.339647
 20
312.814718
 30
0.0
 11
203.339647
 21
170.814718
 31
0.0
  0
LINE
  5
B52A
330
B4FF
100
AcDbEntity
  8
1
  6
Continuous
100
AcDbLine
 10
206.8396469999999
 20
312.814718
 30
0.0
 11
206.8396469999999
 21
170.814718
 31
0.0
  0
LINE
  5
B52B
330
B4FF
100
AcDbEntity
  8
1
  6
Continuous
100
AcDbLine
 10
206.8396469999999
 20
175.8330179999999
 30
0.0
 11
232.367547
 21
176.3023179999999
 31
0.0
  0
LINE
  5
B52C
330
B4FF
100
AcDbEntity
  8
1
  6
Continuous
100
AcDbLine
 10
61.02464699999998
 20
278.4376179999999
 30
0.0
 11
61.02464699999998
 21
170.814718
 31
0.0
  0
LINE
  5
B52D
330
B4FF
100
AcDbEntity
  8
1
  6
Continuous
100
AcDbLine
 10
38.52464699999997
 20
278.4376179999999
 30
0.0
 11
38.52464699999997
 21
170.814718
 31
0.0
  0
LINE
  5
B52E
330
B4FF
100
AcDbEntity
  8
4
  6
CENTER
100
AcDbLine
 10
49.77464699999998
 20
315.814718
 30
0.0
 11
49.77464699999998
 21
163.8147179999999
 31
0.0
  0
LINE
  5
B52F
330
B4FF
100
AcDbEntity
  8
1
  6
Continuous
100
AcDbLine
 10
205.8396469999999
 20
312.814718
 30
0.0
 11
205.8396469999999
 21
170.814718
 31
0.0
  0
LINE
  5
B530
330
B4FF
100
AcDbEntity
  8
1
  6
Continuous
100
AcDbLine
 10
69.774647
 20
308.814718
 30
0.0
 11
69.774647
 21
174.814718
 31
0.0
  0
LINE
  5
B531
330
B4FF
100
AcDbEntity
  8
1
  6
Continuous
100
AcDbLine
 10
29.774647
 20
308.814718
 30
0.0
 11
29.774647
 21
174.814718
 31
0.0
  0
TEXT
  5
B532
330
B4FF
100
AcDbEntity
  8
7
  6
Continuous
100
AcDbText
 10
10.0
 20
26.0
 30
0.0
 40
3.0
  1
CODE No.3571
100
AcDbText
  0
TEXT
  5
B533
330
B4FF
100
AcDbEntity
  8
7
  6
Continuous
100
AcDbText
 10
10.0
 20
18.0
 30
0.0
 40
3.0
  1
TYPE No.THA-302J-2
100
AcDbText
  0
TEXT
  5
B534
330
B4FF
100
AcDbEntity
  8
1
  6
Continuous
100
AcDbText
 10
10.0
 20
10.0
 30
0.0
 40
1.399999999999999
  1
LAYER
100
AcDbText
  0
TEXT
  5
B535
330
B4FF
100
AcDbEntity
  8
5
  6
PHANTOM
100
AcDbText
 10
25.97951099999999
 20
10.04873699999998
 30
0.0
 40
1.399999999999999
  1
5
100
AcDbText
  0
TEXT
  5
B536
330
B4FF
100
AcDbEntity
  8
6
  6
Continuous
100
AcDbText
 10
27.979511
 20
10.04873699999998
 30
0.0
 40
1.399999999999999
  1
6
100
AcDbText
  0
TEXT
  5
B537
330
B4FF
100
AcDbEntity
  8
2
  6
Continuous
100
AcDbText
 10
19.97951099999999
 20
10.04873699999998
 30
0.0
 40
1.399999999999999
  1
2
100
AcDbText
  0
TEXT
  5
B538
330
B4FF
100
AcDbEntity
  8
3
  6
DASHED
100
AcDbText
 10
21.979511
 20
10.04873699999998
 30
0.0
 40
1.399999999999999
  1
3
100
AcDbText
  0
TEXT
  5
B539
330
B4FF
100
AcDbEntity
  8
4
  6
CENTER
100
AcDbText
 10
23.97951099999999
 20
10.04873699999998
 30
0.0
 40
1.399999999999999
  1
4
100
AcDbText
  0
TEXT
  5
B53A
330
B4FF
100
AcDbEntity
  8
7
  6
Continuous
100
AcDbText
 10
29.97951099999999
 20
10.04873699999998
 30
0.0
 40
1.399999999999999
  1
7
100
AcDbText
  0
TEXT
  5
B53B
330
B4FF
100
AcDbEntity
  8
1
  6
Continuous
100
AcDbText
 10
17.97951099999998
 20
10.04873699999998
 30
0.0
 40
1.399999999999999
  1
1
100
AcDbText
  0
LINE
  5
B53C
330
B4FF
100
AcDbEntity
  8
1
  6
Continuous
100
AcDbLine
 10
33.77464699999999
 20
170.814718
 30
0.0
 11
65.774647
 21
170.814718
 31
0.0
  0
LINE
  5
B53D
330
B4FF
100
AcDbEntity
  8
1
  6
Continuous
100
AcDbLine
 10
61.02464699999998
 20
175.3146179999999
 30
0.0
 11
66.911647
 21
172.286718
 31
0.0
  0
ARC
  5
B53E
330
B4FF
100
AcDbEntity
  8
1
  6
Continuous
100
AcDbCircle
 10
33.77464699999999
 20
174.814718
 30
0.0
 40
4.0
100
AcDbArc
 50
180.0
 51
270.0
  0
LINE
  5
B53F
330
B4FF
100
AcDbEntity
  8
5
  6
PHANTOM
100
AcDbLine
 10
38.77464699999999
 20
166.814718
 30
0.0
 11
60.774647
 21
166.814718
 31
0.0
  0
LINE
  5
B540
330
B4FF
100
AcDbEntity
  8
1
  6
Continuous
100
AcDbLine
 10
39.21564699999999
 20
175.314718
 30
0.0
 11
60.497647
 21
175.314718
 31
0.0
  0
LINE
  5
B541
330
B4FF
100
AcDbEntity
  8
5
  6
PHANTOM
100
AcDbLine
 10
38.77464699999999
 20
170.814718
 30
0.0
 11
38.77464699999999
 21
166.814718
 31
0.0
  0
ARC
  5
B542
330
B4FF
100
AcDbEntity
  8
1
  6
Continuous
100
AcDbCircle
 10
39.77464699999997
 20
171.814718
 30
0.0
 40
1.0
100
AcDbArc
 50
180.0
 51
270.0
  0
LINE
  5
B543
330
B4FF
100
AcDbEntity
  8
1
  6
Continuous
100
AcDbLine
 10
38.52464699999997
 20
175.314718
 30
0.0
 11
32.34464699999998
 21
172.1364179999999
 31
0.0
  0
LINE
  5
B544
330
B4FF
100
AcDbEntity
  8
5
  6
PHANTOM
100
AcDbLine
 10
60.774647
 20
170.814718
 30
0.0
 11
60.774647
 21
166.814718
 31
0.0
  0
ARC
  5
B545
330
B4FF
100
AcDbEntity
  8
1
  6
Continuous
100
AcDbCircle
 10
59.77464699999998
 20
171.814718
 30
0.0
 40
1.0
100
AcDbArc
 50
270.0
 51
0.0
  0
ARC
  5
B546
330
B4FF
100
AcDbEntity
  8
1
  6
Continuous
100
AcDbCircle
 10
65.774647
 20
174.814718
 30
0.0
 40
4.0
100
AcDbArc
 50
270.0
 51
0.0
  0
LINE
  5
B547
330
B4FF
100
AcDbEntity
  8
1
  6
Continuous
100
AcDbLine
 10
203.339647
 20
89.104127
 30
0.0
 11
200.839647
 21
80.354127
 31
0.0
  0
LINE
  5
B548
330
B4FF
100
AcDbEntity
  8
1
  6
Continuous
100
AcDbLine
 10
205.8396469999999
 20
89.104127
 30
0.0
 11
205.8396469999999
 21
49.10412700000001
 31
0.0
  0
LINE
  5
B549
330
B4FF
100
AcDbEntity
  8
1
  6
Continuous
100
AcDbLine
 10
206.8396469999999
 20
89.104127
 30
0.0
 11
206.8396469999999
 21
49.10412700000001
 31
0.0
  0
LINE
  5
B54A
330
B4FF
100
AcDbEntity
  8
1
  6
Continuous
100
AcDbLine
 10
203.339647
 20
89.104127
 30
0.0
 11
203.339647
 21
49.10412700000001
 31
0.0
  0
LINE
  5
B54B
330
B4FF
100
AcDbEntity
  8
1
  6
Continuous
100
AcDbLine
 10
206.8396469999999
 20
55.10412699999999
 30
0.0
 11
232.339647
 21
55.10412699999999
 31
0.0
  0
LINE
  5
B54C
330
B4FF
100
AcDbEntity
  8
1
  6
Continuous
100
AcDbLine
 10
206.8396469999999
 20
83.104127
 30
0.0
 11
232.339647
 21
83.104127
 31
0.0
  0
ARC
  5
B54D
330
B4FF
100
AcDbEntity
  8
1
  6
Continuous
100
AcDbCircle
 10
223.339647
 20
84.604127
 30
0.0
 40
1.0
100
AcDbArc
 50
0.0
 51
90.0
  0
ARC
  5
B54E
330
B4FF
100
AcDbEntity
  8
1
  6
Continuous
100
AcDbCircle
 10
223.339647
 20
53.60412700000001
 30
0.0
 40
1.0
100
AcDbArc
 50
270.0
 51
0.0
  0
LINE
  5
B54F
330
B4FF
100
AcDbEntity
  8
4
  6
CENTER
100
AcDbLine
 10
197.272403
 20
69.10412700000001
 30
0.0
 11
245.391554
 21
69.10412700000001
 31
0.0
  0
LINE
  5
B550
330
B4FF
100
AcDbEntity
  8
1
  6
Continuous
100
AcDbLine
 10
200.839647
 20
80.354127
 30
0.0
 11
200.839647
 21
57.85412700000001
 31
0.0
  0
ARC
  5
B551
330
B4FF
100
AcDbEntity
  8
1
  6
Continuous
100
AcDbCircle
 10
300.2724029999999
 20
69.10412700000001
 30
0.0
 40
100.0
100
AcDbArc
 50
174.730718
 51
185.269282
  0
LINE
  5
B552
330
B4FF
100
AcDbEntity
  8
1
  6
Continuous
100
AcDbLine
 10
206.8396469999999
 20
52.60412699999999
 30
0.0
 11
223.339647
 21
52.60412699999999
 31
0.0
  0
ARC
  5
B553
330
B4FF
100
AcDbEntity
  8
1
  6
Continuous
100
AcDbCircle
 10
202.6865439999999
 20
60.10412699999999
 30
0.0
 40
2.0
100
AcDbArc
 50
185.269282
 51
202.564484
  0
LINE
  5
B554
330
B4FF
100
AcDbEntity
  8
1
  6
Continuous
100
AcDbLine
 10
203.339647
 20
49.10412700000001
 30
0.0
 11
206.8396469999999
 21
49.10412700000001
 31
0.0
  0
LINE
  5
B555
330
B4FF
100
AcDbEntity
  8
1
  6
Continuous
100
AcDbLine
 10
200.839647
 20
57.85412700000001
 30
0.0
 11
203.339647
 21
49.10412700000001
 31
0.0
  0
LINE
  5
B556
330
B4FF
100
AcDbEntity
  8
1
  6
Continuous
100
AcDbLine
 10
206.8396469999999
 20
85.604127
 30
0.0
 11
223.339647
 21
85.604127
 31
0.0
  0
ARC
  5
B557
330
B4FF
100
AcDbEntity
  8
1
  6
Continuous
100
AcDbCircle
 10
202.6865439999999
 20
78.104127
 30
0.0
 40
2.0
100
AcDbArc
 50
157.4355159999998
 51
174.730718
  0
LINE
  5
B558
330
B4FF
100
AcDbEntity
  8
1
  6
Continuous
100
AcDbLine
 10
233.839647
 20
81.604127
 30
0.0
 11
233.839647
 21
56.60412700000001
 31
0.0
  0
LINE
  5
B559
330
B4FF
100
AcDbEntity
  8
1
  6
Continuous
100
AcDbLine
 10
240.839947
 20
76.175127
 30
0.0
 11
240.839947
 21
62.033127
 31
0.0
  0
LINE
  5
B55A
330
B4FF
100
AcDbEntity
  8
2
  6
Continuous
100
AcDbLine
 10
240.839947
 20
69.10412700000001
 30
0.0
 11
236.839947
 21
62.369841
 31
0.0
  0
LINE
  5
B55B
330
B4FF
100
AcDbEntity
  8
2
  6
Continuous
100
AcDbLine
 10
236.839947
 20
68.767413
 30
0.0
 11
240.839947
 21
62.033127
 31
0.0
  0
LINE
  5
B55C
330
B4FF
100
AcDbEntity
  8
1
  6
Continuous
100
AcDbLine
 10
234.639947
 20
82.104127
 30
0.0
 11
234.639947
 21
56.10412700000001
 31
0.0
  0
LINE
  5
B55D
330
B4FF
100
AcDbEntity
  8
1
  6
Continuous
100
AcDbLine
 10
234.839947
 20
56.10412700000001
 30
0.0
 11
234.839947
 21
80.36242699999998
 31
0.0
  0
LINE
  5
B55E
330
B4FF
100
AcDbEntity
  8
1
  6
Continuous
100
AcDbLine
 10
236.839947
 20
56.10412700000001
 30
0.0
 11
236.839947
 21
80.36242699999998
 31
0.0
  0
LINE
  5
B55F
330
B4FF
100
AcDbEntity
  8
1
  6
Continuous
100
AcDbLine
 10
236.839947
 20
62.033127
 30
0.0
 11
240.839947
 21
62.033127
 31
0.0
  0
ARC
  5
B560
330
B4FF
100
AcDbEntity
  8
1
  6
Continuous
100
AcDbCircle
 10
232.339647
 20
56.60412700000001
 30
0.0
 40
1.5
100
AcDbArc
 50
270.0
 51
0.0
  0
LINE
  5
B561
330
B4FF
100
AcDbEntity
  8
1
  6
Continuous
100
AcDbLine
 10
224.3396469999999
 20
55.10412699999999
 30
0.0
 11
224.3396469999999
 21
53.60412700000001
 31
0.0
  0
LINE
  5
B562
330
B4FF
100
AcDbEntity
  8
1
  6
Continuous
100
AcDbLine
 10
234.839947
 20
56.10412700000001
 30
0.0
 11
236.839947
 21
56.10412700000001
 31
0.0
  0
ARC
  5
B563
330
B4FF
100
AcDbEntity
  8
1
  6
Continuous
100
AcDbCircle
 10
233.6399469999999
 20
56.10412700000001
 30
0.0
 40
1.0
100
AcDbArc
 50
270.0
 51
0.0
  0
LINE
  5
B564
330
B4FF
100
AcDbEntity
  8
1
  6
Continuous
100
AcDbLine
 10
234.639947
 20
61.904127
 30
0.0
 11
234.839947
 21
61.904127
 31
0.0
  0
LINE
  5
B565
330
B4FF
100
AcDbEntity
  8
1
  6
Continuous
100
AcDbLine
 10
224.3396469999999
 20
55.10412699999999
 30
0.0
 11
233.6399469999999
 21
55.10412699999999
 31
0.0
  0
LINE
  5
B566
330
B4FF
100
AcDbEntity
  8
1
  6
Continuous
100
AcDbLine
 10
223.5755109999999
 20
52.632341
 30
0.0
 11
233.875811
 21
55.132341
 31
0.0
  0
LINE
  5
B567
330
B4FF
100
AcDbEntity
  8
1
  6
Continuous
100
AcDbLine
 10
236.839947
 20
76.175127
 30
0.0
 11
240.839947
 21
76.175127
 31
0.0
  0
LINE
  5
B568
330
B4FF
100
AcDbEntity
  8
1
  6
Continuous
100
AcDbLine
 10
236.839947
 20
69.10412700000001
 30
0.0
 11
240.839947
 21
69.10412700000001
 31
0.0
  0
LINE
  5
B569
330
B4FF
100
AcDbEntity
  8
2
  6
Continuous
100
AcDbLine
 10
236.839947
 20
75.838413
 30
0.0
 11
240.839947
 21
69.10412700000001
 31
0.0
  0
LINE
  5
B56A
330
B4FF
100
AcDbEntity
  8
2
  6
Continuous
100
AcDbLine
 10
240.839947
 20
76.175127
 30
0.0
 11
236.839947
 21
69.44084100000001
 31
0.0
  0
LINE
  5
B56B
330
B4FF
100
AcDbEntity
  8
1
  6
Continuous
100
AcDbLine
 10
233.839647
 20
68.104127
 30
0.0
 11
234.639947
 21
68.104127
 31
0.0
  0
LINE
  5
B56C
330
B4FF
100
AcDbEntity
  8
1
  6
Continuous
100
AcDbLine
 10
233.839647
 20
70.104127
 30
0.0
 11
234.639947
 21
70.104127
 31
0.0
  0
ARC
  5
B56D
330
B4FF
100
AcDbEntity
  8
1
  6
Continuous
100
AcDbCircle
 10
232.339647
 20
81.604127
 30
0.0
 40
1.5
100
AcDbArc
 50
0.0
 51
90.0
  0
LINE
  5
B56E
330
B4FF
100
AcDbEntity
  8
1
  6
Continuous
100
AcDbLine
 10
234.639947
 20
76.30412699999998
 30
0.0
 11
234.839947
 21
76.30412699999998
 31
0.0
  0
ARC
  5
B56F
330
B4FF
100
AcDbEntity
  8
1
  6
Continuous
100
AcDbCircle
 10
233.6399469999999
 20
82.104127
 30
0.0
 40
1.0
100
AcDbArc
 50
0.0
 51
90.0
  0
LINE
  5
B570
330
B4FF
100
AcDbEntity
  8
1
  6
Continuous
100
AcDbLine
 10
224.3396469999999
 20
83.104127
 30
0.0
 11
233.6399469999999
 21
83.104127
 31
0.0
  0
LINE
  5
B571
330
B4FF
100
AcDbEntity
  8
1
  6
Continuous
100
AcDbLine
 10
223.5755109999999
 20
85.575913
 30
0.0
 11
233.875811
 21
83.075913
 31
0.0
  0
LINE
  5
B572
330
B4FF
100
AcDbEntity
  8
1
  6
Continuous
100
AcDbLine
 10
234.839947
 20
80.36242699999998
 30
0.0
 11
236.839947
 21
80.36242699999998
 31
0.0
  0
LINE
  5
B573
330
B4FF
100
AcDbEntity
  8
1
  6
Continuous
100
AcDbLine
 10
224.3396469999999
 20
84.604127
 30
0.0
 11
224.3396469999999
 21
83.104127
 31
0.0
  0
LINE
  5
B574
330
B4FF
100
AcDbEntity
  8
1
  6
Continuous
100
AcDbLine
 10
203.339647
 20
89.104127
 30
0.0
 11
206.8396469999999
 21
89.104127
 31
0.0
  0
LINE
  5
B575
330
B4FF
100
AcDbEntity
  8
1
  6
Continuous
100
AcDbLine
 10
200.839647
 20
175.314718
 30
0.0
 11
203.339647
 21
170.814718
 31
0.0
  0
LINE
  5
B576
330
B4FF
100
AcDbEntity
  8
1
  6
Continuous
100
AcDbLine
 10
203.339647
 20
170.814718
 30
0.0
 11
206.8396469999999
 21
170.814718
 31
0.0
  0
LINE
  5
B577
330
B4FF
100
AcDbEntity
  8
5
  6
PHANTOM
100
AcDbLine
 10
48.16804699999998
 20
278.814718
 30
0.0
 11
130.7746469999998
 21
278.814718
 31
0.0
  0
LINE
  5
B578
330
B4FF
100
AcDbEntity
  8
5
  6
PHANTOM
100
AcDbLine
 10
48.16804699999998
 20
300.814718
 30
0.0
 11
130.7746469999998
 21
300.814718
 31
0.0
  0
LINE
  5
B579
330
B4FF
100
AcDbEntity
  8
4
  6
CENTER
100
AcDbLine
 10
26.77464699999999
 20
289.814718
 30
0.0
 11
136.2746469999999
 21
289.814718
 31
0.0
  0
LINE
  5
B57A
330
B4FF
100
AcDbEntity
  8
1
  6
Continuous
100
AcDbLine
 10
74.774547
 20
269.8146779999999
 30
0.0
 11
74.774547
 21
215.814718
 31
0.0
  0
LINE
  5
B57B
330
B4FF
100
AcDbEntity
  8
1
  6
Continuous
100
AcDbLine
 10
24.774647
 20
269.8146779999999
 30
0.0
 11
24.774647
 21
215.814718
 31
0.0
  0
LINE
  5
B57C
330
B4FF
100
AcDbEntity
  8
1
  6
Continuous
100
AcDbLine
 10
27.77464699999999
 20
212.814718
 30
0.0
 11
29.774647
 21
212.814718
 31
0.0
  0
ARC
  5
B57D
330
B4FF
100
AcDbEntity
  8
1
  6
Continuous
100
AcDbCircle
 10
27.77464699999999
 20
215.814718
 30
0.0
 40
3.0
100
AcDbArc
 50
180.0
 51
270.0
  0
ARC
  5
B57E
330
B4FF
100
AcDbEntity
  8
1
  6
Continuous
100
AcDbCircle
 10
49.77464699999998
 20
218.064718
 30
0.0
 40
30.0
100
AcDbArc
 50
248.49
 51
291.5099999999998
  0
ARC
  5
B57F
330
B4FF
100
AcDbEntity
  8
1
  6
Continuous
100
AcDbCircle
 10
49.77464699999998
 20
217.394818
 30
0.0
 40
30.0
100
AcDbArc
 50
248.49
 51
291.5099999999998
  0
LINE
  5
B580
330
B4FF
100
AcDbEntity
  8
1
  6
Continuous
100
AcDbLine
 10
49.77464699999998
 20
180.314718
 30
0.0
 11
44.77464699999997
 21
183.3146179999999
 31
0.0
  0
LINE
  5
B581
330
B4FF
100
AcDbEntity
  8
1
  6
Continuous
100
AcDbLine
 10
44.77464699999997
 20
183.314718
 30
0.0
 11
54.77464699999998
 21
183.314718
 31
0.0
  0
LINE
  5
B582
330
B4FF
100
AcDbEntity
  8
1
  6
Continuous
100
AcDbLine
 10
54.77464699999998
 20
183.314718
 30
0.0
 11
49.77464699999998
 21
180.314718
 31
0.0
  0
LINE
  5
B583
330
B4FF
100
AcDbEntity
  8
1
  6
Continuous
100
AcDbLine
 10
38.77464699999999
 20
205.814718
 30
0.0
 11
60.774647
 21
205.814718
 31
0.0
  0
LINE
  5
B584
330
B4FF
100
AcDbEntity
  8
1
  6
Continuous
100
AcDbLine
 10
58.274647
 20
206.314718
 30
0.0
 11
41.27464699999999
 21
206.314718
 31
0.0
  0
ARC
  5
B585
330
B4FF
100
AcDbEntity
  8
1
  6
Continuous
100
AcDbCircle
 10
41.27464699999999
 20
208.8147179999999
 30
0.0
 40
2.5
100
AcDbArc
 50
180.0
 51
270.0
  0
ARC
  5
B586
330
B4FF
100
AcDbEntity
  8
1
  6
Continuous
100
AcDbCircle
 10
58.274647
 20
208.8147179999999
 30
0.0
 40
2.5
100
AcDbArc
 50
270.0
 51
0.0
  0
LINE
  5
B587
330
B4FF
100
AcDbEntity
  8
1
  6
Continuous
100
AcDbLine
 10
69.774647
 20
212.814718
 30
0.0
 11
71.774547
 21
212.814718
 31
0.0
  0
ARC
  5
B588
330
B4FF
100
AcDbEntity
  8
1
  6
Continuous
100
AcDbCircle
 10
71.774547
 20
215.814718
 30
0.0
 40
3.0
100
AcDbArc
 50
270.0
 51
0.0
  0
ARC
  5
B589
330
B4FF
100
AcDbEntity
  8
1
  6
Continuous
100
AcDbCircle
 10
49.77464699999998
 20
289.814718
 30
0.0
 40
16.0
100
AcDbArc
 50
313.4329999999998
 51
225.0689999999999
  0
LINE
  5
B58A
330
B4FF
100
AcDbEntity
  8
1
  6
Continuous
100
AcDbLine
 10
60.233647
 20
307.9079179999999
 30
0.0
 11
66.734647
 21
311.251318
 31
0.0
  0
LINE
  5
B58B
330
B4FF
100
AcDbEntity
  8
1
  6
Continuous
100
AcDbLine
 10
33.77464699999999
 20
312.814718
 30
0.0
 11
65.774647
 21
312.814718
 31
0.0
  0
ARC
  5
B58C
330
B4FF
100
AcDbEntity
  8
1
  6
Continuous
100
AcDbCircle
 10
40.52464699999997
 20
306.314718
 30
0.0
 40
2.0
100
AcDbArc
 50
90.0
 51
180.0
  0
ARC
  5
B58D
330
B4FF
100
AcDbEntity
  8
1
  6
Continuous
100
AcDbCircle
 10
59.02464699999999
 20
306.314718
 30
0.0
 40
2.0
100
AcDbArc
 50
0.0
 51
90.0
  0
LINE
  5
B58E
330
B4FF
100
AcDbEntity
  8
1
  6
Continuous
100
AcDbLine
 10
32.84664699999999
 20
311.234618
 30
0.0
 11
39.315647
 21
307.9079179999999
 31
0.0
  0
LINE
  5
B58F
330
B4FF
100
AcDbEntity
  8
1
  6
Continuous
100
AcDbLine
 10
27.77464699999999
 20
272.8146779999998
 30
0.0
 11
29.774647
 21
272.8146779999998
 31
0.0
  0
ARC
  5
B590
330
B4FF
100
AcDbEntity
  8
1
  6
Continuous
100
AcDbCircle
 10
27.77464699999999
 20
269.8146779999999
 30
0.0
 40
3.0
100
AcDbArc
 50
90.0
 51
180.0
  0
LINE
  5
B591
330
B4FF
100
AcDbEntity
  8
1
  6
Continuous
100
AcDbLine
 10
38.47464699999999
 20
301.1421179999999
 30
0.0
 11
38.47464699999999
 21
278.487318
 31
0.0
  0
LINE
  5
B592
330
B4FF
100
AcDbEntity
  8
1
  6
Continuous
100
AcDbLine
 10
61.074647
 20
301.1421179999999
 30
0.0
 11
61.074647
 21
278.487318
 31
0.0
  0
LINE
  5
B593
330
B4FF
100
AcDbEntity
  8
1
  6
Continuous
100
AcDbLine
 10
40.77464699999999
 20
293.421318
 30
0.0
 11
58.77464699999999
 21
293.421318
 31
0.0
  0
LINE
  5
B594
330
B4FF
100
AcDbEntity
  8
1
  6
Continuous
100
AcDbLine
 10
45.06664699999999
 20
290.899918
 30
0.0
 11
54.536647
 21
290.899918
 31
0.0
  0
ARC
  5
B595
330
B4FF
100
AcDbEntity
  8
1
  6
Continuous
100
AcDbCircle
 10
40.77464699999999
 20
291.4213179999999
 30
0.0
 40
2.0
100
AcDbArc
 50
90.0
 51
180.0
  0
ARC
  5
B596
330
B4FF
100
AcDbEntity
  8
1
  6
Continuous
100
AcDbCircle
 10
40.77464699999999
 20
288.899918
 30
0.0
 40
2.0
100
AcDbArc
 50
90.0
 51
180.0
  0
LINE
  5
B597
330
B4FF
100
AcDbEntity
  8
1
  6
Continuous
100
AcDbLine
 10
40.77464699999999
 20
290.899918
 30
0.0
 11
44.17164699999999
 21
290.899918
 31
0.0
  0
LINE
  5
B598
330
B4FF
100
AcDbEntity
  8
1
  6
Continuous
100
AcDbLine
 10
38.52464699999997
 20
306.314718
 30
0.0
 11
38.52464699999997
 21
301.1917179999999
 31
0.0
  0
ARC
  5
B599
330
B4FF
100
AcDbEntity
  8
1
  6
Continuous
100
AcDbCircle
 10
58.77464699999999
 20
291.4213179999999
 30
0.0
 40
2.0
100
AcDbArc
 50
0.0
 51
90.0
  0
ARC
  5
B59A
330
B4FF
100
AcDbEntity
  8
1
  6
Continuous
100
AcDbCircle
 10
58.77464699999999
 20
288.899918
 30
0.0
 40
2.0
100
AcDbArc
 50
0.0
 51
90.0
  0
LINE
  5
B59B
330
B4FF
100
AcDbEntity
  8
1
  6
Continuous
100
AcDbLine
 10
55.580647
 20
290.899918
 30
0.0
 11
58.77464699999999
 21
290.899918
 31
0.0
  0
LINE
  5
B59C
330
B4FF
100
AcDbEntity
  8
1
  6
Continuous
100
AcDbLine
 10
61.02464699999998
 20
306.314718
 30
0.0
 11
61.02464699999998
 21
301.1917179999999
 31
0.0
  0
ARC
  5
B59D
330
B4FF
100
AcDbEntity
  8
1
  6
Continuous
100
AcDbCircle
 10
33.77464699999999
 20
308.814718
 30
0.0
 40
4.0
100
AcDbArc
 50
90.0
 51
180.0
  0
LINE
  5
B59E
330
B4FF
100
AcDbEntity
  8
1
  6
Continuous
100
AcDbLine
 10
40.52464699999997
 20
308.314718
 30
0.0
 11
59.02464699999999
 21
308.314718
 31
0.0
  0
LINE
  5
B59F
330
B4FF
100
AcDbEntity
  8
1
  6
Continuous
100
AcDbLine
 10
69.774647
 20
272.8146779999998
 30
0.0
 11
71.774547
 21
272.8146779999998
 31
0.0
  0
ARC
  5
B5A0
330
B4FF
100
AcDbEntity
  8
1
  6
Continuous
100
AcDbCircle
 10
71.774547
 20
269.8146779999999
 30
0.0
 40
3.0
100
AcDbArc
 50
0.0
 51
90.0
  0
ARC
  5
B5A1
330
B4FF
100
AcDbEntity
  8
1
  6
Continuous
100
AcDbCircle
 10
65.774647
 20
308.814718
 30
0.0
 40
4.0
100
AcDbArc
 50
0.0
 51
90.0
  0
LINE
  5
B5A2
330
B4FF
100
AcDbEntity
  8
1
  6
Continuous
100
AcDbLine
 10
217.339647
 20
282.818618
 30
0.0
 11
217.339647
 21
238.814718
 31
0.0
  0
LINE
  5
B5A3
330
B4FF
100
AcDbEntity
  8
1
  6
Continuous
100
AcDbLine
 10
200.439947
 20
290.071518
 30
0.0
 11
200.439947
 21
207.3147179999998
 31
0.0
  0
LINE
  5
B5A4
330
B4FF
100
AcDbEntity
  8
1
  6
Continuous
100
AcDbLine
 10
208.8396469999999
 20
284.928718
 30
0.0
 11
208.8396469999999
 21
176.8516179999998
 31
0.0
  0
LINE
  5
B5A5
330
B4FF
100
AcDbEntity
  8
1
  6
Continuous
100
AcDbLine
 10
223.839647
 20
267.3146779999999
 30
0.0
 11
223.839647
 21
260.3146779999998
 31
0.0
  0
LINE
  5
B5A6
330
B4FF
100
AcDbEntity
  8
5
  6
PHANTOM
100
AcDbLine
 10
200.2727029999999
 20
289.676195
 30
0.0
 11
193.7391399999999
 21
208.2476329999999
 31
0.0
  0
LINE
  5
B5A7
330
B4FF
100
AcDbEntity
  8
5
  6
PHANTOM
100
AcDbLine
 10
202.0737679999998
 20
294.5135379999999
 30
0.0
 11
144.3100819999999
 21
236.7497549999999
 31
0.0
  0
LINE
  5
B5A8
330
B4FF
100
AcDbEntity
  8
5
  6
PHANTOM
100
AcDbLine
 10
201.664433
 20
280.8102039999998
 30
0.0
 11
160.4252469999998
 21
239.571118
 31
0.0
  0
LINE
  5
B5A9
330
B4FF
100
AcDbEntity
  8
5
  6
PHANTOM
100
AcDbLine
 10
160.793247
 20
230.0396179999999
 30
0.0
 11
156.929247
 21
226.1750179999999
 31
0.0
  0
ARC
  5
B5AA
330
B4FF
100
AcDbEntity
  8
5
  6
PHANTOM
100
AcDbCircle
 10
163.2542469999999
 20
236.742718
 30
0.0
 40
4.0
100
AcDbArc
 50
135.0
 51
210.0
  0
LINE
  5
B5AB
330
B4FF
100
AcDbEntity
  8
5
  6
PHANTOM
100
AcDbLine
 10
150.5646449999999
 20
229.71071
 30
0.0
 11
154.100247
 21
226.1750179999999
 31
0.0
  0
ARC
  5
B5AC
330
B4FF
100
AcDbEntity
  8
5
  6
PHANTOM
100
AcDbCircle
 10
155.5142469999998
 20
227.589318
 30
0.0
 40
2.0
100
AcDbArc
 50
225.0
 51
315.0
  0
LINE
  5
B5AD
330
B4FF
100
AcDbEntity
  8
5
  6
PHANTOM
100
AcDbLine
 10
150.5646449999999
 20
229.71071
 30
0.0
 11
144.34863
 21
235.29899
 31
0.0
  0
ARC
  5
B5AE
330
B4FF
100
AcDbEntity
  8
5
  6
PHANTOM
100
AcDbCircle
 10
145.017189
 20
236.042649
 30
0.0
 40
1.0
100
AcDbArc
 50
135.000048
 51
228.044044
  0
ARC
  5
B5AF
330
B4FF
100
AcDbEntity
  8
5
  6
PHANTOM
100
AcDbCircle
 10
159.3792469999999
 20
231.453818
 30
0.0
 40
2.0
100
AcDbArc
 50
315.0
 51
30.0
  0
LINE
  5
B5B0
330
B4FF
100
AcDbEntity
  8
5
  6
PHANTOM
100
AcDbLine
 10
159.790247
 20
234.742718
 30
0.0
 11
161.1112469999999
 21
232.453818
 31
0.0
  0
LINE
  5
B5B1
330
B4FF
100
AcDbEntity
  8
1
  6
Continuous
100
AcDbLine
 10
218.839647
 20
237.814718
 30
0.0
 11
218.839647
 21
218.314718
 31
0.0
  0
LINE
  5
B5B2
330
B4FF
100
AcDbEntity
  8
1
  6
Continuous
100
AcDbLine
 10
223.839647
 20
225.314718
 30
0.0
 11
223.839647
 21
218.314718
 31
0.0
  0
ARC
  5
B5B3
330
B4FF
100
AcDbEntity
  8
1
  6
Continuous
100
AcDbCircle
 10
223.339647
 20
218.314718
 30
0.0
 40
0.5
100
AcDbArc
 50
270.0
 51
0.0
  0
LINE
  5
B5B4
330
B4FF
100
AcDbEntity
  8
1
  6
Continuous
100
AcDbLine
 10
221.839647
 20
208.314718
 30
0.0
 11
232.339947
 21
208.314718
 31
0.0
  0
ARC
  5
B5B5
330
B4FF
100
AcDbEntity
  8
1
  6
Continuous
100
AcDbCircle
 10
201.4399469999999
 20
207.3147179999998
 30
0.0
 40
1.0
100
AcDbArc
 50
180.0
 51
233.108613
  0
LINE
  5
B5B6
330
B4FF
100
AcDbEntity
  8
5
  6
PHANTOM
100
AcDbLine
 10
200.839947
 20
207.002824
 30
0.0
 11
194.709003
 21
207.168016
 31
0.0
  0
ARC
  5
B5B7
330
B4FF
100
AcDbEntity
  8
5
  6
PHANTOM
100
AcDbCircle
 10
194.735937
 20
208.167653
 30
0.0
 40
1.0
100
AcDbArc
 50
175.412601
 51
268.456596
  0
ARC
  5
B5B8
330
B4FF
100
AcDbEntity
  8
1
  6
Continuous
100
AcDbCircle
 10
219.339647
 20
218.314718
 30
0.0
 40
0.5
100
AcDbArc
 50
180.0
 51
270.0
  0
ARC
  5
B5B9
330
B4FF
100
AcDbEntity
  8
1
  6
Continuous
100
AcDbCircle
 10
221.839647
 20
208.8147179999999
 30
0.0
 40
0.5
100
AcDbArc
 50
180.0
 51
270.0
  0
ARC
  5
B5BA
330
B4FF
100
AcDbEntity
  8
1
  6
Continuous
100
AcDbCircle
 10
221.839647
 20
217.314718
 30
0.0
 40
0.5
100
AcDbArc
 50
90.0
 51
180.0
  0
LINE
  5
B5BB
330
B4FF
100
AcDbEntity
  8
1
  6
Continuous
100
AcDbLine
 10
221.339647
 20
217.314718
 30
0.0
 11
221.339647
 21
208.8147179999999
 31
0.0
  0
LINE
  5
B5BC
330
B4FF
100
AcDbEntity
  8
1
  6
Continuous
100
AcDbLine
 10
219.339647
 20
217.814718
 30
0.0
 11
223.339647
 21
217.814718
 31
0.0
  0
LINE
  5
B5BD
330
B4FF
100
AcDbEntity
  8
1
  6
Continuous
100
AcDbLine
 10
233.839947
 20
206.8147179999999
 30
0.0
 11
233.839947
 21
177.802018
 31
0.0
  0
LINE
  5
B5BE
330
B4FF
100
AcDbEntity
  8
4
  6
CENTER
100
AcDbLine
 10
230.559247
 20
193.3147179999999
 30
0.0
 11
237.463747
 21
193.3147179999999
 31
0.0
  0
ARC
  5
B5BF
330
B4FF
100
AcDbEntity
  8
1
  6
Continuous
100
AcDbCircle
 10
232.339947
 20
206.8147179999999
 30
0.0
 40
1.5
100
AcDbArc
 50
0.0
 51
90.0
  0
ARC
  5
B5C0
330
B4FF
100
AcDbEntity
  8
1
  6
Continuous
100
AcDbCircle
 10
223.339647
 20
260.3146779999998
 30
0.0
 40
0.5
100
AcDbArc
 50
270.0
 51
0.0
  0
ARC
  5
B5C1
330
B4FF
100
AcDbEntity
  8
1
  6
Continuous
100
AcDbCircle
 10
223.339647
 20
225.314718
 30
0.0
 40
0.5
100
AcDbArc
 50
0.0
 51
90.0
  0
LINE
  5
B5C2
330
B4FF
100
AcDbEntity
  8
4
  6
CENTER
100
AcDbLine
 10
216.9776469999999
 20
221.814718
 30
0.0
 11
227.3086469999999
 21
221.814718
 31
0.0
  0
LINE
  5
B5C3
330
B4FF
100
AcDbEntity
  8
4
  6
CENTER
100
AcDbLine
 10
218.3106469999999
 20
263.8146759999999
 30
0.0
 11
227.642647
 21
263.8146759999999
 31
0.0
  0
LINE
  5
B5C4
330
B4FF
100
AcDbEntity
  8
1
  6
Continuous
100
AcDbLine
 10
221.339647
 20
259.3146779999999
 30
0.0
 11
221.339647
 21
226.314718
 31
0.0
  0
ARC
  5
B5C5
330
B4FF
100
AcDbEntity
  8
1
  6
Continuous
100
AcDbCircle
 10
217.839647
 20
238.814718
 30
0.0
 40
0.5
100
AcDbArc
 50
180.0
 51
270.0
  0
ARC
  5
B5C6
330
B4FF
100
AcDbEntity
  8
1
  6
Continuous
100
AcDbCircle
 10
218.339647
 20
237.814718
 30
0.0
 40
0.5
100
AcDbArc
 50
0.0
 51
90.0
  0
ARC
  5
B5C7
330
B4FF
100
AcDbEntity
  8
1
  6
Continuous
100
AcDbCircle
 10
219.339647
 20
226.314718
 30
0.0
 40
0.5
100
AcDbArc
 50
180.0
 51
270.0
  0
ARC
  5
B5C8
330
B4FF
100
AcDbEntity
  8
1
  6
Continuous
100
AcDbCircle
 10
221.839647
 20
226.314718
 30
0.0
 40
0.5
100
AcDbArc
 50
180.0
 51
270.0
  0
LINE
  5
B5C9
330
B4FF
100
AcDbEntity
  8
1
  6
Continuous
100
AcDbLine
 10
217.839647
 20
238.314718
 30
0.0
 11
218.339647
 21
238.314718
 31
0.0
  0
LINE
  5
B5CA
330
B4FF
100
AcDbEntity
  8
1
  6
Continuous
100
AcDbLine
 10
219.339647
 20
225.814718
 30
0.0
 11
223.339647
 21
225.814718
 31
0.0
  0
ARC
  5
B5CB
330
B4FF
100
AcDbEntity
  8
1
  6
Continuous
100
AcDbCircle
 10
221.839647
 20
259.3146779999999
 30
0.0
 40
0.5
100
AcDbArc
 50
90.0
 51
180.0
  0
ARC
  5
B5CC
330
B4FF
100
AcDbEntity
  8
1
  6
Continuous
100
AcDbCircle
 10
217.839647
 20
259.3146779999999
 30
0.0
 40
0.5
100
AcDbArc
 50
90.0
 51
180.0
  0
LINE
  5
B5CD
330
B4FF
100
AcDbEntity
  8
1
  6
Continuous
100
AcDbLine
 10
217.839647
 20
259.8146779999999
 30
0.0
 11
223.339647
 21
259.8146779999999
 31
0.0
  0
LINE
  5
B5CE
330
B4FF
100
AcDbEntity
  8
5
  6
PHANTOM
100
AcDbLine
 10
133.2746469999999
 20
298.314718
 30
0.0
 11
133.2746469999999
 21
281.3147180000001
 31
0.0
  0
ARC
  5
B5CF
330
B4FF
100
AcDbEntity
  8
5
  6
PHANTOM
100
AcDbCircle
 10
130.7746469999998
 20
281.3147180000001
 30
0.0
 40
2.5
100
AcDbArc
 50
270.0
 51
0.0
  0
ARC
  5
B5D0
330
B4FF
100
AcDbEntity
  8
5
  6
PHANTOM
100
AcDbCircle
 10
130.7746469999998
 20
298.314718
 30
0.0
 40
2.5
100
AcDbArc
 50
0.0
 51
90.0
  0
ARC
  5
B5D1
330
B4FF
100
AcDbEntity
  8
1
  6
Continuous
100
AcDbCircle
 10
207.8396469999999
 20
306.814718
 30
0.0
 40
1.0
100
AcDbArc
 50
0.0
 51
90.0
  0
ARC
  5
B5D2
330
B4FF
100
AcDbEntity
  8
1
  6
Continuous
100
AcDbCircle
 10
223.339647
 20
267.3146779999999
 30
0.0
 40
0.5
100
AcDbArc
 50
0.0
 51
90.0
  0
LINE
  5
B5D3
330
B4FF
100
AcDbEntity
  8
1
  6
Continuous
100
AcDbLine
 10
208.8396469999999
 20
306.0647180000001
 30
0.0
 11
224.3396469999999
 21
306.0647180000001
 31
0.0
  0
LINE
  5
B5D4
330
B4FF
100
AcDbEntity
  8
1
  6
Continuous
100
AcDbLine
 10
217.839647
 20
273.5646779999999
 30
0.0
 11
224.3396469999999
 21
273.5646779999999
 31
0.0
  0
LINE
  5
B5D5
330
B4FF
100
AcDbEntity
  8
4
  6
CENTER
100
AcDbLine
 10
194.807647
 20
289.814718
 30
0.0
 11
245.137646
 21
289.814718
 31
0.0
  0
ARC
  5
B5D6
330
B4FF
100
AcDbEntity
  8
1
  6
Continuous
100
AcDbCircle
 10
129.7976469999998
 20
289.814718
 30
0.0
 40
72.42839999999998
100
AcDbArc
 50
348.774
 51
11.2257
  0
ARC
  5
B5D7
330
B4FF
100
AcDbEntity
  8
1
  6
Continuous
100
AcDbCircle
 10
221.839647
 20
273.0646779999998
 30
0.0
 40
0.5
100
AcDbArc
 50
90.0
 51
180.0
  0
ARC
  5
B5D8
330
B4FF
100
AcDbEntity
  8
1
  6
Continuous
100
AcDbCircle
 10
221.839647
 20
268.3146779999999
 30
0.0
 40
0.5
100
AcDbArc
 50
180.0
 51
270.0
  0
ARC
  5
B5D9
330
B4FF
100
AcDbEntity
  8
1
  6
Continuous
100
AcDbCircle
 10
217.839647
 20
268.3146779999999
 30
0.0
 40
0.5
100
AcDbArc
 50
180.0
 51
270.0
  0
ARC
  5
B5DA
330
B4FF
100
AcDbEntity
  8
1
  6
Continuous
100
AcDbCircle
 10
217.839647
 20
273.0646779999998
 30
0.0
 40
0.5
100
AcDbArc
 50
90.0
 51
180.0
  0
LINE
  5
B5DB
330
B4FF
100
AcDbEntity
  8
1
  6
Continuous
100
AcDbLine
 10
208.8396469999999
 20
282.818618
 30
0.0
 11
217.339647
 21
282.818618
 31
0.0
  0
LINE
  5
B5DC
330
B4FF
100
AcDbEntity
  8
1
  6
Continuous
100
AcDbLine
 10
217.839647
 20
267.8146779999999
 30
0.0
 11
223.339647
 21
267.8146779999999
 31
0.0
  0
LINE
  5
B5DD
330
B4FF
100
AcDbEntity
  8
1
  6
Continuous
100
AcDbLine
 10
221.339647
 20
273.0646779999998
 30
0.0
 11
221.339647
 21
268.3146779999999
 31
0.0
  0
LINE
  5
B5DE
330
B4FF
100
AcDbEntity
  8
1
  6
Continuous
100
AcDbLine
 10
206.8396469999999
 20
307.8147180000001
 30
0.0
 11
207.8396469999999
 21
307.8147180000001
 31
0.0
  0
ARC
  5
B5DF
330
B4FF
100
AcDbEntity
  8
1
  6
Continuous
100
AcDbCircle
 10
202.439947
 20
290.071518
 30
0.0
 40
2.0
100
AcDbArc
 50
143.1444289999998
 51
180.0
  0
LINE
  5
B5E0
330
B4FF
100
AcDbEntity
  8
1
  6
Continuous
100
AcDbLine
 10
208.8396469999999
 20
306.814718
 30
0.0
 11
208.8396469999999
 21
293.4235179999999
 31
0.0
  0
LINE
  5
B5E1
330
B4FF
100
AcDbEntity
  8
1
  6
Continuous
100
AcDbLine
 10
234.839947
 20
276.814718
 30
0.0
 11
234.839947
 21
298.5615179999999
 31
0.0
  0
LINE
  5
B5E2
330
B4FF
100
AcDbEntity
  8
2
  6
Continuous
100
AcDbLine
 10
236.839947
 20
289.4779989999999
 30
0.0
 11
240.839947
 21
282.743618
 31
0.0
  0
LINE
  5
B5E3
330
B4FF
100
AcDbEntity
  8
2
  6
Continuous
100
AcDbLine
 10
240.839947
 20
289.814718
 30
0.0
 11
236.839947
 21
283.0803369999998
 31
0.0
  0
LINE
  5
B5E4
330
B4FF
100
AcDbEntity
  8
1
  6
Continuous
100
AcDbLine
 10
240.839947
 20
296.885718
 30
0.0
 11
240.839947
 21
282.743618
 31
0.0
  0
LINE
  5
B5E5
330
B4FF
100
AcDbEntity
  8
1
  6
Continuous
100
AcDbLine
 10
236.839947
 20
301.073034
 30
0.0
 11
236.839947
 21
276.814718
 31
0.0
  0
LINE
  5
B5E6
330
B4FF
100
AcDbEntity
  8
1
  6
Continuous
100
AcDbLine
 10
234.639947
 20
300.6400179999999
 30
0.0
 11
234.639947
 21
278.0148179999998
 31
0.0
  0
LINE
  5
B5E7
330
B4FF
100
AcDbEntity
  8
1
  6
Continuous
100
AcDbLine
 10
224.3396469999999
 20
306.0647180000001
 30
0.0
 11
224.3396469999999
 21
273.5646779999999
 31
0.0
  0
LINE
  5
B5E8
330
B4FF
100
AcDbEntity
  8
1
  6
Continuous
100
AcDbLine
 10
236.839947
 20
282.743618
 30
0.0
 11
240.839947
 21
282.743618
 31
0.0
  0
LINE
  5
B5E9
330
B4FF
100
AcDbEntity
  8
1
  6
Continuous
100
AcDbLine
 10
234.639947
 20
282.6147179999999
 30
0.0
 11
234.839947
 21
282.6147179999999
 31
0.0
  0
ARC
  5
B5EA
330
B4FF
100
AcDbEntity
  8
1
  6
Continuous
100
AcDbCircle
 10
233.6399469999999
 20
278.314718
 30
0.0
 40
1.0
100
AcDbArc
 50
270.0
 51
0.0
  0
ARC
  5
B5EB
330
B4FF
100
AcDbEntity
  8
1
  6
Continuous
100
AcDbCircle
 10
233.6399469999999
 20
278.0148179999998
 30
0.0
 40
1.0
100
AcDbArc
 50
290.0049999999998
 51
0.0
  0
LINE
  5
B5EC
330
B4FF
100
AcDbEntity
  8
1
  6
Continuous
100
AcDbLine
 10
234.839947
 20
284.8147180000001
 30
0.0
 11
236.839947
 21
284.8147180000001
 31
0.0
  0
LINE
  5
B5ED
330
B4FF
100
AcDbEntity
  8
1
  6
Continuous
100
AcDbLine
 10
234.839947
 20
283.564718
 30
0.0
 11
236.839947
 21
283.564718
 31
0.0
  0
LINE
  5
B5EE
330
B4FF
100
AcDbEntity
  8
1
  6
Continuous
100
AcDbLine
 10
234.839947
 20
276.814718
 30
0.0
 11
236.839947
 21
276.814718
 31
0.0
  0
LINE
  5
B5EF
330
B4FF
100
AcDbEntity
  8
1
  6
Continuous
100
AcDbLine
 10
224.3396469999999
 20
277.314718
 30
0.0
 11
233.6399469999999
 21
277.314718
 31
0.0
  0
LINE
  5
B5F0
330
B4FF
100
AcDbEntity
  8
1
  6
Continuous
100
AcDbLine
 10
233.9820469999999
 20
277.0751179999999
 30
0.0
 11
224.3396469999999
 21
273.5646779999999
 31
0.0
  0
LINE
  5
B5F1
330
B4FF
100
AcDbEntity
  8
1
  6
Continuous
100
AcDbLine
 10
236.839947
 20
289.814718
 30
0.0
 11
240.839947
 21
289.814718
 31
0.0
  0
LINE
  5
B5F2
330
B4FF
100
AcDbEntity
  8
2
  6
Continuous
100
AcDbLine
 10
236.839947
 20
296.549004
 30
0.0
 11
240.839947
 21
289.814718
 31
0.0
  0
LINE
  5
B5F3
330
B4FF
100
AcDbEntity
  8
2
  6
Continuous
100
AcDbLine
 10
240.839947
 20
296.885718
 30
0.0
 11
236.839947
 21
290.151432
 31
0.0
  0
LINE
  5
B5F4
330
B4FF
100
AcDbEntity
  8
1
  6
Continuous
100
AcDbLine
 10
236.839947
 20
296.885718
 30
0.0
 11
240.839947
 21
296.885718
 31
0.0
  0
LINE
  5
B5F5
330
B4FF
100
AcDbEntity
  8
1
  6
Continuous
100
AcDbLine
 10
234.639947
 20
297.014718
 30
0.0
 11
234.839947
 21
297.014718
 31
0.0
  0
LINE
  5
B5F6
330
B4FF
100
AcDbEntity
  8
1
  6
Continuous
100
AcDbLine
 10
236.639947
 20
298.5615179999999
 30
0.0
 11
236.639947
 21
303.314718
 31
0.0
  0
LINE
  5
B5F7
330
B4FF
100
AcDbEntity
  8
1
  6
Continuous
100
AcDbLine
 10
236.839947
 20
299.8147180000001
 30
0.0
 11
236.639947
 21
299.8147180000001
 31
0.0
  0
LINE
  5
B5F8
330
B4FF
100
AcDbEntity
  8
1
  6
Continuous
100
AcDbLine
 10
236.839947
 20
301.073034
 30
0.0
 11
236.639947
 21
301.073034
 31
0.0
  0
ARC
  5
B5F9
330
B4FF
100
AcDbEntity
  8
1
  6
Continuous
100
AcDbCircle
 10
236.139947
 20
303.314718
 30
0.0
 40
0.5
100
AcDbArc
 50
0.0
 51
90.0
  0
LINE
  5
B5FA
330
B4FF
100
AcDbEntity
  8
1
  6
Continuous
100
AcDbLine
 10
224.3396469999999
 20
288.814718
 30
0.0
 11
234.639947
 21
288.814718
 31
0.0
  0
LINE
  5
B5FB
330
B4FF
100
AcDbEntity
  8
1
  6
Continuous
100
AcDbLine
 10
224.3396469999999
 20
290.814718
 30
0.0
 11
234.639947
 21
290.814718
 31
0.0
  0
LINE
  5
B5FC
330
B4FF
100
AcDbEntity
  8
1
  6
Continuous
100
AcDbLine
 10
224.3396469999999
 20
306.0647180000001
 30
0.0
 11
230.519947
 21
303.8147180000001
 31
0.0
  0
LINE
  5
B5FD
330
B4FF
100
AcDbEntity
  8
1
  6
Continuous
100
AcDbLine
 10
224.3396469999999
 20
300.6400179999999
 30
0.0
 11
234.639947
 21
300.6400179999999
 31
0.0
  0
LINE
  5
B5FE
330
B4FF
100
AcDbEntity
  8
1
  6
Continuous
100
AcDbLine
 10
224.3396469999999
 20
302.314718
 30
0.0
 11
236.639947
 21
302.314718
 31
0.0
  0
LINE
  5
B5FF
330
B4FF
100
AcDbEntity
  8
1
  6
Continuous
100
AcDbLine
 10
234.639947
 20
298.5615179999999
 30
0.0
 11
236.639947
 21
298.5615179999999
 31
0.0
  0
LINE
  5
B600
330
B4FF
100
AcDbEntity
  8
1
  6
Continuous
100
AcDbLine
 10
224.3396469999999
 20
303.8147180000001
 30
0.0
 11
236.139947
 21
303.8147180000001
 31
0.0
  0
LINE
  5
B601
330
B4FF
100
AcDbEntity
  8
1
  6
Continuous
100
AcDbLine
 10
203.339647
 20
312.814718
 30
0.0
 11
200.839647
 21
308.314718
 31
0.0
  0
LINE
  5
B602
330
B4FF
100
AcDbEntity
  8
1
  6
Continuous
100
AcDbLine
 10
203.339647
 20
312.814718
 30
0.0
 11
206.8396469999999
 21
312.814718
 31
0.0
  0
ARC
  5
B603
330
B4FF
100
AcDbEntity
  8
1
  6
Continuous
100
AcDbCircle
 10
420.392905
 20
180.8147179999999
 30
0.0
 40
5.0
100
AcDbArc
 50
270.0
 51
0.0
  0
ARC
  5
B604
330
B4FF
100
AcDbEntity
  8
1
  6
Continuous
100
AcDbCircle
 10
397.3929049999999
 20
180.8147179999999
 30
0.0
 40
5.0
100
AcDbArc
 50
180.0
 51
270.0
  0
LINE
  5
B605
330
B4FF
100
AcDbEntity
  8
1
  6
Continuous
100
AcDbLine
 10
428.8928049999998
 20
212.814718
 30
0.0
 11
428.8928049999998
 21
174.814718
 31
0.0
  0
LINE
  5
B606
330
B4FF
100
AcDbEntity
  8
1
  6
Continuous
100
AcDbLine
 10
388.8929049999999
 20
212.814718
 30
0.0
 11
388.8929049999999
 21
174.814718
 31
0.0
  0
LINE
  5
B607
330
B4FF
100
AcDbEntity
  8
4
  6
CENTER
100
AcDbLine
 10
408.8929049999999
 20
315.814718
 30
0.0
 11
408.8929049999999
 21
163.8147179999999
 31
0.0
  0
ARC
  5
B608
330
B4FF
100
AcDbEntity
  8
1
  6
Continuous
100
AcDbCircle
 10
293.773027
 20
86.26312699999997
 30
0.0
 40
3.641
100
AcDbArc
 50
90.0
 51
153.211373
  0
ARC
  5
B609
330
B4FF
100
AcDbEntity
  8
1
  6
Continuous
100
AcDbCircle
 10
302.0320469999999
 20
85.604127
 30
0.0
 40
2.299999999999998
100
AcDbArc
 50
0.0
 51
90.0
  0
ARC
  5
B60A
330
B4FF
100
AcDbEntity
  8
1
  6
Continuous
100
AcDbCircle
 10
302.0320469999999
 20
85.604127
 30
0.0
 40
4.299999999999998
100
AcDbArc
 50
0.0
 51
90.0
  0
LINE
  5
B60B
330
B4FF
100
AcDbEntity
  8
1
  6
Continuous
100
AcDbLine
 10
285.3320469999999
 20
94.104127
 30
0.0
 11
285.3320469999999
 21
87.904127
 31
0.0
  0
LINE
  5
B60C
330
B4FF
100
AcDbEntity
  8
1
  6
Continuous
100
AcDbLine
 10
287.6320469999999
 20
94.104127
 30
0.0
 11
287.6320469999999
 21
87.904127
 31
0.0
  0
ARC
  5
B60D
330
B4FF
100
AcDbEntity
  8
1
  6
Continuous
100
AcDbCircle
 10
287.6320469999999
 20
87.904127
 30
0.0
 40
2.299999999999998
100
AcDbArc
 50
180.0
 51
270.0
  0
LINE
  5
B60E
330
B4FF
100
AcDbEntity
  8
1
  6
Continuous
100
AcDbLine
 10
285.3320469999999
 20
44.10412700000001
 30
0.0
 11
287.6320469999999
 21
44.10412700000001
 31
0.0
  0
ARC
  5
B60F
330
B4FF
100
AcDbEntity
  8
1
  6
Continuous
100
AcDbCircle
 10
287.6320469999999
 20
50.304127
 30
0.0
 40
2.299999999999998
100
AcDbArc
 50
90.0
 51
180.0
  0
LINE
  5
B610
330
B4FF
100
AcDbEntity
  8
1
  6
Continuous
100
AcDbLine
 10
267.882447
 20
63.00412699999998
 30
0.0
 11
267.882447
 21
75.204127
 31
0.0
  0
LINE
  5
B611
330
B4FF
100
AcDbEntity
  8
1
  6
Continuous
100
AcDbLine
 10
271.882447
 20
74.10412700000001
 30
0.0
 11
271.882447
 21
64.10412700000001
 31
0.0
  0
ARC
  5
B612
330
B4FF
100
AcDbEntity
  8
1
  6
Continuous
100
AcDbCircle
 10
264.6620469999999
 20
66.60412700000001
 30
0.0
 40
7.220389999999997
100
AcDbArc
 50
339.7419999999998
 51
20.2576
  0
ARC
  5
B613
330
B4FF
100
AcDbEntity
  8
1
  6
Continuous
100
AcDbCircle
 10
275.102847
 20
66.60412700000001
 30
0.0
 40
7.220389999999997
100
AcDbArc
 50
159.7419999999999
 51
200.258
  0
LINE
  5
B614
330
B4FF
100
AcDbEntity
  8
1
  6
Continuous
100
AcDbLine
 10
264.7824469999999
 20
80.10412700000001
 30
0.0
 11
264.7824469999999
 21
58.104127
 31
0.0
  0
LINE
  5
B615
330
B4FF
100
AcDbEntity
  8
1
  6
Continuous
100
AcDbLine
 10
262.7824469999999
 20
80.10412700000001
 30
0.0
 11
262.7824469999999
 21
58.104127
 31
0.0
  0
LINE
  5
B616
330
B4FF
100
AcDbEntity
  8
1
  6
Continuous
100
AcDbLine
 10
266.382447
 20
61.10412700000001
 30
0.0
 11
266.382447
 21
77.104127
 31
0.0
  0
LINE
  5
B617
330
B4FF
100
AcDbEntity
  8
1
  6
Continuous
100
AcDbLine
 10
271.882447
 20
64.10412700000001
 30
0.0
 11
267.882447
 21
64.10412700000001
 31
0.0
  0
LINE
  5
B618
330
B4FF
100
AcDbEntity
  8
1
  6
Continuous
100
AcDbLine
 10
264.7824469999999
 20
58.104127
 30
0.0
 11
262.7824469999999
 21
58.104127
 31
0.0
  0
LINE
  5
B619
330
B4FF
100
AcDbEntity
  8
1
  6
Continuous
100
AcDbLine
 10
267.882447
 20
63.00412699999998
 30
0.0
 11
266.382447
 21
63.00412699999998
 31
0.0
  0
LINE
  5
B61A
330
B4FF
100
AcDbEntity
  8
1
  6
Continuous
100
AcDbLine
 10
266.382447
 20
61.10412700000001
 30
0.0
 11
264.7824469999999
 21
61.10412700000001
 31
0.0
  0
LINE
  5
B61B
330
B4FF
100
AcDbEntity
  8
1
  6
Continuous
100
AcDbLine
 10
285.3320469999999
 20
50.304127
 30
0.0
 11
285.3320469999999
 21
44.10412700000001
 31
0.0
  0
LINE
  5
B61C
330
B4FF
100
AcDbEntity
  8
1
  6
Continuous
100
AcDbLine
 10
271.3368469999999
 20
69.10412700000001
 30
0.0
 11
268.329047
 21
69.10412700000001
 31
0.0
  0
LINE
  5
B61D
330
B4FF
100
AcDbEntity
  8
1
  6
Continuous
100
AcDbLine
 10
271.882447
 20
74.10412700000001
 30
0.0
 11
267.882447
 21
74.10412700000001
 31
0.0
  0
LINE
  5
B61E
330
B4FF
100
AcDbEntity
  8
4
  6
CENTER
100
AcDbLine
 10
274.715847
 20
69.10412700000001
 30
0.0
 11
259.7824469999999
 21
69.10412700000001
 31
0.0
  0
LINE
  5
B61F
330
B4FF
100
AcDbEntity
  8
1
  6
Continuous
100
AcDbLine
 10
267.882447
 20
69.10412700000001
 30
0.0
 11
266.382447
 21
67.604127
 31
0.0
  0
LINE
  5
B620
330
B4FF
100
AcDbEntity
  8
1
  6
Continuous
100
AcDbLine
 10
267.882447
 20
70.60412700000002
 30
0.0
 11
266.382447
 21
69.10412700000001
 31
0.0
  0
LINE
  5
B621
330
B4FF
100
AcDbEntity
  8
1
  6
Continuous
100
AcDbLine
 10
264.7824469999999
 20
80.10412700000001
 30
0.0
 11
262.7824469999999
 21
80.10412700000001
 31
0.0
  0
LINE
  5
B622
330
B4FF
100
AcDbEntity
  8
1
  6
Continuous
100
AcDbLine
 10
266.382447
 20
77.104127
 30
0.0
 11
264.7824469999999
 21
77.104127
 31
0.0
  0
LINE
  5
B623
330
B4FF
100
AcDbEntity
  8
1
  6
Continuous
100
AcDbLine
 10
267.882447
 20
75.204127
 30
0.0
 11
266.382447
 21
75.204127
 31
0.0
  0
ARC
  5
B624
330
B4FF
100
AcDbEntity
  8
1
  6
Continuous
100
AcDbCircle
 10
275.102847
 20
71.60412700000001
 30
0.0
 40
7.220389999999997
100
AcDbArc
 50
159.7419999999999
 51
200.258
  0
ARC
  5
B625
330
B4FF
100
AcDbEntity
  8
1
  6
Continuous
100
AcDbCircle
 10
264.6620469999999
 20
71.60412700000001
 30
0.0
 40
7.220389999999997
100
AcDbArc
 50
339.7419999999998
 51
20.2576
  0
LINE
  5
B626
330
B4FF
100
AcDbEntity
  8
1
  6
Continuous
100
AcDbLine
 10
307.332047
 20
72.90412899999998
 30
0.0
 11
307.332047
 21
65.304129
 31
0.0
  0
ARC
  5
B627
330
B4FF
100
AcDbEntity
  8
1
  6
Continuous
100
AcDbCircle
 10
308.3390469999998
 20
66.997127
 30
0.0
 40
1.3
100
AcDbArc
 50
275.0
 51
344.1190000000001
  0
LINE
  5
B628
330
B4FF
100
AcDbEntity
  8
1
  6
Continuous
100
AcDbLine
 10
306.3320469999999
 20
85.604127
 30
0.0
 11
306.3320469999999
 21
52.60412699999999
 31
0.0
  0
LINE
  5
B629
330
B4FF
100
AcDbEntity
  8
1
  6
Continuous
100
AcDbLine
 10
304.3320469999999
 20
85.604127
 30
0.0
 11
304.3320469999999
 21
52.60412699999999
 31
0.0
  0
LINE
  5
B62A
330
B4FF
100
AcDbEntity
  8
1
  6
Continuous
100
AcDbLine
 10
302.0320469999999
 20
85.604127
 30
0.0
 11
302.0320469999999
 21
52.60412699999999
 31
0.0
  0
ARC
  5
B62B
330
B4FF
100
AcDbEntity
  8
1
  6
Continuous
100
AcDbCircle
 10
302.0320469999999
 20
52.60412699999999
 30
0.0
 40
2.299999999999998
100
AcDbArc
 50
270.0
 51
0.0
  0
ARC
  5
B62C
330
B4FF
100
AcDbEntity
  8
1
  6
Continuous
100
AcDbCircle
 10
302.0320469999999
 20
52.60412699999999
 30
0.0
 40
4.299999999999998
100
AcDbArc
 50
270.0
 51
0.0
  0
ARC
  5
B62D
330
B4FF
100
AcDbEntity
  8
1
  6
Continuous
100
AcDbCircle
 10
293.773027
 20
51.945127
 30
0.0
 40
3.641
100
AcDbArc
 50
206.7886269999998
 51
270.0
  0
LINE
  5
B62E
330
B4FF
100
AcDbEntity
  8
1
  6
Continuous
100
AcDbLine
 10
287.6320469999999
 20
52.60412699999999
 30
0.0
 11
302.0320469999999
 21
52.60412699999999
 31
0.0
  0
LINE
  5
B62F
330
B4FF
100
AcDbEntity
  8
1
  6
Continuous
100
AcDbLine
 10
287.6320469999999
 20
50.304127
 30
0.0
 11
287.6320469999999
 21
44.10412700000001
 31
0.0
  0
LINE
  5
B630
330
B4FF
100
AcDbEntity
  8
1
  6
Continuous
100
AcDbLine
 10
287.6320469999999
 20
50.304127
 30
0.0
 11
302.0320469999999
 21
50.304127
 31
0.0
  0
LINE
  5
B631
330
B4FF
100
AcDbEntity
  8
1
  6
Continuous
100
AcDbLine
 10
293.773027
 20
48.304127
 30
0.0
 11
302.0320469999999
 21
48.304127
 31
0.0
  0
LINE
  5
B632
330
B4FF
100
AcDbEntity
  8
1
  6
Continuous
100
AcDbLine
 10
306.3320469999999
 20
65.304129
 30
0.0
 11
307.332047
 21
65.304129
 31
0.0
  0
LINE
  5
B633
330
B4FF
100
AcDbEntity
  8
1
  6
Continuous
100
AcDbLine
 10
308.466556
 20
65.703395
 30
0.0
 11
307.331047
 21
65.604127
 31
0.0
  0
LINE
  5
B634
330
B4FF
100
AcDbEntity
  8
4
  6
CENTER
100
AcDbLine
 10
298.0871
 20
69.10412700000001
 30
0.0
 11
312.932047
 21
69.10412700000001
 31
0.0
  0
LINE
  5
B635
330
B4FF
100
AcDbEntity
  8
1
  6
Continuous
100
AcDbLine
 10
287.6320469999999
 20
85.604127
 30
0.0
 11
302.0320469999999
 21
85.604127
 31
0.0
  0
LINE
  5
B636
330
B4FF
100
AcDbEntity
  8
1
  6
Continuous
100
AcDbLine
 10
287.6320469999999
 20
87.904127
 30
0.0
 11
302.0320469999999
 21
87.904127
 31
0.0
  0
LINE
  5
B637
330
B4FF
100
AcDbEntity
  8
1
  6
Continuous
100
AcDbLine
 10
306.3320469999999
 20
72.90412899999998
 30
0.0
 11
307.332047
 21
72.90412899999998
 31
0.0
  0
LINE
  5
B638
330
B4FF
100
AcDbEntity
  8
1
  6
Continuous
100
AcDbLine
 10
307.332047
 20
69.10412700000001
 30
0.0
 11
306.3320469999999
 21
68.104127
 31
0.0
  0
LINE
  5
B639
330
B4FF
100
AcDbEntity
  8
1
  6
Continuous
100
AcDbLine
 10
307.332047
 20
70.104127
 30
0.0
 11
306.3320469999999
 21
69.10412700000001
 31
0.0
  0
ARC
  5
B63A
330
B4FF
100
AcDbEntity
  8
1
  6
Continuous
100
AcDbCircle
 10
300.932047
 20
69.10412700000001
 30
0.0
 40
9.0
100
AcDbArc
 50
344.1190000000001
 51
15.88099999999999
  0
LINE
  5
B63B
330
B4FF
100
AcDbEntity
  8
1
  6
Continuous
100
AcDbLine
 10
308.452047
 20
72.50612700000002
 30
0.0
 11
307.332047
 21
72.604127
 31
0.0
  0
ARC
  5
B63C
330
B4FF
100
AcDbEntity
  8
1
  6
Continuous
100
AcDbCircle
 10
308.3390469999998
 20
71.21112700000002
 30
0.0
 40
1.3
100
AcDbArc
 50
15.88099999999999
 51
85.0
  0
LINE
  5
B63D
330
B4FF
100
AcDbEntity
  8
1
  6
Continuous
100
AcDbLine
 10
285.3320469999999
 20
94.104127
 30
0.0
 11
287.6320469999999
 21
94.104127
 31
0.0
  0
LINE
  5
B63E
330
B4FF
100
AcDbEntity
  8
1
  6
Continuous
100
AcDbLine
 10
293.773027
 20
89.904127
 30
0.0
 11
302.0320469999999
 21
89.904127
 31
0.0
  0
LINE
  5
B63F
330
B4FF
100
AcDbEntity
  8
5
  6
PHANTOM
100
AcDbLine
 10
397.8929049999999
 20
166.814718
 30
0.0
 11
419.892905
 21
166.814718
 31
0.0
  0
LINE
  5
B640
330
B4FF
100
AcDbEntity
  8
1
  6
Continuous
100
AcDbLine
 10
420.392905
 20
175.8147179999999
 30
0.0
 11
397.3929049999999
 21
175.8147179999999
 31
0.0
  0
LINE
  5
B641
330
B4FF
100
AcDbEntity
  8
1
  6
Continuous
100
AcDbLine
 10
424.892905
 20
170.814718
 30
0.0
 11
392.8929049999999
 21
170.814718
 31
0.0
  0
LINE
  5
B642
330
B4FF
100
AcDbEntity
  8
5
  6
PHANTOM
100
AcDbLine
 10
397.8929049999999
 20
170.814718
 30
0.0
 11
397.8929049999999
 21
166.814718
 31
0.0
  0
ARC
  5
B643
330
B4FF
100
AcDbEntity
  8
1
  6
Continuous
100
AcDbCircle
 10
392.8929049999999
 20
174.814718
 30
0.0
 40
4.0
100
AcDbArc
 50
180.0
 51
270.0
  0
LINE
  5
B644
330
B4FF
100
AcDbEntity
  8
5
  6
PHANTOM
100
AcDbLine
 10
419.892905
 20
170.814718
 30
0.0
 11
419.892905
 21
166.814718
 31
0.0
  0
ARC
  5
B645
330
B4FF
100
AcDbEntity
  8
1
  6
Continuous
100
AcDbCircle
 10
424.892905
 20
174.814718
 30
0.0
 40
4.0
100
AcDbArc
 50
270.0
 51
0.0
  0
LINE
  5
B646
330
B4FF
100
AcDbEntity
  8
5
  6
PHANTOM
100
AcDbLine
 10
388.8929049999999
 20
278.814718
 30
0.0
 11
327.8929049999999
 21
278.814718
 31
0.0
  0
LINE
  5
B647
330
B4FF
100
AcDbEntity
  8
5
  6
PHANTOM
100
AcDbLine
 10
388.8929049999999
 20
300.814718
 30
0.0
 11
327.8929049999999
 21
300.814718
 31
0.0
  0
LINE
  5
B648
330
B4FF
100
AcDbEntity
  8
4
  6
CENTER
100
AcDbLine
 10
431.8928049999998
 20
289.814718
 30
0.0
 11
322.3929049999999
 21
289.814718
 31
0.0
  0
ARC
  5
B649
330
B4FF
100
AcDbEntity
  8
1
  6
Continuous
100
AcDbCircle
 10
298.932047
 20
263.8146759999999
 30
0.0
 40
9.0
100
AcDbArc
 50
344.1190000000001
 51
15.88099999999999
  0
LINE
  5
B64A
330
B4FF
100
AcDbEntity
  8
1
  6
Continuous
100
AcDbLine
 10
305.332047
 20
264.8146759999999
 30
0.0
 11
304.3320469999999
 21
263.8146759999999
 31
0.0
  0
LINE
  5
B64B
330
B4FF
100
AcDbEntity
  8
1
  6
Continuous
100
AcDbLine
 10
305.332047
 20
267.6146779999999
 30
0.0
 11
305.332047
 21
260.014678
 31
0.0
  0
LINE
  5
B64C
330
B4FF
100
AcDbEntity
  8
1
  6
Continuous
100
AcDbLine
 10
304.3320469999999
 20
272.8146779999998
 30
0.0
 11
304.3320469999999
 21
257.0646779999999
 31
0.0
  0
LINE
  5
B64D
330
B4FF
100
AcDbEntity
  8
1
  6
Continuous
100
AcDbLine
 10
287.6320469999999
 20
272.8146779999998
 30
0.0
 11
287.6320469999999
 21
212.814718
 31
0.0
  0
LINE
  5
B64E
330
B4FF
100
AcDbEntity
  8
1
  6
Continuous
100
AcDbLine
 10
285.3320469999999
 20
272.8146779999998
 30
0.0
 11
285.3320469999999
 21
212.814718
 31
0.0
  0
LINE
  5
B64F
330
B4FF
100
AcDbEntity
  8
1
  6
Continuous
100
AcDbLine
 10
305.332047
 20
225.61472
 30
0.0
 11
305.332047
 21
218.0147199999999
 31
0.0
  0
ARC
  5
B650
330
B4FF
100
AcDbEntity
  8
1
  6
Continuous
100
AcDbCircle
 10
298.932047
 20
221.814718
 30
0.0
 40
9.0
100
AcDbArc
 50
344.1190000000001
 51
15.88099999999999
  0
LINE
  5
B651
330
B4FF
100
AcDbEntity
  8
1
  6
Continuous
100
AcDbLine
 10
304.3320469999999
 20
228.564718
 30
0.0
 11
304.3320469999999
 21
212.814718
 31
0.0
  0
LINE
  5
B652
330
B4FF
100
AcDbEntity
  8
1
  6
Continuous
100
AcDbLine
 10
304.3320469999999
 20
212.814718
 30
0.0
 11
285.3320469999999
 21
212.814718
 31
0.0
  0
LINE
  5
B653
330
B4FF
100
AcDbEntity
  8
1
  6
Continuous
100
AcDbLine
 10
304.3320469999999
 20
218.0147199999999
 30
0.0
 11
305.332047
 21
218.0147199999999
 31
0.0
  0
LINE
  5
B654
330
B4FF
100
AcDbEntity
  8
1
  6
Continuous
100
AcDbLine
 10
306.466556
 20
218.413987
 30
0.0
 11
305.3310469999999
 21
218.314718
 31
0.0
  0
ARC
  5
B655
330
B4FF
100
AcDbEntity
  8
1
  6
Continuous
100
AcDbCircle
 10
306.3390469999998
 20
219.707718
 30
0.0
 40
1.3
100
AcDbArc
 50
275.0
 51
344.1190000000001
  0
LINE
  5
B656
330
B4FF
100
AcDbEntity
  8
4
  6
CENTER
100
AcDbLine
 10
307.332047
 20
242.814718
 30
0.0
 11
282.332047
 21
242.814718
 31
0.0
  0
LINE
  5
B657
330
B4FF
100
AcDbEntity
  8
1
  6
Continuous
100
AcDbLine
 10
304.3320469999999
 20
250.564718
 30
0.0
 11
304.3320469999999
 21
235.064718
 31
0.0
  0
LINE
  5
B658
330
B4FF
100
AcDbEntity
  8
1
  6
Continuous
100
AcDbLine
 10
304.3320469999999
 20
235.064718
 30
0.0
 11
292.1320469999999
 21
235.064718
 31
0.0
  0
LINE
  5
B659
330
B4FF
100
AcDbEntity
  8
1
  6
Continuous
100
AcDbLine
 10
304.3320469999999
 20
228.564718
 30
0.0
 11
292.1320469999999
 21
228.564718
 31
0.0
  0
LINE
  5
B65A
330
B4FF
100
AcDbEntity
  8
4
  6
CENTER
100
AcDbLine
 10
310.932047
 20
221.814718
 30
0.0
 11
301.977647
 21
221.814718
 31
0.0
  0
ARC
  5
B65B
330
B4FF
100
AcDbEntity
  8
1
  6
Continuous
100
AcDbCircle
 10
293.772647
 20
231.814718
 30
0.0
 40
3.640619999999998
100
AcDbArc
 50
116.7849999999999
 51
243.215
  0
LINE
  5
B65C
330
B4FF
100
AcDbEntity
  8
1
  6
Continuous
100
AcDbLine
 10
304.3320469999999
 20
225.61472
 30
0.0
 11
305.332047
 21
225.61472
 31
0.0
  0
LINE
  5
B65D
330
B4FF
100
AcDbEntity
  8
1
  6
Continuous
100
AcDbLine
 10
305.332047
 20
221.814718
 30
0.0
 11
304.3320469999999
 21
220.814718
 31
0.0
  0
LINE
  5
B65E
330
B4FF
100
AcDbEntity
  8
1
  6
Continuous
100
AcDbLine
 10
305.332047
 20
222.814718
 30
0.0
 11
304.3320469999999
 21
221.814718
 31
0.0
  0
LINE
  5
B65F
330
B4FF
100
AcDbEntity
  8
1
  6
Continuous
100
AcDbLine
 10
306.452047
 20
225.2167179999999
 30
0.0
 11
305.332047
 21
225.314718
 31
0.0
  0
ARC
  5
B660
330
B4FF
100
AcDbEntity
  8
1
  6
Continuous
100
AcDbCircle
 10
306.3390469999998
 20
223.921718
 30
0.0
 40
1.3
100
AcDbArc
 50
15.88099999999999
 51
85.0
  0
ARC
  5
B661
330
B4FF
100
AcDbEntity
  8
1
  6
Continuous
100
AcDbCircle
 10
302.6914469999999
 20
231.814718
 30
0.0
 40
3.640619999999998
100
AcDbArc
 50
296.785
 51
63.215
  0
LINE
  5
B662
330
B4FF
100
AcDbEntity
  8
1
  6
Continuous
100
AcDbLine
 10
304.3320469999999
 20
250.564718
 30
0.0
 11
292.1320469999999
 21
250.564718
 31
0.0
  0
LINE
  5
B663
330
B4FF
100
AcDbEntity
  8
1
  6
Continuous
100
AcDbLine
 10
304.3320469999999
 20
257.0646779999999
 30
0.0
 11
292.1320469999999
 21
257.0646779999999
 31
0.0
  0
LINE
  5
B664
330
B4FF
100
AcDbEntity
  8
4
  6
CENTER
100
AcDbLine
 10
310.932047
 20
263.8146759999999
 30
0.0
 11
301.835147
 21
263.8146759999999
 31
0.0
  0
ARC
  5
B665
330
B4FF
100
AcDbEntity
  8
1
  6
Continuous
100
AcDbCircle
 10
293.772647
 20
253.814718
 30
0.0
 40
3.640629999999998
100
AcDbArc
 50
116.7849999999999
 51
243.215
  0
LINE
  5
B666
330
B4FF
100
AcDbEntity
  8
1
  6
Continuous
100
AcDbLine
 10
306.466556
 20
260.413945
 30
0.0
 11
305.3310469999999
 21
260.3146759999999
 31
0.0
  0
ARC
  5
B667
330
B4FF
100
AcDbEntity
  8
1
  6
Continuous
100
AcDbCircle
 10
306.3390469999998
 20
261.7076759999998
 30
0.0
 40
1.3
100
AcDbArc
 50
275.0
 51
344.1190000000001
  0
LINE
  5
B668
330
B4FF
100
AcDbEntity
  8
1
  6
Continuous
100
AcDbLine
 10
305.332047
 20
263.8146759999999
 30
0.0
 11
304.3320469999999
 21
262.8146759999999
 31
0.0
  0
ARC
  5
B669
330
B4FF
100
AcDbEntity
  8
1
  6
Continuous
100
AcDbCircle
 10
302.6914469999999
 20
253.814718
 30
0.0
 40
3.640629999999998
100
AcDbArc
 50
296.785
 51
63.215
  0
LINE
  5
B66A
330
B4FF
100
AcDbEntity
  8
1
  6
Continuous
100
AcDbLine
 10
304.3320469999999
 20
260.014678
 30
0.0
 11
305.332047
 21
260.014678
 31
0.0
  0
LINE
  5
B66B
330
B4FF
100
AcDbEntity
  8
1
  6
Continuous
100
AcDbLine
 10
304.3320469999999
 20
272.8146779999998
 30
0.0
 11
285.3320469999999
 21
272.8146779999998
 31
0.0
  0
ARC
  5
B66C
330
B4FF
100
AcDbEntity
  8
1
  6
Continuous
100
AcDbCircle
 10
269.326467
 20
285.4842179999998
 30
0.0
 40
2.555979999999999
100
AcDbArc
 50
334.371637
 51
34.371637
  0
ARC
  5
B66D
330
B4FF
100
AcDbEntity
  8
1
  6
Continuous
100
AcDbCircle
 10
270.4384259999998
 20
285.4842179999998
 30
0.0
 40
2.555979999999999
100
AcDbArc
 50
145.6283629999998
 51
205.6283629999998
  0
LINE
  5
B66E
330
B4FF
100
AcDbEntity
  8
1
  6
Continuous
100
AcDbLine
 10
271.882447
 20
294.815218
 30
0.0
 11
271.882447
 21
284.8142179999999
 31
0.0
  0
LINE
  5
B66F
330
B4FF
100
AcDbEntity
  8
1
  6
Continuous
100
AcDbLine
 10
262.7824469999999
 20
300.814718
 30
0.0
 11
262.7824469999999
 21
278.814718
 31
0.0
  0
LINE
  5
B670
330
B4FF
100
AcDbEntity
  8
1
  6
Continuous
100
AcDbLine
 10
264.7824469999999
 20
300.814718
 30
0.0
 11
264.7824469999999
 21
278.814718
 31
0.0
  0
LINE
  5
B671
330
B4FF
100
AcDbEntity
  8
1
  6
Continuous
100
AcDbLine
 10
266.382447
 20
281.814718
 30
0.0
 11
266.382447
 21
297.814718
 31
0.0
  0
LINE
  5
B672
330
B4FF
100
AcDbEntity
  8
1
  6
Continuous
100
AcDbLine
 10
267.882447
 20
283.714718
 30
0.0
 11
267.882447
 21
295.914718
 31
0.0
  0
LINE
  5
B673
330
B4FF
100
AcDbEntity
  8
1
  6
Continuous
100
AcDbLine
 10
268.3287379999999
 20
284.041218
 30
0.0
 11
271.436155
 21
284.041218
 31
0.0
  0
ARC
  5
B674
330
B4FF
100
AcDbEntity
  8
1
  6
Continuous
100
AcDbCircle
 10
270.4384469999999
 20
285.4852179999999
 30
0.0
 40
2.55582
100
AcDbArc
 50
214.3528569999999
 51
214.3839999999999
  0
LINE
  5
B675
330
B4FF
100
AcDbEntity
  8
1
  6
Continuous
100
AcDbLine
 10
267.882447
 20
284.8142179999999
 30
0.0
 11
268.3287379999999
 21
284.041218
 31
0.0
  0
LINE
  5
B676
330
B4FF
100
AcDbEntity
  8
1
  6
Continuous
100
AcDbLine
 10
264.7824469999999
 20
278.814718
 30
0.0
 11
262.7824469999999
 21
278.814718
 31
0.0
  0
LINE
  5
B677
330
B4FF
100
AcDbEntity
  8
1
  6
Continuous
100
AcDbLine
 10
266.382447
 20
281.814718
 30
0.0
 11
264.7824469999999
 21
281.814718
 31
0.0
  0
LINE
  5
B678
330
B4FF
100
AcDbEntity
  8
1
  6
Continuous
100
AcDbLine
 10
267.882447
 20
283.714718
 30
0.0
 11
266.382447
 21
283.714718
 31
0.0
  0
LINE
  5
B679
330
B4FF
100
AcDbEntity
  8
1
  6
Continuous
100
AcDbLine
 10
271.882447
 20
284.8142179999999
 30
0.0
 11
271.436155
 21
284.041218
 31
0.0
  0
LINE
  5
B67A
330
B4FF
100
AcDbEntity
  8
1
  6
Continuous
100
AcDbLine
 10
268.3287379999999
 20
295.5882179999999
 30
0.0
 11
271.436155
 21
295.5882179999999
 31
0.0
  0
LINE
  5
B67B
330
B4FF
100
AcDbEntity
  8
1
  6
Continuous
100
AcDbLine
 10
268.3287379999999
 20
292.702218
 30
0.0
 11
271.436155
 21
292.702218
 31
0.0
  0
LINE
  5
B67C
330
B4FF
100
AcDbEntity
  8
1
  6
Continuous
100
AcDbLine
 10
268.3287379999999
 20
286.928218
 30
0.0
 11
271.436155
 21
286.928218
 31
0.0
  0
LINE
  5
B67D
330
B4FF
100
AcDbEntity
  8
4
  6
CENTER
100
AcDbLine
 10
274.882447
 20
289.814718
 30
0.0
 11
259.7824469999999
 21
289.814718
 31
0.0
  0
LINE
  5
B67E
330
B4FF
100
AcDbEntity
  8
1
  6
Continuous
100
AcDbLine
 10
266.382447
 20
288.314718
 30
0.0
 11
267.882447
 21
289.814718
 31
0.0
  0
LINE
  5
B67F
330
B4FF
100
AcDbEntity
  8
1
  6
Continuous
100
AcDbLine
 10
266.382447
 20
289.814718
 30
0.0
 11
267.882447
 21
291.3147180000001
 31
0.0
  0
LINE
  5
B680
330
B4FF
100
AcDbEntity
  8
1
  6
Continuous
100
AcDbLine
 10
267.882447
 20
294.815218
 30
0.0
 11
268.3287379999999
 21
295.5882179999999
 31
0.0
  0
ARC
  5
B681
330
B4FF
100
AcDbEntity
  8
1
  6
Continuous
100
AcDbCircle
 10
270.4384259999998
 20
294.145218
 30
0.0
 40
2.555979999999999
100
AcDbArc
 50
154.371637
 51
214.371637
  0
ARC
  5
B682
330
B4FF
100
AcDbEntity
  8
1
  6
Continuous
100
AcDbCircle
 10
277.443396
 20
289.815218
 30
0.0
 40
9.560949
100
AcDbArc
 50
162.4247879999998
 51
197.5752119999999
  0
LINE
  5
B683
330
B4FF
100
AcDbEntity
  8
1
  6
Continuous
100
AcDbLine
 10
264.7824469999999
 20
300.814718
 30
0.0
 11
262.7824469999999
 21
300.814718
 31
0.0
  0
LINE
  5
B684
330
B4FF
100
AcDbEntity
  8
1
  6
Continuous
100
AcDbLine
 10
266.382447
 20
297.814718
 30
0.0
 11
264.7824469999999
 21
297.814718
 31
0.0
  0
LINE
  5
B685
330
B4FF
100
AcDbEntity
  8
1
  6
Continuous
100
AcDbLine
 10
267.882447
 20
295.914718
 30
0.0
 11
266.382447
 21
295.914718
 31
0.0
  0
LINE
  5
B686
330
B4FF
100
AcDbEntity
  8
1
  6
Continuous
100
AcDbLine
 10
271.882447
 20
294.815218
 30
0.0
 11
271.436155
 21
295.5882179999999
 31
0.0
  0
ARC
  5
B687
330
B4FF
100
AcDbEntity
  8
1
  6
Continuous
100
AcDbCircle
 10
262.321498
 20
289.815218
 30
0.0
 40
9.560949
100
AcDbArc
 50
342.4247879999999
 51
17.575212
  0
ARC
  5
B688
330
B4FF
100
AcDbEntity
  8
1
  6
Continuous
100
AcDbCircle
 10
269.326467
 20
294.145218
 30
0.0
 40
2.555979999999999
100
AcDbArc
 50
325.6283629999999
 51
25.628363
  0
LINE
  5
B689
330
B4FF
100
AcDbEntity
  8
1
  6
Continuous
100
AcDbLine
 10
306.452047
 20
267.216676
 30
0.0
 11
305.332047
 21
267.3146759999998
 31
0.0
  0
ARC
  5
B68A
330
B4FF
100
AcDbEntity
  8
1
  6
Continuous
100
AcDbCircle
 10
306.3390469999998
 20
265.921676
 30
0.0
 40
1.3
100
AcDbArc
 50
15.88099999999999
 51
85.0
  0
LINE
  5
B68B
330
B4FF
100
AcDbEntity
  8
1
  6
Continuous
100
AcDbLine
 10
304.3320469999999
 20
267.6146779999999
 30
0.0
 11
305.332047
 21
267.6146779999999
 31
0.0
  0
LINE
  5
B68C
330
B4FF
100
AcDbEntity
  8
5
  6
PHANTOM
100
AcDbLine
 10
325.3929049999999
 20
298.314718
 30
0.0
 11
325.3929049999999
 21
281.3147180000001
 31
0.0
  0
ARC
  5
B68D
330
B4FF
100
AcDbEntity
  8
5
  6
PHANTOM
100
AcDbCircle
 10
327.8929049999999
 20
281.3147180000001
 30
0.0
 40
2.5
100
AcDbArc
 50
180.0
 51
270.0
  0
ARC
  5
B68E
330
B4FF
100
AcDbEntity
  8
5
  6
PHANTOM
100
AcDbCircle
 10
327.8929049999999
 20
298.314718
 30
0.0
 40
2.5
100
AcDbArc
 50
90.0
 51
180.0
  0
ARC
  5
B68F
330
B4FF
100
AcDbEntity
  8
1
  6
Continuous
100
AcDbCircle
 10
518.8537629999998
 20
263.8146759999999
 30
0.0
 40
9.0
100
AcDbArc
 50
164.119
 51
195.8809999999998
  0
LINE
  5
B690
330
B4FF
100
AcDbEntity
  8
1
  6
Continuous
100
AcDbLine
 10
409.842256
 20
263.8146759999999
 30
0.0
 11
410.033175
 21
264.3407639999999
 31
0.0
  0
LINE
  5
B691
330
B4FF
100
AcDbEntity
  8
1
  6
Continuous
100
AcDbLine
 10
407.94226
 20
263.8153829999998
 30
0.0
 11
407.7513419999998
 21
264.340057
 31
0.0
  0
CIRCLE
  5
B692
330
B4FF
100
AcDbEntity
  8
1
  6
Continuous
100
AcDbCircle
 10
408.8929049999999
 20
263.8146759999999
 30
0.0
 40
3.5
  0
LINE
  5
B693
330
B4FF
100
AcDbEntity
  8
1
  6
Continuous
100
AcDbLine
 10
390.0929049999999
 20
272.8146779999998
 30
0.0
 11
390.0929049999999
 21
257.0646779999999
 31
0.0
  0
LINE
  5
B694
330
B4FF
100
AcDbEntity
  8
1
  6
Continuous
100
AcDbLine
 10
427.6928049999998
 20
272.8146779999998
 30
0.0
 11
427.6928049999998
 21
257.0646779999999
 31
0.0
  0
LINE
  5
B695
330
B4FF
100
AcDbEntity
  8
1
  6
Continuous
100
AcDbLine
 10
433.8928049999998
 20
269.8146779999999
 30
0.0
 11
433.8928049999998
 21
215.814718
 31
0.0
  0
LINE
  5
B696
330
B4FF
100
AcDbEntity
  8
1
  6
Continuous
100
AcDbLine
 10
383.8929049999999
 20
269.8146779999999
 30
0.0
 11
383.8929049999999
 21
215.814718
 31
0.0
  0
CIRCLE
  5
B697
330
B4FF
100
AcDbEntity
  8
1
  6
Continuous
100
AcDbCircle
 10
408.8929049999999
 20
221.814718
 30
0.0
 40
3.5
  0
LINE
  5
B698
330
B4FF
100
AcDbEntity
  8
1
  6
Continuous
100
AcDbLine
 10
427.6928049999998
 20
228.564718
 30
0.0
 11
427.6928049999998
 21
212.814718
 31
0.0
  0
LINE
  5
B699
330
B4FF
100
AcDbEntity
  8
1
  6
Continuous
100
AcDbLine
 10
390.0929049999999
 20
228.564718
 30
0.0
 11
390.0929049999999
 21
212.814718
 31
0.0
  0
CIRCLE
  5
B69A
330
B4FF
100
AcDbEntity
  8
1
  6
Continuous
100
AcDbCircle
 10
417.3929049999999
 20
193.3147179999999
 30
0.0
 40
2.6
  0
LINE
  5
B69B
330
B4FF
100
AcDbEntity
  8
4
  6
CENTER
100
AcDbLine
 10
411.7929049999998
 20
193.3147179999999
 30
0.0
 11
422.8929049999998
 21
193.3147179999999
 31
0.0
  0
LINE
  5
B69C
330
B4FF
100
AcDbEntity
  8
1
  6
Continuous
100
AcDbLine
 10
395.892905
 20
208.314718
 30
0.0
 11
421.8929049999998
 21
208.314718
 31
0.0
  0
LINE
  5
B69D
330
B4FF
100
AcDbEntity
  8
1
  6
Continuous
100
AcDbLine
 10
386.8929049999999
 20
212.814718
 30
0.0
 11
430.8928049999998
 21
212.814718
 31
0.0
  0
LINE
  5
B69E
330
B4FF
100
AcDbEntity
  8
4
  6
CENTER
100
AcDbLine
 10
400.3929049999999
 20
198.9147179999999
 30
0.0
 11
400.3929049999999
 21
187.714718
 31
0.0
  0
LINE
  5
B69F
330
B4FF
100
AcDbEntity
  8
1
  6
Continuous
100
AcDbLine
 10
392.3929049999999
 20
212.814718
 30
0.0
 11
392.3929049999999
 21
180.8147179999999
 31
0.0
  0
LINE
  5
B6A0
330
B4FF
100
AcDbEntity
  8
1
  6
Continuous
100
AcDbLine
 10
394.8929049999999
 20
212.814718
 30
0.0
 11
394.8929049999999
 21
177.106618
 31
0.0
  0
CIRCLE
  5
B6A1
330
B4FF
100
AcDbEntity
  8
1
  6
Continuous
100
AcDbCircle
 10
400.3929049999999
 20
193.3147179999999
 30
0.0
 40
2.6
  0
LINE
  5
B6A2
330
B4FF
100
AcDbEntity
  8
4
  6
CENTER
100
AcDbLine
 10
394.8929049999999
 20
193.3147179999999
 30
0.0
 11
405.992905
 21
193.3147179999999
 31
0.0
  0
ARC
  5
B6A3
330
B4FF
100
AcDbEntity
  8
1
  6
Continuous
100
AcDbCircle
 10
395.892905
 20
177.106618
 30
0.0
 40
1.0
100
AcDbArc
 50
180.0
 51
247.976
  0
LINE
  5
B6A4
330
B4FF
100
AcDbEntity
  8
1
  6
Continuous
100
AcDbLine
 10
401.251332
 20
192.7900449999999
 30
0.0
 11
401.4613429999998
 21
192.572963
 31
0.0
  0
LINE
  5
B6A5
330
B4FF
100
AcDbEntity
  8
1
  6
Continuous
100
AcDbLine
 10
401.250625
 20
193.840099
 30
0.0
 11
401.460636
 21
194.0571799999999
 31
0.0
  0
LINE
  5
B6A6
330
B4FF
100
AcDbEntity
  8
1
  6
Continuous
100
AcDbLine
 10
400.918285
 20
194.172439
 30
0.0
 11
401.135367
 21
194.38245
 31
0.0
  0
LINE
  5
B6A7
330
B4FF
100
AcDbEntity
  8
1
  6
Continuous
100
AcDbLine
 10
400.918285
 20
192.456998
 30
0.0
 11
401.1360739999998
 21
192.2476939999999
 31
0.0
  0
ARC
  5
B6A8
330
B4FF
100
AcDbEntity
  8
1
  6
Continuous
100
AcDbCircle
 10
400.3929049999999
 20
193.3147179999999
 30
0.0
 40
1.3
100
AcDbArc
 50
124.8094
 51
145.1909999999998
  0
LINE
  5
B6A9
330
B4FF
100
AcDbEntity
  8
1
  6
Continuous
100
AcDbLine
 10
399.73671
 20
193.3147179999999
 30
0.0
 11
399.535891
 21
192.7900449999999
 31
0.0
  0
LINE
  5
B6AA
330
B4FF
100
AcDbEntity
  8
1
  6
Continuous
100
AcDbLine
 10
399.535891
 20
192.7900449999999
 30
0.0
 11
399.325881
 21
192.572963
 31
0.0
  0
LINE
  5
B6AB
330
B4FF
100
AcDbEntity
  8
1
  6
Continuous
100
AcDbLine
 10
400.3929049999999
 20
192.658523
 30
0.0
 11
399.8682319999998
 21
192.457705
 31
0.0
  0
LINE
  5
B6AC
330
B4FF
100
AcDbEntity
  8
1
  6
Continuous
100
AcDbLine
 10
400.393612
 20
193.971621
 30
0.0
 11
399.8682319999998
 21
194.1731459999998
 31
0.0
  0
LINE
  5
B6AD
330
B4FF
100
AcDbEntity
  8
1
  6
Continuous
100
AcDbLine
 10
399.8682319999998
 20
194.1731459999998
 30
0.0
 11
399.651857
 21
194.38245
 31
0.0
  0
LINE
  5
B6AE
330
B4FF
100
AcDbEntity
  8
1
  6
Continuous
100
AcDbLine
 10
399.73671
 20
193.3147179999999
 30
0.0
 11
399.5351839999998
 21
193.840099
 31
0.0
  0
LINE
  5
B6AF
330
B4FF
100
AcDbEntity
  8
1
  6
Continuous
100
AcDbLine
 10
399.5351839999998
 20
193.840099
 30
0.0
 11
399.325881
 21
194.056473
 31
0.0
  0
ARC
  5
B6B0
330
B4FF
100
AcDbEntity
  8
1
  6
Continuous
100
AcDbCircle
 10
400.3929049999999
 20
193.3147179999999
 30
0.0
 40
1.3
100
AcDbArc
 50
214.809
 51
235.1909999999999
  0
LINE
  5
B6B1
330
B4FF
100
AcDbEntity
  8
1
  6
Continuous
100
AcDbLine
 10
399.8682319999998
 20
192.457705
 30
0.0
 11
399.65115
 21
192.2476939999999
 31
0.0
  0
LINE
  5
B6B2
330
B4FF
100
AcDbEntity
  8
1
  6
Continuous
100
AcDbLine
 10
400.3929049999999
 20
192.658523
 30
0.0
 11
400.918285
 21
192.456998
 31
0.0
  0
LINE
  5
B6B3
330
B4FF
100
AcDbEntity
  8
1
  6
Continuous
100
AcDbLine
 10
400.393612
 20
193.971621
 30
0.0
 11
400.918285
 21
194.172439
 31
0.0
  0
LINE
  5
B6B4
330
B4FF
100
AcDbEntity
  8
1
  6
Continuous
100
AcDbLine
 10
401.0498069999998
 20
193.315425
 30
0.0
 11
401.251332
 21
192.7900449999999
 31
0.0
  0
LINE
  5
B6B5
330
B4FF
100
AcDbEntity
  8
1
  6
Continuous
100
AcDbLine
 10
401.0498069999998
 20
193.315425
 30
0.0
 11
401.250625
 21
193.840099
 31
0.0
  0
ARC
  5
B6B6
330
B4FF
100
AcDbEntity
  8
1
  6
Continuous
100
AcDbCircle
 10
400.3929049999999
 20
193.3147179999999
 30
0.0
 40
1.3
100
AcDbArc
 50
34.809
 51
55.1906
  0
ARC
  5
B6B7
330
B4FF
100
AcDbEntity
  8
1
  6
Continuous
100
AcDbCircle
 10
400.3929049999999
 20
193.3147179999999
 30
0.0
 40
1.3
100
AcDbArc
 50
304.8090000000001
 51
325.1909999999999
  0
ARC
  5
B6B8
330
B4FF
100
AcDbEntity
  8
1
  6
Continuous
100
AcDbCircle
 10
395.892905
 20
207.3147179999998
 30
0.0
 40
1.0
100
AcDbArc
 50
90.0
 51
180.0
  0
ARC
  5
B6B9
330
B4FF
100
AcDbEntity
  8
1
  6
Continuous
100
AcDbCircle
 10
386.8929049999999
 20
215.814718
 30
0.0
 40
3.0
100
AcDbArc
 50
180.0
 51
270.0
  0
LINE
  5
B6BA
330
B4FF
100
AcDbEntity
  8
4
  6
CENTER
100
AcDbLine
 10
417.3929049999999
 20
198.9147179999999
 30
0.0
 11
417.3929049999999
 21
187.714718
 31
0.0
  0
LINE
  5
B6BB
330
B4FF
100
AcDbEntity
  8
1
  6
Continuous
100
AcDbLine
 10
425.3929049999999
 20
212.814718
 30
0.0
 11
425.3929049999999
 21
180.8147179999999
 31
0.0
  0
LINE
  5
B6BC
330
B4FF
100
AcDbEntity
  8
1
  6
Continuous
100
AcDbLine
 10
422.8929049999998
 20
212.814718
 30
0.0
 11
422.8929049999998
 21
177.106618
 31
0.0
  0
LINE
  5
B6BD
330
B4FF
100
AcDbEntity
  8
1
  6
Continuous
100
AcDbLine
 10
418.2513319999998
 20
192.7900449999999
 30
0.0
 11
418.4613429999997
 21
192.572963
 31
0.0
  0
LINE
  5
B6BE
330
B4FF
100
AcDbEntity
  8
1
  6
Continuous
100
AcDbLine
 10
418.250625
 20
193.840099
 30
0.0
 11
418.460636
 21
194.0571799999999
 31
0.0
  0
LINE
  5
B6BF
330
B4FF
100
AcDbEntity
  8
1
  6
Continuous
100
AcDbLine
 10
417.918285
 20
194.172439
 30
0.0
 11
418.135367
 21
194.38245
 31
0.0
  0
LINE
  5
B6C0
330
B4FF
100
AcDbEntity
  8
1
  6
Continuous
100
AcDbLine
 10
417.918285
 20
192.456998
 30
0.0
 11
418.136074
 21
192.2476939999999
 31
0.0
  0
ARC
  5
B6C1
330
B4FF
100
AcDbEntity
  8
1
  6
Continuous
100
AcDbCircle
 10
417.3929049999999
 20
193.3147179999999
 30
0.0
 40
1.3
100
AcDbArc
 50
124.8094
 51
145.1909999999998
  0
LINE
  5
B6C2
330
B4FF
100
AcDbEntity
  8
1
  6
Continuous
100
AcDbLine
 10
416.7367099999998
 20
193.3147179999999
 30
0.0
 11
416.535891
 21
192.7900449999999
 31
0.0
  0
LINE
  5
B6C3
330
B4FF
100
AcDbEntity
  8
1
  6
Continuous
100
AcDbLine
 10
416.535891
 20
192.7900449999999
 30
0.0
 11
416.325881
 21
192.572963
 31
0.0
  0
LINE
  5
B6C4
330
B4FF
100
AcDbEntity
  8
1
  6
Continuous
100
AcDbLine
 10
417.3929049999999
 20
192.658523
 30
0.0
 11
416.868232
 21
192.457705
 31
0.0
  0
LINE
  5
B6C5
330
B4FF
100
AcDbEntity
  8
1
  6
Continuous
100
AcDbLine
 10
417.393612
 20
193.971621
 30
0.0
 11
416.868232
 21
194.1731459999998
 31
0.0
  0
LINE
  5
B6C6
330
B4FF
100
AcDbEntity
  8
1
  6
Continuous
100
AcDbLine
 10
416.868232
 20
194.1731459999998
 30
0.0
 11
416.651857
 21
194.38245
 31
0.0
  0
LINE
  5
B6C7
330
B4FF
100
AcDbEntity
  8
1
  6
Continuous
100
AcDbLine
 10
416.7367099999998
 20
193.3147179999999
 30
0.0
 11
416.5351839999998
 21
193.840099
 31
0.0
  0
LINE
  5
B6C8
330
B4FF
100
AcDbEntity
  8
1
  6
Continuous
100
AcDbLine
 10
416.5351839999998
 20
193.840099
 30
0.0
 11
416.325881
 21
194.056473
 31
0.0
  0
ARC
  5
B6C9
330
B4FF
100
AcDbEntity
  8
1
  6
Continuous
100
AcDbCircle
 10
417.3929049999999
 20
193.3147179999999
 30
0.0
 40
1.3
100
AcDbArc
 50
214.809
 51
235.1909999999999
  0
LINE
  5
B6CA
330
B4FF
100
AcDbEntity
  8
1
  6
Continuous
100
AcDbLine
 10
416.868232
 20
192.457705
 30
0.0
 11
416.6511499999998
 21
192.2476939999999
 31
0.0
  0
LINE
  5
B6CB
330
B4FF
100
AcDbEntity
  8
1
  6
Continuous
100
AcDbLine
 10
417.3929049999999
 20
192.658523
 30
0.0
 11
417.918285
 21
192.456998
 31
0.0
  0
LINE
  5
B6CC
330
B4FF
100
AcDbEntity
  8
1
  6
Continuous
100
AcDbLine
 10
417.393612
 20
193.971621
 30
0.0
 11
417.918285
 21
194.172439
 31
0.0
  0
LINE
  5
B6CD
330
B4FF
100
AcDbEntity
  8
1
  6
Continuous
100
AcDbLine
 10
418.0498069999998
 20
193.315425
 30
0.0
 11
418.2513319999998
 21
192.7900449999999
 31
0.0
  0
LINE
  5
B6CE
330
B4FF
100
AcDbEntity
  8
1
  6
Continuous
100
AcDbLine
 10
418.0498069999998
 20
193.315425
 30
0.0
 11
418.250625
 21
193.840099
 31
0.0
  0
ARC
  5
B6CF
330
B4FF
100
AcDbEntity
  8
1
  6
Continuous
100
AcDbCircle
 10
417.3929049999999
 20
193.3147179999999
 30
0.0
 40
1.3
100
AcDbArc
 50
34.809
 51
55.1906
  0
ARC
  5
B6D0
330
B4FF
100
AcDbEntity
  8
1
  6
Continuous
100
AcDbCircle
 10
417.3929049999999
 20
193.3147179999999
 30
0.0
 40
1.3
100
AcDbArc
 50
304.8090000000001
 51
325.1909999999999
  0
ARC
  5
B6D1
330
B4FF
100
AcDbEntity
  8
1
  6
Continuous
100
AcDbCircle
 10
421.8929049999998
 20
177.106618
 30
0.0
 40
1.0
100
AcDbArc
 50
292.024
 51
0.0
  0
ARC
  5
B6D2
330
B4FF
100
AcDbEntity
  8
1
  6
Continuous
100
AcDbCircle
 10
421.8929049999998
 20
207.3147179999998
 30
0.0
 40
1.0
100
AcDbArc
 50
0.0
 51
90.0
  0
ARC
  5
B6D3
330
B4FF
100
AcDbEntity
  8
1
  6
Continuous
100
AcDbCircle
 10
430.8928049999998
 20
215.814718
 30
0.0
 40
3.0
100
AcDbArc
 50
270.0
 51
0.0
  0
LINE
  5
B6D4
330
B4FF
100
AcDbEntity
  8
1
  6
Continuous
100
AcDbLine
 10
390.0929049999999
 20
250.564718
 30
0.0
 11
427.6928049999998
 21
250.564718
 31
0.0
  0
LINE
  5
B6D5
330
B4FF
100
AcDbEntity
  8
1
  6
Continuous
100
AcDbLine
 10
390.0929049999999
 20
257.0646779999999
 30
0.0
 11
427.6928049999998
 21
257.0646779999999
 31
0.0
  0
LINE
  5
B6D6
330
B4FF
100
AcDbEntity
  8
1
  6
Continuous
100
AcDbLine
 10
390.0929049999999
 20
228.564718
 30
0.0
 11
427.6928049999998
 21
228.564718
 31
0.0
  0
LINE
  5
B6D7
330
B4FF
100
AcDbEntity
  8
1
  6
Continuous
100
AcDbLine
 10
390.0929049999999
 20
235.064718
 30
0.0
 11
427.6928049999998
 21
235.064718
 31
0.0
  0
LINE
  5
B6D8
330
B4FF
100
AcDbEntity
  8
1
  6
Continuous
100
AcDbLine
 10
390.0929049999999
 20
250.564718
 30
0.0
 11
390.0929049999999
 21
235.064718
 31
0.0
  0
ARC
  5
B6D9
330
B4FF
100
AcDbEntity
  8
1
  6
Continuous
100
AcDbCircle
 10
398.2494449999999
 20
242.339079
 30
0.0
 40
2.135059999999997
100
AcDbArc
 50
318.932
 51
41.0679
  0
ARC
  5
B6DA
330
B4FF
100
AcDbEntity
  8
1
  6
Continuous
100
AcDbCircle
 10
399.1595549999999
 20
242.339079
 30
0.0
 40
2.135059999999997
100
AcDbArc
 50
138.9319999999999
 51
221.0679999999999
  0
ARC
  5
B6DB
330
B4FF
100
AcDbEntity
  8
1
  6
Continuous
100
AcDbCircle
 10
413.0091549999998
 20
241.800279
 30
0.0
 40
1.439999999999999
100
AcDbArc
 50
269.5819999999998
 51
11.6541
  0
ARC
  5
B6DC
330
B4FF
100
AcDbEntity
  8
1
  6
Continuous
100
AcDbCircle
 10
413.4536549999998
 20
242.287679
 30
0.0
 40
2.135059999999997
100
AcDbArc
 50
138.9319999999999
 51
221.0679999999999
  0
ARC
  5
B6DD
330
B4FF
100
AcDbEntity
  8
1
  6
Continuous
100
AcDbCircle
 10
403.356855
 20
242.3602789999999
 30
0.0
 40
2.135059999999997
100
AcDbArc
 50
138.9319999999999
 51
221.0679999999999
  0
LINE
  5
B6DE
330
B4FF
100
AcDbEntity
  8
1
  6
Continuous
100
AcDbLine
 10
409.7383549999998
 20
244.395489
 30
0.0
 11
409.7383549999998
 21
240.1926089999999
 31
0.0
  0
LINE
  5
B6DF
330
B4FF
100
AcDbEntity
  8
1
  6
Continuous
100
AcDbLine
 10
408.332355
 20
244.395489
 30
0.0
 11
408.332355
 21
240.1926089999999
 31
0.0
  0
LINE
  5
B6E0
330
B4FF
100
AcDbEntity
  8
1
  6
Continuous
100
AcDbLine
 10
405.7383549999998
 20
244.395489
 30
0.0
 11
405.7383549999998
 21
240.1926089999999
 31
0.0
  0
LINE
  5
B6E1
330
B4FF
100
AcDbEntity
  8
1
  6
Continuous
100
AcDbLine
 10
394.723785
 20
244.2215589999999
 30
0.0
 11
394.723785
 21
240.2215589999999
 31
0.0
  0
ARC
  5
B6E2
330
B4FF
100
AcDbEntity
  8
1
  6
Continuous
100
AcDbCircle
 10
398.7045049999999
 20
241.9425589999999
 30
0.0
 40
1.531479999999999
100
AcDbArc
 50
221.0679999999999
 51
318.932
  0
ARC
  5
B6E3
330
B4FF
100
AcDbEntity
  8
1
  6
Continuous
100
AcDbCircle
 10
391.7336049999999
 20
231.814718
 30
0.0
 40
3.640619999999998
100
AcDbArc
 50
116.7849999999999
 51
243.215
  0
LINE
  5
B6E4
330
B4FF
100
AcDbEntity
  8
1
  6
Continuous
100
AcDbLine
 10
408.8926119999999
 20
220.8650739999999
 30
0.0
 11
409.4172849999997
 21
220.6741549999999
 31
0.0
  0
LINE
  5
B6E5
330
B4FF
100
AcDbEntity
  8
1
  6
Continuous
100
AcDbLine
 10
408.891905
 20
222.76507
 30
0.0
 11
409.417992
 21
222.9559889999999
 31
0.0
  0
ARC
  5
B6E6
330
B4FF
100
AcDbEntity
  8
1
  6
Continuous
100
AcDbCircle
 10
408.891905
 20
221.814718
 30
0.0
 40
2.1
100
AcDbArc
 50
213.463
 51
236.5369999999999
  0
ARC
  5
B6E7
330
B4FF
100
AcDbEntity
  8
1
  6
Continuous
100
AcDbCircle
 10
408.891905
 20
221.814718
 30
0.0
 40
2.1
100
AcDbArc
 50
123.4629999999998
 51
146.537
  0
LINE
  5
B6E8
330
B4FF
100
AcDbEntity
  8
1
  6
Continuous
100
AcDbLine
 10
407.7513419999998
 20
221.289338
 30
0.0
 11
407.140401
 21
220.657185
 31
0.0
  0
LINE
  5
B6E9
330
B4FF
100
AcDbEntity
  8
1
  6
Continuous
100
AcDbLine
 10
407.7513419999998
 20
222.340099
 30
0.0
 11
407.140401
 21
222.972252
 31
0.0
  0
LINE
  5
B6EA
330
B4FF
100
AcDbEntity
  8
1
  6
Continuous
100
AcDbLine
 10
407.94226
 20
221.8154249999999
 30
0.0
 11
407.7513419999998
 21
221.289338
 31
0.0
  0
LINE
  5
B6EB
330
B4FF
100
AcDbEntity
  8
1
  6
Continuous
100
AcDbLine
 10
408.366524
 20
220.6741549999999
 30
0.0
 11
407.734371
 21
220.063215
 31
0.0
  0
LINE
  5
B6EC
330
B4FF
100
AcDbEntity
  8
1
  6
Continuous
100
AcDbLine
 10
408.8926119999999
 20
220.8650739999999
 30
0.0
 11
408.366524
 21
220.6741549999999
 31
0.0
  0
LINE
  5
B6ED
330
B4FF
100
AcDbEntity
  8
1
  6
Continuous
100
AcDbLine
 10
408.891905
 20
222.76507
 30
0.0
 11
408.3672319999998
 21
222.9559889999999
 31
0.0
  0
LINE
  5
B6EE
330
B4FF
100
AcDbEntity
  8
1
  6
Continuous
100
AcDbLine
 10
408.3672319999998
 20
222.9559889999999
 30
0.0
 11
407.734371
 21
223.566222
 31
0.0
  0
LINE
  5
B6EF
330
B4FF
100
AcDbEntity
  8
1
  6
Continuous
100
AcDbLine
 10
407.94226
 20
221.8154249999999
 30
0.0
 11
407.7513419999998
 21
222.340099
 31
0.0
  0
LINE
  5
B6F0
330
B4FF
100
AcDbEntity
  8
1
  6
Continuous
100
AcDbLine
 10
409.4172849999997
 20
220.6741549999999
 30
0.0
 11
410.0508529999998
 21
220.063215
 31
0.0
  0
LINE
  5
B6F1
330
B4FF
100
AcDbEntity
  8
1
  6
Continuous
100
AcDbLine
 10
409.417992
 20
222.9559889999999
 30
0.0
 11
410.050146
 21
223.566929
 31
0.0
  0
ARC
  5
B6F2
330
B4FF
100
AcDbEntity
  8
1
  6
Continuous
100
AcDbCircle
 10
408.891905
 20
221.814718
 30
0.0
 40
2.1
100
AcDbArc
 50
303.4629999999999
 51
326.5369999999998
  0
ARC
  5
B6F3
330
B4FF
100
AcDbEntity
  8
1
  6
Continuous
100
AcDbCircle
 10
408.891905
 20
221.814718
 30
0.0
 40
2.1
100
AcDbArc
 50
33.463
 51
56.537
  0
LINE
  5
B6F4
330
B4FF
100
AcDbEntity
  8
1
  6
Continuous
100
AcDbLine
 10
410.033175
 20
221.2900449999999
 30
0.0
 11
410.644115
 21
220.6564769999999
 31
0.0
  0
LINE
  5
B6F5
330
B4FF
100
AcDbEntity
  8
1
  6
Continuous
100
AcDbLine
 10
409.842256
 20
221.814718
 30
0.0
 11
410.033175
 21
221.2900449999999
 31
0.0
  0
LINE
  5
B6F6
330
B4FF
100
AcDbEntity
  8
1
  6
Continuous
100
AcDbLine
 10
410.033175
 20
222.340806
 30
0.0
 11
410.644115
 21
222.9729589999998
 31
0.0
  0
LINE
  5
B6F7
330
B4FF
100
AcDbEntity
  8
1
  6
Continuous
100
AcDbLine
 10
409.842256
 20
221.814718
 30
0.0
 11
410.033175
 21
222.340806
 31
0.0
  0
LINE
  5
B6F8
330
B4FF
100
AcDbEntity
  8
4
  6
CENTER
100
AcDbLine
 10
413.8929049999998
 20
221.814718
 30
0.0
 11
403.892905
 21
221.814718
 31
0.0
  0
ARC
  5
B6F9
330
B4FF
100
AcDbEntity
  8
1
  6
Continuous
100
AcDbCircle
 10
412.9986549999999
 20
241.891149
 30
0.0
 40
1.531479999999999
100
AcDbArc
 50
221.0679999999999
 51
276.591
  0
ARC
  5
B6FA
330
B4FF
100
AcDbEntity
  8
1
  6
Continuous
100
AcDbCircle
 10
403.067855
 20
241.486649
 30
0.0
 40
1.026289999999999
100
AcDbArc
 50
289.1929999999998
 51
354.341
  0
ARC
  5
B6FB
330
B4FF
100
AcDbEntity
  8
1
  6
Continuous
100
AcDbCircle
 10
402.9017549999998
 20
241.9637589999999
 30
0.0
 40
1.531479999999999
100
AcDbArc
 50
221.0679999999999
 51
289.1929999999998
  0
LINE
  5
B6FC
330
B4FF
100
AcDbEntity
  8
1
  6
Continuous
100
AcDbLine
 10
414.4194549999999
 20
241.4950189999999
 30
0.0
 11
414.4194549999999
 21
240.2215589999999
 31
0.0
  0
ARC
  5
B6FD
330
B4FF
100
AcDbEntity
  8
1
  6
Continuous
100
AcDbCircle
 10
398.7045049999999
 20
242.7355990000001
 30
0.0
 40
1.531479999999999
100
AcDbArc
 50
41.0679
 51
138.9319999999999
  0
ARC
  5
B6FE
330
B4FF
100
AcDbEntity
  8
1
  6
Continuous
100
AcDbCircle
 10
391.7336049999999
 20
253.814718
 30
0.0
 40
3.640629999999998
100
AcDbArc
 50
116.7849999999999
 51
243.215
  0
LINE
  5
B6FF
330
B4FF
100
AcDbEntity
  8
1
  6
Continuous
100
AcDbLine
 10
393.100545
 20
244.2215589999999
 30
0.0
 11
396.3613849999999
 21
244.2215589999999
 31
0.0
  0
LINE
  5
B700
330
B4FF
100
AcDbEntity
  8
1
  6
Continuous
100
AcDbLine
 10
409.842256
 20
263.8146759999999
 30
0.0
 11
410.033175
 21
263.2900029999999
 31
0.0
  0
LINE
  5
B701
330
B4FF
100
AcDbEntity
  8
1
  6
Continuous
100
AcDbLine
 10
410.033175
 20
263.2900029999999
 30
0.0
 11
410.644115
 21
262.6564349999998
 31
0.0
  0
ARC
  5
B702
330
B4FF
100
AcDbEntity
  8
1
  6
Continuous
100
AcDbCircle
 10
408.891905
 20
263.8146759999999
 30
0.0
 40
2.1
100
AcDbArc
 50
303.4629999999999
 51
326.5369999999998
  0
LINE
  5
B703
330
B4FF
100
AcDbEntity
  8
1
  6
Continuous
100
AcDbLine
 10
408.8926119999999
 20
262.8650319999999
 30
0.0
 11
408.366524
 21
262.6741129999999
 31
0.0
  0
LINE
  5
B704
330
B4FF
100
AcDbEntity
  8
1
  6
Continuous
100
AcDbLine
 10
408.366524
 20
262.6741129999999
 30
0.0
 11
407.734371
 21
262.0631729999999
 31
0.0
  0
LINE
  5
B705
330
B4FF
100
AcDbEntity
  8
1
  6
Continuous
100
AcDbLine
 10
407.94226
 20
263.8153829999998
 30
0.0
 11
407.7513419999998
 21
263.2892959999999
 31
0.0
  0
LINE
  5
B706
330
B4FF
100
AcDbEntity
  8
1
  6
Continuous
100
AcDbLine
 10
408.8926119999999
 20
262.8650319999999
 30
0.0
 11
409.4172849999997
 21
262.6741129999999
 31
0.0
  0
LINE
  5
B707
330
B4FF
100
AcDbEntity
  8
1
  6
Continuous
100
AcDbLine
 10
407.7513419999998
 20
263.2892959999999
 30
0.0
 11
407.140401
 21
262.657143
 31
0.0
  0
ARC
  5
B708
330
B4FF
100
AcDbEntity
  8
1
  6
Continuous
100
AcDbCircle
 10
408.891905
 20
263.8146759999999
 30
0.0
 40
2.1
100
AcDbArc
 50
213.463
 51
236.5369999999999
  0
LINE
  5
B709
330
B4FF
100
AcDbEntity
  8
1
  6
Continuous
100
AcDbLine
 10
409.4172849999997
 20
262.6741129999999
 30
0.0
 11
410.0508529999998
 21
262.0631729999999
 31
0.0
  0
LINE
  5
B70A
330
B4FF
100
AcDbEntity
  8
4
  6
CENTER
100
AcDbLine
 10
413.8929049999998
 20
263.8146759999999
 30
0.0
 11
403.892905
 21
263.8146759999999
 31
0.0
  0
ARC
  5
B70B
330
B4FF
100
AcDbEntity
  8
1
  6
Continuous
100
AcDbCircle
 10
412.9986549999999
 20
242.684199
 30
0.0
 40
1.531479999999999
100
AcDbArc
 50
70.80719999999998
 51
138.9319999999999
  0
ARC
  5
B70C
330
B4FF
100
AcDbEntity
  8
1
  6
Continuous
100
AcDbCircle
 10
413.1647549999998
 20
243.1613089999999
 30
0.0
 40
1.026289999999999
100
AcDbArc
 50
5.659239999999998
 51
70.80719999999998
  0
ARC
  5
B70D
330
B4FF
100
AcDbEntity
  8
1
  6
Continuous
100
AcDbCircle
 10
403.067855
 20
243.2339089999999
 30
0.0
 40
1.026289999999999
100
AcDbArc
 50
5.659239999999998
 51
70.80719999999998
  0
ARC
  5
B70E
330
B4FF
100
AcDbEntity
  8
1
  6
Continuous
100
AcDbCircle
 10
402.9017549999998
 20
242.756799
 30
0.0
 40
1.531479999999999
100
AcDbArc
 50
70.80719999999998
 51
138.9319999999999
  0
LINE
  5
B70F
330
B4FF
100
AcDbEntity
  8
1
  6
Continuous
100
AcDbLine
 10
413.0136549999998
 20
242.091169
 30
0.0
 11
414.4194549999999
 21
242.091169
 31
0.0
  0
LINE
  5
B710
330
B4FF
100
AcDbEntity
  8
1
  6
Continuous
100
AcDbLine
 10
405.7383549999998
 20
242.294049
 30
0.0
 11
408.332355
 21
242.294049
 31
0.0
  0
LINE
  5
B711
330
B4FF
100
AcDbEntity
  8
1
  6
Continuous
100
AcDbLine
 10
427.6928049999998
 20
250.564718
 30
0.0
 11
427.6928049999998
 21
235.064718
 31
0.0
  0
LINE
  5
B712
330
B4FF
100
AcDbEntity
  8
1
  6
Continuous
100
AcDbLine
 10
415.5788549999998
 20
244.395489
 30
0.0
 11
415.5788549999998
 21
240.1926089999999
 31
0.0
  0
LINE
  5
B713
330
B4FF
100
AcDbEntity
  8
1
  6
Continuous
100
AcDbLine
 10
418.3759549999998
 20
242.076589
 30
0.0
 11
418.3759549999998
 21
240.1926089999999
 31
0.0
  0
LINE
  5
B714
330
B4FF
100
AcDbEntity
  8
1
  6
Continuous
100
AcDbLine
 10
422.107755
 20
244.294049
 30
0.0
 11
420.520855
 21
240.2070089999999
 31
0.0
  0
LINE
  5
B715
330
B4FF
100
AcDbEntity
  8
1
  6
Continuous
100
AcDbLine
 10
422.107755
 20
244.301239
 30
0.0
 11
423.622355
 21
240.206999
 31
0.0
  0
ARC
  5
B716
330
B4FF
100
AcDbEntity
  8
1
  6
Continuous
100
AcDbCircle
 10
426.0523049999997
 20
231.814718
 30
0.0
 40
3.640619999999998
100
AcDbArc
 50
296.785
 51
63.215
  0
LINE
  5
B717
330
B4FF
100
AcDbEntity
  8
1
  6
Continuous
100
AcDbLine
 10
420.9991549999998
 20
241.4098689999999
 30
0.0
 11
423.180255
 21
241.4098689999999
 31
0.0
  0
ARC
  5
B718
330
B4FF
100
AcDbEntity
  8
1
  6
Continuous
100
AcDbCircle
 10
426.0523049999997
 20
253.814718
 30
0.0
 40
3.640629999999998
100
AcDbArc
 50
296.785
 51
63.215
  0
LINE
  5
B719
330
B4FF
100
AcDbEntity
  8
1
  6
Continuous
100
AcDbLine
 10
418.3759549999998
 20
242.083799
 30
0.0
 11
417.028555
 21
244.4247589999999
 31
0.0
  0
LINE
  5
B71A
330
B4FF
100
AcDbEntity
  8
1
  6
Continuous
100
AcDbLine
 10
418.3759549999998
 20
242.076579
 30
0.0
 11
419.7331549999998
 21
244.4272789999998
 31
0.0
  0
ARC
  5
B71B
330
B4FF
100
AcDbEntity
  8
1
  6
Continuous
100
AcDbCircle
 10
518.8537629999998
 20
221.814718
 30
0.0
 40
9.0
100
AcDbArc
 50
164.119
 51
195.8809999999998
  0
ARC
  5
B71C
330
B4FF
100
AcDbEntity
  8
1
  6
Continuous
100
AcDbCircle
 10
420.392905
 20
302.814718
 30
0.0
 40
5.0
100
AcDbArc
 50
0.0
 51
90.0
  0
ARC
  5
B71D
330
B4FF
100
AcDbEntity
  8
1
  6
Continuous
100
AcDbCircle
 10
397.3929049999999
 20
302.814718
 30
0.0
 40
5.0
100
AcDbArc
 50
90.0
 51
180.0
  0
LINE
  5
B71E
330
B4FF
100
AcDbEntity
  8
1
  6
Continuous
100
AcDbLine
 10
388.8929049999999
 20
308.814718
 30
0.0
 11
388.8929049999999
 21
272.8146779999998
 31
0.0
  0
LINE
  5
B71F
330
B4FF
100
AcDbEntity
  8
1
  6
Continuous
100
AcDbLine
 10
428.8928049999998
 20
308.814718
 30
0.0
 11
428.8928049999998
 21
272.8146779999998
 31
0.0
  0
CIRCLE
  5
B720
330
B4FF
100
AcDbEntity
  8
1
  6
Continuous
100
AcDbCircle
 10
408.8929049999999
 20
289.814718
 30
0.0
 40
16.5
  0
CIRCLE
  5
B721
330
B4FF
100
AcDbEntity
  8
1
  6
Continuous
100
AcDbCircle
 10
408.8929049999999
 20
289.814718
 30
0.0
 40
8.0
  0
CIRCLE
  5
B722
330
B4FF
100
AcDbEntity
  8
1
  6
Continuous
100
AcDbCircle
 10
408.8929049999999
 20
289.814718
 30
0.0
 40
11.0
  0
CIRCLE
  5
B723
330
B4FF
100
AcDbEntity
  8
1
  6
Continuous
100
AcDbCircle
 10
408.8929049999999
 20
289.814718
 30
0.0
 40
6.099999999999997
  0
ARC
  5
B724
330
B4FF
100
AcDbEntity
  8
1
  6
Continuous
100
AcDbCircle
 10
408.8929049999999
 20
289.814718
 30
0.0
 40
13.0
100
AcDbArc
 50
210.0
 51
60.0
  0
ARC
  5
B725
330
B4FF
100
AcDbEntity
  8
1
  6
Continuous
100
AcDbCircle
 10
408.8929049999999
 20
289.814718
 30
0.0
 40
14.0
100
AcDbArc
 50
60.0
 51
119.9999999999999
  0
LINE
  5
B726
330
B4FF
100
AcDbEntity
  8
1
  6
Continuous
100
AcDbLine
 10
386.8929049999999
 20
272.8146779999998
 30
0.0
 11
430.8928049999998
 21
272.8146779999998
 31
0.0
  0
LINE
  5
B727
330
B4FF
100
AcDbEntity
  8
1
  6
Continuous
100
AcDbLine
 10
414.392928
 20
299.3409839999998
 30
0.0
 11
415.892905
 21
301.9390179999998
 31
0.0
  0
LINE
  5
B728
330
B4FF
100
AcDbEntity
  8
1
  6
Continuous
100
AcDbLine
 10
420.392905
 20
307.8147180000001
 30
0.0
 11
397.3929049999999
 21
307.8147180000001
 31
0.0
  0
LINE
  5
B729
330
B4FF
100
AcDbEntity
  8
1
  6
Continuous
100
AcDbLine
 10
403.892905
 20
286.927718
 30
0.0
 11
408.8929049999999
 21
284.0407180000001
 31
0.0
  0
LINE
  5
B72A
330
B4FF
100
AcDbEntity
  8
1
  6
Continuous
100
AcDbLine
 10
413.8929049999998
 20
286.927718
 30
0.0
 11
408.8929049999999
 21
284.0407180000001
 31
0.0
  0
CIRCLE
  5
B72B
330
B4FF
100
AcDbEntity
  8
1
  6
Continuous
100
AcDbCircle
 10
408.8929049999999
 20
289.814718
 30
0.0
 40
5.0
  0
CIRCLE
  5
B72C
330
B4FF
100
AcDbEntity
  8
1
  6
Continuous
100
AcDbCircle
 10
408.8929049999999
 20
289.814718
 30
0.0
 40
4.049999999999998
  0
ARC
  5
B72D
330
B4FF
100
AcDbEntity
  8
1
  6
Continuous
100
AcDbCircle
 10
408.8929049999999
 20
289.814718
 30
0.0
 40
12.5
100
AcDbArc
 50
119.9999999999999
 51
210.0
  0
LINE
  5
B72E
330
B4FF
100
AcDbEntity
  8
1
  6
Continuous
100
AcDbLine
 10
392.3929049999999
 20
302.814718
 30
0.0
 11
392.3929049999999
 21
272.8146779999998
 31
0.0
  0
LINE
  5
B72F
330
B4FF
100
AcDbEntity
  8
1
  6
Continuous
100
AcDbLine
 10
399.366637
 20
284.314698
 30
0.0
 11
397.6346049999999
 21
283.314718
 31
0.0
  0
ARC
  5
B730
330
B4FF
100
AcDbEntity
  8
1
  6
Continuous
100
AcDbCircle
 10
386.8929049999999
 20
269.8146779999999
 30
0.0
 40
3.0
100
AcDbArc
 50
90.0
 51
180.0
  0
ARC
  5
B731
330
B4FF
100
AcDbEntity
  8
1
  6
Continuous
100
AcDbCircle
 10
384.8929049999999
 20
278.578618
 30
0.0
 40
10.0
100
AcDbArc
 50
0.0
 51
25.0876
  0
LINE
  5
B732
330
B4FF
100
AcDbEntity
  8
1
  6
Continuous
100
AcDbLine
 10
394.8929049999999
 20
278.578618
 30
0.0
 11
394.8929049999999
 21
272.8146779999998
 31
0.0
  0
LINE
  5
B733
330
B4FF
100
AcDbEntity
  8
1
  6
Continuous
100
AcDbLine
 10
410.033175
 20
264.3407639999999
 30
0.0
 11
410.644115
 21
264.972917
 31
0.0
  0
ARC
  5
B734
330
B4FF
100
AcDbEntity
  8
1
  6
Continuous
100
AcDbCircle
 10
408.891905
 20
263.8146759999999
 30
0.0
 40
2.1
100
AcDbArc
 50
33.463
 51
56.537
  0
LINE
  5
B735
330
B4FF
100
AcDbEntity
  8
1
  6
Continuous
100
AcDbLine
 10
408.891905
 20
264.7650279999999
 30
0.0
 11
409.417992
 21
264.9559469999999
 31
0.0
  0
LINE
  5
B736
330
B4FF
100
AcDbEntity
  8
1
  6
Continuous
100
AcDbLine
 10
408.3672319999998
 20
264.9559469999999
 30
0.0
 11
407.734371
 21
265.5661799999999
 31
0.0
  0
LINE
  5
B737
330
B4FF
100
AcDbEntity
  8
1
  6
Continuous
100
AcDbLine
 10
408.891905
 20
264.7650279999999
 30
0.0
 11
408.3672319999998
 21
264.9559469999999
 31
0.0
  0
LINE
  5
B738
330
B4FF
100
AcDbEntity
  8
1
  6
Continuous
100
AcDbLine
 10
407.7513419999998
 20
264.340057
 30
0.0
 11
407.140401
 21
264.97221
 31
0.0
  0
ARC
  5
B739
330
B4FF
100
AcDbEntity
  8
1
  6
Continuous
100
AcDbCircle
 10
408.891905
 20
263.8146759999999
 30
0.0
 40
2.1
100
AcDbArc
 50
123.4629999999998
 51
146.537
  0
LINE
  5
B73A
330
B4FF
100
AcDbEntity
  8
1
  6
Continuous
100
AcDbLine
 10
409.417992
 20
264.9559469999999
 30
0.0
 11
410.050146
 21
265.5668869999999
 31
0.0
  0
ARC
  5
B73B
330
B4FF
100
AcDbEntity
  8
1
  6
Continuous
100
AcDbCircle
 10
407.392905
 20
272.8809779999999
 30
0.0
 40
0.5
100
AcDbArc
 50
0.0
 51
84.9379
  0
ARC
  5
B73C
330
B4FF
100
AcDbEntity
  8
1
  6
Continuous
100
AcDbCircle
 10
410.3929049999998
 20
272.8809779999999
 30
0.0
 40
0.5
100
AcDbArc
 50
95.06210000000001
 51
180.0
  0
LINE
  5
B73D
330
B4FF
100
AcDbEntity
  8
1
  6
Continuous
100
AcDbLine
 10
409.8929049999998
 20
276.853218
 30
0.0
 11
409.8929049999998
 21
273.345008
 31
0.0
  0
LINE
  5
B73E
330
B4FF
100
AcDbEntity
  8
1
  6
Continuous
100
AcDbLine
 10
407.892905
 20
276.853218
 30
0.0
 11
407.892905
 21
273.345008
 31
0.0
  0
LINE
  5
B73F
330
B4FF
100
AcDbEntity
  8
1
  6
Continuous
100
AcDbLine
 10
396.433005
 20
288.814718
 30
0.0
 11
392.4233049999998
 21
288.814718
 31
0.0
  0
LINE
  5
B740
330
B4FF
100
AcDbEntity
  8
1
  6
Continuous
100
AcDbLine
 10
396.433005
 20
290.814718
 30
0.0
 11
392.4233049999998
 21
290.814718
 31
0.0
  0
LINE
  5
B741
330
B4FF
100
AcDbEntity
  8
1
  6
Continuous
100
AcDbLine
 10
413.8929049999998
 20
286.927718
 30
0.0
 11
413.8929049999998
 21
292.701718
 31
0.0
  0
LINE
  5
B742
330
B4FF
100
AcDbEntity
  8
1
  6
Continuous
100
AcDbLine
 10
408.8929049999999
 20
291.298542
 30
0.0
 11
408.8899399999998
 21
291.299448
 31
0.0
  0
LINE
  5
B743
330
B4FF
100
AcDbEntity
  8
1
  6
Continuous
100
AcDbLine
 10
408.8929049999999
 20
291.298542
 30
0.0
 11
408.895869
 21
291.299448
 31
0.0
  0
LINE
  5
B744
330
B4FF
100
AcDbEntity
  8
1
  6
Continuous
100
AcDbLine
 10
408.895869
 20
291.299448
 30
0.0
 11
410.2463959999998
 21
292.6036359999999
 31
0.0
  0
LINE
  5
B745
330
B4FF
100
AcDbEntity
  8
1
  6
Continuous
100
AcDbLine
 10
407.539414
 20
292.6036359999999
 30
0.0
 11
408.8899399999998
 21
291.299448
 31
0.0
  0
LINE
  5
B746
330
B4FF
100
AcDbEntity
  8
1
  6
Continuous
100
AcDbLine
 10
408.8929049999999
 20
295.5877179999998
 30
0.0
 11
403.892905
 21
292.701718
 31
0.0
  0
ARC
  5
B747
330
B4FF
100
AcDbEntity
  8
1
  6
Continuous
100
AcDbCircle
 10
408.8929049999999
 20
289.814718
 30
0.0
 40
3.1
100
AcDbArc
 50
115.8877849999999
 51
154.1122149999999
  0
LINE
  5
B748
330
B4FF
100
AcDbEntity
  8
1
  6
Continuous
100
AcDbLine
 10
410.2463959999998
 20
287.025801
 30
0.0
 11
408.895869
 21
288.3299889999999
 31
0.0
  0
LINE
  5
B749
330
B4FF
100
AcDbEntity
  8
1
  6
Continuous
100
AcDbLine
 10
410.3767279999998
 20
289.814718
 30
0.0
 11
410.377634
 21
289.817683
 31
0.0
  0
LINE
  5
B74A
330
B4FF
100
AcDbEntity
  8
1
  6
Continuous
100
AcDbLine
 10
410.3767279999998
 20
289.814718
 30
0.0
 11
410.377634
 21
289.811754
 31
0.0
  0
LINE
  5
B74B
330
B4FF
100
AcDbEntity
  8
1
  6
Continuous
100
AcDbLine
 10
408.8929049999999
 20
288.3308949999999
 30
0.0
 11
408.895869
 21
288.3299889999999
 31
0.0
  0
LINE
  5
B74C
330
B4FF
100
AcDbEntity
  8
1
  6
Continuous
100
AcDbLine
 10
408.8929049999999
 20
288.3308949999999
 30
0.0
 11
408.8899399999998
 21
288.3299889999999
 31
0.0
  0
LINE
  5
B74D
330
B4FF
100
AcDbEntity
  8
1
  6
Continuous
100
AcDbLine
 10
407.4090819999998
 20
289.814718
 30
0.0
 11
407.408175
 21
289.811754
 31
0.0
  0
LINE
  5
B74E
330
B4FF
100
AcDbEntity
  8
1
  6
Continuous
100
AcDbLine
 10
407.4090819999998
 20
289.814718
 30
0.0
 11
407.408175
 21
289.817683
 31
0.0
  0
LINE
  5
B74F
330
B4FF
100
AcDbEntity
  8
1
  6
Continuous
100
AcDbLine
 10
408.8899399999998
 20
288.3299889999999
 30
0.0
 11
407.539414
 21
287.025801
 31
0.0
  0
ARC
  5
B750
330
B4FF
100
AcDbEntity
  8
1
  6
Continuous
100
AcDbCircle
 10
408.8929049999999
 20
289.814718
 30
0.0
 40
3.1
100
AcDbArc
 50
205.887785
 51
244.112215
  0
LINE
  5
B751
330
B4FF
100
AcDbEntity
  8
1
  6
Continuous
100
AcDbLine
 10
407.408175
 20
289.811754
 30
0.0
 11
406.103987
 21
288.461227
 31
0.0
  0
LINE
  5
B752
330
B4FF
100
AcDbEntity
  8
1
  6
Continuous
100
AcDbLine
 10
403.892905
 20
286.927718
 30
0.0
 11
403.892905
 21
292.701718
 31
0.0
  0
LINE
  5
B753
330
B4FF
100
AcDbEntity
  8
1
  6
Continuous
100
AcDbLine
 10
406.103987
 20
291.1682089999998
 30
0.0
 11
407.408175
 21
289.817683
 31
0.0
  0
LINE
  5
B754
330
B4FF
100
AcDbEntity
  8
1
  6
Continuous
100
AcDbLine
 10
408.8929049999999
 20
295.5877179999998
 30
0.0
 11
413.8929049999998
 21
292.701718
 31
0.0
  0
ARC
  5
B755
330
B4FF
100
AcDbEntity
  8
1
  6
Continuous
100
AcDbCircle
 10
408.8929049999999
 20
289.814718
 30
0.0
 40
3.1
100
AcDbArc
 50
295.887785
 51
334.1122149999999
  0
LINE
  5
B756
330
B4FF
100
AcDbEntity
  8
1
  6
Continuous
100
AcDbLine
 10
411.6818229999998
 20
288.461227
 30
0.0
 11
410.377634
 21
289.811754
 31
0.0
  0
LINE
  5
B757
330
B4FF
100
AcDbEntity
  8
1
  6
Continuous
100
AcDbLine
 10
410.377634
 20
289.817683
 30
0.0
 11
411.6818229999998
 21
291.1682089999998
 31
0.0
  0
ARC
  5
B758
330
B4FF
100
AcDbEntity
  8
1
  6
Continuous
100
AcDbCircle
 10
408.8929049999999
 20
289.814718
 30
0.0
 40
3.1
100
AcDbArc
 50
25.887785
 51
64.112215
  0
LINE
  5
B759
330
B4FF
100
AcDbEntity
  8
1
  6
Continuous
100
AcDbLine
 10
409.8929049999998
 20
306.284387
 30
0.0
 11
409.8929049999998
 21
303.7789179999998
 31
0.0
  0
LINE
  5
B75A
330
B4FF
100
AcDbEntity
  8
1
  6
Continuous
100
AcDbLine
 10
407.892905
 20
306.284387
 30
0.0
 11
407.892905
 21
303.7789179999998
 31
0.0
  0
LINE
  5
B75B
330
B4FF
100
AcDbEntity
  8
1
  6
Continuous
100
AcDbLine
 10
403.3928829999998
 20
299.3409849999999
 30
0.0
 11
401.8929049999998
 21
301.9390179999998
 31
0.0
  0
LINE
  5
B75C
330
B4FF
100
AcDbEntity
  8
1
  6
Continuous
100
AcDbLine
 10
425.3929049999999
 20
302.814718
 30
0.0
 11
425.3929049999999
 21
272.8146779999998
 31
0.0
  0
ARC
  5
B75D
330
B4FF
100
AcDbEntity
  8
1
  6
Continuous
100
AcDbCircle
 10
432.892805
 20
278.578618
 30
0.0
 40
10.0
100
AcDbArc
 50
154.912
 51
180.0
  0
LINE
  5
B75E
330
B4FF
100
AcDbEntity
  8
1
  6
Continuous
100
AcDbLine
 10
422.8929049999998
 20
278.578618
 30
0.0
 11
422.8929049999998
 21
272.8146779999998
 31
0.0
  0
ARC
  5
B75F
330
B4FF
100
AcDbEntity
  8
1
  6
Continuous
100
AcDbCircle
 10
430.8928049999998
 20
269.8146779999999
 30
0.0
 40
3.0
100
AcDbArc
 50
0.0
 51
90.0
  0
LINE
  5
B760
330
B4FF
100
AcDbEntity
  8
1
  6
Continuous
100
AcDbLine
 10
425.3626049999998
 20
288.814718
 30
0.0
 11
421.854405
 21
288.814718
 31
0.0
  0
LINE
  5
B761
330
B4FF
100
AcDbEntity
  8
1
  6
Continuous
100
AcDbLine
 10
425.3626049999998
 20
290.814718
 30
0.0
 11
421.854405
 21
290.814718
 31
0.0
  0
LINE
  5
B762
330
B4FF
100
AcDbEntity
  8
1
  6
Continuous
100
AcDbLine
 10
424.892905
 20
312.814718
 30
0.0
 11
392.8929049999999
 21
312.814718
 31
0.0
  0
ARC
  5
B763
330
B4FF
100
AcDbEntity
  8
1
  6
Continuous
100
AcDbCircle
 10
392.8929049999999
 20
308.814718
 30
0.0
 40
4.0
100
AcDbArc
 50
90.0
 51
180.0
  0
ARC
  5
B764
330
B4FF
100
AcDbEntity
  8
1
  6
Continuous
100
AcDbCircle
 10
424.892905
 20
308.814718
 30
0.0
 40
4.0
100
AcDbArc
 50
0.0
 51
90.0
  0
LINE
  5
B765
330
B4FF
100
AcDbEntity
  8
1
  6
Continuous
100
AcDbLine
 10
223.5755109999999
 20
393.637992
 30
0.0
 11
233.875811
 21
396.137992
 31
0.0
  0
ARC
  5
B766
330
B4FF
100
AcDbEntity
  8
1
  6
Continuous
100
AcDbCircle
 10
233.6399469999999
 20
397.109778
 30
0.0
 40
1.0
100
AcDbArc
 50
270.0
 51
0.0
  0
LINE
  5
B767
330
B4FF
100
AcDbEntity
  8
1
  6
Continuous
100
AcDbLine
 10
224.3396469999999
 20
425.609778
 30
0.0
 11
224.3396469999999
 21
394.609778
 31
0.0
  0
LINE
  5
B768
330
B4FF
100
AcDbEntity
  8
1
  6
Continuous
100
AcDbLine
 10
200.839647
 20
398.859778
 30
0.0
 11
203.339647
 21
390.109778
 31
0.0
  0
LINE
  5
B769
330
B4FF
100
AcDbEntity
  8
1
  6
Continuous
100
AcDbLine
 10
203.339647
 20
430.109778
 30
0.0
 11
203.339647
 21
390.109778
 31
0.0
  0
LINE
  5
B76A
330
B4FF
100
AcDbEntity
  8
1
  6
Continuous
100
AcDbLine
 10
206.8396469999999
 20
430.109778
 30
0.0
 11
206.8396469999999
 21
390.109778
 31
0.0
  0
LINE
  5
B76B
330
B4FF
100
AcDbEntity
  8
1
  6
Continuous
100
AcDbLine
 10
208.8396469999999
 20
425.609778
 30
0.0
 11
208.8396469999999
 21
394.609778
 31
0.0
  0
LINE
  5
B76C
330
B4FF
100
AcDbEntity
  8
1
  6
Continuous
100
AcDbLine
 10
205.8396469999999
 20
430.109778
 30
0.0
 11
205.8396469999999
 21
390.109778
 31
0.0
  0
ARC
  5
B76D
330
B4FF
100
AcDbEntity
  8
1
  6
Continuous
100
AcDbCircle
 10
223.339647
 20
394.609778
 30
0.0
 40
1.0
100
AcDbArc
 50
270.0
 51
0.0
  0
LINE
  5
B76E
330
B4FF
100
AcDbEntity
  8
1
  6
Continuous
100
AcDbLine
 10
206.8396469999999
 20
393.609778
 30
0.0
 11
223.339647
 21
393.609778
 31
0.0
  0
LINE
  5
B76F
330
B4FF
100
AcDbEntity
  8
1
  6
Continuous
100
AcDbLine
 10
203.339647
 20
390.109778
 30
0.0
 11
206.8396469999999
 21
390.109778
 31
0.0
  0
ARC
  5
B770
330
B4FF
100
AcDbEntity
  8
1
  6
Continuous
100
AcDbCircle
 10
207.8396469999999
 20
394.609778
 30
0.0
 40
1.0
100
AcDbArc
 50
270.0
 51
0.0
  0
ARC
  5
B771
330
B4FF
100
AcDbEntity
  8
1
  6
Continuous
100
AcDbCircle
 10
223.339647
 20
425.609778
 30
0.0
 40
1.0
100
AcDbArc
 50
0.0
 51
90.0
  0
LINE
  5
B772
330
B4FF
100
AcDbEntity
  8
4
  6
CENTER
100
AcDbLine
 10
197.272403
 20
410.1097779999998
 30
0.0
 11
245.391554
 21
410.1097779999998
 31
0.0
  0
ARC
  5
B773
330
B4FF
100
AcDbEntity
  8
1
  6
Continuous
100
AcDbCircle
 10
300.2724029999999
 20
410.1097779999998
 30
0.0
 40
100.0
100
AcDbArc
 50
174.730718
 51
185.269282
  0
LINE
  5
B774
330
B4FF
100
AcDbEntity
  8
1
  6
Continuous
100
AcDbLine
 10
200.839647
 20
421.3597779999998
 30
0.0
 11
200.839647
 21
398.859778
 31
0.0
  0
ARC
  5
B775
330
B4FF
100
AcDbEntity
  8
1
  6
Continuous
100
AcDbCircle
 10
202.6865439999999
 20
401.109778
 30
0.0
 40
2.0
100
AcDbArc
 50
185.269282
 51
202.564484
  0
LINE
  5
B776
330
B4FF
100
AcDbEntity
  8
1
  6
Continuous
100
AcDbLine
 10
206.8396469999999
 20
426.6097779999998
 30
0.0
 11
223.339647
 21
426.6097779999998
 31
0.0
  0
ARC
  5
B777
330
B4FF
100
AcDbEntity
  8
1
  6
Continuous
100
AcDbCircle
 10
202.6865439999999
 20
419.1097779999997
 30
0.0
 40
2.0
100
AcDbArc
 50
157.4355159999998
 51
174.730718
  0
LINE
  5
B778
330
B4FF
100
AcDbEntity
  8
1
  6
Continuous
100
AcDbLine
 10
203.339647
 20
430.109778
 30
0.0
 11
200.839647
 21
421.3597779999998
 31
0.0
  0
LINE
  5
B779
330
B4FF
100
AcDbEntity
  8
1
  6
Continuous
100
AcDbLine
 10
203.339647
 20
430.109778
 30
0.0
 11
206.8396469999999
 21
430.109778
 31
0.0
  0
ARC
  5
B77A
330
B4FF
100
AcDbEntity
  8
1
  6
Continuous
100
AcDbCircle
 10
207.8396469999999
 20
425.609778
 30
0.0
 40
1.0
100
AcDbArc
 50
0.0
 51
90.0
  0
LINE
  5
B77B
330
B4FF
100
AcDbEntity
  8
1
  6
Continuous
100
AcDbLine
 10
234.839947
 20
423.1097779999998
 30
0.0
 11
234.839947
 21
417.109778
 31
0.0
  0
LINE
  5
B77C
330
B4FF
100
AcDbEntity
  8
1
  6
Continuous
100
AcDbLine
 10
236.839947
 20
423.1097779999998
 30
0.0
 11
236.839947
 21
398.851478
 31
0.0
  0
LINE
  5
B77D
330
B4FF
100
AcDbEntity
  8
1
  6
Continuous
100
AcDbLine
 10
234.639947
 20
423.1097779999998
 30
0.0
 11
234.639947
 21
417.109778
 31
0.0
  0
LINE
  5
B77E
330
B4FF
100
AcDbEntity
  8
2
  6
Continuous
100
AcDbLine
 10
240.839947
 20
417.1807779999999
 30
0.0
 11
236.839947
 21
410.4464919999998
 31
0.0
  0
LINE
  5
B77F
330
B4FF
100
AcDbEntity
  8
2
  6
Continuous
100
AcDbLine
 10
236.839947
 20
416.844064
 30
0.0
 11
240.839947
 21
410.1097779999998
 31
0.0
  0
LINE
  5
B780
330
B4FF
100
AcDbEntity
  8
2
  6
Continuous
100
AcDbLine
 10
236.839947
 20
409.7730639999999
 30
0.0
 11
240.839947
 21
403.0387779999998
 31
0.0
  0
LINE
  5
B781
330
B4FF
100
AcDbEntity
  8
2
  6
Continuous
100
AcDbLine
 10
240.839947
 20
410.1097779999998
 30
0.0
 11
236.839947
 21
403.3754919999998
 31
0.0
  0
LINE
  5
B782
330
B4FF
100
AcDbEntity
  8
1
  6
Continuous
100
AcDbLine
 10
236.839947
 20
410.1097779999998
 30
0.0
 11
240.839947
 21
410.1097779999998
 31
0.0
  0
LINE
  5
B783
330
B4FF
100
AcDbEntity
  8
1
  6
Continuous
100
AcDbLine
 10
236.839947
 20
417.1807779999999
 30
0.0
 11
240.839947
 21
417.1807779999999
 31
0.0
  0
LINE
  5
B784
330
B4FF
100
AcDbEntity
  8
1
  6
Continuous
100
AcDbLine
 10
236.839947
 20
403.0387779999998
 30
0.0
 11
240.839947
 21
403.0387779999998
 31
0.0
  0
LINE
  5
B785
330
B4FF
100
AcDbEntity
  8
1
  6
Continuous
100
AcDbLine
 10
234.639947
 20
402.9097779999998
 30
0.0
 11
234.839947
 21
402.9097779999998
 31
0.0
  0
LINE
  5
B786
330
B4FF
100
AcDbEntity
  8
1
  6
Continuous
100
AcDbLine
 10
234.639947
 20
417.3097779999998
 30
0.0
 11
234.839947
 21
417.3097779999998
 31
0.0
  0
LINE
  5
B787
330
B4FF
100
AcDbEntity
  8
1
  6
Continuous
100
AcDbLine
 10
234.839947
 20
398.851478
 30
0.0
 11
234.839947
 21
403.109778
 31
0.0
  0
LINE
  5
B788
330
B4FF
100
AcDbEntity
  8
1
  6
Continuous
100
AcDbLine
 10
236.639947
 20
417.109778
 30
0.0
 11
236.639947
 21
403.109778
 31
0.0
  0
LINE
  5
B789
330
B4FF
100
AcDbEntity
  8
1
  6
Continuous
100
AcDbLine
 10
230.519947
 20
411.1097779999998
 30
0.0
 11
230.519947
 21
409.109778
 31
0.0
  0
LINE
  5
B78A
330
B4FF
100
AcDbEntity
  8
1
  6
Continuous
100
AcDbLine
 10
224.3396469999999
 20
411.1097779999998
 30
0.0
 11
230.519947
 21
411.1097779999998
 31
0.0
  0
LINE
  5
B78B
330
B4FF
100
AcDbEntity
  8
1
  6
Continuous
100
AcDbLine
 10
224.3396469999999
 20
409.109778
 30
0.0
 11
230.519947
 21
409.109778
 31
0.0
  0
LINE
  5
B78C
330
B4FF
100
AcDbEntity
  8
1
  6
Continuous
100
AcDbLine
 10
234.839947
 20
400.109778
 30
0.0
 11
236.839947
 21
400.109778
 31
0.0
  0
LINE
  5
B78D
330
B4FF
100
AcDbEntity
  8
1
  6
Continuous
100
AcDbLine
 10
234.839947
 20
398.851478
 30
0.0
 11
236.839947
 21
398.851478
 31
0.0
  0
LINE
  5
B78E
330
B4FF
100
AcDbEntity
  8
1
  6
Continuous
100
AcDbLine
 10
234.639947
 20
403.109778
 30
0.0
 11
234.639947
 21
397.109778
 31
0.0
  0
LINE
  5
B78F
330
B4FF
100
AcDbEntity
  8
1
  6
Continuous
100
AcDbLine
 10
224.3396469999999
 20
403.109778
 30
0.0
 11
236.639947
 21
403.109778
 31
0.0
  0
LINE
  5
B790
330
B4FF
100
AcDbEntity
  8
1
  6
Continuous
100
AcDbLine
 10
224.3396469999999
 20
417.109778
 30
0.0
 11
236.639947
 21
417.109778
 31
0.0
  0
LINE
  5
B791
330
B4FF
100
AcDbEntity
  8
1
  6
Continuous
100
AcDbLine
 10
224.3396469999999
 20
396.109778
 30
0.0
 11
233.6399469999999
 21
396.109778
 31
0.0
  0
LINE
  5
B792
330
B4FF
100
AcDbEntity
  8
1
  6
Continuous
100
AcDbLine
 10
240.839947
 20
417.1807779999999
 30
0.0
 11
240.839947
 21
403.0387779999998
 31
0.0
  0
LINE
  5
B793
330
B4FF
100
AcDbEntity
  8
1
  6
Continuous
100
AcDbLine
 10
223.5755109999999
 20
426.5815639999998
 30
0.0
 11
233.875811
 21
424.0815639999998
 31
0.0
  0
ARC
  5
B794
330
B4FF
100
AcDbEntity
  8
1
  6
Continuous
100
AcDbCircle
 10
233.6399469999999
 20
423.1097779999998
 30
0.0
 40
1.0
100
AcDbArc
 50
0.0
 51
90.0
  0
LINE
  5
B795
330
B4FF
100
AcDbEntity
  8
1
  6
Continuous
100
AcDbLine
 10
234.839947
 20
423.1097779999998
 30
0.0
 11
236.839947
 21
423.1097779999998
 31
0.0
  0
LINE
  5
B796
330
B4FF
100
AcDbEntity
  8
1
  6
Continuous
100
AcDbLine
 10
224.3396469999999
 20
424.109778
 30
0.0
 11
233.6399469999999
 21
424.109778
 31
0.0
  0
LINE
  5
B797
330
B4FF
100
AcDbEntity
  8
1
  6
Continuous
100
AcDbLine
 10
302.0320469999999
 20
426.6097779999998
 30
0.0
 11
302.0320469999999
 21
393.609778
 31
0.0
  0
LINE
  5
B798
330
B4FF
100
AcDbEntity
  8
1
  6
Continuous
100
AcDbLine
 10
306.3320469999999
 20
426.6097779999998
 30
0.0
 11
306.3320469999999
 21
393.609778
 31
0.0
  0
LINE
  5
B799
330
B4FF
100
AcDbEntity
  8
1
  6
Continuous
100
AcDbLine
 10
304.3320469999999
 20
426.6097779999998
 30
0.0
 11
304.3320469999999
 21
393.609778
 31
0.0
  0
ARC
  5
B79A
330
B4FF
100
AcDbEntity
  8
1
  6
Continuous
100
AcDbCircle
 10
287.6320469999999
 20
391.309778
 30
0.0
 40
2.299999999999998
100
AcDbArc
 50
90.0
 51
180.0
  0
LINE
  5
B79B
330
B4FF
100
AcDbEntity
  8
1
  6
Continuous
100
AcDbLine
 10
285.3320469999999
 20
385.109778
 30
0.0
 11
287.6320469999999
 21
385.109778
 31
0.0
  0
LINE
  5
B79C
330
B4FF
100
AcDbEntity
  8
1
  6
Continuous
100
AcDbLine
 10
285.3320469999999
 20
391.309778
 30
0.0
 11
285.3320469999999
 21
385.109778
 31
0.0
  0
ARC
  5
B79D
330
B4FF
100
AcDbEntity
  8
1
  6
Continuous
100
AcDbCircle
 10
302.0320469999999
 20
393.609778
 30
0.0
 40
4.299999999999998
100
AcDbArc
 50
270.0
 51
0.0
  0
ARC
  5
B79E
330
B4FF
100
AcDbEntity
  8
1
  6
Continuous
100
AcDbCircle
 10
302.0320469999999
 20
393.609778
 30
0.0
 40
2.299999999999998
100
AcDbArc
 50
270.0
 51
0.0
  0
ARC
  5
B79F
330
B4FF
100
AcDbEntity
  8
1
  6
Continuous
100
AcDbCircle
 10
293.773027
 20
392.9507779999998
 30
0.0
 40
3.641
100
AcDbArc
 50
206.7886269999998
 51
270.0
  0
LINE
  5
B7A0
330
B4FF
100
AcDbEntity
  8
1
  6
Continuous
100
AcDbLine
 10
293.773027
 20
389.309778
 30
0.0
 11
302.0320469999999
 21
389.309778
 31
0.0
  0
LINE
  5
B7A1
330
B4FF
100
AcDbEntity
  8
1
  6
Continuous
100
AcDbLine
 10
287.6320469999999
 20
391.309778
 30
0.0
 11
287.6320469999999
 21
385.109778
 31
0.0
  0
LINE
  5
B7A2
330
B4FF
100
AcDbEntity
  8
1
  6
Continuous
100
AcDbLine
 10
287.6320469999999
 20
391.309778
 30
0.0
 11
302.0320469999999
 21
391.309778
 31
0.0
  0
LINE
  5
B7A3
330
B4FF
100
AcDbEntity
  8
1
  6
Continuous
100
AcDbLine
 10
287.6320469999999
 20
393.609778
 30
0.0
 11
302.0320469999999
 21
393.609778
 31
0.0
  0
ARC
  5
B7A4
330
B4FF
100
AcDbEntity
  8
1
  6
Continuous
100
AcDbCircle
 10
287.6320469999999
 20
428.909778
 30
0.0
 40
2.299999999999998
100
AcDbArc
 50
180.0
 51
270.0
  0
LINE
  5
B7A5
330
B4FF
100
AcDbEntity
  8
1
  6
Continuous
100
AcDbLine
 10
285.3320469999999
 20
435.1097779999998
 30
0.0
 11
287.6320469999999
 21
435.1097779999998
 31
0.0
  0
LINE
  5
B7A6
330
B4FF
100
AcDbEntity
  8
1
  6
Continuous
100
AcDbLine
 10
262.7824469999999
 20
421.109778
 30
0.0
 11
262.7824469999999
 21
399.109778
 31
0.0
  0
LINE
  5
B7A7
330
B4FF
100
AcDbEntity
  8
1
  6
Continuous
100
AcDbLine
 10
264.7824469999999
 20
421.109778
 30
0.0
 11
264.7824469999999
 21
399.109778
 31
0.0
  0
LINE
  5
B7A8
330
B4FF
100
AcDbEntity
  8
1
  6
Continuous
100
AcDbLine
 10
266.382447
 20
402.1097779999998
 30
0.0
 11
266.382447
 21
418.1097779999998
 31
0.0
  0
LINE
  5
B7A9
330
B4FF
100
AcDbEntity
  8
1
  6
Continuous
100
AcDbLine
 10
271.882447
 20
415.1097779999998
 30
0.0
 11
267.882447
 21
415.1097779999998
 31
0.0
  0
LINE
  5
B7AA
330
B4FF
100
AcDbEntity
  8
1
  6
Continuous
100
AcDbLine
 10
271.882447
 20
405.109778
 30
0.0
 11
267.882447
 21
405.109778
 31
0.0
  0
LINE
  5
B7AB
330
B4FF
100
AcDbEntity
  8
1
  6
Continuous
100
AcDbLine
 10
271.3368469999999
 20
410.1097779999998
 30
0.0
 11
268.329047
 21
410.1097779999998
 31
0.0
  0
LINE
  5
B7AC
330
B4FF
100
AcDbEntity
  8
4
  6
CENTER
100
AcDbLine
 10
274.715847
 20
410.1097779999998
 30
0.0
 11
259.7824469999999
 21
410.1097779999998
 31
0.0
  0
LINE
  5
B7AD
330
B4FF
100
AcDbEntity
  8
1
  6
Continuous
100
AcDbLine
 10
266.382447
 20
408.609778
 30
0.0
 11
267.882447
 21
410.1097779999998
 31
0.0
  0
LINE
  5
B7AE
330
B4FF
100
AcDbEntity
  8
1
  6
Continuous
100
AcDbLine
 10
266.382447
 20
410.1097779999998
 30
0.0
 11
267.882447
 21
411.609778
 31
0.0
  0
ARC
  5
B7AF
330
B4FF
100
AcDbEntity
  8
1
  6
Continuous
100
AcDbCircle
 10
275.102847
 20
407.609778
 30
0.0
 40
7.220389999999997
100
AcDbArc
 50
159.7419999999999
 51
200.258
  0
ARC
  5
B7B0
330
B4FF
100
AcDbEntity
  8
1
  6
Continuous
100
AcDbCircle
 10
275.102847
 20
412.609778
 30
0.0
 40
7.220389999999997
100
AcDbArc
 50
159.7419999999999
 51
200.258
  0
LINE
  5
B7B1
330
B4FF
100
AcDbEntity
  8
1
  6
Continuous
100
AcDbLine
 10
264.7824469999999
 20
399.109778
 30
0.0
 11
262.7824469999999
 21
399.109778
 31
0.0
  0
LINE
  5
B7B2
330
B4FF
100
AcDbEntity
  8
1
  6
Continuous
100
AcDbLine
 10
266.382447
 20
402.1097779999998
 30
0.0
 11
264.7824469999999
 21
402.1097779999998
 31
0.0
  0
LINE
  5
B7B3
330
B4FF
100
AcDbEntity
  8
1
  6
Continuous
100
AcDbLine
 10
267.882447
 20
416.2097779999998
 30
0.0
 11
266.382447
 21
416.2097779999998
 31
0.0
  0
LINE
  5
B7B4
330
B4FF
100
AcDbEntity
  8
1
  6
Continuous
100
AcDbLine
 10
267.882447
 20
404.0097779999999
 30
0.0
 11
266.382447
 21
404.0097779999999
 31
0.0
  0
LINE
  5
B7B5
330
B4FF
100
AcDbEntity
  8
1
  6
Continuous
100
AcDbLine
 10
267.882447
 20
404.0097779999999
 30
0.0
 11
267.882447
 21
416.2097779999998
 31
0.0
  0
ARC
  5
B7B6
330
B4FF
100
AcDbEntity
  8
1
  6
Continuous
100
AcDbCircle
 10
264.6620469999999
 20
412.609778
 30
0.0
 40
7.220389999999997
100
AcDbArc
 50
339.7419999999998
 51
20.2576
  0
ARC
  5
B7B7
330
B4FF
100
AcDbEntity
  8
1
  6
Continuous
100
AcDbCircle
 10
264.6620469999999
 20
407.609778
 30
0.0
 40
7.220389999999997
100
AcDbArc
 50
339.7419999999998
 51
20.2576
  0
LINE
  5
B7B8
330
B4FF
100
AcDbEntity
  8
1
  6
Continuous
100
AcDbLine
 10
271.882447
 20
415.1097779999998
 30
0.0
 11
271.882447
 21
405.109778
 31
0.0
  0
LINE
  5
B7B9
330
B4FF
100
AcDbEntity
  8
1
  6
Continuous
100
AcDbLine
 10
264.7824469999999
 20
421.109778
 30
0.0
 11
262.7824469999999
 21
421.109778
 31
0.0
  0
LINE
  5
B7BA
330
B4FF
100
AcDbEntity
  8
1
  6
Continuous
100
AcDbLine
 10
266.382447
 20
418.1097779999998
 30
0.0
 11
264.7824469999999
 21
418.1097779999998
 31
0.0
  0
LINE
  5
B7BB
330
B4FF
100
AcDbEntity
  8
1
  6
Continuous
100
AcDbLine
 10
285.3320469999999
 20
435.1097779999998
 30
0.0
 11
285.3320469999999
 21
428.909778
 31
0.0
  0
LINE
  5
B7BC
330
B4FF
100
AcDbEntity
  8
4
  6
CENTER
100
AcDbLine
 10
298.0871
 20
410.1097779999998
 30
0.0
 11
312.932047
 21
410.1097779999998
 31
0.0
  0
LINE
  5
B7BD
330
B4FF
100
AcDbEntity
  8
1
  6
Continuous
100
AcDbLine
 10
307.332047
 20
413.90978
 30
0.0
 11
307.332047
 21
406.3097799999998
 31
0.0
  0
LINE
  5
B7BE
330
B4FF
100
AcDbEntity
  8
1
  6
Continuous
100
AcDbLine
 10
306.3320469999999
 20
406.3097799999998
 30
0.0
 11
307.332047
 21
406.3097799999998
 31
0.0
  0
LINE
  5
B7BF
330
B4FF
100
AcDbEntity
  8
1
  6
Continuous
100
AcDbLine
 10
306.3320469999999
 20
413.90978
 30
0.0
 11
307.332047
 21
413.90978
 31
0.0
  0
LINE
  5
B7C0
330
B4FF
100
AcDbEntity
  8
1
  6
Continuous
100
AcDbLine
 10
307.332047
 20
410.1097779999998
 30
0.0
 11
306.3320469999999
 21
409.109778
 31
0.0
  0
LINE
  5
B7C1
330
B4FF
100
AcDbEntity
  8
1
  6
Continuous
100
AcDbLine
 10
307.332047
 20
411.1097779999998
 30
0.0
 11
306.3320469999999
 21
410.1097779999998
 31
0.0
  0
ARC
  5
B7C2
330
B4FF
100
AcDbEntity
  8
1
  6
Continuous
100
AcDbCircle
 10
300.932047
 20
410.1097779999998
 30
0.0
 40
9.0
100
AcDbArc
 50
344.1190000000001
 51
15.88099999999999
  0
LINE
  5
B7C3
330
B4FF
100
AcDbEntity
  8
1
  6
Continuous
100
AcDbLine
 10
308.466556
 20
406.709047
 30
0.0
 11
307.331047
 21
406.6097779999997
 31
0.0
  0
ARC
  5
B7C4
330
B4FF
100
AcDbEntity
  8
1
  6
Continuous
100
AcDbCircle
 10
308.3390469999998
 20
408.0027779999999
 30
0.0
 40
1.3
100
AcDbArc
 50
275.0
 51
344.1190000000001
  0
LINE
  5
B7C5
330
B4FF
100
AcDbEntity
  8
1
  6
Continuous
100
AcDbLine
 10
308.452047
 20
413.5117779999998
 30
0.0
 11
307.332047
 21
413.609778
 31
0.0
  0
ARC
  5
B7C6
330
B4FF
100
AcDbEntity
  8
1
  6
Continuous
100
AcDbCircle
 10
308.3390469999998
 20
412.2167779999998
 30
0.0
 40
1.3
100
AcDbArc
 50
15.88099999999999
 51
85.0
  0
ARC
  5
B7C7
330
B4FF
100
AcDbEntity
  8
1
  6
Continuous
100
AcDbCircle
 10
302.0320469999999
 20
426.6097779999998
 30
0.0
 40
4.299999999999998
100
AcDbArc
 50
0.0
 51
90.0
  0
ARC
  5
B7C8
330
B4FF
100
AcDbEntity
  8
1
  6
Continuous
100
AcDbCircle
 10
302.0320469999999
 20
426.6097779999998
 30
0.0
 40
2.299999999999998
100
AcDbArc
 50
0.0
 51
90.0
  0
ARC
  5
B7C9
330
B4FF
100
AcDbEntity
  8
1
  6
Continuous
100
AcDbCircle
 10
293.773027
 20
427.268778
 30
0.0
 40
3.641
100
AcDbArc
 50
90.0
 51
153.211373
  0
LINE
  5
B7CA
330
B4FF
100
AcDbEntity
  8
1
  6
Continuous
100
AcDbLine
 10
293.773027
 20
430.909778
 30
0.0
 11
302.0320469999999
 21
430.909778
 31
0.0
  0
LINE
  5
B7CB
330
B4FF
100
AcDbEntity
  8
1
  6
Continuous
100
AcDbLine
 10
287.6320469999999
 20
428.909778
 30
0.0
 11
302.0320469999999
 21
428.909778
 31
0.0
  0
LINE
  5
B7CC
330
B4FF
100
AcDbEntity
  8
1
  6
Continuous
100
AcDbLine
 10
287.6320469999999
 20
435.1097779999998
 30
0.0
 11
287.6320469999999
 21
428.909778
 31
0.0
  0
LINE
  5
B7CD
330
B4FF
100
AcDbEntity
  8
1
  6
Continuous
100
AcDbLine
 10
287.6320469999999
 20
426.6097779999998
 30
0.0
 11
302.0320469999999
 21
426.6097779999998
 31
0.0
  0
ARC
  5
B7CE
330
B4FF
100
AcDbEntity
  8
1
  6
Continuous
100
AcDbCircle
 10
585.445863
 20
177.802018
 30
0.0
 40
1.5
100
AcDbArc
 50
180.0
 51
268.947
  0
ARC
  5
B7CF
330
B4FF
100
AcDbEntity
  8
1
  6
Continuous
100
AcDbCircle
 10
609.9461629999998
 20
176.8516179999998
 30
0.0
 40
1.0
100
AcDbArc
 50
180.0
 51
268.947
  0
LINE
  5
B7D0
330
B4FF
100
AcDbEntity
  8
1
  6
Continuous
100
AcDbLine
 10
610.9461629999998
 20
175.8330179999999
 30
0.0
 11
585.418263
 21
176.3023179999999
 31
0.0
  0
LINE
  5
B7D1
330
B4FF
100
AcDbEntity
  8
1
  6
Continuous
100
AcDbLine
 10
611.9461629999998
 20
312.814718
 30
0.0
 11
611.9461629999998
 21
170.814718
 31
0.0
  0
LINE
  5
B7D2
330
B4FF
100
AcDbEntity
  8
1
  6
Continuous
100
AcDbLine
 10
610.9461629999998
 20
312.814718
 30
0.0
 11
610.9461629999998
 21
170.814718
 31
0.0
  0
LINE
  5
B7D3
330
B4FF
100
AcDbEntity
  8
1
  6
Continuous
100
AcDbLine
 10
614.4461629999998
 20
312.814718
 30
0.0
 11
614.4461629999998
 21
170.814718
 31
0.0
  0
LINE
  5
B7D4
330
B4FF
100
AcDbEntity
  8
1
  6
Continuous
100
AcDbLine
 10
616.9461629999998
 20
308.314718
 30
0.0
 11
616.9461629999998
 21
175.314718
 31
0.0
  0
LINE
  5
B7D5
330
B4FF
100
AcDbEntity
  8
1
  6
Continuous
100
AcDbLine
 10
614.4461629999998
 20
170.814718
 30
0.0
 11
610.9461629999998
 21
170.814718
 31
0.0
  0
LINE
  5
B7D6
330
B4FF
100
AcDbEntity
  8
1
  6
Continuous
100
AcDbLine
 10
616.9461629999998
 20
175.314718
 30
0.0
 11
614.4461629999998
 21
170.814718
 31
0.0
  0
LINE
  5
B7D7
330
B4FF
100
AcDbEntity
  8
5
  6
PHANTOM
100
AcDbLine
 10
615.712042
 20
294.5135379999999
 30
0.0
 11
673.475728
 21
236.7497549999999
 31
0.0
  0
LINE
  5
B7D8
330
B4FF
100
AcDbEntity
  8
5
  6
PHANTOM
100
AcDbLine
 10
616.1213769999999
 20
280.8102039999998
 30
0.0
 11
657.3605629999998
 21
239.571118
 31
0.0
  0
LINE
  5
B7D9
330
B4FF
100
AcDbEntity
  8
1
  6
Continuous
100
AcDbLine
 10
512.4537629999998
 20
263.8146759999999
 30
0.0
 11
513.4537629999998
 21
264.8146759999999
 31
0.0
  0
LINE
  5
B7DA
330
B4FF
100
AcDbEntity
  8
1
  6
Continuous
100
AcDbLine
 10
513.4537629999998
 20
272.8146779999998
 30
0.0
 11
513.4537629999998
 21
257.0646779999999
 31
0.0
  0
LINE
  5
B7DB
330
B4FF
100
AcDbEntity
  8
1
  6
Continuous
100
AcDbLine
 10
512.4537629999998
 20
267.6146779999999
 30
0.0
 11
512.4537629999998
 21
260.014678
 31
0.0
  0
LINE
  5
B7DC
330
B4FF
100
AcDbEntity
  8
1
  6
Continuous
100
AcDbLine
 10
532.453763
 20
272.8146779999998
 30
0.0
 11
532.453763
 21
212.814718
 31
0.0
  0
LINE
  5
B7DD
330
B4FF
100
AcDbEntity
  8
1
  6
Continuous
100
AcDbLine
 10
530.153763
 20
272.8146779999998
 30
0.0
 11
530.153763
 21
212.814718
 31
0.0
  0
LINE
  5
B7DE
330
B4FF
100
AcDbEntity
  8
1
  6
Continuous
100
AcDbLine
 10
593.9461629999998
 20
267.3146779999999
 30
0.0
 11
593.9461629999998
 21
260.3146779999998
 31
0.0
  0
LINE
  5
B7DF
330
B4FF
100
AcDbEntity
  8
5
  6
PHANTOM
100
AcDbLine
 10
617.5131069999999
 20
289.676195
 30
0.0
 11
624.0466699999998
 21
208.2476329999999
 31
0.0
  0
LINE
  5
B7E0
330
B4FF
100
AcDbEntity
  8
1
  6
Continuous
100
AcDbLine
 10
600.4461629999998
 20
282.818618
 30
0.0
 11
600.4461629999998
 21
238.814718
 31
0.0
  0
LINE
  5
B7E1
330
B4FF
100
AcDbEntity
  8
1
  6
Continuous
100
AcDbLine
 10
617.3458629999998
 20
290.071518
 30
0.0
 11
617.3458629999998
 21
207.3147179999998
 31
0.0
  0
LINE
  5
B7E2
330
B4FF
100
AcDbEntity
  8
1
  6
Continuous
100
AcDbLine
 10
608.9461629999998
 20
284.928718
 30
0.0
 11
608.9461629999998
 21
176.8516179999998
 31
0.0
  0
LINE
  5
B7E3
330
B4FF
100
AcDbEntity
  8
1
  6
Continuous
100
AcDbLine
 10
512.4537629999998
 20
225.61472
 30
0.0
 11
512.4537629999998
 21
218.0147199999999
 31
0.0
  0
LINE
  5
B7E4
330
B4FF
100
AcDbEntity
  8
1
  6
Continuous
100
AcDbLine
 10
513.4537629999998
 20
228.564718
 30
0.0
 11
513.4537629999998
 21
212.814718
 31
0.0
  0
LINE
  5
B7E5
330
B4FF
100
AcDbEntity
  8
1
  6
Continuous
100
AcDbLine
 10
513.4537629999998
 20
212.814718
 30
0.0
 11
532.453763
 21
212.814718
 31
0.0
  0
LINE
  5
B7E6
330
B4FF
100
AcDbEntity
  8
1
  6
Continuous
100
AcDbLine
 10
513.4537629999998
 20
218.0147199999999
 30
0.0
 11
512.4537629999998
 21
218.0147199999999
 31
0.0
  0
LINE
  5
B7E7
330
B4FF
100
AcDbEntity
  8
1
  6
Continuous
100
AcDbLine
 10
511.319253
 20
218.413987
 30
0.0
 11
512.4547629999998
 21
218.314718
 31
0.0
  0
LINE
  5
B7E8
330
B4FF
100
AcDbEntity
  8
1
  6
Continuous
100
AcDbLine
 10
513.4537629999998
 20
250.564718
 30
0.0
 11
513.4537629999998
 21
235.064718
 31
0.0
  0
ARC
  5
B7E9
330
B4FF
100
AcDbEntity
  8
1
  6
Continuous
100
AcDbCircle
 10
524.0131629999998
 20
231.814718
 30
0.0
 40
3.640619999999998
100
AcDbArc
 50
296.785
 51
63.215
  0
LINE
  5
B7EA
330
B4FF
100
AcDbEntity
  8
1
  6
Continuous
100
AcDbLine
 10
513.4537629999998
 20
225.61472
 30
0.0
 11
512.4537629999998
 21
225.61472
 31
0.0
  0
LINE
  5
B7EB
330
B4FF
100
AcDbEntity
  8
1
  6
Continuous
100
AcDbLine
 10
512.4537629999998
 20
221.814718
 30
0.0
 11
513.4537629999998
 21
222.814718
 31
0.0
  0
LINE
  5
B7EC
330
B4FF
100
AcDbEntity
  8
1
  6
Continuous
100
AcDbLine
 10
512.4537629999998
 20
220.814718
 30
0.0
 11
513.4537629999998
 21
221.814718
 31
0.0
  0
LINE
  5
B7ED
330
B4FF
100
AcDbEntity
  8
1
  6
Continuous
100
AcDbLine
 10
511.333763
 20
225.2167179999999
 30
0.0
 11
512.4537629999998
 21
225.314718
 31
0.0
  0
ARC
  5
B7EE
330
B4FF
100
AcDbEntity
  8
1
  6
Continuous
100
AcDbCircle
 10
515.094363
 20
231.814718
 30
0.0
 40
3.640619999999998
100
AcDbArc
 50
116.7849999999999
 51
243.215
  0
LINE
  5
B7EF
330
B4FF
100
AcDbEntity
  8
1
  6
Continuous
100
AcDbLine
 10
513.4537629999998
 20
228.564718
 30
0.0
 11
525.653763
 21
228.564718
 31
0.0
  0
LINE
  5
B7F0
330
B4FF
100
AcDbEntity
  8
1
  6
Continuous
100
AcDbLine
 10
513.4537629999998
 20
235.064718
 30
0.0
 11
525.653763
 21
235.064718
 31
0.0
  0
ARC
  5
B7F1
330
B4FF
100
AcDbEntity
  8
1
  6
Continuous
100
AcDbCircle
 10
524.0131629999998
 20
253.814718
 30
0.0
 40
3.640629999999998
100
AcDbArc
 50
296.785
 51
63.215
  0
LINE
  5
B7F2
330
B4FF
100
AcDbEntity
  8
1
  6
Continuous
100
AcDbLine
 10
511.319253
 20
260.413945
 30
0.0
 11
512.4547629999998
 21
260.3146759999999
 31
0.0
  0
LINE
  5
B7F3
330
B4FF
100
AcDbEntity
  8
1
  6
Continuous
100
AcDbLine
 10
512.4537629999998
 20
262.8146759999999
 30
0.0
 11
513.4537629999998
 21
263.8146759999999
 31
0.0
  0
LINE
  5
B7F4
330
B4FF
100
AcDbEntity
  8
1
  6
Continuous
100
AcDbLine
 10
513.4537629999998
 20
260.014678
 30
0.0
 11
512.4537629999998
 21
260.014678
 31
0.0
  0
ARC
  5
B7F5
330
B4FF
100
AcDbEntity
  8
1
  6
Continuous
100
AcDbCircle
 10
515.094363
 20
253.814718
 30
0.0
 40
3.640629999999998
100
AcDbArc
 50
116.7849999999999
 51
243.215
  0
LINE
  5
B7F6
330
B4FF
100
AcDbEntity
  8
1
  6
Continuous
100
AcDbLine
 10
513.4537629999998
 20
257.0646779999999
 30
0.0
 11
525.653763
 21
257.0646779999999
 31
0.0
  0
LINE
  5
B7F7
330
B4FF
100
AcDbEntity
  8
1
  6
Continuous
100
AcDbLine
 10
513.4537629999998
 20
250.564718
 30
0.0
 11
525.653763
 21
250.564718
 31
0.0
  0
LINE
  5
B7F8
330
B4FF
100
AcDbEntity
  8
1
  6
Continuous
100
AcDbLine
 10
593.9461629999998
 20
225.314718
 30
0.0
 11
593.9461629999998
 21
218.314718
 31
0.0
  0
LINE
  5
B7F9
330
B4FF
100
AcDbEntity
  8
1
  6
Continuous
100
AcDbLine
 10
598.946163
 20
237.814718
 30
0.0
 11
598.946163
 21
218.314718
 31
0.0
  0
LINE
  5
B7FA
330
B4FF
100
AcDbEntity
  8
1
  6
Continuous
100
AcDbLine
 10
583.945863
 20
206.8147179999999
 30
0.0
 11
583.945863
 21
177.802018
 31
0.0
  0
LINE
  5
B7FB
330
B4FF
100
AcDbEntity
  8
4
  6
CENTER
100
AcDbLine
 10
587.2265629999999
 20
193.3147179999999
 30
0.0
 11
580.3220629999997
 21
193.3147179999999
 31
0.0
  0
LINE
  5
B7FC
330
B4FF
100
AcDbEntity
  8
1
  6
Continuous
100
AcDbLine
 10
595.9461629999998
 20
208.314718
 30
0.0
 11
585.445863
 21
208.314718
 31
0.0
  0
ARC
  5
B7FD
330
B4FF
100
AcDbEntity
  8
1
  6
Continuous
100
AcDbCircle
 10
585.445863
 20
206.8147179999999
 30
0.0
 40
1.5
100
AcDbArc
 50
90.0
 51
180.0
  0
LINE
  5
B7FE
330
B4FF
100
AcDbEntity
  8
1
  6
Continuous
100
AcDbLine
 10
598.4461629999998
 20
217.814718
 30
0.0
 11
594.4461629999998
 21
217.814718
 31
0.0
  0
ARC
  5
B7FF
330
B4FF
100
AcDbEntity
  8
1
  6
Continuous
100
AcDbCircle
 10
595.9461629999998
 20
217.314718
 30
0.0
 40
0.5
100
AcDbArc
 50
0.0
 51
90.0
  0
ARC
  5
B800
330
B4FF
100
AcDbEntity
  8
1
  6
Continuous
100
AcDbCircle
 10
598.4461629999998
 20
218.314718
 30
0.0
 40
0.5
100
AcDbArc
 50
270.0
 51
0.0
  0
ARC
  5
B801
330
B4FF
100
AcDbEntity
  8
1
  6
Continuous
100
AcDbCircle
 10
594.4461629999998
 20
218.314718
 30
0.0
 40
0.5
100
AcDbArc
 50
180.0
 51
270.0
  0
ARC
  5
B802
330
B4FF
100
AcDbEntity
  8
1
  6
Continuous
100
AcDbCircle
 10
595.9461629999998
 20
208.8147179999999
 30
0.0
 40
0.5
100
AcDbArc
 50
270.0
 51
0.0
  0
LINE
  5
B803
330
B4FF
100
AcDbEntity
  8
1
  6
Continuous
100
AcDbLine
 10
596.4461629999998
 20
217.314718
 30
0.0
 11
596.4461629999998
 21
208.8147179999999
 31
0.0
  0
LINE
  5
B804
330
B4FF
100
AcDbEntity
  8
5
  6
PHANTOM
100
AcDbLine
 10
616.945863
 20
207.002824
 30
0.0
 11
623.076807
 21
207.168016
 31
0.0
  0
ARC
  5
B805
330
B4FF
100
AcDbEntity
  8
1
  6
Continuous
100
AcDbCircle
 10
616.345863
 20
207.3147179999998
 30
0.0
 40
1.0
100
AcDbArc
 50
306.891387
 51
0.0
  0
ARC
  5
B806
330
B4FF
100
AcDbEntity
  8
5
  6
PHANTOM
100
AcDbCircle
 10
623.0498730000001
 20
208.167653
 30
0.0
 40
1.0
100
AcDbArc
 50
271.543404
 51
4.587398999999998
  0
LINE
  5
B807
330
B4FF
100
AcDbEntity
  8
1
  6
Continuous
100
AcDbLine
 10
596.4461629999998
 20
259.3146779999999
 30
0.0
 11
596.4461629999998
 21
226.314718
 31
0.0
  0
LINE
  5
B808
330
B4FF
100
AcDbEntity
  8
1
  6
Continuous
100
AcDbLine
 10
598.4461629999998
 20
225.814718
 30
0.0
 11
594.4461629999998
 21
225.814718
 31
0.0
  0
ARC
  5
B809
330
B4FF
100
AcDbEntity
  8
1
  6
Continuous
100
AcDbCircle
 10
595.9461629999998
 20
226.314718
 30
0.0
 40
0.5
100
AcDbArc
 50
270.0
 51
0.0
  0
ARC
  5
B80A
330
B4FF
100
AcDbEntity
  8
1
  6
Continuous
100
AcDbCircle
 10
598.4461629999998
 20
226.314718
 30
0.0
 40
0.5
100
AcDbArc
 50
270.0
 51
0.0
  0
ARC
  5
B80B
330
B4FF
100
AcDbEntity
  8
1
  6
Continuous
100
AcDbCircle
 10
594.4461629999998
 20
225.314718
 30
0.0
 40
0.5
100
AcDbArc
 50
90.0
 51
180.0
  0
LINE
  5
B80C
330
B4FF
100
AcDbEntity
  8
4
  6
CENTER
100
AcDbLine
 10
600.808163
 20
221.814718
 30
0.0
 11
590.4771629999998
 21
221.814718
 31
0.0
  0
LINE
  5
B80D
330
B4FF
100
AcDbEntity
  8
1
  6
Continuous
100
AcDbLine
 10
599.9461629999998
 20
238.314718
 30
0.0
 11
599.4461629999998
 21
238.314718
 31
0.0
  0
ARC
  5
B80E
330
B4FF
100
AcDbEntity
  8
1
  6
Continuous
100
AcDbCircle
 10
599.4461629999998
 20
237.814718
 30
0.0
 40
0.5
100
AcDbArc
 50
90.0
 51
180.0
  0
ARC
  5
B80F
330
B4FF
100
AcDbEntity
  8
1
  6
Continuous
100
AcDbCircle
 10
599.9461629999998
 20
238.814718
 30
0.0
 40
0.5
100
AcDbArc
 50
270.0
 51
0.0
  0
LINE
  5
B810
330
B4FF
100
AcDbEntity
  8
4
  6
CENTER
100
AcDbLine
 10
599.4751629999998
 20
263.8146759999999
 30
0.0
 11
590.1431629999997
 21
263.8146759999999
 31
0.0
  0
LINE
  5
B811
330
B4FF
100
AcDbEntity
  8
1
  6
Continuous
100
AcDbLine
 10
599.9461629999998
 20
259.8146779999999
 30
0.0
 11
594.4461629999998
 21
259.8146779999999
 31
0.0
  0
ARC
  5
B812
330
B4FF
100
AcDbEntity
  8
1
  6
Continuous
100
AcDbCircle
 10
599.9461629999998
 20
259.3146779999999
 30
0.0
 40
0.5
100
AcDbArc
 50
0.0
 51
90.0
  0
ARC
  5
B813
330
B4FF
100
AcDbEntity
  8
1
  6
Continuous
100
AcDbCircle
 10
595.9461629999998
 20
259.3146779999999
 30
0.0
 40
0.5
100
AcDbArc
 50
0.0
 51
90.0
  0
ARC
  5
B814
330
B4FF
100
AcDbEntity
  8
1
  6
Continuous
100
AcDbCircle
 10
594.4461629999998
 20
260.3146779999998
 30
0.0
 40
0.5
100
AcDbArc
 50
180.0
 51
270.0
  0
LINE
  5
B815
330
B4FF
100
AcDbEntity
  8
4
  6
CENTER
100
AcDbLine
 10
622.9781629999997
 20
289.814718
 30
0.0
 11
572.6481639999998
 21
289.814718
 31
0.0
  0
LINE
  5
B816
330
B4FF
100
AcDbEntity
  8
1
  6
Continuous
100
AcDbLine
 10
513.4537629999998
 20
272.8146779999998
 30
0.0
 11
532.453763
 21
272.8146779999998
 31
0.0
  0
LINE
  5
B817
330
B4FF
100
AcDbEntity
  8
1
  6
Continuous
100
AcDbLine
 10
511.333763
 20
267.216676
 30
0.0
 11
512.4537629999998
 21
267.3146759999998
 31
0.0
  0
LINE
  5
B818
330
B4FF
100
AcDbEntity
  8
1
  6
Continuous
100
AcDbLine
 10
513.4537629999998
 20
267.6146779999999
 30
0.0
 11
512.4537629999998
 21
267.6146779999999
 31
0.0
  0
LINE
  5
B819
330
B4FF
100
AcDbEntity
  8
1
  6
Continuous
100
AcDbLine
 10
545.903363
 20
294.815218
 30
0.0
 11
545.903363
 21
284.8142179999999
 31
0.0
  0
ARC
  5
B81A
330
B4FF
100
AcDbEntity
  8
1
  6
Continuous
100
AcDbCircle
 10
548.459343
 20
285.4842179999998
 30
0.0
 40
2.555979999999999
100
AcDbArc
 50
145.6283629999998
 51
205.6283629999998
  0
ARC
  5
B81B
330
B4FF
100
AcDbEntity
  8
1
  6
Continuous
100
AcDbCircle
 10
547.347383
 20
285.4842179999998
 30
0.0
 40
2.555979999999999
100
AcDbArc
 50
334.371637
 51
34.371637
  0
LINE
  5
B81C
330
B4FF
100
AcDbEntity
  8
1
  6
Continuous
100
AcDbLine
 10
549.903363
 20
283.714718
 30
0.0
 11
549.903363
 21
295.914718
 31
0.0
  0
LINE
  5
B81D
330
B4FF
100
AcDbEntity
  8
1
  6
Continuous
100
AcDbLine
 10
551.403363
 20
281.814718
 30
0.0
 11
551.403363
 21
297.814718
 31
0.0
  0
LINE
  5
B81E
330
B4FF
100
AcDbEntity
  8
1
  6
Continuous
100
AcDbLine
 10
553.003363
 20
300.814718
 30
0.0
 11
553.003363
 21
278.814718
 31
0.0
  0
LINE
  5
B81F
330
B4FF
100
AcDbEntity
  8
1
  6
Continuous
100
AcDbLine
 10
555.003363
 20
300.814718
 30
0.0
 11
555.003363
 21
278.814718
 31
0.0
  0
ARC
  5
B820
330
B4FF
100
AcDbEntity
  8
1
  6
Continuous
100
AcDbCircle
 10
547.3473629999999
 20
285.4852179999999
 30
0.0
 40
2.55582
100
AcDbArc
 50
325.6159999999998
 51
325.647143
  0
LINE
  5
B821
330
B4FF
100
AcDbEntity
  8
1
  6
Continuous
100
AcDbLine
 10
549.903363
 20
283.714718
 30
0.0
 11
551.403363
 21
283.714718
 31
0.0
  0
LINE
  5
B822
330
B4FF
100
AcDbEntity
  8
1
  6
Continuous
100
AcDbLine
 10
551.403363
 20
281.814718
 30
0.0
 11
553.003363
 21
281.814718
 31
0.0
  0
LINE
  5
B823
330
B4FF
100
AcDbEntity
  8
1
  6
Continuous
100
AcDbLine
 10
553.003363
 20
278.814718
 30
0.0
 11
555.003363
 21
278.814718
 31
0.0
  0
LINE
  5
B824
330
B4FF
100
AcDbEntity
  8
1
  6
Continuous
100
AcDbLine
 10
549.457071
 20
284.041218
 30
0.0
 11
546.349655
 21
284.041218
 31
0.0
  0
LINE
  5
B825
330
B4FF
100
AcDbEntity
  8
1
  6
Continuous
100
AcDbLine
 10
545.903363
 20
284.8142179999999
 30
0.0
 11
546.349655
 21
284.041218
 31
0.0
  0
LINE
  5
B826
330
B4FF
100
AcDbEntity
  8
1
  6
Continuous
100
AcDbLine
 10
549.903363
 20
284.8142179999999
 30
0.0
 11
549.457071
 21
284.041218
 31
0.0
  0
LINE
  5
B827
330
B4FF
100
AcDbEntity
  8
1
  6
Continuous
100
AcDbLine
 10
549.903363
 20
288.314718
 30
0.0
 11
551.403363
 21
289.814718
 31
0.0
  0
LINE
  5
B828
330
B4FF
100
AcDbEntity
  8
1
  6
Continuous
100
AcDbLine
 10
549.903363
 20
289.814718
 30
0.0
 11
551.403363
 21
291.3147180000001
 31
0.0
  0
LINE
  5
B829
330
B4FF
100
AcDbEntity
  8
1
  6
Continuous
100
AcDbLine
 10
545.903363
 20
294.815218
 30
0.0
 11
546.349655
 21
295.5882179999999
 31
0.0
  0
ARC
  5
B82A
330
B4FF
100
AcDbEntity
  8
1
  6
Continuous
100
AcDbCircle
 10
555.4643119999998
 20
289.815218
 30
0.0
 40
9.560949
100
AcDbArc
 50
162.4247879999998
 51
197.5752119999999
  0
ARC
  5
B82B
330
B4FF
100
AcDbEntity
  8
1
  6
Continuous
100
AcDbCircle
 10
548.459343
 20
294.145218
 30
0.0
 40
2.555979999999999
100
AcDbArc
 50
154.371637
 51
214.371637
  0
LINE
  5
B82C
330
B4FF
100
AcDbEntity
  8
1
  6
Continuous
100
AcDbLine
 10
553.003363
 20
300.814718
 30
0.0
 11
555.003363
 21
300.814718
 31
0.0
  0
LINE
  5
B82D
330
B4FF
100
AcDbEntity
  8
1
  6
Continuous
100
AcDbLine
 10
549.903363
 20
294.815218
 30
0.0
 11
549.457071
 21
295.5882179999999
 31
0.0
  0
ARC
  5
B82E
330
B4FF
100
AcDbEntity
  8
1
  6
Continuous
100
AcDbCircle
 10
547.347383
 20
294.145218
 30
0.0
 40
2.555979999999999
100
AcDbArc
 50
325.6283629999999
 51
25.628363
  0
ARC
  5
B82F
330
B4FF
100
AcDbEntity
  8
1
  6
Continuous
100
AcDbCircle
 10
540.3424139999998
 20
289.815218
 30
0.0
 40
9.560949
100
AcDbArc
 50
342.4247879999999
 51
17.575212
  0
LINE
  5
B830
330
B4FF
100
AcDbEntity
  8
1
  6
Continuous
100
AcDbLine
 10
551.403363
 20
297.814718
 30
0.0
 11
553.003363
 21
297.814718
 31
0.0
  0
LINE
  5
B831
330
B4FF
100
AcDbEntity
  8
1
  6
Continuous
100
AcDbLine
 10
549.903363
 20
295.914718
 30
0.0
 11
551.403363
 21
295.914718
 31
0.0
  0
LINE
  5
B832
330
B4FF
100
AcDbEntity
  8
4
  6
CENTER
100
AcDbLine
 10
542.903363
 20
289.814718
 30
0.0
 11
558.003363
 21
289.814718
 31
0.0
  0
LINE
  5
B833
330
B4FF
100
AcDbEntity
  8
1
  6
Continuous
100
AcDbLine
 10
549.457071
 20
286.928218
 30
0.0
 11
546.349655
 21
286.928218
 31
0.0
  0
LINE
  5
B834
330
B4FF
100
AcDbEntity
  8
1
  6
Continuous
100
AcDbLine
 10
549.457071
 20
292.702218
 30
0.0
 11
546.349655
 21
292.702218
 31
0.0
  0
LINE
  5
B835
330
B4FF
100
AcDbEntity
  8
1
  6
Continuous
100
AcDbLine
 10
549.457071
 20
295.5882179999999
 30
0.0
 11
546.349655
 21
295.5882179999999
 31
0.0
  0
ARC
  5
B836
330
B4FF
100
AcDbEntity
  8
1
  6
Continuous
100
AcDbCircle
 10
609.9461629999998
 20
306.814718
 30
0.0
 40
1.0
100
AcDbArc
 50
90.0
 51
180.0
  0
LINE
  5
B837
330
B4FF
100
AcDbEntity
  8
1
  6
Continuous
100
AcDbLine
 10
608.9461629999998
 20
282.818618
 30
0.0
 11
600.4461629999998
 21
282.818618
 31
0.0
  0
LINE
  5
B838
330
B4FF
100
AcDbEntity
  8
1
  6
Continuous
100
AcDbLine
 10
608.9461629999998
 20
306.0647180000001
 30
0.0
 11
593.4461629999998
 21
306.0647180000001
 31
0.0
  0
LINE
  5
B839
330
B4FF
100
AcDbEntity
  8
2
  6
Continuous
100
AcDbLine
 10
576.945863
 20
289.814718
 30
0.0
 11
580.945863
 21
283.0803369999998
 31
0.0
  0
LINE
  5
B83A
330
B4FF
100
AcDbEntity
  8
2
  6
Continuous
100
AcDbLine
 10
580.945863
 20
289.4779989999999
 30
0.0
 11
576.945863
 21
282.743618
 31
0.0
  0
LINE
  5
B83B
330
B4FF
100
AcDbEntity
  8
1
  6
Continuous
100
AcDbLine
 10
576.945863
 20
296.885718
 30
0.0
 11
576.945863
 21
282.743618
 31
0.0
  0
LINE
  5
B83C
330
B4FF
100
AcDbEntity
  8
1
  6
Continuous
100
AcDbLine
 10
580.945863
 20
301.073034
 30
0.0
 11
580.945863
 21
276.814718
 31
0.0
  0
LINE
  5
B83D
330
B4FF
100
AcDbEntity
  8
1
  6
Continuous
100
AcDbLine
 10
582.945863
 20
276.814718
 30
0.0
 11
582.945863
 21
301.073034
 31
0.0
  0
LINE
  5
B83E
330
B4FF
100
AcDbEntity
  8
1
  6
Continuous
100
AcDbLine
 10
583.1458629999997
 20
300.6400179999999
 30
0.0
 11
583.1458629999997
 21
278.0148179999998
 31
0.0
  0
LINE
  5
B83F
330
B4FF
100
AcDbEntity
  8
1
  6
Continuous
100
AcDbLine
 10
593.4461629999998
 20
306.0647180000001
 30
0.0
 11
593.4461629999998
 21
273.5646779999999
 31
0.0
  0
LINE
  5
B840
330
B4FF
100
AcDbEntity
  8
1
  6
Continuous
100
AcDbLine
 10
593.4461629999998
 20
277.314718
 30
0.0
 11
584.1458629999997
 21
277.314718
 31
0.0
  0
LINE
  5
B841
330
B4FF
100
AcDbEntity
  8
1
  6
Continuous
100
AcDbLine
 10
583.803763
 20
277.0751179999999
 30
0.0
 11
593.4461629999998
 21
273.5646779999999
 31
0.0
  0
LINE
  5
B842
330
B4FF
100
AcDbEntity
  8
1
  6
Continuous
100
AcDbLine
 10
583.1458629999997
 20
282.6147179999999
 30
0.0
 11
582.945863
 21
282.6147179999999
 31
0.0
  0
ARC
  5
B843
330
B4FF
100
AcDbEntity
  8
1
  6
Continuous
100
AcDbCircle
 10
584.1458629999997
 20
278.0148179999998
 30
0.0
 40
1.0
100
AcDbArc
 50
180.0
 51
249.995
  0
ARC
  5
B844
330
B4FF
100
AcDbEntity
  8
1
  6
Continuous
100
AcDbCircle
 10
584.1458629999997
 20
278.314718
 30
0.0
 40
1.0
100
AcDbArc
 50
180.0
 51
270.0
  0
LINE
  5
B845
330
B4FF
100
AcDbEntity
  8
1
  6
Continuous
100
AcDbLine
 10
582.945863
 20
276.814718
 30
0.0
 11
580.945863
 21
276.814718
 31
0.0
  0
LINE
  5
B846
330
B4FF
100
AcDbEntity
  8
1
  6
Continuous
100
AcDbLine
 10
580.945863
 20
282.743618
 30
0.0
 11
576.945863
 21
282.743618
 31
0.0
  0
LINE
  5
B847
330
B4FF
100
AcDbEntity
  8
1
  6
Continuous
100
AcDbLine
 10
596.4461629999998
 20
273.0646779999998
 30
0.0
 11
596.4461629999998
 21
268.3146779999999
 31
0.0
  0
LINE
  5
B848
330
B4FF
100
AcDbEntity
  8
1
  6
Continuous
100
AcDbLine
 10
599.9461629999998
 20
267.8146779999999
 30
0.0
 11
594.4461629999998
 21
267.8146779999999
 31
0.0
  0
ARC
  5
B849
330
B4FF
100
AcDbEntity
  8
1
  6
Continuous
100
AcDbCircle
 10
599.9461629999998
 20
273.0646779999998
 30
0.0
 40
0.5
100
AcDbArc
 50
0.0
 51
90.0
  0
ARC
  5
B84A
330
B4FF
100
AcDbEntity
  8
1
  6
Continuous
100
AcDbCircle
 10
599.9461629999998
 20
268.3146779999999
 30
0.0
 40
0.5
100
AcDbArc
 50
270.0
 51
0.0
  0
ARC
  5
B84B
330
B4FF
100
AcDbEntity
  8
1
  6
Continuous
100
AcDbCircle
 10
595.9461629999998
 20
268.3146779999999
 30
0.0
 40
0.5
100
AcDbArc
 50
270.0
 51
0.0
  0
ARC
  5
B84C
330
B4FF
100
AcDbEntity
  8
1
  6
Continuous
100
AcDbCircle
 10
595.9461629999998
 20
273.0646779999998
 30
0.0
 40
0.5
100
AcDbArc
 50
0.0
 51
90.0
  0
LINE
  5
B84D
330
B4FF
100
AcDbEntity
  8
1
  6
Continuous
100
AcDbLine
 10
599.9461629999998
 20
273.5646779999999
 30
0.0
 11
593.4461629999998
 21
273.5646779999999
 31
0.0
  0
ARC
  5
B84E
330
B4FF
100
AcDbEntity
  8
1
  6
Continuous
100
AcDbCircle
 10
594.4461629999998
 20
267.3146779999999
 30
0.0
 40
0.5
100
AcDbArc
 50
90.0
 51
180.0
  0
LINE
  5
B84F
330
B4FF
100
AcDbEntity
  8
1
  6
Continuous
100
AcDbLine
 10
593.4461629999998
 20
300.6400179999999
 30
0.0
 11
583.1458629999997
 21
300.6400179999999
 31
0.0
  0
LINE
  5
B850
330
B4FF
100
AcDbEntity
  8
1
  6
Continuous
100
AcDbLine
 10
593.4461629999998
 20
290.814718
 30
0.0
 11
583.1458629999997
 21
290.814718
 31
0.0
  0
LINE
  5
B851
330
B4FF
100
AcDbEntity
  8
1
  6
Continuous
100
AcDbLine
 10
593.4461629999998
 20
288.814718
 30
0.0
 11
583.1458629999997
 21
288.814718
 31
0.0
  0
LINE
  5
B852
330
B4FF
100
AcDbEntity
  8
1
  6
Continuous
100
AcDbLine
 10
593.4461629999998
 20
303.8147180000001
 30
0.0
 11
581.6458629999997
 21
303.8147180000001
 31
0.0
  0
LINE
  5
B853
330
B4FF
100
AcDbEntity
  8
1
  6
Continuous
100
AcDbLine
 10
593.4461629999998
 20
302.314718
 30
0.0
 11
581.1458629999997
 21
302.314718
 31
0.0
  0
LINE
  5
B854
330
B4FF
100
AcDbEntity
  8
1
  6
Continuous
100
AcDbLine
 10
593.4461629999998
 20
306.0647180000001
 30
0.0
 11
587.265863
 21
303.8147180000001
 31
0.0
  0
LINE
  5
B855
330
B4FF
100
AcDbEntity
  8
1
  6
Continuous
100
AcDbLine
 10
581.1458629999997
 20
301.073034
 30
0.0
 11
581.1458629999997
 21
303.314718
 31
0.0
  0
LINE
  5
B856
330
B4FF
100
AcDbEntity
  8
1
  6
Continuous
100
AcDbLine
 10
583.1458629999997
 20
298.5615179999999
 30
0.0
 11
582.945863
 21
298.5615179999999
 31
0.0
  0
LINE
  5
B857
330
B4FF
100
AcDbEntity
  8
1
  6
Continuous
100
AcDbLine
 10
580.945863
 20
301.073034
 30
0.0
 11
582.945863
 21
301.073034
 31
0.0
  0
LINE
  5
B858
330
B4FF
100
AcDbEntity
  8
1
  6
Continuous
100
AcDbLine
 10
583.1458629999997
 20
297.014718
 30
0.0
 11
582.945863
 21
297.014718
 31
0.0
  0
ARC
  5
B859
330
B4FF
100
AcDbEntity
  8
1
  6
Continuous
100
AcDbCircle
 10
581.6458629999997
 20
303.314718
 30
0.0
 40
0.5
100
AcDbArc
 50
90.0
 51
180.0
  0
LINE
  5
B85A
330
B4FF
100
AcDbEntity
  8
1
  6
Continuous
100
AcDbLine
 10
580.945863
 20
296.885718
 30
0.0
 11
576.945863
 21
296.885718
 31
0.0
  0
LINE
  5
B85B
330
B4FF
100
AcDbEntity
  8
1
  6
Continuous
100
AcDbLine
 10
580.945863
 20
289.814718
 30
0.0
 11
576.945863
 21
289.814718
 31
0.0
  0
LINE
  5
B85C
330
B4FF
100
AcDbEntity
  8
2
  6
Continuous
100
AcDbLine
 10
576.945863
 20
296.885718
 30
0.0
 11
580.945863
 21
290.151432
 31
0.0
  0
LINE
  5
B85D
330
B4FF
100
AcDbEntity
  8
2
  6
Continuous
100
AcDbLine
 10
580.945863
 20
296.549004
 30
0.0
 11
576.945863
 21
289.814718
 31
0.0
  0
ARC
  5
B85E
330
B4FF
100
AcDbEntity
  8
1
  6
Continuous
100
AcDbCircle
 10
687.9881629999996
 20
289.814718
 30
0.0
 40
72.42839999999998
100
AcDbArc
 50
168.7743
 51
191.226
  0
LINE
  5
B85F
330
B4FF
100
AcDbEntity
  8
1
  6
Continuous
100
AcDbLine
 10
608.9461629999998
 20
306.814718
 30
0.0
 11
608.9461629999998
 21
293.4235179999999
 31
0.0
  0
ARC
  5
B860
330
B4FF
100
AcDbEntity
  8
1
  6
Continuous
100
AcDbCircle
 10
615.345863
 20
290.071518
 30
0.0
 40
2.0
100
AcDbArc
 50
0.0
 51
36.855571
  0
LINE
  5
B861
330
B4FF
100
AcDbEntity
  8
1
  6
Continuous
100
AcDbLine
 10
610.9461629999998
 20
307.8147180000001
 30
0.0
 11
609.9461629999998
 21
307.8147180000001
 31
0.0
  0
LINE
  5
B862
330
B4FF
100
AcDbEntity
  8
1
  6
Continuous
100
AcDbLine
 10
614.4461629999998
 20
312.814718
 30
0.0
 11
610.9461629999998
 21
312.814718
 31
0.0
  0
LINE
  5
B863
330
B4FF
100
AcDbEntity
  8
1
  6
Continuous
100
AcDbLine
 10
614.4461629999998
 20
312.814718
 30
0.0
 11
616.9461629999998
 21
308.314718
 31
0.0
  0
LINE
  5
B864
330
B4FF
100
AcDbEntity
  8
5
  6
PHANTOM
100
AcDbLine
 10
667.221165
 20
229.71071
 30
0.0
 11
673.4371799999999
 21
235.29899
 31
0.0
  0
LINE
  5
B865
330
B4FF
100
AcDbEntity
  8
5
  6
PHANTOM
100
AcDbLine
 10
657.9955629999998
 20
234.742718
 30
0.0
 11
656.674563
 21
232.453818
 31
0.0
  0
ARC
  5
B866
330
B4FF
100
AcDbEntity
  8
5
  6
PHANTOM
100
AcDbCircle
 10
658.406563
 20
231.453818
 30
0.0
 40
2.0
100
AcDbArc
 50
150.0
 51
225.0
  0
LINE
  5
B867
330
B4FF
100
AcDbEntity
  8
5
  6
PHANTOM
100
AcDbLine
 10
667.221165
 20
229.71071
 30
0.0
 11
663.685563
 21
226.1750179999999
 31
0.0
  0
ARC
  5
B868
330
B4FF
100
AcDbEntity
  8
5
  6
PHANTOM
100
AcDbCircle
 10
662.271563
 20
227.589318
 30
0.0
 40
2.0
100
AcDbArc
 50
225.0
 51
315.0
  0
ARC
  5
B869
330
B4FF
100
AcDbEntity
  8
5
  6
PHANTOM
100
AcDbCircle
 10
654.531563
 20
236.742718
 30
0.0
 40
4.0
100
AcDbArc
 50
330.0
 51
45.0
  0
LINE
  5
B86A
330
B4FF
100
AcDbEntity
  8
5
  6
PHANTOM
100
AcDbLine
 10
656.992563
 20
230.0396179999999
 30
0.0
 11
660.8565630000001
 21
226.1750179999999
 31
0.0
  0
ARC
  5
B86B
330
B4FF
100
AcDbEntity
  8
5
  6
PHANTOM
100
AcDbCircle
 10
672.7686210000001
 20
236.042649
 30
0.0
 40
1.0
100
AcDbArc
 50
311.955956
 51
44.99995199999999
  0
LINE
  5
B86C
330
B4FF
100
AcDbEntity
  8
1
  6
Continuous
100
AcDbLine
 10
42.768894
 20
362.6314489999999
 30
0.0
 11
29.768894
 21
362.6314489999999
 31
0.0
  0
LINE
  5
B86D
330
B4FF
100
AcDbEntity
  8
1
  6
Continuous
100
AcDbLine
 10
42.768894
 20
374.6314489999999
 30
0.0
 11
29.768894
 21
374.6314489999999
 31
0.0
  0
LINE
  5
B86E
330
B4FF
100
AcDbEntity
  8
1
  6
Continuous
100
AcDbLine
 10
31.36120200000001
 20
373.342987
 30
0.0
 11
41.561202
 21
369.092987
 31
0.0
  0
LINE
  5
B86F
330
B4FF
100
AcDbEntity
  8
1
  6
Continuous
100
AcDbLine
 10
31.36120200000001
 20
363.91991
 30
0.0
 11
41.561202
 21
368.16991
 31
0.0
  0
ARC
  5
B870
330
B4FF
100
AcDbEntity
  8
1
  6
Continuous
100
AcDbCircle
 10
29.768894
 20
363.1314489999998
 30
0.0
 40
0.5
100
AcDbArc
 50
180.0
 51
270.0
  0
LINE
  5
B871
330
B4FF
100
AcDbEntity
  8
1
  6
Continuous
100
AcDbLine
 10
29.268894
 20
374.1314489999999
 30
0.0
 11
29.268894
 21
363.1314489999998
 31
0.0
  0
ARC
  5
B872
330
B4FF
100
AcDbEntity
  8
1
  6
Continuous
100
AcDbCircle
 10
29.768894
 20
374.1314489999999
 30
0.0
 40
0.5
100
AcDbArc
 50
90.0
 51
180.0
  0
ARC
  5
B873
330
B4FF
100
AcDbEntity
  8
1
  6
Continuous
100
AcDbCircle
 10
31.168894
 20
364.381449
 30
0.0
 40
0.5
100
AcDbArc
 50
180.0
 51
292.6198649999999
  0
ARC
  5
B874
330
B4FF
100
AcDbEntity
  8
1
  6
Continuous
100
AcDbCircle
 10
31.168894
 20
372.8814489999999
 30
0.0
 40
0.5
100
AcDbArc
 50
67.380135
 51
180.0
  0
LINE
  5
B875
330
B4FF
100
AcDbEntity
  8
1
  6
Continuous
100
AcDbLine
 10
30.668894
 20
364.381449
 30
0.0
 11
30.668894
 21
372.8814489999999
 31
0.0
  0
ARC
  5
B876
330
B4FF
100
AcDbEntity
  8
1
  6
Continuous
100
AcDbCircle
 10
42.768894
 20
363.1314489999998
 30
0.0
 40
0.5
100
AcDbArc
 50
270.0
 51
0.0
  0
LINE
  5
B877
330
B4FF
100
AcDbEntity
  8
1
  6
Continuous
100
AcDbLine
 10
43.268894
 20
374.1314489999999
 30
0.0
 11
43.268894
 21
363.1314489999998
 31
0.0
  0
ARC
  5
B878
330
B4FF
100
AcDbEntity
  8
1
  6
Continuous
100
AcDbCircle
 10
42.768894
 20
374.1314489999999
 30
0.0
 40
0.5
100
AcDbArc
 50
0.0
 51
90.0
  0
ARC
  5
B879
330
B4FF
100
AcDbEntity
  8
1
  6
Continuous
100
AcDbCircle
 10
41.368894
 20
368.6314489999999
 30
0.0
 40
0.5
100
AcDbArc
 50
292.6198649999999
 51
67.380135
  0
ENDSEC
  0
SECTION
  2
OBJECTS
  0
DICTIONARY
  5
B4ED
330
0
100
AcDbDictionary
281
     1
  3
ACAD_CIP_PREVIOUS_PRODUCT_INFO
350
B8DF
  3
ACAD_COLOR
350
B8C1
  3
ACAD_DETAILVIEWSTYLE
350
B8DA
  3
ACAD_GROUP
350
B4EE
  3
ACAD_LAYOUT
350
B4FA
  3
ACAD_MATERIAL
350
B88F
  3
ACAD_MLEADERSTYLE
350
B8D6
  3
ACAD_MLINESTYLE
350
B4F7
  3
ACAD_PLOTSETTINGS
350
B4F9
  3
ACAD_PLOTSTYLENAME
350
B88D
  3
ACAD_SCALELIST
350
B8C4
  3
ACAD_SECTIONVIEWSTYLE
350
B8D8
  3
ACAD_TABLESTYLE
350
B8C2
  3
ACAD_VISUALSTYLE
350
B8A8
  3
ACDB_RECOMPOSE_DATA
350
B8FD
  3
AcDbVariableDictionary
350
B8F0
  3
DWGPROPS
350
B8FE
  0
DICTIONARY
  5
B8E0
330
B4F1
100
AcDbDictionary
280
     1
281
     1
  3
ADSK_XREC_LAYER_RECONCILED
360
B8E1
  0
DICTIONARY
  5
B8E2
330
B507
100
AcDbDictionary
280
     1
281
     1
  3
ADSK_XREC_LAYER_RECONCILED
360
B8E3
  0
DICTIONARY
  5
B8E4
330
B508
100
AcDbDictionary
280
     1
281
     1
  3
ADSK_XREC_LAYER_RECONCILED
360
B8E5
  0
DICTIONARY
  5
B8E6
330
B509
100
AcDbDictionary
280
     1
281
     1
  3
ADSK_XREC_LAYER_RECONCILED
360
B8E7
  0
DICTIONARY
  5
B8E8
330
B50A
100
AcDbDictionary
280
     1
281
     1
  3
ADSK_XREC_LAYER_RECONCILED
360
B8E9
  0
DICTIONARY
  5
B8EA
330
B50B
100
AcDbDictionary
280
     1
281
     1
  3
ADSK_XREC_LAYER_RECONCILED
360
B8EB
  0
DICTIONARY
  5
B8EC
330
B50C
100
AcDbDictionary
280
     1
281
     1
  3
ADSK_XREC_LAYER_RECONCILED
360
B8ED
  0
DICTIONARY
  5
B8EE
330
B50D
100
AcDbDictionary
280
     1
281
     1
  3
ADSK_XREC_LAYER_RECONCILED
360
B8EF
  0
DICTIONARY
  5
B888
330
B4FF
100
AcDbDictionary
281
     1
  3
ACAD_LAYOUTSELFREF
350
B889
  0
DICTIONARY
  5
B886
330
B4FB
100
AcDbDictionary
281
     1
  3
ACAD_LAYOUTSELFREF
350
B887
  0
XRECORD
  5
B8DF
102
{ACAD_REACTORS
330
B4ED
102
}
330
B4ED
100
AcDbXrecord
280
     1
300
ACDLT
300
2014
300
ACDLT_F_S
  0
DICTIONARY
  5
B8C1
102
{ACAD_REACTORS
330
B4ED
102
}
330
B4ED
100
AcDbDictionary
281
     1
  0
DICTIONARY
  5
B8DA
102
{ACAD_REACTORS
330
B4ED
102
}
330
B4ED
100
AcDbDictionary
281
     1
  3
Imperial24
350
B8DB
  0
DICTIONARY
  5
B4EE
102
{ACAD_REACTORS
330
B4ED
102
}
330
B4ED
100
AcDbDictionary
281
     1
  0
DICTIONARY
  5
B4FA
102
{ACAD_REACTORS
330
B4ED
102
}
330
B4ED
100
AcDbDictionary
281
     1
  3
Model
350
B8DC
  3
レイアウト1
350
B8DD
  0
DICTIONARY
  5
B88F
102
{ACAD_REACTORS
330
B4ED
102
}
330
B4ED
100
AcDbDictionary
281
     1
  3
ByBlock
350
B898
  3
ByLayer
350
B890
  3
Global
350
B8A0
  0
DICTIONARY
  5
B8D6
102
{ACAD_REACTORS
330
B4ED
102
}
330
B4ED
100
AcDbDictionary
281
     1
  3
Standard
350
B8D7
  0
DICTIONARY
  5
B4F7
102
{ACAD_REACTORS
330
B4ED
102
}
330
B4ED
100
AcDbDictionary
281
     1
  3
STANDARD
350
B4F8
  0
DICTIONARY
  5
B4F9
102
{ACAD_REACTORS
330
B4ED
102
}
330
B4ED
100
AcDbDictionary
281
     1
  0
ACDBDICTIONARYWDFLT
  5
B88D
102
{ACAD_REACTORS
330
B4ED
102
}
330
B4ED
100
AcDbDictionary
281
     1
  3
Normal
350
B88E
100
AcDbDictionaryWithDefault
340
B88E
  0
DICTIONARY
  5
B8C4
102
{ACAD_REACTORS
330
B4ED
102
}
330
B4ED
100
AcDbDictionary
281
     1
  3
A0
350
B8C5
  3
A1
350
B8C6
  3
A2
350
B8C7
  3
A3
350
B8C8
  3
A4
350
B8C9
  3
A5
350
B8CA
  3
A6
350
B8CB
  3
A7
350
B8CC
  3
A8
350
B8CD
  3
A9
350
B8CE
  3
B0
350
B8CF
  3
B1
350
B8D0
  3
B2
350
B8D1
  3
B3
350
B8D2
  3
B4
350
B8D3
  3
B5
350
B8D4
  3
B6
350
B8D5
  0
DICTIONARY
  5
B8D8
102
{ACAD_REACTORS
330
B4ED
102
}
330
B4ED
100
AcDbDictionary
281
     1
  3
Imperial24
350
B8D9
  0
DICTIONARY
  5
B8C2
102
{ACAD_REACTORS
330
B4ED
102
}
330
B4ED
100
AcDbDictionary
281
     1
  3
Standard
350
B8C3
  0
DICTIONARY
  5
B8A8
102
{ACAD_REACTORS
330
B4ED
102
}
330
B4ED
100
AcDbDictionary
281
     1
  3
2dWireframe
350
B8AE
  3
Basic
350
B8AD
  3
Brighten
350
B8B4
  3
ColorChange
350
B8B8
  3
Conceptual
350
B8B1
  3
Dim
350
B8B3
  3
EdgeColorOff
350
B8C0
  3
Facepattern
350
B8B7
  3
Flat
350
B8A9
  3
FlatWithEdges
350
B8AA
  3
Gouraud
350
B8AB
  3
GouraudWithEdges
350
B8AC
  3
Hidden
350
B8B0
  3
JitterOff
350
B8BE
  3
Linepattern
350
B8B6
  3
OverhangOff
350
B8BF
  3
Realistic
350
B8B2
  3
Shaded
350
B8BD
  3
Shaded with edges
350
B8BC
  3
Shades of Gray
350
B8B9
  3
Sketchy
350
B8BA
  3
Thicken
350
B8B5
  3
Wireframe
350
B8AF
  3
X-Ray
350
B8BB
  0
XRECORD
  5
B8FD
102
{ACAD_REACTORS
330
B4ED
102
}
330
B4ED
100
AcDbXrecord
280
     1
 90
        1
330
B8C3
  0
DICTIONARY
  5
B8F0
102
{ACAD_REACTORS
330
B4ED
102
}
330
B4ED
100
AcDbDictionary
281
     1
  3
CANNOSCALE
350
B8F5
  3
CMLEADERSTYLE
350
B8F2
  3
CTABLESTYLE
350
B8F1
  3
CVIEWDETAILSTYLE
350
B8F3
  3
CVIEWSECTIONSTYLE
350
B8F4
  3
DIMASSOC
350
B8F8
  3
INDEXCTL
350
B8F7
  3
SORTENTS
350
B8F6
  3
XCLIPFRAME
350
B8F9
  0
XRECORD
  5
B8FE
102
{ACAD_REACTORS
330
B4ED
102
}
330
B4ED
100
AcDbXrecord
280
     1
  1
DWGPROPS COOKIE
  2

  3

  4

  6

  7

  8
Yoshitsune
  9

300
=
301
=
302
=
303
=
304
=
305
=
306
=
307
=
308
=
309
=
 40
0.0000169907407407
 41
2451417.567985533
 42
2457192.640527893
  1

 90
        0
  0
XRECORD
  5
B8E1
102
{ACAD_REACTORS
330
B8E0
102
}
330
B8E0
100
AcDbXrecord
280
     1
290
     1
  0
XRECORD
  5
B8E3
102
{ACAD_REACTORS
330
B8E2
102
}
330
B8E2
100
AcDbXrecord
280
     1
290
     1
  0
XRECORD
  5
B8E5
102
{ACAD_REACTORS
330
B8E4
102
}
330
B8E4
100
AcDbXrecord
280
     1
290
     1
  0
XRECORD
  5
B8E7
102
{ACAD_REACTORS
330
B8E6
102
}
330
B8E6
100
AcDbXrecord
280
     1
290
     1
  0
XRECORD
  5
B8E9
102
{ACAD_REACTORS
330
B8E8
102
}
330
B8E8
100
AcDbXrecord
280
     1
290
     1
  0
XRECORD
  5
B8EB
102
{ACAD_REACTORS
330
B8EA
102
}
330
B8EA
100
AcDbXrecord
280
     1
290
     1
  0
XRECORD
  5
B8ED
102
{ACAD_REACTORS
330
B8EC
102
}
330
B8EC
100
AcDbXrecord
280
     1
290
     1
  0
XRECORD
  5
B8EF
102
{ACAD_REACTORS
330
B8EE
102
}
330
B8EE
100
AcDbXrecord
280
     1
290
     1
  0
XRECORD
  5
B889
102
{ACAD_REACTORS
330
B888
102
}
330
B888
100
AcDbXrecord
280
     1
340
B4FF
  0
XRECORD
  5
B887
102
{ACAD_REACTORS
330
B886
102
}
330
B886
100
AcDbXrecord
280
     1
340
B4FB
  0
ACDBDETAILVIEWSTYLE
  5
B8DB
102
{ACAD_XDICTIONARY
360
B936
102
}
102
{ACAD_REACTORS
330
B8DA
102
}
330
B8DA
100
AcDbModelDocViewStyle
 70
     0
  3
Imperial24
290
     0
100
AcDbDetailViewStyle
 70
     0
 71
     0
 90
        3
 71
     1
340
B4F2
 40
0.24
340
0
 40
0.24
300

 40
0.36
280
     3
 71
     2
340
B4F6
 90
       25
 71
     3
340
B4F2
 40
0.24
 90
        1
 40
0.75
 90
        1
300
%<\AcVar ViewType \f "%tc1">% %<\AcVar ViewDetailId>%\PSCALE %<\AcVar ViewScale \f "%sn">%
 71
     4
340
B4F6
 90
       25
340
B4F6
 90
       25
280
     0
  0
LAYOUT
  5
B8DC
102
{ACAD_XDICTIONARY
360
B938
102
}
102
{ACAD_REACTORS
330
B4FA
102
}
330
B4FA
100
AcDbPlotSettings
  1

  2
Canon LBP9100C
  4

  6

 40
0.0
 41
0.0
 42
0.0
 43
0.0
 44
0.0
 45
0.0
 46
0.0
 47
0.0
 48
0.0
 49
0.0
140
0.0
141
0.0
142
1.0
143
1.0
 70
  1712
 72
     0
 73
     0
 74
     0
  7

 75
     0
147
1.0
148
0.0
149
0.0
100
AcDbLayout
  1
Model
 70
     1
 71
     0
 10
0.0
 20
0.0
 11
12.0
 21
9.0
 12
0.0
 22
0.0
 32
0.0
 14
0.0
 24
0.0
 34
0.0
 15
0.0
 25
0.0
 35
0.0
146
0.0
 13
0.0
 23
0.0
 33
0.0
 16
1.0
 26
0.0
 36
0.0
 17
0.0
 27
1.0
 37
0.0
 76
     0
330
B4FF
331
B885
  0
LAYOUT
  5
B8DD
102
{ACAD_XDICTIONARY
360
B93A
102
}
102
{ACAD_REACTORS
330
B4FA
102
}
330
B4FA
100
AcDbPlotSettings
  1

  2
Canon LBP9100C
  4

  6

 40
0.0
 41
0.0
 42
0.0
 43
0.0
 44
0.0
 45
0.0
 46
0.0
 47
0.0
 48
0.0
 49
0.0
140
0.0
141
0.0
142
1.0
143
1.0
 70
   688
 72
     0
 73
     0
 74
     5
  7

 75
    16
147
1.0
148
0.0
149
0.0
100
AcDbLayout
  1
レイアウト1
 70
     0
 71
     1
 10
0.0
 20
0.0
 11
420.0
 21
297.0
 12
0.0
 22
0.0
 32
0.0
 14
1.000000000000000E+20
 24
1.000000000000000E+20
 34
1.000000000000000E+20
 15
-1.000000000000000E+20
 25
-1.000000000000000E+20
 35
-1.000000000000000E+20
146
0.0
 13
0.0
 23
0.0
 33
0.0
 16
1.0
 26
0.0
 36
0.0
 17
0.0
 27
1.0
 37
0.0
 76
     0
330
B4FB
  0
MATERIAL
  5
B898
102
{ACAD_XDICTIONARY
360
B899
102
}
102
{ACAD_REACTORS
330
B88F
102
}
330
B88F
100
AcDbMaterial
  1
ByBlock
 72
     0
 43
0.0208333333333333
 43
0.0
 43
0.0
 43
0.0
 43
0.0
 43
0.0208333333333333
 43
0.0
 43
0.0
 43
0.0
 43
0.0
 43
1.0
 43
0.0
 43
0.0
 43
0.0
 43
0.0
 43
1.0
 77
     0
 47
0.0208333333333333
 47
0.0
 47
0.0
 47
0.0
 47
0.0
 47
0.0208333333333333
 47
0.0
 47
0.0
 47
0.0
 47
0.0
 47
1.0
 47
0.0
 47
0.0
 47
0.0
 47
0.0
 47
1.0
171
     0
 49
0.0208333333333333
 49
0.0
 49
0.0
 49
0.0
 49
0.0
 49
0.0208333333333333
 49
0.0
 49
0.0
 49
0.0
 49
0.0
 49
1.0
 49
0.0
 49
0.0
 49
0.0
 49
0.0
 49
1.0
175
     0
142
0.0208333333333333
142
0.0
142
0.0
142
0.0
142
0.0
142
0.0208333333333333
142
0.0
142
0.0
142
0.0
142
0.0
142
1.0
142
0.0
142
0.0
142
0.0
142
0.0
142
1.0
179
     0
144
0.0208333333333333
144
0.0
144
0.0
144
0.0
144
0.0
144
0.0208333333333333
144
0.0
144
0.0
144
0.0
144
0.0
144
1.0
144
0.0
144
0.0
144
0.0
144
0.0
144
1.0
147
0.0208333333333333
147
0.0
147
0.0
147
0.0
147
0.0
147
0.0208333333333333
147
0.0
147
0.0
147
0.0
147
0.0
147
1.0
147
0.0
147
0.0
147
0.0
147
0.0
147
1.0
  0
MATERIAL
  5
B890
102
{ACAD_XDICTIONARY
360
B891
102
}
102
{ACAD_REACTORS
330
B88F
102
}
330
B88F
100
AcDbMaterial
  1
ByLayer
 72
     0
 43
0.0208333333333333
 43
0.0
 43
0.0
 43
0.0
 43
0.0
 43
0.0208333333333333
 43
0.0
 43
0.0
 43
0.0
 43
0.0
 43
1.0
 43
0.0
 43
0.0
 43
0.0
 43
0.0
 43
1.0
 77
     0
 47
0.0208333333333333
 47
0.0
 47
0.0
 47
0.0
 47
0.0
 47
0.0208333333333333
 47
0.0
 47
0.0
 47
0.0
 47
0.0
 47
1.0
 47
0.0
 47
0.0
 47
0.0
 47
0.0
 47
1.0
171
     0
 49
0.0208333333333333
 49
0.0
 49
0.0
 49
0.0
 49
0.0
 49
0.0208333333333333
 49
0.0
 49
0.0
 49
0.0
 49
0.0
 49
1.0
 49
0.0
 49
0.0
 49
0.0
 49
0.0
 49
1.0
175
     0
142
0.0208333333333333
142
0.0
142
0.0
142
0.0
142
0.0
142
0.0208333333333333
142
0.0
142
0.0
142
0.0
142
0.0
142
1.0
142
0.0
142
0.0
142
0.0
142
0.0
142
1.0
179
     0
144
0.0208333333333333
144
0.0
144
0.0
144
0.0
144
0.0
144
0.0208333333333333
144
0.0
144
0.0
144
0.0
144
0.0
144
1.0
144
0.0
144
0.0
144
0.0
144
0.0
144
1.0
147
0.0208333333333333
147
0.0
147
0.0
147
0.0
147
0.0
147
0.0208333333333333
147
0.0
147
0.0
147
0.0
147
0.0
147
1.0
147
0.0
147
0.0
147
0.0
147
0.0
147
1.0
  0
MATERIAL
  5
B8A0
102
{ACAD_XDICTIONARY
360
B8A1
102
}
102
{ACAD_REACTORS
330
B88F
102
}
330
B88F
100
AcDbMaterial
  1
Global
 72
     0
 43
0.0208333333333333
 43
0.0
 43
0.0
 43
0.0
 43
0.0
 43
0.0208333333333333
 43
0.0
 43
0.0
 43
0.0
 43
0.0
 43
1.0
 43
0.0
 43
0.0
 43
0.0
 43
0.0
 43
1.0
 77
     0
 47
0.0208333333333333
 47
0.0
 47
0.0
 47
0.0
 47
0.0
 47
0.0208333333333333
 47
0.0
 47
0.0
 47
0.0
 47
0.0
 47
1.0
 47
0.0
 47
0.0
 47
0.0
 47
0.0
 47
1.0
171
     0
 49
0.0208333333333333
 49
0.0
 49
0.0
 49
0.0
 49
0.0
 49
0.0208333333333333
 49
0.0
 49
0.0
 49
0.0
 49
0.0
 49
1.0
 49
0.0
 49
0.0
 49
0.0
 49
0.0
 49
1.0
175
     0
142
0.0208333333333333
142
0.0
142
0.0
142
0.0
142
0.0
142
0.0208333333333333
142
0.0
142
0.0
142
0.0
142
0.0
142
1.0
142
0.0
142
0.0
142
0.0
142
0.0
142
1.0
179
     0
144
0.0208333333333333
144
0.0
144
0.0
144
0.0
144
0.0
144
0.0208333333333333
144
0.0
144
0.0
144
0.0
144
0.0
144
1.0
144
0.0
144
0.0
144
0.0
144
0.0
144
1.0
147
0.0208333333333333
147
0.0
147
0.0
147
0.0
147
0.0
147
0.0208333333333333
147
0.0
147
0.0
147
0.0
147
0.0
147
1.0
147
0.0
147
0.0
147
0.0
147
0.0
147
1.0
  0
MLEADERSTYLE
  5
B8D7
102
{ACAD_REACTORS
330
B8D6
102
}
330
B8D6
100
AcDbMLeaderStyle
170
     2
171
     1
172
     0
 90
        2
 40
0.0
 41
0.0
173
     1
 91
-1056964608
340
B4F4
 92
       -2
290
     1
 42
0.09
291
     1
 43
0.36
  3
Standard
 44
0.18
300

342
B4F2
174
     1
178
     6
175
     1
176
     0
 93
-1056964608
 45
0.18
292
     0
297
     0
 46
0.18
 94
-1056964608
 47
1.0
 49
1.0
140
1.0
293
     1
141
0.0
294
     1
177
     0
142
1.0
295
     0
296
     0
143
0.125
1001
ACAD_MLEADERVER
1070
     2
  0
MLINESTYLE
  5
B4F8
102
{ACAD_REACTORS
330
B4F7
102
}
330
B4F7
100
AcDbMlineStyle
  2
STANDARD
 70
     0
  3

 62
   256
 51
90.0
 52
90.0
 71
     2
 49
0.5
 62
   256
  6
BYLAYER
 49
-0.5
 62
   256
  6
BYLAYER
  0
ACDBPLACEHOLDER
  5
B88E
102
{ACAD_REACTORS
330
B88D
102
}
330
B88D
  0
SCALE
  5
B8C5
102
{ACAD_REACTORS
330
B8C4
102
}
330
B8C4
100
AcDbScale
 70
     0
300
1:1
140
1.0
141
1.0
290
     1
  0
SCALE
  5
B8C6
102
{ACAD_REACTORS
330
B8C4
102
}
330
B8C4
100
AcDbScale
 70
     0
300
1/128" = 1'-0"
140
0.0078125
141
12.0
290
     0
  0
SCALE
  5
B8C7
102
{ACAD_REACTORS
330
B8C4
102
}
330
B8C4
100
AcDbScale
 70
     0
300
1/64" = 1'-0"
140
0.015625
141
12.0
290
     0
  0
SCALE
  5
B8C8
102
{ACAD_REACTORS
330
B8C4
102
}
330
B8C4
100
AcDbScale
 70
     0
300
1/32" = 1'-0"
140
0.03125
141
12.0
290
     0
  0
SCALE
  5
B8C9
102
{ACAD_REACTORS
330
B8C4
102
}
330
B8C4
100
AcDbScale
 70
     0
300
1/16" = 1'-0"
140
0.0625
141
12.0
290
     0
  0
SCALE
  5
B8CA
102
{ACAD_REACTORS
330
B8C4
102
}
330
B8C4
100
AcDbScale
 70
     0
300
3/32" = 1'-0"
140
0.09375
141
12.0
290
     0
  0
SCALE
  5
B8CB
102
{ACAD_REACTORS
330
B8C4
102
}
330
B8C4
100
AcDbScale
 70
     0
300
1/8" = 1'-0"
140
0.125
141
12.0
290
     0
  0
SCALE
  5
B8CC
102
{ACAD_REACTORS
330
B8C4
102
}
330
B8C4
100
AcDbScale
 70
     0
300
3/16" = 1'-0"
140
0.1875
141
12.0
290
     0
  0
SCALE
  5
B8CD
102
{ACAD_REACTORS
330
B8C4
102
}
330
B8C4
100
AcDbScale
 70
     0
300
1/4" = 1'-0"
140
0.25
141
12.0
290
     0
  0
SCALE
  5
B8CE
102
{ACAD_REACTORS
330
B8C4
102
}
330
B8C4
100
AcDbScale
 70
     0
300
3/8" = 1'-0"
140
0.375
141
12.0
290
     0
  0
SCALE
  5
B8CF
102
{ACAD_REACTORS
330
B8C4
102
}
330
B8C4
100
AcDbScale
 70
     0
300
1/2" = 1'-0"
140
0.5
141
12.0
290
     0
  0
SCALE
  5
B8D0
102
{ACAD_REACTORS
330
B8C4
102
}
330
B8C4
100
AcDbScale
 70
     0
300
3/4" = 1'-0"
140
0.75
141
12.0
290
     0
  0
SCALE
  5
B8D1
102
{ACAD_REACTORS
330
B8C4
102
}
330
B8C4
100
AcDbScale
 70
     0
300
1" = 1'-0"
140
1.0
141
12.0
290
     0
  0
SCALE
  5
B8D2
102
{ACAD_REACTORS
330
B8C4
102
}
330
B8C4
100
AcDbScale
 70
     0
300
1-1/2" = 1'-0"
140
1.5
141
12.0
290
     0
  0
SCALE
  5
B8D3
102
{ACAD_REACTORS
330
B8C4
102
}
330
B8C4
100
AcDbScale
 70
     0
300
3" = 1'-0"
140
3.0
141
12.0
290
     0
  0
SCALE
  5
B8D4
102
{ACAD_REACTORS
330
B8C4
102
}
330
B8C4
100
AcDbScale
 70
     0
300
6" = 1'-0"
140
6.0
141
12.0
290
     0
  0
SCALE
  5
B8D5
102
{ACAD_REACTORS
330
B8C4
102
}
330
B8C4
100
AcDbScale
 70
     0
300
1'-0" = 1'-0"
140
12.0
141
12.0
290
     0
  0
ACDBSECTIONVIEWSTYLE
  5
B8D9
102
{ACAD_XDICTIONARY
360
B934
102
}
102
{ACAD_REACTORS
330
B8D8
102
}
330
B8D8
100
AcDbModelDocViewStyle
 70
     0
  3
Imperial24
290
     0
100
AcDbSectionViewStyle
 70
     0
 71
     0
 90
       78
 71
     1
340
B4F2
 40
0.24
340
0
340
0
 40
0.24
300
I, O, Q, S, X, Z
 40
0.48
 90
        3
 40
0.18
 90
        1
 71
     2
340
B4F6
 90
       25
340
B4F6
 90
       50
 40
0.24
 40
0.0
 40
0.24
 71
     3
340
B4F2
 40
0.24
 90
        1
 40
0.75
 90
        1
300
%<\AcVar ViewType \f "%tc1">% %<\AcVar ViewSectionStartId>%-%<\AcVar ViewSectionEndId>%\PSCALE %<\AcVar ViewScale \f "%sn">%
 71
     4
300
ANSI31
 40
1.0
 90
        0
290
     0
290
     0
 90
        6
 40
0.0
 40
1.570796326794896
 40
0.2617993877991494
 40
1.308996938995747
 40
-0.2617993877991494
 40
1.832595714594046
  0
TABLESTYLE
  5
B8C3
102
{ACAD_XDICTIONARY
360
B8FB
102
}
102
{ACAD_REACTORS
330
B8C2
102
}
330
B8C2
100
AcDbTableStyle
  3
Standard
 70
     0
 71
     0
 40
0.06
 41
0.06
280
     0
281
     0
  7
STANDARD
140
0.18
170
     2
 62
     0
 63
     7
283
     0
274
    -2
284
     1
 64
     0
275
    -2
285
     1
 65
     0
276
    -2
286
     1
 66
     0
277
    -2
287
     1
 67
     0
278
    -2
288
     1
 68
     0
279
    -2
289
     1
 69
     0
  7
STANDARD
140
0.25
170
     5
 62
     0
 63
     7
283
     0
274
    -2
284
     1
 64
     0
275
    -2
285
     1
 65
     0
276
    -2
286
     1
 66
     0
277
    -2
287
     1
 67
     0
278
    -2
288
     1
 68
     0
279
    -2
289
     1
 69
     0
  7
STANDARD
140
0.18
170
     5
 62
     0
 63
     7
283
     0
274
    -2
284
     1
 64
     0
275
    -2
285
     1
 65
     0
276
    -2
286
     1
 66
     0
277
    -2
287
     1
 67
     0
278
    -2
288
     1
 68
     0
279
    -2
289
     1
 69
     0
  0
VISUALSTYLE
  5
B8AE
102
{ACAD_XDICTIONARY
360
B90C
102
}
102
{ACAD_REACTORS
330
B8A8
102
}
330
B8A8
100
AcDbVisualStyle
  2
2dWireframe
 70
     4
 71
     0
 72
     2
 73
     0
 90
        0
 40
-0.6
 41
-30.0
 62
     5
 63
     7
 74
     1
 91
        4
 64
     7
 65
   257
 75
     1
175
     1
 42
1.0
 92
        0
 66
   257
 43
1.0
 76
     1
 77
     6
 78
     2
 67
     7
 79
     5
170
     0
171
     0
290
     0
174
     0
 93
        1
 44
0.0
173
     0
291
     0
 45
0.0
1001
ACAD
1000
AcDbSavedByObjectVersion
1070
     0
  0
VISUALSTYLE
  5
B8AD
102
{ACAD_XDICTIONARY
360
B90A
102
}
102
{ACAD_REACTORS
330
B8A8
102
}
330
B8A8
100
AcDbVisualStyle
  2
Basic
 70
     7
 71
     1
 72
     0
 73
     1
 90
        0
 40
-0.6
 41
-30.0
 62
     5
 63
     7
 74
     0
 91
        4
 64
     7
 65
   257
 75
     1
175
     1
 42
1.0
 92
        8
 66
     7
 43
1.0
 76
     1
 77
     6
 78
     2
 67
     7
 79
     5
170
     0
171
     0
290
     0
174
     0
 93
        1
 44
0.0
173
     0
291
     1
 45
0.0
1001
ACAD
1000
AcDbSavedByObjectVersion
1070
     0
  0
VISUALSTYLE
  5
B8B4
102
{ACAD_XDICTIONARY
360
B918
102
}
102
{ACAD_REACTORS
330
B8A8
102
}
330
B8A8
100
AcDbVisualStyle
  2
Brighten
 70
    12
 71
     2
 72
     2
 73
     0
 90
        0
 40
-0.6
 41
-30.0
 62
     5
 63
     7
 74
     1
 91
        4
 64
     7
 65
   257
 75
     1
175
     1
 42
1.0
 92
        8
 66
     7
 43
1.0
 76
     1
 77
     6
 78
     2
 67
     7
 79
     5
170
     0
171
     0
290
     0
174
     0
 93
        1
 44
50.0
173
     0
291
     1
 45
0.0
1001
ACAD
1000
AcDbSavedByObjectVersion
1070
     0
  0
VISUALSTYLE
  5
B8B8
102
{ACAD_XDICTIONARY
360
B920
102
}
102
{ACAD_REACTORS
330
B8A8
102
}
330
B8A8
100
AcDbVisualStyle
  2
ColorChange
 70
    16
 71
     2
 72
     2
 73
     3
 90
        0
 40
-0.6
 41
-30.0
 62
     5
 63
     8
 74
     1
 91
        4
 64
     7
 65
   257
 75
     1
175
     1
 42
1.0
 92
        8
 66
     8
 43
1.0
 76
     1
 77
     6
 78
     2
 67
     7
 79
     5
170
     0
171
     0
290
     0
174
     0
 93
        1
 44
0.0
173
     0
291
     1
 45
0.0
1001
ACAD
1000
AcDbSavedByObjectVersion
1070
     0
  0
VISUALSTYLE
  5
B8B1
102
{ACAD_XDICTIONARY
360
B912
102
}
102
{ACAD_REACTORS
330
B8A8
102
}
330
B8A8
100
AcDbVisualStyle
  2
Conceptual
 70
     9
 71
     3
 72
     2
 73
     0
 90
        0
 40
-0.6
 41
-30.0
 62
     5
 63
     7
 74
     2
 91
        2
 64
     7
 65
   257
 75
     1
175
     1
 42
179.0
 92
        8
 66
     7
 43
1.0
 76
     1
 77
     6
 78
     2
 67
     7
 79
     3
170
     0
171
     0
290
     0
174
     0
 93
        1
 44
0.0
173
     0
291
     0
 45
0.0
1001
ACAD
1000
AcDbSavedByObjectVersion
1070
     0
  0
VISUALSTYLE
  5
B8B3
102
{ACAD_XDICTIONARY
360
B916
102
}
102
{ACAD_REACTORS
330
B8A8
102
}
330
B8A8
100
AcDbVisualStyle
  2
Dim
 70
    11
 71
     2
 72
     2
 73
     0
 90
        0
 40
-0.6
 41
-30.0
 62
     5
 63
     7
 74
     1
 91
        4
 64
     7
 65
   257
 75
     1
175
     1
 42
1.0
 92
        8
 66
     7
 43
1.0
 76
     1
 77
     6
 78
     2
 67
     7
 79
     5
170
     0
171
     0
290
     0
174
     0
 93
        1
 44
-50.0
173
     0
291
     1
 45
0.0
1001
ACAD
1000
AcDbSavedByObjectVersion
1070
     0
  0
VISUALSTYLE
  5
B8C0
102
{ACAD_XDICTIONARY
360
B930
102
}
102
{ACAD_REACTORS
330
B8A8
102
}
330
B8A8
100
AcDbVisualStyle
  2
EdgeColorOff
 70
    22
 71
     2
 72
     2
 73
     0
 90
        0
 40
-0.6
 41
-30.0
 62
     5
 63
     7
 74
     1
 91
        4
 64
     7
 65
   257
 75
     1
175
     1
 42
1.0
 92
        8
 66
     7
 43
1.0
 76
     1
 77
     6
 78
     2
 67
     7
 79
     5
170
     0
171
     0
290
     0
174
     0
 93
        1
 44
0.0
173
     0
291
     1
 45
0.0
1001
ACAD
1000
AcDbSavedByObjectVersion
1070
     0
  0
VISUALSTYLE
  5
B8B7
102
{ACAD_XDICTIONARY
360
B91E
102
}
102
{ACAD_REACTORS
330
B8A8
102
}
330
B8A8
100
AcDbVisualStyle
  2
Facepattern
 70
    15
 71
     2
 72
     2
 73
     0
 90
        0
 40
-0.6
 41
-30.0
 62
     5
 63
     7
 74
     1
 91
        4
 64
     7
 65
   257
 75
     1
175
     1
 42
1.0
 92
        8
 66
     7
 43
1.0
 76
     1
 77
     6
 78
     2
 67
     7
 79
     5
170
     0
171
     0
290
     0
174
     0
 93
        1
 44
0.0
173
     0
291
     1
 45
0.0
1001
ACAD
1000
AcDbSavedByObjectVersion
1070
     0
  0
VISUALSTYLE
  5
B8A9
102
{ACAD_XDICTIONARY
360
B902
102
}
102
{ACAD_REACTORS
330
B8A8
102
}
330
B8A8
100
AcDbVisualStyle
  2
Flat
 70
     0
 71
     2
 72
     1
 73
     1
 90
        2
 40
-0.6
 41
30.0
 62
     5
 63
     7
 74
     0
 91
        0
 64
     7
 65
   257
 75
     1
175
     1
 42
1.0
 92
        8
 66
     7
 43
1.0
 76
     1
 77
     6
 78
     2
 67
     7
 79
     5
170
     0
171
     0
290
     0
174
     0
 93
       13
 44
0.0
173
     0
291
     1
 45
0.0
1001
ACAD
1000
AcDbSavedByObjectVersion
1070
     0
  0
VISUALSTYLE
  5
B8AA
102
{ACAD_XDICTIONARY
360
B904
102
}
102
{ACAD_REACTORS
330
B8A8
102
}
330
B8A8
100
AcDbVisualStyle
  2
FlatWithEdges
 70
     1
 71
     2
 72
     1
 73
     1
 90
        2
 40
-0.6
 41
30.0
 62
     5
 63
     7
 74
     1
 91
        0
 64
     7
 65
   257
 75
     1
175
     1
 42
1.0
 92
        0
 66
   257
 43
1.0
 76
     1
 77
     6
 78
     2
 67
     7
 79
     5
170
     0
171
     0
290
     0
174
     0
 93
       13
 44
0.0
173
     0
291
     1
 45
0.0
1001
ACAD
1000
AcDbSavedByObjectVersion
1070
     0
  0
VISUALSTYLE
  5
B8AB
102
{ACAD_XDICTIONARY
360
B906
102
}
102
{ACAD_REACTORS
330
B8A8
102
}
330
B8A8
100
AcDbVisualStyle
  2
Gouraud
 70
     2
 71
     2
 72
     2
 73
     1
 90
        2
 40
-0.6
 41
30.0
 62
     5
 63
     7
 74
     0
 91
        0
 64
     7
 65
   257
 75
     1
175
     1
 42
1.0
 92
        0
 66
     7
 43
1.0
 76
     1
 77
     6
 78
     2
 67
     7
 79
     5
170
     0
171
     0
290
     0
174
     0
 93
       13
 44
0.0
173
     0
291
     1
 45
0.0
1001
ACAD
1000
AcDbSavedByObjectVersion
1070
     0
  0
VISUALSTYLE
  5
B8AC
102
{ACAD_XDICTIONARY
360
B908
102
}
102
{ACAD_REACTORS
330
B8A8
102
}
330
B8A8
100
AcDbVisualStyle
  2
GouraudWithEdges
 70
     3
 71
     2
 72
     2
 73
     1
 90
        2
 40
-0.6
 41
30.0
 62
     5
 63
     7
 74
     1
 91
        0
 64
     7
 65
   257
 75
     1
175
     1
 42
1.0
 92
        0
 66
   257
 43
1.0
 76
     1
 77
     6
 78
     2
 67
     7
 79
     5
170
     0
171
     0
290
     0
174
     0
 93
       13
 44
0.0
173
     0
291
     1
 45
0.0
1001
ACAD
1000
AcDbSavedByObjectVersion
1070
     0
  0
VISUALSTYLE
  5
B8B0
102
{ACAD_XDICTIONARY
360
B910
102
}
102
{ACAD_REACTORS
330
B8A8
102
}
330
B8A8
100
AcDbVisualStyle
  2
Hidden
 70
     6
 71
     1
 72
     2
 73
     2
 90
        0
 40
-0.6
 41
-30.0
 62
     5
 63
     7
 74
     2
 91
        2
 64
     7
 65
   257
 75
     2
175
     1
 42
40.0
 92
        0
 66
   257
 43
1.0
 76
     1
 77
     6
 78
     2
 67
     7
 79
     3
170
     0
171
     0
290
     0
174
     0
 93
        1
 44
0.0
173
     0
291
     0
 45
0.0
1001
ACAD
1000
AcDbSavedByObjectVersion
1070
     0
  0
VISUALSTYLE
  5
B8BE
102
{ACAD_XDICTIONARY
360
B92C
102
}
102
{ACAD_REACTORS
330
B8A8
102
}
330
B8A8
100
AcDbVisualStyle
  2
JitterOff
 70
    20
 71
     2
 72
     2
 73
     0
 90
        0
 40
-0.6
 41
-30.0
 62
     5
 63
     7
 74
     1
 91
        4
 64
     7
 65
   257
 75
     1
175
     1
 42
1.0
 92
       10
 66
     7
 43
1.0
 76
     1
 77
     6
 78
     2
 67
     7
 79
     5
170
     0
171
     0
290
     0
174
     0
 93
        1
 44
0.0
173
     0
291
     1
 45
0.0
1001
ACAD
1000
AcDbSavedByObjectVersion
1070
     0
  0
VISUALSTYLE
  5
B8B6
102
{ACAD_XDICTIONARY
360
B91C
102
}
102
{ACAD_REACTORS
330
B8A8
102
}
330
B8A8
100
AcDbVisualStyle
  2
Linepattern
 70
    14
 71
     2
 72
     2
 73
     0
 90
        0
 40
-0.6
 41
-30.0
 62
     5
 63
     7
 74
     1
 91
        4
 64
     7
 65
   257
 75
     7
175
     7
 42
1.0
 92
        8
 66
     7
 43
1.0
 76
     1
 77
     6
 78
     2
 67
     7
 79
     5
170
     0
171
     0
290
     0
174
     0
 93
        1
 44
0.0
173
     0
291
     1
 45
0.0
1001
ACAD
1000
AcDbSavedByObjectVersion
1070
     0
  0
VISUALSTYLE
  5
B8BF
102
{ACAD_XDICTIONARY
360
B92E
102
}
102
{ACAD_REACTORS
330
B8A8
102
}
330
B8A8
100
AcDbVisualStyle
  2
OverhangOff
 70
    21
 71
     2
 72
     2
 73
     0
 90
        0
 40
-0.6
 41
-30.0
 62
     5
 63
     7
 74
     1
 91
        4
 64
     7
 65
   257
 75
     1
175
     1
 42
1.0
 92
        9
 66
     7
 43
1.0
 76
     1
 77
     6
 78
     2
 67
     7
 79
     5
170
     0
171
     0
290
     0
174
     0
 93
        1
 44
0.0
173
     0
291
     1
 45
0.0
1001
ACAD
1000
AcDbSavedByObjectVersion
1070
     0
  0
VISUALSTYLE
  5
B8B2
102
{ACAD_XDICTIONARY
360
B914
102
}
102
{ACAD_REACTORS
330
B8A8
102
}
330
B8A8
100
AcDbVisualStyle
  2
Realistic
 70
     8
 71
     2
 72
     3
 73
     0
 90
        2
 40
-0.6
 41
30.0
 62
     5
 63
     7
 74
     0
 91
        0
 64
     7
 65
   257
 75
     1
175
     1
 42
1.0
 92
        8
 66
   257
 43
1.0
 76
     1
 77
     6
 78
     2
 67
     7
 79
     3
170
     0
171
     0
290
     0
174
     0
 93
       13
 44
0.0
173
     0
291
     0
 45
0.0
1001
ACAD
1000
AcDbSavedByObjectVersion
1070
     0
  0
VISUALSTYLE
  5
B8BD
102
{ACAD_XDICTIONARY
360
B92A
102
}
102
{ACAD_REACTORS
330
B8A8
102
}
330
B8A8
100
AcDbVisualStyle
  2
Shaded
 70
    27
 71
     2
 72
     2
 73
     1
 90
        2
 40
-0.6
 41
30.0
 62
     5
 63
     7
 74
     0
 91
        4
 64
     7
 65
   257
 75
     1
175
     1
 42
1.0
 92
        8
 66
   257
 43
1.0
 76
     1
 77
     6
 78
     2
 67
     8
 79
     3
170
     0
171
     0
290
     0
174
     0
 93
        5
 44
0.0
173
     0
291
     0
 45
0.0
1001
ACAD
1000
AcDbSavedByObjectVersion
1070
     0
  0
VISUALSTYLE
  5
B8BC
102
{ACAD_XDICTIONARY
360
B928
102
}
102
{ACAD_REACTORS
330
B8A8
102
}
330
B8A8
100
AcDbVisualStyle
  2
Shaded with edges
 70
    26
 71
     2
 72
     2
 73
     1
 90
        2
 40
-0.6
 41
30.0
 62
     5
 63
     7
 74
     1
 91
       10
 64
     7
 65
   257
 75
     2
175
     1
 42
1.0
 92
        8
 66
   257
 43
1.0
 76
     1
 77
     6
 78
     2
 67
     7
 79
     3
170
     0
171
     0
290
     0
174
     0
 93
        5
 44
0.0
173
     0
291
     0
 45
0.0
1001
ACAD
1000
AcDbSavedByObjectVersion
1070
     0
  0
VISUALSTYLE
  5
B8B9
102
{ACAD_XDICTIONARY
360
B922
102
}
102
{ACAD_REACTORS
330
B8A8
102
}
330
B8A8
100
AcDbVisualStyle
  2
Shades of Gray
 70
    23
 71
     2
 72
     2
 73
     3
 90
        0
 40
-0.6
 41
-30.0
 62
     5
 63
     7
 74
     2
 91
        2
 64
     7
 65
     7
 75
     1
175
     1
 42
40.0
 92
        8
 66
     7
 43
1.0
 76
     1
 77
     6
 78
     2
 67
     7
 79
     3
170
     0
171
     0
290
     0
174
     0
 93
        1
 44
0.0
173
     0
291
     0
 45
0.0
1001
ACAD
1000
AcDbSavedByObjectVersion
1070
     0
  0
VISUALSTYLE
  5
B8BA
102
{ACAD_XDICTIONARY
360
B924
102
}
102
{ACAD_REACTORS
330
B8A8
102
}
330
B8A8
100
AcDbVisualStyle
  2
Sketchy
 70
    24
 71
     1
 72
     2
 73
     2
 90
        0
 40
-0.6
 41
-30.0
 62
     5
 63
     7
 74
     2
 91
        2
 64
     7
 65
     7
 75
     1
175
     1
 42
40.0
 92
       11
 66
     7
 43
1.0
 76
     1
 77
     6
 78
     2
 67
     7
 79
     6
170
     0
171
     0
290
     0
174
     0
 93
        1
 44
0.0
173
     0
291
     0
 45
0.0
1001
ACAD
1000
AcDbSavedByObjectVersion
1070
     0
  0
VISUALSTYLE
  5
B8B5
102
{ACAD_XDICTIONARY
360
B91A
102
}
102
{ACAD_REACTORS
330
B8A8
102
}
330
B8A8
100
AcDbVisualStyle
  2
Thicken
 70
    13
 71
     2
 72
     2
 73
     0
 90
        0
 40
-0.6
 41
-30.0
 62
     5
 63
     7
 74
     1
 91
        4
 64
     7
 65
   257
 75
     1
175
     1
 42
1.0
 92
       12
 66
     7
 43
1.0
 76
     1
 77
     6
 78
     2
 67
     7
 79
     5
170
     0
171
     0
290
     0
174
     0
 93
        1
 44
0.0
173
     0
291
     1
 45
0.0
1001
ACAD
1000
AcDbSavedByObjectVersion
1070
     0
  0
VISUALSTYLE
  5
B8AF
102
{ACAD_XDICTIONARY
360
B90E
102
}
102
{ACAD_REACTORS
330
B8A8
102
}
330
B8A8
100
AcDbVisualStyle
  2
Wireframe
 70
     5
 71
     0
 72
     2
 73
     0
 90
        0
 40
-0.6
 41
-30.0
 62
     5
 63
     7
 74
     1
 91
        4
 64
     7
 65
   257
 75
     1
175
     1
 42
1.0
 92
        0
 66
   257
 43
1.0
 76
     1
 77
     6
 78
     2
 67
     7
 79
     3
170
     0
171
     0
290
     0
174
     0
 93
        1
 44
0.0
173
     0
291
     0
 45
0.0
1001
ACAD
1000
AcDbSavedByObjectVersion
1070
     0
  0
VISUALSTYLE
  5
B8BB
102
{ACAD_XDICTIONARY
360
B926
102
}
102
{ACAD_REACTORS
330
B8A8
102
}
330
B8A8
100
AcDbVisualStyle
  2
X-Ray
 70
    25
 71
     2
 72
     2
 73
     1
 90
        1
 40
0.5
 41
-30.0
 62
     5
 63
     7
 74
     1
 91
        0
 64
     7
 65
   257
 75
     1
175
     1
 42
1.0
 92
        8
 66
     7
 43
1.0
 76
     1
 77
     6
 78
     2
 67
     7
 79
     3
170
     0
171
     0
290
     0
174
     0
 93
       13
 44
0.0
173
     0
291
     0
 45
0.0
1001
ACAD
1000
AcDbSavedByObjectVersion
1070
     0
  0
DICTIONARYVAR
  5
B8F5
102
{ACAD_REACTORS
330
B8F0
102
}
330
B8F0
100
DictionaryVariables
280
     0
  1
1:1
  0
DICTIONARYVAR
  5
B8F2
102
{ACAD_REACTORS
330
B8F0
102
}
330
B8F0
100
DictionaryVariables
280
     0
  1
STANDARD
  0
DICTIONARYVAR
  5
B8F1
102
{ACAD_REACTORS
330
B8F0
102
}
330
B8F0
100
DictionaryVariables
280
     0
  1
STANDARD
  0
DICTIONARYVAR
  5
B8F3
102
{ACAD_REACTORS
330
B8F0
102
}
330
B8F0
100
DictionaryVariables
280
     0
  1
Imperial24
  0
DICTIONARYVAR
  5
B8F4
102
{ACAD_REACTORS
330
B8F0
102
}
330
B8F0
100
DictionaryVariables
280
     0
  1
Imperial24
  0
DICTIONARYVAR
  5
B8F8
102
{ACAD_REACTORS
330
B8F0
102
}
330
B8F0
100
DictionaryVariables
280
     0
  1
1
  0
DICTIONARYVAR
  5
B8F7
102
{ACAD_REACTORS
330
B8F0
102
}
330
B8F0
100
DictionaryVariables
280
     0
  1
0
  0
DICTIONARYVAR
  5
B8F6
102
{ACAD_REACTORS
330
B8F0
102
}
330
B8F0
100
DictionaryVariables
280
     0
  1
127
  0
DICTIONARYVAR
  5
B8F9
102
{ACAD_REACTORS
330
B8F0
102
}
330
B8F0
100
DictionaryVariables
280
     0
  1
2
  0
DICTIONARY
  5
B936
330
B8DB
100
AcDbDictionary
280
     1
281
     1
  3
ACAD_XREC_ROUNDTRIP
360
B937
  0
DICTIONARY
  5
B938
330
B8DC
100
AcDbDictionary
280
     1
281
     1
  3
ACAD_XREC_ROUNDTRIP
360
B939
  0
DICTIONARY
  5
B93A
330
B8DD
100
AcDbDictionary
280
     1
281
     1
  3
ACAD_XREC_ROUNDTRIP
360
B93B
  0
DICTIONARY
  5
B899
330
B898
100
AcDbDictionary
280
     1
281
     1
  3
ACAD_XREC_ROUNDTRIP
360
B900
  3
BUMPTILE
360
B89B
  3
DIFFUSETILE
360
B89A
  3
OPACITYTILE
360
B89E
  3
REFLECTIONTILE
360
B89D
  3
REFRACTIONTILE
360
B89F
  3
SPECULARTILE
360
B89C
  0
DICTIONARY
  5
B891
330
B890
100
AcDbDictionary
280
     1
281
     1
  3
ACAD_XREC_ROUNDTRIP
360
B8FF
  3
BUMPTILE
360
B893
  3
DIFFUSETILE
360
B892
  3
OPACITYTILE
360
B896
  3
REFLECTIONTILE
360
B895
  3
REFRACTIONTILE
360
B897
  3
SPECULARTILE
360
B894
  0
DICTIONARY
  5
B8A1
330
B8A0
100
AcDbDictionary
280
     1
281
     1
  3
ACAD_XREC_ROUNDTRIP
360
B901
  3
BUMPTILE
360
B8A3
  3
DIFFUSETILE
360
B8A2
  3
OPACITYTILE
360
B8A6
  3
REFLECTIONTILE
360
B8A5
  3
REFRACTIONTILE
360
B8A7
  3
SPECULARTILE
360
B8A4
  0
DICTIONARY
  5
B934
330
B8D9
100
AcDbDictionary
280
     1
281
     1
  3
ACAD_XREC_ROUNDTRIP
360
B935
  0
DICTIONARY
  5
B8FB
330
B8C3
100
AcDbDictionary
280
     1
281
     1
  3
ACAD_ROUNDTRIP_2008_TABLESTYLE_CELLSTYLEMAP
360
B8FC
  3
ACAD_XREC_ROUNDTRIP
360
B932
  0
DICTIONARY
  5
B90C
330
B8AE
100
AcDbDictionary
280
     1
281
     1
  3
ACAD_XREC_ROUNDTRIP
360
B90D
  0
DICTIONARY
  5
B90A
330
B8AD
100
AcDbDictionary
280
     1
281
     1
  3
ACAD_XREC_ROUNDTRIP
360
B90B
  0
DICTIONARY
  5
B918
330
B8B4
100
AcDbDictionary
280
     1
281
     1
  3
ACAD_XREC_ROUNDTRIP
360
B919
  0
DICTIONARY
  5
B920
330
B8B8
100
AcDbDictionary
280
     1
281
     1
  3
ACAD_XREC_ROUNDTRIP
360
B921
  0
DICTIONARY
  5
B912
330
B8B1
100
AcDbDictionary
280
     1
281
     1
  3
ACAD_XREC_ROUNDTRIP
360
B913
  0
DICTIONARY
  5
B916
330
B8B3
100
AcDbDictionary
280
     1
281
     1
  3
ACAD_XREC_ROUNDTRIP
360
B917
  0
DICTIONARY
  5
B930
330
B8C0
100
AcDbDictionary
280
     1
281
     1
  3
ACAD_XREC_ROUNDTRIP
360
B931
  0
DICTIONARY
  5
B91E
330
B8B7
100
AcDbDictionary
280
     1
281
     1
  3
ACAD_XREC_ROUNDTRIP
360
B91F
  0
DICTIONARY
  5
B902
330
B8A9
100
AcDbDictionary
280
     1
281
     1
  3
ACAD_XREC_ROUNDTRIP
360
B903
  0
DICTIONARY
  5
B904
330
B8AA
100
AcDbDictionary
280
     1
281
     1
  3
ACAD_XREC_ROUNDTRIP
360
B905
  0
DICTIONARY
  5
B906
330
B8AB
100
AcDbDictionary
280
     1
281
     1
  3
ACAD_XREC_ROUNDTRIP
360
B907
  0
DICTIONARY
  5
B908
330
B8AC
100
AcDbDictionary
280
     1
281
     1
  3
ACAD_XREC_ROUNDTRIP
360
B909
  0
DICTIONARY
  5
B910
330
B8B0
100
AcDbDictionary
280
     1
281
     1
  3
ACAD_XREC_ROUNDTRIP
360
B911
  0
DICTIONARY
  5
B92C
330
B8BE
100
AcDbDictionary
280
     1
281
     1
  3
ACAD_XREC_ROUNDTRIP
360
B92D
  0
DICTIONARY
  5
B91C
330
B8B6
100
AcDbDictionary
280
     1
281
     1
  3
ACAD_XREC_ROUNDTRIP
360
B91D
  0
DICTIONARY
  5
B92E
330
B8BF
100
AcDbDictionary
280
     1
281
     1
  3
ACAD_XREC_ROUNDTRIP
360
B92F
  0
DICTIONARY
  5
B914
330
B8B2
100
AcDbDictionary
280
     1
281
     1
  3
ACAD_XREC_ROUNDTRIP
360
B915
  0
DICTIONARY
  5
B92A
330
B8BD
100
AcDbDictionary
280
     1
281
     1
  3
ACAD_XREC_ROUNDTRIP
360
B92B
  0
DICTIONARY
  5
B928
330
B8BC
100
AcDbDictionary
280
     1
281
     1
  3
ACAD_XREC_ROUNDTRIP
360
B929
  0
DICTIONARY
  5
B922
330
B8B9
100
AcDbDictionary
280
     1
281
     1
  3
ACAD_XREC_ROUNDTRIP
360
B923
  0
DICTIONARY
  5
B924
330
B8BA
100
AcDbDictionary
280
     1
281
     1
  3
ACAD_XREC_ROUNDTRIP
360
B925
  0
DICTIONARY
  5
B91A
330
B8B5
100
AcDbDictionary
280
     1
281
     1
  3
ACAD_XREC_ROUNDTRIP
360
B91B
  0
DICTIONARY
  5
B90E
330
B8AF
100
AcDbDictionary
280
     1
281
     1
  3
ACAD_XREC_ROUNDTRIP
360
B90F
  0
DICTIONARY
  5
B926
330
B8BB
100
AcDbDictionary
280
     1
281
     1
  3
ACAD_XREC_ROUNDTRIP
360
B927
  0
XRECORD
  5
B937
102
{ACAD_REACTORS
330
B936
102
}
330
B936
100
AcDbXrecord
280
     1
102
DISPLAYNAME
  1
Imperial24
102
FLAGS
 90
        0
  0
XRECORD
  5
B939
102
{ACAD_REACTORS
330
B938
102
}
330
B938
100
AcDbXrecord
280
     1
102
SHADEPLOT
 70
     0
102
SHADEPLOTRESLEVEL
 70
     2
102
SHADEPLOTCUSTOMDPI
 70
   300
  0
XRECORD
  5
B93B
102
{ACAD_REACTORS
330
B93A
102
}
330
B93A
100
AcDbXrecord
280
     1
102
SHADEPLOT
 70
     0
102
SHADEPLOTRESLEVEL
 70
     2
102
SHADEPLOTCUSTOMDPI
 70
   300
  0
XRECORD
  5
B900
102
{ACAD_REACTORS
330
B899
102
}
330
B899
100
AcDbXrecord
280
     1
102
MATERIAL
148
0.0
149
0.0
149
0.0
 93
        0
 94
      127
282
     0
 72
     0
 77
     0
171
     0
175
     0
179
     0
273
     0
  0
XRECORD
  5
B89B
102
{ACAD_REACTORS
330
B899
102
}
330
B899
100
AcDbXrecord
280
     1
270
     1
271
     1
  0
XRECORD
  5
B89A
102
{ACAD_REACTORS
330
B899
102
}
330
B899
100
AcDbXrecord
280
     1
270
     1
271
     1
  0
XRECORD
  5
B89E
102
{ACAD_REACTORS
330
B899
102
}
330
B899
100
AcDbXrecord
280
     1
270
     1
271
     1
  0
XRECORD
  5
B89D
102
{ACAD_REACTORS
330
B899
102
}
330
B899
100
AcDbXrecord
280
     1
270
     1
271
     1
  0
XRECORD
  5
B89F
102
{ACAD_REACTORS
330
B899
102
}
330
B899
100
AcDbXrecord
280
     1
270
     1
271
     1
  0
XRECORD
  5
B89C
102
{ACAD_REACTORS
330
B899
102
}
330
B899
100
AcDbXrecord
280
     1
270
     1
271
     1
  0
XRECORD
  5
B8FF
102
{ACAD_REACTORS
330
B891
102
}
330
B891
100
AcDbXrecord
280
     1
102
MATERIAL
148
0.0
149
0.0
149
0.0
 93
        0
 94
      127
282
     0
 72
     0
 77
     0
171
     0
175
     0
179
     0
273
     0
  0
XRECORD
  5
B893
102
{ACAD_REACTORS
330
B891
102
}
330
B891
100
AcDbXrecord
280
     1
270
     1
271
     1
  0
XRECORD
  5
B892
102
{ACAD_REACTORS
330
B891
102
}
330
B891
100
AcDbXrecord
280
     1
270
     1
271
     1
  0
XRECORD
  5
B896
102
{ACAD_REACTORS
330
B891
102
}
330
B891
100
AcDbXrecord
280
     1
270
     1
271
     1
  0
XRECORD
  5
B895
102
{ACAD_REACTORS
330
B891
102
}
330
B891
100
AcDbXrecord
280
     1
270
     1
271
     1
  0
XRECORD
  5
B897
102
{ACAD_REACTORS
330
B891
102
}
330
B891
100
AcDbXrecord
280
     1
270
     1
271
     1
  0
XRECORD
  5
B894
102
{ACAD_REACTORS
330
B891
102
}
330
B891
100
AcDbXrecord
280
     1
270
     1
271
     1
  0
XRECORD
  5
B901
102
{ACAD_REACTORS
330
B8A1
102
}
330
B8A1
100
AcDbXrecord
280
     1
102
MATERIAL
148
0.0
149
0.0
149
0.0
 93
        0
 94
      127
282
     0
 72
     0
 77
     0
171
     0
175
     0
179
     0
273
     0
  0
XRECORD
  5
B8A3
102
{ACAD_REACTORS
330
B8A1
102
}
330
B8A1
100
AcDbXrecord
280
     1
270
     1
271
     1
  0
XRECORD
  5
B8A2
102
{ACAD_REACTORS
330
B8A1
102
}
330
B8A1
100
AcDbXrecord
280
     1
270
     1
271
     1
  0
XRECORD
  5
B8A6
102
{ACAD_REACTORS
330
B8A1
102
}
330
B8A1
100
AcDbXrecord
280
     1
270
     1
271
     1
  0
XRECORD
  5
B8A5
102
{ACAD_REACTORS
330
B8A1
102
}
330
B8A1
100
AcDbXrecord
280
     1
270
     1
271
     1
  0
XRECORD
  5
B8A7
102
{ACAD_REACTORS
330
B8A1
102
}
330
B8A1
100
AcDbXrecord
280
     1
270
     1
271
     1
  0
XRECORD
  5
B8A4
102
{ACAD_REACTORS
330
B8A1
102
}
330
B8A1
100
AcDbXrecord
280
     1
270
     1
271
     1
  0
XRECORD
  5
B935
102
{ACAD_REACTORS
330
B934
102
}
330
B934
100
AcDbXrecord
280
     1
102
DISPLAYNAME
  1
Imperial24
102
FLAGS
 90
        0
  0
CELLSTYLEMAP
  5
B8FC
102
{ACAD_REACTORS
330
B8FB
102
}
330
B8FB
100
AcDbCellStyleMap
 90
        3
300
CELLSTYLE
  1
TABLEFORMAT_BEGIN
 90
        5
170
     1
 91
        0
 92
    32768
 62
   257
 93
        1
300
CONTENTFORMAT
  1
CONTENTFORMAT_BEGIN
 90
        0
 91
        0
 92
      512
 93
        0
300

 40
0.0
140
1.0
 94
        5
 62
     0
340
B4F2
144
0.25
309
CONTENTFORMAT_END
171
     0
 94
        0
309
TABLEFORMAT_END
  1
CELLSTYLE_BEGIN
 90
        1
 91
        1
300
_TITLE
309
CELLSTYLE_END
300
CELLSTYLE
  1
TABLEFORMAT_BEGIN
 90
        5
170
     1
 91
        0
 92
        0
 62
   257
 93
        1
300
CONTENTFORMAT
  1
CONTENTFORMAT_BEGIN
 90
        0
 91
        0
 92
      512
 93
        0
300

 40
0.0
140
1.0
 94
        5
 62
     0
340
B4F2
144
0.18
309
CONTENTFORMAT_END
171
     0
 94
        0
309
TABLEFORMAT_END
  1
CELLSTYLE_BEGIN
 90
        2
 91
        1
300
_HEADER
309
CELLSTYLE_END
300
CELLSTYLE
  1
TABLEFORMAT_BEGIN
 90
        5
170
     1
 91
        0
 92
        0
 62
   257
 93
        1
300
CONTENTFORMAT
  1
CONTENTFORMAT_BEGIN
 90
        0
 91
        0
 92
      512
 93
        0
300

 40
0.0
140
1.0
 94
        2
 62
     0
340
B4F2
144
0.18
309
CONTENTFORMAT_END
171
     0
 94
        0
309
TABLEFORMAT_END
  1
CELLSTYLE_BEGIN
 90
        3
 91
        2
300
_DATA
309
CELLSTYLE_END
  0
XRECORD
  5
B932
102
{ACAD_REACTORS
330
B8FB
102
}
330
B8FB
100
AcDbXrecord
280
     1
102
ACAD_ROUNDTRIP_PRE2007_TABLESTYLE
 90
      512
 91
        0
  1

 92
      512
 93
        0
  2

 94
      512
 95
        0
  3

  0
XRECORD
  5
B90D
102
{ACAD_REACTORS
330
B90C
102
}
330
B90C
100
AcDbXrecord
280
     1
102
RTVSPost2010Prop28
280
     1
102
RTVSPost2010PropOp28
 70
     1
102
RTVSPost2010Prop29
280
     1
102
RTVSPost2010PropOp29
 70
     1
102
RTVSPost2010Prop30
280
     0
102
RTVSPost2010PropOp30
 70
     1
102
RTVSPost2010Prop31
280
     0
102
RTVSPost2010PropOp31
 70
     1
102
RTVSPost2010Prop32
280
     0
102
RTVSPost2010PropOp32
 70
     1
102
RTVSPost2010Prop33
280
     0
102
RTVSPost2010PropOp33
 70
     1
102
RTVSPost2010Prop34
280
     0
102
RTVSPost2010PropOp34
 70
     1
102
RTVSPost2010Prop35
280
     0
102
RTVSPost2010PropOp35
 70
     1
102
RTVSPost2010Prop36
280
     0
102
RTVSPost2010PropOp36
 70
     1
102
RTVSPost2010Prop37
 90
       50
102
RTVSPost2010PropOp37
 70
     1
102
RTVSPost2010Prop38
140
0.0
102
RTVSPost2010PropOp38
 70
     1
102
RTVSPost2010Prop39
140
1.0
102
RTVSPost2010PropOp39
 70
     1
102
RTVSPost2010Prop40
 90
        0
102
RTVSPost2010PropOp40
 70
     1
102
RTVSPost2010Prop41ColorIndex
 90
       18
102
RTVSPost2010Prop41ColorRGB
 90
        0
102
RTVSPost2010PropOp41
 70
     1
102
RTVSPost2010Prop42
 90
       50
102
RTVSPost2010PropOp42
 70
     1
102
RTVSPost2010Prop43
 90
        3
102
RTVSPost2010PropOp43
 70
     1
102
RTVSPost2010Prop44ColorIndex
 90
        5
102
RTVSPost2010Prop44ColorRGB
 90
      255
102
RTVSPost2010PropOp44
 70
     1
102
RTVSPost2010Prop45
280
     0
102
RTVSPost2010PropOp45
 70
     1
102
RTVSPost2010Prop46
 90
       50
102
RTVSPost2010PropOp46
 70
     1
102
RTVSPost2010Prop47
 90
       50
102
RTVSPost2010PropOp47
 70
     1
102
RTVSPost2010Prop48
 90
       50
102
RTVSPost2010PropOp48
 70
     1
102
RTVSPost2010Prop49
280
     0
102
RTVSPost2010PropOp49
 70
     1
102
RTVSPost2010Prop50
 90
       50
102
RTVSPost2010PropOp50
 70
     1
102
RTVSPost2010Prop51ColorIndex
 90
      256
102
RTVSPost2010Prop51ColorRGB
 90
-16777216
102
RTVSPost2010PropOp51
 70
     0
102
RTVSPost2010Prop52
140
1.0
102
RTVSPost2010PropOp52
 70
     0
102
RTVSPost2010Prop53
 90
        2
102
RTVSPost2010PropOp53
 70
     1
102
RTVSPost2010Prop54
  1
strokes_ogs.tif
102
RTVSPost2010PropOp54
 70
     1
102
RTVSPost2010Prop55
280
     0
102
RTVSPost2010PropOp55
 70
     1
102
RTVSPost2010Prop56
140
1.0
102
RTVSPost2010PropOp56
 70
     1
102
RTVSPost2010Prop57
140
1.0
102
RTVSPost2010PropOp57
 70
     1
102
RTVSPropertyOp0
 70
     1
102
RTVSPropertyOp1
 70
     1
102
RTVSPropertyOp2
 70
     1
102
RTVSPropertyOp3
 70
     1
102
RTVSPropertyOp4
 70
     1
102
RTVSPropertyOp5
 70
     1
102
RTVSPropertyOp6
 70
     1
102
RTVSPropertyOp7
 70
     1
102
RTVSPropertyOp8
 70
     1
102
RTVSPropertyOp9
 70
     1
102
RTVSPropertyOp10
 70
     1
102
RTVSPropertyOp11
 70
     1
102
RTVSPropertyOp12
 70
     1
102
RTVSPropertyOp13
 70
     1
102
RTVSPropertyOp14
 70
     1
102
RTVSPropertyOp15
 70
     1
102
RTVSPropertyOp16
 70
     1
102
RTVSPropertyOp17
 70
     1
102
RTVSPropertyOp18
 70
     1
102
RTVSPropertyOp19
 70
     1
102
RTVSPropertyOp20
 70
     1
102
RTVSPropertyOp21
 70
     1
102
RTVSPropertyOp22
 70
     1
102
RTVSPropertyOp23
 70
     1
102
RTVSPropertyOp24
 70
     1
102
RTVSPropertyOp25
 70
     1
102
RTVSPropertyOp26
 70
     1
102
RTVSPropertyOp27
 70
     1
102
RTVSPropertyOp28
 70
     1
102
RTVSPropertyOp29
 70
     1
102
RTVSPropertyOp30
 70
     1
102
RTVSPropertyOp31
 70
     1
102
RTVSPropertyOp32
 70
     1
102
RTVSPropertyOp33
 70
     1
102
RTVSPropertyOp34
 70
     1
102
RTVSPropertyOp35
 70
     1
102
RTVSPropertyOp36
 70
     1
102
RTVSPropertyOp37
 70
     1
102
RTVSPropertyOp38
 70
     1
102
RTVSPropertyOp39
 70
     1
102
RTVSPropertyOp40
 70
     1
102
RTVSPropertyOp41
 70
     1
102
RTVSPropertyOp42
 70
     1
102
RTVSPropertyOp43
 70
     1
102
RTVSPropertyOp44
 70
     1
102
RTVSPropertyOp45
 70
     1
102
RTVSPropertyOp46
 70
     1
102
RTVSPropertyOp47
 70
     1
102
RTVSPropertyOp48
 70
     1
102
RTVSPropertyOp49
 70
     1
102
RTVSPropertyOp50
 70
     1
102
RTVSPropertyOp51
 70
     0
102
RTVSPropertyOp52
 70
     0
102
RTVSPropertyOp53
 70
     1
102
RTVSPropertyOp54
 70
     1
102
RTVSPropertyOp55
 70
     1
102
RTVSPropertyOp56
 70
     1
102
RTVSPropertyOp57
 70
     1
102
RTVSPropertyOp58
 70
     1
102
RTVSPropertyOp59
 70
     1
102
RTVSPropertyOp60
 70
     1
102
RTVSPropertyOp61
 70
     1
102
RTVSPropertyOp62
 70
     1
  0
XRECORD
  5
B90B
102
{ACAD_REACTORS
330
B90A
102
}
330
B90A
100
AcDbXrecord
280
     1
102
RTVSPost2010Prop28
280
     0
102
RTVSPost2010PropOp28
 70
     1
102
RTVSPost2010Prop29
280
     1
102
RTVSPost2010PropOp29
 70
     1
102
RTVSPost2010Prop30
280
     1
102
RTVSPost2010PropOp30
 70
     1
102
RTVSPost2010Prop31
280
     0
102
RTVSPost2010PropOp31
 70
     1
102
RTVSPost2010Prop32
280
     0
102
RTVSPost2010PropOp32
 70
     1
102
RTVSPost2010Prop33
280
     0
102
RTVSPost2010PropOp33
 70
     1
102
RTVSPost2010Prop34
280
     0
102
RTVSPost2010PropOp34
 70
     1
102
RTVSPost2010Prop35
280
     0
102
RTVSPost2010PropOp35
 70
     1
102
RTVSPost2010Prop36
280
     0
102
RTVSPost2010PropOp36
 70
     1
102
RTVSPost2010Prop37
 90
       50
102
RTVSPost2010PropOp37
 70
     1
102
RTVSPost2010Prop38
140
0.0
102
RTVSPost2010PropOp38
 70
     1
102
RTVSPost2010Prop39
140
1.0
102
RTVSPost2010PropOp39
 70
     1
102
RTVSPost2010Prop40
 90
        0
102
RTVSPost2010PropOp40
 70
     1
102
RTVSPost2010Prop41ColorIndex
 90
       18
102
RTVSPost2010Prop41ColorRGB
 90
        0
102
RTVSPost2010PropOp41
 70
     1
102
RTVSPost2010Prop42
 90
       50
102
RTVSPost2010PropOp42
 70
     1
102
RTVSPost2010Prop43
 90
        3
102
RTVSPost2010PropOp43
 70
     1
102
RTVSPost2010Prop44ColorIndex
 90
        5
102
RTVSPost2010Prop44ColorRGB
 90
      255
102
RTVSPost2010PropOp44
 70
     1
102
RTVSPost2010Prop45
280
     0
102
RTVSPost2010PropOp45
 70
     1
102
RTVSPost2010Prop46
 90
       50
102
RTVSPost2010PropOp46
 70
     1
102
RTVSPost2010Prop47
 90
       50
102
RTVSPost2010PropOp47
 70
     1
102
RTVSPost2010Prop48
 90
       50
102
RTVSPost2010PropOp48
 70
     1
102
RTVSPost2010Prop49
280
     0
102
RTVSPost2010PropOp49
 70
     1
102
RTVSPost2010Prop50
 90
       50
102
RTVSPost2010PropOp50
 70
     1
102
RTVSPost2010Prop51ColorIndex
 90
      256
102
RTVSPost2010Prop51ColorRGB
 90
-16777216
102
RTVSPost2010PropOp51
 70
     0
102
RTVSPost2010Prop52
140
1.0
102
RTVSPost2010PropOp52
 70
     0
102
RTVSPost2010Prop53
 90
        2
102
RTVSPost2010PropOp53
 70
     1
102
RTVSPost2010Prop54
  1
strokes_ogs.tif
102
RTVSPost2010PropOp54
 70
     1
102
RTVSPost2010Prop55
280
     0
102
RTVSPost2010PropOp55
 70
     1
102
RTVSPost2010Prop56
140
1.0
102
RTVSPost2010PropOp56
 70
     1
102
RTVSPost2010Prop57
140
1.0
102
RTVSPost2010PropOp57
 70
     1
102
RTVSPropertyOp0
 70
     1
102
RTVSPropertyOp1
 70
     1
102
RTVSPropertyOp2
 70
     1
102
RTVSPropertyOp3
 70
     1
102
RTVSPropertyOp4
 70
     1
102
RTVSPropertyOp5
 70
     1
102
RTVSPropertyOp6
 70
     1
102
RTVSPropertyOp7
 70
     1
102
RTVSPropertyOp8
 70
     1
102
RTVSPropertyOp9
 70
     1
102
RTVSPropertyOp10
 70
     1
102
RTVSPropertyOp11
 70
     1
102
RTVSPropertyOp12
 70
     1
102
RTVSPropertyOp13
 70
     1
102
RTVSPropertyOp14
 70
     1
102
RTVSPropertyOp15
 70
     1
102
RTVSPropertyOp16
 70
     1
102
RTVSPropertyOp17
 70
     1
102
RTVSPropertyOp18
 70
     1
102
RTVSPropertyOp19
 70
     1
102
RTVSPropertyOp20
 70
     1
102
RTVSPropertyOp21
 70
     1
102
RTVSPropertyOp22
 70
     1
102
RTVSPropertyOp23
 70
     1
102
RTVSPropertyOp24
 70
     1
102
RTVSPropertyOp25
 70
     1
102
RTVSPropertyOp26
 70
     1
102
RTVSPropertyOp27
 70
     1
102
RTVSPropertyOp28
 70
     1
102
RTVSPropertyOp29
 70
     1
102
RTVSPropertyOp30
 70
     1
102
RTVSPropertyOp31
 70
     1
102
RTVSPropertyOp32
 70
     1
102
RTVSPropertyOp33
 70
     1
102
RTVSPropertyOp34
 70
     1
102
RTVSPropertyOp35
 70
     1
102
RTVSPropertyOp36
 70
     1
102
RTVSPropertyOp37
 70
     1
102
RTVSPropertyOp38
 70
     1
102
RTVSPropertyOp39
 70
     1
102
RTVSPropertyOp40
 70
     1
102
RTVSPropertyOp41
 70
     1
102
RTVSPropertyOp42
 70
     1
102
RTVSPropertyOp43
 70
     1
102
RTVSPropertyOp44
 70
     1
102
RTVSPropertyOp45
 70
     1
102
RTVSPropertyOp46
 70
     1
102
RTVSPropertyOp47
 70
     1
102
RTVSPropertyOp48
 70
     1
102
RTVSPropertyOp49
 70
     1
102
RTVSPropertyOp50
 70
     1
102
RTVSPropertyOp51
 70
     0
102
RTVSPropertyOp52
 70
     0
102
RTVSPropertyOp53
 70
     1
102
RTVSPropertyOp54
 70
     1
102
RTVSPropertyOp55
 70
     1
102
RTVSPropertyOp56
 70
     1
102
RTVSPropertyOp57
 70
     1
102
RTVSPropertyOp58
 70
     1
102
RTVSPropertyOp59
 70
     1
102
RTVSPropertyOp60
 70
     1
102
RTVSPropertyOp61
 70
     1
102
RTVSPropertyOp62
 70
     1
  0
XRECORD
  5
B919
102
{ACAD_REACTORS
330
B918
102
}
330
B918
100
AcDbXrecord
280
     1
102
RTVSPost2010Prop28
280
     0
102
RTVSPost2010PropOp28
 70
     1
102
RTVSPost2010Prop29
280
     1
102
RTVSPost2010PropOp29
 70
     1
102
RTVSPost2010Prop30
280
     1
102
RTVSPost2010PropOp30
 70
     1
102
RTVSPost2010Prop31
280
     0
102
RTVSPost2010PropOp31
 70
     1
102
RTVSPost2010Prop32
280
     0
102
RTVSPost2010PropOp32
 70
     1
102
RTVSPost2010Prop33
280
     0
102
RTVSPost2010PropOp33
 70
     1
102
RTVSPost2010Prop34
280
     0
102
RTVSPost2010PropOp34
 70
     1
102
RTVSPost2010Prop35
280
     0
102
RTVSPost2010PropOp35
 70
     1
102
RTVSPost2010Prop36
280
     0
102
RTVSPost2010PropOp36
 70
     1
102
RTVSPost2010Prop37
 90
       50
102
RTVSPost2010PropOp37
 70
     1
102
RTVSPost2010Prop38
140
0.0
102
RTVSPost2010PropOp38
 70
     1
102
RTVSPost2010Prop39
140
1.0
102
RTVSPost2010PropOp39
 70
     1
102
RTVSPost2010Prop40
 90
        0
102
RTVSPost2010PropOp40
 70
     1
102
RTVSPost2010Prop41ColorIndex
 90
       18
102
RTVSPost2010Prop41ColorRGB
 90
        0
102
RTVSPost2010PropOp41
 70
     1
102
RTVSPost2010Prop42
 90
       50
102
RTVSPost2010PropOp42
 70
     1
102
RTVSPost2010Prop43
 90
        3
102
RTVSPost2010PropOp43
 70
     1
102
RTVSPost2010Prop44ColorIndex
 90
        5
102
RTVSPost2010Prop44ColorRGB
 90
      255
102
RTVSPost2010PropOp44
 70
     1
102
RTVSPost2010Prop45
280
     0
102
RTVSPost2010PropOp45
 70
     1
102
RTVSPost2010Prop46
 90
       50
102
RTVSPost2010PropOp46
 70
     1
102
RTVSPost2010Prop47
 90
       50
102
RTVSPost2010PropOp47
 70
     1
102
RTVSPost2010Prop48
 90
       50
102
RTVSPost2010PropOp48
 70
     1
102
RTVSPost2010Prop49
280
     0
102
RTVSPost2010PropOp49
 70
     1
102
RTVSPost2010Prop50
 90
       50
102
RTVSPost2010PropOp50
 70
     1
102
RTVSPost2010Prop51ColorIndex
 90
      256
102
RTVSPost2010Prop51ColorRGB
 90
-16777216
102
RTVSPost2010PropOp51
 70
     0
102
RTVSPost2010Prop52
140
1.0
102
RTVSPost2010PropOp52
 70
     0
102
RTVSPost2010Prop53
 90
        2
102
RTVSPost2010PropOp53
 70
     1
102
RTVSPost2010Prop54
  1
strokes_ogs.tif
102
RTVSPost2010PropOp54
 70
     1
102
RTVSPost2010Prop55
280
     0
102
RTVSPost2010PropOp55
 70
     1
102
RTVSPost2010Prop56
140
1.0
102
RTVSPost2010PropOp56
 70
     1
102
RTVSPost2010Prop57
140
1.0
102
RTVSPost2010PropOp57
 70
     1
102
RTVSPropertyOp0
 70
     1
102
RTVSPropertyOp1
 70
     1
102
RTVSPropertyOp2
 70
     1
102
RTVSPropertyOp3
 70
     1
102
RTVSPropertyOp4
 70
     1
102
RTVSPropertyOp5
 70
     1
102
RTVSPropertyOp6
 70
     1
102
RTVSPropertyOp7
 70
     1
102
RTVSPropertyOp8
 70
     1
102
RTVSPropertyOp9
 70
     1
102
RTVSPropertyOp10
 70
     1
102
RTVSPropertyOp11
 70
     1
102
RTVSPropertyOp12
 70
     1
102
RTVSPropertyOp13
 70
     1
102
RTVSPropertyOp14
 70
     1
102
RTVSPropertyOp15
 70
     1
102
RTVSPropertyOp16
 70
     1
102
RTVSPropertyOp17
 70
     1
102
RTVSPropertyOp18
 70
     1
102
RTVSPropertyOp19
 70
     1
102
RTVSPropertyOp20
 70
     1
102
RTVSPropertyOp21
 70
     1
102
RTVSPropertyOp22
 70
     1
102
RTVSPropertyOp23
 70
     1
102
RTVSPropertyOp24
 70
     1
102
RTVSPropertyOp25
 70
     1
102
RTVSPropertyOp26
 70
     1
102
RTVSPropertyOp27
 70
     1
102
RTVSPropertyOp28
 70
     1
102
RTVSPropertyOp29
 70
     1
102
RTVSPropertyOp30
 70
     1
102
RTVSPropertyOp31
 70
     1
102
RTVSPropertyOp32
 70
     1
102
RTVSPropertyOp33
 70
     1
102
RTVSPropertyOp34
 70
     1
102
RTVSPropertyOp35
 70
     1
102
RTVSPropertyOp36
 70
     1
102
RTVSPropertyOp37
 70
     1
102
RTVSPropertyOp38
 70
     1
102
RTVSPropertyOp39
 70
     1
102
RTVSPropertyOp40
 70
     1
102
RTVSPropertyOp41
 70
     1
102
RTVSPropertyOp42
 70
     1
102
RTVSPropertyOp43
 70
     1
102
RTVSPropertyOp44
 70
     1
102
RTVSPropertyOp45
 70
     1
102
RTVSPropertyOp46
 70
     1
102
RTVSPropertyOp47
 70
     1
102
RTVSPropertyOp48
 70
     1
102
RTVSPropertyOp49
 70
     1
102
RTVSPropertyOp50
 70
     1
102
RTVSPropertyOp51
 70
     0
102
RTVSPropertyOp52
 70
     0
102
RTVSPropertyOp53
 70
     1
102
RTVSPropertyOp54
 70
     1
102
RTVSPropertyOp55
 70
     1
102
RTVSPropertyOp56
 70
     1
102
RTVSPropertyOp57
 70
     1
102
RTVSPropertyOp58
 70
     1
102
RTVSPropertyOp59
 70
     1
102
RTVSPropertyOp60
 70
     1
102
RTVSPropertyOp61
 70
     1
102
RTVSPropertyOp62
 70
     1
  0
XRECORD
  5
B921
102
{ACAD_REACTORS
330
B920
102
}
330
B920
100
AcDbXrecord
280
     1
102
RTVSPost2010Prop28
280
     0
102
RTVSPost2010PropOp28
 70
     1
102
RTVSPost2010Prop29
280
     1
102
RTVSPost2010PropOp29
 70
     1
102
RTVSPost2010Prop30
280
     1
102
RTVSPost2010PropOp30
 70
     1
102
RTVSPost2010Prop31
280
     0
102
RTVSPost2010PropOp31
 70
     1
102
RTVSPost2010Prop32
280
     0
102
RTVSPost2010PropOp32
 70
     1
102
RTVSPost2010Prop33
280
     0
102
RTVSPost2010PropOp33
 70
     1
102
RTVSPost2010Prop34
280
     0
102
RTVSPost2010PropOp34
 70
     1
102
RTVSPost2010Prop35
280
     0
102
RTVSPost2010PropOp35
 70
     1
102
RTVSPost2010Prop36
280
     0
102
RTVSPost2010PropOp36
 70
     1
102
RTVSPost2010Prop37
 90
       50
102
RTVSPost2010PropOp37
 70
     1
102
RTVSPost2010Prop38
140
0.0
102
RTVSPost2010PropOp38
 70
     1
102
RTVSPost2010Prop39
140
1.0
102
RTVSPost2010PropOp39
 70
     1
102
RTVSPost2010Prop40
 90
        0
102
RTVSPost2010PropOp40
 70
     1
102
RTVSPost2010Prop41ColorIndex
 90
       18
102
RTVSPost2010Prop41ColorRGB
 90
        0
102
RTVSPost2010PropOp41
 70
     1
102
RTVSPost2010Prop42
 90
       50
102
RTVSPost2010PropOp42
 70
     1
102
RTVSPost2010Prop43
 90
        3
102
RTVSPost2010PropOp43
 70
     1
102
RTVSPost2010Prop44ColorIndex
 90
        5
102
RTVSPost2010Prop44ColorRGB
 90
      255
102
RTVSPost2010PropOp44
 70
     1
102
RTVSPost2010Prop45
280
     0
102
RTVSPost2010PropOp45
 70
     1
102
RTVSPost2010Prop46
 90
       50
102
RTVSPost2010PropOp46
 70
     1
102
RTVSPost2010Prop47
 90
       50
102
RTVSPost2010PropOp47
 70
     1
102
RTVSPost2010Prop48
 90
       50
102
RTVSPost2010PropOp48
 70
     1
102
RTVSPost2010Prop49
280
     0
102
RTVSPost2010PropOp49
 70
     1
102
RTVSPost2010Prop50
 90
       50
102
RTVSPost2010PropOp50
 70
     1
102
RTVSPost2010Prop51ColorIndex
 90
      256
102
RTVSPost2010Prop51ColorRGB
 90
-16777216
102
RTVSPost2010PropOp51
 70
     0
102
RTVSPost2010Prop52
140
1.0
102
RTVSPost2010PropOp52
 70
     0
102
RTVSPost2010Prop53
 90
        2
102
RTVSPost2010PropOp53
 70
     1
102
RTVSPost2010Prop54
  1
strokes_ogs.tif
102
RTVSPost2010PropOp54
 70
     1
102
RTVSPost2010Prop55
280
     0
102
RTVSPost2010PropOp55
 70
     1
102
RTVSPost2010Prop56
140
1.0
102
RTVSPost2010PropOp56
 70
     1
102
RTVSPost2010Prop57
140
1.0
102
RTVSPost2010PropOp57
 70
     1
102
RTVSPropertyOp0
 70
     1
102
RTVSPropertyOp1
 70
     1
102
RTVSPropertyOp2
 70
     1
102
RTVSPropertyOp3
 70
     1
102
RTVSPropertyOp4
 70
     1
102
RTVSPropertyOp5
 70
     1
102
RTVSPropertyOp6
 70
     1
102
RTVSPropertyOp7
 70
     1
102
RTVSPropertyOp8
 70
     1
102
RTVSPropertyOp9
 70
     1
102
RTVSPropertyOp10
 70
     1
102
RTVSPropertyOp11
 70
     1
102
RTVSPropertyOp12
 70
     1
102
RTVSPropertyOp13
 70
     1
102
RTVSPropertyOp14
 70
     1
102
RTVSPropertyOp15
 70
     1
102
RTVSPropertyOp16
 70
     1
102
RTVSPropertyOp17
 70
     1
102
RTVSPropertyOp18
 70
     1
102
RTVSPropertyOp19
 70
     1
102
RTVSPropertyOp20
 70
     1
102
RTVSPropertyOp21
 70
     1
102
RTVSPropertyOp22
 70
     1
102
RTVSPropertyOp23
 70
     1
102
RTVSPropertyOp24
 70
     1
102
RTVSPropertyOp25
 70
     1
102
RTVSPropertyOp26
 70
     1
102
RTVSPropertyOp27
 70
     1
102
RTVSPropertyOp28
 70
     1
102
RTVSPropertyOp29
 70
     1
102
RTVSPropertyOp30
 70
     1
102
RTVSPropertyOp31
 70
     1
102
RTVSPropertyOp32
 70
     1
102
RTVSPropertyOp33
 70
     1
102
RTVSPropertyOp34
 70
     1
102
RTVSPropertyOp35
 70
     1
102
RTVSPropertyOp36
 70
     1
102
RTVSPropertyOp37
 70
     1
102
RTVSPropertyOp38
 70
     1
102
RTVSPropertyOp39
 70
     1
102
RTVSPropertyOp40
 70
     1
102
RTVSPropertyOp41
 70
     1
102
RTVSPropertyOp42
 70
     1
102
RTVSPropertyOp43
 70
     1
102
RTVSPropertyOp44
 70
     1
102
RTVSPropertyOp45
 70
     1
102
RTVSPropertyOp46
 70
     1
102
RTVSPropertyOp47
 70
     1
102
RTVSPropertyOp48
 70
     1
102
RTVSPropertyOp49
 70
     1
102
RTVSPropertyOp50
 70
     1
102
RTVSPropertyOp51
 70
     0
102
RTVSPropertyOp52
 70
     0
102
RTVSPropertyOp53
 70
     1
102
RTVSPropertyOp54
 70
     1
102
RTVSPropertyOp55
 70
     1
102
RTVSPropertyOp56
 70
     1
102
RTVSPropertyOp57
 70
     1
102
RTVSPropertyOp58
 70
     1
102
RTVSPropertyOp59
 70
     1
102
RTVSPropertyOp60
 70
     1
102
RTVSPropertyOp61
 70
     1
102
RTVSPropertyOp62
 70
     1
  0
XRECORD
  5
B913
102
{ACAD_REACTORS
330
B912
102
}
330
B912
100
AcDbXrecord
280
     1
102
RTVSPost2010Prop28
280
     0
102
RTVSPost2010PropOp28
 70
     1
102
RTVSPost2010Prop29
280
     1
102
RTVSPost2010PropOp29
 70
     1
102
RTVSPost2010Prop30
280
     1
102
RTVSPost2010PropOp30
 70
     1
102
RTVSPost2010Prop31
280
     0
102
RTVSPost2010PropOp31
 70
     1
102
RTVSPost2010Prop32
280
     0
102
RTVSPost2010PropOp32
 70
     1
102
RTVSPost2010Prop33
280
     0
102
RTVSPost2010PropOp33
 70
     1
102
RTVSPost2010Prop34
280
     0
102
RTVSPost2010PropOp34
 70
     1
102
RTVSPost2010Prop35
280
     0
102
RTVSPost2010PropOp35
 70
     1
102
RTVSPost2010Prop36
280
     0
102
RTVSPost2010PropOp36
 70
     1
102
RTVSPost2010Prop37
 90
       50
102
RTVSPost2010PropOp37
 70
     1
102
RTVSPost2010Prop38
140
0.0
102
RTVSPost2010PropOp38
 70
     1
102
RTVSPost2010Prop39
140
1.0
102
RTVSPost2010PropOp39
 70
     1
102
RTVSPost2010Prop40
 90
        0
102
RTVSPost2010PropOp40
 70
     1
102
RTVSPost2010Prop41ColorIndex
 90
       18
102
RTVSPost2010Prop41ColorRGB
 90
        0
102
RTVSPost2010PropOp41
 70
     1
102
RTVSPost2010Prop42
 90
       50
102
RTVSPost2010PropOp42
 70
     1
102
RTVSPost2010Prop43
 90
        3
102
RTVSPost2010PropOp43
 70
     1
102
RTVSPost2010Prop44ColorIndex
 90
        5
102
RTVSPost2010Prop44ColorRGB
 90
      255
102
RTVSPost2010PropOp44
 70
     1
102
RTVSPost2010Prop45
280
     0
102
RTVSPost2010PropOp45
 70
     1
102
RTVSPost2010Prop46
 90
       50
102
RTVSPost2010PropOp46
 70
     1
102
RTVSPost2010Prop47
 90
       50
102
RTVSPost2010PropOp47
 70
     1
102
RTVSPost2010Prop48
 90
       50
102
RTVSPost2010PropOp48
 70
     1
102
RTVSPost2010Prop49
280
     0
102
RTVSPost2010PropOp49
 70
     1
102
RTVSPost2010Prop50
 90
       50
102
RTVSPost2010PropOp50
 70
     1
102
RTVSPost2010Prop51ColorIndex
 90
      256
102
RTVSPost2010Prop51ColorRGB
 90
-16777216
102
RTVSPost2010PropOp51
 70
     0
102
RTVSPost2010Prop52
140
1.0
102
RTVSPost2010PropOp52
 70
     0
102
RTVSPost2010Prop53
 90
        2
102
RTVSPost2010PropOp53
 70
     1
102
RTVSPost2010Prop54
  1
strokes_ogs.tif
102
RTVSPost2010PropOp54
 70
     1
102
RTVSPost2010Prop55
280
     0
102
RTVSPost2010PropOp55
 70
     1
102
RTVSPost2010Prop56
140
1.0
102
RTVSPost2010PropOp56
 70
     1
102
RTVSPost2010Prop57
140
1.0
102
RTVSPost2010PropOp57
 70
     1
102
RTVSPropertyOp0
 70
     1
102
RTVSPropertyOp1
 70
     1
102
RTVSPropertyOp2
 70
     1
102
RTVSPropertyOp3
 70
     1
102
RTVSPropertyOp4
 70
     1
102
RTVSPropertyOp5
 70
     1
102
RTVSPropertyOp6
 70
     1
102
RTVSPropertyOp7
 70
     1
102
RTVSPropertyOp8
 70
     1
102
RTVSPropertyOp9
 70
     1
102
RTVSPropertyOp10
 70
     1
102
RTVSPropertyOp11
 70
     1
102
RTVSPropertyOp12
 70
     1
102
RTVSPropertyOp13
 70
     1
102
RTVSPropertyOp14
 70
     1
102
RTVSPropertyOp15
 70
     1
102
RTVSPropertyOp16
 70
     1
102
RTVSPropertyOp17
 70
     1
102
RTVSPropertyOp18
 70
     1
102
RTVSPropertyOp19
 70
     1
102
RTVSPropertyOp20
 70
     1
102
RTVSPropertyOp21
 70
     1
102
RTVSPropertyOp22
 70
     1
102
RTVSPropertyOp23
 70
     1
102
RTVSPropertyOp24
 70
     1
102
RTVSPropertyOp25
 70
     1
102
RTVSPropertyOp26
 70
     1
102
RTVSPropertyOp27
 70
     1
102
RTVSPropertyOp28
 70
     1
102
RTVSPropertyOp29
 70
     1
102
RTVSPropertyOp30
 70
     1
102
RTVSPropertyOp31
 70
     1
102
RTVSPropertyOp32
 70
     1
102
RTVSPropertyOp33
 70
     1
102
RTVSPropertyOp34
 70
     1
102
RTVSPropertyOp35
 70
     1
102
RTVSPropertyOp36
 70
     1
102
RTVSPropertyOp37
 70
     1
102
RTVSPropertyOp38
 70
     1
102
RTVSPropertyOp39
 70
     1
102
RTVSPropertyOp40
 70
     1
102
RTVSPropertyOp41
 70
     1
102
RTVSPropertyOp42
 70
     1
102
RTVSPropertyOp43
 70
     1
102
RTVSPropertyOp44
 70
     1
102
RTVSPropertyOp45
 70
     1
102
RTVSPropertyOp46
 70
     1
102
RTVSPropertyOp47
 70
     1
102
RTVSPropertyOp48
 70
     1
102
RTVSPropertyOp49
 70
     1
102
RTVSPropertyOp50
 70
     1
102
RTVSPropertyOp51
 70
     0
102
RTVSPropertyOp52
 70
     0
102
RTVSPropertyOp53
 70
     1
102
RTVSPropertyOp54
 70
     1
102
RTVSPropertyOp55
 70
     1
102
RTVSPropertyOp56
 70
     1
102
RTVSPropertyOp57
 70
     1
102
RTVSPropertyOp58
 70
     1
102
RTVSPropertyOp59
 70
     1
102
RTVSPropertyOp60
 70
     1
102
RTVSPropertyOp61
 70
     1
102
RTVSPropertyOp62
 70
     1
  0
XRECORD
  5
B917
102
{ACAD_REACTORS
330
B916
102
}
330
B916
100
AcDbXrecord
280
     1
102
RTVSPost2010Prop28
280
     0
102
RTVSPost2010PropOp28
 70
     1
102
RTVSPost2010Prop29
280
     1
102
RTVSPost2010PropOp29
 70
     1
102
RTVSPost2010Prop30
280
     1
102
RTVSPost2010PropOp30
 70
     1
102
RTVSPost2010Prop31
280
     0
102
RTVSPost2010PropOp31
 70
     1
102
RTVSPost2010Prop32
280
     0
102
RTVSPost2010PropOp32
 70
     1
102
RTVSPost2010Prop33
280
     0
102
RTVSPost2010PropOp33
 70
     1
102
RTVSPost2010Prop34
280
     0
102
RTVSPost2010PropOp34
 70
     1
102
RTVSPost2010Prop35
280
     0
102
RTVSPost2010PropOp35
 70
     1
102
RTVSPost2010Prop36
280
     0
102
RTVSPost2010PropOp36
 70
     1
102
RTVSPost2010Prop37
 90
       50
102
RTVSPost2010PropOp37
 70
     1
102
RTVSPost2010Prop38
140
0.0
102
RTVSPost2010PropOp38
 70
     1
102
RTVSPost2010Prop39
140
1.0
102
RTVSPost2010PropOp39
 70
     1
102
RTVSPost2010Prop40
 90
        0
102
RTVSPost2010PropOp40
 70
     1
102
RTVSPost2010Prop41ColorIndex
 90
       18
102
RTVSPost2010Prop41ColorRGB
 90
        0
102
RTVSPost2010PropOp41
 70
     1
102
RTVSPost2010Prop42
 90
       50
102
RTVSPost2010PropOp42
 70
     1
102
RTVSPost2010Prop43
 90
        3
102
RTVSPost2010PropOp43
 70
     1
102
RTVSPost2010Prop44ColorIndex
 90
        5
102
RTVSPost2010Prop44ColorRGB
 90
      255
102
RTVSPost2010PropOp44
 70
     1
102
RTVSPost2010Prop45
280
     0
102
RTVSPost2010PropOp45
 70
     1
102
RTVSPost2010Prop46
 90
       50
102
RTVSPost2010PropOp46
 70
     1
102
RTVSPost2010Prop47
 90
       50
102
RTVSPost2010PropOp47
 70
     1
102
RTVSPost2010Prop48
 90
       50
102
RTVSPost2010PropOp48
 70
     1
102
RTVSPost2010Prop49
280
     0
102
RTVSPost2010PropOp49
 70
     1
102
RTVSPost2010Prop50
 90
       50
102
RTVSPost2010PropOp50
 70
     1
102
RTVSPost2010Prop51ColorIndex
 90
      256
102
RTVSPost2010Prop51ColorRGB
 90
-16777216
102
RTVSPost2010PropOp51
 70
     0
102
RTVSPost2010Prop52
140
1.0
102
RTVSPost2010PropOp52
 70
     0
102
RTVSPost2010Prop53
 90
        2
102
RTVSPost2010PropOp53
 70
     1
102
RTVSPost2010Prop54
  1
strokes_ogs.tif
102
RTVSPost2010PropOp54
 70
     1
102
RTVSPost2010Prop55
280
     0
102
RTVSPost2010PropOp55
 70
     1
102
RTVSPost2010Prop56
140
1.0
102
RTVSPost2010PropOp56
 70
     1
102
RTVSPost2010Prop57
140
1.0
102
RTVSPost2010PropOp57
 70
     1
102
RTVSPropertyOp0
 70
     1
102
RTVSPropertyOp1
 70
     1
102
RTVSPropertyOp2
 70
     1
102
RTVSPropertyOp3
 70
     1
102
RTVSPropertyOp4
 70
     1
102
RTVSPropertyOp5
 70
     1
102
RTVSPropertyOp6
 70
     1
102
RTVSPropertyOp7
 70
     1
102
RTVSPropertyOp8
 70
     1
102
RTVSPropertyOp9
 70
     1
102
RTVSPropertyOp10
 70
     1
102
RTVSPropertyOp11
 70
     1
102
RTVSPropertyOp12
 70
     1
102
RTVSPropertyOp13
 70
     1
102
RTVSPropertyOp14
 70
     1
102
RTVSPropertyOp15
 70
     1
102
RTVSPropertyOp16
 70
     1
102
RTVSPropertyOp17
 70
     1
102
RTVSPropertyOp18
 70
     1
102
RTVSPropertyOp19
 70
     1
102
RTVSPropertyOp20
 70
     1
102
RTVSPropertyOp21
 70
     1
102
RTVSPropertyOp22
 70
     1
102
RTVSPropertyOp23
 70
     1
102
RTVSPropertyOp24
 70
     1
102
RTVSPropertyOp25
 70
     1
102
RTVSPropertyOp26
 70
     1
102
RTVSPropertyOp27
 70
     1
102
RTVSPropertyOp28
 70
     1
102
RTVSPropertyOp29
 70
     1
102
RTVSPropertyOp30
 70
     1
102
RTVSPropertyOp31
 70
     1
102
RTVSPropertyOp32
 70
     1
102
RTVSPropertyOp33
 70
     1
102
RTVSPropertyOp34
 70
     1
102
RTVSPropertyOp35
 70
     1
102
RTVSPropertyOp36
 70
     1
102
RTVSPropertyOp37
 70
     1
102
RTVSPropertyOp38
 70
     1
102
RTVSPropertyOp39
 70
     1
102
RTVSPropertyOp40
 70
     1
102
RTVSPropertyOp41
 70
     1
102
RTVSPropertyOp42
 70
     1
102
RTVSPropertyOp43
 70
     1
102
RTVSPropertyOp44
 70
     1
102
RTVSPropertyOp45
 70
     1
102
RTVSPropertyOp46
 70
     1
102
RTVSPropertyOp47
 70
     1
102
RTVSPropertyOp48
 70
     1
102
RTVSPropertyOp49
 70
     1
102
RTVSPropertyOp50
 70
     1
102
RTVSPropertyOp51
 70
     0
102
RTVSPropertyOp52
 70
     0
102
RTVSPropertyOp53
 70
     1
102
RTVSPropertyOp54
 70
     1
102
RTVSPropertyOp55
 70
     1
102
RTVSPropertyOp56
 70
     1
102
RTVSPropertyOp57
 70
     1
102
RTVSPropertyOp58
 70
     1
102
RTVSPropertyOp59
 70
     1
102
RTVSPropertyOp60
 70
     1
102
RTVSPropertyOp61
 70
     1
102
RTVSPropertyOp62
 70
     1
  0
XRECORD
  5
B931
102
{ACAD_REACTORS
330
B930
102
}
330
B930
100
AcDbXrecord
280
     1
102
RTVSPost2010Prop28
280
     0
102
RTVSPost2010PropOp28
 70
     1
102
RTVSPost2010Prop29
280
     1
102
RTVSPost2010PropOp29
 70
     1
102
RTVSPost2010Prop30
280
     1
102
RTVSPost2010PropOp30
 70
     1
102
RTVSPost2010Prop31
280
     0
102
RTVSPost2010PropOp31
 70
     1
102
RTVSPost2010Prop32
280
     0
102
RTVSPost2010PropOp32
 70
     1
102
RTVSPost2010Prop33
280
     0
102
RTVSPost2010PropOp33
 70
     1
102
RTVSPost2010Prop34
280
     0
102
RTVSPost2010PropOp34
 70
     1
102
RTVSPost2010Prop35
280
     0
102
RTVSPost2010PropOp35
 70
     1
102
RTVSPost2010Prop36
280
     0
102
RTVSPost2010PropOp36
 70
     1
102
RTVSPost2010Prop37
 90
       50
102
RTVSPost2010PropOp37
 70
     0
102
RTVSPost2010Prop38
140
0.0
102
RTVSPost2010PropOp38
 70
     0
102
RTVSPost2010Prop39
140
1.0
102
RTVSPost2010PropOp39
 70
     0
102
RTVSPost2010Prop40
 90
        0
102
RTVSPost2010PropOp40
 70
     0
102
RTVSPost2010Prop41ColorIndex
 90
       18
102
RTVSPost2010Prop41ColorRGB
 90
        0
102
RTVSPost2010PropOp41
 70
     0
102
RTVSPost2010Prop42
 90
       50
102
RTVSPost2010PropOp42
 70
     0
102
RTVSPost2010Prop43
 90
        3
102
RTVSPost2010PropOp43
 70
     0
102
RTVSPost2010Prop44ColorIndex
 90
        5
102
RTVSPost2010Prop44ColorRGB
 90
      255
102
RTVSPost2010PropOp44
 70
     0
102
RTVSPost2010Prop45
280
     0
102
RTVSPost2010PropOp45
 70
     1
102
RTVSPost2010Prop46
 90
       50
102
RTVSPost2010PropOp46
 70
     0
102
RTVSPost2010Prop47
 90
       50
102
RTVSPost2010PropOp47
 70
     0
102
RTVSPost2010Prop48
 90
       50
102
RTVSPost2010PropOp48
 70
     0
102
RTVSPost2010Prop49
280
     0
102
RTVSPost2010PropOp49
 70
     1
102
RTVSPost2010Prop50
 90
       50
102
RTVSPost2010PropOp50
 70
     0
102
RTVSPost2010Prop51ColorIndex
 90
      256
102
RTVSPost2010Prop51ColorRGB
 90
-16777216
102
RTVSPost2010PropOp51
 70
     0
102
RTVSPost2010Prop52
140
1.0
102
RTVSPost2010PropOp52
 70
     0
102
RTVSPost2010Prop53
 90
        2
102
RTVSPost2010PropOp53
 70
     0
102
RTVSPost2010Prop54
  1
strokes_ogs.tif
102
RTVSPost2010PropOp54
 70
     0
102
RTVSPost2010Prop55
280
     0
102
RTVSPost2010PropOp55
 70
     1
102
RTVSPost2010Prop56
140
1.0
102
RTVSPost2010PropOp56
 70
     0
102
RTVSPost2010Prop57
140
1.0
102
RTVSPost2010PropOp57
 70
     0
102
RTVSPropertyOp0
 70
     0
102
RTVSPropertyOp1
 70
     0
102
RTVSPropertyOp2
 70
     0
102
RTVSPropertyOp3
 70
     0
102
RTVSPropertyOp4
 70
     0
102
RTVSPropertyOp5
 70
     0
102
RTVSPropertyOp6
 70
     0
102
RTVSPropertyOp7
 70
     0
102
RTVSPropertyOp8
 70
     0
102
RTVSPropertyOp9
 70
     0
102
RTVSPropertyOp10
 70
     0
102
RTVSPropertyOp11
 70
     0
102
RTVSPropertyOp12
 70
     0
102
RTVSPropertyOp13
 70
     0
102
RTVSPropertyOp14
 70
     2
102
RTVSPropertyOp15
 70
     0
102
RTVSPropertyOp16
 70
     0
102
RTVSPropertyOp17
 70
     0
102
RTVSPropertyOp18
 70
     0
102
RTVSPropertyOp19
 70
     0
102
RTVSPropertyOp20
 70
     0
102
RTVSPropertyOp21
 70
     0
102
RTVSPropertyOp22
 70
     0
102
RTVSPropertyOp23
 70
     0
102
RTVSPropertyOp24
 70
     0
102
RTVSPropertyOp25
 70
     0
102
RTVSPropertyOp26
 70
     0
102
RTVSPropertyOp27
 70
     0
102
RTVSPropertyOp28
 70
     1
102
RTVSPropertyOp29
 70
     1
102
RTVSPropertyOp30
 70
     1
102
RTVSPropertyOp31
 70
     1
102
RTVSPropertyOp32
 70
     1
102
RTVSPropertyOp33
 70
     1
102
RTVSPropertyOp34
 70
     1
102
RTVSPropertyOp35
 70
     1
102
RTVSPropertyOp36
 70
     1
102
RTVSPropertyOp37
 70
     0
102
RTVSPropertyOp38
 70
     0
102
RTVSPropertyOp39
 70
     0
102
RTVSPropertyOp40
 70
     0
102
RTVSPropertyOp41
 70
     0
102
RTVSPropertyOp42
 70
     0
102
RTVSPropertyOp43
 70
     0
102
RTVSPropertyOp44
 70
     0
102
RTVSPropertyOp45
 70
     1
102
RTVSPropertyOp46
 70
     0
102
RTVSPropertyOp47
 70
     0
102
RTVSPropertyOp48
 70
     0
102
RTVSPropertyOp49
 70
     1
102
RTVSPropertyOp50
 70
     0
102
RTVSPropertyOp51
 70
     0
102
RTVSPropertyOp52
 70
     0
102
RTVSPropertyOp53
 70
     0
102
RTVSPropertyOp54
 70
     0
102
RTVSPropertyOp55
 70
     1
102
RTVSPropertyOp56
 70
     0
102
RTVSPropertyOp57
 70
     0
102
RTVSPropertyOp58
 70
     0
102
RTVSPropertyOp59
 70
     0
102
RTVSPropertyOp60
 70
     0
102
RTVSPropertyOp61
 70
     0
102
RTVSPropertyOp62
 70
     0
  0
XRECORD
  5
B91F
102
{ACAD_REACTORS
330
B91E
102
}
330
B91E
100
AcDbXrecord
280
     1
102
RTVSPost2010Prop28
280
     0
102
RTVSPost2010PropOp28
 70
     1
102
RTVSPost2010Prop29
280
     1
102
RTVSPost2010PropOp29
 70
     1
102
RTVSPost2010Prop30
280
     1
102
RTVSPost2010PropOp30
 70
     1
102
RTVSPost2010Prop31
280
     0
102
RTVSPost2010PropOp31
 70
     1
102
RTVSPost2010Prop32
280
     0
102
RTVSPost2010PropOp32
 70
     1
102
RTVSPost2010Prop33
280
     0
102
RTVSPost2010PropOp33
 70
     1
102
RTVSPost2010Prop34
280
     0
102
RTVSPost2010PropOp34
 70
     1
102
RTVSPost2010Prop35
280
     0
102
RTVSPost2010PropOp35
 70
     1
102
RTVSPost2010Prop36
280
     0
102
RTVSPost2010PropOp36
 70
     1
102
RTVSPost2010Prop37
 90
       50
102
RTVSPost2010PropOp37
 70
     1
102
RTVSPost2010Prop38
140
0.0
102
RTVSPost2010PropOp38
 70
     1
102
RTVSPost2010Prop39
140
1.0
102
RTVSPost2010PropOp39
 70
     1
102
RTVSPost2010Prop40
 90
        0
102
RTVSPost2010PropOp40
 70
     1
102
RTVSPost2010Prop41ColorIndex
 90
       18
102
RTVSPost2010Prop41ColorRGB
 90
        0
102
RTVSPost2010PropOp41
 70
     1
102
RTVSPost2010Prop42
 90
       50
102
RTVSPost2010PropOp42
 70
     1
102
RTVSPost2010Prop43
 90
        3
102
RTVSPost2010PropOp43
 70
     1
102
RTVSPost2010Prop44ColorIndex
 90
        5
102
RTVSPost2010Prop44ColorRGB
 90
      255
102
RTVSPost2010PropOp44
 70
     1
102
RTVSPost2010Prop45
280
     0
102
RTVSPost2010PropOp45
 70
     1
102
RTVSPost2010Prop46
 90
       50
102
RTVSPost2010PropOp46
 70
     1
102
RTVSPost2010Prop47
 90
       50
102
RTVSPost2010PropOp47
 70
     1
102
RTVSPost2010Prop48
 90
       50
102
RTVSPost2010PropOp48
 70
     1
102
RTVSPost2010Prop49
280
     0
102
RTVSPost2010PropOp49
 70
     1
102
RTVSPost2010Prop50
 90
       50
102
RTVSPost2010PropOp50
 70
     1
102
RTVSPost2010Prop51ColorIndex
 90
      256
102
RTVSPost2010Prop51ColorRGB
 90
-16777216
102
RTVSPost2010PropOp51
 70
     0
102
RTVSPost2010Prop52
140
1.0
102
RTVSPost2010PropOp52
 70
     0
102
RTVSPost2010Prop53
 90
        2
102
RTVSPost2010PropOp53
 70
     1
102
RTVSPost2010Prop54
  1
strokes_ogs.tif
102
RTVSPost2010PropOp54
 70
     1
102
RTVSPost2010Prop55
280
     0
102
RTVSPost2010PropOp55
 70
     1
102
RTVSPost2010Prop56
140
1.0
102
RTVSPost2010PropOp56
 70
     1
102
RTVSPost2010Prop57
140
1.0
102
RTVSPost2010PropOp57
 70
     1
102
RTVSPropertyOp0
 70
     1
102
RTVSPropertyOp1
 70
     1
102
RTVSPropertyOp2
 70
     1
102
RTVSPropertyOp3
 70
     1
102
RTVSPropertyOp4
 70
     1
102
RTVSPropertyOp5
 70
     1
102
RTVSPropertyOp6
 70
     1
102
RTVSPropertyOp7
 70
     1
102
RTVSPropertyOp8
 70
     1
102
RTVSPropertyOp9
 70
     1
102
RTVSPropertyOp10
 70
     1
102
RTVSPropertyOp11
 70
     1
102
RTVSPropertyOp12
 70
     1
102
RTVSPropertyOp13
 70
     1
102
RTVSPropertyOp14
 70
     1
102
RTVSPropertyOp15
 70
     1
102
RTVSPropertyOp16
 70
     1
102
RTVSPropertyOp17
 70
     1
102
RTVSPropertyOp18
 70
     1
102
RTVSPropertyOp19
 70
     1
102
RTVSPropertyOp20
 70
     1
102
RTVSPropertyOp21
 70
     1
102
RTVSPropertyOp22
 70
     1
102
RTVSPropertyOp23
 70
     1
102
RTVSPropertyOp24
 70
     1
102
RTVSPropertyOp25
 70
     1
102
RTVSPropertyOp26
 70
     1
102
RTVSPropertyOp27
 70
     1
102
RTVSPropertyOp28
 70
     1
102
RTVSPropertyOp29
 70
     1
102
RTVSPropertyOp30
 70
     1
102
RTVSPropertyOp31
 70
     1
102
RTVSPropertyOp32
 70
     1
102
RTVSPropertyOp33
 70
     1
102
RTVSPropertyOp34
 70
     1
102
RTVSPropertyOp35
 70
     1
102
RTVSPropertyOp36
 70
     1
102
RTVSPropertyOp37
 70
     1
102
RTVSPropertyOp38
 70
     1
102
RTVSPropertyOp39
 70
     1
102
RTVSPropertyOp40
 70
     1
102
RTVSPropertyOp41
 70
     1
102
RTVSPropertyOp42
 70
     1
102
RTVSPropertyOp43
 70
     1
102
RTVSPropertyOp44
 70
     1
102
RTVSPropertyOp45
 70
     1
102
RTVSPropertyOp46
 70
     1
102
RTVSPropertyOp47
 70
     1
102
RTVSPropertyOp48
 70
     1
102
RTVSPropertyOp49
 70
     1
102
RTVSPropertyOp50
 70
     1
102
RTVSPropertyOp51
 70
     0
102
RTVSPropertyOp52
 70
     0
102
RTVSPropertyOp53
 70
     1
102
RTVSPropertyOp54
 70
     1
102
RTVSPropertyOp55
 70
     1
102
RTVSPropertyOp56
 70
     1
102
RTVSPropertyOp57
 70
     1
102
RTVSPropertyOp58
 70
     1
102
RTVSPropertyOp59
 70
     1
102
RTVSPropertyOp60
 70
     1
102
RTVSPropertyOp61
 70
     1
102
RTVSPropertyOp62
 70
     1
  0
XRECORD
  5
B903
102
{ACAD_REACTORS
330
B902
102
}
330
B902
100
AcDbXrecord
280
     1
102
RTVSPost2010Prop28
280
     0
102
RTVSPost2010PropOp28
 70
     1
102
RTVSPost2010Prop29
280
     1
102
RTVSPost2010PropOp29
 70
     1
102
RTVSPost2010Prop30
280
     1
102
RTVSPost2010PropOp30
 70
     1
102
RTVSPost2010Prop31
280
     0
102
RTVSPost2010PropOp31
 70
     1
102
RTVSPost2010Prop32
280
     0
102
RTVSPost2010PropOp32
 70
     1
102
RTVSPost2010Prop33
280
     0
102
RTVSPost2010PropOp33
 70
     1
102
RTVSPost2010Prop34
280
     0
102
RTVSPost2010PropOp34
 70
     1
102
RTVSPost2010Prop35
280
     0
102
RTVSPost2010PropOp35
 70
     1
102
RTVSPost2010Prop36
280
     0
102
RTVSPost2010PropOp36
 70
     1
102
RTVSPost2010Prop37
 90
       50
102
RTVSPost2010PropOp37
 70
     1
102
RTVSPost2010Prop38
140
0.0
102
RTVSPost2010PropOp38
 70
     1
102
RTVSPost2010Prop39
140
1.0
102
RTVSPost2010PropOp39
 70
     1
102
RTVSPost2010Prop40
 90
        0
102
RTVSPost2010PropOp40
 70
     1
102
RTVSPost2010Prop41ColorIndex
 90
       18
102
RTVSPost2010Prop41ColorRGB
 90
        0
102
RTVSPost2010PropOp41
 70
     1
102
RTVSPost2010Prop42
 90
       50
102
RTVSPost2010PropOp42
 70
     1
102
RTVSPost2010Prop43
 90
        3
102
RTVSPost2010PropOp43
 70
     1
102
RTVSPost2010Prop44ColorIndex
 90
        5
102
RTVSPost2010Prop44ColorRGB
 90
      255
102
RTVSPost2010PropOp44
 70
     1
102
RTVSPost2010Prop45
280
     0
102
RTVSPost2010PropOp45
 70
     1
102
RTVSPost2010Prop46
 90
       50
102
RTVSPost2010PropOp46
 70
     1
102
RTVSPost2010Prop47
 90
       50
102
RTVSPost2010PropOp47
 70
     1
102
RTVSPost2010Prop48
 90
       50
102
RTVSPost2010PropOp48
 70
     1
102
RTVSPost2010Prop49
280
     0
102
RTVSPost2010PropOp49
 70
     1
102
RTVSPost2010Prop50
 90
       50
102
RTVSPost2010PropOp50
 70
     1
102
RTVSPost2010Prop51ColorIndex
 90
      256
102
RTVSPost2010Prop51ColorRGB
 90
-16777216
102
RTVSPost2010PropOp51
 70
     0
102
RTVSPost2010Prop52
140
1.0
102
RTVSPost2010PropOp52
 70
     0
102
RTVSPost2010Prop53
 90
        2
102
RTVSPost2010PropOp53
 70
     1
102
RTVSPost2010Prop54
  1
strokes_ogs.tif
102
RTVSPost2010PropOp54
 70
     1
102
RTVSPost2010Prop55
280
     0
102
RTVSPost2010PropOp55
 70
     1
102
RTVSPost2010Prop56
140
1.0
102
RTVSPost2010PropOp56
 70
     1
102
RTVSPost2010Prop57
140
1.0
102
RTVSPost2010PropOp57
 70
     1
102
RTVSPropertyOp0
 70
     1
102
RTVSPropertyOp1
 70
     1
102
RTVSPropertyOp2
 70
     1
102
RTVSPropertyOp3
 70
     1
102
RTVSPropertyOp4
 70
     1
102
RTVSPropertyOp5
 70
     1
102
RTVSPropertyOp6
 70
     1
102
RTVSPropertyOp7
 70
     1
102
RTVSPropertyOp8
 70
     1
102
RTVSPropertyOp9
 70
     1
102
RTVSPropertyOp10
 70
     1
102
RTVSPropertyOp11
 70
     1
102
RTVSPropertyOp12
 70
     1
102
RTVSPropertyOp13
 70
     1
102
RTVSPropertyOp14
 70
     1
102
RTVSPropertyOp15
 70
     1
102
RTVSPropertyOp16
 70
     1
102
RTVSPropertyOp17
 70
     1
102
RTVSPropertyOp18
 70
     1
102
RTVSPropertyOp19
 70
     1
102
RTVSPropertyOp20
 70
     1
102
RTVSPropertyOp21
 70
     1
102
RTVSPropertyOp22
 70
     1
102
RTVSPropertyOp23
 70
     1
102
RTVSPropertyOp24
 70
     1
102
RTVSPropertyOp25
 70
     1
102
RTVSPropertyOp26
 70
     1
102
RTVSPropertyOp27
 70
     1
102
RTVSPropertyOp28
 70
     1
102
RTVSPropertyOp29
 70
     1
102
RTVSPropertyOp30
 70
     1
102
RTVSPropertyOp31
 70
     1
102
RTVSPropertyOp32
 70
     1
102
RTVSPropertyOp33
 70
     1
102
RTVSPropertyOp34
 70
     1
102
RTVSPropertyOp35
 70
     1
102
RTVSPropertyOp36
 70
     1
102
RTVSPropertyOp37
 70
     1
102
RTVSPropertyOp38
 70
     1
102
RTVSPropertyOp39
 70
     1
102
RTVSPropertyOp40
 70
     1
102
RTVSPropertyOp41
 70
     1
102
RTVSPropertyOp42
 70
     1
102
RTVSPropertyOp43
 70
     1
102
RTVSPropertyOp44
 70
     1
102
RTVSPropertyOp45
 70
     1
102
RTVSPropertyOp46
 70
     1
102
RTVSPropertyOp47
 70
     1
102
RTVSPropertyOp48
 70
     1
102
RTVSPropertyOp49
 70
     1
102
RTVSPropertyOp50
 70
     1
102
RTVSPropertyOp51
 70
     0
102
RTVSPropertyOp52
 70
     0
102
RTVSPropertyOp53
 70
     1
102
RTVSPropertyOp54
 70
     1
102
RTVSPropertyOp55
 70
     1
102
RTVSPropertyOp56
 70
     1
102
RTVSPropertyOp57
 70
     1
102
RTVSPropertyOp58
 70
     1
102
RTVSPropertyOp59
 70
     1
102
RTVSPropertyOp60
 70
     1
102
RTVSPropertyOp61
 70
     1
102
RTVSPropertyOp62
 70
     1
  0
XRECORD
  5
B905
102
{ACAD_REACTORS
330
B904
102
}
330
B904
100
AcDbXrecord
280
     1
102
RTVSPost2010Prop28
280
     0
102
RTVSPost2010PropOp28
 70
     1
102
RTVSPost2010Prop29
280
     1
102
RTVSPost2010PropOp29
 70
     1
102
RTVSPost2010Prop30
280
     1
102
RTVSPost2010PropOp30
 70
     1
102
RTVSPost2010Prop31
280
     0
102
RTVSPost2010PropOp31
 70
     1
102
RTVSPost2010Prop32
280
     0
102
RTVSPost2010PropOp32
 70
     1
102
RTVSPost2010Prop33
280
     0
102
RTVSPost2010PropOp33
 70
     1
102
RTVSPost2010Prop34
280
     0
102
RTVSPost2010PropOp34
 70
     1
102
RTVSPost2010Prop35
280
     0
102
RTVSPost2010PropOp35
 70
     1
102
RTVSPost2010Prop36
280
     0
102
RTVSPost2010PropOp36
 70
     1
102
RTVSPost2010Prop37
 90
       50
102
RTVSPost2010PropOp37
 70
     1
102
RTVSPost2010Prop38
140
0.0
102
RTVSPost2010PropOp38
 70
     1
102
RTVSPost2010Prop39
140
1.0
102
RTVSPost2010PropOp39
 70
     1
102
RTVSPost2010Prop40
 90
        0
102
RTVSPost2010PropOp40
 70
     1
102
RTVSPost2010Prop41ColorIndex
 90
       18
102
RTVSPost2010Prop41ColorRGB
 90
        0
102
RTVSPost2010PropOp41
 70
     1
102
RTVSPost2010Prop42
 90
       50
102
RTVSPost2010PropOp42
 70
     1
102
RTVSPost2010Prop43
 90
        3
102
RTVSPost2010PropOp43
 70
     1
102
RTVSPost2010Prop44ColorIndex
 90
        5
102
RTVSPost2010Prop44ColorRGB
 90
      255
102
RTVSPost2010PropOp44
 70
     1
102
RTVSPost2010Prop45
280
     0
102
RTVSPost2010PropOp45
 70
     1
102
RTVSPost2010Prop46
 90
       50
102
RTVSPost2010PropOp46
 70
     1
102
RTVSPost2010Prop47
 90
       50
102
RTVSPost2010PropOp47
 70
     1
102
RTVSPost2010Prop48
 90
       50
102
RTVSPost2010PropOp48
 70
     1
102
RTVSPost2010Prop49
280
     0
102
RTVSPost2010PropOp49
 70
     1
102
RTVSPost2010Prop50
 90
       50
102
RTVSPost2010PropOp50
 70
     1
102
RTVSPost2010Prop51ColorIndex
 90
      256
102
RTVSPost2010Prop51ColorRGB
 90
-16777216
102
RTVSPost2010PropOp51
 70
     0
102
RTVSPost2010Prop52
140
1.0
102
RTVSPost2010PropOp52
 70
     0
102
RTVSPost2010Prop53
 90
        2
102
RTVSPost2010PropOp53
 70
     1
102
RTVSPost2010Prop54
  1
strokes_ogs.tif
102
RTVSPost2010PropOp54
 70
     1
102
RTVSPost2010Prop55
280
     0
102
RTVSPost2010PropOp55
 70
     1
102
RTVSPost2010Prop56
140
1.0
102
RTVSPost2010PropOp56
 70
     1
102
RTVSPost2010Prop57
140
1.0
102
RTVSPost2010PropOp57
 70
     1
102
RTVSPropertyOp0
 70
     1
102
RTVSPropertyOp1
 70
     1
102
RTVSPropertyOp2
 70
     1
102
RTVSPropertyOp3
 70
     1
102
RTVSPropertyOp4
 70
     1
102
RTVSPropertyOp5
 70
     1
102
RTVSPropertyOp6
 70
     1
102
RTVSPropertyOp7
 70
     1
102
RTVSPropertyOp8
 70
     1
102
RTVSPropertyOp9
 70
     1
102
RTVSPropertyOp10
 70
     1
102
RTVSPropertyOp11
 70
     1
102
RTVSPropertyOp12
 70
     1
102
RTVSPropertyOp13
 70
     1
102
RTVSPropertyOp14
 70
     1
102
RTVSPropertyOp15
 70
     1
102
RTVSPropertyOp16
 70
     1
102
RTVSPropertyOp17
 70
     1
102
RTVSPropertyOp18
 70
     1
102
RTVSPropertyOp19
 70
     1
102
RTVSPropertyOp20
 70
     1
102
RTVSPropertyOp21
 70
     1
102
RTVSPropertyOp22
 70
     1
102
RTVSPropertyOp23
 70
     1
102
RTVSPropertyOp24
 70
     1
102
RTVSPropertyOp25
 70
     1
102
RTVSPropertyOp26
 70
     1
102
RTVSPropertyOp27
 70
     1
102
RTVSPropertyOp28
 70
     1
102
RTVSPropertyOp29
 70
     1
102
RTVSPropertyOp30
 70
     1
102
RTVSPropertyOp31
 70
     1
102
RTVSPropertyOp32
 70
     1
102
RTVSPropertyOp33
 70
     1
102
RTVSPropertyOp34
 70
     1
102
RTVSPropertyOp35
 70
     1
102
RTVSPropertyOp36
 70
     1
102
RTVSPropertyOp37
 70
     1
102
RTVSPropertyOp38
 70
     1
102
RTVSPropertyOp39
 70
     1
102
RTVSPropertyOp40
 70
     1
102
RTVSPropertyOp41
 70
     1
102
RTVSPropertyOp42
 70
     1
102
RTVSPropertyOp43
 70
     1
102
RTVSPropertyOp44
 70
     1
102
RTVSPropertyOp45
 70
     1
102
RTVSPropertyOp46
 70
     1
102
RTVSPropertyOp47
 70
     1
102
RTVSPropertyOp48
 70
     1
102
RTVSPropertyOp49
 70
     1
102
RTVSPropertyOp50
 70
     1
102
RTVSPropertyOp51
 70
     0
102
RTVSPropertyOp52
 70
     0
102
RTVSPropertyOp53
 70
     1
102
RTVSPropertyOp54
 70
     1
102
RTVSPropertyOp55
 70
     1
102
RTVSPropertyOp56
 70
     1
102
RTVSPropertyOp57
 70
     1
102
RTVSPropertyOp58
 70
     1
102
RTVSPropertyOp59
 70
     1
102
RTVSPropertyOp60
 70
     1
102
RTVSPropertyOp61
 70
     1
102
RTVSPropertyOp62
 70
     1
  0
XRECORD
  5
B907
102
{ACAD_REACTORS
330
B906
102
}
330
B906
100
AcDbXrecord
280
     1
102
RTVSPost2010Prop28
280
     0
102
RTVSPost2010PropOp28
 70
     1
102
RTVSPost2010Prop29
280
     1
102
RTVSPost2010PropOp29
 70
     1
102
RTVSPost2010Prop30
280
     1
102
RTVSPost2010PropOp30
 70
     1
102
RTVSPost2010Prop31
280
     0
102
RTVSPost2010PropOp31
 70
     1
102
RTVSPost2010Prop32
280
     0
102
RTVSPost2010PropOp32
 70
     1
102
RTVSPost2010Prop33
280
     0
102
RTVSPost2010PropOp33
 70
     1
102
RTVSPost2010Prop34
280
     0
102
RTVSPost2010PropOp34
 70
     1
102
RTVSPost2010Prop35
280
     0
102
RTVSPost2010PropOp35
 70
     1
102
RTVSPost2010Prop36
280
     0
102
RTVSPost2010PropOp36
 70
     1
102
RTVSPost2010Prop37
 90
       50
102
RTVSPost2010PropOp37
 70
     1
102
RTVSPost2010Prop38
140
0.0
102
RTVSPost2010PropOp38
 70
     1
102
RTVSPost2010Prop39
140
1.0
102
RTVSPost2010PropOp39
 70
     1
102
RTVSPost2010Prop40
 90
        0
102
RTVSPost2010PropOp40
 70
     1
102
RTVSPost2010Prop41ColorIndex
 90
       18
102
RTVSPost2010Prop41ColorRGB
 90
        0
102
RTVSPost2010PropOp41
 70
     1
102
RTVSPost2010Prop42
 90
       50
102
RTVSPost2010PropOp42
 70
     1
102
RTVSPost2010Prop43
 90
        3
102
RTVSPost2010PropOp43
 70
     1
102
RTVSPost2010Prop44ColorIndex
 90
        5
102
RTVSPost2010Prop44ColorRGB
 90
      255
102
RTVSPost2010PropOp44
 70
     1
102
RTVSPost2010Prop45
280
     0
102
RTVSPost2010PropOp45
 70
     1
102
RTVSPost2010Prop46
 90
       50
102
RTVSPost2010PropOp46
 70
     1
102
RTVSPost2010Prop47
 90
       50
102
RTVSPost2010PropOp47
 70
     1
102
RTVSPost2010Prop48
 90
       50
102
RTVSPost2010PropOp48
 70
     1
102
RTVSPost2010Prop49
280
     0
102
RTVSPost2010PropOp49
 70
     1
102
RTVSPost2010Prop50
 90
       50
102
RTVSPost2010PropOp50
 70
     1
102
RTVSPost2010Prop51ColorIndex
 90
      256
102
RTVSPost2010Prop51ColorRGB
 90
-16777216
102
RTVSPost2010PropOp51
 70
     0
102
RTVSPost2010Prop52
140
1.0
102
RTVSPost2010PropOp52
 70
     0
102
RTVSPost2010Prop53
 90
        2
102
RTVSPost2010PropOp53
 70
     1
102
RTVSPost2010Prop54
  1
strokes_ogs.tif
102
RTVSPost2010PropOp54
 70
     1
102
RTVSPost2010Prop55
280
     0
102
RTVSPost2010PropOp55
 70
     1
102
RTVSPost2010Prop56
140
1.0
102
RTVSPost2010PropOp56
 70
     1
102
RTVSPost2010Prop57
140
1.0
102
RTVSPost2010PropOp57
 70
     1
102
RTVSPropertyOp0
 70
     1
102
RTVSPropertyOp1
 70
     1
102
RTVSPropertyOp2
 70
     1
102
RTVSPropertyOp3
 70
     1
102
RTVSPropertyOp4
 70
     1
102
RTVSPropertyOp5
 70
     1
102
RTVSPropertyOp6
 70
     1
102
RTVSPropertyOp7
 70
     1
102
RTVSPropertyOp8
 70
     1
102
RTVSPropertyOp9
 70
     1
102
RTVSPropertyOp10
 70
     1
102
RTVSPropertyOp11
 70
     1
102
RTVSPropertyOp12
 70
     1
102
RTVSPropertyOp13
 70
     1
102
RTVSPropertyOp14
 70
     1
102
RTVSPropertyOp15
 70
     1
102
RTVSPropertyOp16
 70
     1
102
RTVSPropertyOp17
 70
     1
102
RTVSPropertyOp18
 70
     1
102
RTVSPropertyOp19
 70
     1
102
RTVSPropertyOp20
 70
     1
102
RTVSPropertyOp21
 70
     1
102
RTVSPropertyOp22
 70
     1
102
RTVSPropertyOp23
 70
     1
102
RTVSPropertyOp24
 70
     1
102
RTVSPropertyOp25
 70
     1
102
RTVSPropertyOp26
 70
     1
102
RTVSPropertyOp27
 70
     1
102
RTVSPropertyOp28
 70
     1
102
RTVSPropertyOp29
 70
     1
102
RTVSPropertyOp30
 70
     1
102
RTVSPropertyOp31
 70
     1
102
RTVSPropertyOp32
 70
     1
102
RTVSPropertyOp33
 70
     1
102
RTVSPropertyOp34
 70
     1
102
RTVSPropertyOp35
 70
     1
102
RTVSPropertyOp36
 70
     1
102
RTVSPropertyOp37
 70
     1
102
RTVSPropertyOp38
 70
     1
102
RTVSPropertyOp39
 70
     1
102
RTVSPropertyOp40
 70
     1
102
RTVSPropertyOp41
 70
     1
102
RTVSPropertyOp42
 70
     1
102
RTVSPropertyOp43
 70
     1
102
RTVSPropertyOp44
 70
     1
102
RTVSPropertyOp45
 70
     1
102
RTVSPropertyOp46
 70
     1
102
RTVSPropertyOp47
 70
     1
102
RTVSPropertyOp48
 70
     1
102
RTVSPropertyOp49
 70
     1
102
RTVSPropertyOp50
 70
     1
102
RTVSPropertyOp51
 70
     0
102
RTVSPropertyOp52
 70
     0
102
RTVSPropertyOp53
 70
     1
102
RTVSPropertyOp54
 70
     1
102
RTVSPropertyOp55
 70
     1
102
RTVSPropertyOp56
 70
     1
102
RTVSPropertyOp57
 70
     1
102
RTVSPropertyOp58
 70
     1
102
RTVSPropertyOp59
 70
     1
102
RTVSPropertyOp60
 70
     1
102
RTVSPropertyOp61
 70
     1
102
RTVSPropertyOp62
 70
     1
  0
XRECORD
  5
B909
102
{ACAD_REACTORS
330
B908
102
}
330
B908
100
AcDbXrecord
280
     1
102
RTVSPost2010Prop28
280
     0
102
RTVSPost2010PropOp28
 70
     1
102
RTVSPost2010Prop29
280
     1
102
RTVSPost2010PropOp29
 70
     1
102
RTVSPost2010Prop30
280
     1
102
RTVSPost2010PropOp30
 70
     1
102
RTVSPost2010Prop31
280
     0
102
RTVSPost2010PropOp31
 70
     1
102
RTVSPost2010Prop32
280
     0
102
RTVSPost2010PropOp32
 70
     1
102
RTVSPost2010Prop33
280
     0
102
RTVSPost2010PropOp33
 70
     1
102
RTVSPost2010Prop34
280
     0
102
RTVSPost2010PropOp34
 70
     1
102
RTVSPost2010Prop35
280
     0
102
RTVSPost2010PropOp35
 70
     1
102
RTVSPost2010Prop36
280
     0
102
RTVSPost2010PropOp36
 70
     1
102
RTVSPost2010Prop37
 90
       50
102
RTVSPost2010PropOp37
 70
     1
102
RTVSPost2010Prop38
140
0.0
102
RTVSPost2010PropOp38
 70
     1
102
RTVSPost2010Prop39
140
1.0
102
RTVSPost2010PropOp39
 70
     1
102
RTVSPost2010Prop40
 90
        0
102
RTVSPost2010PropOp40
 70
     1
102
RTVSPost2010Prop41ColorIndex
 90
       18
102
RTVSPost2010Prop41ColorRGB
 90
        0
102
RTVSPost2010PropOp41
 70
     1
102
RTVSPost2010Prop42
 90
       50
102
RTVSPost2010PropOp42
 70
     1
102
RTVSPost2010Prop43
 90
        3
102
RTVSPost2010PropOp43
 70
     1
102
RTVSPost2010Prop44ColorIndex
 90
        5
102
RTVSPost2010Prop44ColorRGB
 90
      255
102
RTVSPost2010PropOp44
 70
     1
102
RTVSPost2010Prop45
280
     0
102
RTVSPost2010PropOp45
 70
     1
102
RTVSPost2010Prop46
 90
       50
102
RTVSPost2010PropOp46
 70
     1
102
RTVSPost2010Prop47
 90
       50
102
RTVSPost2010PropOp47
 70
     1
102
RTVSPost2010Prop48
 90
       50
102
RTVSPost2010PropOp48
 70
     1
102
RTVSPost2010Prop49
280
     0
102
RTVSPost2010PropOp49
 70
     1
102
RTVSPost2010Prop50
 90
       50
102
RTVSPost2010PropOp50
 70
     1
102
RTVSPost2010Prop51ColorIndex
 90
      256
102
RTVSPost2010Prop51ColorRGB
 90
-16777216
102
RTVSPost2010PropOp51
 70
     0
102
RTVSPost2010Prop52
140
1.0
102
RTVSPost2010PropOp52
 70
     0
102
RTVSPost2010Prop53
 90
        2
102
RTVSPost2010PropOp53
 70
     1
102
RTVSPost2010Prop54
  1
strokes_ogs.tif
102
RTVSPost2010PropOp54
 70
     1
102
RTVSPost2010Prop55
280
     0
102
RTVSPost2010PropOp55
 70
     1
102
RTVSPost2010Prop56
140
1.0
102
RTVSPost2010PropOp56
 70
     1
102
RTVSPost2010Prop57
140
1.0
102
RTVSPost2010PropOp57
 70
     1
102
RTVSPropertyOp0
 70
     1
102
RTVSPropertyOp1
 70
     1
102
RTVSPropertyOp2
 70
     1
102
RTVSPropertyOp3
 70
     1
102
RTVSPropertyOp4
 70
     1
102
RTVSPropertyOp5
 70
     1
102
RTVSPropertyOp6
 70
     1
102
RTVSPropertyOp7
 70
     1
102
RTVSPropertyOp8
 70
     1
102
RTVSPropertyOp9
 70
     1
102
RTVSPropertyOp10
 70
     1
102
RTVSPropertyOp11
 70
     1
102
RTVSPropertyOp12
 70
     1
102
RTVSPropertyOp13
 70
     1
102
RTVSPropertyOp14
 70
     1
102
RTVSPropertyOp15
 70
     1
102
RTVSPropertyOp16
 70
     1
102
RTVSPropertyOp17
 70
     1
102
RTVSPropertyOp18
 70
     1
102
RTVSPropertyOp19
 70
     1
102
RTVSPropertyOp20
 70
     1
102
RTVSPropertyOp21
 70
     1
102
RTVSPropertyOp22
 70
     1
102
RTVSPropertyOp23
 70
     1
102
RTVSPropertyOp24
 70
     1
102
RTVSPropertyOp25
 70
     1
102
RTVSPropertyOp26
 70
     1
102
RTVSPropertyOp27
 70
     1
102
RTVSPropertyOp28
 70
     1
102
RTVSPropertyOp29
 70
     1
102
RTVSPropertyOp30
 70
     1
102
RTVSPropertyOp31
 70
     1
102
RTVSPropertyOp32
 70
     1
102
RTVSPropertyOp33
 70
     1
102
RTVSPropertyOp34
 70
     1
102
RTVSPropertyOp35
 70
     1
102
RTVSPropertyOp36
 70
     1
102
RTVSPropertyOp37
 70
     1
102
RTVSPropertyOp38
 70
     1
102
RTVSPropertyOp39
 70
     1
102
RTVSPropertyOp40
 70
     1
102
RTVSPropertyOp41
 70
     1
102
RTVSPropertyOp42
 70
     1
102
RTVSPropertyOp43
 70
     1
102
RTVSPropertyOp44
 70
     1
102
RTVSPropertyOp45
 70
     1
102
RTVSPropertyOp46
 70
     1
102
RTVSPropertyOp47
 70
     1
102
RTVSPropertyOp48
 70
     1
102
RTVSPropertyOp49
 70
     1
102
RTVSPropertyOp50
 70
     1
102
RTVSPropertyOp51
 70
     0
102
RTVSPropertyOp52
 70
     0
102
RTVSPropertyOp53
 70
     1
102
RTVSPropertyOp54
 70
     1
102
RTVSPropertyOp55
 70
     1
102
RTVSPropertyOp56
 70
     1
102
RTVSPropertyOp57
 70
     1
102
RTVSPropertyOp58
 70
     1
102
RTVSPropertyOp59
 70
     1
102
RTVSPropertyOp60
 70
     1
102
RTVSPropertyOp61
 70
     1
102
RTVSPropertyOp62
 70
     1
  0
XRECORD
  5
B911
102
{ACAD_REACTORS
330
B910
102
}
330
B910
100
AcDbXrecord
280
     1
102
RTVSPost2010Prop28
280
     0
102
RTVSPost2010PropOp28
 70
     1
102
RTVSPost2010Prop29
280
     1
102
RTVSPost2010PropOp29
 70
     1
102
RTVSPost2010Prop30
280
     1
102
RTVSPost2010PropOp30
 70
     1
102
RTVSPost2010Prop31
280
     0
102
RTVSPost2010PropOp31
 70
     1
102
RTVSPost2010Prop32
280
     0
102
RTVSPost2010PropOp32
 70
     1
102
RTVSPost2010Prop33
280
     0
102
RTVSPost2010PropOp33
 70
     1
102
RTVSPost2010Prop34
280
     0
102
RTVSPost2010PropOp34
 70
     1
102
RTVSPost2010Prop35
280
     0
102
RTVSPost2010PropOp35
 70
     1
102
RTVSPost2010Prop36
280
     0
102
RTVSPost2010PropOp36
 70
     1
102
RTVSPost2010Prop37
 90
       50
102
RTVSPost2010PropOp37
 70
     1
102
RTVSPost2010Prop38
140
0.0
102
RTVSPost2010PropOp38
 70
     1
102
RTVSPost2010Prop39
140
1.0
102
RTVSPost2010PropOp39
 70
     1
102
RTVSPost2010Prop40
 90
        0
102
RTVSPost2010PropOp40
 70
     1
102
RTVSPost2010Prop41ColorIndex
 90
       18
102
RTVSPost2010Prop41ColorRGB
 90
        0
102
RTVSPost2010PropOp41
 70
     1
102
RTVSPost2010Prop42
 90
       50
102
RTVSPost2010PropOp42
 70
     1
102
RTVSPost2010Prop43
 90
        3
102
RTVSPost2010PropOp43
 70
     1
102
RTVSPost2010Prop44ColorIndex
 90
        5
102
RTVSPost2010Prop44ColorRGB
 90
      255
102
RTVSPost2010PropOp44
 70
     1
102
RTVSPost2010Prop45
280
     0
102
RTVSPost2010PropOp45
 70
     1
102
RTVSPost2010Prop46
 90
       50
102
RTVSPost2010PropOp46
 70
     1
102
RTVSPost2010Prop47
 90
       50
102
RTVSPost2010PropOp47
 70
     1
102
RTVSPost2010Prop48
 90
       50
102
RTVSPost2010PropOp48
 70
     1
102
RTVSPost2010Prop49
280
     0
102
RTVSPost2010PropOp49
 70
     1
102
RTVSPost2010Prop50
 90
       50
102
RTVSPost2010PropOp50
 70
     1
102
RTVSPost2010Prop51ColorIndex
 90
      256
102
RTVSPost2010Prop51ColorRGB
 90
-16777216
102
RTVSPost2010PropOp51
 70
     0
102
RTVSPost2010Prop52
140
1.0
102
RTVSPost2010PropOp52
 70
     0
102
RTVSPost2010Prop53
 90
        2
102
RTVSPost2010PropOp53
 70
     1
102
RTVSPost2010Prop54
  1
strokes_ogs.tif
102
RTVSPost2010PropOp54
 70
     1
102
RTVSPost2010Prop55
280
     0
102
RTVSPost2010PropOp55
 70
     1
102
RTVSPost2010Prop56
140
1.0
102
RTVSPost2010PropOp56
 70
     1
102
RTVSPost2010Prop57
140
1.0
102
RTVSPost2010PropOp57
 70
     1
102
RTVSPropertyOp0
 70
     1
102
RTVSPropertyOp1
 70
     1
102
RTVSPropertyOp2
 70
     1
102
RTVSPropertyOp3
 70
     1
102
RTVSPropertyOp4
 70
     1
102
RTVSPropertyOp5
 70
     1
102
RTVSPropertyOp6
 70
     1
102
RTVSPropertyOp7
 70
     1
102
RTVSPropertyOp8
 70
     1
102
RTVSPropertyOp9
 70
     1
102
RTVSPropertyOp10
 70
     1
102
RTVSPropertyOp11
 70
     1
102
RTVSPropertyOp12
 70
     1
102
RTVSPropertyOp13
 70
     1
102
RTVSPropertyOp14
 70
     1
102
RTVSPropertyOp15
 70
     1
102
RTVSPropertyOp16
 70
     1
102
RTVSPropertyOp17
 70
     1
102
RTVSPropertyOp18
 70
     1
102
RTVSPropertyOp19
 70
     1
102
RTVSPropertyOp20
 70
     1
102
RTVSPropertyOp21
 70
     1
102
RTVSPropertyOp22
 70
     1
102
RTVSPropertyOp23
 70
     1
102
RTVSPropertyOp24
 70
     1
102
RTVSPropertyOp25
 70
     1
102
RTVSPropertyOp26
 70
     1
102
RTVSPropertyOp27
 70
     1
102
RTVSPropertyOp28
 70
     1
102
RTVSPropertyOp29
 70
     1
102
RTVSPropertyOp30
 70
     1
102
RTVSPropertyOp31
 70
     1
102
RTVSPropertyOp32
 70
     1
102
RTVSPropertyOp33
 70
     1
102
RTVSPropertyOp34
 70
     1
102
RTVSPropertyOp35
 70
     1
102
RTVSPropertyOp36
 70
     1
102
RTVSPropertyOp37
 70
     1
102
RTVSPropertyOp38
 70
     1
102
RTVSPropertyOp39
 70
     1
102
RTVSPropertyOp40
 70
     1
102
RTVSPropertyOp41
 70
     1
102
RTVSPropertyOp42
 70
     1
102
RTVSPropertyOp43
 70
     1
102
RTVSPropertyOp44
 70
     1
102
RTVSPropertyOp45
 70
     1
102
RTVSPropertyOp46
 70
     1
102
RTVSPropertyOp47
 70
     1
102
RTVSPropertyOp48
 70
     1
102
RTVSPropertyOp49
 70
     1
102
RTVSPropertyOp50
 70
     1
102
RTVSPropertyOp51
 70
     0
102
RTVSPropertyOp52
 70
     0
102
RTVSPropertyOp53
 70
     1
102
RTVSPropertyOp54
 70
     1
102
RTVSPropertyOp55
 70
     1
102
RTVSPropertyOp56
 70
     1
102
RTVSPropertyOp57
 70
     1
102
RTVSPropertyOp58
 70
     1
102
RTVSPropertyOp59
 70
     1
102
RTVSPropertyOp60
 70
     1
102
RTVSPropertyOp61
 70
     1
102
RTVSPropertyOp62
 70
     1
  0
XRECORD
  5
B92D
102
{ACAD_REACTORS
330
B92C
102
}
330
B92C
100
AcDbXrecord
280
     1
102
RTVSPost2010Prop28
280
     0
102
RTVSPost2010PropOp28
 70
     1
102
RTVSPost2010Prop29
280
     1
102
RTVSPost2010PropOp29
 70
     1
102
RTVSPost2010Prop30
280
     1
102
RTVSPost2010PropOp30
 70
     1
102
RTVSPost2010Prop31
280
     0
102
RTVSPost2010PropOp31
 70
     1
102
RTVSPost2010Prop32
280
     0
102
RTVSPost2010PropOp32
 70
     1
102
RTVSPost2010Prop33
280
     0
102
RTVSPost2010PropOp33
 70
     1
102
RTVSPost2010Prop34
280
     0
102
RTVSPost2010PropOp34
 70
     1
102
RTVSPost2010Prop35
280
     0
102
RTVSPost2010PropOp35
 70
     1
102
RTVSPost2010Prop36
280
     0
102
RTVSPost2010PropOp36
 70
     1
102
RTVSPost2010Prop37
 90
       50
102
RTVSPost2010PropOp37
 70
     0
102
RTVSPost2010Prop38
140
0.0
102
RTVSPost2010PropOp38
 70
     0
102
RTVSPost2010Prop39
140
1.0
102
RTVSPost2010PropOp39
 70
     0
102
RTVSPost2010Prop40
 90
        0
102
RTVSPost2010PropOp40
 70
     0
102
RTVSPost2010Prop41ColorIndex
 90
       18
102
RTVSPost2010Prop41ColorRGB
 90
        0
102
RTVSPost2010PropOp41
 70
     0
102
RTVSPost2010Prop42
 90
       50
102
RTVSPost2010PropOp42
 70
     0
102
RTVSPost2010Prop43
 90
        3
102
RTVSPost2010PropOp43
 70
     0
102
RTVSPost2010Prop44ColorIndex
 90
        5
102
RTVSPost2010Prop44ColorRGB
 90
      255
102
RTVSPost2010PropOp44
 70
     0
102
RTVSPost2010Prop45
280
     0
102
RTVSPost2010PropOp45
 70
     1
102
RTVSPost2010Prop46
 90
       50
102
RTVSPost2010PropOp46
 70
     0
102
RTVSPost2010Prop47
 90
       50
102
RTVSPost2010PropOp47
 70
     0
102
RTVSPost2010Prop48
 90
       50
102
RTVSPost2010PropOp48
 70
     0
102
RTVSPost2010Prop49
280
     0
102
RTVSPost2010PropOp49
 70
     1
102
RTVSPost2010Prop50
 90
       50
102
RTVSPost2010PropOp50
 70
     0
102
RTVSPost2010Prop51ColorIndex
 90
      256
102
RTVSPost2010Prop51ColorRGB
 90
-16777216
102
RTVSPost2010PropOp51
 70
     0
102
RTVSPost2010Prop52
140
1.0
102
RTVSPost2010PropOp52
 70
     0
102
RTVSPost2010Prop53
 90
        2
102
RTVSPost2010PropOp53
 70
     0
102
RTVSPost2010Prop54
  1
strokes_ogs.tif
102
RTVSPost2010PropOp54
 70
     0
102
RTVSPost2010Prop55
280
     0
102
RTVSPost2010PropOp55
 70
     1
102
RTVSPost2010Prop56
140
1.0
102
RTVSPost2010PropOp56
 70
     0
102
RTVSPost2010Prop57
140
1.0
102
RTVSPost2010PropOp57
 70
     0
102
RTVSPropertyOp0
 70
     0
102
RTVSPropertyOp1
 70
     0
102
RTVSPropertyOp2
 70
     0
102
RTVSPropertyOp3
 70
     0
102
RTVSPropertyOp4
 70
     0
102
RTVSPropertyOp5
 70
     0
102
RTVSPropertyOp6
 70
     0
102
RTVSPropertyOp7
 70
     0
102
RTVSPropertyOp8
 70
     0
102
RTVSPropertyOp9
 70
     0
102
RTVSPropertyOp10
 70
     0
102
RTVSPropertyOp11
 70
     0
102
RTVSPropertyOp12
 70
     0
102
RTVSPropertyOp13
 70
     0
102
RTVSPropertyOp14
 70
     2
102
RTVSPropertyOp15
 70
     0
102
RTVSPropertyOp16
 70
     0
102
RTVSPropertyOp17
 70
     0
102
RTVSPropertyOp18
 70
     0
102
RTVSPropertyOp19
 70
     0
102
RTVSPropertyOp20
 70
     0
102
RTVSPropertyOp21
 70
     0
102
RTVSPropertyOp22
 70
     0
102
RTVSPropertyOp23
 70
     0
102
RTVSPropertyOp24
 70
     0
102
RTVSPropertyOp25
 70
     0
102
RTVSPropertyOp26
 70
     0
102
RTVSPropertyOp27
 70
     0
102
RTVSPropertyOp28
 70
     1
102
RTVSPropertyOp29
 70
     1
102
RTVSPropertyOp30
 70
     1
102
RTVSPropertyOp31
 70
     1
102
RTVSPropertyOp32
 70
     1
102
RTVSPropertyOp33
 70
     1
102
RTVSPropertyOp34
 70
     1
102
RTVSPropertyOp35
 70
     1
102
RTVSPropertyOp36
 70
     1
102
RTVSPropertyOp37
 70
     0
102
RTVSPropertyOp38
 70
     0
102
RTVSPropertyOp39
 70
     0
102
RTVSPropertyOp40
 70
     0
102
RTVSPropertyOp41
 70
     0
102
RTVSPropertyOp42
 70
     0
102
RTVSPropertyOp43
 70
     0
102
RTVSPropertyOp44
 70
     0
102
RTVSPropertyOp45
 70
     1
102
RTVSPropertyOp46
 70
     0
102
RTVSPropertyOp47
 70
     0
102
RTVSPropertyOp48
 70
     0
102
RTVSPropertyOp49
 70
     1
102
RTVSPropertyOp50
 70
     0
102
RTVSPropertyOp51
 70
     0
102
RTVSPropertyOp52
 70
     0
102
RTVSPropertyOp53
 70
     0
102
RTVSPropertyOp54
 70
     0
102
RTVSPropertyOp55
 70
     1
102
RTVSPropertyOp56
 70
     0
102
RTVSPropertyOp57
 70
     0
102
RTVSPropertyOp58
 70
     0
102
RTVSPropertyOp59
 70
     0
102
RTVSPropertyOp60
 70
     0
102
RTVSPropertyOp61
 70
     0
102
RTVSPropertyOp62
 70
     0
  0
XRECORD
  5
B91D
102
{ACAD_REACTORS
330
B91C
102
}
330
B91C
100
AcDbXrecord
280
     1
102
RTVSPost2010Prop28
280
     0
102
RTVSPost2010PropOp28
 70
     1
102
RTVSPost2010Prop29
280
     1
102
RTVSPost2010PropOp29
 70
     1
102
RTVSPost2010Prop30
280
     1
102
RTVSPost2010PropOp30
 70
     1
102
RTVSPost2010Prop31
280
     0
102
RTVSPost2010PropOp31
 70
     1
102
RTVSPost2010Prop32
280
     0
102
RTVSPost2010PropOp32
 70
     1
102
RTVSPost2010Prop33
280
     0
102
RTVSPost2010PropOp33
 70
     1
102
RTVSPost2010Prop34
280
     0
102
RTVSPost2010PropOp34
 70
     1
102
RTVSPost2010Prop35
280
     0
102
RTVSPost2010PropOp35
 70
     1
102
RTVSPost2010Prop36
280
     0
102
RTVSPost2010PropOp36
 70
     1
102
RTVSPost2010Prop37
 90
       50
102
RTVSPost2010PropOp37
 70
     1
102
RTVSPost2010Prop38
140
0.0
102
RTVSPost2010PropOp38
 70
     1
102
RTVSPost2010Prop39
140
1.0
102
RTVSPost2010PropOp39
 70
     1
102
RTVSPost2010Prop40
 90
        0
102
RTVSPost2010PropOp40
 70
     1
102
RTVSPost2010Prop41ColorIndex
 90
       18
102
RTVSPost2010Prop41ColorRGB
 90
        0
102
RTVSPost2010PropOp41
 70
     1
102
RTVSPost2010Prop42
 90
       50
102
RTVSPost2010PropOp42
 70
     1
102
RTVSPost2010Prop43
 90
        3
102
RTVSPost2010PropOp43
 70
     1
102
RTVSPost2010Prop44ColorIndex
 90
        5
102
RTVSPost2010Prop44ColorRGB
 90
      255
102
RTVSPost2010PropOp44
 70
     1
102
RTVSPost2010Prop45
280
     0
102
RTVSPost2010PropOp45
 70
     1
102
RTVSPost2010Prop46
 90
       50
102
RTVSPost2010PropOp46
 70
     1
102
RTVSPost2010Prop47
 90
       50
102
RTVSPost2010PropOp47
 70
     1
102
RTVSPost2010Prop48
 90
       50
102
RTVSPost2010PropOp48
 70
     1
102
RTVSPost2010Prop49
280
     0
102
RTVSPost2010PropOp49
 70
     1
102
RTVSPost2010Prop50
 90
       50
102
RTVSPost2010PropOp50
 70
     1
102
RTVSPost2010Prop51ColorIndex
 90
      256
102
RTVSPost2010Prop51ColorRGB
 90
-16777216
102
RTVSPost2010PropOp51
 70
     0
102
RTVSPost2010Prop52
140
1.0
102
RTVSPost2010PropOp52
 70
     0
102
RTVSPost2010Prop53
 90
        2
102
RTVSPost2010PropOp53
 70
     1
102
RTVSPost2010Prop54
  1
strokes_ogs.tif
102
RTVSPost2010PropOp54
 70
     1
102
RTVSPost2010Prop55
280
     0
102
RTVSPost2010PropOp55
 70
     1
102
RTVSPost2010Prop56
140
1.0
102
RTVSPost2010PropOp56
 70
     1
102
RTVSPost2010Prop57
140
1.0
102
RTVSPost2010PropOp57
 70
     1
102
RTVSPropertyOp0
 70
     1
102
RTVSPropertyOp1
 70
     1
102
RTVSPropertyOp2
 70
     1
102
RTVSPropertyOp3
 70
     1
102
RTVSPropertyOp4
 70
     1
102
RTVSPropertyOp5
 70
     1
102
RTVSPropertyOp6
 70
     1
102
RTVSPropertyOp7
 70
     1
102
RTVSPropertyOp8
 70
     1
102
RTVSPropertyOp9
 70
     1
102
RTVSPropertyOp10
 70
     1
102
RTVSPropertyOp11
 70
     1
102
RTVSPropertyOp12
 70
     1
102
RTVSPropertyOp13
 70
     1
102
RTVSPropertyOp14
 70
     1
102
RTVSPropertyOp15
 70
     1
102
RTVSPropertyOp16
 70
     1
102
RTVSPropertyOp17
 70
     1
102
RTVSPropertyOp18
 70
     1
102
RTVSPropertyOp19
 70
     1
102
RTVSPropertyOp20
 70
     1
102
RTVSPropertyOp21
 70
     1
102
RTVSPropertyOp22
 70
     1
102
RTVSPropertyOp23
 70
     1
102
RTVSPropertyOp24
 70
     1
102
RTVSPropertyOp25
 70
     1
102
RTVSPropertyOp26
 70
     1
102
RTVSPropertyOp27
 70
     1
102
RTVSPropertyOp28
 70
     1
102
RTVSPropertyOp29
 70
     1
102
RTVSPropertyOp30
 70
     1
102
RTVSPropertyOp31
 70
     1
102
RTVSPropertyOp32
 70
     1
102
RTVSPropertyOp33
 70
     1
102
RTVSPropertyOp34
 70
     1
102
RTVSPropertyOp35
 70
     1
102
RTVSPropertyOp36
 70
     1
102
RTVSPropertyOp37
 70
     1
102
RTVSPropertyOp38
 70
     1
102
RTVSPropertyOp39
 70
     1
102
RTVSPropertyOp40
 70
     1
102
RTVSPropertyOp41
 70
     1
102
RTVSPropertyOp42
 70
     1
102
RTVSPropertyOp43
 70
     1
102
RTVSPropertyOp44
 70
     1
102
RTVSPropertyOp45
 70
     1
102
RTVSPropertyOp46
 70
     1
102
RTVSPropertyOp47
 70
     1
102
RTVSPropertyOp48
 70
     1
102
RTVSPropertyOp49
 70
     1
102
RTVSPropertyOp50
 70
     1
102
RTVSPropertyOp51
 70
     0
102
RTVSPropertyOp52
 70
     0
102
RTVSPropertyOp53
 70
     1
102
RTVSPropertyOp54
 70
     1
102
RTVSPropertyOp55
 70
     1
102
RTVSPropertyOp56
 70
     1
102
RTVSPropertyOp57
 70
     1
102
RTVSPropertyOp58
 70
     1
102
RTVSPropertyOp59
 70
     1
102
RTVSPropertyOp60
 70
     1
102
RTVSPropertyOp61
 70
     1
102
RTVSPropertyOp62
 70
     1
  0
XRECORD
  5
B92F
102
{ACAD_REACTORS
330
B92E
102
}
330
B92E
100
AcDbXrecord
280
     1
102
RTVSPost2010Prop28
280
     0
102
RTVSPost2010PropOp28
 70
     1
102
RTVSPost2010Prop29
280
     1
102
RTVSPost2010PropOp29
 70
     1
102
RTVSPost2010Prop30
280
     1
102
RTVSPost2010PropOp30
 70
     1
102
RTVSPost2010Prop31
280
     0
102
RTVSPost2010PropOp31
 70
     1
102
RTVSPost2010Prop32
280
     0
102
RTVSPost2010PropOp32
 70
     1
102
RTVSPost2010Prop33
280
     0
102
RTVSPost2010PropOp33
 70
     1
102
RTVSPost2010Prop34
280
     0
102
RTVSPost2010PropOp34
 70
     1
102
RTVSPost2010Prop35
280
     0
102
RTVSPost2010PropOp35
 70
     1
102
RTVSPost2010Prop36
280
     0
102
RTVSPost2010PropOp36
 70
     1
102
RTVSPost2010Prop37
 90
       50
102
RTVSPost2010PropOp37
 70
     0
102
RTVSPost2010Prop38
140
0.0
102
RTVSPost2010PropOp38
 70
     0
102
RTVSPost2010Prop39
140
1.0
102
RTVSPost2010PropOp39
 70
     0
102
RTVSPost2010Prop40
 90
        0
102
RTVSPost2010PropOp40
 70
     0
102
RTVSPost2010Prop41ColorIndex
 90
       18
102
RTVSPost2010Prop41ColorRGB
 90
        0
102
RTVSPost2010PropOp41
 70
     0
102
RTVSPost2010Prop42
 90
       50
102
RTVSPost2010PropOp42
 70
     0
102
RTVSPost2010Prop43
 90
        3
102
RTVSPost2010PropOp43
 70
     0
102
RTVSPost2010Prop44ColorIndex
 90
        5
102
RTVSPost2010Prop44ColorRGB
 90
      255
102
RTVSPost2010PropOp44
 70
     0
102
RTVSPost2010Prop45
280
     0
102
RTVSPost2010PropOp45
 70
     1
102
RTVSPost2010Prop46
 90
       50
102
RTVSPost2010PropOp46
 70
     0
102
RTVSPost2010Prop47
 90
       50
102
RTVSPost2010PropOp47
 70
     0
102
RTVSPost2010Prop48
 90
       50
102
RTVSPost2010PropOp48
 70
     0
102
RTVSPost2010Prop49
280
     0
102
RTVSPost2010PropOp49
 70
     1
102
RTVSPost2010Prop50
 90
       50
102
RTVSPost2010PropOp50
 70
     0
102
RTVSPost2010Prop51ColorIndex
 90
      256
102
RTVSPost2010Prop51ColorRGB
 90
-16777216
102
RTVSPost2010PropOp51
 70
     0
102
RTVSPost2010Prop52
140
1.0
102
RTVSPost2010PropOp52
 70
     0
102
RTVSPost2010Prop53
 90
        2
102
RTVSPost2010PropOp53
 70
     0
102
RTVSPost2010Prop54
  1
strokes_ogs.tif
102
RTVSPost2010PropOp54
 70
     0
102
RTVSPost2010Prop55
280
     0
102
RTVSPost2010PropOp55
 70
     1
102
RTVSPost2010Prop56
140
1.0
102
RTVSPost2010PropOp56
 70
     0
102
RTVSPost2010Prop57
140
1.0
102
RTVSPost2010PropOp57
 70
     0
102
RTVSPropertyOp0
 70
     0
102
RTVSPropertyOp1
 70
     0
102
RTVSPropertyOp2
 70
     0
102
RTVSPropertyOp3
 70
     0
102
RTVSPropertyOp4
 70
     0
102
RTVSPropertyOp5
 70
     0
102
RTVSPropertyOp6
 70
     0
102
RTVSPropertyOp7
 70
     0
102
RTVSPropertyOp8
 70
     0
102
RTVSPropertyOp9
 70
     0
102
RTVSPropertyOp10
 70
     0
102
RTVSPropertyOp11
 70
     0
102
RTVSPropertyOp12
 70
     0
102
RTVSPropertyOp13
 70
     0
102
RTVSPropertyOp14
 70
     2
102
RTVSPropertyOp15
 70
     0
102
RTVSPropertyOp16
 70
     0
102
RTVSPropertyOp17
 70
     0
102
RTVSPropertyOp18
 70
     0
102
RTVSPropertyOp19
 70
     0
102
RTVSPropertyOp20
 70
     0
102
RTVSPropertyOp21
 70
     0
102
RTVSPropertyOp22
 70
     0
102
RTVSPropertyOp23
 70
     0
102
RTVSPropertyOp24
 70
     0
102
RTVSPropertyOp25
 70
     0
102
RTVSPropertyOp26
 70
     0
102
RTVSPropertyOp27
 70
     0
102
RTVSPropertyOp28
 70
     1
102
RTVSPropertyOp29
 70
     1
102
RTVSPropertyOp30
 70
     1
102
RTVSPropertyOp31
 70
     1
102
RTVSPropertyOp32
 70
     1
102
RTVSPropertyOp33
 70
     1
102
RTVSPropertyOp34
 70
     1
102
RTVSPropertyOp35
 70
     1
102
RTVSPropertyOp36
 70
     1
102
RTVSPropertyOp37
 70
     0
102
RTVSPropertyOp38
 70
     0
102
RTVSPropertyOp39
 70
     0
102
RTVSPropertyOp40
 70
     0
102
RTVSPropertyOp41
 70
     0
102
RTVSPropertyOp42
 70
     0
102
RTVSPropertyOp43
 70
     0
102
RTVSPropertyOp44
 70
     0
102
RTVSPropertyOp45
 70
     1
102
RTVSPropertyOp46
 70
     0
102
RTVSPropertyOp47
 70
     0
102
RTVSPropertyOp48
 70
     0
102
RTVSPropertyOp49
 70
     1
102
RTVSPropertyOp50
 70
     0
102
RTVSPropertyOp51
 70
     0
102
RTVSPropertyOp52
 70
     0
102
RTVSPropertyOp53
 70
     0
102
RTVSPropertyOp54
 70
     0
102
RTVSPropertyOp55
 70
     1
102
RTVSPropertyOp56
 70
     0
102
RTVSPropertyOp57
 70
     0
102
RTVSPropertyOp58
 70
     0
102
RTVSPropertyOp59
 70
     0
102
RTVSPropertyOp60
 70
     0
102
RTVSPropertyOp61
 70
     0
102
RTVSPropertyOp62
 70
     0
  0
XRECORD
  5
B915
102
{ACAD_REACTORS
330
B914
102
}
330
B914
100
AcDbXrecord
280
     1
102
RTVSPost2010Prop28
280
     0
102
RTVSPost2010PropOp28
 70
     1
102
RTVSPost2010Prop29
280
     1
102
RTVSPost2010PropOp29
 70
     1
102
RTVSPost2010Prop30
280
     1
102
RTVSPost2010PropOp30
 70
     1
102
RTVSPost2010Prop31
280
     0
102
RTVSPost2010PropOp31
 70
     1
102
RTVSPost2010Prop32
280
     0
102
RTVSPost2010PropOp32
 70
     1
102
RTVSPost2010Prop33
280
     0
102
RTVSPost2010PropOp33
 70
     1
102
RTVSPost2010Prop34
280
     0
102
RTVSPost2010PropOp34
 70
     1
102
RTVSPost2010Prop35
280
     0
102
RTVSPost2010PropOp35
 70
     1
102
RTVSPost2010Prop36
280
     0
102
RTVSPost2010PropOp36
 70
     1
102
RTVSPost2010Prop37
 90
       50
102
RTVSPost2010PropOp37
 70
     1
102
RTVSPost2010Prop38
140
0.0
102
RTVSPost2010PropOp38
 70
     1
102
RTVSPost2010Prop39
140
1.0
102
RTVSPost2010PropOp39
 70
     1
102
RTVSPost2010Prop40
 90
        0
102
RTVSPost2010PropOp40
 70
     1
102
RTVSPost2010Prop41ColorIndex
 90
       18
102
RTVSPost2010Prop41ColorRGB
 90
        0
102
RTVSPost2010PropOp41
 70
     1
102
RTVSPost2010Prop42
 90
       50
102
RTVSPost2010PropOp42
 70
     1
102
RTVSPost2010Prop43
 90
        3
102
RTVSPost2010PropOp43
 70
     1
102
RTVSPost2010Prop44ColorIndex
 90
        5
102
RTVSPost2010Prop44ColorRGB
 90
      255
102
RTVSPost2010PropOp44
 70
     1
102
RTVSPost2010Prop45
280
     0
102
RTVSPost2010PropOp45
 70
     1
102
RTVSPost2010Prop46
 90
       50
102
RTVSPost2010PropOp46
 70
     1
102
RTVSPost2010Prop47
 90
       50
102
RTVSPost2010PropOp47
 70
     1
102
RTVSPost2010Prop48
 90
       50
102
RTVSPost2010PropOp48
 70
     1
102
RTVSPost2010Prop49
280
     0
102
RTVSPost2010PropOp49
 70
     1
102
RTVSPost2010Prop50
 90
       50
102
RTVSPost2010PropOp50
 70
     1
102
RTVSPost2010Prop51ColorIndex
 90
      256
102
RTVSPost2010Prop51ColorRGB
 90
-16777216
102
RTVSPost2010PropOp51
 70
     0
102
RTVSPost2010Prop52
140
1.0
102
RTVSPost2010PropOp52
 70
     0
102
RTVSPost2010Prop53
 90
        2
102
RTVSPost2010PropOp53
 70
     1
102
RTVSPost2010Prop54
  1
strokes_ogs.tif
102
RTVSPost2010PropOp54
 70
     1
102
RTVSPost2010Prop55
280
     0
102
RTVSPost2010PropOp55
 70
     1
102
RTVSPost2010Prop56
140
1.0
102
RTVSPost2010PropOp56
 70
     1
102
RTVSPost2010Prop57
140
1.0
102
RTVSPost2010PropOp57
 70
     1
102
RTVSPropertyOp0
 70
     1
102
RTVSPropertyOp1
 70
     1
102
RTVSPropertyOp2
 70
     1
102
RTVSPropertyOp3
 70
     1
102
RTVSPropertyOp4
 70
     1
102
RTVSPropertyOp5
 70
     1
102
RTVSPropertyOp6
 70
     1
102
RTVSPropertyOp7
 70
     1
102
RTVSPropertyOp8
 70
     1
102
RTVSPropertyOp9
 70
     1
102
RTVSPropertyOp10
 70
     1
102
RTVSPropertyOp11
 70
     1
102
RTVSPropertyOp12
 70
     1
102
RTVSPropertyOp13
 70
     1
102
RTVSPropertyOp14
 70
     1
102
RTVSPropertyOp15
 70
     1
102
RTVSPropertyOp16
 70
     1
102
RTVSPropertyOp17
 70
     1
102
RTVSPropertyOp18
 70
     1
102
RTVSPropertyOp19
 70
     1
102
RTVSPropertyOp20
 70
     1
102
RTVSPropertyOp21
 70
     1
102
RTVSPropertyOp22
 70
     1
102
RTVSPropertyOp23
 70
     1
102
RTVSPropertyOp24
 70
     1
102
RTVSPropertyOp25
 70
     1
102
RTVSPropertyOp26
 70
     1
102
RTVSPropertyOp27
 70
     1
102
RTVSPropertyOp28
 70
     1
102
RTVSPropertyOp29
 70
     1
102
RTVSPropertyOp30
 70
     1
102
RTVSPropertyOp31
 70
     1
102
RTVSPropertyOp32
 70
     1
102
RTVSPropertyOp33
 70
     1
102
RTVSPropertyOp34
 70
     1
102
RTVSPropertyOp35
 70
     1
102
RTVSPropertyOp36
 70
     1
102
RTVSPropertyOp37
 70
     1
102
RTVSPropertyOp38
 70
     1
102
RTVSPropertyOp39
 70
     1
102
RTVSPropertyOp40
 70
     1
102
RTVSPropertyOp41
 70
     1
102
RTVSPropertyOp42
 70
     1
102
RTVSPropertyOp43
 70
     1
102
RTVSPropertyOp44
 70
     1
102
RTVSPropertyOp45
 70
     1
102
RTVSPropertyOp46
 70
     1
102
RTVSPropertyOp47
 70
     1
102
RTVSPropertyOp48
 70
     1
102
RTVSPropertyOp49
 70
     1
102
RTVSPropertyOp50
 70
     1
102
RTVSPropertyOp51
 70
     0
102
RTVSPropertyOp52
 70
     0
102
RTVSPropertyOp53
 70
     1
102
RTVSPropertyOp54
 70
     1
102
RTVSPropertyOp55
 70
     1
102
RTVSPropertyOp56
 70
     1
102
RTVSPropertyOp57
 70
     1
102
RTVSPropertyOp58
 70
     1
102
RTVSPropertyOp59
 70
     1
102
RTVSPropertyOp60
 70
     1
102
RTVSPropertyOp61
 70
     1
102
RTVSPropertyOp62
 70
     1
  0
XRECORD
  5
B92B
102
{ACAD_REACTORS
330
B92A
102
}
330
B92A
100
AcDbXrecord
280
     1
102
RTVSPost2010Prop28
280
     0
102
RTVSPost2010PropOp28
 70
     1
102
RTVSPost2010Prop29
280
     1
102
RTVSPost2010PropOp29
 70
     1
102
RTVSPost2010Prop30
280
     1
102
RTVSPost2010PropOp30
 70
     1
102
RTVSPost2010Prop31
280
     0
102
RTVSPost2010PropOp31
 70
     1
102
RTVSPost2010Prop32
280
     0
102
RTVSPost2010PropOp32
 70
     1
102
RTVSPost2010Prop33
280
     0
102
RTVSPost2010PropOp33
 70
     1
102
RTVSPost2010Prop34
280
     0
102
RTVSPost2010PropOp34
 70
     1
102
RTVSPost2010Prop35
280
     0
102
RTVSPost2010PropOp35
 70
     1
102
RTVSPost2010Prop36
280
     0
102
RTVSPost2010PropOp36
 70
     1
102
RTVSPost2010Prop37
 90
       50
102
RTVSPost2010PropOp37
 70
     1
102
RTVSPost2010Prop38
140
0.0
102
RTVSPost2010PropOp38
 70
     1
102
RTVSPost2010Prop39
140
1.0
102
RTVSPost2010PropOp39
 70
     1
102
RTVSPost2010Prop40
 90
        0
102
RTVSPost2010PropOp40
 70
     1
102
RTVSPost2010Prop41ColorIndex
 90
       18
102
RTVSPost2010Prop41ColorRGB
 90
        0
102
RTVSPost2010PropOp41
 70
     1
102
RTVSPost2010Prop42
 90
       50
102
RTVSPost2010PropOp42
 70
     1
102
RTVSPost2010Prop43
 90
        3
102
RTVSPost2010PropOp43
 70
     1
102
RTVSPost2010Prop44ColorIndex
 90
        5
102
RTVSPost2010Prop44ColorRGB
 90
      255
102
RTVSPost2010PropOp44
 70
     1
102
RTVSPost2010Prop45
280
     0
102
RTVSPost2010PropOp45
 70
     1
102
RTVSPost2010Prop46
 90
       50
102
RTVSPost2010PropOp46
 70
     1
102
RTVSPost2010Prop47
 90
       50
102
RTVSPost2010PropOp47
 70
     1
102
RTVSPost2010Prop48
 90
       50
102
RTVSPost2010PropOp48
 70
     1
102
RTVSPost2010Prop49
280
     0
102
RTVSPost2010PropOp49
 70
     1
102
RTVSPost2010Prop50
 90
       50
102
RTVSPost2010PropOp50
 70
     1
102
RTVSPost2010Prop51ColorIndex
 90
      256
102
RTVSPost2010Prop51ColorRGB
 90
-16777216
102
RTVSPost2010PropOp51
 70
     0
102
RTVSPost2010Prop52
140
1.0
102
RTVSPost2010PropOp52
 70
     0
102
RTVSPost2010Prop53
 90
        2
102
RTVSPost2010PropOp53
 70
     1
102
RTVSPost2010Prop54
  1
strokes_ogs.tif
102
RTVSPost2010PropOp54
 70
     1
102
RTVSPost2010Prop55
280
     0
102
RTVSPost2010PropOp55
 70
     1
102
RTVSPost2010Prop56
140
1.0
102
RTVSPost2010PropOp56
 70
     1
102
RTVSPost2010Prop57
140
1.0
102
RTVSPost2010PropOp57
 70
     1
102
RTVSPropertyOp0
 70
     1
102
RTVSPropertyOp1
 70
     1
102
RTVSPropertyOp2
 70
     1
102
RTVSPropertyOp3
 70
     1
102
RTVSPropertyOp4
 70
     1
102
RTVSPropertyOp5
 70
     1
102
RTVSPropertyOp6
 70
     1
102
RTVSPropertyOp7
 70
     1
102
RTVSPropertyOp8
 70
     1
102
RTVSPropertyOp9
 70
     1
102
RTVSPropertyOp10
 70
     1
102
RTVSPropertyOp11
 70
     1
102
RTVSPropertyOp12
 70
     1
102
RTVSPropertyOp13
 70
     1
102
RTVSPropertyOp14
 70
     1
102
RTVSPropertyOp15
 70
     1
102
RTVSPropertyOp16
 70
     1
102
RTVSPropertyOp17
 70
     1
102
RTVSPropertyOp18
 70
     1
102
RTVSPropertyOp19
 70
     1
102
RTVSPropertyOp20
 70
     1
102
RTVSPropertyOp21
 70
     1
102
RTVSPropertyOp22
 70
     1
102
RTVSPropertyOp23
 70
     1
102
RTVSPropertyOp24
 70
     1
102
RTVSPropertyOp25
 70
     1
102
RTVSPropertyOp26
 70
     1
102
RTVSPropertyOp27
 70
     1
102
RTVSPropertyOp28
 70
     1
102
RTVSPropertyOp29
 70
     1
102
RTVSPropertyOp30
 70
     1
102
RTVSPropertyOp31
 70
     1
102
RTVSPropertyOp32
 70
     1
102
RTVSPropertyOp33
 70
     1
102
RTVSPropertyOp34
 70
     1
102
RTVSPropertyOp35
 70
     1
102
RTVSPropertyOp36
 70
     1
102
RTVSPropertyOp37
 70
     1
102
RTVSPropertyOp38
 70
     1
102
RTVSPropertyOp39
 70
     1
102
RTVSPropertyOp40
 70
     1
102
RTVSPropertyOp41
 70
     1
102
RTVSPropertyOp42
 70
     1
102
RTVSPropertyOp43
 70
     1
102
RTVSPropertyOp44
 70
     1
102
RTVSPropertyOp45
 70
     1
102
RTVSPropertyOp46
 70
     1
102
RTVSPropertyOp47
 70
     1
102
RTVSPropertyOp48
 70
     1
102
RTVSPropertyOp49
 70
     1
102
RTVSPropertyOp50
 70
     1
102
RTVSPropertyOp51
 70
     0
102
RTVSPropertyOp52
 70
     0
102
RTVSPropertyOp53
 70
     1
102
RTVSPropertyOp54
 70
     1
102
RTVSPropertyOp55
 70
     1
102
RTVSPropertyOp56
 70
     1
102
RTVSPropertyOp57
 70
     1
102
RTVSPropertyOp58
 70
     1
102
RTVSPropertyOp59
 70
     1
102
RTVSPropertyOp60
 70
     1
102
RTVSPropertyOp61
 70
     1
102
RTVSPropertyOp62
 70
     1
  0
XRECORD
  5
B929
102
{ACAD_REACTORS
330
B928
102
}
330
B928
100
AcDbXrecord
280
     1
102
RTVSPost2010Prop28
280
     0
102
RTVSPost2010PropOp28
 70
     1
102
RTVSPost2010Prop29
280
     1
102
RTVSPost2010PropOp29
 70
     1
102
RTVSPost2010Prop30
280
     1
102
RTVSPost2010PropOp30
 70
     1
102
RTVSPost2010Prop31
280
     0
102
RTVSPost2010PropOp31
 70
     1
102
RTVSPost2010Prop32
280
     0
102
RTVSPost2010PropOp32
 70
     1
102
RTVSPost2010Prop33
280
     0
102
RTVSPost2010PropOp33
 70
     1
102
RTVSPost2010Prop34
280
     0
102
RTVSPost2010PropOp34
 70
     1
102
RTVSPost2010Prop35
280
     0
102
RTVSPost2010PropOp35
 70
     1
102
RTVSPost2010Prop36
280
     0
102
RTVSPost2010PropOp36
 70
     1
102
RTVSPost2010Prop37
 90
       50
102
RTVSPost2010PropOp37
 70
     1
102
RTVSPost2010Prop38
140
0.0
102
RTVSPost2010PropOp38
 70
     1
102
RTVSPost2010Prop39
140
1.0
102
RTVSPost2010PropOp39
 70
     1
102
RTVSPost2010Prop40
 90
        0
102
RTVSPost2010PropOp40
 70
     1
102
RTVSPost2010Prop41ColorIndex
 90
       18
102
RTVSPost2010Prop41ColorRGB
 90
        0
102
RTVSPost2010PropOp41
 70
     1
102
RTVSPost2010Prop42
 90
       50
102
RTVSPost2010PropOp42
 70
     1
102
RTVSPost2010Prop43
 90
        3
102
RTVSPost2010PropOp43
 70
     1
102
RTVSPost2010Prop44ColorIndex
 90
        5
102
RTVSPost2010Prop44ColorRGB
 90
      255
102
RTVSPost2010PropOp44
 70
     1
102
RTVSPost2010Prop45
280
     0
102
RTVSPost2010PropOp45
 70
     1
102
RTVSPost2010Prop46
 90
       50
102
RTVSPost2010PropOp46
 70
     1
102
RTVSPost2010Prop47
 90
       50
102
RTVSPost2010PropOp47
 70
     1
102
RTVSPost2010Prop48
 90
       50
102
RTVSPost2010PropOp48
 70
     1
102
RTVSPost2010Prop49
280
     0
102
RTVSPost2010PropOp49
 70
     1
102
RTVSPost2010Prop50
 90
       50
102
RTVSPost2010PropOp50
 70
     1
102
RTVSPost2010Prop51ColorIndex
 90
      256
102
RTVSPost2010Prop51ColorRGB
 90
-16777216
102
RTVSPost2010PropOp51
 70
     0
102
RTVSPost2010Prop52
140
1.0
102
RTVSPost2010PropOp52
 70
     0
102
RTVSPost2010Prop53
 90
        2
102
RTVSPost2010PropOp53
 70
     1
102
RTVSPost2010Prop54
  1
strokes_ogs.tif
102
RTVSPost2010PropOp54
 70
     1
102
RTVSPost2010Prop55
280
     0
102
RTVSPost2010PropOp55
 70
     1
102
RTVSPost2010Prop56
140
1.0
102
RTVSPost2010PropOp56
 70
     1
102
RTVSPost2010Prop57
140
1.0
102
RTVSPost2010PropOp57
 70
     1
102
RTVSPropertyOp0
 70
     1
102
RTVSPropertyOp1
 70
     1
102
RTVSPropertyOp2
 70
     1
102
RTVSPropertyOp3
 70
     1
102
RTVSPropertyOp4
 70
     1
102
RTVSPropertyOp5
 70
     1
102
RTVSPropertyOp6
 70
     1
102
RTVSPropertyOp7
 70
     1
102
RTVSPropertyOp8
 70
     1
102
RTVSPropertyOp9
 70
     1
102
RTVSPropertyOp10
 70
     1
102
RTVSPropertyOp11
 70
     1
102
RTVSPropertyOp12
 70
     1
102
RTVSPropertyOp13
 70
     1
102
RTVSPropertyOp14
 70
     1
102
RTVSPropertyOp15
 70
     1
102
RTVSPropertyOp16
 70
     1
102
RTVSPropertyOp17
 70
     1
102
RTVSPropertyOp18
 70
     1
102
RTVSPropertyOp19
 70
     1
102
RTVSPropertyOp20
 70
     1
102
RTVSPropertyOp21
 70
     1
102
RTVSPropertyOp22
 70
     1
102
RTVSPropertyOp23
 70
     1
102
RTVSPropertyOp24
 70
     1
102
RTVSPropertyOp25
 70
     1
102
RTVSPropertyOp26
 70
     1
102
RTVSPropertyOp27
 70
     1
102
RTVSPropertyOp28
 70
     1
102
RTVSPropertyOp29
 70
     1
102
RTVSPropertyOp30
 70
     1
102
RTVSPropertyOp31
 70
     1
102
RTVSPropertyOp32
 70
     1
102
RTVSPropertyOp33
 70
     1
102
RTVSPropertyOp34
 70
     1
102
RTVSPropertyOp35
 70
     1
102
RTVSPropertyOp36
 70
     1
102
RTVSPropertyOp37
 70
     1
102
RTVSPropertyOp38
 70
     1
102
RTVSPropertyOp39
 70
     1
102
RTVSPropertyOp40
 70
     1
102
RTVSPropertyOp41
 70
     1
102
RTVSPropertyOp42
 70
     1
102
RTVSPropertyOp43
 70
     1
102
RTVSPropertyOp44
 70
     1
102
RTVSPropertyOp45
 70
     1
102
RTVSPropertyOp46
 70
     1
102
RTVSPropertyOp47
 70
     1
102
RTVSPropertyOp48
 70
     1
102
RTVSPropertyOp49
 70
     1
102
RTVSPropertyOp50
 70
     1
102
RTVSPropertyOp51
 70
     0
102
RTVSPropertyOp52
 70
     0
102
RTVSPropertyOp53
 70
     1
102
RTVSPropertyOp54
 70
     1
102
RTVSPropertyOp55
 70
     1
102
RTVSPropertyOp56
 70
     1
102
RTVSPropertyOp57
 70
     1
102
RTVSPropertyOp58
 70
     1
102
RTVSPropertyOp59
 70
     1
102
RTVSPropertyOp60
 70
     1
102
RTVSPropertyOp61
 70
     1
102
RTVSPropertyOp62
 70
     1
  0
XRECORD
  5
B923
102
{ACAD_REACTORS
330
B922
102
}
330
B922
100
AcDbXrecord
280
     1
102
RTVSPost2010Prop28
280
     0
102
RTVSPost2010PropOp28
 70
     1
102
RTVSPost2010Prop29
280
     1
102
RTVSPost2010PropOp29
 70
     1
102
RTVSPost2010Prop30
280
     1
102
RTVSPost2010PropOp30
 70
     1
102
RTVSPost2010Prop31
280
     0
102
RTVSPost2010PropOp31
 70
     1
102
RTVSPost2010Prop32
280
     0
102
RTVSPost2010PropOp32
 70
     1
102
RTVSPost2010Prop33
280
     0
102
RTVSPost2010PropOp33
 70
     1
102
RTVSPost2010Prop34
280
     0
102
RTVSPost2010PropOp34
 70
     1
102
RTVSPost2010Prop35
280
     0
102
RTVSPost2010PropOp35
 70
     1
102
RTVSPost2010Prop36
280
     0
102
RTVSPost2010PropOp36
 70
     1
102
RTVSPost2010Prop37
 90
       50
102
RTVSPost2010PropOp37
 70
     1
102
RTVSPost2010Prop38
140
0.0
102
RTVSPost2010PropOp38
 70
     1
102
RTVSPost2010Prop39
140
1.0
102
RTVSPost2010PropOp39
 70
     1
102
RTVSPost2010Prop40
 90
        0
102
RTVSPost2010PropOp40
 70
     1
102
RTVSPost2010Prop41ColorIndex
 90
       18
102
RTVSPost2010Prop41ColorRGB
 90
        0
102
RTVSPost2010PropOp41
 70
     1
102
RTVSPost2010Prop42
 90
       50
102
RTVSPost2010PropOp42
 70
     1
102
RTVSPost2010Prop43
 90
        3
102
RTVSPost2010PropOp43
 70
     1
102
RTVSPost2010Prop44ColorIndex
 90
        5
102
RTVSPost2010Prop44ColorRGB
 90
      255
102
RTVSPost2010PropOp44
 70
     1
102
RTVSPost2010Prop45
280
     0
102
RTVSPost2010PropOp45
 70
     1
102
RTVSPost2010Prop46
 90
       50
102
RTVSPost2010PropOp46
 70
     1
102
RTVSPost2010Prop47
 90
       50
102
RTVSPost2010PropOp47
 70
     1
102
RTVSPost2010Prop48
 90
       50
102
RTVSPost2010PropOp48
 70
     1
102
RTVSPost2010Prop49
280
     0
102
RTVSPost2010PropOp49
 70
     1
102
RTVSPost2010Prop50
 90
       50
102
RTVSPost2010PropOp50
 70
     1
102
RTVSPost2010Prop51ColorIndex
 90
      256
102
RTVSPost2010Prop51ColorRGB
 90
-16777216
102
RTVSPost2010PropOp51
 70
     0
102
RTVSPost2010Prop52
140
1.0
102
RTVSPost2010PropOp52
 70
     0
102
RTVSPost2010Prop53
 90
        2
102
RTVSPost2010PropOp53
 70
     1
102
RTVSPost2010Prop54
  1
strokes_ogs.tif
102
RTVSPost2010PropOp54
 70
     1
102
RTVSPost2010Prop55
280
     0
102
RTVSPost2010PropOp55
 70
     1
102
RTVSPost2010Prop56
140
1.0
102
RTVSPost2010PropOp56
 70
     1
102
RTVSPost2010Prop57
140
1.0
102
RTVSPost2010PropOp57
 70
     1
102
RTVSPropertyOp0
 70
     1
102
RTVSPropertyOp1
 70
     1
102
RTVSPropertyOp2
 70
     1
102
RTVSPropertyOp3
 70
     1
102
RTVSPropertyOp4
 70
     1
102
RTVSPropertyOp5
 70
     1
102
RTVSPropertyOp6
 70
     1
102
RTVSPropertyOp7
 70
     1
102
RTVSPropertyOp8
 70
     1
102
RTVSPropertyOp9
 70
     1
102
RTVSPropertyOp10
 70
     1
102
RTVSPropertyOp11
 70
     1
102
RTVSPropertyOp12
 70
     1
102
RTVSPropertyOp13
 70
     1
102
RTVSPropertyOp14
 70
     1
102
RTVSPropertyOp15
 70
     1
102
RTVSPropertyOp16
 70
     1
102
RTVSPropertyOp17
 70
     1
102
RTVSPropertyOp18
 70
     1
102
RTVSPropertyOp19
 70
     1
102
RTVSPropertyOp20
 70
     1
102
RTVSPropertyOp21
 70
     1
102
RTVSPropertyOp22
 70
     1
102
RTVSPropertyOp23
 70
     1
102
RTVSPropertyOp24
 70
     1
102
RTVSPropertyOp25
 70
     1
102
RTVSPropertyOp26
 70
     1
102
RTVSPropertyOp27
 70
     1
102
RTVSPropertyOp28
 70
     1
102
RTVSPropertyOp29
 70
     1
102
RTVSPropertyOp30
 70
     1
102
RTVSPropertyOp31
 70
     1
102
RTVSPropertyOp32
 70
     1
102
RTVSPropertyOp33
 70
     1
102
RTVSPropertyOp34
 70
     1
102
RTVSPropertyOp35
 70
     1
102
RTVSPropertyOp36
 70
     1
102
RTVSPropertyOp37
 70
     1
102
RTVSPropertyOp38
 70
     1
102
RTVSPropertyOp39
 70
     1
102
RTVSPropertyOp40
 70
     1
102
RTVSPropertyOp41
 70
     1
102
RTVSPropertyOp42
 70
     1
102
RTVSPropertyOp43
 70
     1
102
RTVSPropertyOp44
 70
     1
102
RTVSPropertyOp45
 70
     1
102
RTVSPropertyOp46
 70
     1
102
RTVSPropertyOp47
 70
     1
102
RTVSPropertyOp48
 70
     1
102
RTVSPropertyOp49
 70
     1
102
RTVSPropertyOp50
 70
     1
102
RTVSPropertyOp51
 70
     0
102
RTVSPropertyOp52
 70
     0
102
RTVSPropertyOp53
 70
     1
102
RTVSPropertyOp54
 70
     1
102
RTVSPropertyOp55
 70
     1
102
RTVSPropertyOp56
 70
     1
102
RTVSPropertyOp57
 70
     1
102
RTVSPropertyOp58
 70
     1
102
RTVSPropertyOp59
 70
     1
102
RTVSPropertyOp60
 70
     1
102
RTVSPropertyOp61
 70
     1
102
RTVSPropertyOp62
 70
     1
  0
XRECORD
  5
B925
102
{ACAD_REACTORS
330
B924
102
}
330
B924
100
AcDbXrecord
280
     1
102
RTVSPost2010Prop28
280
     0
102
RTVSPost2010PropOp28
 70
     1
102
RTVSPost2010Prop29
280
     1
102
RTVSPost2010PropOp29
 70
     1
102
RTVSPost2010Prop30
280
     1
102
RTVSPost2010PropOp30
 70
     1
102
RTVSPost2010Prop31
280
     0
102
RTVSPost2010PropOp31
 70
     1
102
RTVSPost2010Prop32
280
     0
102
RTVSPost2010PropOp32
 70
     1
102
RTVSPost2010Prop33
280
     0
102
RTVSPost2010PropOp33
 70
     1
102
RTVSPost2010Prop34
280
     0
102
RTVSPost2010PropOp34
 70
     1
102
RTVSPost2010Prop35
280
     0
102
RTVSPost2010PropOp35
 70
     1
102
RTVSPost2010Prop36
280
     0
102
RTVSPost2010PropOp36
 70
     1
102
RTVSPost2010Prop37
 90
       50
102
RTVSPost2010PropOp37
 70
     1
102
RTVSPost2010Prop38
140
0.0
102
RTVSPost2010PropOp38
 70
     1
102
RTVSPost2010Prop39
140
1.0
102
RTVSPost2010PropOp39
 70
     1
102
RTVSPost2010Prop40
 90
        0
102
RTVSPost2010PropOp40
 70
     1
102
RTVSPost2010Prop41ColorIndex
 90
       18
102
RTVSPost2010Prop41ColorRGB
 90
        0
102
RTVSPost2010PropOp41
 70
     1
102
RTVSPost2010Prop42
 90
       50
102
RTVSPost2010PropOp42
 70
     1
102
RTVSPost2010Prop43
 90
        3
102
RTVSPost2010PropOp43
 70
     1
102
RTVSPost2010Prop44ColorIndex
 90
        5
102
RTVSPost2010Prop44ColorRGB
 90
      255
102
RTVSPost2010PropOp44
 70
     1
102
RTVSPost2010Prop45
280
     0
102
RTVSPost2010PropOp45
 70
     1
102
RTVSPost2010Prop46
 90
       50
102
RTVSPost2010PropOp46
 70
     1
102
RTVSPost2010Prop47
 90
       50
102
RTVSPost2010PropOp47
 70
     1
102
RTVSPost2010Prop48
 90
       50
102
RTVSPost2010PropOp48
 70
     1
102
RTVSPost2010Prop49
280
     0
102
RTVSPost2010PropOp49
 70
     1
102
RTVSPost2010Prop50
 90
       50
102
RTVSPost2010PropOp50
 70
     1
102
RTVSPost2010Prop51ColorIndex
 90
      256
102
RTVSPost2010Prop51ColorRGB
 90
-16777216
102
RTVSPost2010PropOp51
 70
     0
102
RTVSPost2010Prop52
140
1.0
102
RTVSPost2010PropOp52
 70
     0
102
RTVSPost2010Prop53
 90
        2
102
RTVSPost2010PropOp53
 70
     1
102
RTVSPost2010Prop54
  1
strokes_ogs.tif
102
RTVSPost2010PropOp54
 70
     1
102
RTVSPost2010Prop55
280
     0
102
RTVSPost2010PropOp55
 70
     1
102
RTVSPost2010Prop56
140
1.0
102
RTVSPost2010PropOp56
 70
     1
102
RTVSPost2010Prop57
140
1.0
102
RTVSPost2010PropOp57
 70
     1
102
RTVSPropertyOp0
 70
     1
102
RTVSPropertyOp1
 70
     1
102
RTVSPropertyOp2
 70
     1
102
RTVSPropertyOp3
 70
     1
102
RTVSPropertyOp4
 70
     1
102
RTVSPropertyOp5
 70
     1
102
RTVSPropertyOp6
 70
     1
102
RTVSPropertyOp7
 70
     1
102
RTVSPropertyOp8
 70
     1
102
RTVSPropertyOp9
 70
     1
102
RTVSPropertyOp10
 70
     1
102
RTVSPropertyOp11
 70
     1
102
RTVSPropertyOp12
 70
     1
102
RTVSPropertyOp13
 70
     1
102
RTVSPropertyOp14
 70
     1
102
RTVSPropertyOp15
 70
     1
102
RTVSPropertyOp16
 70
     1
102
RTVSPropertyOp17
 70
     1
102
RTVSPropertyOp18
 70
     1
102
RTVSPropertyOp19
 70
     1
102
RTVSPropertyOp20
 70
     1
102
RTVSPropertyOp21
 70
     1
102
RTVSPropertyOp22
 70
     1
102
RTVSPropertyOp23
 70
     1
102
RTVSPropertyOp24
 70
     1
102
RTVSPropertyOp25
 70
     1
102
RTVSPropertyOp26
 70
     1
102
RTVSPropertyOp27
 70
     1
102
RTVSPropertyOp28
 70
     1
102
RTVSPropertyOp29
 70
     1
102
RTVSPropertyOp30
 70
     1
102
RTVSPropertyOp31
 70
     1
102
RTVSPropertyOp32
 70
     1
102
RTVSPropertyOp33
 70
     1
102
RTVSPropertyOp34
 70
     1
102
RTVSPropertyOp35
 70
     1
102
RTVSPropertyOp36
 70
     1
102
RTVSPropertyOp37
 70
     1
102
RTVSPropertyOp38
 70
     1
102
RTVSPropertyOp39
 70
     1
102
RTVSPropertyOp40
 70
     1
102
RTVSPropertyOp41
 70
     1
102
RTVSPropertyOp42
 70
     1
102
RTVSPropertyOp43
 70
     1
102
RTVSPropertyOp44
 70
     1
102
RTVSPropertyOp45
 70
     1
102
RTVSPropertyOp46
 70
     1
102
RTVSPropertyOp47
 70
     1
102
RTVSPropertyOp48
 70
     1
102
RTVSPropertyOp49
 70
     1
102
RTVSPropertyOp50
 70
     1
102
RTVSPropertyOp51
 70
     0
102
RTVSPropertyOp52
 70
     0
102
RTVSPropertyOp53
 70
     1
102
RTVSPropertyOp54
 70
     1
102
RTVSPropertyOp55
 70
     1
102
RTVSPropertyOp56
 70
     1
102
RTVSPropertyOp57
 70
     1
102
RTVSPropertyOp58
 70
     1
102
RTVSPropertyOp59
 70
     1
102
RTVSPropertyOp60
 70
     1
102
RTVSPropertyOp61
 70
     1
102
RTVSPropertyOp62
 70
     1
  0
XRECORD
  5
B91B
102
{ACAD_REACTORS
330
B91A
102
}
330
B91A
100
AcDbXrecord
280
     1
102
RTVSPost2010Prop28
280
     0
102
RTVSPost2010PropOp28
 70
     1
102
RTVSPost2010Prop29
280
     1
102
RTVSPost2010PropOp29
 70
     1
102
RTVSPost2010Prop30
280
     1
102
RTVSPost2010PropOp30
 70
     1
102
RTVSPost2010Prop31
280
     0
102
RTVSPost2010PropOp31
 70
     1
102
RTVSPost2010Prop32
280
     0
102
RTVSPost2010PropOp32
 70
     1
102
RTVSPost2010Prop33
280
     0
102
RTVSPost2010PropOp33
 70
     1
102
RTVSPost2010Prop34
280
     0
102
RTVSPost2010PropOp34
 70
     1
102
RTVSPost2010Prop35
280
     0
102
RTVSPost2010PropOp35
 70
     1
102
RTVSPost2010Prop36
280
     0
102
RTVSPost2010PropOp36
 70
     1
102
RTVSPost2010Prop37
 90
       50
102
RTVSPost2010PropOp37
 70
     1
102
RTVSPost2010Prop38
140
0.0
102
RTVSPost2010PropOp38
 70
     1
102
RTVSPost2010Prop39
140
1.0
102
RTVSPost2010PropOp39
 70
     1
102
RTVSPost2010Prop40
 90
        0
102
RTVSPost2010PropOp40
 70
     1
102
RTVSPost2010Prop41ColorIndex
 90
       18
102
RTVSPost2010Prop41ColorRGB
 90
        0
102
RTVSPost2010PropOp41
 70
     1
102
RTVSPost2010Prop42
 90
       50
102
RTVSPost2010PropOp42
 70
     1
102
RTVSPost2010Prop43
 90
        3
102
RTVSPost2010PropOp43
 70
     1
102
RTVSPost2010Prop44ColorIndex
 90
        5
102
RTVSPost2010Prop44ColorRGB
 90
      255
102
RTVSPost2010PropOp44
 70
     1
102
RTVSPost2010Prop45
280
     0
102
RTVSPost2010PropOp45
 70
     1
102
RTVSPost2010Prop46
 90
       50
102
RTVSPost2010PropOp46
 70
     1
102
RTVSPost2010Prop47
 90
       50
102
RTVSPost2010PropOp47
 70
     1
102
RTVSPost2010Prop48
 90
       50
102
RTVSPost2010PropOp48
 70
     1
102
RTVSPost2010Prop49
280
     0
102
RTVSPost2010PropOp49
 70
     1
102
RTVSPost2010Prop50
 90
       50
102
RTVSPost2010PropOp50
 70
     1
102
RTVSPost2010Prop51ColorIndex
 90
      256
102
RTVSPost2010Prop51ColorRGB
 90
-16777216
102
RTVSPost2010PropOp51
 70
     0
102
RTVSPost2010Prop52
140
1.0
102
RTVSPost2010PropOp52
 70
     0
102
RTVSPost2010Prop53
 90
        2
102
RTVSPost2010PropOp53
 70
     1
102
RTVSPost2010Prop54
  1
strokes_ogs.tif
102
RTVSPost2010PropOp54
 70
     1
102
RTVSPost2010Prop55
280
     0
102
RTVSPost2010PropOp55
 70
     1
102
RTVSPost2010Prop56
140
1.0
102
RTVSPost2010PropOp56
 70
     1
102
RTVSPost2010Prop57
140
1.0
102
RTVSPost2010PropOp57
 70
     1
102
RTVSPropertyOp0
 70
     1
102
RTVSPropertyOp1
 70
     1
102
RTVSPropertyOp2
 70
     1
102
RTVSPropertyOp3
 70
     1
102
RTVSPropertyOp4
 70
     1
102
RTVSPropertyOp5
 70
     1
102
RTVSPropertyOp6
 70
     1
102
RTVSPropertyOp7
 70
     1
102
RTVSPropertyOp8
 70
     1
102
RTVSPropertyOp9
 70
     1
102
RTVSPropertyOp10
 70
     1
102
RTVSPropertyOp11
 70
     1
102
RTVSPropertyOp12
 70
     1
102
RTVSPropertyOp13
 70
     1
102
RTVSPropertyOp14
 70
     1
102
RTVSPropertyOp15
 70
     1
102
RTVSPropertyOp16
 70
     1
102
RTVSPropertyOp17
 70
     1
102
RTVSPropertyOp18
 70
     1
102
RTVSPropertyOp19
 70
     1
102
RTVSPropertyOp20
 70
     1
102
RTVSPropertyOp21
 70
     1
102
RTVSPropertyOp22
 70
     1
102
RTVSPropertyOp23
 70
     1
102
RTVSPropertyOp24
 70
     1
102
RTVSPropertyOp25
 70
     1
102
RTVSPropertyOp26
 70
     1
102
RTVSPropertyOp27
 70
     1
102
RTVSPropertyOp28
 70
     1
102
RTVSPropertyOp29
 70
     1
102
RTVSPropertyOp30
 70
     1
102
RTVSPropertyOp31
 70
     1
102
RTVSPropertyOp32
 70
     1
102
RTVSPropertyOp33
 70
     1
102
RTVSPropertyOp34
 70
     1
102
RTVSPropertyOp35
 70
     1
102
RTVSPropertyOp36
 70
     1
102
RTVSPropertyOp37
 70
     1
102
RTVSPropertyOp38
 70
     1
102
RTVSPropertyOp39
 70
     1
102
RTVSPropertyOp40
 70
     1
102
RTVSPropertyOp41
 70
     1
102
RTVSPropertyOp42
 70
     1
102
RTVSPropertyOp43
 70
     1
102
RTVSPropertyOp44
 70
     1
102
RTVSPropertyOp45
 70
     1
102
RTVSPropertyOp46
 70
     1
102
RTVSPropertyOp47
 70
     1
102
RTVSPropertyOp48
 70
     1
102
RTVSPropertyOp49
 70
     1
102
RTVSPropertyOp50
 70
     1
102
RTVSPropertyOp51
 70
     0
102
RTVSPropertyOp52
 70
     0
102
RTVSPropertyOp53
 70
     1
102
RTVSPropertyOp54
 70
     1
102
RTVSPropertyOp55
 70
     1
102
RTVSPropertyOp56
 70
     1
102
RTVSPropertyOp57
 70
     1
102
RTVSPropertyOp58
 70
     1
102
RTVSPropertyOp59
 70
     1
102
RTVSPropertyOp60
 70
     1
102
RTVSPropertyOp61
 70
     1
102
RTVSPropertyOp62
 70
     1
  0
XRECORD
  5
B90F
102
{ACAD_REACTORS
330
B90E
102
}
330
B90E
100
AcDbXrecord
280
     1
102
RTVSPost2010Prop28
280
     0
102
RTVSPost2010PropOp28
 70
     1
102
RTVSPost2010Prop29
280
     1
102
RTVSPost2010PropOp29
 70
     1
102
RTVSPost2010Prop30
280
     1
102
RTVSPost2010PropOp30
 70
     1
102
RTVSPost2010Prop31
280
     0
102
RTVSPost2010PropOp31
 70
     1
102
RTVSPost2010Prop32
280
     0
102
RTVSPost2010PropOp32
 70
     1
102
RTVSPost2010Prop33
280
     0
102
RTVSPost2010PropOp33
 70
     1
102
RTVSPost2010Prop34
280
     0
102
RTVSPost2010PropOp34
 70
     1
102
RTVSPost2010Prop35
280
     0
102
RTVSPost2010PropOp35
 70
     1
102
RTVSPost2010Prop36
280
     0
102
RTVSPost2010PropOp36
 70
     1
102
RTVSPost2010Prop37
 90
       50
102
RTVSPost2010PropOp37
 70
     1
102
RTVSPost2010Prop38
140
0.0
102
RTVSPost2010PropOp38
 70
     1
102
RTVSPost2010Prop39
140
1.0
102
RTVSPost2010PropOp39
 70
     1
102
RTVSPost2010Prop40
 90
        0
102
RTVSPost2010PropOp40
 70
     1
102
RTVSPost2010Prop41ColorIndex
 90
       18
102
RTVSPost2010Prop41ColorRGB
 90
        0
102
RTVSPost2010PropOp41
 70
     1
102
RTVSPost2010Prop42
 90
       50
102
RTVSPost2010PropOp42
 70
     1
102
RTVSPost2010Prop43
 90
        3
102
RTVSPost2010PropOp43
 70
     1
102
RTVSPost2010Prop44ColorIndex
 90
        5
102
RTVSPost2010Prop44ColorRGB
 90
      255
102
RTVSPost2010PropOp44
 70
     1
102
RTVSPost2010Prop45
280
     0
102
RTVSPost2010PropOp45
 70
     1
102
RTVSPost2010Prop46
 90
       50
102
RTVSPost2010PropOp46
 70
     1
102
RTVSPost2010Prop47
 90
       50
102
RTVSPost2010PropOp47
 70
     1
102
RTVSPost2010Prop48
 90
       50
102
RTVSPost2010PropOp48
 70
     1
102
RTVSPost2010Prop49
280
     0
102
RTVSPost2010PropOp49
 70
     1
102
RTVSPost2010Prop50
 90
       50
102
RTVSPost2010PropOp50
 70
     1
102
RTVSPost2010Prop51ColorIndex
 90
      256
102
RTVSPost2010Prop51ColorRGB
 90
-16777216
102
RTVSPost2010PropOp51
 70
     0
102
RTVSPost2010Prop52
140
1.0
102
RTVSPost2010PropOp52
 70
     0
102
RTVSPost2010Prop53
 90
        2
102
RTVSPost2010PropOp53
 70
     1
102
RTVSPost2010Prop54
  1
strokes_ogs.tif
102
RTVSPost2010PropOp54
 70
     1
102
RTVSPost2010Prop55
280
     0
102
RTVSPost2010PropOp55
 70
     1
102
RTVSPost2010Prop56
140
1.0
102
RTVSPost2010PropOp56
 70
     1
102
RTVSPost2010Prop57
140
1.0
102
RTVSPost2010PropOp57
 70
     1
102
RTVSPropertyOp0
 70
     1
102
RTVSPropertyOp1
 70
     1
102
RTVSPropertyOp2
 70
     1
102
RTVSPropertyOp3
 70
     1
102
RTVSPropertyOp4
 70
     1
102
RTVSPropertyOp5
 70
     1
102
RTVSPropertyOp6
 70
     1
102
RTVSPropertyOp7
 70
     1
102
RTVSPropertyOp8
 70
     1
102
RTVSPropertyOp9
 70
     1
102
RTVSPropertyOp10
 70
     1
102
RTVSPropertyOp11
 70
     1
102
RTVSPropertyOp12
 70
     1
102
RTVSPropertyOp13
 70
     1
102
RTVSPropertyOp14
 70
     1
102
RTVSPropertyOp15
 70
     1
102
RTVSPropertyOp16
 70
     1
102
RTVSPropertyOp17
 70
     1
102
RTVSPropertyOp18
 70
     1
102
RTVSPropertyOp19
 70
     1
102
RTVSPropertyOp20
 70
     1
102
RTVSPropertyOp21
 70
     1
102
RTVSPropertyOp22
 70
     1
102
RTVSPropertyOp23
 70
     1
102
RTVSPropertyOp24
 70
     1
102
RTVSPropertyOp25
 70
     1
102
RTVSPropertyOp26
 70
     1
102
RTVSPropertyOp27
 70
     1
102
RTVSPropertyOp28
 70
     1
102
RTVSPropertyOp29
 70
     1
102
RTVSPropertyOp30
 70
     1
102
RTVSPropertyOp31
 70
     1
102
RTVSPropertyOp32
 70
     1
102
RTVSPropertyOp33
 70
     1
102
RTVSPropertyOp34
 70
     1
102
RTVSPropertyOp35
 70
     1
102
RTVSPropertyOp36
 70
     1
102
RTVSPropertyOp37
 70
     1
102
RTVSPropertyOp38
 70
     1
102
RTVSPropertyOp39
 70
     1
102
RTVSPropertyOp40
 70
     1
102
RTVSPropertyOp41
 70
     1
102
RTVSPropertyOp42
 70
     1
102
RTVSPropertyOp43
 70
     1
102
RTVSPropertyOp44
 70
     1
102
RTVSPropertyOp45
 70
     1
102
RTVSPropertyOp46
 70
     1
102
RTVSPropertyOp47
 70
     1
102
RTVSPropertyOp48
 70
     1
102
RTVSPropertyOp49
 70
     1
102
RTVSPropertyOp50
 70
     1
102
RTVSPropertyOp51
 70
     0
102
RTVSPropertyOp52
 70
     0
102
RTVSPropertyOp53
 70
     1
102
RTVSPropertyOp54
 70
     1
102
RTVSPropertyOp55
 70
     1
102
RTVSPropertyOp56
 70
     1
102
RTVSPropertyOp57
 70
     1
102
RTVSPropertyOp58
 70
     1
102
RTVSPropertyOp59
 70
     1
102
RTVSPropertyOp60
 70
     1
102
RTVSPropertyOp61
 70
     1
102
RTVSPropertyOp62
 70
     1
  0
XRECORD
  5
B927
102
{ACAD_REACTORS
330
B926
102
}
330
B926
100
AcDbXrecord
280
     1
102
RTVSPost2010Prop28
280
     0
102
RTVSPost2010PropOp28
 70
     1
102
RTVSPost2010Prop29
280
     1
102
RTVSPost2010PropOp29
 70
     1
102
RTVSPost2010Prop30
280
     1
102
RTVSPost2010PropOp30
 70
     1
102
RTVSPost2010Prop31
280
     0
102
RTVSPost2010PropOp31
 70
     1
102
RTVSPost2010Prop32
280
     0
102
RTVSPost2010PropOp32
 70
     1
102
RTVSPost2010Prop33
280
     0
102
RTVSPost2010PropOp33
 70
     1
102
RTVSPost2010Prop34
280
     0
102
RTVSPost2010PropOp34
 70
     1
102
RTVSPost2010Prop35
280
     0
102
RTVSPost2010PropOp35
 70
     1
102
RTVSPost2010Prop36
280
     0
102
RTVSPost2010PropOp36
 70
     1
102
RTVSPost2010Prop37
 90
       50
102
RTVSPost2010PropOp37
 70
     1
102
RTVSPost2010Prop38
140
0.0
102
RTVSPost2010PropOp38
 70
     1
102
RTVSPost2010Prop39
140
1.0
102
RTVSPost2010PropOp39
 70
     1
102
RTVSPost2010Prop40
 90
        0
102
RTVSPost2010PropOp40
 70
     1
102
RTVSPost2010Prop41ColorIndex
 90
       18
102
RTVSPost2010Prop41ColorRGB
 90
        0
102
RTVSPost2010PropOp41
 70
     1
102
RTVSPost2010Prop42
 90
       50
102
RTVSPost2010PropOp42
 70
     1
102
RTVSPost2010Prop43
 90
        3
102
RTVSPost2010PropOp43
 70
     1
102
RTVSPost2010Prop44ColorIndex
 90
        5
102
RTVSPost2010Prop44ColorRGB
 90
      255
102
RTVSPost2010PropOp44
 70
     1
102
RTVSPost2010Prop45
280
     0
102
RTVSPost2010PropOp45
 70
     1
102
RTVSPost2010Prop46
 90
       50
102
RTVSPost2010PropOp46
 70
     1
102
RTVSPost2010Prop47
 90
       50
102
RTVSPost2010PropOp47
 70
     1
102
RTVSPost2010Prop48
 90
       50
102
RTVSPost2010PropOp48
 70
     1
102
RTVSPost2010Prop49
280
     0
102
RTVSPost2010PropOp49
 70
     1
102
RTVSPost2010Prop50
 90
       50
102
RTVSPost2010PropOp50
 70
     1
102
RTVSPost2010Prop51ColorIndex
 90
      256
102
RTVSPost2010Prop51ColorRGB
 90
-16777216
102
RTVSPost2010PropOp51
 70
     0
102
RTVSPost2010Prop52
140
1.0
102
RTVSPost2010PropOp52
 70
     0
102
RTVSPost2010Prop53
 90
        2
102
RTVSPost2010PropOp53
 70
     1
102
RTVSPost2010Prop54
  1
strokes_ogs.tif
102
RTVSPost2010PropOp54
 70
     1
102
RTVSPost2010Prop55
280
     0
102
RTVSPost2010PropOp55
 70
     1
102
RTVSPost2010Prop56
140
1.0
102
RTVSPost2010PropOp56
 70
     1
102
RTVSPost2010Prop57
140
1.0
102
RTVSPost2010PropOp57
 70
     1
102
RTVSPropertyOp0
 70
     1
102
RTVSPropertyOp1
 70
     1
102
RTVSPropertyOp2
 70
     1
102
RTVSPropertyOp3
 70
     1
102
RTVSPropertyOp4
 70
     1
102
RTVSPropertyOp5
 70
     1
102
RTVSPropertyOp6
 70
     1
102
RTVSPropertyOp7
 70
     1
102
RTVSPropertyOp8
 70
     1
102
RTVSPropertyOp9
 70
     1
102
RTVSPropertyOp10
 70
     1
102
RTVSPropertyOp11
 70
     1
102
RTVSPropertyOp12
 70
     1
102
RTVSPropertyOp13
 70
     1
102
RTVSPropertyOp14
 70
     1
102
RTVSPropertyOp15
 70
     1
102
RTVSPropertyOp16
 70
     1
102
RTVSPropertyOp17
 70
     1
102
RTVSPropertyOp18
 70
     1
102
RTVSPropertyOp19
 70
     1
102
RTVSPropertyOp20
 70
     1
102
RTVSPropertyOp21
 70
     1
102
RTVSPropertyOp22
 70
     1
102
RTVSPropertyOp23
 70
     1
102
RTVSPropertyOp24
 70
     1
102
RTVSPropertyOp25
 70
     1
102
RTVSPropertyOp26
 70
     1
102
RTVSPropertyOp27
 70
     1
102
RTVSPropertyOp28
 70
     1
102
RTVSPropertyOp29
 70
     1
102
RTVSPropertyOp30
 70
     1
102
RTVSPropertyOp31
 70
     1
102
RTVSPropertyOp32
 70
     1
102
RTVSPropertyOp33
 70
     1
102
RTVSPropertyOp34
 70
     1
102
RTVSPropertyOp35
 70
     1
102
RTVSPropertyOp36
 70
     1
102
RTVSPropertyOp37
 70
     1
102
RTVSPropertyOp38
 70
     1
102
RTVSPropertyOp39
 70
     1
102
RTVSPropertyOp40
 70
     1
102
RTVSPropertyOp41
 70
     1
102
RTVSPropertyOp42
 70
     1
102
RTVSPropertyOp43
 70
     1
102
RTVSPropertyOp44
 70
     1
102
RTVSPropertyOp45
 70
     1
102
RTVSPropertyOp46
 70
     1
102
RTVSPropertyOp47
 70
     1
102
RTVSPropertyOp48
 70
     1
102
RTVSPropertyOp49
 70
     1
102
RTVSPropertyOp50
 70
     1
102
RTVSPropertyOp51
 70
     0
102
RTVSPropertyOp52
 70
     0
102
RTVSPropertyOp53
 70
     1
102
RTVSPropertyOp54
 70
     1
102
RTVSPropertyOp55
 70
     1
102
RTVSPropertyOp56
 70
     1
102
RTVSPropertyOp57
 70
     1
102
RTVSPropertyOp58
 70
     1
102
RTVSPropertyOp59
 70
     1
102
RTVSPropertyOp60
 70
     1
102
RTVSPropertyOp61
 70
     1
102
RTVSPropertyOp62
 70
     1
  0
ENDSEC
  0
EOF
