  0
SECTION
  2
HEADER
  9
$ACADVER
  1
AC1027
  9
$DWGCODEPAGE
  3
ANSI_932
  9
$LTSCALE
 40
20.0
  9
$FILLMODE
 70
     1
  9
$CLAYER
  8
0
  9
$PDMODE
 70
     0
  9
$SPLFRAME
 70
     0
  9
$SPLINETYPE
 70
     6
  9
$SPLINESEGS
 70
     8
  9
$DIMASZ
 40
2.000000
  9
$DIMEXE
 40
1.500000
  9
$DIMEXO
 40
0.800000
  9
$DIMTAD
 70
     1
  9
$DIMTIH
 70
     0
  9
$DIMTOH
 70
     0
  9
$DIMTVP
 40
0.500000
  9
$DIMTXT
 40
3.100000
  9
$EXTMIN
 10
0.000000
 20
0.000000
 30
0.000000
  9
$EXTMAX
 10
297.000000
 20
420.000000
 30
0.000000
  9
$MEASUREMENT
 70
  1
  9
$LIMMIN
 10
0.000000
 20
0.000000
  9
$LIMMAX
 10
297.000000
 20
420.000000
  9
$HANDSEED
  5
495
  9
$LWDISPLAY
290
     0
  9
$DIMBLK
  1
_OPEN
  9
$DIMDEC
 70
     2
  9
$DIMADEC
 70
     2
  9
$DIMAUNIT
 70
     0
  9
$DIMZIN
 70
     8
  9
$DIMAZIN
 70
     2
  9
$DIMTOFL
 70
     1
  0
ENDSEC
  0
SECTION
  2
CLASSES
  0
ENDSEC
  0
SECTION
  2
TABLES
  0
TABLE
  2
VPORT
  5
464
100
AcDbSymbolTable
 70
     1
  0
VPORT
  5
465
100
AcDbSymbolTableRecord
100
AcDbViewportTableRecord
  2
*ACTIVE
 70
     0
 12
341.884311
 22
226.554889
 40
417.109778
 41
1.591352
  0
ENDTAB
  0
TABLE
  2
LTYPE
  5
466
100
AcDbSymbolTable
 70
     3
  0
LTYPE
  5
467
100
AcDbSymbolTableRecord
100
AcDbLinetypeTableRecord
  2
BYBLOCK
 70
     0
  3

 72
    65
 73
     0
 40
0.0
  0
LTYPE
  5
468
100
AcDbSymbolTableRecord
100
AcDbLinetypeTableRecord
  2
BYLAYER
 70
     0
  3

 72
    65
 73
     0
 40
0.0
  0
LTYPE
  5
469
100
AcDbSymbolTableRecord
100
AcDbLinetypeTableRecord
  2
CONTINUOUS
 70
     0
  3
Solid line (NEC CAE2D for Win R17.0 : 2022.11.25)
 72
    65
 73
     0
 40
0.0
  0
LTYPE
  5
46A
100
AcDbSymbolTableRecord
100
AcDbLinetypeTableRecord
  2
CENTER
 70
     0
  3
____ _ ____ _ ____ _ ____ _ ____ _ ____
 72
    65
 73
     4
 40
2.0
 49
1.25
 74
     0
 49
-0.25
 74
     0
 49
0.25
 74
     0
 49
-0.25
 74
     0
  0
LTYPE
  5
46B
100
AcDbSymbolTableRecord
100
AcDbLinetypeTableRecord
  2
PHANTOM
 70
     0
  3
______  __  __  ______  __  __  ______ 
 72
    65
 73
     6
 40
2.5
 49
1.25
 74
     0
 49
-0.25
 74
     0
 49
0.25
 74
     0
 49
-0.25
 74
     0
 49
0.25
 74
     0
 49
-0.25
 74
     0
  0
ENDTAB
  0
TABLE
  2
LAYER
  5
46C
100
AcDbSymbolTable
 70
    10
  0
LAYER
  5
46D
100
AcDbSymbolTableRecord
100
AcDbLayerTableRecord
  2
0
 70
     0
 62
     7
  6
CONTINUOUS
370
    -3
390

  0
LAYER
  5
46E
100
AcDbSymbolTableRecord
100
AcDbLayerTableRecord
  2
DXF0
 70
     0
 62
     7
  6
CONTINUOUS
370
    -3
390

  0
LAYER
  5
46F
100
AcDbSymbolTableRecord
100
AcDbLayerTableRecord
  2
4
 70
     0
 62
     1
  6
CONTINUOUS
370
    -3
390

  0
LAYER
  5
470
100
AcDbSymbolTableRecord
100
AcDbLayerTableRecord
  2
5
 70
     0
 62
     6
  6
CONTINUOUS
370
    -3
390

  0
LAYER
  5
471
100
AcDbSymbolTableRecord
100
AcDbLayerTableRecord
  2
1
 70
     0
 62
     7
  6
CONTINUOUS
370
    -3
390

  0
LAYER
  5
472
100
AcDbSymbolTableRecord
100
AcDbLayerTableRecord
  2
2
 70
     0
 62
     4
  6
CONTINUOUS
370
    -3
390

  0
LAYER
  5
473
100
AcDbSymbolTableRecord
100
AcDbLayerTableRecord
  2
3
 70
     0
 62
     2
  6
CONTINUOUS
370
    -3
390

  0
LAYER
  5
474
100
AcDbSymbolTableRecord
100
AcDbLayerTableRecord
  2
6
 70
     0
 62
     5
  6
CONTINUOUS
370
    -3
390

  0
LAYER
  5
475
100
AcDbSymbolTableRecord
100
AcDbLayerTableRecord
  2
7
 70
     0
 62
     3
  6
CONTINUOUS
370
    -3
390

  0
LAYER
  5
476
100
AcDbSymbolTableRecord
100
AcDbLayerTableRecord
  2
DXF1023
 70
     0
 62
    16
  6
CONTINUOUS
370
    -3
390

  0
ENDTAB
  0
TABLE
  2
STYLE
  5
477
100
AcDbSymbolTable
 70
     4
  0
STYLE
  5
478
100
AcDbSymbolTableRecord
100
AcDbTextStyleTableRecord
  2
STANDARD
 70
    64
 40
0.0
 41
1.0
 50
0.0
 71
     0
 42
3.000000000000000
  3
TXT
  4

  0
STYLE
  5
479
100
AcDbSymbolTableRecord
100
AcDbTextStyleTableRecord
  2
ANKTATE
 70
    68
 40
0.0
 41
1.0
 50
0.0
 71
     0
 42
3.000000000000000
  3
TXT
  4

  0
STYLE
  5
47A
100
AcDbSymbolTableRecord
100
AcDbTextStyleTableRecord
  2
KNJYOKO
 70
    64
 40
0.0
 41
1.0
 50
0.0
 71
     0
 42
3.000000000000000
  3
TXT
  4
BIGFONT
  0
STYLE
  5
47B
100
AcDbSymbolTableRecord
100
AcDbTextStyleTableRecord
  2
KNJTATE
 70
    68
 40
0.0
 41
1.0
 50
0.0
 71
     0
 42
3.000000000000000
  3
TXT
  4
BIGFONT
  0
ENDTAB
  0
TABLE
  2
VIEW
  5
47C
100
AcDbSymbolTable
 70
     0
  0
ENDTAB
  0
TABLE
  2
UCS
  5
47D
100
AcDbSymbolTable
 70
     0
  0
ENDTAB
  0
TABLE
  2
APPID
  5
47E
100
AcDbSymbolTable
 70
     1
  0
APPID
  5
47F
100
AcDbSymbolTableRecord
100
AcDbRegAppTableRecord
  2
ACAD
 70
     0
  0
ENDTAB
  0
TABLE
  2
DIMSTYLE
  5
480
100
AcDbSymbolTable
 70
     2
100
AcDbDimStyleTable
  0
DIMSTYLE
105
481
100
AcDbSymbolTableRecord
100
AcDbDimStyleTableRecord
  2
STANDARD
 70
     0
 41
2.000000
 44
1.500000
 42
0.800000
145
0.661290
140
3.100000
144
1.000000
146
0.645161
340
478
  0
DIMSTYLE
105
482
100
AcDbSymbolTableRecord
100
AcDbDimStyleTableRecord
  2
DXF001
 70
     0
 41
2.000000
 44
1.500000
 42
0.800000
145
0.661290
140
3.100000
144
1.000000
146
0.645161
 77
     1
 73
     0
 74
     0
271
     2
179
     2
275
     0
 78
     8
 79
     2
172
     1
340
478
  0
ENDTAB
  0
TABLE
  2
BLOCK_RECORD
  5
483
100
AcDbSymbolTable
 70
    12
  0
BLOCK_RECORD
  5
484
100
AcDbSymbolTableRecord
100
AcDbBlockTableRecord
  2
*MODEL_SPACE
  0
BLOCK_RECORD
  5
485
100
AcDbSymbolTableRecord
100
AcDbBlockTableRecord
  2
*PAPER_SPACE
  0
BLOCK_RECORD
  5
486
100
AcDbSymbolTableRecord
100
AcDbBlockTableRecord
  2
*PAPER_SPACE0
  0
BLOCK_RECORD
  5
1
100
AcDbSymbolTableRecord
100
AcDbBlockTableRecord
  2
_NONE
  0
BLOCK_RECORD
  5
4
100
AcDbSymbolTableRecord
100
AcDbBlockTableRecord
  2
_CLOSED
  0
BLOCK_RECORD
  5
B
100
AcDbSymbolTableRecord
100
AcDbBlockTableRecord
  2
_DOT
  0
BLOCK_RECORD
  5
13
100
AcDbSymbolTableRecord
100
AcDbBlockTableRecord
  2
_OPEN
  0
BLOCK_RECORD
  5
19
100
AcDbSymbolTableRecord
100
AcDbBlockTableRecord
  2
_ORIGIN
  0
BLOCK_RECORD
  5
1E
100
AcDbSymbolTableRecord
100
AcDbBlockTableRecord
  2
_OPEN30
  0
BLOCK_RECORD
  5
24
100
AcDbSymbolTableRecord
100
AcDbBlockTableRecord
  2
_BOXFILLED
  0
BLOCK_RECORD
  5
29
100
AcDbSymbolTableRecord
100
AcDbBlockTableRecord
  2
_BOXBLANK
  0
BLOCK_RECORD
  5
31
100
AcDbSymbolTableRecord
100
AcDbBlockTableRecord
  2
_OBLIQUE
  0
BLOCK_RECORD
  5
35
100
AcDbSymbolTableRecord
100
AcDbBlockTableRecord
  2
_OPEN90
  0
BLOCK_RECORD
  5
3B
100
AcDbSymbolTableRecord
100
AcDbBlockTableRecord
  2
_CLOSEDBLANK
  0
BLOCK_RECORD
  5
41
100
AcDbSymbolTableRecord
100
AcDbBlockTableRecord
  2
_DOTBLANK
  0
ENDTAB
  0
ENDSEC
  0
SECTION
  2
BLOCKS
  0
BLOCK
  5
487
100
AcDbEntity
  8
0
100
AcDbBlockBegin
  2
*MODEL_SPACE
 70
     0
 10
0.0
 20
0.0
 30
0.0
  3
*MODEL_SPACE
  1

  0
ENDBLK
  5
488
100
AcDbEntity
  8
0
100
AcDbBlockEnd
  0
BLOCK
  5
489
100
AcDbEntity
  8
0
100
AcDbBlockBegin
  2
*PAPER_SPACE
 70
     0
 10
0.0
 20
0.0
 30
0.0
  3
*PAPER_SPACE
  1

  0
ENDBLK
  5
48A
100
AcDbEntity
  8
0
100
AcDbBlockEnd
  0
BLOCK
  5
48B
100
AcDbEntity
  8
0
100
AcDbBlockBegin
  2
*PAPER_SPACE0
 70
     0
 10
0.0
 20
0.0
 30
0.0
  3
*PAPER_SPACE0
  1

  0
ENDBLK
  5
48C
100
AcDbEntity
  8
0
100
AcDbBlockEnd
  0
BLOCK
  5
2
330
1
100
AcDbEntity
  8
0
100
AcDbBlockBegin
  2
_NONE
 70
     0
 10
0.0
 20
0.0
 30
0.0
  3
_NONE
  1

  0
ENDBLK
  5
3
330
1
100
AcDbEntity
  8
0
100
AcDbBlockEnd
  0
BLOCK
  5
5
330
4
100
AcDbEntity
  8
0
100
AcDbBlockBegin
  2
_CLOSED
 70
     0
 10
0.0
 20
0.0
 30
0.0
  3
_CLOSED
  1

  0
LINE
  5
6
330
4
100
AcDbEntity
  8
0
  6
BYBLOCK
 62
     0
370
    -2
100
AcDbLine
 10
-1.0
 20
0.166667
 30
0.0
 11
0.0
 21
0.0
 31
0.0
  0
LINE
  5
7
330
4
100
AcDbEntity
  8
0
  6
BYBLOCK
 62
     0
370
    -2
100
AcDbLine
 10
0.0
 20
0.0
 30
0.0
 11
-1.0
 21
-0.166667
 31
0.0
  0
LINE
  5
8
330
4
100
AcDbEntity
  8
0
  6
BYBLOCK
 62
     0
370
    -2
100
AcDbLine
 10
-1.0
 20
0.166667
 30
0.0
 11
-1.0
 21
-0.166667
 31
0.0
  0
LINE
  5
9
330
4
100
AcDbEntity
  8
0
  6
BYBLOCK
 62
     0
370
    -2
100
AcDbLine
 10
0.0
 20
0.0
 30
0.0
 11
-1.0
 21
0.0
 31
0.0
  0
ENDBLK
  5
A
330
4
100
AcDbEntity
  8
0
100
AcDbBlockEnd
  0
BLOCK
  5
C
330
B
100
AcDbEntity
  8
0
100
AcDbBlockBegin
  2
_DOT
 70
     0
 10
0.0
 20
0.0
 30
0.0
  3
_DOT
  1

  0
POLYLINE
  5
D
330
B
100
AcDbEntity
  8
0
  6
BYBLOCK
 62
     0
370
    -2
100
AcDb2dPolyline
 66
     1
 10
0.0
 20
0.0
 30
0.0
 70
     1
 40
0.5
 41
0.5
  0
VERTEX
  5
E
330
B
100
AcDbEntity
  8
0
  6
BYBLOCK
 62
     0
370
    -2
100
AcDbVertex
100
AcDb2dVertex
 10
-0.25
 20
0.0
 30
0.0
 42
1.0
  0
VERTEX
  5
F
330
B
100
AcDbEntity
  8
0
  6
BYBLOCK
 62
     0
370
    -2
100
AcDbVertex
100
AcDb2dVertex
 10
0.25
 20
0.0
 30
0.0
 42
1.0
  0
SEQEND
  5
10
330
B
100
AcDbEntity
  8
0
  6
BYBLOCK
 62
     0
370
    -2
  0
LINE
  5
11
330
B
100
AcDbEntity
  8
0
  6
BYBLOCK
 62
     0
370
    -2
100
AcDbLine
 10
-0.5
 20
0.0
 30
0.0
 11
-1.0
 21
0.0
 31
0.0
  0
ENDBLK
  5
12
330
B
100
AcDbEntity
  8
0
100
AcDbBlockEnd
  0
BLOCK
  5
14
330
13
100
AcDbEntity
  8
0
100
AcDbBlockBegin
  2
_OPEN
 70
     0
 10
0.0
 20
0.0
 30
0.0
  3
_OPEN
  1

  0
LINE
  5
15
330
13
100
AcDbEntity
  8
0
  6
BYBLOCK
 62
     0
370
    -2
100
AcDbLine
 10
-1.0
 20
0.166667
 30
0.0
 11
0.0
 21
0.0
 31
0.0
  0
LINE
  5
16
330
13
100
AcDbEntity
  8
0
  6
BYBLOCK
 62
     0
370
    -2
100
AcDbLine
 10
0.0
 20
0.0
 30
0.0
 11
-1.0
 21
-0.166667
 31
0.0
  0
LINE
  5
17
330
13
100
AcDbEntity
  8
0
  6
BYBLOCK
 62
     0
370
    -2
100
AcDbLine
 10
0.0
 20
0.0
 30
0.0
 11
-1.0
 21
0.0
 31
0.0
  0
ENDBLK
  5
18
330
13
100
AcDbEntity
  8
0
100
AcDbBlockEnd
  0
BLOCK
  5
1A
330
19
100
AcDbEntity
  8
0
100
AcDbBlockBegin
  2
_ORIGIN
 70
     0
 10
0.0
 20
0.0
 30
0.0
  3
_ORIGIN
  1

  0
CIRCLE
  5
1B
330
19
100
AcDbEntity
  8
0
  6
BYBLOCK
 62
     0
370
    -2
100
AcDbCircle
 10
0.0
 20
0.0
 30
0.0
 40
0.5
  0
LINE
  5
1C
330
19
100
AcDbEntity
  8
0
  6
BYBLOCK
 62
     0
370
    -2
100
AcDbLine
 10
0.0
 20
0.0
 30
0.0
 11
-1.0
 21
0.0
 31
0.0
  0
ENDBLK
  5
1D
330
19
100
AcDbEntity
  8
0
100
AcDbBlockEnd
  0
BLOCK
  5
1F
330
1E
100
AcDbEntity
  8
0
100
AcDbBlockBegin
  2
_OPEN30
 70
     0
 10
0.0
 20
0.0
 30
0.0
  3
_OPEN30
  1

  0
LINE
  5
20
330
1E
100
AcDbEntity
  8
0
  6
BYBLOCK
 62
     0
370
    -2
100
AcDbLine
 10
-1.0
 20
0.267949
 30
0.0
 11
0.0
 21
0.0
 31
0.0
  0
LINE
  5
21
330
1E
100
AcDbEntity
  8
0
  6
BYBLOCK
 62
     0
370
    -2
100
AcDbLine
 10
0.0
 20
0.0
 30
0.0
 11
-1.0
 21
-0.267949
 31
0.0
  0
LINE
  5
22
330
1E
100
AcDbEntity
  8
0
  6
BYBLOCK
 62
     0
370
    -2
100
AcDbLine
 10
0.0
 20
0.0
 30
0.0
 11
-1.0
 21
0.0
 31
0.0
  0
ENDBLK
  5
23
330
1E
100
AcDbEntity
  8
0
100
AcDbBlockEnd
  0
BLOCK
  5
25
330
24
100
AcDbEntity
  8
0
100
AcDbBlockBegin
  2
_BOXFILLED
 70
     0
 10
0.0
 20
0.0
 30
0.0
  3
_BOXFILLED
  1

  0
SOLID
  5
26
330
24
100
AcDbEntity
  8
0
  6
BYBLOCK
 62
     0
370
    -2
100
AcDbTrace
 10
-0.5
 20
0.5
 30
0.0
 11
0.5
 21
0.5
 31
0.0
 12
-0.5
 22
-0.5
 32
0.0
 13
0.5
 23
-0.5
 33
0.0
  0
LINE
  5
27
330
24
100
AcDbEntity
  8
0
  6
BYBLOCK
 62
     0
370
    -2
100
AcDbLine
 10
-0.5
 20
0.0
 30
0.0
 11
-1.0
 21
0.0
 31
0.0
  0
ENDBLK
  5
28
330
24
100
AcDbEntity
  8
0
100
AcDbBlockEnd
  0
BLOCK
  5
2A
330
29
100
AcDbEntity
  8
0
100
AcDbBlockBegin
  2
_BOXBLANK
 70
     0
 10
0.0
 20
0.0
 30
0.0
  3
_BOXBLANK
  1

  0
LINE
  5
2B
330
29
100
AcDbEntity
  8
0
  6
BYBLOCK
 62
     0
370
    -2
100
AcDbLine
 10
-0.5
 20
-0.5
 30
0.0
 11
0.5
 21
-0.5
 31
0.0
  0
LINE
  5
2C
330
29
100
AcDbEntity
  8
0
  6
BYBLOCK
 62
     0
370
    -2
100
AcDbLine
 10
0.5
 20
-0.5
 30
0.0
 11
0.5
 21
0.5
 31
0.0
  0
LINE
  5
2D
330
29
100
AcDbEntity
  8
0
  6
BYBLOCK
 62
     0
370
    -2
100
AcDbLine
 10
0.5
 20
0.5
 30
0.0
 11
-0.5
 21
0.5
 31
0.0
  0
LINE
  5
2E
330
29
100
AcDbEntity
  8
0
  6
BYBLOCK
 62
     0
370
    -2
100
AcDbLine
 10
-0.5
 20
0.5
 30
0.0
 11
-0.5
 21
-0.5
 31
0.0
  0
LINE
  5
2F
330
29
100
AcDbEntity
  8
0
  6
BYBLOCK
 62
     0
370
    -2
100
AcDbLine
 10
-0.5
 20
0.0
 30
0.0
 11
-1.0
 21
0.0
 31
0.0
  0
ENDBLK
  5
30
330
29
100
AcDbEntity
  8
0
100
AcDbBlockEnd
  0
BLOCK
  5
32
330
31
100
AcDbEntity
  8
0
100
AcDbBlockBegin
  2
_OBLIQUE
 70
     0
 10
0.0
 20
0.0
 30
0.0
  3
_OBLIQUE
  1

  0
LINE
  5
33
330
31
100
AcDbEntity
  8
0
  6
BYBLOCK
 62
     0
370
    -2
100
AcDbLine
 10
-0.5
 20
-0.5
 30
0.0
 11
0.5
 21
0.5
 31
0.0
  0
ENDBLK
  5
34
330
31
100
AcDbEntity
  8
0
100
AcDbBlockEnd
  0
BLOCK
  5
36
330
35
100
AcDbEntity
  8
0
100
AcDbBlockBegin
  2
_OPEN90
 70
     0
 10
0.0
 20
0.0
 30
0.0
  3
_OPEN90
  1

  0
LINE
  5
37
330
35
100
AcDbEntity
  8
0
  6
BYBLOCK
 62
     0
370
    -2
100
AcDbLine
 10
-0.5
 20
0.5
 30
0.0
 11
0.0
 21
0.0
 31
0.0
  0
LINE
  5
38
330
35
100
AcDbEntity
  8
0
  6
BYBLOCK
 62
     0
370
    -2
100
AcDbLine
 10
0.0
 20
0.0
 30
0.0
 11
-0.5
 21
-0.5
 31
0.0
  0
LINE
  5
39
330
35
100
AcDbEntity
  8
0
  6
BYBLOCK
 62
     0
370
    -2
100
AcDbLine
 10
0.0
 20
0.0
 30
0.0
 11
-1.0
 21
0.0
 31
0.0
  0
ENDBLK
  5
3A
330
35
100
AcDbEntity
  8
0
100
AcDbBlockEnd
  0
BLOCK
  5
3C
330
3B
100
AcDbEntity
  8
0
100
AcDbBlockBegin
  2
_CLOSEDBLANK
 70
     0
 10
0.0
 20
0.0
 30
0.0
  3
_CLOSEDBLANK
  1

  0
LINE
  5
3D
330
3B
100
AcDbEntity
  8
0
  6
BYBLOCK
 62
     0
370
    -2
100
AcDbLine
 10
-1.0
 20
0.1666666666666666
 30
0.0
 11
0.0
 21
0.0
 31
0.0
  0
LINE
  5
3E
330
3B
100
AcDbEntity
  8
0
  6
BYBLOCK
 62
     0
370
    -2
100
AcDbLine
 10
0.0
 20
0.0
 30
0.0
 11
-1.0
 21
-0.1666666666666666
 31
0.0
  0
LINE
  5
3F
330
3B
100
AcDbEntity
  8
0
  6
BYBLOCK
 62
     0
370
    -2
100
AcDbLine
 10
-1.0
 20
0.1666666666666666
 30
0.0
 11
-1.0
 21
-0.1666666666666666
 31
0.0
  0
ENDBLK
  5
40
330
3B
100
AcDbEntity
  8
0
100
AcDbBlockEnd
  0
BLOCK
  5
42
330
41
100
AcDbEntity
  8
0
100
AcDbBlockBegin
  2
_DOTBLANK
 70
     0
 10
0.0
 20
0.0
 30
0.0
  3
_DOTBLANK
  1

  0
CIRCLE
  5
43
330
41
100
AcDbEntity
  8
0
  6
BYBLOCK
 62
     0
370
    -2
100
AcDbCircle
 10
0.0
 20
0.0
 30
0.0
 40
0.5
  0
LINE
  5
44
330
41
100
AcDbEntity
  8
0
  6
BYBLOCK
 62
     0
370
    -2
100
AcDbLine
 10
-0.5
 20
0.0
 30
0.0
 11
-1.0
 21
0.0
 31
0.0
  0
ENDBLK
  5
45
330
41
100
AcDbEntity
  8
0
100
AcDbBlockEnd
  0
ENDSEC
  0
SECTION
  2
ENTITIES
  0
ARC
  5
46
100
AcDbEntity
  8
1
  6
CONTINUOUS
 62
7
100
AcDbCircle
 10
511.4467630000000
 20
265.9216760000000
 30
0.000000000000000
 40
1.300000000000000
100
AcDbArc
 50
95.00000000000000
 51
164.1190000000000
  0
ARC
  5
47
100
AcDbEntity
  8
1
  6
CONTINUOUS
 62
7
100
AcDbCircle
 10
511.4467630000000
 20
261.7076759999998
 30
0.000000000000000
 40
1.300000000000000
100
AcDbArc
 50
195.8809999999998
 51
265.0000000000000
  0
LINE
  5
48
100
AcDbEntity
  8
4
  6
CENTER
 62
1
100
AcDbLine
 10
506.8537630000000
 20
263.8146759999999
 30
0.000000000000000
 11
515.9506630000000
 21
263.8146759999999
 31
0.000000000000000
  0
ARC
  5
49
100
AcDbEntity
  8
1
  6
CONTINUOUS
 62
7
100
AcDbCircle
 10
511.4467630000000
 20
219.7077180000000
 30
0.000000000000000
 40
1.300000000000000
100
AcDbArc
 50
195.8809999999998
 51
265.0000000000000
  0
ARC
  5
4A
100
AcDbEntity
  8
1
  6
CONTINUOUS
 62
7
100
AcDbCircle
 10
511.4467630000000
 20
223.9217180000000
 30
0.000000000000000
 40
1.300000000000000
100
AcDbArc
 50
95.00000000000000
 51
164.1190000000000
  0
LINE
  5
4B
100
AcDbEntity
  8
4
  6
CENTER
 62
1
100
AcDbLine
 10
506.8537630000000
 20
221.8147180000000
 30
0.000000000000000
 11
515.8081630000000
 21
221.8147180000000
 31
0.000000000000000
  0
LINE
  5
4C
100
AcDbEntity
  8
4
  6
CENTER
 62
1
100
AcDbLine
 10
510.4537630000000
 20
242.8147180000000
 30
0.000000000000000
 11
535.4537630000000
 21
242.8147180000000
 31
0.000000000000000
  0
ARC
  5
4D
100
AcDbEntity
  8
1
  6
CONTINUOUS
 62
7
100
AcDbCircle
 10
207.8396469999999
 20
176.8516179999998
 30
0.000000000000000
 40
1.000000000000000
100
AcDbArc
 50
271.0529999999998
 51
360.0000000000000
  0
ARC
  5
4E
100
AcDbEntity
  8
1
  6
CONTINUOUS
 62
7
100
AcDbCircle
 10
232.3399470000000
 20
177.8020180000000
 30
0.000000000000000
 40
1.500000000000000
100
AcDbArc
 50
271.0529999999998
 51
360.0000000000000
  0
LINE
  5
4F
100
AcDbEntity
  8
1
  6
CONTINUOUS
 62
7
100
AcDbLine
 10
60.77464700000000
 20
291.4213179999999
 30
0.000000000000000
 11
60.77464700000000
 21
171.8147180000000
 31
0.000000000000000
  0
LINE
  5
50
100
AcDbEntity
  8
1
  6
CONTINUOUS
 62
7
100
AcDbLine
 10
38.77464699999999
 20
291.4213179999999
 30
0.000000000000000
 11
38.77464699999999
 21
171.8147180000000
 31
0.000000000000000
  0
LINE
  5
51
100
AcDbEntity
  8
1
  6
CONTINUOUS
 62
7
100
AcDbLine
 10
200.8396470000000
 20
308.3147180000000
 30
0.000000000000000
 11
200.8396470000000
 21
175.3147180000000
 31
0.000000000000000
  0
LINE
  5
52
100
AcDbEntity
  8
1
  6
CONTINUOUS
 62
7
100
AcDbLine
 10
203.3396470000000
 20
312.8147180000000
 30
0.000000000000000
 11
203.3396470000000
 21
170.8147180000000
 31
0.000000000000000
  0
LINE
  5
53
100
AcDbEntity
  8
1
  6
CONTINUOUS
 62
7
100
AcDbLine
 10
206.8396469999999
 20
312.8147180000000
 30
0.000000000000000
 11
206.8396469999999
 21
170.8147180000000
 31
0.000000000000000
  0
LINE
  5
54
100
AcDbEntity
  8
1
  6
CONTINUOUS
 62
7
100
AcDbLine
 10
206.8396469999999
 20
175.8330179999999
 30
0.000000000000000
 11
232.3675470000001
 21
176.3023179999999
 31
0.000000000000000
  0
LINE
  5
55
100
AcDbEntity
  8
1
  6
CONTINUOUS
 62
7
100
AcDbLine
 10
61.02464699999998
 20
278.4376179999999
 30
0.000000000000000
 11
61.02464699999998
 21
170.8147180000000
 31
0.000000000000000
  0
LINE
  5
56
100
AcDbEntity
  8
1
  6
CONTINUOUS
 62
7
100
AcDbLine
 10
38.52464699999997
 20
278.4376179999999
 30
0.000000000000000
 11
38.52464699999997
 21
170.8147180000000
 31
0.000000000000000
  0
LINE
  5
57
100
AcDbEntity
  8
4
  6
CENTER
 62
1
100
AcDbLine
 10
49.77464699999998
 20
315.8147180000000
 30
0.000000000000000
 11
49.77464699999998
 21
163.8147179999999
 31
0.000000000000000
  0
LINE
  5
58
100
AcDbEntity
  8
1
  6
CONTINUOUS
 62
7
100
AcDbLine
 10
205.8396469999999
 20
312.8147180000000
 30
0.000000000000000
 11
205.8396469999999
 21
170.8147180000000
 31
0.000000000000000
  0
LINE
  5
59
100
AcDbEntity
  8
1
  6
CONTINUOUS
 62
7
100
AcDbLine
 10
69.77464700000000
 20
308.8147180000000
 30
0.000000000000000
 11
69.77464700000000
 21
174.8147180000000
 31
0.000000000000000
  0
LINE
  5
5A
100
AcDbEntity
  8
1
  6
CONTINUOUS
 62
7
100
AcDbLine
 10
29.77464700000000
 20
308.8147180000000
 30
0.000000000000000
 11
29.77464700000000
 21
174.8147180000000
 31
0.000000000000000
  0
MTEXT
  5
5B
100
AcDbEntity
  8
7
  6
CONTINUOUS
 62
3
100
AcDbMText
 10
10.00000000000000
 20
18.00000000000000
 30
0.000000000000000
 40
3.000000000000000
 41
0.000000000000000
 44
0.6739999771118164
 71
     7
 72
     1
  1
{\H0.94x;{TYPE No.THA-302J-2K(No.200)}}
 11
1.000000000000000
 21
0.000000000000000
 31
0.000000000000000
  7
STANDARD
  0
LINE
  5
5C
100
AcDbEntity
  8
1
  6
CONTINUOUS
 62
7
100
AcDbLine
 10
33.77464699999999
 20
170.8147180000000
 30
0.000000000000000
 11
65.77464700000000
 21
170.8147180000000
 31
0.000000000000000
  0
LINE
  5
5D
100
AcDbEntity
  8
1
  6
CONTINUOUS
 62
7
100
AcDbLine
 10
61.02464699999999
 20
175.3146179999999
 30
0.000000000000000
 11
66.91164700000002
 21
172.2867180000000
 31
0.000000000000000
  0
ARC
  5
5E
100
AcDbEntity
  8
1
  6
CONTINUOUS
 62
7
100
AcDbCircle
 10
33.77464699999999
 20
174.8147180000000
 30
0.000000000000000
 40
4.000000000000000
100
AcDbArc
 50
180.0000000000000
 51
270.0000000000000
  0
LINE
  5
5F
100
AcDbEntity
  8
5
  6
PHANTOM
 62
6
100
AcDbLine
 10
38.77464699999999
 20
166.8147180000000
 30
0.000000000000000
 11
60.77464700000000
 21
166.8147180000000
 31
0.000000000000000
  0
LINE
  5
60
100
AcDbEntity
  8
1
  6
CONTINUOUS
 62
7
100
AcDbLine
 10
39.21564699999999
 20
175.3147180000000
 30
0.000000000000000
 11
60.49764700000000
 21
175.3147180000000
 31
0.000000000000000
  0
LINE
  5
61
100
AcDbEntity
  8
5
  6
PHANTOM
 62
6
100
AcDbLine
 10
38.77464699999999
 20
170.8147180000000
 30
0.000000000000000
 11
38.77464699999999
 21
166.8147180000000
 31
0.000000000000000
  0
ARC
  5
62
100
AcDbEntity
  8
1
  6
CONTINUOUS
 62
7
100
AcDbCircle
 10
39.77464699999997
 20
171.8147180000000
 30
0.000000000000000
 40
1.000000000000000
100
AcDbArc
 50
180.0000000000000
 51
270.0000000000000
  0
LINE
  5
63
100
AcDbEntity
  8
1
  6
CONTINUOUS
 62
7
100
AcDbLine
 10
38.52464699999998
 20
175.3147180000001
 30
0.000000000000000
 11
32.34464699999999
 21
172.1364180000000
 31
0.000000000000000
  0
LINE
  5
64
100
AcDbEntity
  8
5
  6
PHANTOM
 62
6
100
AcDbLine
 10
60.77464700000000
 20
170.8147180000000
 30
0.000000000000000
 11
60.77464700000000
 21
166.8147180000000
 31
0.000000000000000
  0
ARC
  5
65
100
AcDbEntity
  8
1
  6
CONTINUOUS
 62
7
100
AcDbCircle
 10
59.77464699999998
 20
171.8147180000000
 30
0.000000000000000
 40
1.000000000000000
100
AcDbArc
 50
270.0000000000000
 51
360.0000000000000
  0
ARC
  5
66
100
AcDbEntity
  8
1
  6
CONTINUOUS
 62
7
100
AcDbCircle
 10
65.77464700000000
 20
174.8147180000000
 30
0.000000000000000
 40
4.000000000000000
100
AcDbArc
 50
270.0000000000000
 51
360.0000000000000
  0
LINE
  5
67
100
AcDbEntity
  8
1
  6
CONTINUOUS
 62
7
100
AcDbLine
 10
203.3396470000000
 20
89.10412699999999
 30
0.000000000000000
 11
200.8396470000000
 21
80.35412700000001
 31
0.000000000000000
  0
LINE
  5
68
100
AcDbEntity
  8
1
  6
CONTINUOUS
 62
7
100
AcDbLine
 10
205.8396469999999
 20
89.10412700000001
 30
0.000000000000000
 11
205.8396469999999
 21
49.10412700000001
 31
0.000000000000000
  0
LINE
  5
69
100
AcDbEntity
  8
1
  6
CONTINUOUS
 62
7
100
AcDbLine
 10
206.8396469999999
 20
89.10412700000001
 30
0.000000000000000
 11
206.8396469999999
 21
49.10412700000001
 31
0.000000000000000
  0
LINE
  5
6A
100
AcDbEntity
  8
1
  6
CONTINUOUS
 62
7
100
AcDbLine
 10
203.3396470000000
 20
89.10412700000001
 30
0.000000000000000
 11
203.3396470000000
 21
49.10412700000001
 31
0.000000000000000
  0
LINE
  5
6B
100
AcDbEntity
  8
1
  6
CONTINUOUS
 62
7
100
AcDbLine
 10
206.8396469999999
 20
55.10412699999999
 30
0.000000000000000
 11
232.3396470000000
 21
55.10412699999999
 31
0.000000000000000
  0
LINE
  5
6C
100
AcDbEntity
  8
1
  6
CONTINUOUS
 62
7
100
AcDbLine
 10
206.8396469999999
 20
83.10412700000001
 30
0.000000000000000
 11
232.3396470000000
 21
83.10412700000001
 31
0.000000000000000
  0
ARC
  5
6D
100
AcDbEntity
  8
1
  6
CONTINUOUS
 62
7
100
AcDbCircle
 10
223.3396470000000
 20
84.60412700000001
 30
0.000000000000000
 40
1.000000000000000
100
AcDbArc
 50
0.000000000000000
 51
90.00000000000000
  0
ARC
  5
6E
100
AcDbEntity
  8
1
  6
CONTINUOUS
 62
7
100
AcDbCircle
 10
223.3396470000000
 20
53.60412700000001
 30
0.000000000000000
 40
1.000000000000000
100
AcDbArc
 50
270.0000000000000
 51
360.0000000000000
  0
LINE
  5
6F
100
AcDbEntity
  8
4
  6
CENTER
 62
1
100
AcDbLine
 10
197.2724030000000
 20
69.10412700000001
 30
0.000000000000000
 11
245.3915540000000
 21
69.10412700000001
 31
0.000000000000000
  0
LINE
  5
70
100
AcDbEntity
  8
1
  6
CONTINUOUS
 62
7
100
AcDbLine
 10
200.8396470000000
 20
80.35412700000001
 30
0.000000000000000
 11
200.8396470000000
 21
57.85412700000001
 31
0.000000000000000
  0
ARC
  5
71
100
AcDbEntity
  8
1
  6
CONTINUOUS
 62
7
100
AcDbCircle
 10
300.2724029999999
 20
69.10412700000001
 30
0.000000000000000
 40
100.0000000000000
100
AcDbArc
 50
174.7307180000000
 51
185.2692820000000
  0
LINE
  5
72
100
AcDbEntity
  8
1
  6
CONTINUOUS
 62
7
100
AcDbLine
 10
206.8396469999999
 20
52.60412699999999
 30
0.000000000000000
 11
223.3396470000000
 21
52.60412699999999
 31
0.000000000000000
  0
ARC
  5
73
100
AcDbEntity
  8
1
  6
CONTINUOUS
 62
7
100
AcDbCircle
 10
202.6865439999999
 20
60.10412699999999
 30
0.000000000000000
 40
2.000000000000000
100
AcDbArc
 50
185.2692820000000
 51
202.5644840000000
  0
LINE
  5
74
100
AcDbEntity
  8
1
  6
CONTINUOUS
 62
7
100
AcDbLine
 10
203.3396470000000
 20
49.10412700000001
 30
0.000000000000000
 11
206.8396469999999
 21
49.10412700000001
 31
0.000000000000000
  0
LINE
  5
75
100
AcDbEntity
  8
1
  6
CONTINUOUS
 62
7
100
AcDbLine
 10
200.8396470000000
 20
57.85412700000001
 30
0.000000000000000
 11
203.3396470000000
 21
49.10412700000002
 31
0.000000000000000
  0
LINE
  5
76
100
AcDbEntity
  8
1
  6
CONTINUOUS
 62
7
100
AcDbLine
 10
206.8396469999999
 20
85.60412700000001
 30
0.000000000000000
 11
223.3396470000000
 21
85.60412700000001
 31
0.000000000000000
  0
ARC
  5
77
100
AcDbEntity
  8
1
  6
CONTINUOUS
 62
7
100
AcDbCircle
 10
202.6865439999999
 20
78.10412700000001
 30
0.000000000000000
 40
2.000000000000000
100
AcDbArc
 50
157.4355159999998
 51
174.7307180000000
  0
LINE
  5
78
100
AcDbEntity
  8
1
  6
CONTINUOUS
 62
7
100
AcDbLine
 10
233.8396470000000
 20
81.60412700000001
 30
0.000000000000000
 11
233.8396470000000
 21
56.60412700000001
 31
0.000000000000000
  0
LINE
  5
79
100
AcDbEntity
  8
1
  6
CONTINUOUS
 62
7
100
AcDbLine
 10
240.8399470000000
 20
76.17512700000000
 30
0.000000000000000
 11
240.8399470000000
 21
62.03312700000000
 31
0.000000000000000
  0
LINE
  5
7A
100
AcDbEntity
  8
2
  6
CONTINUOUS
 62
4
100
AcDbLine
 10
240.8399470000000
 20
69.10412699999999
 30
0.000000000000000
 11
236.8399470000000
 21
62.36984100000002
 31
0.000000000000000
  0
LINE
  5
7B
100
AcDbEntity
  8
2
  6
CONTINUOUS
 62
4
100
AcDbLine
 10
236.8399470000000
 20
68.76741300000000
 30
0.000000000000000
 11
240.8399470000000
 21
62.03312699999999
 31
0.000000000000000
  0
LINE
  5
7C
100
AcDbEntity
  8
1
  6
CONTINUOUS
 62
7
100
AcDbLine
 10
234.6399470000000
 20
82.10412700000001
 30
0.000000000000000
 11
234.6399470000000
 21
56.10412700000001
 31
0.000000000000000
  0
LINE
  5
7D
100
AcDbEntity
  8
1
  6
CONTINUOUS
 62
7
100
AcDbLine
 10
234.8399470000000
 20
56.10412700000001
 30
0.000000000000000
 11
234.8399470000000
 21
80.36242699999998
 31
0.000000000000000
  0
LINE
  5
7E
100
AcDbEntity
  8
1
  6
CONTINUOUS
 62
7
100
AcDbLine
 10
236.8399470000000
 20
56.10412700000001
 30
0.000000000000000
 11
236.8399470000000
 21
80.36242699999998
 31
0.000000000000000
  0
LINE
  5
7F
100
AcDbEntity
  8
1
  6
CONTINUOUS
 62
7
100
AcDbLine
 10
236.8399470000000
 20
62.03312700000000
 30
0.000000000000000
 11
240.8399470000000
 21
62.03312700000000
 31
0.000000000000000
  0
ARC
  5
80
100
AcDbEntity
  8
1
  6
CONTINUOUS
 62
7
100
AcDbCircle
 10
232.3396470000000
 20
56.60412700000001
 30
0.000000000000000
 40
1.500000000000000
100
AcDbArc
 50
270.0000000000000
 51
360.0000000000000
  0
LINE
  5
81
100
AcDbEntity
  8
1
  6
CONTINUOUS
 62
7
100
AcDbLine
 10
224.3396469999999
 20
55.10412699999999
 30
0.000000000000000
 11
224.3396469999999
 21
53.60412700000001
 31
0.000000000000000
  0
LINE
  5
82
100
AcDbEntity
  8
1
  6
CONTINUOUS
 62
7
100
AcDbLine
 10
234.8399470000000
 20
56.10412700000001
 30
0.000000000000000
 11
236.8399470000000
 21
56.10412700000001
 31
0.000000000000000
  0
ARC
  5
83
100
AcDbEntity
  8
1
  6
CONTINUOUS
 62
7
100
AcDbCircle
 10
233.6399469999999
 20
56.10412700000001
 30
0.000000000000000
 40
1.000000000000000
100
AcDbArc
 50
270.0000000000000
 51
360.0000000000000
  0
LINE
  5
84
100
AcDbEntity
  8
1
  6
CONTINUOUS
 62
7
100
AcDbLine
 10
234.6399470000000
 20
61.90412700000000
 30
0.000000000000000
 11
234.8399470000000
 21
61.90412700000000
 31
0.000000000000000
  0
LINE
  5
85
100
AcDbEntity
  8
1
  6
CONTINUOUS
 62
7
100
AcDbLine
 10
224.3396469999999
 20
55.10412699999999
 30
0.000000000000000
 11
233.6399469999999
 21
55.10412699999999
 31
0.000000000000000
  0
LINE
  5
86
100
AcDbEntity
  8
1
  6
CONTINUOUS
 62
7
100
AcDbLine
 10
223.5755109999999
 20
52.63234099999999
 30
0.000000000000000
 11
233.8758110000000
 21
55.13234099999999
 31
0.000000000000000
  0
LINE
  5
87
100
AcDbEntity
  8
1
  6
CONTINUOUS
 62
7
100
AcDbLine
 10
236.8399470000000
 20
76.17512700000000
 30
0.000000000000000
 11
240.8399470000000
 21
76.17512700000000
 31
0.000000000000000
  0
LINE
  5
88
100
AcDbEntity
  8
1
  6
CONTINUOUS
 62
7
100
AcDbLine
 10
236.8399470000000
 20
69.10412700000001
 30
0.000000000000000
 11
240.8399470000000
 21
69.10412700000001
 31
0.000000000000000
  0
LINE
  5
89
100
AcDbEntity
  8
2
  6
CONTINUOUS
 62
4
100
AcDbLine
 10
236.8399470000000
 20
75.83841300000000
 30
0.000000000000000
 11
240.8399470000000
 21
69.10412700000001
 31
0.000000000000000
  0
LINE
  5
8A
100
AcDbEntity
  8
2
  6
CONTINUOUS
 62
4
100
AcDbLine
 10
240.8399470000000
 20
76.17512700000002
 30
0.000000000000000
 11
236.8399470000000
 21
69.44084099999999
 31
0.000000000000000
  0
LINE
  5
8B
100
AcDbEntity
  8
1
  6
CONTINUOUS
 62
7
100
AcDbLine
 10
233.8396470000000
 20
68.10412700000001
 30
0.000000000000000
 11
234.6399470000000
 21
68.10412700000001
 31
0.000000000000000
  0
LINE
  5
8C
100
AcDbEntity
  8
1
  6
CONTINUOUS
 62
7
100
AcDbLine
 10
233.8396470000000
 20
70.10412700000001
 30
0.000000000000000
 11
234.6399470000000
 21
70.10412700000001
 31
0.000000000000000
  0
ARC
  5
8D
100
AcDbEntity
  8
1
  6
CONTINUOUS
 62
7
100
AcDbCircle
 10
232.3396470000000
 20
81.60412700000001
 30
0.000000000000000
 40
1.500000000000000
100
AcDbArc
 50
0.000000000000000
 51
90.00000000000000
  0
LINE
  5
8E
100
AcDbEntity
  8
1
  6
CONTINUOUS
 62
7
100
AcDbLine
 10
234.6399470000000
 20
76.30412699999998
 30
0.000000000000000
 11
234.8399470000000
 21
76.30412699999998
 31
0.000000000000000
  0
ARC
  5
8F
100
AcDbEntity
  8
1
  6
CONTINUOUS
 62
7
100
AcDbCircle
 10
233.6399469999999
 20
82.10412700000001
 30
0.000000000000000
 40
1.000000000000000
100
AcDbArc
 50
0.000000000000000
 51
90.00000000000000
  0
LINE
  5
90
100
AcDbEntity
  8
1
  6
CONTINUOUS
 62
7
100
AcDbLine
 10
224.3396469999999
 20
83.10412700000001
 30
0.000000000000000
 11
233.6399469999999
 21
83.10412700000001
 31
0.000000000000000
  0
LINE
  5
91
100
AcDbEntity
  8
1
  6
CONTINUOUS
 62
7
100
AcDbLine
 10
223.5755109999998
 20
85.57591300000000
 30
0.000000000000000
 11
233.8758109999999
 21
83.07591300000000
 31
0.000000000000000
  0
LINE
  5
92
100
AcDbEntity
  8
1
  6
CONTINUOUS
 62
7
100
AcDbLine
 10
234.8399470000000
 20
80.36242699999998
 30
0.000000000000000
 11
236.8399470000000
 21
80.36242699999998
 31
0.000000000000000
  0
LINE
  5
93
100
AcDbEntity
  8
1
  6
CONTINUOUS
 62
7
100
AcDbLine
 10
224.3396469999999
 20
84.60412700000001
 30
0.000000000000000
 11
224.3396469999999
 21
83.10412700000001
 31
0.000000000000000
  0
LINE
  5
94
100
AcDbEntity
  8
1
  6
CONTINUOUS
 62
7
100
AcDbLine
 10
203.3396470000000
 20
89.10412700000001
 30
0.000000000000000
 11
206.8396469999999
 21
89.10412700000001
 31
0.000000000000000
  0
LINE
  5
95
100
AcDbEntity
  8
1
  6
CONTINUOUS
 62
7
100
AcDbLine
 10
200.8396470000000
 20
175.3147180000000
 30
0.000000000000000
 11
203.3396470000000
 21
170.8147180000000
 31
0.000000000000000
  0
LINE
  5
96
100
AcDbEntity
  8
1
  6
CONTINUOUS
 62
7
100
AcDbLine
 10
203.3396470000000
 20
170.8147180000000
 30
0.000000000000000
 11
206.8396469999999
 21
170.8147180000000
 31
0.000000000000000
  0
LINE
  5
97
100
AcDbEntity
  8
5
  6
PHANTOM
 62
6
100
AcDbLine
 10
48.16804699999998
 20
278.8147180000000
 30
0.000000000000000
 11
130.7746469999998
 21
278.8147180000000
 31
0.000000000000000
  0
LINE
  5
98
100
AcDbEntity
  8
5
  6
PHANTOM
 62
6
100
AcDbLine
 10
48.16804699999998
 20
300.8147180000000
 30
0.000000000000000
 11
130.7746469999998
 21
300.8147180000000
 31
0.000000000000000
  0
LINE
  5
99
100
AcDbEntity
  8
4
  6
CENTER
 62
1
100
AcDbLine
 10
26.77464699999999
 20
289.8147180000000
 30
0.000000000000000
 11
136.2746469999999
 21
289.8147180000000
 31
0.000000000000000
  0
LINE
  5
9A
100
AcDbEntity
  8
1
  6
CONTINUOUS
 62
7
100
AcDbLine
 10
74.77454700000000
 20
269.8146779999999
 30
0.000000000000000
 11
74.77454700000000
 21
215.8147180000000
 31
0.000000000000000
  0
LINE
  5
9B
100
AcDbEntity
  8
1
  6
CONTINUOUS
 62
7
100
AcDbLine
 10
24.77464700000000
 20
269.8146779999999
 30
0.000000000000000
 11
24.77464700000000
 21
215.8147180000000
 31
0.000000000000000
  0
LINE
  5
9C
100
AcDbEntity
  8
1
  6
CONTINUOUS
 62
7
100
AcDbLine
 10
27.77464699999999
 20
212.8147180000000
 30
0.000000000000000
 11
29.77464700000000
 21
212.8147180000000
 31
0.000000000000000
  0
ARC
  5
9D
100
AcDbEntity
  8
1
  6
CONTINUOUS
 62
7
100
AcDbCircle
 10
27.77464699999999
 20
215.8147180000000
 30
0.000000000000000
 40
3.000000000000000
100
AcDbArc
 50
180.0000000000000
 51
270.0000000000000
  0
CIRCLE
  5
9E
100
AcDbEntity
  8
1
  6
CONTINUOUS
 62
7
100
AcDbCircle
 10
49.77464699999998
 20
195.8147180000000
 30
0.000000000000000
 40
7.650000000000000
  0
LINE
  5
9F
100
AcDbEntity
  8
1
  6
CONTINUOUS
 62
7
100
AcDbLine
 10
50.82464700000000
 20
199.3147180000000
 30
0.000000000000000
 11
50.82464700000000
 21
192.3147179999999
 31
0.000000000000000
  0
LINE
  5
A0
100
AcDbEntity
  8
1
  6
CONTINUOUS
 62
7
100
AcDbLine
 10
48.72464700000000
 20
199.3147180000000
 30
0.000000000000000
 11
48.72464700000000
 21
192.3147179999999
 31
0.000000000000000
  0
ARC
  5
A1
100
AcDbEntity
  8
1
  6
CONTINUOUS
 62
7
100
AcDbCircle
 10
49.77464699999998
 20
218.0647180000000
 30
0.000000000000000
 40
30.00000000000000
100
AcDbArc
 50
248.4900000000000
 51
291.5099999999998
  0
ARC
  5
A2
100
AcDbEntity
  8
1
  6
CONTINUOUS
 62
7
100
AcDbCircle
 10
49.77464699999998
 20
217.3948180000000
 30
0.000000000000000
 40
30.00000000000000
100
AcDbArc
 50
248.4900000000000
 51
291.5099999999998
  0
LINE
  5
A3
100
AcDbEntity
  8
1
  6
CONTINUOUS
 62
7
100
AcDbLine
 10
49.77464699999998
 20
180.3147180000000
 30
0.000000000000000
 11
44.77464699999998
 21
183.3146179999999
 31
0.000000000000000
  0
LINE
  5
A4
100
AcDbEntity
  8
1
  6
CONTINUOUS
 62
7
100
AcDbLine
 10
44.77464699999997
 20
183.3147180000000
 30
0.000000000000000
 11
54.77464699999998
 21
183.3147180000000
 31
0.000000000000000
  0
LINE
  5
A5
100
AcDbEntity
  8
4
  6
CENTER
 62
1
100
AcDbLine
 10
40.07564699999997
 20
195.8147180000000
 30
0.000000000000000
 11
59.84664699999999
 21
195.8147180000000
 31
0.000000000000000
  0
LINE
  5
A6
100
AcDbEntity
  8
1
  6
CONTINUOUS
 62
7
100
AcDbLine
 10
48.72464700000000
 20
192.3147179999999
 30
0.000000000000000
 11
50.82464700000000
 21
192.3147179999999
 31
0.000000000000000
  0
LINE
  5
A7
100
AcDbEntity
  8
1
  6
CONTINUOUS
 62
7
100
AcDbLine
 10
54.77464699999999
 20
183.3147180000000
 30
0.000000000000000
 11
49.77464699999999
 21
180.3147180000000
 31
0.000000000000000
  0
LINE
  5
A8
100
AcDbEntity
  8
1
  6
CONTINUOUS
 62
7
100
AcDbLine
 10
38.77464699999999
 20
205.8147180000000
 30
0.000000000000000
 11
60.77464700000000
 21
205.8147180000000
 31
0.000000000000000
  0
LINE
  5
A9
100
AcDbEntity
  8
1
  6
CONTINUOUS
 62
7
100
AcDbLine
 10
58.27464700000000
 20
206.3147180000000
 30
0.000000000000000
 11
41.27464699999999
 21
206.3147180000000
 31
0.000000000000000
  0
ARC
  5
AA
100
AcDbEntity
  8
1
  6
CONTINUOUS
 62
7
100
AcDbCircle
 10
41.27464699999999
 20
208.8147179999999
 30
0.000000000000000
 40
2.500000000000000
100
AcDbArc
 50
180.0000000000000
 51
270.0000000000000
  0
ARC
  5
AB
100
AcDbEntity
  8
1
  6
CONTINUOUS
 62
7
100
AcDbCircle
 10
58.27464700000000
 20
208.8147179999999
 30
0.000000000000000
 40
2.500000000000000
100
AcDbArc
 50
270.0000000000000
 51
360.0000000000000
  0
LINE
  5
AC
100
AcDbEntity
  8
1
  6
CONTINUOUS
 62
7
100
AcDbLine
 10
48.72464700000000
 20
199.3147180000000
 30
0.000000000000000
 11
50.82464700000000
 21
199.3147180000000
 31
0.000000000000000
  0
LINE
  5
AD
100
AcDbEntity
  8
1
  6
CONTINUOUS
 62
7
100
AcDbLine
 10
69.77464700000000
 20
212.8147180000000
 30
0.000000000000000
 11
71.77454700000000
 21
212.8147180000000
 31
0.000000000000000
  0
ARC
  5
AE
100
AcDbEntity
  8
1
  6
CONTINUOUS
 62
7
100
AcDbCircle
 10
71.77454700000000
 20
215.8147180000000
 30
0.000000000000000
 40
3.000000000000000
100
AcDbArc
 50
270.0000000000000
 51
360.0000000000000
  0
ARC
  5
AF
100
AcDbEntity
  8
1
  6
CONTINUOUS
 62
7
100
AcDbCircle
 10
49.77464699999998
 20
289.8147180000000
 30
0.000000000000000
 40
16.00000000000000
100
AcDbArc
 50
313.4329999999998
 51
585.0689999999998
  0
LINE
  5
B0
100
AcDbEntity
  8
1
  6
CONTINUOUS
 62
7
100
AcDbLine
 10
60.23364700000000
 20
307.9079179999999
 30
0.000000000000000
 11
66.73464700000001
 21
311.2513180000000
 31
0.000000000000000
  0
LINE
  5
B1
100
AcDbEntity
  8
1
  6
CONTINUOUS
 62
7
100
AcDbLine
 10
33.77464699999999
 20
312.8147180000000
 30
0.000000000000000
 11
65.77464700000000
 21
312.8147180000000
 31
0.000000000000000
  0
ARC
  5
B2
100
AcDbEntity
  8
1
  6
CONTINUOUS
 62
7
100
AcDbCircle
 10
40.52464699999997
 20
306.3147180000000
 30
0.000000000000000
 40
2.000000000000000
100
AcDbArc
 50
90.00000000000000
 51
180.0000000000000
  0
ARC
  5
B3
100
AcDbEntity
  8
1
  6
CONTINUOUS
 62
7
100
AcDbCircle
 10
59.02464699999999
 20
306.3147180000000
 30
0.000000000000000
 40
2.000000000000000
100
AcDbArc
 50
0.000000000000000
 51
90.00000000000000
  0
LINE
  5
B4
100
AcDbEntity
  8
1
  6
CONTINUOUS
 62
7
100
AcDbLine
 10
32.84664700000003
 20
311.2346180000001
 30
0.000000000000000
 11
39.31564700000004
 21
307.9079179999999
 31
0.000000000000000
  0
LINE
  5
B5
100
AcDbEntity
  8
1
  6
CONTINUOUS
 62
7
100
AcDbLine
 10
27.77464699999999
 20
272.8146779999998
 30
0.000000000000000
 11
29.77464700000000
 21
272.8146779999998
 31
0.000000000000000
  0
ARC
  5
B6
100
AcDbEntity
  8
1
  6
CONTINUOUS
 62
7
100
AcDbCircle
 10
27.77464699999999
 20
269.8146779999999
 30
0.000000000000000
 40
3.000000000000000
100
AcDbArc
 50
90.00000000000000
 51
180.0000000000000
  0
LINE
  5
B7
100
AcDbEntity
  8
1
  6
CONTINUOUS
 62
7
100
AcDbLine
 10
38.47464699999999
 20
301.1421179999999
 30
0.000000000000000
 11
38.47464699999999
 21
278.4873180000000
 31
0.000000000000000
  0
LINE
  5
B8
100
AcDbEntity
  8
1
  6
CONTINUOUS
 62
7
100
AcDbLine
 10
61.07464700000000
 20
301.1421179999999
 30
0.000000000000000
 11
61.07464700000000
 21
278.4873180000000
 31
0.000000000000000
  0
LINE
  5
B9
100
AcDbEntity
  8
1
  6
CONTINUOUS
 62
7
100
AcDbLine
 10
40.77464699999999
 20
293.4213180000000
 30
0.000000000000000
 11
58.77464699999999
 21
293.4213180000000
 31
0.000000000000000
  0
LINE
  5
BA
100
AcDbEntity
  8
1
  6
CONTINUOUS
 62
7
100
AcDbLine
 10
45.06664699999999
 20
290.8999180000000
 30
0.000000000000000
 11
54.53664700000000
 21
290.8999180000000
 31
0.000000000000000
  0
ARC
  5
BB
100
AcDbEntity
  8
1
  6
CONTINUOUS
 62
7
100
AcDbCircle
 10
40.77464699999999
 20
291.4213179999999
 30
0.000000000000000
 40
2.000000000000000
100
AcDbArc
 50
90.00000000000000
 51
180.0000000000000
  0
ARC
  5
BC
100
AcDbEntity
  8
1
  6
CONTINUOUS
 62
7
100
AcDbCircle
 10
40.77464699999999
 20
288.8999180000000
 30
0.000000000000000
 40
2.000000000000000
100
AcDbArc
 50
90.00000000000000
 51
180.0000000000000
  0
LINE
  5
BD
100
AcDbEntity
  8
1
  6
CONTINUOUS
 62
7
100
AcDbLine
 10
40.77464699999999
 20
290.8999180000000
 30
0.000000000000000
 11
44.17164699999999
 21
290.8999180000000
 31
0.000000000000000
  0
LINE
  5
BE
100
AcDbEntity
  8
1
  6
CONTINUOUS
 62
7
100
AcDbLine
 10
38.52464699999997
 20
306.3147180000000
 30
0.000000000000000
 11
38.52464699999997
 21
301.1917179999999
 31
0.000000000000000
  0
ARC
  5
BF
100
AcDbEntity
  8
1
  6
CONTINUOUS
 62
7
100
AcDbCircle
 10
58.77464699999999
 20
291.4213179999999
 30
0.000000000000000
 40
2.000000000000000
100
AcDbArc
 50
0.000000000000000
 51
90.00000000000000
  0
ARC
  5
C0
100
AcDbEntity
  8
1
  6
CONTINUOUS
 62
7
100
AcDbCircle
 10
58.77464699999999
 20
288.8999180000000
 30
0.000000000000000
 40
2.000000000000000
100
AcDbArc
 50
0.000000000000000
 51
90.00000000000000
  0
LINE
  5
C1
100
AcDbEntity
  8
1
  6
CONTINUOUS
 62
7
100
AcDbLine
 10
55.58064700000000
 20
290.8999180000000
 30
0.000000000000000
 11
58.77464699999999
 21
290.8999180000000
 31
0.000000000000000
  0
LINE
  5
C2
100
AcDbEntity
  8
1
  6
CONTINUOUS
 62
7
100
AcDbLine
 10
61.02464699999998
 20
306.3147180000000
 30
0.000000000000000
 11
61.02464699999998
 21
301.1917179999999
 31
0.000000000000000
  0
ARC
  5
C3
100
AcDbEntity
  8
1
  6
CONTINUOUS
 62
7
100
AcDbCircle
 10
33.77464699999999
 20
308.8147180000000
 30
0.000000000000000
 40
4.000000000000000
100
AcDbArc
 50
90.00000000000000
 51
180.0000000000000
  0
LINE
  5
C4
100
AcDbEntity
  8
1
  6
CONTINUOUS
 62
7
100
AcDbLine
 10
40.52464699999997
 20
308.3147180000000
 30
0.000000000000000
 11
59.02464699999999
 21
308.3147180000000
 31
0.000000000000000
  0
LINE
  5
C5
100
AcDbEntity
  8
1
  6
CONTINUOUS
 62
7
100
AcDbLine
 10
69.77464700000000
 20
272.8146779999998
 30
0.000000000000000
 11
71.77454700000000
 21
272.8146779999998
 31
0.000000000000000
  0
ARC
  5
C6
100
AcDbEntity
  8
1
  6
CONTINUOUS
 62
7
100
AcDbCircle
 10
71.77454700000000
 20
269.8146779999999
 30
0.000000000000000
 40
3.000000000000000
100
AcDbArc
 50
0.000000000000000
 51
90.00000000000000
  0
ARC
  5
C7
100
AcDbEntity
  8
1
  6
CONTINUOUS
 62
7
100
AcDbCircle
 10
65.77464700000000
 20
308.8147180000000
 30
0.000000000000000
 40
4.000000000000000
100
AcDbArc
 50
0.000000000000000
 51
90.00000000000000
  0
LINE
  5
C8
100
AcDbEntity
  8
1
  6
CONTINUOUS
 62
7
100
AcDbLine
 10
217.3396470000000
 20
282.8186180000000
 30
0.000000000000000
 11
217.3396470000000
 21
238.8147180000000
 31
0.000000000000000
  0
LINE
  5
C9
100
AcDbEntity
  8
1
  6
CONTINUOUS
 62
7
100
AcDbLine
 10
200.4399470000000
 20
290.0715180000000
 30
0.000000000000000
 11
200.4399470000000
 21
207.3147179999998
 31
0.000000000000000
  0
LINE
  5
CA
100
AcDbEntity
  8
1
  6
CONTINUOUS
 62
7
100
AcDbLine
 10
208.8396469999999
 20
284.9287180000000
 30
0.000000000000000
 11
208.8396469999999
 21
176.8516179999998
 31
0.000000000000000
  0
LINE
  5
CB
100
AcDbEntity
  8
1
  6
CONTINUOUS
 62
7
100
AcDbLine
 10
223.8396470000000
 20
267.3146779999999
 30
0.000000000000000
 11
223.8396470000000
 21
260.3146779999998
 31
0.000000000000000
  0
LINE
  5
CC
100
AcDbEntity
  8
5
  6
PHANTOM
 62
6
100
AcDbLine
 10
200.2727029999999
 20
289.6761950000000
 30
0.000000000000000
 11
193.7391399999999
 21
208.2476329999999
 31
0.000000000000000
  0
LINE
  5
CD
100
AcDbEntity
  8
5
  6
PHANTOM
 62
6
100
AcDbLine
 10
202.0737679999998
 20
294.5135380000000
 30
0.000000000000000
 11
144.3100819999999
 21
236.7497549999999
 31
0.000000000000000
  0
LINE
  5
CE
100
AcDbEntity
  8
5
  6
PHANTOM
 62
6
100
AcDbLine
 10
201.6644330000000
 20
280.8102039999998
 30
0.000000000000000
 11
160.4252469999998
 21
239.5711180000000
 31
0.000000000000000
  0
LINE
  5
CF
100
AcDbEntity
  8
5
  6
PHANTOM
 62
6
100
AcDbLine
 10
160.7932470000000
 20
230.0396179999999
 30
0.000000000000000
 11
156.9292470000000
 21
226.1750179999999
 31
0.000000000000000
  0
ARC
  5
D0
100
AcDbEntity
  8
5
  6
PHANTOM
 62
6
100
AcDbCircle
 10
163.2542469999999
 20
236.7427180000000
 30
0.000000000000000
 40
4.000000000000000
100
AcDbArc
 50
135.0000000000000
 51
210.0000000000000
  0
LINE
  5
D1
100
AcDbEntity
  8
5
  6
PHANTOM
 62
6
100
AcDbLine
 10
150.5646449999999
 20
229.7107100000000
 30
0.000000000000000
 11
154.1002470000000
 21
226.1750179999999
 31
0.000000000000000
  0
ARC
  5
D2
100
AcDbEntity
  8
5
  6
PHANTOM
 62
6
100
AcDbCircle
 10
155.5142469999998
 20
227.5893180000000
 30
0.000000000000000
 40
2.000000000000000
100
AcDbArc
 50
225.0000000000000
 51
315.0000000000000
  0
LINE
  5
D3
100
AcDbEntity
  8
5
  6
PHANTOM
 62
6
100
AcDbLine
 10
150.5646449999999
 20
229.7107099999999
 30
0.000000000000000
 11
144.3486300000000
 21
235.2989899999999
 31
0.000000000000000
  0
ARC
  5
D4
100
AcDbEntity
  8
5
  6
PHANTOM
 62
6
100
AcDbCircle
 10
145.0171890000000
 20
236.0426490000000
 30
0.000000000000000
 40
1.000000000000000
100
AcDbArc
 50
135.0000480000000
 51
228.0440440000000
  0
ARC
  5
D5
100
AcDbEntity
  8
5
  6
PHANTOM
 62
6
100
AcDbCircle
 10
159.3792469999999
 20
231.4538180000000
 30
0.000000000000000
 40
2.000000000000000
100
AcDbArc
 50
315.0000000000000
 51
390.0000000000000
  0
LINE
  5
D6
100
AcDbEntity
  8
5
  6
PHANTOM
 62
6
100
AcDbLine
 10
159.7902470000000
 20
234.7427180000000
 30
0.000000000000000
 11
161.1112469999999
 21
232.4538180000000
 31
0.000000000000000
  0
LINE
  5
D7
100
AcDbEntity
  8
1
  6
CONTINUOUS
 62
7
100
AcDbLine
 10
218.8396470000000
 20
237.8147180000000
 30
0.000000000000000
 11
218.8396470000000
 21
218.3147180000000
 31
0.000000000000000
  0
LINE
  5
D8
100
AcDbEntity
  8
1
  6
CONTINUOUS
 62
7
100
AcDbLine
 10
223.8396470000000
 20
225.3147180000000
 30
0.000000000000000
 11
223.8396470000000
 21
218.3147180000000
 31
0.000000000000000
  0
ARC
  5
D9
100
AcDbEntity
  8
1
  6
CONTINUOUS
 62
7
100
AcDbCircle
 10
223.3396470000000
 20
218.3147180000000
 30
0.000000000000000
 40
0.5000000000000000
100
AcDbArc
 50
270.0000000000000
 51
360.0000000000000
  0
LINE
  5
DA
100
AcDbEntity
  8
1
  6
CONTINUOUS
 62
7
100
AcDbLine
 10
221.8396470000000
 20
208.3147180000000
 30
0.000000000000000
 11
232.3399470000000
 21
208.3147180000000
 31
0.000000000000000
  0
ARC
  5
DB
100
AcDbEntity
  8
1
  6
CONTINUOUS
 62
7
100
AcDbCircle
 10
201.4399469999999
 20
207.3147179999998
 30
0.000000000000000
 40
1.000000000000000
100
AcDbArc
 50
180.0000000000000
 51
233.1086130000000
  0
LINE
  5
DC
100
AcDbEntity
  8
5
  6
PHANTOM
 62
6
100
AcDbLine
 10
200.8399470000001
 20
207.0028240000000
 30
0.000000000000000
 11
194.7090030000001
 21
207.1680160000000
 31
0.000000000000000
  0
ARC
  5
DD
100
AcDbEntity
  8
5
  6
PHANTOM
 62
6
100
AcDbCircle
 10
194.7359370000000
 20
208.1676530000000
 30
0.000000000000000
 40
1.000000000000000
100
AcDbArc
 50
175.4126010000000
 51
268.4565959999999
  0
ARC
  5
DE
100
AcDbEntity
  8
1
  6
CONTINUOUS
 62
7
100
AcDbCircle
 10
219.3396470000000
 20
218.3147180000000
 30
0.000000000000000
 40
0.5000000000000000
100
AcDbArc
 50
180.0000000000000
 51
270.0000000000000
  0
ARC
  5
DF
100
AcDbEntity
  8
1
  6
CONTINUOUS
 62
7
100
AcDbCircle
 10
221.8396470000000
 20
208.8147179999999
 30
0.000000000000000
 40
0.5000000000000000
100
AcDbArc
 50
180.0000000000000
 51
270.0000000000000
  0
ARC
  5
E0
100
AcDbEntity
  8
1
  6
CONTINUOUS
 62
7
100
AcDbCircle
 10
221.8396470000000
 20
217.3147180000000
 30
0.000000000000000
 40
0.5000000000000000
100
AcDbArc
 50
90.00000000000000
 51
180.0000000000000
  0
LINE
  5
E1
100
AcDbEntity
  8
1
  6
CONTINUOUS
 62
7
100
AcDbLine
 10
221.3396470000000
 20
217.3147180000000
 30
0.000000000000000
 11
221.3396470000000
 21
208.8147179999999
 31
0.000000000000000
  0
LINE
  5
E2
100
AcDbEntity
  8
1
  6
CONTINUOUS
 62
7
100
AcDbLine
 10
219.3396470000000
 20
217.8147180000000
 30
0.000000000000000
 11
223.3396470000000
 21
217.8147180000000
 31
0.000000000000000
  0
LINE
  5
E3
100
AcDbEntity
  8
1
  6
CONTINUOUS
 62
7
100
AcDbLine
 10
233.8399470000000
 20
206.8147179999999
 30
0.000000000000000
 11
233.8399470000000
 21
177.8020180000000
 31
0.000000000000000
  0
LINE
  5
E4
100
AcDbEntity
  8
4
  6
CENTER
 62
1
100
AcDbLine
 10
230.5592470000000
 20
193.3147179999999
 30
0.000000000000000
 11
237.4637470000000
 21
193.3147179999999
 31
0.000000000000000
  0
ARC
  5
E5
100
AcDbEntity
  8
1
  6
CONTINUOUS
 62
7
100
AcDbCircle
 10
232.3399470000000
 20
206.8147179999999
 30
0.000000000000000
 40
1.500000000000000
100
AcDbArc
 50
0.000000000000000
 51
90.00000000000000
  0
ARC
  5
E6
100
AcDbEntity
  8
1
  6
CONTINUOUS
 62
7
100
AcDbCircle
 10
223.3396470000000
 20
260.3146779999998
 30
0.000000000000000
 40
0.5000000000000000
100
AcDbArc
 50
270.0000000000000
 51
360.0000000000000
  0
ARC
  5
E7
100
AcDbEntity
  8
1
  6
CONTINUOUS
 62
7
100
AcDbCircle
 10
223.3396470000000
 20
225.3147180000000
 30
0.000000000000000
 40
0.5000000000000000
100
AcDbArc
 50
0.000000000000000
 51
90.00000000000000
  0
LINE
  5
E8
100
AcDbEntity
  8
4
  6
CENTER
 62
1
100
AcDbLine
 10
216.9776469999999
 20
221.8147180000000
 30
0.000000000000000
 11
227.3086469999999
 21
221.8147180000000
 31
0.000000000000000
  0
LINE
  5
E9
100
AcDbEntity
  8
4
  6
CENTER
 62
1
100
AcDbLine
 10
218.3106469999999
 20
263.8146759999999
 30
0.000000000000000
 11
227.6426470000000
 21
263.8146759999999
 31
0.000000000000000
  0
LINE
  5
EA
100
AcDbEntity
  8
1
  6
CONTINUOUS
 62
7
100
AcDbLine
 10
221.3396470000000
 20
259.3146779999999
 30
0.000000000000000
 11
221.3396470000000
 21
226.3147180000000
 31
0.000000000000000
  0
ARC
  5
EB
100
AcDbEntity
  8
1
  6
CONTINUOUS
 62
7
100
AcDbCircle
 10
217.8396470000000
 20
238.8147180000000
 30
0.000000000000000
 40
0.5000000000000000
100
AcDbArc
 50
180.0000000000000
 51
270.0000000000000
  0
ARC
  5
EC
100
AcDbEntity
  8
1
  6
CONTINUOUS
 62
7
100
AcDbCircle
 10
218.3396470000000
 20
237.8147180000000
 30
0.000000000000000
 40
0.5000000000000000
100
AcDbArc
 50
0.000000000000000
 51
90.00000000000000
  0
ARC
  5
ED
100
AcDbEntity
  8
1
  6
CONTINUOUS
 62
7
100
AcDbCircle
 10
219.3396470000000
 20
226.3147180000000
 30
0.000000000000000
 40
0.5000000000000000
100
AcDbArc
 50
180.0000000000000
 51
270.0000000000000
  0
ARC
  5
EE
100
AcDbEntity
  8
1
  6
CONTINUOUS
 62
7
100
AcDbCircle
 10
221.8396470000000
 20
226.3147180000000
 30
0.000000000000000
 40
0.5000000000000000
100
AcDbArc
 50
180.0000000000000
 51
270.0000000000000
  0
LINE
  5
EF
100
AcDbEntity
  8
1
  6
CONTINUOUS
 62
7
100
AcDbLine
 10
217.8396470000000
 20
238.3147180000000
 30
0.000000000000000
 11
218.3396470000000
 21
238.3147180000000
 31
0.000000000000000
  0
LINE
  5
F0
100
AcDbEntity
  8
1
  6
CONTINUOUS
 62
7
100
AcDbLine
 10
219.3396470000000
 20
225.8147180000000
 30
0.000000000000000
 11
223.3396470000000
 21
225.8147180000000
 31
0.000000000000000
  0
ARC
  5
F1
100
AcDbEntity
  8
1
  6
CONTINUOUS
 62
7
100
AcDbCircle
 10
221.8396470000000
 20
259.3146779999999
 30
0.000000000000000
 40
0.5000000000000000
100
AcDbArc
 50
90.00000000000000
 51
180.0000000000000
  0
ARC
  5
F2
100
AcDbEntity
  8
1
  6
CONTINUOUS
 62
7
100
AcDbCircle
 10
217.8396470000000
 20
259.3146779999999
 30
0.000000000000000
 40
0.5000000000000000
100
AcDbArc
 50
90.00000000000000
 51
180.0000000000000
  0
LINE
  5
F3
100
AcDbEntity
  8
1
  6
CONTINUOUS
 62
7
100
AcDbLine
 10
217.8396470000000
 20
259.8146779999999
 30
0.000000000000000
 11
223.3396470000000
 21
259.8146779999999
 31
0.000000000000000
  0
LINE
  5
F4
100
AcDbEntity
  8
5
  6
PHANTOM
 62
6
100
AcDbLine
 10
133.2746469999999
 20
298.3147180000000
 30
0.000000000000000
 11
133.2746469999999
 21
281.3147180000001
 31
0.000000000000000
  0
ARC
  5
F5
100
AcDbEntity
  8
5
  6
PHANTOM
 62
6
100
AcDbCircle
 10
130.7746469999998
 20
281.3147180000001
 30
0.000000000000000
 40
2.500000000000000
100
AcDbArc
 50
270.0000000000000
 51
360.0000000000000
  0
ARC
  5
F6
100
AcDbEntity
  8
5
  6
PHANTOM
 62
6
100
AcDbCircle
 10
130.7746469999998
 20
298.3147180000000
 30
0.000000000000000
 40
2.500000000000000
100
AcDbArc
 50
0.000000000000000
 51
90.00000000000000
  0
ARC
  5
F7
100
AcDbEntity
  8
1
  6
CONTINUOUS
 62
7
100
AcDbCircle
 10
207.8396469999999
 20
306.8147180000000
 30
0.000000000000000
 40
1.000000000000000
100
AcDbArc
 50
0.000000000000000
 51
90.00000000000000
  0
ARC
  5
F8
100
AcDbEntity
  8
1
  6
CONTINUOUS
 62
7
100
AcDbCircle
 10
223.3396470000000
 20
267.3146779999999
 30
0.000000000000000
 40
0.5000000000000000
100
AcDbArc
 50
0.000000000000000
 51
90.00000000000000
  0
LINE
  5
F9
100
AcDbEntity
  8
1
  6
CONTINUOUS
 62
7
100
AcDbLine
 10
208.8396469999999
 20
306.0647180000001
 30
0.000000000000000
 11
224.3396469999999
 21
306.0647180000001
 31
0.000000000000000
  0
LINE
  5
FA
100
AcDbEntity
  8
1
  6
CONTINUOUS
 62
7
100
AcDbLine
 10
217.8396470000000
 20
273.5646779999999
 30
0.000000000000000
 11
224.3396469999999
 21
273.5646779999999
 31
0.000000000000000
  0
LINE
  5
FB
100
AcDbEntity
  8
4
  6
CENTER
 62
1
100
AcDbLine
 10
194.8076470000000
 20
289.8147180000000
 30
0.000000000000000
 11
245.1376460000000
 21
289.8147180000000
 31
0.000000000000000
  0
ARC
  5
FC
100
AcDbEntity
  8
1
  6
CONTINUOUS
 62
7
100
AcDbCircle
 10
129.7976469999998
 20
289.8147180000000
 30
0.000000000000000
 40
72.42839999999998
100
AcDbArc
 50
348.7740000000001
 51
371.2257000000000
  0
ARC
  5
FD
100
AcDbEntity
  8
1
  6
CONTINUOUS
 62
7
100
AcDbCircle
 10
221.8396470000000
 20
273.0646779999998
 30
0.000000000000000
 40
0.5000000000000000
100
AcDbArc
 50
90.00000000000000
 51
180.0000000000000
  0
ARC
  5
FE
100
AcDbEntity
  8
1
  6
CONTINUOUS
 62
7
100
AcDbCircle
 10
221.8396470000000
 20
268.3146779999999
 30
0.000000000000000
 40
0.5000000000000000
100
AcDbArc
 50
180.0000000000000
 51
270.0000000000000
  0
ARC
  5
FF
100
AcDbEntity
  8
1
  6
CONTINUOUS
 62
7
100
AcDbCircle
 10
217.8396470000000
 20
268.3146779999999
 30
0.000000000000000
 40
0.5000000000000000
100
AcDbArc
 50
180.0000000000000
 51
270.0000000000000
  0
ARC
  5
100
100
AcDbEntity
  8
1
  6
CONTINUOUS
 62
7
100
AcDbCircle
 10
217.8396470000000
 20
273.0646779999998
 30
0.000000000000000
 40
0.5000000000000000
100
AcDbArc
 50
90.00000000000000
 51
180.0000000000000
  0
LINE
  5
101
100
AcDbEntity
  8
1
  6
CONTINUOUS
 62
7
100
AcDbLine
 10
208.8396469999999
 20
282.8186180000000
 30
0.000000000000000
 11
217.3396470000000
 21
282.8186180000000
 31
0.000000000000000
  0
LINE
  5
102
100
AcDbEntity
  8
1
  6
CONTINUOUS
 62
7
100
AcDbLine
 10
217.8396470000000
 20
267.8146779999999
 30
0.000000000000000
 11
223.3396470000000
 21
267.8146779999999
 31
0.000000000000000
  0
LINE
  5
103
100
AcDbEntity
  8
1
  6
CONTINUOUS
 62
7
100
AcDbLine
 10
221.3396470000000
 20
273.0646779999998
 30
0.000000000000000
 11
221.3396470000000
 21
268.3146779999999
 31
0.000000000000000
  0
LINE
  5
104
100
AcDbEntity
  8
1
  6
CONTINUOUS
 62
7
100
AcDbLine
 10
206.8396469999999
 20
307.8147180000001
 30
0.000000000000000
 11
207.8396469999999
 21
307.8147180000001
 31
0.000000000000000
  0
ARC
  5
105
100
AcDbEntity
  8
1
  6
CONTINUOUS
 62
7
100
AcDbCircle
 10
202.4399470000000
 20
290.0715180000000
 30
0.000000000000000
 40
2.000000000000000
100
AcDbArc
 50
143.1444289999998
 51
180.0000000000000
  0
LINE
  5
106
100
AcDbEntity
  8
1
  6
CONTINUOUS
 62
7
100
AcDbLine
 10
208.8396469999999
 20
306.8147180000000
 30
0.000000000000000
 11
208.8396469999999
 21
293.4235179999999
 31
0.000000000000000
  0
LINE
  5
107
100
AcDbEntity
  8
1
  6
CONTINUOUS
 62
7
100
AcDbLine
 10
234.8399470000000
 20
276.8147180000000
 30
0.000000000000000
 11
234.8399470000000
 21
298.5615179999999
 31
0.000000000000000
  0
LINE
  5
108
100
AcDbEntity
  8
2
  6
CONTINUOUS
 62
4
100
AcDbLine
 10
236.8399470000000
 20
289.4779989999999
 30
0.000000000000000
 11
240.8399470000000
 21
282.7436180000000
 31
0.000000000000000
  0
LINE
  5
109
100
AcDbEntity
  8
2
  6
CONTINUOUS
 62
4
100
AcDbLine
 10
240.8399470000001
 20
289.8147180000000
 30
0.000000000000000
 11
236.8399470000001
 21
283.0803369999998
 31
0.000000000000000
  0
LINE
  5
10A
100
AcDbEntity
  8
1
  6
CONTINUOUS
 62
7
100
AcDbLine
 10
240.8399470000000
 20
296.8857180000000
 30
0.000000000000000
 11
240.8399470000000
 21
282.7436180000000
 31
0.000000000000000
  0
LINE
  5
10B
100
AcDbEntity
  8
1
  6
CONTINUOUS
 62
7
100
AcDbLine
 10
236.8399470000000
 20
301.0730340000000
 30
0.000000000000000
 11
236.8399470000000
 21
276.8147180000000
 31
0.000000000000000
  0
LINE
  5
10C
100
AcDbEntity
  8
1
  6
CONTINUOUS
 62
7
100
AcDbLine
 10
234.6399470000000
 20
300.6400179999999
 30
0.000000000000000
 11
234.6399470000000
 21
278.0148179999998
 31
0.000000000000000
  0
LINE
  5
10D
100
AcDbEntity
  8
1
  6
CONTINUOUS
 62
7
100
AcDbLine
 10
224.3396469999999
 20
306.0647180000001
 30
0.000000000000000
 11
224.3396469999999
 21
273.5646779999999
 31
0.000000000000000
  0
LINE
  5
10E
100
AcDbEntity
  8
1
  6
CONTINUOUS
 62
7
100
AcDbLine
 10
236.8399470000000
 20
282.7436180000000
 30
0.000000000000000
 11
240.8399470000000
 21
282.7436180000000
 31
0.000000000000000
  0
LINE
  5
10F
100
AcDbEntity
  8
1
  6
CONTINUOUS
 62
7
100
AcDbLine
 10
234.6399470000000
 20
282.6147179999999
 30
0.000000000000000
 11
234.8399470000000
 21
282.6147179999999
 31
0.000000000000000
  0
ARC
  5
110
100
AcDbEntity
  8
1
  6
CONTINUOUS
 62
7
100
AcDbCircle
 10
233.6399469999999
 20
278.3147180000000
 30
0.000000000000000
 40
1.000000000000000
100
AcDbArc
 50
270.0000000000000
 51
360.0000000000000
  0
ARC
  5
111
100
AcDbEntity
  8
1
  6
CONTINUOUS
 62
7
100
AcDbCircle
 10
233.6399469999999
 20
278.0148179999998
 30
0.000000000000000
 40
1.000000000000000
100
AcDbArc
 50
290.0049999999998
 51
360.0000000000000
  0
LINE
  5
112
100
AcDbEntity
  8
1
  6
CONTINUOUS
 62
7
100
AcDbLine
 10
234.8399470000000
 20
284.8147180000001
 30
0.000000000000000
 11
236.8399470000000
 21
284.8147180000001
 31
0.000000000000000
  0
LINE
  5
113
100
AcDbEntity
  8
1
  6
CONTINUOUS
 62
7
100
AcDbLine
 10
234.8399470000000
 20
283.5647180000000
 30
0.000000000000000
 11
236.8399470000000
 21
283.5647180000000
 31
0.000000000000000
  0
LINE
  5
114
100
AcDbEntity
  8
1
  6
CONTINUOUS
 62
7
100
AcDbLine
 10
234.8399470000000
 20
276.8147180000000
 30
0.000000000000000
 11
236.8399470000000
 21
276.8147180000000
 31
0.000000000000000
  0
LINE
  5
115
100
AcDbEntity
  8
1
  6
CONTINUOUS
 62
7
100
AcDbLine
 10
224.3396469999999
 20
277.3147180000000
 30
0.000000000000000
 11
233.6399469999999
 21
277.3147180000000
 31
0.000000000000000
  0
LINE
  5
116
100
AcDbEntity
  8
1
  6
CONTINUOUS
 62
7
100
AcDbLine
 10
233.9820470000000
 20
277.0751180000000
 30
0.000000000000000
 11
224.3396469999999
 21
273.5646780000000
 31
0.000000000000000
  0
LINE
  5
117
100
AcDbEntity
  8
1
  6
CONTINUOUS
 62
7
100
AcDbLine
 10
236.8399470000000
 20
289.8147180000000
 30
0.000000000000000
 11
240.8399470000000
 21
289.8147180000000
 31
0.000000000000000
  0
LINE
  5
118
100
AcDbEntity
  8
2
  6
CONTINUOUS
 62
4
100
AcDbLine
 10
236.8399470000000
 20
296.5490040000000
 30
0.000000000000000
 11
240.8399470000000
 21
289.8147180000000
 31
0.000000000000000
  0
LINE
  5
119
100
AcDbEntity
  8
2
  6
CONTINUOUS
 62
4
100
AcDbLine
 10
240.8399470000000
 20
296.8857180000000
 30
0.000000000000000
 11
236.8399470000000
 21
290.1514319999999
 31
0.000000000000000
  0
LINE
  5
11A
100
AcDbEntity
  8
1
  6
CONTINUOUS
 62
7
100
AcDbLine
 10
236.8399470000000
 20
296.8857180000000
 30
0.000000000000000
 11
240.8399470000000
 21
296.8857180000000
 31
0.000000000000000
  0
LINE
  5
11B
100
AcDbEntity
  8
1
  6
CONTINUOUS
 62
7
100
AcDbLine
 10
234.6399470000000
 20
297.0147180000000
 30
0.000000000000000
 11
234.8399470000000
 21
297.0147180000000
 31
0.000000000000000
  0
LINE
  5
11C
100
AcDbEntity
  8
1
  6
CONTINUOUS
 62
7
100
AcDbLine
 10
236.6399470000000
 20
298.5615179999999
 30
0.000000000000000
 11
236.6399470000000
 21
303.3147180000000
 31
0.000000000000000
  0
LINE
  5
11D
100
AcDbEntity
  8
1
  6
CONTINUOUS
 62
7
100
AcDbLine
 10
236.8399470000000
 20
299.8147180000001
 30
0.000000000000000
 11
236.6399470000000
 21
299.8147180000001
 31
0.000000000000000
  0
LINE
  5
11E
100
AcDbEntity
  8
1
  6
CONTINUOUS
 62
7
100
AcDbLine
 10
236.8399470000000
 20
301.0730340000000
 30
0.000000000000000
 11
236.6399470000000
 21
301.0730340000000
 31
0.000000000000000
  0
ARC
  5
11F
100
AcDbEntity
  8
1
  6
CONTINUOUS
 62
7
100
AcDbCircle
 10
236.1399470000000
 20
303.3147180000000
 30
0.000000000000000
 40
0.5000000000000000
100
AcDbArc
 50
0.000000000000000
 51
90.00000000000000
  0
LINE
  5
120
100
AcDbEntity
  8
1
  6
CONTINUOUS
 62
7
100
AcDbLine
 10
224.3396469999999
 20
288.8147180000000
 30
0.000000000000000
 11
234.6399470000000
 21
288.8147180000000
 31
0.000000000000000
  0
LINE
  5
121
100
AcDbEntity
  8
1
  6
CONTINUOUS
 62
7
100
AcDbLine
 10
224.3396469999999
 20
290.8147180000000
 30
0.000000000000000
 11
234.6399470000000
 21
290.8147180000000
 31
0.000000000000000
  0
LINE
  5
122
100
AcDbEntity
  8
1
  6
CONTINUOUS
 62
7
100
AcDbLine
 10
224.3396469999999
 20
306.0647180000001
 30
0.000000000000000
 11
230.5199470000000
 21
303.8147180000001
 31
0.000000000000000
  0
LINE
  5
123
100
AcDbEntity
  8
1
  6
CONTINUOUS
 62
7
100
AcDbLine
 10
224.3396469999999
 20
300.6400179999999
 30
0.000000000000000
 11
234.6399470000000
 21
300.6400179999999
 31
0.000000000000000
  0
LINE
  5
124
100
AcDbEntity
  8
1
  6
CONTINUOUS
 62
7
100
AcDbLine
 10
224.3396469999999
 20
302.3147180000000
 30
0.000000000000000
 11
236.6399470000000
 21
302.3147180000000
 31
0.000000000000000
  0
LINE
  5
125
100
AcDbEntity
  8
1
  6
CONTINUOUS
 62
7
100
AcDbLine
 10
234.6399470000000
 20
298.5615179999999
 30
0.000000000000000
 11
236.6399470000000
 21
298.5615179999999
 31
0.000000000000000
  0
LINE
  5
126
100
AcDbEntity
  8
1
  6
CONTINUOUS
 62
7
100
AcDbLine
 10
224.3396469999999
 20
303.8147180000001
 30
0.000000000000000
 11
236.1399470000000
 21
303.8147180000001
 31
0.000000000000000
  0
LINE
  5
127
100
AcDbEntity
  8
1
  6
CONTINUOUS
 62
7
100
AcDbLine
 10
203.3396470000000
 20
312.8147180000000
 30
0.000000000000000
 11
200.8396470000000
 21
308.3147180000000
 31
0.000000000000000
  0
LINE
  5
128
100
AcDbEntity
  8
1
  6
CONTINUOUS
 62
7
100
AcDbLine
 10
203.3396470000000
 20
312.8147180000000
 30
0.000000000000000
 11
206.8396469999999
 21
312.8147180000000
 31
0.000000000000000
  0
ARC
  5
129
100
AcDbEntity
  8
1
  6
CONTINUOUS
 62
7
100
AcDbCircle
 10
420.3929050000000
 20
180.8147179999999
 30
0.000000000000000
 40
5.000000000000000
100
AcDbArc
 50
270.0000000000000
 51
360.0000000000000
  0
ARC
  5
12A
100
AcDbEntity
  8
1
  6
CONTINUOUS
 62
7
100
AcDbCircle
 10
397.3929049999999
 20
180.8147179999999
 30
0.000000000000000
 40
5.000000000000000
100
AcDbArc
 50
180.0000000000000
 51
270.0000000000000
  0
LINE
  5
12B
100
AcDbEntity
  8
1
  6
CONTINUOUS
 62
7
100
AcDbLine
 10
428.8928049999998
 20
212.8147180000000
 30
0.000000000000000
 11
428.8928049999998
 21
174.8147180000000
 31
0.000000000000000
  0
LINE
  5
12C
100
AcDbEntity
  8
1
  6
CONTINUOUS
 62
7
100
AcDbLine
 10
388.8929049999999
 20
212.8147180000000
 30
0.000000000000000
 11
388.8929049999999
 21
174.8147180000000
 31
0.000000000000000
  0
LINE
  5
12D
100
AcDbEntity
  8
4
  6
CENTER
 62
1
100
AcDbLine
 10
408.8929049999999
 20
315.8147180000000
 30
0.000000000000000
 11
408.8929049999999
 21
163.8147179999999
 31
0.000000000000000
  0
ARC
  5
12E
100
AcDbEntity
  8
1
  6
CONTINUOUS
 62
7
100
AcDbCircle
 10
293.7730270000000
 20
86.26312699999997
 30
0.000000000000000
 40
3.641000000000000
100
AcDbArc
 50
90.00000000000000
 51
153.2113730000000
  0
ARC
  5
12F
100
AcDbEntity
  8
1
  6
CONTINUOUS
 62
7
100
AcDbCircle
 10
302.0320469999999
 20
85.60412700000001
 30
0.000000000000000
 40
2.299999999999998
100
AcDbArc
 50
0.000000000000000
 51
90.00000000000000
  0
ARC
  5
130
100
AcDbEntity
  8
1
  6
CONTINUOUS
 62
7
100
AcDbCircle
 10
302.0320469999999
 20
85.60412700000001
 30
0.000000000000000
 40
4.299999999999998
100
AcDbArc
 50
0.000000000000000
 51
90.00000000000000
  0
LINE
  5
131
100
AcDbEntity
  8
1
  6
CONTINUOUS
 62
7
100
AcDbLine
 10
285.3320469999999
 20
94.10412700000001
 30
0.000000000000000
 11
285.3320469999999
 21
87.90412700000000
 31
0.000000000000000
  0
LINE
  5
132
100
AcDbEntity
  8
1
  6
CONTINUOUS
 62
7
100
AcDbLine
 10
287.6320469999999
 20
94.10412700000001
 30
0.000000000000000
 11
287.6320469999999
 21
87.90412700000000
 31
0.000000000000000
  0
ARC
  5
133
100
AcDbEntity
  8
1
  6
CONTINUOUS
 62
7
100
AcDbCircle
 10
287.6320469999999
 20
87.90412700000000
 30
0.000000000000000
 40
2.299999999999998
100
AcDbArc
 50
180.0000000000000
 51
270.0000000000000
  0
LINE
  5
134
100
AcDbEntity
  8
1
  6
CONTINUOUS
 62
7
100
AcDbLine
 10
285.3320469999999
 20
44.10412700000001
 30
0.000000000000000
 11
287.6320469999999
 21
44.10412700000001
 31
0.000000000000000
  0
ARC
  5
135
100
AcDbEntity
  8
1
  6
CONTINUOUS
 62
7
100
AcDbCircle
 10
287.6320469999999
 20
50.30412700000000
 30
0.000000000000000
 40
2.299999999999998
100
AcDbArc
 50
90.00000000000000
 51
180.0000000000000
  0
LINE
  5
136
100
AcDbEntity
  8
1
  6
CONTINUOUS
 62
7
100
AcDbLine
 10
267.8824470000000
 20
63.00412699999998
 30
0.000000000000000
 11
267.8824470000000
 21
75.20412700000000
 31
0.000000000000000
  0
LINE
  5
137
100
AcDbEntity
  8
1
  6
CONTINUOUS
 62
7
100
AcDbLine
 10
271.8824470000000
 20
74.10412700000001
 30
0.000000000000000
 11
271.8824470000000
 21
64.10412700000001
 31
0.000000000000000
  0
ARC
  5
138
100
AcDbEntity
  8
1
  6
CONTINUOUS
 62
7
100
AcDbCircle
 10
264.6620469999999
 20
66.60412700000001
 30
0.000000000000000
 40
7.220389999999997
100
AcDbArc
 50
339.7419999999998
 51
380.2576000000000
  0
ARC
  5
139
100
AcDbEntity
  8
1
  6
CONTINUOUS
 62
7
100
AcDbCircle
 10
275.1028470000000
 20
66.60412700000001
 30
0.000000000000000
 40
7.220389999999997
100
AcDbArc
 50
159.7419999999999
 51
200.2580000000000
  0
LINE
  5
13A
100
AcDbEntity
  8
1
  6
CONTINUOUS
 62
7
100
AcDbLine
 10
264.7824469999999
 20
80.10412700000001
 30
0.000000000000000
 11
264.7824469999999
 21
58.10412700000000
 31
0.000000000000000
  0
LINE
  5
13B
100
AcDbEntity
  8
1
  6
CONTINUOUS
 62
7
100
AcDbLine
 10
262.7824469999999
 20
80.10412700000001
 30
0.000000000000000
 11
262.7824469999999
 21
58.10412700000000
 31
0.000000000000000
  0
LINE
  5
13C
100
AcDbEntity
  8
1
  6
CONTINUOUS
 62
7
100
AcDbLine
 10
266.3824470000000
 20
61.10412700000001
 30
0.000000000000000
 11
266.3824470000000
 21
77.10412700000001
 31
0.000000000000000
  0
LINE
  5
13D
100
AcDbEntity
  8
1
  6
CONTINUOUS
 62
7
100
AcDbLine
 10
271.8824470000000
 20
64.10412700000001
 30
0.000000000000000
 11
267.8824470000000
 21
64.10412700000001
 31
0.000000000000000
  0
LINE
  5
13E
100
AcDbEntity
  8
1
  6
CONTINUOUS
 62
7
100
AcDbLine
 10
264.7824469999999
 20
58.10412700000000
 30
0.000000000000000
 11
262.7824469999999
 21
58.10412700000000
 31
0.000000000000000
  0
LINE
  5
13F
100
AcDbEntity
  8
1
  6
CONTINUOUS
 62
7
100
AcDbLine
 10
267.8824470000000
 20
63.00412699999998
 30
0.000000000000000
 11
266.3824470000000
 21
63.00412699999998
 31
0.000000000000000
  0
LINE
  5
140
100
AcDbEntity
  8
1
  6
CONTINUOUS
 62
7
100
AcDbLine
 10
266.3824470000000
 20
61.10412700000001
 30
0.000000000000000
 11
264.7824469999999
 21
61.10412700000001
 31
0.000000000000000
  0
LINE
  5
141
100
AcDbEntity
  8
1
  6
CONTINUOUS
 62
7
100
AcDbLine
 10
285.3320469999999
 20
50.30412700000000
 30
0.000000000000000
 11
285.3320469999999
 21
44.10412700000001
 31
0.000000000000000
  0
LINE
  5
142
100
AcDbEntity
  8
1
  6
CONTINUOUS
 62
7
100
AcDbLine
 10
271.3368469999999
 20
69.10412700000001
 30
0.000000000000000
 11
268.3290470000000
 21
69.10412700000001
 31
0.000000000000000
  0
LINE
  5
143
100
AcDbEntity
  8
1
  6
CONTINUOUS
 62
7
100
AcDbLine
 10
271.8824470000000
 20
74.10412700000001
 30
0.000000000000000
 11
267.8824470000000
 21
74.10412700000001
 31
0.000000000000000
  0
LINE
  5
144
100
AcDbEntity
  8
4
  6
CENTER
 62
1
100
AcDbLine
 10
274.7158470000000
 20
69.10412700000001
 30
0.000000000000000
 11
259.7824469999999
 21
69.10412700000001
 31
0.000000000000000
  0
LINE
  5
145
100
AcDbEntity
  8
1
  6
CONTINUOUS
 62
7
100
AcDbLine
 10
266.3824470000000
 20
69.10412700000001
 30
0.000000000000000
 11
267.8824470000000
 21
70.60412700000001
 31
0.000000000000000
  0
LINE
  5
146
100
AcDbEntity
  8
1
  6
CONTINUOUS
 62
7
100
AcDbLine
 10
266.3824470000001
 20
67.60412700000003
 30
0.000000000000000
 11
267.8824470000001
 21
69.10412700000003
 31
0.000000000000000
  0
LINE
  5
147
100
AcDbEntity
  8
1
  6
CONTINUOUS
 62
7
100
AcDbLine
 10
264.7824469999999
 20
80.10412700000001
 30
0.000000000000000
 11
262.7824469999999
 21
80.10412700000001
 31
0.000000000000000
  0
LINE
  5
148
100
AcDbEntity
  8
1
  6
CONTINUOUS
 62
7
100
AcDbLine
 10
266.3824470000000
 20
77.10412700000001
 30
0.000000000000000
 11
264.7824469999999
 21
77.10412700000001
 31
0.000000000000000
  0
LINE
  5
149
100
AcDbEntity
  8
1
  6
CONTINUOUS
 62
7
100
AcDbLine
 10
267.8824470000000
 20
75.20412700000000
 30
0.000000000000000
 11
266.3824470000000
 21
75.20412700000000
 31
0.000000000000000
  0
ARC
  5
14A
100
AcDbEntity
  8
1
  6
CONTINUOUS
 62
7
100
AcDbCircle
 10
275.1028470000000
 20
71.60412700000001
 30
0.000000000000000
 40
7.220389999999997
100
AcDbArc
 50
159.7419999999999
 51
200.2580000000000
  0
ARC
  5
14B
100
AcDbEntity
  8
1
  6
CONTINUOUS
 62
7
100
AcDbCircle
 10
264.6620469999999
 20
71.60412700000001
 30
0.000000000000000
 40
7.220389999999997
100
AcDbArc
 50
339.7419999999998
 51
380.2576000000000
  0
LINE
  5
14C
100
AcDbEntity
  8
1
  6
CONTINUOUS
 62
7
100
AcDbLine
 10
307.3320470000000
 20
72.90412899999998
 30
0.000000000000000
 11
307.3320470000000
 21
65.30412900000000
 31
0.000000000000000
  0
ARC
  5
14D
100
AcDbEntity
  8
1
  6
CONTINUOUS
 62
7
100
AcDbCircle
 10
308.3390469999998
 20
66.99712700000001
 30
0.000000000000000
 40
1.300000000000000
100
AcDbArc
 50
275.0000000000000
 51
344.1190000000001
  0
LINE
  5
14E
100
AcDbEntity
  8
1
  6
CONTINUOUS
 62
7
100
AcDbLine
 10
306.3320469999999
 20
85.60412700000001
 30
0.000000000000000
 11
306.3320469999999
 21
52.60412699999999
 31
0.000000000000000
  0
LINE
  5
14F
100
AcDbEntity
  8
1
  6
CONTINUOUS
 62
7
100
AcDbLine
 10
304.3320469999999
 20
85.60412700000001
 30
0.000000000000000
 11
304.3320469999999
 21
52.60412699999999
 31
0.000000000000000
  0
LINE
  5
150
100
AcDbEntity
  8
1
  6
CONTINUOUS
 62
7
100
AcDbLine
 10
302.0320469999999
 20
85.60412700000001
 30
0.000000000000000
 11
302.0320469999999
 21
52.60412699999999
 31
0.000000000000000
  0
ARC
  5
151
100
AcDbEntity
  8
1
  6
CONTINUOUS
 62
7
100
AcDbCircle
 10
302.0320469999999
 20
52.60412699999999
 30
0.000000000000000
 40
2.299999999999998
100
AcDbArc
 50
270.0000000000000
 51
360.0000000000000
  0
ARC
  5
152
100
AcDbEntity
  8
1
  6
CONTINUOUS
 62
7
100
AcDbCircle
 10
302.0320469999999
 20
52.60412699999999
 30
0.000000000000000
 40
4.299999999999998
100
AcDbArc
 50
270.0000000000000
 51
360.0000000000000
  0
ARC
  5
153
100
AcDbEntity
  8
1
  6
CONTINUOUS
 62
7
100
AcDbCircle
 10
293.7730270000000
 20
51.94512700000000
 30
0.000000000000000
 40
3.641000000000000
100
AcDbArc
 50
206.7886269999998
 51
270.0000000000000
  0
LINE
  5
154
100
AcDbEntity
  8
1
  6
CONTINUOUS
 62
7
100
AcDbLine
 10
287.6320469999999
 20
52.60412699999999
 30
0.000000000000000
 11
302.0320469999999
 21
52.60412699999999
 31
0.000000000000000
  0
LINE
  5
155
100
AcDbEntity
  8
1
  6
CONTINUOUS
 62
7
100
AcDbLine
 10
287.6320469999999
 20
50.30412700000000
 30
0.000000000000000
 11
287.6320469999999
 21
44.10412700000001
 31
0.000000000000000
  0
LINE
  5
156
100
AcDbEntity
  8
1
  6
CONTINUOUS
 62
7
100
AcDbLine
 10
287.6320469999999
 20
50.30412700000000
 30
0.000000000000000
 11
302.0320469999999
 21
50.30412700000000
 31
0.000000000000000
  0
LINE
  5
157
100
AcDbEntity
  8
1
  6
CONTINUOUS
 62
7
100
AcDbLine
 10
293.7730270000000
 20
48.30412700000000
 30
0.000000000000000
 11
302.0320469999999
 21
48.30412700000000
 31
0.000000000000000
  0
LINE
  5
158
100
AcDbEntity
  8
1
  6
CONTINUOUS
 62
7
100
AcDbLine
 10
306.3320469999999
 20
65.30412900000000
 30
0.000000000000000
 11
307.3320470000000
 21
65.30412900000000
 31
0.000000000000000
  0
LINE
  5
159
100
AcDbEntity
  8
1
  6
CONTINUOUS
 62
7
100
AcDbLine
 10
308.4665560000000
 20
65.70339499999999
 30
0.000000000000000
 11
307.3310470000000
 21
65.60412699999999
 31
0.000000000000000
  0
LINE
  5
15A
100
AcDbEntity
  8
4
  6
CENTER
 62
1
100
AcDbLine
 10
298.0871000000000
 20
69.10412700000001
 30
0.000000000000000
 11
312.9320470000000
 21
69.10412700000001
 31
0.000000000000000
  0
LINE
  5
15B
100
AcDbEntity
  8
1
  6
CONTINUOUS
 62
7
100
AcDbLine
 10
287.6320469999999
 20
85.60412700000001
 30
0.000000000000000
 11
302.0320469999999
 21
85.60412700000001
 31
0.000000000000000
  0
LINE
  5
15C
100
AcDbEntity
  8
1
  6
CONTINUOUS
 62
7
100
AcDbLine
 10
287.6320469999999
 20
87.90412700000000
 30
0.000000000000000
 11
302.0320469999999
 21
87.90412700000000
 31
0.000000000000000
  0
LINE
  5
15D
100
AcDbEntity
  8
1
  6
CONTINUOUS
 62
7
100
AcDbLine
 10
306.3320469999999
 20
72.90412899999998
 30
0.000000000000000
 11
307.3320470000000
 21
72.90412899999998
 31
0.000000000000000
  0
LINE
  5
15E
100
AcDbEntity
  8
1
  6
CONTINUOUS
 62
7
100
AcDbLine
 10
307.3320469999999
 20
69.10412700000002
 30
0.000000000000000
 11
306.3320469999998
 21
68.10412699999999
 31
0.000000000000000
  0
LINE
  5
15F
100
AcDbEntity
  8
1
  6
CONTINUOUS
 62
7
100
AcDbLine
 10
307.3320469999999
 20
70.10412700000001
 30
0.000000000000000
 11
306.3320469999998
 21
69.10412700000001
 31
0.000000000000000
  0
ARC
  5
160
100
AcDbEntity
  8
1
  6
CONTINUOUS
 62
7
100
AcDbCircle
 10
300.9320470000000
 20
69.10412700000001
 30
0.000000000000000
 40
9.000000000000000
100
AcDbArc
 50
344.1190000000001
 51
375.8810000000000
  0
LINE
  5
161
100
AcDbEntity
  8
1
  6
CONTINUOUS
 62
7
100
AcDbLine
 10
308.4520469999999
 20
72.50612700000001
 30
0.000000000000000
 11
307.3320469999999
 21
72.60412699999999
 31
0.000000000000000
  0
ARC
  5
162
100
AcDbEntity
  8
1
  6
CONTINUOUS
 62
7
100
AcDbCircle
 10
308.3390469999998
 20
71.21112700000002
 30
0.000000000000000
 40
1.300000000000000
100
AcDbArc
 50
15.88099999999999
 51
85.00000000000000
  0
LINE
  5
163
100
AcDbEntity
  8
1
  6
CONTINUOUS
 62
7
100
AcDbLine
 10
285.3320469999999
 20
94.10412700000001
 30
0.000000000000000
 11
287.6320469999999
 21
94.10412700000001
 31
0.000000000000000
  0
LINE
  5
164
100
AcDbEntity
  8
1
  6
CONTINUOUS
 62
7
100
AcDbLine
 10
293.7730270000000
 20
89.90412700000000
 30
0.000000000000000
 11
302.0320469999999
 21
89.90412700000000
 31
0.000000000000000
  0
LINE
  5
165
100
AcDbEntity
  8
5
  6
PHANTOM
 62
6
100
AcDbLine
 10
397.8929049999999
 20
166.8147180000000
 30
0.000000000000000
 11
419.8929050000000
 21
166.8147180000000
 31
0.000000000000000
  0
LINE
  5
166
100
AcDbEntity
  8
1
  6
CONTINUOUS
 62
7
100
AcDbLine
 10
420.3929050000000
 20
175.8147179999999
 30
0.000000000000000
 11
397.3929049999999
 21
175.8147179999999
 31
0.000000000000000
  0
LINE
  5
167
100
AcDbEntity
  8
1
  6
CONTINUOUS
 62
7
100
AcDbLine
 10
424.8929050000000
 20
170.8147180000000
 30
0.000000000000000
 11
392.8929049999999
 21
170.8147180000000
 31
0.000000000000000
  0
LINE
  5
168
100
AcDbEntity
  8
5
  6
PHANTOM
 62
6
100
AcDbLine
 10
397.8929049999999
 20
170.8147180000000
 30
0.000000000000000
 11
397.8929049999999
 21
166.8147180000000
 31
0.000000000000000
  0
ARC
  5
169
100
AcDbEntity
  8
1
  6
CONTINUOUS
 62
7
100
AcDbCircle
 10
392.8929049999999
 20
174.8147180000000
 30
0.000000000000000
 40
4.000000000000000
100
AcDbArc
 50
180.0000000000000
 51
270.0000000000000
  0
LINE
  5
16A
100
AcDbEntity
  8
5
  6
PHANTOM
 62
6
100
AcDbLine
 10
419.8929050000000
 20
170.8147180000000
 30
0.000000000000000
 11
419.8929050000000
 21
166.8147180000000
 31
0.000000000000000
  0
ARC
  5
16B
100
AcDbEntity
  8
1
  6
CONTINUOUS
 62
7
100
AcDbCircle
 10
424.8929050000000
 20
174.8147180000000
 30
0.000000000000000
 40
4.000000000000000
100
AcDbArc
 50
270.0000000000000
 51
360.0000000000000
  0
LINE
  5
16C
100
AcDbEntity
  8
5
  6
PHANTOM
 62
6
100
AcDbLine
 10
388.8929049999999
 20
278.8147180000000
 30
0.000000000000000
 11
327.8929049999999
 21
278.8147180000000
 31
0.000000000000000
  0
LINE
  5
16D
100
AcDbEntity
  8
5
  6
PHANTOM
 62
6
100
AcDbLine
 10
388.8929049999999
 20
300.8147180000000
 30
0.000000000000000
 11
327.8929049999999
 21
300.8147180000000
 31
0.000000000000000
  0
LINE
  5
16E
100
AcDbEntity
  8
4
  6
CENTER
 62
1
100
AcDbLine
 10
431.8928049999998
 20
289.8147180000000
 30
0.000000000000000
 11
322.3929049999999
 21
289.8147180000000
 31
0.000000000000000
  0
ARC
  5
16F
100
AcDbEntity
  8
1
  6
CONTINUOUS
 62
7
100
AcDbCircle
 10
298.9320470000000
 20
263.8146759999999
 30
0.000000000000000
 40
9.000000000000000
100
AcDbArc
 50
344.1190000000001
 51
375.8810000000000
  0
LINE
  5
170
100
AcDbEntity
  8
1
  6
CONTINUOUS
 62
7
100
AcDbLine
 10
305.3320469999999
 20
264.8146759999999
 30
0.000000000000000
 11
304.3320469999998
 21
263.8146759999998
 31
0.000000000000000
  0
LINE
  5
171
100
AcDbEntity
  8
1
  6
CONTINUOUS
 62
7
100
AcDbLine
 10
305.3320470000000
 20
267.6146779999999
 30
0.000000000000000
 11
305.3320470000000
 21
260.0146780000000
 31
0.000000000000000
  0
LINE
  5
172
100
AcDbEntity
  8
1
  6
CONTINUOUS
 62
7
100
AcDbLine
 10
304.3320469999999
 20
272.8146779999998
 30
0.000000000000000
 11
304.3320469999999
 21
257.0646779999999
 31
0.000000000000000
  0
LINE
  5
173
100
AcDbEntity
  8
1
  6
CONTINUOUS
 62
7
100
AcDbLine
 10
287.6320469999999
 20
272.8146779999998
 30
0.000000000000000
 11
287.6320469999999
 21
212.8147180000000
 31
0.000000000000000
  0
LINE
  5
174
100
AcDbEntity
  8
1
  6
CONTINUOUS
 62
7
100
AcDbLine
 10
285.3320469999999
 20
272.8146779999998
 30
0.000000000000000
 11
285.3320469999999
 21
212.8147180000000
 31
0.000000000000000
  0
LINE
  5
175
100
AcDbEntity
  8
1
  6
CONTINUOUS
 62
7
100
AcDbLine
 10
305.3320470000000
 20
225.6147200000000
 30
0.000000000000000
 11
305.3320470000000
 21
218.0147199999999
 31
0.000000000000000
  0
ARC
  5
176
100
AcDbEntity
  8
1
  6
CONTINUOUS
 62
7
100
AcDbCircle
 10
298.9320470000000
 20
221.8147180000000
 30
0.000000000000000
 40
9.000000000000000
100
AcDbArc
 50
344.1190000000001
 51
375.8810000000000
  0
LINE
  5
177
100
AcDbEntity
  8
1
  6
CONTINUOUS
 62
7
100
AcDbLine
 10
304.3320469999999
 20
228.5647180000000
 30
0.000000000000000
 11
304.3320469999999
 21
212.8147180000000
 31
0.000000000000000
  0
LINE
  5
178
100
AcDbEntity
  8
1
  6
CONTINUOUS
 62
7
100
AcDbLine
 10
304.3320469999999
 20
212.8147180000000
 30
0.000000000000000
 11
285.3320469999999
 21
212.8147180000000
 31
0.000000000000000
  0
LINE
  5
179
100
AcDbEntity
  8
1
  6
CONTINUOUS
 62
7
100
AcDbLine
 10
304.3320469999999
 20
218.0147199999999
 30
0.000000000000000
 11
305.3320470000000
 21
218.0147199999999
 31
0.000000000000000
  0
LINE
  5
17A
100
AcDbEntity
  8
1
  6
CONTINUOUS
 62
7
100
AcDbLine
 10
306.4665560000000
 20
218.4139870000000
 30
0.000000000000000
 11
305.3310470000000
 21
218.3147180000000
 31
0.000000000000000
  0
ARC
  5
17B
100
AcDbEntity
  8
1
  6
CONTINUOUS
 62
7
100
AcDbCircle
 10
306.3390469999998
 20
219.7077180000000
 30
0.000000000000000
 40
1.300000000000000
100
AcDbArc
 50
275.0000000000000
 51
344.1190000000001
  0
LINE
  5
17C
100
AcDbEntity
  8
4
  6
CENTER
 62
1
100
AcDbLine
 10
307.3320470000000
 20
242.8147180000000
 30
0.000000000000000
 11
282.3320470000000
 21
242.8147180000000
 31
0.000000000000000
  0
LINE
  5
17D
100
AcDbEntity
  8
1
  6
CONTINUOUS
 62
7
100
AcDbLine
 10
304.3320469999999
 20
250.5647180000000
 30
0.000000000000000
 11
304.3320469999999
 21
235.0647180000000
 31
0.000000000000000
  0
LINE
  5
17E
100
AcDbEntity
  8
1
  6
CONTINUOUS
 62
7
100
AcDbLine
 10
304.3320469999999
 20
235.0647180000000
 30
0.000000000000000
 11
292.1320469999999
 21
235.0647180000000
 31
0.000000000000000
  0
LINE
  5
17F
100
AcDbEntity
  8
1
  6
CONTINUOUS
 62
7
100
AcDbLine
 10
304.3320469999999
 20
228.5647180000000
 30
0.000000000000000
 11
292.1320469999999
 21
228.5647180000000
 31
0.000000000000000
  0
LINE
  5
180
100
AcDbEntity
  8
4
  6
CENTER
 62
1
100
AcDbLine
 10
310.9320470000000
 20
221.8147180000000
 30
0.000000000000000
 11
301.9776470000000
 21
221.8147180000000
 31
0.000000000000000
  0
ARC
  5
181
100
AcDbEntity
  8
1
  6
CONTINUOUS
 62
7
100
AcDbCircle
 10
293.7726470000000
 20
231.8147180000000
 30
0.000000000000000
 40
3.640619999999998
100
AcDbArc
 50
116.7849999999999
 51
243.2150000000000
  0
LINE
  5
182
100
AcDbEntity
  8
1
  6
CONTINUOUS
 62
7
100
AcDbLine
 10
304.3320469999999
 20
225.6147200000000
 30
0.000000000000000
 11
305.3320470000000
 21
225.6147200000000
 31
0.000000000000000
  0
LINE
  5
183
100
AcDbEntity
  8
1
  6
CONTINUOUS
 62
7
100
AcDbLine
 10
305.3320469999999
 20
221.8147180000000
 30
0.000000000000000
 11
304.3320469999998
 21
220.8147179999999
 31
0.000000000000000
  0
LINE
  5
184
100
AcDbEntity
  8
1
  6
CONTINUOUS
 62
7
100
AcDbLine
 10
305.3320469999999
 20
222.8147180000000
 30
0.000000000000000
 11
304.3320469999998
 21
221.8147180000000
 31
0.000000000000000
  0
LINE
  5
185
100
AcDbEntity
  8
1
  6
CONTINUOUS
 62
7
100
AcDbLine
 10
306.4520470000000
 20
225.2167179999999
 30
0.000000000000000
 11
305.3320470000000
 21
225.3147180000000
 31
0.000000000000000
  0
ARC
  5
186
100
AcDbEntity
  8
1
  6
CONTINUOUS
 62
7
100
AcDbCircle
 10
306.3390469999998
 20
223.9217180000000
 30
0.000000000000000
 40
1.300000000000000
100
AcDbArc
 50
15.88099999999999
 51
85.00000000000000
  0
ARC
  5
187
100
AcDbEntity
  8
1
  6
CONTINUOUS
 62
7
100
AcDbCircle
 10
302.6914469999999
 20
231.8147180000000
 30
0.000000000000000
 40
3.640619999999998
100
AcDbArc
 50
296.7850000000000
 51
423.2150000000000
  0
LINE
  5
188
100
AcDbEntity
  8
1
  6
CONTINUOUS
 62
7
100
AcDbLine
 10
304.3320469999999
 20
250.5647180000000
 30
0.000000000000000
 11
292.1320469999999
 21
250.5647180000000
 31
0.000000000000000
  0
LINE
  5
189
100
AcDbEntity
  8
1
  6
CONTINUOUS
 62
7
100
AcDbLine
 10
304.3320469999999
 20
257.0646779999999
 30
0.000000000000000
 11
292.1320469999999
 21
257.0646779999999
 31
0.000000000000000
  0
LINE
  5
18A
100
AcDbEntity
  8
4
  6
CENTER
 62
1
100
AcDbLine
 10
310.9320470000000
 20
263.8146759999999
 30
0.000000000000000
 11
301.8351470000000
 21
263.8146759999999
 31
0.000000000000000
  0
ARC
  5
18B
100
AcDbEntity
  8
1
  6
CONTINUOUS
 62
7
100
AcDbCircle
 10
293.7726470000000
 20
253.8147180000000
 30
0.000000000000000
 40
3.640629999999998
100
AcDbArc
 50
116.7849999999999
 51
243.2150000000000
  0
LINE
  5
18C
100
AcDbEntity
  8
1
  6
CONTINUOUS
 62
7
100
AcDbLine
 10
306.4665560000000
 20
260.4139450000000
 30
0.000000000000000
 11
305.3310469999999
 21
260.3146759999999
 31
0.000000000000000
  0
ARC
  5
18D
100
AcDbEntity
  8
1
  6
CONTINUOUS
 62
7
100
AcDbCircle
 10
306.3390469999998
 20
261.7076759999998
 30
0.000000000000000
 40
1.300000000000000
100
AcDbArc
 50
275.0000000000000
 51
344.1190000000001
  0
LINE
  5
18E
100
AcDbEntity
  8
1
  6
CONTINUOUS
 62
7
100
AcDbLine
 10
305.3320469999999
 20
263.8146759999998
 30
0.000000000000000
 11
304.3320469999998
 21
262.8146759999998
 31
0.000000000000000
  0
ARC
  5
18F
100
AcDbEntity
  8
1
  6
CONTINUOUS
 62
7
100
AcDbCircle
 10
302.6914469999999
 20
253.8147180000000
 30
0.000000000000000
 40
3.640629999999998
100
AcDbArc
 50
296.7850000000000
 51
423.2150000000000
  0
LINE
  5
190
100
AcDbEntity
  8
1
  6
CONTINUOUS
 62
7
100
AcDbLine
 10
304.3320469999999
 20
260.0146780000000
 30
0.000000000000000
 11
305.3320470000000
 21
260.0146780000000
 31
0.000000000000000
  0
LINE
  5
191
100
AcDbEntity
  8
1
  6
CONTINUOUS
 62
7
100
AcDbLine
 10
304.3320469999999
 20
272.8146779999998
 30
0.000000000000000
 11
285.3320469999999
 21
272.8146779999998
 31
0.000000000000000
  0
ARC
  5
192
100
AcDbEntity
  8
1
  6
CONTINUOUS
 62
7
100
AcDbCircle
 10
269.3264670000000
 20
285.4842179999998
 30
0.000000000000000
 40
2.555979999999999
100
AcDbArc
 50
334.3716370000000
 51
394.3716370000000
  0
ARC
  5
193
100
AcDbEntity
  8
1
  6
CONTINUOUS
 62
7
100
AcDbCircle
 10
270.4384259999998
 20
285.4842179999998
 30
0.000000000000000
 40
2.555979999999999
100
AcDbArc
 50
145.6283629999998
 51
205.6283629999998
  0
LINE
  5
194
100
AcDbEntity
  8
1
  6
CONTINUOUS
 62
7
100
AcDbLine
 10
271.8824470000000
 20
294.8152180000000
 30
0.000000000000000
 11
271.8824470000000
 21
284.8142179999999
 31
0.000000000000000
  0
LINE
  5
195
100
AcDbEntity
  8
1
  6
CONTINUOUS
 62
7
100
AcDbLine
 10
262.7824469999999
 20
300.8147180000000
 30
0.000000000000000
 11
262.7824469999999
 21
278.8147180000000
 31
0.000000000000000
  0
LINE
  5
196
100
AcDbEntity
  8
1
  6
CONTINUOUS
 62
7
100
AcDbLine
 10
264.7824469999999
 20
300.8147180000000
 30
0.000000000000000
 11
264.7824469999999
 21
278.8147180000000
 31
0.000000000000000
  0
LINE
  5
197
100
AcDbEntity
  8
1
  6
CONTINUOUS
 62
7
100
AcDbLine
 10
266.3824470000000
 20
281.8147180000000
 30
0.000000000000000
 11
266.3824470000000
 21
297.8147180000000
 31
0.000000000000000
  0
LINE
  5
198
100
AcDbEntity
  8
1
  6
CONTINUOUS
 62
7
100
AcDbLine
 10
267.8824470000000
 20
283.7147180000000
 30
0.000000000000000
 11
267.8824470000000
 21
295.9147180000000
 31
0.000000000000000
  0
LINE
  5
199
100
AcDbEntity
  8
1
  6
CONTINUOUS
 62
7
100
AcDbLine
 10
268.3287379999999
 20
284.0412180000000
 30
0.000000000000000
 11
271.4361550000000
 21
284.0412180000000
 31
0.000000000000000
  0
ARC
  5
19A
100
AcDbEntity
  8
1
  6
CONTINUOUS
 62
7
100
AcDbCircle
 10
270.4384469999999
 20
285.4852179999999
 30
0.000000000000000
 40
2.555820000000000
100
AcDbArc
 50
214.3528569999999
 51
214.3839999999999
  0
LINE
  5
19B
100
AcDbEntity
  8
1
  6
CONTINUOUS
 62
7
100
AcDbLine
 10
267.8824470000001
 20
284.8142180000000
 30
0.000000000000000
 11
268.3287379999999
 21
284.0412180000001
 31
0.000000000000000
  0
LINE
  5
19C
100
AcDbEntity
  8
1
  6
CONTINUOUS
 62
7
100
AcDbLine
 10
264.7824469999999
 20
278.8147180000000
 30
0.000000000000000
 11
262.7824469999999
 21
278.8147180000000
 31
0.000000000000000
  0
LINE
  5
19D
100
AcDbEntity
  8
1
  6
CONTINUOUS
 62
7
100
AcDbLine
 10
266.3824470000000
 20
281.8147180000000
 30
0.000000000000000
 11
264.7824469999999
 21
281.8147180000000
 31
0.000000000000000
  0
LINE
  5
19E
100
AcDbEntity
  8
1
  6
CONTINUOUS
 62
7
100
AcDbLine
 10
267.8824470000000
 20
283.7147180000000
 30
0.000000000000000
 11
266.3824470000000
 21
283.7147180000000
 31
0.000000000000000
  0
LINE
  5
19F
100
AcDbEntity
  8
1
  6
CONTINUOUS
 62
7
100
AcDbLine
 10
271.8824470000000
 20
284.8142179999999
 30
0.000000000000000
 11
271.4361550000000
 21
284.0412180000000
 31
0.000000000000000
  0
LINE
  5
1A0
100
AcDbEntity
  8
1
  6
CONTINUOUS
 62
7
100
AcDbLine
 10
268.3287379999999
 20
295.5882179999999
 30
0.000000000000000
 11
271.4361550000000
 21
295.5882179999999
 31
0.000000000000000
  0
LINE
  5
1A1
100
AcDbEntity
  8
1
  6
CONTINUOUS
 62
7
100
AcDbLine
 10
268.3287379999999
 20
292.7022180000000
 30
0.000000000000000
 11
271.4361550000000
 21
292.7022180000000
 31
0.000000000000000
  0
LINE
  5
1A2
100
AcDbEntity
  8
1
  6
CONTINUOUS
 62
7
100
AcDbLine
 10
268.3287379999999
 20
286.9282180000000
 30
0.000000000000000
 11
271.4361550000000
 21
286.9282180000000
 31
0.000000000000000
  0
LINE
  5
1A3
100
AcDbEntity
  8
4
  6
CENTER
 62
1
100
AcDbLine
 10
274.8824470000000
 20
289.8147180000000
 30
0.000000000000000
 11
259.7824469999999
 21
289.8147180000000
 31
0.000000000000000
  0
LINE
  5
1A4
100
AcDbEntity
  8
1
  6
CONTINUOUS
 62
7
100
AcDbLine
 10
266.3824470000000
 20
288.3152180000000
 30
0.000000000000000
 11
267.8824470000000
 21
289.8152180000000
 31
0.000000000000000
  0
LINE
  5
1A5
100
AcDbEntity
  8
1
  6
CONTINUOUS
 62
7
100
AcDbLine
 10
266.3824470000000
 20
289.8147180000000
 30
0.000000000000000
 11
267.8824470000000
 21
291.3147180000001
 31
0.000000000000000
  0
LINE
  5
1A6
100
AcDbEntity
  8
1
  6
CONTINUOUS
 62
7
100
AcDbLine
 10
267.8824470000001
 20
294.8152180000001
 30
0.000000000000000
 11
268.3287379999999
 21
295.5882179999999
 31
0.000000000000000
  0
ARC
  5
1A7
100
AcDbEntity
  8
1
  6
CONTINUOUS
 62
7
100
AcDbCircle
 10
270.4384259999998
 20
294.1452180000000
 30
0.000000000000000
 40
2.555979999999999
100
AcDbArc
 50
154.3716370000000
 51
214.3716370000000
  0
ARC
  5
1A8
100
AcDbEntity
  8
1
  6
CONTINUOUS
 62
7
100
AcDbCircle
 10
277.4433960000000
 20
289.8152180000000
 30
0.000000000000000
 40
9.560949000000001
100
AcDbArc
 50
162.4247879999998
 51
197.5752119999999
  0
LINE
  5
1A9
100
AcDbEntity
  8
1
  6
CONTINUOUS
 62
7
100
AcDbLine
 10
264.7824469999999
 20
300.8147180000000
 30
0.000000000000000
 11
262.7824469999999
 21
300.8147180000000
 31
0.000000000000000
  0
LINE
  5
1AA
100
AcDbEntity
  8
1
  6
CONTINUOUS
 62
7
100
AcDbLine
 10
266.3824470000000
 20
297.8147180000000
 30
0.000000000000000
 11
264.7824469999999
 21
297.8147180000000
 31
0.000000000000000
  0
LINE
  5
1AB
100
AcDbEntity
  8
1
  6
CONTINUOUS
 62
7
100
AcDbLine
 10
267.8824470000000
 20
295.9147180000000
 30
0.000000000000000
 11
266.3824470000000
 21
295.9147180000000
 31
0.000000000000000
  0
LINE
  5
1AC
100
AcDbEntity
  8
1
  6
CONTINUOUS
 62
7
100
AcDbLine
 10
271.8824470000000
 20
294.8152180000001
 30
0.000000000000000
 11
271.4361550000000
 21
295.5882179999999
 31
0.000000000000000
  0
ARC
  5
1AD
100
AcDbEntity
  8
1
  6
CONTINUOUS
 62
7
100
AcDbCircle
 10
262.3214980000000
 20
289.8152180000000
 30
0.000000000000000
 40
9.560949000000001
100
AcDbArc
 50
342.4247879999999
 51
377.5752120000000
  0
ARC
  5
1AE
100
AcDbEntity
  8
1
  6
CONTINUOUS
 62
7
100
AcDbCircle
 10
269.3264670000000
 20
294.1452180000000
 30
0.000000000000000
 40
2.555979999999999
100
AcDbArc
 50
325.6283629999999
 51
385.6283630000000
  0
LINE
  5
1AF
100
AcDbEntity
  8
1
  6
CONTINUOUS
 62
7
100
AcDbLine
 10
306.4520470000000
 20
267.2166760000001
 30
0.000000000000000
 11
305.3320470000000
 21
267.3146759999998
 31
0.000000000000000
  0
ARC
  5
1B0
100
AcDbEntity
  8
1
  6
CONTINUOUS
 62
7
100
AcDbCircle
 10
306.3390469999998
 20
265.9216760000000
 30
0.000000000000000
 40
1.300000000000000
100
AcDbArc
 50
15.88099999999999
 51
85.00000000000000
  0
LINE
  5
1B1
100
AcDbEntity
  8
1
  6
CONTINUOUS
 62
7
100
AcDbLine
 10
304.3320469999999
 20
267.6146779999999
 30
0.000000000000000
 11
305.3320470000000
 21
267.6146779999999
 31
0.000000000000000
  0
LINE
  5
1B2
100
AcDbEntity
  8
5
  6
PHANTOM
 62
6
100
AcDbLine
 10
325.3929049999999
 20
298.3147180000000
 30
0.000000000000000
 11
325.3929049999999
 21
281.3147180000001
 31
0.000000000000000
  0
ARC
  5
1B3
100
AcDbEntity
  8
5
  6
PHANTOM
 62
6
100
AcDbCircle
 10
327.8929049999999
 20
281.3147180000001
 30
0.000000000000000
 40
2.500000000000000
100
AcDbArc
 50
180.0000000000000
 51
270.0000000000000
  0
ARC
  5
1B4
100
AcDbEntity
  8
5
  6
PHANTOM
 62
6
100
AcDbCircle
 10
327.8929049999999
 20
298.3147180000000
 30
0.000000000000000
 40
2.500000000000000
100
AcDbArc
 50
90.00000000000000
 51
180.0000000000000
  0
ARC
  5
1B5
100
AcDbEntity
  8
1
  6
CONTINUOUS
 62
7
100
AcDbCircle
 10
518.8537629999998
 20
263.8146759999999
 30
0.000000000000000
 40
9.000000000000000
100
AcDbArc
 50
164.1190000000000
 51
195.8809999999998
  0
LINE
  5
1B6
100
AcDbEntity
  8
1
  6
CONTINUOUS
 62
7
100
AcDbLine
 10
409.8422560000000
 20
263.8146759999999
 30
0.000000000000000
 11
410.0331750000000
 21
264.3407639999999
 31
0.000000000000000
  0
LINE
  5
1B7
100
AcDbEntity
  8
1
  6
CONTINUOUS
 62
7
100
AcDbLine
 10
407.9422600000000
 20
263.8153829999998
 30
0.000000000000000
 11
407.7513419999998
 21
264.3400570000000
 31
0.000000000000000
  0
CIRCLE
  5
1B8
100
AcDbEntity
  8
1
  6
CONTINUOUS
 62
7
100
AcDbCircle
 10
408.8929049999999
 20
263.8146759999999
 30
0.000000000000000
 40
3.500000000000000
  0
LINE
  5
1B9
100
AcDbEntity
  8
1
  6
CONTINUOUS
 62
7
100
AcDbLine
 10
390.0929049999999
 20
272.8146779999998
 30
0.000000000000000
 11
390.0929049999999
 21
257.0646779999999
 31
0.000000000000000
  0
LINE
  5
1BA
100
AcDbEntity
  8
1
  6
CONTINUOUS
 62
7
100
AcDbLine
 10
427.6928049999998
 20
272.8146779999998
 30
0.000000000000000
 11
427.6928049999998
 21
257.0646779999999
 31
0.000000000000000
  0
LINE
  5
1BB
100
AcDbEntity
  8
1
  6
CONTINUOUS
 62
7
100
AcDbLine
 10
433.8928049999998
 20
269.8146779999999
 30
0.000000000000000
 11
433.8928049999998
 21
215.8147180000000
 31
0.000000000000000
  0
LINE
  5
1BC
100
AcDbEntity
  8
1
  6
CONTINUOUS
 62
7
100
AcDbLine
 10
383.8929049999999
 20
269.8146779999999
 30
0.000000000000000
 11
383.8929049999999
 21
215.8147180000000
 31
0.000000000000000
  0
CIRCLE
  5
1BD
100
AcDbEntity
  8
1
  6
CONTINUOUS
 62
7
100
AcDbCircle
 10
408.8929049999999
 20
221.8147180000000
 30
0.000000000000000
 40
3.500000000000000
  0
LINE
  5
1BE
100
AcDbEntity
  8
1
  6
CONTINUOUS
 62
7
100
AcDbLine
 10
427.6928049999998
 20
228.5647180000000
 30
0.000000000000000
 11
427.6928049999998
 21
212.8147180000000
 31
0.000000000000000
  0
LINE
  5
1BF
100
AcDbEntity
  8
1
  6
CONTINUOUS
 62
7
100
AcDbLine
 10
390.0929049999999
 20
228.5647180000000
 30
0.000000000000000
 11
390.0929049999999
 21
212.8147180000000
 31
0.000000000000000
  0
CIRCLE
  5
1C0
100
AcDbEntity
  8
1
  6
CONTINUOUS
 62
7
100
AcDbCircle
 10
417.3929049999999
 20
193.3147179999999
 30
0.000000000000000
 40
2.600000000000000
  0
LINE
  5
1C1
100
AcDbEntity
  8
4
  6
CENTER
 62
1
100
AcDbLine
 10
411.7929049999998
 20
193.3147179999999
 30
0.000000000000000
 11
422.8929049999998
 21
193.3147179999999
 31
0.000000000000000
  0
LINE
  5
1C2
100
AcDbEntity
  8
1
  6
CONTINUOUS
 62
7
100
AcDbLine
 10
395.8929050000000
 20
208.3147180000000
 30
0.000000000000000
 11
421.8929049999998
 21
208.3147180000000
 31
0.000000000000000
  0
LINE
  5
1C3
100
AcDbEntity
  8
1
  6
CONTINUOUS
 62
7
100
AcDbLine
 10
386.8929049999999
 20
212.8147180000000
 30
0.000000000000000
 11
430.8928049999998
 21
212.8147180000000
 31
0.000000000000000
  0
LINE
  5
1C4
100
AcDbEntity
  8
4
  6
CENTER
 62
1
100
AcDbLine
 10
400.3929049999999
 20
198.9147179999999
 30
0.000000000000000
 11
400.3929049999999
 21
187.7147180000000
 31
0.000000000000000
  0
LINE
  5
1C5
100
AcDbEntity
  8
1
  6
CONTINUOUS
 62
7
100
AcDbLine
 10
392.3929049999999
 20
212.8147180000000
 30
0.000000000000000
 11
392.3929049999999
 21
180.8147179999999
 31
0.000000000000000
  0
LINE
  5
1C6
100
AcDbEntity
  8
1
  6
CONTINUOUS
 62
7
100
AcDbLine
 10
394.8929049999999
 20
212.8147180000000
 30
0.000000000000000
 11
394.8929049999999
 21
177.1066180000000
 31
0.000000000000000
  0
CIRCLE
  5
1C7
100
AcDbEntity
  8
1
  6
CONTINUOUS
 62
7
100
AcDbCircle
 10
400.3929049999999
 20
193.3147179999999
 30
0.000000000000000
 40
2.600000000000000
  0
LINE
  5
1C8
100
AcDbEntity
  8
4
  6
CENTER
 62
1
100
AcDbLine
 10
394.8929049999999
 20
193.3147179999999
 30
0.000000000000000
 11
405.9929050000000
 21
193.3147179999999
 31
0.000000000000000
  0
ARC
  5
1C9
100
AcDbEntity
  8
1
  6
CONTINUOUS
 62
7
100
AcDbCircle
 10
395.8929050000000
 20
177.1066180000000
 30
0.000000000000000
 40
1.000000000000000
100
AcDbArc
 50
180.0000000000000
 51
247.9760000000000
  0
LINE
  5
1CA
100
AcDbEntity
  8
1
  6
CONTINUOUS
 62
7
100
AcDbLine
 10
401.2513320000001
 20
192.7900450000000
 30
0.000000000000000
 11
401.4613429999998
 21
192.5729630000001
 31
0.000000000000000
  0
LINE
  5
1CB
100
AcDbEntity
  8
1
  6
CONTINUOUS
 62
7
100
AcDbLine
 10
401.2506250000001
 20
193.8400990000001
 30
0.000000000000000
 11
401.4606360000001
 21
194.0571799999999
 31
0.000000000000000
  0
LINE
  5
1CC
100
AcDbEntity
  8
1
  6
CONTINUOUS
 62
7
100
AcDbLine
 10
400.9182850000001
 20
194.1724390000000
 30
0.000000000000000
 11
401.1353670000000
 21
194.3824500000000
 31
0.000000000000000
  0
LINE
  5
1CD
100
AcDbEntity
  8
1
  6
CONTINUOUS
 62
7
100
AcDbLine
 10
400.9182850000000
 20
192.4569980000000
 30
0.000000000000000
 11
401.1360739999998
 21
192.2476939999999
 31
0.000000000000000
  0
ARC
  5
1CE
100
AcDbEntity
  8
1
  6
CONTINUOUS
 62
7
100
AcDbCircle
 10
400.3929049999999
 20
193.3147179999999
 30
0.000000000000000
 40
1.300000000000000
100
AcDbArc
 50
124.8094000000000
 51
145.1909999999998
  0
LINE
  5
1CF
100
AcDbEntity
  8
1
  6
CONTINUOUS
 62
7
100
AcDbLine
 10
399.7367100000001
 20
193.3147180000000
 30
0.000000000000000
 11
399.5358910000000
 21
192.7900450000000
 31
0.000000000000000
  0
LINE
  5
1D0
100
AcDbEntity
  8
1
  6
CONTINUOUS
 62
7
100
AcDbLine
 10
399.5358910000000
 20
192.7900450000000
 30
0.000000000000000
 11
399.3258810000000
 21
192.5729630000000
 31
0.000000000000000
  0
LINE
  5
1D1
100
AcDbEntity
  8
1
  6
CONTINUOUS
 62
7
100
AcDbLine
 10
400.3929049999999
 20
192.6585230000000
 30
0.000000000000000
 11
399.8682319999998
 21
192.4577050000000
 31
0.000000000000000
  0
LINE
  5
1D2
100
AcDbEntity
  8
1
  6
CONTINUOUS
 62
7
100
AcDbLine
 10
400.3936120000001
 20
193.9716210000000
 30
0.000000000000000
 11
399.8682319999999
 21
194.1731459999999
 31
0.000000000000000
  0
LINE
  5
1D3
100
AcDbEntity
  8
1
  6
CONTINUOUS
 62
7
100
AcDbLine
 10
399.8682319999998
 20
194.1731459999997
 30
0.000000000000000
 11
399.6518570000000
 21
194.3824500000000
 31
0.000000000000000
  0
LINE
  5
1D4
100
AcDbEntity
  8
1
  6
CONTINUOUS
 62
7
100
AcDbLine
 10
399.7367100000000
 20
193.3147179999999
 30
0.000000000000000
 11
399.5351839999998
 21
193.8400990000000
 31
0.000000000000000
  0
LINE
  5
1D5
100
AcDbEntity
  8
1
  6
CONTINUOUS
 62
7
100
AcDbLine
 10
399.5351839999997
 20
193.8400990000000
 30
0.000000000000000
 11
399.3258809999999
 21
194.0564730000000
 31
0.000000000000000
  0
ARC
  5
1D6
100
AcDbEntity
  8
1
  6
CONTINUOUS
 62
7
100
AcDbCircle
 10
400.3929049999999
 20
193.3147179999999
 30
0.000000000000000
 40
1.300000000000000
100
AcDbArc
 50
214.8090000000000
 51
235.1909999999999
  0
LINE
  5
1D7
100
AcDbEntity
  8
1
  6
CONTINUOUS
 62
7
100
AcDbLine
 10
399.8682319999999
 20
192.4577050000001
 30
0.000000000000000
 11
399.6511500000000
 21
192.2476939999999
 31
0.000000000000000
  0
LINE
  5
1D8
100
AcDbEntity
  8
1
  6
CONTINUOUS
 62
7
100
AcDbLine
 10
400.3929049999999
 20
192.6585230000000
 30
0.000000000000000
 11
400.9182850000000
 21
192.4569980000000
 31
0.000000000000000
  0
LINE
  5
1D9
100
AcDbEntity
  8
1
  6
CONTINUOUS
 62
7
100
AcDbLine
 10
400.3936119999999
 20
193.9716209999999
 30
0.000000000000000
 11
400.9182849999999
 21
194.1724390000000
 31
0.000000000000000
  0
LINE
  5
1DA
100
AcDbEntity
  8
1
  6
CONTINUOUS
 62
7
100
AcDbLine
 10
401.0498069999999
 20
193.3154250000000
 30
0.000000000000000
 11
401.2513320000000
 21
192.7900450000000
 31
0.000000000000000
  0
LINE
  5
1DB
100
AcDbEntity
  8
1
  6
CONTINUOUS
 62
7
100
AcDbLine
 10
401.0498069999998
 20
193.3154250000000
 30
0.000000000000000
 11
401.2506250000000
 21
193.8400990000000
 31
0.000000000000000
  0
ARC
  5
1DC
100
AcDbEntity
  8
1
  6
CONTINUOUS
 62
7
100
AcDbCircle
 10
400.3929049999999
 20
193.3147179999999
 30
0.000000000000000
 40
1.300000000000000
100
AcDbArc
 50
34.80900000000000
 51
55.19060000000000
  0
ARC
  5
1DD
100
AcDbEntity
  8
1
  6
CONTINUOUS
 62
7
100
AcDbCircle
 10
400.3929049999999
 20
193.3147179999999
 30
0.000000000000000
 40
1.300000000000000
100
AcDbArc
 50
304.8090000000001
 51
325.1909999999999
  0
ARC
  5
1DE
100
AcDbEntity
  8
1
  6
CONTINUOUS
 62
7
100
AcDbCircle
 10
395.8929050000000
 20
207.3147179999998
 30
0.000000000000000
 40
1.000000000000000
100
AcDbArc
 50
90.00000000000000
 51
180.0000000000000
  0
ARC
  5
1DF
100
AcDbEntity
  8
1
  6
CONTINUOUS
 62
7
100
AcDbCircle
 10
386.8929049999999
 20
215.8147180000000
 30
0.000000000000000
 40
3.000000000000000
100
AcDbArc
 50
180.0000000000000
 51
270.0000000000000
  0
LINE
  5
1E0
100
AcDbEntity
  8
4
  6
CENTER
 62
1
100
AcDbLine
 10
417.3929049999999
 20
198.9147179999999
 30
0.000000000000000
 11
417.3929049999999
 21
187.7147180000000
 31
0.000000000000000
  0
LINE
  5
1E1
100
AcDbEntity
  8
1
  6
CONTINUOUS
 62
7
100
AcDbLine
 10
425.3929049999999
 20
212.8147180000000
 30
0.000000000000000
 11
425.3929049999999
 21
180.8147179999999
 31
0.000000000000000
  0
LINE
  5
1E2
100
AcDbEntity
  8
1
  6
CONTINUOUS
 62
7
100
AcDbLine
 10
422.8929049999998
 20
212.8147180000000
 30
0.000000000000000
 11
422.8929049999998
 21
177.1066180000000
 31
0.000000000000000
  0
LINE
  5
1E3
100
AcDbEntity
  8
1
  6
CONTINUOUS
 62
7
100
AcDbLine
 10
418.2513319999998
 20
192.7900450000000
 30
0.000000000000000
 11
418.4613429999997
 21
192.5729630000000
 31
0.000000000000000
  0
LINE
  5
1E4
100
AcDbEntity
  8
1
  6
CONTINUOUS
 62
7
100
AcDbLine
 10
418.2506250000001
 20
193.8400990000000
 30
0.000000000000000
 11
418.4606360000001
 21
194.0571799999999
 31
0.000000000000000
  0
LINE
  5
1E5
100
AcDbEntity
  8
1
  6
CONTINUOUS
 62
7
100
AcDbLine
 10
417.9182850000001
 20
194.1724390000000
 30
0.000000000000000
 11
418.1353670000000
 21
194.3824500000000
 31
0.000000000000000
  0
LINE
  5
1E6
100
AcDbEntity
  8
1
  6
CONTINUOUS
 62
7
100
AcDbLine
 10
417.9182850000001
 20
192.4569980000001
 30
0.000000000000000
 11
418.1360740000001
 21
192.2476939999999
 31
0.000000000000000
  0
ARC
  5
1E7
100
AcDbEntity
  8
1
  6
CONTINUOUS
 62
7
100
AcDbCircle
 10
417.3929049999999
 20
193.3147179999999
 30
0.000000000000000
 40
1.300000000000000
100
AcDbArc
 50
124.8094000000000
 51
145.1909999999998
  0
LINE
  5
1E8
100
AcDbEntity
  8
1
  6
CONTINUOUS
 62
7
100
AcDbLine
 10
416.7367099999997
 20
193.3147179999999
 30
0.000000000000000
 11
416.5358909999999
 21
192.7900449999999
 31
0.000000000000000
  0
LINE
  5
1E9
100
AcDbEntity
  8
1
  6
CONTINUOUS
 62
7
100
AcDbLine
 10
416.5358909999999
 20
192.7900449999999
 30
0.000000000000000
 11
416.3258809999999
 21
192.5729630000000
 31
0.000000000000000
  0
LINE
  5
1EA
100
AcDbEntity
  8
1
  6
CONTINUOUS
 62
7
100
AcDbLine
 10
417.3929050000000
 20
192.6585230000000
 30
0.000000000000000
 11
416.8682320000000
 21
192.4577050000000
 31
0.000000000000000
  0
LINE
  5
1EB
100
AcDbEntity
  8
1
  6
CONTINUOUS
 62
7
100
AcDbLine
 10
417.3936120000001
 20
193.9716210000000
 30
0.000000000000000
 11
416.8682320000000
 21
194.1731459999998
 31
0.000000000000000
  0
LINE
  5
1EC
100
AcDbEntity
  8
1
  6
CONTINUOUS
 62
7
100
AcDbLine
 10
416.8682320000000
 20
194.1731459999998
 30
0.000000000000000
 11
416.6518570000000
 21
194.3824500000000
 31
0.000000000000000
  0
LINE
  5
1ED
100
AcDbEntity
  8
1
  6
CONTINUOUS
 62
7
100
AcDbLine
 10
416.7367099999998
 20
193.3147179999999
 30
0.000000000000000
 11
416.5351839999998
 21
193.8400990000000
 31
0.000000000000000
  0
LINE
  5
1EE
100
AcDbEntity
  8
1
  6
CONTINUOUS
 62
7
100
AcDbLine
 10
416.5351839999997
 20
193.8400990000000
 30
0.000000000000000
 11
416.3258809999999
 21
194.0564730000000
 31
0.000000000000000
  0
ARC
  5
1EF
100
AcDbEntity
  8
1
  6
CONTINUOUS
 62
7
100
AcDbCircle
 10
417.3929049999999
 20
193.3147179999999
 30
0.000000000000000
 40
1.300000000000000
100
AcDbArc
 50
214.8090000000000
 51
235.1909999999999
  0
LINE
  5
1F0
100
AcDbEntity
  8
1
  6
CONTINUOUS
 62
7
100
AcDbLine
 10
416.8682320000000
 20
192.4577050000000
 30
0.000000000000000
 11
416.6511499999998
 21
192.2476939999999
 31
0.000000000000000
  0
LINE
  5
1F1
100
AcDbEntity
  8
1
  6
CONTINUOUS
 62
7
100
AcDbLine
 10
417.3929049999999
 20
192.6585230000001
 30
0.000000000000000
 11
417.9182850000001
 21
192.4569980000001
 31
0.000000000000000
  0
LINE
  5
1F2
100
AcDbEntity
  8
1
  6
CONTINUOUS
 62
7
100
AcDbLine
 10
417.3936119999999
 20
193.9716209999999
 30
0.000000000000000
 11
417.9182849999999
 21
194.1724389999999
 31
0.000000000000000
  0
LINE
  5
1F3
100
AcDbEntity
  8
1
  6
CONTINUOUS
 62
7
100
AcDbLine
 10
418.0498069999999
 20
193.3154250000000
 30
0.000000000000000
 11
418.2513319999999
 21
192.7900449999999
 31
0.000000000000000
  0
LINE
  5
1F4
100
AcDbEntity
  8
1
  6
CONTINUOUS
 62
7
100
AcDbLine
 10
418.0498069999998
 20
193.3154249999999
 30
0.000000000000000
 11
418.2506250000000
 21
193.8400990000000
 31
0.000000000000000
  0
ARC
  5
1F5
100
AcDbEntity
  8
1
  6
CONTINUOUS
 62
7
100
AcDbCircle
 10
417.3929049999999
 20
193.3147179999999
 30
0.000000000000000
 40
1.300000000000000
100
AcDbArc
 50
34.80900000000000
 51
55.19060000000000
  0
ARC
  5
1F6
100
AcDbEntity
  8
1
  6
CONTINUOUS
 62
7
100
AcDbCircle
 10
417.3929049999999
 20
193.3147179999999
 30
0.000000000000000
 40
1.300000000000000
100
AcDbArc
 50
304.8090000000001
 51
325.1909999999999
  0
ARC
  5
1F7
100
AcDbEntity
  8
1
  6
CONTINUOUS
 62
7
100
AcDbCircle
 10
421.8929049999998
 20
177.1066180000000
 30
0.000000000000000
 40
1.000000000000000
100
AcDbArc
 50
292.0240000000000
 51
360.0000000000000
  0
ARC
  5
1F8
100
AcDbEntity
  8
1
  6
CONTINUOUS
 62
7
100
AcDbCircle
 10
421.8929049999998
 20
207.3147179999998
 30
0.000000000000000
 40
1.000000000000000
100
AcDbArc
 50
0.000000000000000
 51
90.00000000000000
  0
ARC
  5
1F9
100
AcDbEntity
  8
1
  6
CONTINUOUS
 62
7
100
AcDbCircle
 10
430.8928049999998
 20
215.8147180000000
 30
0.000000000000000
 40
3.000000000000000
100
AcDbArc
 50
270.0000000000000
 51
360.0000000000000
  0
LINE
  5
1FA
100
AcDbEntity
  8
1
  6
CONTINUOUS
 62
7
100
AcDbLine
 10
390.0929049999999
 20
250.5647180000000
 30
0.000000000000000
 11
427.6928049999998
 21
250.5647180000000
 31
0.000000000000000
  0
LINE
  5
1FB
100
AcDbEntity
  8
1
  6
CONTINUOUS
 62
7
100
AcDbLine
 10
390.0929049999999
 20
257.0646779999999
 30
0.000000000000000
 11
427.6928049999998
 21
257.0646779999999
 31
0.000000000000000
  0
LINE
  5
1FC
100
AcDbEntity
  8
1
  6
CONTINUOUS
 62
7
100
AcDbLine
 10
390.0929049999999
 20
228.5647180000000
 30
0.000000000000000
 11
427.6928049999998
 21
228.5647180000000
 31
0.000000000000000
  0
LINE
  5
1FD
100
AcDbEntity
  8
1
  6
CONTINUOUS
 62
7
100
AcDbLine
 10
390.0929049999999
 20
235.0647180000000
 30
0.000000000000000
 11
427.6928049999998
 21
235.0647180000000
 31
0.000000000000000
  0
LINE
  5
1FE
100
AcDbEntity
  8
1
  6
CONTINUOUS
 62
7
100
AcDbLine
 10
390.0929049999999
 20
250.5647180000000
 30
0.000000000000000
 11
390.0929049999999
 21
235.0647180000000
 31
0.000000000000000
  0
ARC
  5
1FF
100
AcDbEntity
  8
1
  6
CONTINUOUS
 62
7
100
AcDbCircle
 10
398.2494449999999
 20
242.3390790000000
 30
0.000000000000000
 40
2.135059999999997
100
AcDbArc
 50
318.9320000000000
 51
401.0679000000000
  0
ARC
  5
200
100
AcDbEntity
  8
1
  6
CONTINUOUS
 62
7
100
AcDbCircle
 10
399.1595549999999
 20
242.3390790000000
 30
0.000000000000000
 40
2.135059999999997
100
AcDbArc
 50
138.9319999999999
 51
221.0679999999999
  0
ARC
  5
201
100
AcDbEntity
  8
1
  6
CONTINUOUS
 62
7
100
AcDbCircle
 10
413.0091549999998
 20
241.8002790000000
 30
0.000000000000000
 40
1.439999999999999
100
AcDbArc
 50
269.5819999999998
 51
371.6541000000000
  0
ARC
  5
202
100
AcDbEntity
  8
1
  6
CONTINUOUS
 62
7
100
AcDbCircle
 10
413.4536549999998
 20
242.2876790000000
 30
0.000000000000000
 40
2.135059999999997
100
AcDbArc
 50
138.9319999999999
 51
221.0679999999999
  0
ARC
  5
203
100
AcDbEntity
  8
1
  6
CONTINUOUS
 62
7
100
AcDbCircle
 10
403.3568550000000
 20
242.3602789999999
 30
0.000000000000000
 40
2.135059999999997
100
AcDbArc
 50
138.9319999999999
 51
221.0679999999999
  0
LINE
  5
204
100
AcDbEntity
  8
1
  6
CONTINUOUS
 62
7
100
AcDbLine
 10
409.7383549999998
 20
244.3954890000000
 30
0.000000000000000
 11
409.7383549999998
 21
240.1926089999999
 31
0.000000000000000
  0
LINE
  5
205
100
AcDbEntity
  8
1
  6
CONTINUOUS
 62
7
100
AcDbLine
 10
408.3323550000000
 20
244.3954890000000
 30
0.000000000000000
 11
408.3323550000000
 21
240.1926089999999
 31
0.000000000000000
  0
LINE
  5
206
100
AcDbEntity
  8
1
  6
CONTINUOUS
 62
7
100
AcDbLine
 10
405.7383549999998
 20
244.3954890000000
 30
0.000000000000000
 11
405.7383549999998
 21
240.1926089999999
 31
0.000000000000000
  0
LINE
  5
207
100
AcDbEntity
  8
1
  6
CONTINUOUS
 62
7
100
AcDbLine
 10
394.7237850000000
 20
244.2215589999999
 30
0.000000000000000
 11
394.7237850000000
 21
240.2215589999999
 31
0.000000000000000
  0
ARC
  5
208
100
AcDbEntity
  8
1
  6
CONTINUOUS
 62
7
100
AcDbCircle
 10
398.7045049999999
 20
241.9425589999999
 30
0.000000000000000
 40
1.531479999999999
100
AcDbArc
 50
221.0679999999999
 51
318.9320000000000
  0
ARC
  5
209
100
AcDbEntity
  8
1
  6
CONTINUOUS
 62
7
100
AcDbCircle
 10
391.7336049999999
 20
231.8147180000000
 30
0.000000000000000
 40
3.640619999999998
100
AcDbArc
 50
116.7849999999999
 51
243.2150000000000
  0
LINE
  5
20A
100
AcDbEntity
  8
1
  6
CONTINUOUS
 62
7
100
AcDbLine
 10
408.8926119999998
 20
220.8650739999999
 30
0.000000000000000
 11
409.4172849999997
 21
220.6741549999999
 31
0.000000000000000
  0
LINE
  5
20B
100
AcDbEntity
  8
1
  6
CONTINUOUS
 62
7
100
AcDbLine
 10
408.8919050000000
 20
222.7650700000000
 30
0.000000000000000
 11
409.4179920000000
 21
222.9559889999999
 31
0.000000000000000
  0
ARC
  5
20C
100
AcDbEntity
  8
1
  6
CONTINUOUS
 62
7
100
AcDbCircle
 10
408.8919050000000
 20
221.8147180000000
 30
0.000000000000000
 40
2.100000000000000
100
AcDbArc
 50
213.4630000000000
 51
236.5369999999999
  0
ARC
  5
20D
100
AcDbEntity
  8
1
  6
CONTINUOUS
 62
7
100
AcDbCircle
 10
408.8919050000000
 20
221.8147180000000
 30
0.000000000000000
 40
2.100000000000000
100
AcDbArc
 50
123.4629999999998
 51
146.5370000000000
  0
LINE
  5
20E
100
AcDbEntity
  8
1
  6
CONTINUOUS
 62
7
100
AcDbLine
 10
407.7513419999998
 20
221.2893380000000
 30
0.000000000000000
 11
407.1404010000000
 21
220.6571850000000
 31
0.000000000000000
  0
LINE
  5
20F
100
AcDbEntity
  8
1
  6
CONTINUOUS
 62
7
100
AcDbLine
 10
407.7513419999998
 20
222.3400990000000
 30
0.000000000000000
 11
407.1404010000000
 21
222.9722520000000
 31
0.000000000000000
  0
LINE
  5
210
100
AcDbEntity
  8
1
  6
CONTINUOUS
 62
7
100
AcDbLine
 10
407.9422600000000
 20
221.8154249999999
 30
0.000000000000000
 11
407.7513419999999
 21
221.2893380000000
 31
0.000000000000000
  0
LINE
  5
211
100
AcDbEntity
  8
1
  6
CONTINUOUS
 62
7
100
AcDbLine
 10
408.3665240000000
 20
220.6741549999999
 30
0.000000000000000
 11
407.7343710000000
 21
220.0632150000000
 31
0.000000000000000
  0
LINE
  5
212
100
AcDbEntity
  8
1
  6
CONTINUOUS
 62
7
100
AcDbLine
 10
408.8926119999999
 20
220.8650739999999
 30
0.000000000000000
 11
408.3665240000001
 21
220.6741549999999
 31
0.000000000000000
  0
LINE
  5
213
100
AcDbEntity
  8
1
  6
CONTINUOUS
 62
7
100
AcDbLine
 10
408.8919050000000
 20
222.7650700000000
 30
0.000000000000000
 11
408.3672319999997
 21
222.9559889999999
 31
0.000000000000000
  0
LINE
  5
214
100
AcDbEntity
  8
1
  6
CONTINUOUS
 62
7
100
AcDbLine
 10
408.3672319999997
 20
222.9559889999999
 30
0.000000000000000
 11
407.7343710000000
 21
223.5662220000000
 31
0.000000000000000
  0
LINE
  5
215
100
AcDbEntity
  8
1
  6
CONTINUOUS
 62
7
100
AcDbLine
 10
407.9422599999999
 20
221.8154249999998
 30
0.000000000000000
 11
407.7513419999997
 21
222.3400990000000
 31
0.000000000000000
  0
LINE
  5
216
100
AcDbEntity
  8
1
  6
CONTINUOUS
 62
7
100
AcDbLine
 10
409.4172849999997
 20
220.6741549999999
 30
0.000000000000000
 11
410.0508529999998
 21
220.0632150000000
 31
0.000000000000000
  0
LINE
  5
217
100
AcDbEntity
  8
1
  6
CONTINUOUS
 62
7
100
AcDbLine
 10
409.4179920000001
 20
222.9559890000000
 30
0.000000000000000
 11
410.0501460000000
 21
223.5669290000000
 31
0.000000000000000
  0
ARC
  5
218
100
AcDbEntity
  8
1
  6
CONTINUOUS
 62
7
100
AcDbCircle
 10
408.8919050000000
 20
221.8147180000000
 30
0.000000000000000
 40
2.100000000000000
100
AcDbArc
 50
303.4629999999999
 51
326.5369999999998
  0
ARC
  5
219
100
AcDbEntity
  8
1
  6
CONTINUOUS
 62
7
100
AcDbCircle
 10
408.8919050000000
 20
221.8147180000000
 30
0.000000000000000
 40
2.100000000000000
100
AcDbArc
 50
33.46300000000000
 51
56.53700000000001
  0
LINE
  5
21A
100
AcDbEntity
  8
1
  6
CONTINUOUS
 62
7
100
AcDbLine
 10
410.0331750000001
 20
221.2900449999999
 30
0.000000000000000
 11
410.6441150000000
 21
220.6564769999999
 31
0.000000000000000
  0
LINE
  5
21B
100
AcDbEntity
  8
1
  6
CONTINUOUS
 62
7
100
AcDbLine
 10
409.8422560000000
 20
221.8147180000000
 30
0.000000000000000
 11
410.0331750000000
 21
221.2900449999999
 31
0.000000000000000
  0
LINE
  5
21C
100
AcDbEntity
  8
1
  6
CONTINUOUS
 62
7
100
AcDbLine
 10
410.0331750000000
 20
222.3408060000000
 30
0.000000000000000
 11
410.6441150000000
 21
222.9729589999998
 31
0.000000000000000
  0
LINE
  5
21D
100
AcDbEntity
  8
1
  6
CONTINUOUS
 62
7
100
AcDbLine
 10
409.8422560000000
 20
221.8147180000001
 30
0.000000000000000
 11
410.0331750000000
 21
222.3408060000000
 31
0.000000000000000
  0
LINE
  5
21E
100
AcDbEntity
  8
4
  6
CENTER
 62
1
100
AcDbLine
 10
413.8929049999998
 20
221.8147180000000
 30
0.000000000000000
 11
403.8929050000000
 21
221.8147180000000
 31
0.000000000000000
  0
ARC
  5
21F
100
AcDbEntity
  8
1
  6
CONTINUOUS
 62
7
100
AcDbCircle
 10
412.9986549999999
 20
241.8911490000000
 30
0.000000000000000
 40
1.531479999999999
100
AcDbArc
 50
221.0679999999999
 51
276.5910000000001
  0
ARC
  5
220
100
AcDbEntity
  8
1
  6
CONTINUOUS
 62
7
100
AcDbCircle
 10
403.0678550000000
 20
241.4866490000000
 30
0.000000000000000
 40
1.026289999999999
100
AcDbArc
 50
289.1929999999999
 51
354.3410000000001
  0
ARC
  5
221
100
AcDbEntity
  8
1
  6
CONTINUOUS
 62
7
100
AcDbCircle
 10
402.9017549999998
 20
241.9637589999999
 30
0.000000000000000
 40
1.531479999999999
100
AcDbArc
 50
221.0679999999999
 51
289.1929999999999
  0
LINE
  5
222
100
AcDbEntity
  8
1
  6
CONTINUOUS
 62
7
100
AcDbLine
 10
414.4194549999999
 20
241.4950189999999
 30
0.000000000000000
 11
414.4194549999999
 21
240.2215589999999
 31
0.000000000000000
  0
ARC
  5
223
100
AcDbEntity
  8
1
  6
CONTINUOUS
 62
7
100
AcDbCircle
 10
398.7045049999999
 20
242.7355990000001
 30
0.000000000000000
 40
1.531479999999999
100
AcDbArc
 50
41.06790000000000
 51
138.9319999999999
  0
ARC
  5
224
100
AcDbEntity
  8
1
  6
CONTINUOUS
 62
7
100
AcDbCircle
 10
391.7336049999999
 20
253.8147180000000
 30
0.000000000000000
 40
3.640629999999998
100
AcDbArc
 50
116.7849999999999
 51
243.2150000000000
  0
LINE
  5
225
100
AcDbEntity
  8
1
  6
CONTINUOUS
 62
7
100
AcDbLine
 10
393.1005450000000
 20
244.2215589999999
 30
0.000000000000000
 11
396.3613849999999
 21
244.2215589999999
 31
0.000000000000000
  0
LINE
  5
226
100
AcDbEntity
  8
1
  6
CONTINUOUS
 62
7
100
AcDbLine
 10
409.8422560000000
 20
263.8146759999999
 30
0.000000000000000
 11
410.0331750000000
 21
263.2900029999998
 31
0.000000000000000
  0
LINE
  5
227
100
AcDbEntity
  8
1
  6
CONTINUOUS
 62
7
100
AcDbLine
 10
410.0331750000000
 20
263.2900029999999
 30
0.000000000000000
 11
410.6441150000000
 21
262.6564349999998
 31
0.000000000000000
  0
ARC
  5
228
100
AcDbEntity
  8
1
  6
CONTINUOUS
 62
7
100
AcDbCircle
 10
408.8919050000000
 20
263.8146759999999
 30
0.000000000000000
 40
2.100000000000000
100
AcDbArc
 50
303.4629999999999
 51
326.5369999999998
  0
LINE
  5
229
100
AcDbEntity
  8
1
  6
CONTINUOUS
 62
7
100
AcDbLine
 10
408.8926119999999
 20
262.8650319999999
 30
0.000000000000000
 11
408.3665240000000
 21
262.6741129999999
 31
0.000000000000000
  0
LINE
  5
22A
100
AcDbEntity
  8
1
  6
CONTINUOUS
 62
7
100
AcDbLine
 10
408.3665240000000
 20
262.6741129999999
 30
0.000000000000000
 11
407.7343710000000
 21
262.0631729999998
 31
0.000000000000000
  0
LINE
  5
22B
100
AcDbEntity
  8
1
  6
CONTINUOUS
 62
7
100
AcDbLine
 10
407.9422599999999
 20
263.8153829999998
 30
0.000000000000000
 11
407.7513419999998
 21
263.2892959999999
 31
0.000000000000000
  0
LINE
  5
22C
100
AcDbEntity
  8
1
  6
CONTINUOUS
 62
7
100
AcDbLine
 10
408.8926119999998
 20
262.8650319999999
 30
0.000000000000000
 11
409.4172849999997
 21
262.6741129999999
 31
0.000000000000000
  0
LINE
  5
22D
100
AcDbEntity
  8
1
  6
CONTINUOUS
 62
7
100
AcDbLine
 10
407.7513419999998
 20
263.2892960000000
 30
0.000000000000000
 11
407.1404010000000
 21
262.6571430000000
 31
0.000000000000000
  0
ARC
  5
22E
100
AcDbEntity
  8
1
  6
CONTINUOUS
 62
7
100
AcDbCircle
 10
408.8919050000000
 20
263.8146759999999
 30
0.000000000000000
 40
2.100000000000000
100
AcDbArc
 50
213.4630000000000
 51
236.5369999999999
  0
LINE
  5
22F
100
AcDbEntity
  8
1
  6
CONTINUOUS
 62
7
100
AcDbLine
 10
409.4172849999998
 20
262.6741130000000
 30
0.000000000000000
 11
410.0508529999998
 21
262.0631730000000
 31
0.000000000000000
  0
LINE
  5
230
100
AcDbEntity
  8
4
  6
CENTER
 62
1
100
AcDbLine
 10
413.8929049999998
 20
263.8146759999999
 30
0.000000000000000
 11
403.8929050000000
 21
263.8146759999999
 31
0.000000000000000
  0
ARC
  5
231
100
AcDbEntity
  8
1
  6
CONTINUOUS
 62
7
100
AcDbCircle
 10
412.9986549999999
 20
242.6841990000000
 30
0.000000000000000
 40
1.531479999999999
100
AcDbArc
 50
70.80719999999998
 51
138.9319999999999
  0
ARC
  5
232
100
AcDbEntity
  8
1
  6
CONTINUOUS
 62
7
100
AcDbCircle
 10
413.1647549999998
 20
243.1613089999999
 30
0.000000000000000
 40
1.026289999999999
100
AcDbArc
 50
5.659239999999998
 51
70.80719999999998
  0
ARC
  5
233
100
AcDbEntity
  8
1
  6
CONTINUOUS
 62
7
100
AcDbCircle
 10
403.0678550000000
 20
243.2339089999999
 30
0.000000000000000
 40
1.026289999999999
100
AcDbArc
 50
5.659239999999998
 51
70.80719999999998
  0
ARC
  5
234
100
AcDbEntity
  8
1
  6
CONTINUOUS
 62
7
100
AcDbCircle
 10
402.9017549999998
 20
242.7567990000000
 30
0.000000000000000
 40
1.531479999999999
100
AcDbArc
 50
70.80719999999998
 51
138.9319999999999
  0
LINE
  5
235
100
AcDbEntity
  8
1
  6
CONTINUOUS
 62
7
100
AcDbLine
 10
413.0136549999998
 20
242.0911690000000
 30
0.000000000000000
 11
414.4194549999999
 21
242.0911690000000
 31
0.000000000000000
  0
LINE
  5
236
100
AcDbEntity
  8
1
  6
CONTINUOUS
 62
7
100
AcDbLine
 10
405.7383549999998
 20
242.2940490000000
 30
0.000000000000000
 11
408.3323550000000
 21
242.2940490000000
 31
0.000000000000000
  0
LINE
  5
237
100
AcDbEntity
  8
1
  6
CONTINUOUS
 62
7
100
AcDbLine
 10
427.6928049999998
 20
250.5647180000000
 30
0.000000000000000
 11
427.6928049999998
 21
235.0647180000000
 31
0.000000000000000
  0
LINE
  5
238
100
AcDbEntity
  8
1
  6
CONTINUOUS
 62
7
100
AcDbLine
 10
415.5788549999998
 20
244.3954890000000
 30
0.000000000000000
 11
415.5788549999998
 21
240.1926089999999
 31
0.000000000000000
  0
LINE
  5
239
100
AcDbEntity
  8
1
  6
CONTINUOUS
 62
7
100
AcDbLine
 10
418.3759549999998
 20
242.0765890000000
 30
0.000000000000000
 11
418.3759549999998
 21
240.1926089999999
 31
0.000000000000000
  0
LINE
  5
23A
100
AcDbEntity
  8
1
  6
CONTINUOUS
 62
7
100
AcDbLine
 10
422.1077549999999
 20
244.2940490000000
 30
0.000000000000000
 11
420.5208549999999
 21
240.2070089999999
 31
0.000000000000000
  0
LINE
  5
23B
100
AcDbEntity
  8
1
  6
CONTINUOUS
 62
7
100
AcDbLine
 10
422.1077549999999
 20
244.3012390000000
 30
0.000000000000000
 11
423.6223550000000
 21
240.2069989999999
 31
0.000000000000000
  0
ARC
  5
23C
100
AcDbEntity
  8
1
  6
CONTINUOUS
 62
7
100
AcDbCircle
 10
426.0523049999997
 20
231.8147180000000
 30
0.000000000000000
 40
3.640619999999998
100
AcDbArc
 50
296.7850000000000
 51
423.2150000000000
  0
LINE
  5
23D
100
AcDbEntity
  8
1
  6
CONTINUOUS
 62
7
100
AcDbLine
 10
420.9991549999998
 20
241.4098689999999
 30
0.000000000000000
 11
423.1802550000000
 21
241.4098689999999
 31
0.000000000000000
  0
ARC
  5
23E
100
AcDbEntity
  8
1
  6
CONTINUOUS
 62
7
100
AcDbCircle
 10
426.0523049999997
 20
253.8147180000000
 30
0.000000000000000
 40
3.640629999999998
100
AcDbArc
 50
296.7850000000000
 51
423.2150000000000
  0
LINE
  5
23F
100
AcDbEntity
  8
1
  6
CONTINUOUS
 62
7
100
AcDbLine
 10
418.3759549999997
 20
242.0837990000000
 30
0.000000000000000
 11
417.0285549999999
 21
244.4247589999999
 31
0.000000000000000
  0
LINE
  5
240
100
AcDbEntity
  8
1
  6
CONTINUOUS
 62
7
100
AcDbLine
 10
418.3759549999997
 20
242.0765790000000
 30
0.000000000000000
 11
419.7331549999998
 21
244.4272789999998
 31
0.000000000000000
  0
ARC
  5
241
100
AcDbEntity
  8
1
  6
CONTINUOUS
 62
7
100
AcDbCircle
 10
518.8537629999998
 20
221.8147180000000
 30
0.000000000000000
 40
9.000000000000000
100
AcDbArc
 50
164.1190000000000
 51
195.8809999999998
  0
ARC
  5
242
100
AcDbEntity
  8
1
  6
CONTINUOUS
 62
7
100
AcDbCircle
 10
420.3929050000000
 20
302.8147180000000
 30
0.000000000000000
 40
5.000000000000000
100
AcDbArc
 50
0.000000000000000
 51
90.00000000000000
  0
ARC
  5
243
100
AcDbEntity
  8
1
  6
CONTINUOUS
 62
7
100
AcDbCircle
 10
397.3929049999999
 20
302.8147180000000
 30
0.000000000000000
 40
5.000000000000000
100
AcDbArc
 50
90.00000000000000
 51
180.0000000000000
  0
LINE
  5
244
100
AcDbEntity
  8
1
  6
CONTINUOUS
 62
7
100
AcDbLine
 10
388.8929049999999
 20
308.8147180000000
 30
0.000000000000000
 11
388.8929049999999
 21
272.8146779999998
 31
0.000000000000000
  0
LINE
  5
245
100
AcDbEntity
  8
1
  6
CONTINUOUS
 62
7
100
AcDbLine
 10
428.8928049999998
 20
308.8147180000000
 30
0.000000000000000
 11
428.8928049999998
 21
272.8146779999998
 31
0.000000000000000
  0
CIRCLE
  5
246
100
AcDbEntity
  8
1
  6
CONTINUOUS
 62
7
100
AcDbCircle
 10
408.8929049999999
 20
289.8147180000000
 30
0.000000000000000
 40
16.50000000000000
  0
CIRCLE
  5
247
100
AcDbEntity
  8
1
  6
CONTINUOUS
 62
7
100
AcDbCircle
 10
408.8929049999999
 20
289.8147180000000
 30
0.000000000000000
 40
8.000000000000000
  0
CIRCLE
  5
248
100
AcDbEntity
  8
1
  6
CONTINUOUS
 62
7
100
AcDbCircle
 10
408.8929049999999
 20
289.8147180000000
 30
0.000000000000000
 40
11.00000000000000
  0
CIRCLE
  5
249
100
AcDbEntity
  8
1
  6
CONTINUOUS
 62
7
100
AcDbCircle
 10
408.8929049999999
 20
289.8147180000000
 30
0.000000000000000
 40
6.099999999999997
  0
ARC
  5
24A
100
AcDbEntity
  8
1
  6
CONTINUOUS
 62
7
100
AcDbCircle
 10
408.8929049999999
 20
289.8147180000000
 30
0.000000000000000
 40
13.00000000000000
100
AcDbArc
 50
210.0000000000000
 51
420.0000000000000
  0
ARC
  5
24B
100
AcDbEntity
  8
1
  6
CONTINUOUS
 62
7
100
AcDbCircle
 10
408.8929049999999
 20
289.8147180000000
 30
0.000000000000000
 40
14.00000000000000
100
AcDbArc
 50
59.99999999999999
 51
119.9999999999999
  0
LINE
  5
24C
100
AcDbEntity
  8
1
  6
CONTINUOUS
 62
7
100
AcDbLine
 10
386.8929049999999
 20
272.8146779999998
 30
0.000000000000000
 11
430.8928049999998
 21
272.8146779999998
 31
0.000000000000000
  0
LINE
  5
24D
100
AcDbEntity
  8
1
  6
CONTINUOUS
 62
7
100
AcDbLine
 10
414.3929280000000
 20
299.3409839999997
 30
0.000000000000000
 11
415.8929050000000
 21
301.9390179999998
 31
0.000000000000000
  0
LINE
  5
24E
100
AcDbEntity
  8
1
  6
CONTINUOUS
 62
7
100
AcDbLine
 10
420.3929050000000
 20
307.8147180000001
 30
0.000000000000000
 11
397.3929049999999
 21
307.8147180000001
 31
0.000000000000000
  0
LINE
  5
24F
100
AcDbEntity
  8
1
  6
CONTINUOUS
 62
7
100
AcDbLine
 10
403.8929049999999
 20
286.9277180000000
 30
0.000000000000000
 11
408.8929049999999
 21
284.0407180000001
 31
0.000000000000000
  0
LINE
  5
250
100
AcDbEntity
  8
1
  6
CONTINUOUS
 62
7
100
AcDbLine
 10
413.8929049999998
 20
286.9277180000000
 30
0.000000000000000
 11
408.8929049999999
 21
284.0407180000001
 31
0.000000000000000
  0
CIRCLE
  5
251
100
AcDbEntity
  8
1
  6
CONTINUOUS
 62
7
100
AcDbCircle
 10
408.8929049999999
 20
289.8147180000000
 30
0.000000000000000
 40
5.000000000000000
  0
CIRCLE
  5
252
100
AcDbEntity
  8
1
  6
CONTINUOUS
 62
7
100
AcDbCircle
 10
408.8929049999999
 20
289.8147180000000
 30
0.000000000000000
 40
4.049999999999998
  0
ARC
  5
253
100
AcDbEntity
  8
1
  6
CONTINUOUS
 62
7
100
AcDbCircle
 10
408.8929049999999
 20
289.8147180000000
 30
0.000000000000000
 40
12.50000000000000
100
AcDbArc
 50
119.9999999999999
 51
210.0000000000000
  0
LINE
  5
254
100
AcDbEntity
  8
1
  6
CONTINUOUS
 62
7
100
AcDbLine
 10
392.3929049999999
 20
302.8147180000000
 30
0.000000000000000
 11
392.3929049999999
 21
272.8146779999998
 31
0.000000000000000
  0
LINE
  5
255
100
AcDbEntity
  8
1
  6
CONTINUOUS
 62
7
100
AcDbLine
 10
399.3666370000000
 20
284.3146980000000
 30
0.000000000000000
 11
397.6346049999999
 21
283.3147180000000
 31
0.000000000000000
  0
ARC
  5
256
100
AcDbEntity
  8
1
  6
CONTINUOUS
 62
7
100
AcDbCircle
 10
386.8929049999999
 20
269.8146779999999
 30
0.000000000000000
 40
3.000000000000000
100
AcDbArc
 50
90.00000000000000
 51
180.0000000000000
  0
ARC
  5
257
100
AcDbEntity
  8
1
  6
CONTINUOUS
 62
7
100
AcDbCircle
 10
384.8929049999999
 20
278.5786180000000
 30
0.000000000000000
 40
10.00000000000000
100
AcDbArc
 50
0.000000000000000
 51
25.08760000000000
  0
LINE
  5
258
100
AcDbEntity
  8
1
  6
CONTINUOUS
 62
7
100
AcDbLine
 10
394.8929049999999
 20
278.5786180000000
 30
0.000000000000000
 11
394.8929049999999
 21
272.8146779999998
 31
0.000000000000000
  0
LINE
  5
259
100
AcDbEntity
  8
1
  6
CONTINUOUS
 62
7
100
AcDbLine
 10
410.0331750000000
 20
264.3407639999999
 30
0.000000000000000
 11
410.6441149999999
 21
264.9729169999999
 31
0.000000000000000
  0
ARC
  5
25A
100
AcDbEntity
  8
1
  6
CONTINUOUS
 62
7
100
AcDbCircle
 10
408.8919050000000
 20
263.8146759999999
 30
0.000000000000000
 40
2.100000000000000
100
AcDbArc
 50
33.46300000000000
 51
56.53700000000001
  0
LINE
  5
25B
100
AcDbEntity
  8
1
  6
CONTINUOUS
 62
7
100
AcDbLine
 10
408.8919050000001
 20
264.7650279999999
 30
0.000000000000000
 11
409.4179920000001
 21
264.9559469999999
 31
0.000000000000000
  0
LINE
  5
25C
100
AcDbEntity
  8
1
  6
CONTINUOUS
 62
7
100
AcDbLine
 10
408.3672319999997
 20
264.9559469999999
 30
0.000000000000000
 11
407.7343709999999
 21
265.5661799999999
 31
0.000000000000000
  0
LINE
  5
25D
100
AcDbEntity
  8
1
  6
CONTINUOUS
 62
7
100
AcDbLine
 10
408.8919050000000
 20
264.7650279999999
 30
0.000000000000000
 11
408.3672319999997
 21
264.9559469999999
 31
0.000000000000000
  0
LINE
  5
25E
100
AcDbEntity
  8
1
  6
CONTINUOUS
 62
7
100
AcDbLine
 10
407.7513419999997
 20
264.3400569999999
 30
0.000000000000000
 11
407.1404009999999
 21
264.9722099999999
 31
0.000000000000000
  0
ARC
  5
25F
100
AcDbEntity
  8
1
  6
CONTINUOUS
 62
7
100
AcDbCircle
 10
408.8919050000000
 20
263.8146759999999
 30
0.000000000000000
 40
2.100000000000000
100
AcDbArc
 50
123.4629999999998
 51
146.5370000000000
  0
LINE
  5
260
100
AcDbEntity
  8
1
  6
CONTINUOUS
 62
7
100
AcDbLine
 10
409.4179920000000
 20
264.9559469999999
 30
0.000000000000000
 11
410.0501460000000
 21
265.5668869999999
 31
0.000000000000000
  0
ARC
  5
261
100
AcDbEntity
  8
1
  6
CONTINUOUS
 62
7
100
AcDbCircle
 10
407.3929050000000
 20
272.8809779999999
 30
0.000000000000000
 40
0.5000000000000000
100
AcDbArc
 50
0.000000000000000
 51
84.93790000000000
  0
ARC
  5
262
100
AcDbEntity
  8
1
  6
CONTINUOUS
 62
7
100
AcDbCircle
 10
410.3929049999998
 20
272.8809779999999
 30
0.000000000000000
 40
0.5000000000000000
100
AcDbArc
 50
95.06210000000002
 51
180.0000000000000
  0
LINE
  5
263
100
AcDbEntity
  8
1
  6
CONTINUOUS
 62
7
100
AcDbLine
 10
409.8929049999998
 20
276.8532180000000
 30
0.000000000000000
 11
409.8929049999998
 21
273.3450080000000
 31
0.000000000000000
  0
LINE
  5
264
100
AcDbEntity
  8
1
  6
CONTINUOUS
 62
7
100
AcDbLine
 10
407.8929050000000
 20
276.8532180000000
 30
0.000000000000000
 11
407.8929050000000
 21
273.3450080000000
 31
0.000000000000000
  0
LINE
  5
265
100
AcDbEntity
  8
1
  6
CONTINUOUS
 62
7
100
AcDbLine
 10
396.4330050000000
 20
288.8147180000000
 30
0.000000000000000
 11
392.4233049999998
 21
288.8147180000000
 31
0.000000000000000
  0
LINE
  5
266
100
AcDbEntity
  8
1
  6
CONTINUOUS
 62
7
100
AcDbLine
 10
396.4330050000000
 20
290.8147180000000
 30
0.000000000000000
 11
392.4233049999998
 21
290.8147180000000
 31
0.000000000000000
  0
LINE
  5
267
100
AcDbEntity
  8
1
  6
CONTINUOUS
 62
7
100
AcDbLine
 10
413.8929049999998
 20
286.9277180000000
 30
0.000000000000000
 11
413.8929049999998
 21
292.7017180000000
 31
0.000000000000000
  0
LINE
  5
268
100
AcDbEntity
  8
1
  6
CONTINUOUS
 62
7
100
AcDbLine
 10
408.8929049999999
 20
291.2985420000001
 30
0.000000000000000
 11
408.8899399999999
 21
291.2994480000000
 31
0.000000000000000
  0
LINE
  5
269
100
AcDbEntity
  8
1
  6
CONTINUOUS
 62
7
100
AcDbLine
 10
408.8929049999999
 20
291.2985420000000
 30
0.000000000000000
 11
408.8958689999999
 21
291.2994480000000
 31
0.000000000000000
  0
LINE
  5
26A
100
AcDbEntity
  8
1
  6
CONTINUOUS
 62
7
100
AcDbLine
 10
408.8958690000001
 20
291.2994480000000
 30
0.000000000000000
 11
410.2463959999998
 21
292.6036359999999
 31
0.000000000000000
  0
LINE
  5
26B
100
AcDbEntity
  8
1
  6
CONTINUOUS
 62
7
100
AcDbLine
 10
407.5394140000000
 20
292.6036359999999
 30
0.000000000000000
 11
408.8899399999998
 21
291.2994480000000
 31
0.000000000000000
  0
LINE
  5
26C
100
AcDbEntity
  8
1
  6
CONTINUOUS
 62
7
100
AcDbLine
 10
408.8929049999999
 20
295.5877179999998
 30
0.000000000000000
 11
403.8929050000000
 21
292.7017180000000
 31
0.000000000000000
  0
ARC
  5
26D
100
AcDbEntity
  8
1
  6
CONTINUOUS
 62
7
100
AcDbCircle
 10
408.8929049999999
 20
289.8147180000000
 30
0.000000000000000
 40
3.100000000000000
100
AcDbArc
 50
115.8877849999999
 51
154.1122149999999
  0
LINE
  5
26E
100
AcDbEntity
  8
1
  6
CONTINUOUS
 62
7
100
AcDbLine
 10
410.2463959999998
 20
287.0258010000001
 30
0.000000000000000
 11
408.8958690000001
 21
288.3299890000000
 31
0.000000000000000
  0
LINE
  5
26F
100
AcDbEntity
  8
1
  6
CONTINUOUS
 62
7
100
AcDbLine
 10
410.3767279999998
 20
289.8147180000001
 30
0.000000000000000
 11
410.3776340000000
 21
289.8176830000000
 31
0.000000000000000
  0
LINE
  5
270
100
AcDbEntity
  8
1
  6
CONTINUOUS
 62
7
100
AcDbLine
 10
410.3767279999998
 20
289.8147180000001
 30
0.000000000000000
 11
410.3776340000001
 21
289.8117540000001
 31
0.000000000000000
  0
LINE
  5
271
100
AcDbEntity
  8
1
  6
CONTINUOUS
 62
7
100
AcDbLine
 10
408.8929050000000
 20
288.3308949999999
 30
0.000000000000000
 11
408.8958690000000
 21
288.3299889999999
 31
0.000000000000000
  0
LINE
  5
272
100
AcDbEntity
  8
1
  6
CONTINUOUS
 62
7
100
AcDbLine
 10
408.8929050000000
 20
288.3308949999999
 30
0.000000000000000
 11
408.8899399999999
 21
288.3299889999999
 31
0.000000000000000
  0
LINE
  5
273
100
AcDbEntity
  8
1
  6
CONTINUOUS
 62
7
100
AcDbLine
 10
407.4090819999998
 20
289.8147180000001
 30
0.000000000000000
 11
407.4081750000000
 21
289.8117540000001
 31
0.000000000000000
  0
LINE
  5
274
100
AcDbEntity
  8
1
  6
CONTINUOUS
 62
7
100
AcDbLine
 10
407.4090819999997
 20
289.8147180000000
 30
0.000000000000000
 11
407.4081750000000
 21
289.8176830000000
 31
0.000000000000000
  0
LINE
  5
275
100
AcDbEntity
  8
1
  6
CONTINUOUS
 62
7
100
AcDbLine
 10
408.8899399999998
 20
288.3299889999999
 30
0.000000000000000
 11
407.5394140000000
 21
287.0258010000000
 31
0.000000000000000
  0
ARC
  5
276
100
AcDbEntity
  8
1
  6
CONTINUOUS
 62
7
100
AcDbCircle
 10
408.8929049999999
 20
289.8147180000000
 30
0.000000000000000
 40
3.100000000000000
100
AcDbArc
 50
205.8877850000000
 51
244.1122150000000
  0
LINE
  5
277
100
AcDbEntity
  8
1
  6
CONTINUOUS
 62
7
100
AcDbLine
 10
407.4081750000000
 20
289.8117540000000
 30
0.000000000000000
 11
406.1039870000000
 21
288.4612270000000
 31
0.000000000000000
  0
LINE
  5
278
100
AcDbEntity
  8
1
  6
CONTINUOUS
 62
7
100
AcDbLine
 10
403.8929050000000
 20
286.9277180000000
 30
0.000000000000000
 11
403.8929050000000
 21
292.7017180000000
 31
0.000000000000000
  0
LINE
  5
279
100
AcDbEntity
  8
1
  6
CONTINUOUS
 62
7
100
AcDbLine
 10
406.1039870000000
 20
291.1682089999999
 30
0.000000000000000
 11
407.4081750000000
 21
289.8176830000000
 31
0.000000000000000
  0
LINE
  5
27A
100
AcDbEntity
  8
1
  6
CONTINUOUS
 62
7
100
AcDbLine
 10
408.8929050000000
 20
295.5877179999999
 30
0.000000000000000
 11
413.8929049999999
 21
292.7017180000001
 31
0.000000000000000
  0
ARC
  5
27B
100
AcDbEntity
  8
1
  6
CONTINUOUS
 62
7
100
AcDbCircle
 10
408.8929049999999
 20
289.8147180000000
 30
0.000000000000000
 40
3.100000000000000
100
AcDbArc
 50
295.8877850000000
 51
334.1122149999999
  0
LINE
  5
27C
100
AcDbEntity
  8
1
  6
CONTINUOUS
 62
7
100
AcDbLine
 10
411.6818229999998
 20
288.4612270000001
 30
0.000000000000000
 11
410.3776340000001
 21
289.8117540000001
 31
0.000000000000000
  0
LINE
  5
27D
100
AcDbEntity
  8
1
  6
CONTINUOUS
 62
7
100
AcDbLine
 10
410.3776339999999
 20
289.8176829999999
 30
0.000000000000000
 11
411.6818229999998
 21
291.1682089999998
 31
0.000000000000000
  0
ARC
  5
27E
100
AcDbEntity
  8
1
  6
CONTINUOUS
 62
7
100
AcDbCircle
 10
408.8929049999999
 20
289.8147180000000
 30
0.000000000000000
 40
3.100000000000000
100
AcDbArc
 50
25.88778500000000
 51
64.11221500000001
  0
LINE
  5
27F
100
AcDbEntity
  8
1
  6
CONTINUOUS
 62
7
100
AcDbLine
 10
409.8929049999998
 20
306.2843870000000
 30
0.000000000000000
 11
409.8929049999998
 21
303.7789179999998
 31
0.000000000000000
  0
LINE
  5
280
100
AcDbEntity
  8
1
  6
CONTINUOUS
 62
7
100
AcDbLine
 10
407.8929050000000
 20
306.2843870000000
 30
0.000000000000000
 11
407.8929050000000
 21
303.7789179999998
 31
0.000000000000000
  0
LINE
  5
281
100
AcDbEntity
  8
1
  6
CONTINUOUS
 62
7
100
AcDbLine
 10
403.3928829999998
 20
299.3409849999999
 30
0.000000000000000
 11
401.8929049999998
 21
301.9390179999998
 31
0.000000000000000
  0
LINE
  5
282
100
AcDbEntity
  8
1
  6
CONTINUOUS
 62
7
100
AcDbLine
 10
425.3929049999999
 20
302.8147180000000
 30
0.000000000000000
 11
425.3929049999999
 21
272.8146779999998
 31
0.000000000000000
  0
ARC
  5
283
100
AcDbEntity
  8
1
  6
CONTINUOUS
 62
7
100
AcDbCircle
 10
432.8928050000000
 20
278.5786180000000
 30
0.000000000000000
 40
10.00000000000000
100
AcDbArc
 50
154.9120000000000
 51
180.0000000000000
  0
LINE
  5
284
100
AcDbEntity
  8
1
  6
CONTINUOUS
 62
7
100
AcDbLine
 10
422.8929049999998
 20
278.5786180000000
 30
0.000000000000000
 11
422.8929049999998
 21
272.8146779999998
 31
0.000000000000000
  0
ARC
  5
285
100
AcDbEntity
  8
1
  6
CONTINUOUS
 62
7
100
AcDbCircle
 10
430.8928049999998
 20
269.8146779999999
 30
0.000000000000000
 40
3.000000000000000
100
AcDbArc
 50
0.000000000000000
 51
90.00000000000000
  0
LINE
  5
286
100
AcDbEntity
  8
1
  6
CONTINUOUS
 62
7
100
AcDbLine
 10
425.3626049999998
 20
288.8147180000000
 30
0.000000000000000
 11
421.8544050000000
 21
288.8147180000000
 31
0.000000000000000
  0
LINE
  5
287
100
AcDbEntity
  8
1
  6
CONTINUOUS
 62
7
100
AcDbLine
 10
425.3626049999998
 20
290.8147180000000
 30
0.000000000000000
 11
421.8544050000000
 21
290.8147180000000
 31
0.000000000000000
  0
LINE
  5
288
100
AcDbEntity
  8
1
  6
CONTINUOUS
 62
7
100
AcDbLine
 10
424.8929050000000
 20
312.8147180000000
 30
0.000000000000000
 11
392.8929049999999
 21
312.8147180000000
 31
0.000000000000000
  0
ARC
  5
289
100
AcDbEntity
  8
1
  6
CONTINUOUS
 62
7
100
AcDbCircle
 10
392.8929049999999
 20
308.8147180000000
 30
0.000000000000000
 40
4.000000000000000
100
AcDbArc
 50
90.00000000000000
 51
180.0000000000000
  0
ARC
  5
28A
100
AcDbEntity
  8
1
  6
CONTINUOUS
 62
7
100
AcDbCircle
 10
424.8929050000000
 20
308.8147180000000
 30
0.000000000000000
 40
4.000000000000000
100
AcDbArc
 50
0.000000000000000
 51
90.00000000000000
  0
LINE
  5
28B
100
AcDbEntity
  8
1
  6
CONTINUOUS
 62
7
100
AcDbLine
 10
59.17347800000000
 20
405.6097779999998
 30
0.000000000000000
 11
65.87347800000001
 21
405.6097779999998
 31
0.000000000000000
  0
LINE
  5
28C
100
AcDbEntity
  8
1
  6
CONTINUOUS
 62
7
100
AcDbLine
 10
59.17347800000000
 20
414.6097779999998
 30
0.000000000000000
 11
65.87347800000001
 21
414.6097779999998
 31
0.000000000000000
  0
LINE
  5
28D
100
AcDbEntity
  8
1
  6
CONTINUOUS
 62
7
100
AcDbLine
 10
59.17351400000001
 20
414.6097840000000
 30
0.000000000000000
 11
65.87351400000000
 21
414.6097840000000
 31
0.000000000000000
  0
LINE
  5
28E
100
AcDbEntity
  8
1
  6
CONTINUOUS
 62
7
100
AcDbLine
 10
59.17351400000001
 20
405.6097839999997
 30
0.000000000000000
 11
65.87351400000000
 21
405.6097839999997
 31
0.000000000000000
  0
LINE
  5
28F
100
AcDbEntity
  8
1
  6
CONTINUOUS
 62
7
100
AcDbLine
 10
62.67347800000000
 20
410.8097779999998
 30
0.000000000000000
 11
86.08074800000000
 21
410.8097779999998
 31
0.000000000000000
  0
LINE
  5
290
100
AcDbEntity
  8
1
  6
CONTINUOUS
 62
7
100
AcDbLine
 10
62.67347800000000
 20
409.6097780000000
 30
0.000000000000000
 11
85.44492400000001
 21
409.6097780000000
 31
0.000000000000000
  0
LINE
  5
291
100
AcDbEntity
  8
4
  6
CENTER
 62
1
100
AcDbLine
 10
36.42796500000000
 20
410.1097779999998
 30
0.000000000000000
 11
87.46238599999998
 21
410.1097779999998
 31
0.000000000000000
  0
LINE
  5
292
100
AcDbEntity
  8
4
  6
CENTER
 62
1
100
AcDbLine
 10
36.42800100000000
 20
410.1097839999998
 30
0.000000000000000
 11
87.46242200000002
 21
410.1097839999998
 31
0.000000000000000
  0
LINE
  5
293
100
AcDbEntity
  8
1
  6
CONTINUOUS
 62
7
100
AcDbLine
 10
62.67351399999999
 20
409.6097839999997
 30
0.000000000000000
 11
85.44495999999998
 21
409.6097839999997
 31
0.000000000000000
  0
LINE
  5
294
100
AcDbEntity
  8
1
  6
CONTINUOUS
 62
7
100
AcDbLine
 10
62.67351399999999
 20
410.8097840000000
 30
0.000000000000000
 11
86.08078399999998
 21
410.8097840000000
 31
0.000000000000000
  0
LINE
  5
295
100
AcDbEntity
  8
1
  6
CONTINUOUS
 62
7
100
AcDbLine
 10
49.70681100000002
 20
421.7097779999998
 30
0.000000000000000
 11
59.17347800000002
 21
414.6097779999998
 31
0.000000000000000
  0
LINE
  5
296
100
AcDbEntity
  8
1
  6
CONTINUOUS
 62
7
100
AcDbLine
 10
49.10681099999999
 20
420.9097780000000
 30
0.000000000000000
 11
59.17347800000002
 21
413.3597780000000
 31
0.000000000000000
  0
LINE
  5
297
100
AcDbEntity
  8
1
  6
CONTINUOUS
 62
7
100
AcDbLine
 10
49.10684699999999
 20
420.9097839999998
 30
0.000000000000000
 11
59.17351399999998
 21
413.3597839999998
 31
0.000000000000000
  0
LINE
  5
298
100
AcDbEntity
  8
1
  6
CONTINUOUS
 62
7
100
AcDbLine
 10
49.70684699999998
 20
421.7097840000000
 30
0.000000000000000
 11
59.17351400000001
 21
414.6097839999999
 31
0.000000000000000
  0
LINE
  5
299
100
AcDbEntity
  8
1
  6
CONTINUOUS
 62
7
100
AcDbLine
 10
38.50937700000000
 20
415.1136270000000
 30
0.000000000000000
 11
42.57974500000000
 21
421.2191780000000
 31
0.000000000000000
  0
LINE
  5
29A
100
AcDbEntity
  8
1
  6
CONTINUOUS
 62
7
100
AcDbLine
 10
43.41179499999998
 20
420.6644779999998
 30
0.000000000000000
 11
39.34142799999998
 21
414.5589270000000
 31
0.000000000000000
  0
LINE
  5
29B
100
AcDbEntity
  8
1
  6
CONTINUOUS
 62
7
100
AcDbLine
 10
43.41183099999998
 20
420.6644840000001
 30
0.000000000000000
 11
39.34146399999997
 21
414.5589329999999
 31
0.000000000000000
  0
LINE
  5
29C
100
AcDbEntity
  8
1
  6
CONTINUOUS
 62
7
100
AcDbLine
 10
38.50941300000002
 20
415.1136329999998
 30
0.000000000000000
 11
42.57978100000000
 21
421.2191840000000
 31
0.000000000000000
  0
LINE
  5
29D
100
AcDbEntity
  8
1
  6
CONTINUOUS
 62
7
100
AcDbLine
 10
46.41881099999999
 20
409.7213739999999
 30
0.000000000000000
 11
51.84542100000000
 21
409.7213739999999
 31
0.000000000000000
  0
LINE
  5
29E
100
AcDbEntity
  8
1
  6
CONTINUOUS
 62
7
100
AcDbLine
 10
46.48354499999999
 20
408.9445650000000
 30
0.000000000000000
 11
51.78068700000000
 21
408.9445650000000
 31
0.000000000000000
  0
LINE
  5
29F
100
AcDbEntity
  8
1
  6
CONTINUOUS
 62
7
100
AcDbLine
 10
47.11193900000000
 20
407.3877890000000
 30
0.000000000000000
 11
51.15229300000000
 21
407.3877890000000
 31
0.000000000000000
  0
ARC
  5
2A0
100
AcDbEntity
  8
1
  6
CONTINUOUS
 62
7
100
AcDbCircle
 10
49.13132700000000
 20
405.4441879999997
 30
0.000000000000000
 40
2.004309000000000
100
AcDbArc
 50
215.5377000000000
 51
256.5374000000000
  0
LINE
  5
2A1
100
AcDbEntity
  8
1
  6
CONTINUOUS
 62
7
100
AcDbLine
 10
48.19820899999999
 20
408.1661770000000
 30
0.000000000000000
 11
46.71406199999998
 21
408.1661770000000
 31
0.000000000000000
  0
LINE
  5
2A2
100
AcDbEntity
  8
1
  6
CONTINUOUS
 62
7
100
AcDbLine
 10
47.21298800000000
 20
406.6109799999998
 30
0.000000000000000
 11
51.04966499999999
 21
406.6109799999998
 31
0.000000000000000
  0
LINE
  5
2A3
100
AcDbEntity
  8
1
  6
CONTINUOUS
 62
7
100
AcDbLine
 10
50.56652800000001
 20
405.8325929999998
 30
0.000000000000000
 11
47.69770399999997
 21
405.8325929999998
 31
0.000000000000000
  0
LINE
  5
2A4
100
AcDbEntity
  8
1
  6
CONTINUOUS
 62
7
100
AcDbLine
 10
46.99825999999998
 20
405.0557839999998
 30
0.000000000000000
 11
50.35180100000000
 21
405.0557839999998
 31
0.000000000000000
  0
LINE
  5
2A5
100
AcDbEntity
  8
1
  6
CONTINUOUS
 62
7
100
AcDbLine
 10
46.57511999999999
 20
412.8317670000000
 30
0.000000000000000
 11
51.44438499999999
 21
412.8317670000000
 31
0.000000000000000
  0
LINE
  5
2A6
100
AcDbEntity
  8
1
  6
CONTINUOUS
 62
7
100
AcDbLine
 10
46.57196200000000
 20
411.2765699999997
 30
0.000000000000000
 11
51.69227000000000
 21
411.2765699999997
 31
0.000000000000000
  0
LINE
  5
2A7
100
AcDbEntity
  8
1
  6
CONTINUOUS
 62
7
100
AcDbLine
 10
46.41881099999999
 20
410.4997609999998
 30
0.000000000000000
 11
51.84542100000000
 21
410.4997609999998
 31
0.000000000000000
  0
ARC
  5
2A8
100
AcDbEntity
  8
1
  6
CONTINUOUS
 62
7
100
AcDbCircle
 10
49.13132700000000
 20
414.7769470000000
 30
0.000000000000000
 40
2.004309000000000
100
AcDbArc
 50
62.25000000000000
 51
144.4620000000000
  0
LINE
  5
2A9
100
AcDbEntity
  8
1
  6
CONTINUOUS
 62
7
100
AcDbLine
 10
50.58705399999999
 20
414.7832619999999
 30
0.000000000000000
 11
47.30929899999997
 21
415.6626979999998
 31
0.000000000000000
  0
LINE
  5
2AA
100
AcDbEntity
  8
1
  6
CONTINUOUS
 62
7
100
AcDbLine
 10
48.74292200000000
 20
414.3885420000000
 30
0.000000000000000
 11
47.08194100000000
 21
414.3885420000000
 31
0.000000000000000
  0
LINE
  5
2AB
100
AcDbEntity
  8
1
  6
CONTINUOUS
 62
7
100
AcDbLine
 10
46.94142000000000
 20
413.6101540000000
 30
0.000000000000000
 11
48.74292200000000
 21
413.6101540000000
 31
0.000000000000000
  0
LINE
  5
2AC
100
AcDbEntity
  8
1
  6
CONTINUOUS
 62
7
100
AcDbLine
 10
48.19820899999999
 20
412.0549580000000
 30
0.000000000000000
 11
46.93668399999999
 21
412.0549580000000
 31
0.000000000000000
  0
LINE
  5
2AD
100
AcDbEntity
  8
1
  6
CONTINUOUS
 62
7
100
AcDbLine
 10
48.19824500000000
 20
408.1661829999998
 30
0.000000000000000
 11
46.71409800000000
 21
408.1661829999998
 31
0.000000000000000
  0
LINE
  5
2AE
100
AcDbEntity
  8
1
  6
CONTINUOUS
 62
7
100
AcDbLine
 10
48.74295800000000
 20
414.3885479999998
 30
0.000000000000000
 11
47.08197700000000
 21
414.3885479999998
 31
0.000000000000000
  0
LINE
  5
2AF
100
AcDbEntity
  8
1
  6
CONTINUOUS
 62
7
100
AcDbLine
 10
46.94145699999999
 20
413.6101599999998
 30
0.000000000000000
 11
48.74295800000000
 21
413.6101599999998
 31
0.000000000000000
  0
LINE
  5
2B0
100
AcDbEntity
  8
1
  6
CONTINUOUS
 62
7
100
AcDbLine
 10
48.19824500000000
 20
412.0549640000000
 30
0.000000000000000
 11
46.93672000000000
 21
412.0549640000000
 31
0.000000000000000
  0
ARC
  5
2B1
100
AcDbEntity
  8
1
  6
CONTINUOUS
 62
7
100
AcDbCircle
 10
49.13136300000000
 20
405.4441940000000
 30
0.000000000000000
 40
2.004309000000000
100
AcDbArc
 50
215.5377000000000
 51
256.5374000000000
  0
LINE
  5
2B2
100
AcDbEntity
  8
1
  6
CONTINUOUS
 62
7
100
AcDbLine
 10
47.11197600000000
 20
407.3877949999999
 30
0.000000000000000
 11
51.15232899999998
 21
407.3877949999999
 31
0.000000000000000
  0
LINE
  5
2B3
100
AcDbEntity
  8
1
  6
CONTINUOUS
 62
7
100
AcDbLine
 10
47.21302399999999
 20
406.6109860000000
 30
0.000000000000000
 11
51.04970200000000
 21
406.6109860000000
 31
0.000000000000000
  0
LINE
  5
2B4
100
AcDbEntity
  8
1
  6
CONTINUOUS
 62
7
100
AcDbLine
 10
50.56656499999998
 20
405.8325990000000
 30
0.000000000000000
 11
47.69774000000000
 21
405.8325990000000
 31
0.000000000000000
  0
LINE
  5
2B5
100
AcDbEntity
  8
1
  6
CONTINUOUS
 62
7
100
AcDbLine
 10
46.99829600000000
 20
405.0557900000000
 30
0.000000000000000
 11
50.35183700000001
 21
405.0557900000000
 31
0.000000000000000
  0
LINE
  5
2B6
100
AcDbEntity
  8
1
  6
CONTINUOUS
 62
7
100
AcDbLine
 10
46.41884700000000
 20
409.7213790000000
 30
0.000000000000000
 11
51.84545700000001
 21
409.7213790000000
 31
0.000000000000000
  0
LINE
  5
2B7
100
AcDbEntity
  8
1
  6
CONTINUOUS
 62
7
100
AcDbLine
 10
46.48358199999999
 20
408.9445709999997
 30
0.000000000000000
 11
51.78072300000000
 21
408.9445709999997
 31
0.000000000000000
  0
ARC
  5
2B8
100
AcDbEntity
  8
1
  6
CONTINUOUS
 62
7
100
AcDbCircle
 10
49.13136300000000
 20
414.7769519999997
 30
0.000000000000000
 40
2.004309000000000
100
AcDbArc
 50
62.25000000000000
 51
144.4620000000000
  0
LINE
  5
2B9
100
AcDbEntity
  8
1
  6
CONTINUOUS
 62
7
100
AcDbLine
 10
46.57515700000000
 20
412.8317720000000
 30
0.000000000000000
 11
51.44442200000000
 21
412.8317720000000
 31
0.000000000000000
  0
LINE
  5
2BA
100
AcDbEntity
  8
1
  6
CONTINUOUS
 62
7
100
AcDbLine
 10
46.57199900000000
 20
411.2765760000000
 30
0.000000000000000
 11
51.69230600000000
 21
411.2765760000000
 31
0.000000000000000
  0
LINE
  5
2BB
100
AcDbEntity
  8
1
  6
CONTINUOUS
 62
7
100
AcDbLine
 10
46.41884700000000
 20
410.4997670000000
 30
0.000000000000000
 11
51.84545700000001
 21
410.4997670000000
 31
0.000000000000000
  0
LINE
  5
2BC
100
AcDbEntity
  8
1
  6
CONTINUOUS
 62
7
100
AcDbLine
 10
50.58709000000000
 20
414.7832680000001
 30
0.000000000000000
 11
47.30933600000002
 21
415.6627040000001
 31
0.000000000000000
  0
LINE
  5
2BD
100
AcDbEntity
  8
1
  6
CONTINUOUS
 62
7
100
AcDbLine
 10
44.24384500000000
 20
398.1097780000000
 30
0.000000000000000
 11
48.50681100000000
 21
398.1097780000000
 31
0.000000000000000
  0
LINE
  5
2BE
100
AcDbEntity
  8
1
  6
CONTINUOUS
 62
7
100
AcDbLine
 10
48.50681100000000
 20
399.1097780000000
 30
0.000000000000000
 11
44.24384500000000
 21
399.1097780000000
 31
0.000000000000000
  0
LINE
  5
2BF
100
AcDbEntity
  8
1
  6
CONTINUOUS
 62
7
100
AcDbLine
 10
48.50684700000000
 20
399.1097840000000
 30
0.000000000000000
 11
44.24388100000000
 21
399.1097840000000
 31
0.000000000000000
  0
LINE
  5
2C0
100
AcDbEntity
  8
1
  6
CONTINUOUS
 62
7
100
AcDbLine
 10
44.24388100000000
 20
398.1097839999998
 30
0.000000000000000
 11
48.50684700000000
 21
398.1097839999998
 31
0.000000000000000
  0
ARC
  5
2C1
100
AcDbEntity
  8
1
  6
CONTINUOUS
 62
7
100
AcDbCircle
 10
47.11193900000000
 20
407.7777730000000
 30
0.000000000000000
 40
0.3889570000000000
100
AcDbArc
 50
195.2574999999999
 51
270.0000000000000
  0
ARC
  5
2C2
100
AcDbEntity
  8
1
  6
CONTINUOUS
 62
7
100
AcDbCircle
 10
55.66473100000000
 20
410.1097779999998
 30
0.000000000000000
 40
9.254918999999999
100
AcDbArc
 50
193.2680999999999
 51
195.2574999999999
  0
ARC
  5
2C3
100
AcDbEntity
  8
1
  6
CONTINUOUS
 62
7
100
AcDbCircle
 10
55.66473100000000
 20
410.1097779999998
 30
0.000000000000000
 40
9.254918999999999
100
AcDbArc
 50
192.7289000000000
 51
193.2680999999999
  0
ARC
  5
2C4
100
AcDbEntity
  8
1
  6
CONTINUOUS
 62
7
100
AcDbCircle
 10
46.71406199999998
 20
408.0888120000000
 30
0.000000000000000
 40
0.07779100000000000
100
AcDbArc
 50
90.00000000000000
 51
192.7289000000000
  0
ARC
  5
2C5
100
AcDbEntity
  8
1
  6
CONTINUOUS
 62
7
100
AcDbCircle
 10
47.21298800000000
 20
406.5336150000000
 30
0.000000000000000
 40
0.07779100000000000
100
AcDbArc
 50
90.00000000000000
 51
202.9440000000000
  0
ARC
  5
2C6
100
AcDbEntity
  8
1
  6
CONTINUOUS
 62
7
100
AcDbCircle
 10
55.66473100000000
 20
410.1097779999998
 30
0.000000000000000
 40
9.254918999999999
100
AcDbArc
 50
202.9440000000000
 51
206.0144000000000
  0
ARC
  5
2C7
100
AcDbEntity
  8
1
  6
CONTINUOUS
 62
7
100
AcDbCircle
 10
47.69770399999997
 20
406.2225760000000
 30
0.000000000000000
 40
0.3889570000000000
100
AcDbArc
 50
206.0144000000000
 51
270.0000000000000
  0
ARC
  5
2C8
100
AcDbEntity
  8
1
  6
CONTINUOUS
 62
7
100
AcDbCircle
 10
46.57196200000000
 20
411.3555140000000
 30
0.000000000000000
 40
0.07779100000000000
100
AcDbArc
 50
172.2069999999999
 51
270.0000000000000
  0
ARC
  5
2C9
100
AcDbEntity
  8
1
  6
CONTINUOUS
 62
7
100
AcDbCircle
 10
55.66473100000000
 20
410.1097779999998
 30
0.000000000000000
 40
9.254918999999999
100
AcDbArc
 50
169.8960000000000
 51
172.2069999999999
  0
ARC
  5
2CA
100
AcDbEntity
  8
1
  6
CONTINUOUS
 62
7
100
AcDbCircle
 10
46.93668399999999
 20
411.6665529999998
 30
0.000000000000000
 40
0.3889570000000000
100
AcDbArc
 50
90.00000000000000
 51
169.8960000000000
  0
ARC
  5
2CB
100
AcDbEntity
  8
1
  6
CONTINUOUS
 62
7
100
AcDbCircle
 10
55.66473100000000
 20
410.1097779999998
 30
0.000000000000000
 40
10.03262800000000
100
AcDbArc
 50
144.4620000000000
 51
215.5377000000000
  0
ARC
  5
2CC
100
AcDbEntity
  8
1
  6
CONTINUOUS
 62
7
100
AcDbCircle
 10
47.11197600000000
 20
407.7777779999998
 30
0.000000000000000
 40
0.3889570000000000
100
AcDbArc
 50
195.2574999999999
 51
270.0000000000000
  0
ARC
  5
2CD
100
AcDbEntity
  8
1
  6
CONTINUOUS
 62
7
100
AcDbCircle
 10
55.66476699999999
 20
410.1097839999998
 30
0.000000000000000
 40
9.254918999999999
100
AcDbArc
 50
193.2680999999999
 51
195.2574999999999
  0
ARC
  5
2CE
100
AcDbEntity
  8
1
  6
CONTINUOUS
 62
7
100
AcDbCircle
 10
55.66476699999999
 20
410.1097839999998
 30
0.000000000000000
 40
9.254918999999999
100
AcDbArc
 50
192.7289000000000
 51
193.2680999999999
  0
ARC
  5
2CF
100
AcDbEntity
  8
1
  6
CONTINUOUS
 62
7
100
AcDbCircle
 10
46.71409800000000
 20
408.0888180000000
 30
0.000000000000000
 40
0.07779100000000000
100
AcDbArc
 50
90.00000000000000
 51
192.7289000000000
  0
ARC
  5
2D0
100
AcDbEntity
  8
1
  6
CONTINUOUS
 62
7
100
AcDbCircle
 10
47.21302399999999
 20
406.5336209999999
 30
0.000000000000000
 40
0.07779100000000000
100
AcDbArc
 50
90.00000000000000
 51
202.9440000000000
  0
ARC
  5
2D1
100
AcDbEntity
  8
1
  6
CONTINUOUS
 62
7
100
AcDbCircle
 10
55.66476699999999
 20
410.1097839999998
 30
0.000000000000000
 40
9.254918999999999
100
AcDbArc
 50
202.9440000000000
 51
206.0144000000000
  0
ARC
  5
2D2
100
AcDbEntity
  8
1
  6
CONTINUOUS
 62
7
100
AcDbCircle
 10
47.69774000000000
 20
406.2225820000000
 30
0.000000000000000
 40
0.3889570000000000
100
AcDbArc
 50
206.0144000000000
 51
270.0000000000000
  0
ARC
  5
2D3
100
AcDbEntity
  8
1
  6
CONTINUOUS
 62
7
100
AcDbCircle
 10
46.57199900000000
 20
411.3555200000000
 30
0.000000000000000
 40
0.07779100000000000
100
AcDbArc
 50
172.2069999999999
 51
270.0000000000000
  0
ARC
  5
2D4
100
AcDbEntity
  8
1
  6
CONTINUOUS
 62
7
100
AcDbCircle
 10
55.66476699999999
 20
410.1097839999998
 30
0.000000000000000
 40
9.254918999999999
100
AcDbArc
 50
169.8960000000000
 51
172.2069999999999
  0
ARC
  5
2D5
100
AcDbEntity
  8
1
  6
CONTINUOUS
 62
7
100
AcDbCircle
 10
46.93672000000000
 20
411.6665590000000
 30
0.000000000000000
 40
0.3889570000000000
100
AcDbArc
 50
90.00000000000000
 51
169.8960000000000
  0
ARC
  5
2D6
100
AcDbEntity
  8
1
  6
CONTINUOUS
 62
7
100
AcDbCircle
 10
55.66476699999999
 20
410.1097839999998
 30
0.000000000000000
 40
10.03262800000000
100
AcDbArc
 50
144.4620000000000
 51
215.5377000000000
  0
LINE
  5
2D7
100
AcDbEntity
  8
1
  6
CONTINUOUS
 62
7
100
AcDbLine
 10
38.17347800000000
 20
414.0042270000000
 30
0.000000000000000
 11
38.17347800000000
 21
406.2153290000000
 31
0.000000000000000
  0
LINE
  5
2D8
100
AcDbEntity
  8
1
  6
CONTINUOUS
 62
7
100
AcDbLine
 10
40.17347800000000
 20
413.6097780000000
 30
0.000000000000000
 11
40.17347800000000
 21
406.6097779999997
 31
0.000000000000000
  0
LINE
  5
2D9
100
AcDbEntity
  8
1
  6
CONTINUOUS
 62
7
100
AcDbLine
 10
44.17347800000000
 20
413.6097780000000
 30
0.000000000000000
 11
44.17347800000000
 21
406.6097779999997
 31
0.000000000000000
  0
LINE
  5
2DA
100
AcDbEntity
  8
1
  6
CONTINUOUS
 62
7
100
AcDbLine
 10
40.67347800000000
 20
406.1097779999998
 30
0.000000000000000
 11
43.67347800000000
 21
406.1097779999998
 31
0.000000000000000
  0
LINE
  5
2DB
100
AcDbEntity
  8
1
  6
CONTINUOUS
 62
7
100
AcDbLine
 10
40.67347800000000
 20
414.1097779999998
 30
0.000000000000000
 11
43.67347800000000
 21
414.1097779999998
 31
0.000000000000000
  0
LINE
  5
2DC
100
AcDbEntity
  8
1
  6
CONTINUOUS
 62
7
100
AcDbLine
 10
38.50937700000000
 20
405.1059290000001
 30
0.000000000000000
 11
42.57974500000000
 21
399.0003779999998
 31
0.000000000000000
  0
ARC
  5
2DD
100
AcDbEntity
  8
1
  6
CONTINUOUS
 62
7
100
AcDbCircle
 10
40.67347800000000
 20
406.6097779999997
 30
0.000000000000000
 40
0.5000000000000000
100
AcDbArc
 50
180.0000000000000
 51
270.0000000000000
  0
ARC
  5
2DE
100
AcDbEntity
  8
1
  6
CONTINUOUS
 62
7
100
AcDbCircle
 10
43.67347800000000
 20
406.6097779999997
 30
0.000000000000000
 40
0.5000000000000000
100
AcDbArc
 50
270.0000000000000
 51
360.0000000000000
  0
ARC
  5
2DF
100
AcDbEntity
  8
1
  6
CONTINUOUS
 62
7
100
AcDbCircle
 10
43.67347800000000
 20
413.6097780000000
 30
0.000000000000000
 40
0.5000000000000000
100
AcDbArc
 50
0.000000000000000
 51
90.00000000000000
  0
ARC
  5
2E0
100
AcDbEntity
  8
1
  6
CONTINUOUS
 62
7
100
AcDbCircle
 10
40.17347800000000
 20
414.0042270000000
 30
0.000000000000000
 40
2.000000000000000
100
AcDbArc
 50
146.3099319999998
 51
180.0000000000000
  0
ARC
  5
2E1
100
AcDbEntity
  8
1
  6
CONTINUOUS
 62
7
100
AcDbCircle
 10
40.17347800000000
 20
406.2153290000000
 30
0.000000000000000
 40
2.000000000000000
100
AcDbArc
 50
180.0000000000000
 51
213.6900680000000
  0
ARC
  5
2E2
100
AcDbEntity
  8
1
  6
CONTINUOUS
 62
7
100
AcDbCircle
 10
44.24384500000000
 20
400.1097780000000
 30
0.000000000000000
 40
2.000000000000000
100
AcDbArc
 50
213.6900680000000
 51
270.0000000000000
  0
LINE
  5
2E3
100
AcDbEntity
  8
1
  6
CONTINUOUS
 62
7
100
AcDbLine
 10
39.00641599999997
 20
415.8813139999997
 30
0.000000000000000
 11
39.04204000000001
 21
415.9126219999999
 31
0.000000000000000
  0
ARC
  5
2E4
100
AcDbEntity
  8
1
  6
CONTINUOUS
 62
7
100
AcDbCircle
 10
40.67347800000000
 20
413.6097780000000
 30
0.000000000000000
 40
0.5000000000000000
100
AcDbArc
 50
90.00000000000000
 51
180.0000000000000
  0
ARC
  5
2E5
100
AcDbEntity
  8
1
  6
CONTINUOUS
 62
7
100
AcDbCircle
 10
44.24384500000000
 20
400.1097780000000
 30
0.000000000000000
 40
1.000000000000000
100
AcDbArc
 50
213.6900680000000
 51
270.0000000000000
  0
ARC
  5
2E6
100
AcDbEntity
  8
1
  6
CONTINUOUS
 62
7
100
AcDbCircle
 10
40.17347800000000
 20
406.2153290000000
 30
0.000000000000000
 40
1.000000000000000
100
AcDbArc
 50
180.0000000000000
 51
213.6900680000000
  0
LINE
  5
2E7
100
AcDbEntity
  8
1
  6
CONTINUOUS
 62
7
100
AcDbLine
 10
39.17347800000000
 20
406.2153290000000
 30
0.000000000000000
 11
39.17347800000000
 21
414.0042270000000
 31
0.000000000000000
  0
ARC
  5
2E8
100
AcDbEntity
  8
1
  6
CONTINUOUS
 62
7
100
AcDbCircle
 10
40.17347800000000
 20
414.0042270000000
 30
0.000000000000000
 40
1.000000000000000
100
AcDbArc
 50
146.3099319999998
 51
180.0000000000000
  0
LINE
  5
2E9
100
AcDbEntity
  8
1
  6
CONTINUOUS
 62
7
100
AcDbLine
 10
43.41179500000001
 20
399.5550779999999
 30
0.000000000000000
 11
39.34142800000001
 21
405.6606289999997
 31
0.000000000000000
  0
LINE
  5
2EA
100
AcDbEntity
  8
1
  6
CONTINUOUS
 62
7
100
AcDbLine
 10
43.41183100000001
 20
399.5550839999999
 30
0.000000000000000
 11
39.34146399999997
 21
405.6606350000001
 31
0.000000000000000
  0
ARC
  5
2EB
100
AcDbEntity
  8
1
  6
CONTINUOUS
 62
7
100
AcDbCircle
 10
40.17351399999999
 20
414.0042329999998
 30
0.000000000000000
 40
1.000000000000000
100
AcDbArc
 50
146.3099319999998
 51
180.0000000000000
  0
LINE
  5
2EC
100
AcDbEntity
  8
1
  6
CONTINUOUS
 62
7
100
AcDbLine
 10
39.17351399999999
 20
406.2153349999999
 30
0.000000000000000
 11
39.17351399999999
 21
414.0042329999998
 31
0.000000000000000
  0
ARC
  5
2ED
100
AcDbEntity
  8
1
  6
CONTINUOUS
 62
7
100
AcDbCircle
 10
40.17351399999999
 20
406.2153349999999
 30
0.000000000000000
 40
1.000000000000000
100
AcDbArc
 50
180.0000000000000
 51
213.6900680000000
  0
ARC
  5
2EE
100
AcDbEntity
  8
1
  6
CONTINUOUS
 62
7
100
AcDbCircle
 10
44.24388100000000
 20
400.1097839999998
 30
0.000000000000000
 40
1.000000000000000
100
AcDbArc
 50
213.6900680000000
 51
270.0000000000000
  0
ARC
  5
2EF
100
AcDbEntity
  8
1
  6
CONTINUOUS
 62
7
100
AcDbCircle
 10
40.67351399999998
 20
413.6097839999997
 30
0.000000000000000
 40
0.5000000000000000
100
AcDbArc
 50
90.00000000000000
 51
180.0000000000000
  0
LINE
  5
2F0
100
AcDbEntity
  8
1
  6
CONTINUOUS
 62
7
100
AcDbLine
 10
39.00645200000000
 20
415.8813199999997
 30
0.000000000000000
 11
39.04207600000001
 21
415.9126279999998
 31
0.000000000000000
  0
ARC
  5
2F1
100
AcDbEntity
  8
1
  6
CONTINUOUS
 62
7
100
AcDbCircle
 10
44.24388100000000
 20
400.1097839999998
 30
0.000000000000000
 40
2.000000000000000
100
AcDbArc
 50
213.6900680000000
 51
270.0000000000000
  0
ARC
  5
2F2
100
AcDbEntity
  8
1
  6
CONTINUOUS
 62
7
100
AcDbCircle
 10
40.17351399999999
 20
406.2153349999999
 30
0.000000000000000
 40
2.000000000000000
100
AcDbArc
 50
180.0000000000000
 51
213.6900680000000
  0
ARC
  5
2F3
100
AcDbEntity
  8
1
  6
CONTINUOUS
 62
7
100
AcDbCircle
 10
40.17351399999999
 20
414.0042329999998
 30
0.000000000000000
 40
2.000000000000000
100
AcDbArc
 50
146.3099319999998
 51
180.0000000000000
  0
ARC
  5
2F4
100
AcDbEntity
  8
1
  6
CONTINUOUS
 62
7
100
AcDbCircle
 10
43.67351399999999
 20
413.6097839999997
 30
0.000000000000000
 40
0.5000000000000000
100
AcDbArc
 50
0.000000000000000
 51
90.00000000000000
  0
ARC
  5
2F5
100
AcDbEntity
  8
1
  6
CONTINUOUS
 62
7
100
AcDbCircle
 10
43.67351399999999
 20
406.6097840000000
 30
0.000000000000000
 40
0.5000000000000000
100
AcDbArc
 50
270.0000000000000
 51
360.0000000000000
  0
ARC
  5
2F6
100
AcDbEntity
  8
1
  6
CONTINUOUS
 62
7
100
AcDbCircle
 10
40.67351399999998
 20
406.6097840000000
 30
0.000000000000000
 40
0.5000000000000000
100
AcDbArc
 50
180.0000000000000
 51
270.0000000000000
  0
LINE
  5
2F7
100
AcDbEntity
  8
1
  6
CONTINUOUS
 62
7
100
AcDbLine
 10
38.50941300000000
 20
405.1059350000000
 30
0.000000000000000
 11
42.57978099999997
 21
399.0003839999999
 31
0.000000000000000
  0
LINE
  5
2F8
100
AcDbEntity
  8
1
  6
CONTINUOUS
 62
7
100
AcDbLine
 10
40.67351399999998
 20
414.1097839999998
 30
0.000000000000000
 11
43.67351399999999
 21
414.1097839999998
 31
0.000000000000000
  0
LINE
  5
2F9
100
AcDbEntity
  8
1
  6
CONTINUOUS
 62
7
100
AcDbLine
 10
40.67351399999998
 20
406.1097840000000
 30
0.000000000000000
 11
43.67351399999999
 21
406.1097840000000
 31
0.000000000000000
  0
LINE
  5
2FA
100
AcDbEntity
  8
1
  6
CONTINUOUS
 62
7
100
AcDbLine
 10
44.17351400000000
 20
413.6097839999997
 30
0.000000000000000
 11
44.17351400000000
 21
406.6097840000000
 31
0.000000000000000
  0
LINE
  5
2FB
100
AcDbEntity
  8
1
  6
CONTINUOUS
 62
7
100
AcDbLine
 10
40.17351399999999
 20
413.6097839999997
 30
0.000000000000000
 11
40.17351399999999
 21
406.6097840000000
 31
0.000000000000000
  0
LINE
  5
2FC
100
AcDbEntity
  8
1
  6
CONTINUOUS
 62
7
100
AcDbLine
 10
38.17351399999999
 20
414.0042329999998
 30
0.000000000000000
 11
38.17351399999999
 21
406.2153349999999
 31
0.000000000000000
  0
LINE
  5
2FD
100
AcDbEntity
  8
1
  6
CONTINUOUS
 62
7
100
AcDbLine
 10
62.67347800000000
 20
410.8097779999998
 30
0.000000000000000
 11
62.67347800000000
 21
409.6097780000000
 31
0.000000000000000
  0
LINE
  5
2FE
100
AcDbEntity
  8
1
  6
CONTINUOUS
 62
7
100
AcDbLine
 10
62.67351399999999
 20
410.8097840000000
 30
0.000000000000000
 11
62.67351399999999
 21
409.6097839999997
 31
0.000000000000000
  0
LINE
  5
2FF
100
AcDbEntity
  8
1
  6
CONTINUOUS
 62
7
100
AcDbLine
 10
49.70681099999999
 20
398.5097780000000
 30
0.000000000000000
 11
59.17347799999999
 21
405.6097779999998
 31
0.000000000000000
  0
ARC
  5
300
100
AcDbEntity
  8
1
  6
CONTINUOUS
 62
7
100
AcDbCircle
 10
48.50681100000000
 20
400.1097780000000
 30
0.000000000000000
 40
2.000000000000000
100
AcDbArc
 50
270.0000000000000
 51
306.8698979999999
  0
LINE
  5
301
100
AcDbEntity
  8
1
  6
CONTINUOUS
 62
7
100
AcDbLine
 10
59.17347799999996
 20
406.8597780000000
 30
0.000000000000000
 11
49.10681099999996
 21
399.3097779999999
 31
0.000000000000000
  0
ARC
  5
302
100
AcDbEntity
  8
1
  6
CONTINUOUS
 62
7
100
AcDbCircle
 10
48.50681100000000
 20
400.1097780000000
 30
0.000000000000000
 40
1.000000000000000
100
AcDbArc
 50
270.0000000000000
 51
306.8698979999999
  0
LINE
  5
303
100
AcDbEntity
  8
1
  6
CONTINUOUS
 62
7
100
AcDbLine
 10
59.17347800000000
 20
406.8597780000000
 30
0.000000000000000
 11
59.17347800000000
 21
413.3597780000000
 31
0.000000000000000
  0
ARC
  5
304
100
AcDbEntity
  8
1
  6
CONTINUOUS
 62
7
100
AcDbCircle
 10
42.59950100000000
 20
410.1097779999998
 30
0.000000000000000
 40
9.254918999999999
100
AcDbArc
 50
333.9859999999998
 51
337.0559999999999
  0
ARC
  5
305
100
AcDbEntity
  8
1
  6
CONTINUOUS
 62
7
100
AcDbCircle
 10
51.04966499999999
 20
406.5336150000000
 30
0.000000000000000
 40
0.07779100000000000
100
AcDbArc
 50
337.0559999999999
 51
450.0000000000000
  0
LINE
  5
306
100
AcDbEntity
  8
1
  6
CONTINUOUS
 62
7
100
AcDbLine
 10
51.55017000000000
 20
408.1661770000000
 30
0.000000000000000
 11
50.06444400000000
 21
408.1661770000000
 31
0.000000000000000
  0
ARC
  5
307
100
AcDbEntity
  8
1
  6
CONTINUOUS
 62
7
100
AcDbCircle
 10
51.55017000000000
 20
408.0888120000000
 30
0.000000000000000
 40
0.07779100000000000
100
AcDbArc
 50
347.2709999999998
 51
450.0000000000000
  0
ARC
  5
308
100
AcDbEntity
  8
1
  6
CONTINUOUS
 62
7
100
AcDbCircle
 10
42.59950100000000
 20
410.1097779999998
 30
0.000000000000000
 40
9.254918999999999
100
AcDbArc
 50
344.7940000000000
 51
347.2709999999998
  0
ARC
  5
309
100
AcDbEntity
  8
1
  6
CONTINUOUS
 62
7
100
AcDbCircle
 10
42.59950100000000
 20
410.1097779999998
 30
0.000000000000000
 40
9.254918999999999
100
AcDbArc
 50
344.7419999999998
 51
344.7940000000000
  0
ARC
  5
30A
100
AcDbEntity
  8
1
  6
CONTINUOUS
 62
7
100
AcDbCircle
 10
51.15229300000000
 20
407.7777730000000
 30
0.000000000000000
 40
0.3889570000000000
100
AcDbArc
 50
270.0000000000000
 51
344.7419999999998
  0
ARC
  5
30B
100
AcDbEntity
  8
1
  6
CONTINUOUS
 62
7
100
AcDbCircle
 10
50.56652800000001
 20
406.2225760000000
 30
0.000000000000000
 40
0.3889570000000000
100
AcDbArc
 50
270.0000000000000
 51
333.9859999999998
  0
ARC
  5
30C
100
AcDbEntity
  8
1
  6
CONTINUOUS
 62
7
100
AcDbCircle
 10
49.13132700000000
 20
405.4441879999997
 30
0.000000000000000
 40
2.004309000000000
100
AcDbArc
 50
270.0000000000000
 51
324.4619999999998
  0
LINE
  5
30D
100
AcDbEntity
  8
1
  6
CONTINUOUS
 62
7
100
AcDbLine
 10
49.13132700000000
 20
409.7213739999999
 30
0.000000000000000
 11
49.13132700000000
 21
408.9445650000000
 31
0.000000000000000
  0
LINE
  5
30E
100
AcDbEntity
  8
1
  6
CONTINUOUS
 62
7
100
AcDbLine
 10
51.32754800000000
 20
412.0549580000000
 30
0.000000000000000
 11
49.13132700000000
 21
412.0549580000000
 31
0.000000000000000
  0
ARC
  5
30F
100
AcDbEntity
  8
1
  6
CONTINUOUS
 62
7
100
AcDbCircle
 10
42.59950100000000
 20
410.1097779999998
 30
0.000000000000000
 40
9.254918999999999
100
AcDbArc
 50
7.792999999999998
 51
10.10399999999999
  0
ARC
  5
310
100
AcDbEntity
  8
1
  6
CONTINUOUS
 62
7
100
AcDbCircle
 10
51.69227000000000
 20
411.3555140000000
 30
0.000000000000000
 40
0.07779100000000000
100
AcDbArc
 50
270.0000000000000
 51
367.7930000000000
  0
ARC
  5
311
100
AcDbEntity
  8
1
  6
CONTINUOUS
 62
7
100
AcDbCircle
 10
51.32754800000000
 20
411.6665529999998
 30
0.000000000000000
 40
0.3889570000000000
100
AcDbArc
 50
10.10399999999999
 51
90.00000000000000
  0
ARC
  5
312
100
AcDbEntity
  8
1
  6
CONTINUOUS
 62
7
100
AcDbCircle
 10
49.13132700000000
 20
414.7769470000000
 30
0.000000000000000
 40
2.004309000000000
100
AcDbArc
 50
35.53799999999999
 51
45.69899999999998
  0
ARC
  5
313
100
AcDbEntity
  8
1
  6
CONTINUOUS
 62
7
100
AcDbCircle
 10
48.74292200000000
 20
413.9985590000000
 30
0.000000000000000
 40
0.3889570000000000
100
AcDbArc
 50
270.0000000000000
 51
450.0000000000000
  0
LINE
  5
314
100
AcDbEntity
  8
1
  6
CONTINUOUS
 62
7
100
AcDbLine
 10
49.13132700000000
 20
416.7805450000000
 30
0.000000000000000
 11
49.13132700000000
 21
415.1732449999998
 31
0.000000000000000
  0
LINE
  5
315
100
AcDbEntity
  8
1
  6
CONTINUOUS
 62
7
100
AcDbLine
 10
49.13132700000000
 20
413.9985590000000
 30
0.000000000000000
 11
50.99756200000000
 21
413.9985590000000
 31
0.000000000000000
  0
LINE
  5
316
100
AcDbEntity
  8
1
  6
CONTINUOUS
 62
7
100
AcDbLine
 10
49.13132700000000
 20
412.0549580000000
 30
0.000000000000000
 11
49.13132700000000
 21
411.6665529999998
 31
0.000000000000000
  0
ARC
  5
317
100
AcDbEntity
  8
1
  6
CONTINUOUS
 62
7
100
AcDbCircle
 10
42.59950100000000
 20
410.1097779999998
 30
0.000000000000000
 40
10.03262800000000
100
AcDbArc
 50
324.4619999999998
 51
395.5380000000000
  0
ARC
  5
318
100
AcDbEntity
  8
1
  6
CONTINUOUS
 62
7
100
AcDbCircle
 10
42.59953699999999
 20
410.1097839999998
 30
0.000000000000000
 40
9.254918999999999
100
AcDbArc
 50
333.9859999999998
 51
337.0559999999999
  0
ARC
  5
319
100
AcDbEntity
  8
1
  6
CONTINUOUS
 62
7
100
AcDbCircle
 10
51.04970200000000
 20
406.5336209999999
 30
0.000000000000000
 40
0.07779100000000000
100
AcDbArc
 50
337.0559999999999
 51
450.0000000000000
  0
LINE
  5
31A
100
AcDbEntity
  8
1
  6
CONTINUOUS
 62
7
100
AcDbLine
 10
51.55020700000000
 20
408.1661829999998
 30
0.000000000000000
 11
50.06448100000000
 21
408.1661829999998
 31
0.000000000000000
  0
ARC
  5
31B
100
AcDbEntity
  8
1
  6
CONTINUOUS
 62
7
100
AcDbCircle
 10
51.55020700000000
 20
408.0888180000000
 30
0.000000000000000
 40
0.07779100000000000
100
AcDbArc
 50
347.2709999999998
 51
450.0000000000000
  0
ARC
  5
31C
100
AcDbEntity
  8
1
  6
CONTINUOUS
 62
7
100
AcDbCircle
 10
42.59953699999999
 20
410.1097839999998
 30
0.000000000000000
 40
9.254918999999999
100
AcDbArc
 50
344.7940000000000
 51
347.2709999999998
  0
ARC
  5
31D
100
AcDbEntity
  8
1
  6
CONTINUOUS
 62
7
100
AcDbCircle
 10
42.59953699999999
 20
410.1097839999998
 30
0.000000000000000
 40
9.254918999999999
100
AcDbArc
 50
344.7419999999998
 51
344.7940000000000
  0
ARC
  5
31E
100
AcDbEntity
  8
1
  6
CONTINUOUS
 62
7
100
AcDbCircle
 10
51.15232899999998
 20
407.7777779999998
 30
0.000000000000000
 40
0.3889570000000000
100
AcDbArc
 50
270.0000000000000
 51
344.7419999999998
  0
ARC
  5
31F
100
AcDbEntity
  8
1
  6
CONTINUOUS
 62
7
100
AcDbCircle
 10
50.56656499999998
 20
406.2225820000000
 30
0.000000000000000
 40
0.3889570000000000
100
AcDbArc
 50
270.0000000000000
 51
333.9859999999998
  0
ARC
  5
320
100
AcDbEntity
  8
1
  6
CONTINUOUS
 62
7
100
AcDbCircle
 10
49.13136300000000
 20
414.7769519999997
 30
0.000000000000000
 40
2.004309000000000
100
AcDbArc
 50
35.53799999999999
 51
45.69899999999998
  0
ARC
  5
321
100
AcDbEntity
  8
1
  6
CONTINUOUS
 62
7
100
AcDbCircle
 10
42.59953699999999
 20
410.1097839999998
 30
0.000000000000000
 40
9.254918999999999
100
AcDbArc
 50
7.792999999999998
 51
10.10399999999999
  0
ARC
  5
322
100
AcDbEntity
  8
1
  6
CONTINUOUS
 62
7
100
AcDbCircle
 10
51.69230600000000
 20
411.3555200000000
 30
0.000000000000000
 40
0.07779100000000000
100
AcDbArc
 50
270.0000000000000
 51
367.7930000000000
  0
ARC
  5
323
100
AcDbEntity
  8
1
  6
CONTINUOUS
 62
7
100
AcDbCircle
 10
51.32758500000000
 20
411.6665590000000
 30
0.000000000000000
 40
0.3889570000000000
100
AcDbArc
 50
10.10399999999999
 51
90.00000000000000
  0
ARC
  5
324
100
AcDbEntity
  8
1
  6
CONTINUOUS
 62
7
100
AcDbCircle
 10
42.59953699999999
 20
410.1097839999998
 30
0.000000000000000
 40
10.03262800000000
100
AcDbArc
 50
324.4619999999998
 51
395.5380000000000
  0
LINE
  5
325
100
AcDbEntity
  8
1
  6
CONTINUOUS
 62
7
100
AcDbLine
 10
49.13136300000000
 20
409.7213790000000
 30
0.000000000000000
 11
49.13136300000000
 21
408.9445709999997
 31
0.000000000000000
  0
LINE
  5
326
100
AcDbEntity
  8
1
  6
CONTINUOUS
 62
7
100
AcDbLine
 10
49.13136300000000
 20
416.7805509999998
 30
0.000000000000000
 11
49.13136300000000
 21
415.1732510000000
 31
0.000000000000000
  0
ARC
  5
327
100
AcDbEntity
  8
1
  6
CONTINUOUS
 62
7
100
AcDbCircle
 10
48.74295800000000
 20
413.9985649999998
 30
0.000000000000000
 40
0.3889570000000000
100
AcDbArc
 50
270.0000000000000
 51
450.0000000000000
  0
LINE
  5
328
100
AcDbEntity
  8
1
  6
CONTINUOUS
 62
7
100
AcDbLine
 10
49.13136300000000
 20
412.0549640000000
 30
0.000000000000000
 11
49.13136300000000
 21
411.6665590000000
 31
0.000000000000000
  0
ARC
  5
329
100
AcDbEntity
  8
1
  6
CONTINUOUS
 62
7
100
AcDbCircle
 10
49.13136300000000
 20
405.4441940000000
 30
0.000000000000000
 40
2.004309000000000
100
AcDbArc
 50
270.0000000000000
 51
324.4619999999998
  0
LINE
  5
32A
100
AcDbEntity
  8
1
  6
CONTINUOUS
 62
7
100
AcDbLine
 10
51.32758500000000
 20
412.0549640000000
 30
0.000000000000000
 11
49.13136300000000
 21
412.0549640000000
 31
0.000000000000000
  0
LINE
  5
32B
100
AcDbEntity
  8
1
  6
CONTINUOUS
 62
7
100
AcDbLine
 10
49.13136300000000
 20
413.9985649999998
 30
0.000000000000000
 11
50.99759900000000
 21
413.9985649999998
 31
0.000000000000000
  0
LINE
  5
32C
100
AcDbEntity
  8
1
  6
CONTINUOUS
 62
7
100
AcDbLine
 10
59.17351400000001
 20
406.8597839999998
 30
0.000000000000000
 11
59.17351400000001
 21
413.3597840000000
 31
0.000000000000000
  0
ARC
  5
32D
100
AcDbEntity
  8
1
  6
CONTINUOUS
 62
7
100
AcDbCircle
 10
48.50684700000000
 20
400.1097839999998
 30
0.000000000000000
 40
1.000000000000000
100
AcDbArc
 50
270.0000000000000
 51
306.8698979999999
  0
LINE
  5
32E
100
AcDbEntity
  8
1
  6
CONTINUOUS
 62
7
100
AcDbLine
 10
59.17351399999998
 20
406.8597839999998
 30
0.000000000000000
 11
49.10684699999996
 21
399.3097839999999
 31
0.000000000000000
  0
ARC
  5
32F
100
AcDbEntity
  8
1
  6
CONTINUOUS
 62
7
100
AcDbCircle
 10
48.50684700000000
 20
400.1097839999998
 30
0.000000000000000
 40
2.000000000000000
100
AcDbArc
 50
270.0000000000000
 51
306.8698979999999
  0
LINE
  5
330
100
AcDbEntity
  8
1
  6
CONTINUOUS
 62
7
100
AcDbLine
 10
49.70684700000001
 20
398.5097840000000
 30
0.000000000000000
 11
59.17351400000004
 21
405.6097839999998
 31
0.000000000000000
  0
LINE
  5
331
100
AcDbEntity
  8
1
  6
CONTINUOUS
 62
7
100
AcDbLine
 10
44.24384500000000
 20
422.1097780000000
 30
0.000000000000000
 11
48.50681100000000
 21
422.1097780000000
 31
0.000000000000000
  0
LINE
  5
332
100
AcDbEntity
  8
1
  6
CONTINUOUS
 62
7
100
AcDbLine
 10
44.24384500000000
 20
421.1097780000000
 30
0.000000000000000
 11
48.50681100000000
 21
421.1097780000000
 31
0.000000000000000
  0
LINE
  5
333
100
AcDbEntity
  8
1
  6
CONTINUOUS
 62
7
100
AcDbLine
 10
44.24388100000000
 20
421.1097839999998
 30
0.000000000000000
 11
48.50684700000000
 21
421.1097839999998
 31
0.000000000000000
  0
LINE
  5
334
100
AcDbEntity
  8
1
  6
CONTINUOUS
 62
7
100
AcDbLine
 10
44.24388100000000
 20
422.1097839999997
 30
0.000000000000000
 11
48.50684700000000
 21
422.1097839999997
 31
0.000000000000000
  0
ARC
  5
335
100
AcDbEntity
  8
1
  6
CONTINUOUS
 62
7
100
AcDbCircle
 10
44.24384500000000
 20
420.1097780000000
 30
0.000000000000000
 40
2.000000000000000
100
AcDbArc
 50
90.00000000000000
 51
146.3099319999998
  0
ARC
  5
336
100
AcDbEntity
  8
1
  6
CONTINUOUS
 62
7
100
AcDbCircle
 10
44.24384500000000
 20
420.1097780000000
 30
0.000000000000000
 40
1.000000000000000
100
AcDbArc
 50
90.00000000000000
 51
146.3099319999998
  0
ARC
  5
337
100
AcDbEntity
  8
1
  6
CONTINUOUS
 62
7
100
AcDbCircle
 10
44.24388100000000
 20
420.1097840000000
 30
0.000000000000000
 40
1.000000000000000
100
AcDbArc
 50
90.00000000000000
 51
146.3099319999998
  0
ARC
  5
338
100
AcDbEntity
  8
1
  6
CONTINUOUS
 62
7
100
AcDbCircle
 10
44.24388100000000
 20
420.1097840000000
 30
0.000000000000000
 40
2.000000000000000
100
AcDbArc
 50
90.00000000000000
 51
146.3099319999998
  0
ARC
  5
339
100
AcDbEntity
  8
1
  6
CONTINUOUS
 62
7
100
AcDbCircle
 10
48.50681100000000
 20
420.1097780000000
 30
0.000000000000000
 40
2.000000000000000
100
AcDbArc
 50
53.13010200000000
 51
90.00000000000000
  0
ARC
  5
33A
100
AcDbEntity
  8
1
  6
CONTINUOUS
 62
7
100
AcDbCircle
 10
48.50681100000000
 20
420.1097780000000
 30
0.000000000000000
 40
1.000000000000000
100
AcDbArc
 50
53.13010200000000
 51
90.00000000000000
  0
ARC
  5
33B
100
AcDbEntity
  8
1
  6
CONTINUOUS
 62
7
100
AcDbCircle
 10
48.50684700000000
 20
420.1097840000000
 30
0.000000000000000
 40
1.000000000000000
100
AcDbArc
 50
53.13010200000000
 51
90.00000000000000
  0
ARC
  5
33C
100
AcDbEntity
  8
1
  6
CONTINUOUS
 62
7
100
AcDbCircle
 10
48.50684700000000
 20
420.1097840000000
 30
0.000000000000000
 40
2.000000000000000
100
AcDbArc
 50
53.13010200000000
 51
90.00000000000000
  0
LINE
  5
33D
100
AcDbEntity
  8
1
  6
CONTINUOUS
 62
7
100
AcDbLine
 10
66.17347800000000
 20
407.0097780000000
 30
0.000000000000000
 11
82.67347800000000
 21
407.0097780000000
 31
0.000000000000000
  0
LINE
  5
33E
100
AcDbEntity
  8
1
  6
CONTINUOUS
 62
7
100
AcDbLine
 10
66.17347800000000
 20
413.2097779999998
 30
0.000000000000000
 11
83.67347800000002
 21
413.2097779999998
 31
0.000000000000000
  0
LINE
  5
33F
100
AcDbEntity
  8
1
  6
CONTINUOUS
 62
7
100
AcDbLine
 10
66.17351400000000
 20
413.2097840000000
 30
0.000000000000000
 11
83.67351399999998
 21
413.2097840000000
 31
0.000000000000000
  0
LINE
  5
340
100
AcDbEntity
  8
1
  6
CONTINUOUS
 62
7
100
AcDbLine
 10
66.17351400000000
 20
407.0097839999998
 30
0.000000000000000
 11
82.67351399999998
 21
407.0097839999998
 31
0.000000000000000
  0
LINE
  5
341
100
AcDbEntity
  8
1
  6
CONTINUOUS
 62
7
100
AcDbLine
 10
66.17347800000000
 20
414.3097779999997
 30
0.000000000000000
 11
66.17347800000000
 21
413.2097779999998
 31
0.000000000000000
  0
LINE
  5
342
100
AcDbEntity
  8
1
  6
CONTINUOUS
 62
7
100
AcDbLine
 10
66.17347800000000
 20
407.0097780000000
 30
0.000000000000000
 11
66.17347800000000
 21
405.9097780000000
 31
0.000000000000000
  0
ARC
  5
343
100
AcDbEntity
  8
1
  6
CONTINUOUS
 62
7
100
AcDbCircle
 10
65.87347800000001
 20
414.3097779999997
 30
0.000000000000000
 40
0.3000000000000000
100
AcDbArc
 50
0.000000000000000
 51
90.00000000000000
  0
ARC
  5
344
100
AcDbEntity
  8
1
  6
CONTINUOUS
 62
7
100
AcDbCircle
 10
65.87347800000001
 20
405.9097780000000
 30
0.000000000000000
 40
0.3000000000000000
100
AcDbArc
 50
270.0000000000000
 51
360.0000000000000
  0
ARC
  5
345
100
AcDbEntity
  8
1
  6
CONTINUOUS
 62
7
100
AcDbCircle
 10
65.87351400000000
 20
405.9097839999997
 30
0.000000000000000
 40
0.3000000000000000
100
AcDbArc
 50
270.0000000000000
 51
360.0000000000000
  0
ARC
  5
346
100
AcDbEntity
  8
1
  6
CONTINUOUS
 62
7
100
AcDbCircle
 10
65.87351400000000
 20
414.3097840000000
 30
0.000000000000000
 40
0.3000000000000000
100
AcDbArc
 50
0.000000000000000
 51
90.00000000000000
  0
LINE
  5
347
100
AcDbEntity
  8
1
  6
CONTINUOUS
 62
7
100
AcDbLine
 10
66.17351400000000
 20
407.0097839999998
 30
0.000000000000000
 11
66.17351400000000
 21
405.9097839999997
 31
0.000000000000000
  0
LINE
  5
348
100
AcDbEntity
  8
1
  6
CONTINUOUS
 62
7
100
AcDbLine
 10
66.17351400000000
 20
414.3097840000000
 30
0.000000000000000
 11
66.17351400000000
 21
413.2097840000000
 31
0.000000000000000
  0
ARC
  5
349
100
AcDbEntity
  8
1
  6
CONTINUOUS
 62
7
100
AcDbCircle
 10
85.67347800000000
 20
410.5097779999998
 30
0.000000000000000
 40
0.5000000000000000
100
AcDbArc
 50
313.1718549999998
 51
405.0866460000000
  0
LINE
  5
34A
100
AcDbEntity
  8
1
  6
CONTINUOUS
 62
7
100
AcDbLine
 10
83.67347800000002
 20
413.2097779999998
 30
0.000000000000000
 11
86.02649599999995
 21
410.8638659999998
 31
0.000000000000000
  0
LINE
  5
34B
100
AcDbEntity
  8
1
  6
CONTINUOUS
 62
7
100
AcDbLine
 10
82.67347800000002
 20
407.0097780000000
 30
0.000000000000000
 11
86.01557200000002
 21
410.1451250000000
 31
0.000000000000000
  0
LINE
  5
34C
100
AcDbEntity
  8
1
  6
CONTINUOUS
 62
7
100
AcDbLine
 10
82.67351399999995
 20
407.0097839999998
 30
0.000000000000000
 11
86.01560799999996
 21
410.1451309999998
 31
0.000000000000000
  0
LINE
  5
34D
100
AcDbEntity
  8
1
  6
CONTINUOUS
 62
7
100
AcDbLine
 10
83.67351399999998
 20
413.2097840000000
 30
0.000000000000000
 11
86.02653200000000
 21
410.8638720000000
 31
0.000000000000000
  0
ARC
  5
34E
100
AcDbEntity
  8
1
  6
CONTINUOUS
 62
7
100
AcDbCircle
 10
85.67351399999997
 20
410.5097839999998
 30
0.000000000000000
 40
0.5000000000000000
100
AcDbArc
 50
313.1718549999998
 51
405.0866460000000
  0
LINE
  5
34F
100
AcDbEntity
  8
1
  6
CONTINUOUS
 62
7
100
AcDbLine
 10
223.5755109999998
 20
393.6379920000000
 30
0.000000000000000
 11
233.8758110000000
 21
396.1379920000000
 31
0.000000000000000
  0
ARC
  5
350
100
AcDbEntity
  8
1
  6
CONTINUOUS
 62
7
100
AcDbCircle
 10
233.6399469999999
 20
397.1097780000000
 30
0.000000000000000
 40
1.000000000000000
100
AcDbArc
 50
270.0000000000000
 51
360.0000000000000
  0
LINE
  5
351
100
AcDbEntity
  8
1
  6
CONTINUOUS
 62
7
100
AcDbLine
 10
224.3396469999999
 20
425.6097780000000
 30
0.000000000000000
 11
224.3396469999999
 21
394.6097780000000
 31
0.000000000000000
  0
LINE
  5
352
100
AcDbEntity
  8
1
  6
CONTINUOUS
 62
7
100
AcDbLine
 10
200.8396470000000
 20
398.8597780000000
 30
0.000000000000000
 11
203.3396470000001
 21
390.1097779999999
 31
0.000000000000000
  0
LINE
  5
353
100
AcDbEntity
  8
1
  6
CONTINUOUS
 62
7
100
AcDbLine
 10
203.3396470000000
 20
430.1097780000000
 30
0.000000000000000
 11
203.3396470000000
 21
390.1097780000000
 31
0.000000000000000
  0
LINE
  5
354
100
AcDbEntity
  8
1
  6
CONTINUOUS
 62
7
100
AcDbLine
 10
206.8396469999999
 20
430.1097780000000
 30
0.000000000000000
 11
206.8396469999999
 21
390.1097780000000
 31
0.000000000000000
  0
LINE
  5
355
100
AcDbEntity
  8
1
  6
CONTINUOUS
 62
7
100
AcDbLine
 10
208.8396469999999
 20
425.6097780000000
 30
0.000000000000000
 11
208.8396469999999
 21
394.6097780000000
 31
0.000000000000000
  0
LINE
  5
356
100
AcDbEntity
  8
1
  6
CONTINUOUS
 62
7
100
AcDbLine
 10
205.8396469999999
 20
430.1097780000000
 30
0.000000000000000
 11
205.8396469999999
 21
390.1097780000000
 31
0.000000000000000
  0
ARC
  5
357
100
AcDbEntity
  8
1
  6
CONTINUOUS
 62
7
100
AcDbCircle
 10
223.3396470000000
 20
394.6097780000000
 30
0.000000000000000
 40
1.000000000000000
100
AcDbArc
 50
270.0000000000000
 51
360.0000000000000
  0
LINE
  5
358
100
AcDbEntity
  8
1
  6
CONTINUOUS
 62
7
100
AcDbLine
 10
206.8396469999999
 20
393.6097780000000
 30
0.000000000000000
 11
223.3396470000000
 21
393.6097780000000
 31
0.000000000000000
  0
LINE
  5
359
100
AcDbEntity
  8
1
  6
CONTINUOUS
 62
7
100
AcDbLine
 10
203.3396470000000
 20
390.1097780000000
 30
0.000000000000000
 11
206.8396469999999
 21
390.1097780000000
 31
0.000000000000000
  0
ARC
  5
35A
100
AcDbEntity
  8
1
  6
CONTINUOUS
 62
7
100
AcDbCircle
 10
207.8396469999999
 20
394.6097780000000
 30
0.000000000000000
 40
1.000000000000000
100
AcDbArc
 50
270.0000000000000
 51
360.0000000000000
  0
ARC
  5
35B
100
AcDbEntity
  8
1
  6
CONTINUOUS
 62
7
100
AcDbCircle
 10
223.3396470000000
 20
425.6097780000000
 30
0.000000000000000
 40
1.000000000000000
100
AcDbArc
 50
0.000000000000000
 51
90.00000000000000
  0
LINE
  5
35C
100
AcDbEntity
  8
4
  6
CENTER
 62
1
100
AcDbLine
 10
197.2724030000000
 20
410.1097779999998
 30
0.000000000000000
 11
245.3915540000000
 21
410.1097779999998
 31
0.000000000000000
  0
ARC
  5
35D
100
AcDbEntity
  8
1
  6
CONTINUOUS
 62
7
100
AcDbCircle
 10
300.2724029999999
 20
410.1097779999998
 30
0.000000000000000
 40
100.0000000000000
100
AcDbArc
 50
174.7307180000000
 51
185.2692820000000
  0
LINE
  5
35E
100
AcDbEntity
  8
1
  6
CONTINUOUS
 62
7
100
AcDbLine
 10
200.8396470000000
 20
421.3597779999998
 30
0.000000000000000
 11
200.8396470000000
 21
398.8597780000000
 31
0.000000000000000
  0
ARC
  5
35F
100
AcDbEntity
  8
1
  6
CONTINUOUS
 62
7
100
AcDbCircle
 10
202.6865439999999
 20
401.1097780000000
 30
0.000000000000000
 40
2.000000000000000
100
AcDbArc
 50
185.2692820000000
 51
202.5644840000000
  0
LINE
  5
360
100
AcDbEntity
  8
1
  6
CONTINUOUS
 62
7
100
AcDbLine
 10
206.8396469999999
 20
426.6097779999998
 30
0.000000000000000
 11
223.3396470000000
 21
426.6097779999998
 31
0.000000000000000
  0
ARC
  5
361
100
AcDbEntity
  8
1
  6
CONTINUOUS
 62
7
100
AcDbCircle
 10
202.6865439999999
 20
419.1097779999997
 30
0.000000000000000
 40
2.000000000000000
100
AcDbArc
 50
157.4355159999998
 51
174.7307180000000
  0
LINE
  5
362
100
AcDbEntity
  8
1
  6
CONTINUOUS
 62
7
100
AcDbLine
 10
203.3396470000000
 20
430.1097780000000
 30
0.000000000000000
 11
200.8396470000000
 21
421.3597779999998
 31
0.000000000000000
  0
LINE
  5
363
100
AcDbEntity
  8
1
  6
CONTINUOUS
 62
7
100
AcDbLine
 10
203.3396470000000
 20
430.1097780000000
 30
0.000000000000000
 11
206.8396469999999
 21
430.1097780000000
 31
0.000000000000000
  0
ARC
  5
364
100
AcDbEntity
  8
1
  6
CONTINUOUS
 62
7
100
AcDbCircle
 10
207.8396469999999
 20
425.6097780000000
 30
0.000000000000000
 40
1.000000000000000
100
AcDbArc
 50
0.000000000000000
 51
90.00000000000000
  0
LINE
  5
365
100
AcDbEntity
  8
1
  6
CONTINUOUS
 62
7
100
AcDbLine
 10
234.8399470000000
 20
423.1097779999998
 30
0.000000000000000
 11
234.8399470000000
 21
417.1097780000000
 31
0.000000000000000
  0
LINE
  5
366
100
AcDbEntity
  8
1
  6
CONTINUOUS
 62
7
100
AcDbLine
 10
236.8399470000000
 20
423.1097779999998
 30
0.000000000000000
 11
236.8399470000000
 21
398.8514780000000
 31
0.000000000000000
  0
LINE
  5
367
100
AcDbEntity
  8
1
  6
CONTINUOUS
 62
7
100
AcDbLine
 10
234.6399470000000
 20
423.1097779999998
 30
0.000000000000000
 11
234.6399470000000
 21
417.1097780000000
 31
0.000000000000000
  0
LINE
  5
368
100
AcDbEntity
  8
2
  6
CONTINUOUS
 62
4
100
AcDbLine
 10
240.8399470000000
 20
417.1807779999999
 30
0.000000000000000
 11
236.8399470000000
 21
410.4464919999998
 31
0.000000000000000
  0
LINE
  5
369
100
AcDbEntity
  8
2
  6
CONTINUOUS
 62
4
100
AcDbLine
 10
236.8399470000000
 20
416.8440640000000
 30
0.000000000000000
 11
240.8399470000000
 21
410.1097779999998
 31
0.000000000000000
  0
LINE
  5
36A
100
AcDbEntity
  8
2
  6
CONTINUOUS
 62
4
100
AcDbLine
 10
236.8399470000000
 20
409.7730639999999
 30
0.000000000000000
 11
240.8399470000000
 21
403.0387779999998
 31
0.000000000000000
  0
LINE
  5
36B
100
AcDbEntity
  8
2
  6
CONTINUOUS
 62
4
100
AcDbLine
 10
240.8399470000000
 20
410.1097779999998
 30
0.000000000000000
 11
236.8399470000000
 21
403.3754919999997
 31
0.000000000000000
  0
LINE
  5
36C
100
AcDbEntity
  8
1
  6
CONTINUOUS
 62
7
100
AcDbLine
 10
236.8399470000000
 20
410.1097779999998
 30
0.000000000000000
 11
240.8399470000000
 21
410.1097779999998
 31
0.000000000000000
  0
LINE
  5
36D
100
AcDbEntity
  8
1
  6
CONTINUOUS
 62
7
100
AcDbLine
 10
236.8399470000000
 20
417.1807779999999
 30
0.000000000000000
 11
240.8399470000000
 21
417.1807779999999
 31
0.000000000000000
  0
LINE
  5
36E
100
AcDbEntity
  8
1
  6
CONTINUOUS
 62
7
100
AcDbLine
 10
236.8399470000000
 20
403.0387779999998
 30
0.000000000000000
 11
240.8399470000000
 21
403.0387779999998
 31
0.000000000000000
  0
LINE
  5
36F
100
AcDbEntity
  8
1
  6
CONTINUOUS
 62
7
100
AcDbLine
 10
234.6399470000000
 20
402.9097779999998
 30
0.000000000000000
 11
234.8399470000000
 21
402.9097779999998
 31
0.000000000000000
  0
LINE
  5
370
100
AcDbEntity
  8
1
  6
CONTINUOUS
 62
7
100
AcDbLine
 10
234.6399470000000
 20
417.3097779999998
 30
0.000000000000000
 11
234.8399470000000
 21
417.3097779999998
 31
0.000000000000000
  0
LINE
  5
371
100
AcDbEntity
  8
1
  6
CONTINUOUS
 62
7
100
AcDbLine
 10
234.8399470000000
 20
398.8514780000000
 30
0.000000000000000
 11
234.8399470000000
 21
403.1097780000000
 31
0.000000000000000
  0
LINE
  5
372
100
AcDbEntity
  8
1
  6
CONTINUOUS
 62
7
100
AcDbLine
 10
236.6399470000000
 20
417.1097780000000
 30
0.000000000000000
 11
236.6399470000000
 21
403.1097780000000
 31
0.000000000000000
  0
LINE
  5
373
100
AcDbEntity
  8
1
  6
CONTINUOUS
 62
7
100
AcDbLine
 10
230.5199470000000
 20
411.1097779999998
 30
0.000000000000000
 11
230.5199470000000
 21
409.1097780000000
 31
0.000000000000000
  0
LINE
  5
374
100
AcDbEntity
  8
1
  6
CONTINUOUS
 62
7
100
AcDbLine
 10
224.3396469999999
 20
411.1097779999998
 30
0.000000000000000
 11
230.5199470000000
 21
411.1097779999998
 31
0.000000000000000
  0
LINE
  5
375
100
AcDbEntity
  8
1
  6
CONTINUOUS
 62
7
100
AcDbLine
 10
224.3396469999999
 20
409.1097780000000
 30
0.000000000000000
 11
230.5199470000000
 21
409.1097780000000
 31
0.000000000000000
  0
LINE
  5
376
100
AcDbEntity
  8
1
  6
CONTINUOUS
 62
7
100
AcDbLine
 10
234.8399470000000
 20
400.1097780000000
 30
0.000000000000000
 11
236.8399470000000
 21
400.1097780000000
 31
0.000000000000000
  0
LINE
  5
377
100
AcDbEntity
  8
1
  6
CONTINUOUS
 62
7
100
AcDbLine
 10
234.8399470000000
 20
398.8514780000000
 30
0.000000000000000
 11
236.8399470000000
 21
398.8514780000000
 31
0.000000000000000
  0
LINE
  5
378
100
AcDbEntity
  8
1
  6
CONTINUOUS
 62
7
100
AcDbLine
 10
234.6399470000000
 20
403.1097780000000
 30
0.000000000000000
 11
234.6399470000000
 21
397.1097780000000
 31
0.000000000000000
  0
LINE
  5
379
100
AcDbEntity
  8
1
  6
CONTINUOUS
 62
7
100
AcDbLine
 10
224.3396469999999
 20
403.1097780000000
 30
0.000000000000000
 11
236.6399470000000
 21
403.1097780000000
 31
0.000000000000000
  0
LINE
  5
37A
100
AcDbEntity
  8
1
  6
CONTINUOUS
 62
7
100
AcDbLine
 10
224.3396469999999
 20
417.1097780000000
 30
0.000000000000000
 11
236.6399470000000
 21
417.1097780000000
 31
0.000000000000000
  0
LINE
  5
37B
100
AcDbEntity
  8
1
  6
CONTINUOUS
 62
7
100
AcDbLine
 10
224.3396469999999
 20
396.1097780000000
 30
0.000000000000000
 11
233.6399469999999
 21
396.1097780000000
 31
0.000000000000000
  0
LINE
  5
37C
100
AcDbEntity
  8
1
  6
CONTINUOUS
 62
7
100
AcDbLine
 10
240.8399470000000
 20
417.1807779999999
 30
0.000000000000000
 11
240.8399470000000
 21
403.0387779999998
 31
0.000000000000000
  0
LINE
  5
37D
100
AcDbEntity
  8
1
  6
CONTINUOUS
 62
7
100
AcDbLine
 10
223.5755109999998
 20
426.5815639999997
 30
0.000000000000000
 11
233.8758110000000
 21
424.0815639999997
 31
0.000000000000000
  0
ARC
  5
37E
100
AcDbEntity
  8
1
  6
CONTINUOUS
 62
7
100
AcDbCircle
 10
233.6399469999999
 20
423.1097779999998
 30
0.000000000000000
 40
1.000000000000000
100
AcDbArc
 50
0.000000000000000
 51
90.00000000000000
  0
LINE
  5
37F
100
AcDbEntity
  8
1
  6
CONTINUOUS
 62
7
100
AcDbLine
 10
234.8399470000000
 20
423.1097779999998
 30
0.000000000000000
 11
236.8399470000000
 21
423.1097779999998
 31
0.000000000000000
  0
LINE
  5
380
100
AcDbEntity
  8
1
  6
CONTINUOUS
 62
7
100
AcDbLine
 10
224.3396469999999
 20
424.1097780000000
 30
0.000000000000000
 11
233.6399469999999
 21
424.1097780000000
 31
0.000000000000000
  0
LINE
  5
381
100
AcDbEntity
  8
1
  6
CONTINUOUS
 62
7
100
AcDbLine
 10
302.0320469999999
 20
426.6097779999998
 30
0.000000000000000
 11
302.0320469999999
 21
393.6097780000000
 31
0.000000000000000
  0
LINE
  5
382
100
AcDbEntity
  8
1
  6
CONTINUOUS
 62
7
100
AcDbLine
 10
306.3320469999999
 20
426.6097779999998
 30
0.000000000000000
 11
306.3320469999999
 21
393.6097780000000
 31
0.000000000000000
  0
LINE
  5
383
100
AcDbEntity
  8
1
  6
CONTINUOUS
 62
7
100
AcDbLine
 10
304.3320469999999
 20
426.6097779999998
 30
0.000000000000000
 11
304.3320469999999
 21
393.6097780000000
 31
0.000000000000000
  0
ARC
  5
384
100
AcDbEntity
  8
1
  6
CONTINUOUS
 62
7
100
AcDbCircle
 10
287.6320469999999
 20
391.3097780000000
 30
0.000000000000000
 40
2.299999999999998
100
AcDbArc
 50
90.00000000000000
 51
180.0000000000000
  0
LINE
  5
385
100
AcDbEntity
  8
1
  6
CONTINUOUS
 62
7
100
AcDbLine
 10
285.3320469999999
 20
385.1097780000000
 30
0.000000000000000
 11
287.6320469999999
 21
385.1097780000000
 31
0.000000000000000
  0
LINE
  5
386
100
AcDbEntity
  8
1
  6
CONTINUOUS
 62
7
100
AcDbLine
 10
285.3320469999999
 20
391.3097780000000
 30
0.000000000000000
 11
285.3320469999999
 21
385.1097780000000
 31
0.000000000000000
  0
ARC
  5
387
100
AcDbEntity
  8
1
  6
CONTINUOUS
 62
7
100
AcDbCircle
 10
302.0320469999999
 20
393.6097780000000
 30
0.000000000000000
 40
4.299999999999998
100
AcDbArc
 50
270.0000000000000
 51
360.0000000000000
  0
ARC
  5
388
100
AcDbEntity
  8
1
  6
CONTINUOUS
 62
7
100
AcDbCircle
 10
302.0320469999999
 20
393.6097780000000
 30
0.000000000000000
 40
2.299999999999998
100
AcDbArc
 50
270.0000000000000
 51
360.0000000000000
  0
ARC
  5
389
100
AcDbEntity
  8
1
  6
CONTINUOUS
 62
7
100
AcDbCircle
 10
293.7730270000000
 20
392.9507779999998
 30
0.000000000000000
 40
3.641000000000000
100
AcDbArc
 50
206.7886269999998
 51
270.0000000000000
  0
LINE
  5
38A
100
AcDbEntity
  8
1
  6
CONTINUOUS
 62
7
100
AcDbLine
 10
293.7730270000000
 20
389.3097780000000
 30
0.000000000000000
 11
302.0320469999999
 21
389.3097780000000
 31
0.000000000000000
  0
LINE
  5
38B
100
AcDbEntity
  8
1
  6
CONTINUOUS
 62
7
100
AcDbLine
 10
287.6320469999999
 20
391.3097780000000
 30
0.000000000000000
 11
287.6320469999999
 21
385.1097780000000
 31
0.000000000000000
  0
LINE
  5
38C
100
AcDbEntity
  8
1
  6
CONTINUOUS
 62
7
100
AcDbLine
 10
287.6320469999999
 20
391.3097780000000
 30
0.000000000000000
 11
302.0320469999999
 21
391.3097780000000
 31
0.000000000000000
  0
LINE
  5
38D
100
AcDbEntity
  8
1
  6
CONTINUOUS
 62
7
100
AcDbLine
 10
287.6320469999999
 20
393.6097780000000
 30
0.000000000000000
 11
302.0320469999999
 21
393.6097780000000
 31
0.000000000000000
  0
ARC
  5
38E
100
AcDbEntity
  8
1
  6
CONTINUOUS
 62
7
100
AcDbCircle
 10
287.6320469999999
 20
428.9097780000000
 30
0.000000000000000
 40
2.299999999999998
100
AcDbArc
 50
180.0000000000000
 51
270.0000000000000
  0
LINE
  5
38F
100
AcDbEntity
  8
1
  6
CONTINUOUS
 62
7
100
AcDbLine
 10
285.3320469999999
 20
435.1097779999998
 30
0.000000000000000
 11
287.6320469999999
 21
435.1097779999998
 31
0.000000000000000
  0
LINE
  5
390
100
AcDbEntity
  8
1
  6
CONTINUOUS
 62
7
100
AcDbLine
 10
262.7824469999999
 20
421.1097780000000
 30
0.000000000000000
 11
262.7824469999999
 21
399.1097780000000
 31
0.000000000000000
  0
LINE
  5
391
100
AcDbEntity
  8
1
  6
CONTINUOUS
 62
7
100
AcDbLine
 10
264.7824469999999
 20
421.1097780000000
 30
0.000000000000000
 11
264.7824469999999
 21
399.1097780000000
 31
0.000000000000000
  0
LINE
  5
392
100
AcDbEntity
  8
1
  6
CONTINUOUS
 62
7
100
AcDbLine
 10
266.3824470000000
 20
402.1097779999998
 30
0.000000000000000
 11
266.3824470000000
 21
418.1097779999998
 31
0.000000000000000
  0
LINE
  5
393
100
AcDbEntity
  8
1
  6
CONTINUOUS
 62
7
100
AcDbLine
 10
271.8824470000000
 20
415.1097779999998
 30
0.000000000000000
 11
267.8824470000000
 21
415.1097779999998
 31
0.000000000000000
  0
LINE
  5
394
100
AcDbEntity
  8
1
  6
CONTINUOUS
 62
7
100
AcDbLine
 10
271.8824470000000
 20
405.1097780000000
 30
0.000000000000000
 11
267.8824470000000
 21
405.1097780000000
 31
0.000000000000000
  0
LINE
  5
395
100
AcDbEntity
  8
1
  6
CONTINUOUS
 62
7
100
AcDbLine
 10
271.3368469999999
 20
410.1097779999998
 30
0.000000000000000
 11
268.3290470000000
 21
410.1097779999998
 31
0.000000000000000
  0
LINE
  5
396
100
AcDbEntity
  8
4
  6
CENTER
 62
1
100
AcDbLine
 10
274.7158470000000
 20
410.1097779999998
 30
0.000000000000000
 11
259.7824469999999
 21
410.1097779999998
 31
0.000000000000000
  0
LINE
  5
397
100
AcDbEntity
  8
1
  6
CONTINUOUS
 62
7
100
AcDbLine
 10
266.3824470000001
 20
408.6097780000000
 30
0.000000000000000
 11
267.8824470000001
 21
410.1097779999998
 31
0.000000000000000
  0
LINE
  5
398
100
AcDbEntity
  8
1
  6
CONTINUOUS
 62
7
100
AcDbLine
 10
266.3824470000001
 20
410.1097779999998
 30
0.000000000000000
 11
267.8824470000000
 21
411.6097780000000
 31
0.000000000000000
  0
ARC
  5
399
100
AcDbEntity
  8
1
  6
CONTINUOUS
 62
7
100
AcDbCircle
 10
275.1028470000000
 20
407.6097780000000
 30
0.000000000000000
 40
7.220389999999997
100
AcDbArc
 50
159.7419999999999
 51
200.2580000000000
  0
ARC
  5
39A
100
AcDbEntity
  8
1
  6
CONTINUOUS
 62
7
100
AcDbCircle
 10
275.1028470000000
 20
412.6097780000000
 30
0.000000000000000
 40
7.220389999999997
100
AcDbArc
 50
159.7419999999999
 51
200.2580000000000
  0
LINE
  5
39B
100
AcDbEntity
  8
1
  6
CONTINUOUS
 62
7
100
AcDbLine
 10
264.7824469999999
 20
399.1097780000000
 30
0.000000000000000
 11
262.7824469999999
 21
399.1097780000000
 31
0.000000000000000
  0
LINE
  5
39C
100
AcDbEntity
  8
1
  6
CONTINUOUS
 62
7
100
AcDbLine
 10
266.3824470000000
 20
402.1097779999998
 30
0.000000000000000
 11
264.7824469999999
 21
402.1097779999998
 31
0.000000000000000
  0
LINE
  5
39D
100
AcDbEntity
  8
1
  6
CONTINUOUS
 62
7
100
AcDbLine
 10
267.8824470000000
 20
416.2097779999998
 30
0.000000000000000
 11
266.3824470000000
 21
416.2097779999998
 31
0.000000000000000
  0
LINE
  5
39E
100
AcDbEntity
  8
1
  6
CONTINUOUS
 62
7
100
AcDbLine
 10
267.8824470000000
 20
404.0097779999999
 30
0.000000000000000
 11
266.3824470000000
 21
404.0097779999999
 31
0.000000000000000
  0
LINE
  5
39F
100
AcDbEntity
  8
1
  6
CONTINUOUS
 62
7
100
AcDbLine
 10
267.8824470000000
 20
404.0097779999999
 30
0.000000000000000
 11
267.8824470000000
 21
416.2097779999998
 31
0.000000000000000
  0
ARC
  5
3A0
100
AcDbEntity
  8
1
  6
CONTINUOUS
 62
7
100
AcDbCircle
 10
264.6620469999999
 20
412.6097780000000
 30
0.000000000000000
 40
7.220389999999997
100
AcDbArc
 50
339.7419999999998
 51
380.2576000000000
  0
ARC
  5
3A1
100
AcDbEntity
  8
1
  6
CONTINUOUS
 62
7
100
AcDbCircle
 10
264.6620469999999
 20
407.6097780000000
 30
0.000000000000000
 40
7.220389999999997
100
AcDbArc
 50
339.7419999999998
 51
380.2576000000000
  0
LINE
  5
3A2
100
AcDbEntity
  8
1
  6
CONTINUOUS
 62
7
100
AcDbLine
 10
271.8824470000000
 20
415.1097779999998
 30
0.000000000000000
 11
271.8824470000000
 21
405.1097780000000
 31
0.000000000000000
  0
LINE
  5
3A3
100
AcDbEntity
  8
1
  6
CONTINUOUS
 62
7
100
AcDbLine
 10
264.7824469999999
 20
421.1097780000000
 30
0.000000000000000
 11
262.7824469999999
 21
421.1097780000000
 31
0.000000000000000
  0
LINE
  5
3A4
100
AcDbEntity
  8
1
  6
CONTINUOUS
 62
7
100
AcDbLine
 10
266.3824470000000
 20
418.1097779999998
 30
0.000000000000000
 11
264.7824469999999
 21
418.1097779999998
 31
0.000000000000000
  0
LINE
  5
3A5
100
AcDbEntity
  8
1
  6
CONTINUOUS
 62
7
100
AcDbLine
 10
285.3320469999999
 20
435.1097779999998
 30
0.000000000000000
 11
285.3320469999999
 21
428.9097780000000
 31
0.000000000000000
  0
LINE
  5
3A6
100
AcDbEntity
  8
4
  6
CENTER
 62
1
100
AcDbLine
 10
298.0871000000000
 20
410.1097779999998
 30
0.000000000000000
 11
312.9320470000000
 21
410.1097779999998
 31
0.000000000000000
  0
LINE
  5
3A7
100
AcDbEntity
  8
1
  6
CONTINUOUS
 62
7
100
AcDbLine
 10
307.3320470000000
 20
413.9097800000000
 30
0.000000000000000
 11
307.3320470000000
 21
406.3097799999998
 31
0.000000000000000
  0
LINE
  5
3A8
100
AcDbEntity
  8
1
  6
CONTINUOUS
 62
7
100
AcDbLine
 10
306.3320469999999
 20
406.3097799999998
 30
0.000000000000000
 11
307.3320470000000
 21
406.3097799999998
 31
0.000000000000000
  0
LINE
  5
3A9
100
AcDbEntity
  8
1
  6
CONTINUOUS
 62
7
100
AcDbLine
 10
306.3320469999999
 20
413.9097800000000
 30
0.000000000000000
 11
307.3320470000000
 21
413.9097800000000
 31
0.000000000000000
  0
LINE
  5
3AA
100
AcDbEntity
  8
1
  6
CONTINUOUS
 62
7
100
AcDbLine
 10
307.3320469999999
 20
410.1097779999997
 30
0.000000000000000
 11
306.3320469999998
 21
409.1097779999999
 31
0.000000000000000
  0
LINE
  5
3AB
100
AcDbEntity
  8
1
  6
CONTINUOUS
 62
7
100
AcDbLine
 10
307.3320469999999
 20
411.1097779999997
 30
0.000000000000000
 11
306.3320469999998
 21
410.1097779999997
 31
0.000000000000000
  0
ARC
  5
3AC
100
AcDbEntity
  8
1
  6
CONTINUOUS
 62
7
100
AcDbCircle
 10
300.9320470000000
 20
410.1097779999998
 30
0.000000000000000
 40
9.000000000000000
100
AcDbArc
 50
344.1190000000001
 51
375.8810000000000
  0
LINE
  5
3AD
100
AcDbEntity
  8
1
  6
CONTINUOUS
 62
7
100
AcDbLine
 10
308.4665560000000
 20
406.7090470000000
 30
0.000000000000000
 11
307.3310470000001
 21
406.6097779999997
 31
0.000000000000000
  0
ARC
  5
3AE
100
AcDbEntity
  8
1
  6
CONTINUOUS
 62
7
100
AcDbCircle
 10
308.3390469999998
 20
408.0027779999999
 30
0.000000000000000
 40
1.300000000000000
100
AcDbArc
 50
275.0000000000000
 51
344.1190000000001
  0
LINE
  5
3AF
100
AcDbEntity
  8
1
  6
CONTINUOUS
 62
7
100
AcDbLine
 10
308.4520470000001
 20
413.5117780000000
 30
0.000000000000000
 11
307.3320470000001
 21
413.6097780000002
 31
0.000000000000000
  0
ARC
  5
3B0
100
AcDbEntity
  8
1
  6
CONTINUOUS
 62
7
100
AcDbCircle
 10
308.3390469999998
 20
412.2167779999998
 30
0.000000000000000
 40
1.300000000000000
100
AcDbArc
 50
15.88099999999999
 51
85.00000000000000
  0
ARC
  5
3B1
100
AcDbEntity
  8
1
  6
CONTINUOUS
 62
7
100
AcDbCircle
 10
302.0320469999999
 20
426.6097779999998
 30
0.000000000000000
 40
4.299999999999998
100
AcDbArc
 50
0.000000000000000
 51
90.00000000000000
  0
ARC
  5
3B2
100
AcDbEntity
  8
1
  6
CONTINUOUS
 62
7
100
AcDbCircle
 10
302.0320469999999
 20
426.6097779999998
 30
0.000000000000000
 40
2.299999999999998
100
AcDbArc
 50
0.000000000000000
 51
90.00000000000000
  0
ARC
  5
3B3
100
AcDbEntity
  8
1
  6
CONTINUOUS
 62
7
100
AcDbCircle
 10
293.7730270000000
 20
427.2687780000000
 30
0.000000000000000
 40
3.641000000000000
100
AcDbArc
 50
90.00000000000000
 51
153.2113730000000
  0
LINE
  5
3B4
100
AcDbEntity
  8
1
  6
CONTINUOUS
 62
7
100
AcDbLine
 10
293.7730270000000
 20
430.9097780000000
 30
0.000000000000000
 11
302.0320469999999
 21
430.9097780000000
 31
0.000000000000000
  0
LINE
  5
3B5
100
AcDbEntity
  8
1
  6
CONTINUOUS
 62
7
100
AcDbLine
 10
287.6320469999999
 20
428.9097780000000
 30
0.000000000000000
 11
302.0320469999999
 21
428.9097780000000
 31
0.000000000000000
  0
LINE
  5
3B6
100
AcDbEntity
  8
1
  6
CONTINUOUS
 62
7
100
AcDbLine
 10
287.6320469999999
 20
435.1097779999998
 30
0.000000000000000
 11
287.6320469999999
 21
428.9097780000000
 31
0.000000000000000
  0
LINE
  5
3B7
100
AcDbEntity
  8
1
  6
CONTINUOUS
 62
7
100
AcDbLine
 10
287.6320469999999
 20
426.6097779999998
 30
0.000000000000000
 11
302.0320469999999
 21
426.6097779999998
 31
0.000000000000000
  0
ARC
  5
3B8
100
AcDbEntity
  8
1
  6
CONTINUOUS
 62
7
100
AcDbCircle
 10
585.4458630000000
 20
177.8020180000000
 30
0.000000000000000
 40
1.500000000000000
100
AcDbArc
 50
180.0000000000000
 51
268.9470000000000
  0
ARC
  5
3B9
100
AcDbEntity
  8
1
  6
CONTINUOUS
 62
7
100
AcDbCircle
 10
609.9461629999998
 20
176.8516179999998
 30
0.000000000000000
 40
1.000000000000000
100
AcDbArc
 50
180.0000000000000
 51
268.9470000000000
  0
LINE
  5
3BA
100
AcDbEntity
  8
1
  6
CONTINUOUS
 62
7
100
AcDbLine
 10
610.9461630000000
 20
175.8330179999999
 30
0.000000000000000
 11
585.4182630000000
 21
176.3023179999999
 31
0.000000000000000
  0
LINE
  5
3BB
100
AcDbEntity
  8
1
  6
CONTINUOUS
 62
7
100
AcDbLine
 10
611.9461629999998
 20
312.8147180000000
 30
0.000000000000000
 11
611.9461629999998
 21
170.8147180000000
 31
0.000000000000000
  0
LINE
  5
3BC
100
AcDbEntity
  8
1
  6
CONTINUOUS
 62
7
100
AcDbLine
 10
610.9461629999998
 20
312.8147180000000
 30
0.000000000000000
 11
610.9461629999998
 21
170.8147180000000
 31
0.000000000000000
  0
LINE
  5
3BD
100
AcDbEntity
  8
1
  6
CONTINUOUS
 62
7
100
AcDbLine
 10
614.4461629999998
 20
312.8147180000000
 30
0.000000000000000
 11
614.4461629999998
 21
170.8147180000000
 31
0.000000000000000
  0
LINE
  5
3BE
100
AcDbEntity
  8
1
  6
CONTINUOUS
 62
7
100
AcDbLine
 10
616.9461629999998
 20
308.3147180000000
 30
0.000000000000000
 11
616.9461629999998
 21
175.3147180000000
 31
0.000000000000000
  0
LINE
  5
3BF
100
AcDbEntity
  8
1
  6
CONTINUOUS
 62
7
100
AcDbLine
 10
614.4461629999998
 20
170.8147180000000
 30
0.000000000000000
 11
610.9461629999998
 21
170.8147180000000
 31
0.000000000000000
  0
LINE
  5
3C0
100
AcDbEntity
  8
1
  6
CONTINUOUS
 62
7
100
AcDbLine
 10
616.9461629999997
 20
175.3147180000001
 30
0.000000000000000
 11
614.4461629999997
 21
170.8147180000000
 31
0.000000000000000
  0
LINE
  5
3C1
100
AcDbEntity
  8
5
  6
PHANTOM
 62
6
100
AcDbLine
 10
615.7120420000001
 20
294.5135379999999
 30
0.000000000000000
 11
673.4757280000000
 21
236.7497550000000
 31
0.000000000000000
  0
LINE
  5
3C2
100
AcDbEntity
  8
5
  6
PHANTOM
 62
6
100
AcDbLine
 10
616.1213769999999
 20
280.8102039999998
 30
0.000000000000000
 11
657.3605629999998
 21
239.5711180000000
 31
0.000000000000000
  0
LINE
  5
3C3
100
AcDbEntity
  8
1
  6
CONTINUOUS
 62
7
100
AcDbLine
 10
512.4537629999998
 20
263.8146759999999
 30
0.000000000000000
 11
513.4537629999998
 21
264.8146759999999
 31
0.000000000000000
  0
LINE
  5
3C4
100
AcDbEntity
  8
1
  6
CONTINUOUS
 62
7
100
AcDbLine
 10
513.4537629999998
 20
272.8146779999998
 30
0.000000000000000
 11
513.4537629999998
 21
257.0646779999999
 31
0.000000000000000
  0
LINE
  5
3C5
100
AcDbEntity
  8
1
  6
CONTINUOUS
 62
7
100
AcDbLine
 10
512.4537629999998
 20
267.6146779999999
 30
0.000000000000000
 11
512.4537629999998
 21
260.0146780000000
 31
0.000000000000000
  0
LINE
  5
3C6
100
AcDbEntity
  8
1
  6
CONTINUOUS
 62
7
100
AcDbLine
 10
532.4537630000000
 20
272.8146779999998
 30
0.000000000000000
 11
532.4537630000000
 21
212.8147180000000
 31
0.000000000000000
  0
LINE
  5
3C7
100
AcDbEntity
  8
1
  6
CONTINUOUS
 62
7
100
AcDbLine
 10
530.1537630000000
 20
272.8146779999998
 30
0.000000000000000
 11
530.1537630000000
 21
212.8147180000000
 31
0.000000000000000
  0
LINE
  5
3C8
100
AcDbEntity
  8
1
  6
CONTINUOUS
 62
7
100
AcDbLine
 10
593.9461629999998
 20
267.3146779999999
 30
0.000000000000000
 11
593.9461629999998
 21
260.3146779999998
 31
0.000000000000000
  0
LINE
  5
3C9
100
AcDbEntity
  8
5
  6
PHANTOM
 62
6
100
AcDbLine
 10
617.5131070000000
 20
289.6761950000000
 30
0.000000000000000
 11
624.0466699999999
 21
208.2476329999999
 31
0.000000000000000
  0
LINE
  5
3CA
100
AcDbEntity
  8
1
  6
CONTINUOUS
 62
7
100
AcDbLine
 10
600.4461629999998
 20
282.8186180000000
 30
0.000000000000000
 11
600.4461629999998
 21
238.8147180000000
 31
0.000000000000000
  0
LINE
  5
3CB
100
AcDbEntity
  8
1
  6
CONTINUOUS
 62
7
100
AcDbLine
 10
617.3458629999998
 20
290.0715180000000
 30
0.000000000000000
 11
617.3458629999998
 21
207.3147179999998
 31
0.000000000000000
  0
LINE
  5
3CC
100
AcDbEntity
  8
1
  6
CONTINUOUS
 62
7
100
AcDbLine
 10
608.9461629999998
 20
284.9287180000000
 30
0.000000000000000
 11
608.9461629999998
 21
176.8516179999998
 31
0.000000000000000
  0
LINE
  5
3CD
100
AcDbEntity
  8
1
  6
CONTINUOUS
 62
7
100
AcDbLine
 10
512.4537629999998
 20
225.6147200000000
 30
0.000000000000000
 11
512.4537629999998
 21
218.0147199999999
 31
0.000000000000000
  0
LINE
  5
3CE
100
AcDbEntity
  8
1
  6
CONTINUOUS
 62
7
100
AcDbLine
 10
513.4537629999998
 20
228.5647180000000
 30
0.000000000000000
 11
513.4537629999998
 21
212.8147180000000
 31
0.000000000000000
  0
LINE
  5
3CF
100
AcDbEntity
  8
1
  6
CONTINUOUS
 62
7
100
AcDbLine
 10
513.4537629999998
 20
212.8147180000000
 30
0.000000000000000
 11
532.4537630000000
 21
212.8147180000000
 31
0.000000000000000
  0
LINE
  5
3D0
100
AcDbEntity
  8
1
  6
CONTINUOUS
 62
7
100
AcDbLine
 10
513.4537629999998
 20
218.0147199999999
 30
0.000000000000000
 11
512.4537629999998
 21
218.0147199999999
 31
0.000000000000000
  0
LINE
  5
3D1
100
AcDbEntity
  8
1
  6
CONTINUOUS
 62
7
100
AcDbLine
 10
511.3192530000001
 20
218.4139870000000
 30
0.000000000000000
 11
512.4547630000000
 21
218.3147180000000
 31
0.000000000000000
  0
LINE
  5
3D2
100
AcDbEntity
  8
1
  6
CONTINUOUS
 62
7
100
AcDbLine
 10
513.4537629999998
 20
250.5647180000000
 30
0.000000000000000
 11
513.4537629999998
 21
235.0647180000000
 31
0.000000000000000
  0
ARC
  5
3D3
100
AcDbEntity
  8
1
  6
CONTINUOUS
 62
7
100
AcDbCircle
 10
524.0131629999998
 20
231.8147180000000
 30
0.000000000000000
 40
3.640619999999998
100
AcDbArc
 50
296.7850000000000
 51
423.2150000000000
  0
LINE
  5
3D4
100
AcDbEntity
  8
1
  6
CONTINUOUS
 62
7
100
AcDbLine
 10
513.4537629999998
 20
225.6147200000000
 30
0.000000000000000
 11
512.4537629999998
 21
225.6147200000000
 31
0.000000000000000
  0
LINE
  5
3D5
100
AcDbEntity
  8
1
  6
CONTINUOUS
 62
7
100
AcDbLine
 10
512.4537629999996
 20
221.8147179999999
 30
0.000000000000000
 11
513.4537629999996
 21
222.8147179999999
 31
0.000000000000000
  0
LINE
  5
3D6
100
AcDbEntity
  8
1
  6
CONTINUOUS
 62
7
100
AcDbLine
 10
512.4537629999998
 20
220.8147180000000
 30
0.000000000000000
 11
513.4537629999998
 21
221.8147180000000
 31
0.000000000000000
  0
LINE
  5
3D7
100
AcDbEntity
  8
1
  6
CONTINUOUS
 62
7
100
AcDbLine
 10
511.3337629999999
 20
225.2167179999999
 30
0.000000000000000
 11
512.4537629999998
 21
225.3147180000000
 31
0.000000000000000
  0
ARC
  5
3D8
100
AcDbEntity
  8
1
  6
CONTINUOUS
 62
7
100
AcDbCircle
 10
515.0943630000000
 20
231.8147180000000
 30
0.000000000000000
 40
3.640619999999998
100
AcDbArc
 50
116.7849999999999
 51
243.2150000000000
  0
LINE
  5
3D9
100
AcDbEntity
  8
1
  6
CONTINUOUS
 62
7
100
AcDbLine
 10
513.4537629999998
 20
228.5647180000000
 30
0.000000000000000
 11
525.6537630000000
 21
228.5647180000000
 31
0.000000000000000
  0
LINE
  5
3DA
100
AcDbEntity
  8
1
  6
CONTINUOUS
 62
7
100
AcDbLine
 10
513.4537629999998
 20
235.0647180000000
 30
0.000000000000000
 11
525.6537630000000
 21
235.0647180000000
 31
0.000000000000000
  0
ARC
  5
3DB
100
AcDbEntity
  8
1
  6
CONTINUOUS
 62
7
100
AcDbCircle
 10
524.0131629999998
 20
253.8147180000000
 30
0.000000000000000
 40
3.640629999999998
100
AcDbArc
 50
296.7850000000000
 51
423.2150000000000
  0
LINE
  5
3DC
100
AcDbEntity
  8
1
  6
CONTINUOUS
 62
7
100
AcDbLine
 10
511.3192530000000
 20
260.4139450000001
 30
0.000000000000000
 11
512.4547630000000
 21
260.3146760000000
 31
0.000000000000000
  0
LINE
  5
3DD
100
AcDbEntity
  8
1
  6
CONTINUOUS
 62
7
100
AcDbLine
 10
512.4537629999996
 20
262.8146759999998
 30
0.000000000000000
 11
513.4537629999998
 21
263.8146759999999
 31
0.000000000000000
  0
LINE
  5
3DE
100
AcDbEntity
  8
1
  6
CONTINUOUS
 62
7
100
AcDbLine
 10
513.4537629999998
 20
260.0146780000000
 30
0.000000000000000
 11
512.4537629999998
 21
260.0146780000000
 31
0.000000000000000
  0
ARC
  5
3DF
100
AcDbEntity
  8
1
  6
CONTINUOUS
 62
7
100
AcDbCircle
 10
515.0943630000000
 20
253.8147180000000
 30
0.000000000000000
 40
3.640629999999998
100
AcDbArc
 50
116.7849999999999
 51
243.2150000000000
  0
LINE
  5
3E0
100
AcDbEntity
  8
1
  6
CONTINUOUS
 62
7
100
AcDbLine
 10
513.4537629999998
 20
257.0646779999999
 30
0.000000000000000
 11
525.6537630000000
 21
257.0646779999999
 31
0.000000000000000
  0
LINE
  5
3E1
100
AcDbEntity
  8
1
  6
CONTINUOUS
 62
7
100
AcDbLine
 10
513.4537629999998
 20
250.5647180000000
 30
0.000000000000000
 11
525.6537630000000
 21
250.5647180000000
 31
0.000000000000000
  0
LINE
  5
3E2
100
AcDbEntity
  8
1
  6
CONTINUOUS
 62
7
100
AcDbLine
 10
593.9461629999998
 20
225.3147180000000
 30
0.000000000000000
 11
593.9461629999998
 21
218.3147180000000
 31
0.000000000000000
  0
LINE
  5
3E3
100
AcDbEntity
  8
1
  6
CONTINUOUS
 62
7
100
AcDbLine
 10
598.9461630000000
 20
237.8147180000000
 30
0.000000000000000
 11
598.9461630000000
 21
218.3147180000000
 31
0.000000000000000
  0
LINE
  5
3E4
100
AcDbEntity
  8
1
  6
CONTINUOUS
 62
7
100
AcDbLine
 10
583.9458630000000
 20
206.8147179999999
 30
0.000000000000000
 11
583.9458630000000
 21
177.8020180000000
 31
0.000000000000000
  0
LINE
  5
3E5
100
AcDbEntity
  8
4
  6
CENTER
 62
1
100
AcDbLine
 10
587.2265629999999
 20
193.3147179999999
 30
0.000000000000000
 11
580.3220629999997
 21
193.3147179999999
 31
0.000000000000000
  0
LINE
  5
3E6
100
AcDbEntity
  8
1
  6
CONTINUOUS
 62
7
100
AcDbLine
 10
595.9461629999998
 20
208.3147180000000
 30
0.000000000000000
 11
585.4458630000000
 21
208.3147180000000
 31
0.000000000000000
  0
ARC
  5
3E7
100
AcDbEntity
  8
1
  6
CONTINUOUS
 62
7
100
AcDbCircle
 10
585.4458630000000
 20
206.8147179999999
 30
0.000000000000000
 40
1.500000000000000
100
AcDbArc
 50
90.00000000000000
 51
180.0000000000000
  0
LINE
  5
3E8
100
AcDbEntity
  8
1
  6
CONTINUOUS
 62
7
100
AcDbLine
 10
598.4461629999998
 20
217.8147180000000
 30
0.000000000000000
 11
594.4461629999998
 21
217.8147180000000
 31
0.000000000000000
  0
ARC
  5
3E9
100
AcDbEntity
  8
1
  6
CONTINUOUS
 62
7
100
AcDbCircle
 10
595.9461629999998
 20
217.3147180000000
 30
0.000000000000000
 40
0.5000000000000000
100
AcDbArc
 50
0.000000000000000
 51
90.00000000000000
  0
ARC
  5
3EA
100
AcDbEntity
  8
1
  6
CONTINUOUS
 62
7
100
AcDbCircle
 10
598.4461629999998
 20
218.3147180000000
 30
0.000000000000000
 40
0.5000000000000000
100
AcDbArc
 50
270.0000000000000
 51
360.0000000000000
  0
ARC
  5
3EB
100
AcDbEntity
  8
1
  6
CONTINUOUS
 62
7
100
AcDbCircle
 10
594.4461629999998
 20
218.3147180000000
 30
0.000000000000000
 40
0.5000000000000000
100
AcDbArc
 50
180.0000000000000
 51
270.0000000000000
  0
ARC
  5
3EC
100
AcDbEntity
  8
1
  6
CONTINUOUS
 62
7
100
AcDbCircle
 10
595.9461629999998
 20
208.8147179999999
 30
0.000000000000000
 40
0.5000000000000000
100
AcDbArc
 50
270.0000000000000
 51
360.0000000000000
  0
LINE
  5
3ED
100
AcDbEntity
  8
1
  6
CONTINUOUS
 62
7
100
AcDbLine
 10
596.4461629999998
 20
217.3147180000000
 30
0.000000000000000
 11
596.4461629999998
 21
208.8147179999999
 31
0.000000000000000
  0
LINE
  5
3EE
100
AcDbEntity
  8
5
  6
PHANTOM
 62
6
100
AcDbLine
 10
616.9458630000000
 20
207.0028240000000
 30
0.000000000000000
 11
623.0768070000001
 21
207.1680160000000
 31
0.000000000000000
  0
ARC
  5
3EF
100
AcDbEntity
  8
1
  6
CONTINUOUS
 62
7
100
AcDbCircle
 10
616.3458630000000
 20
207.3147179999998
 30
0.000000000000000
 40
1.000000000000000
100
AcDbArc
 50
306.8913870000000
 51
360.0000000000000
  0
ARC
  5
3F0
100
AcDbEntity
  8
5
  6
PHANTOM
 62
6
100
AcDbCircle
 10
623.0498730000000
 20
208.1676530000000
 30
0.000000000000000
 40
1.000000000000000
100
AcDbArc
 50
271.5434040000000
 51
364.5873990000000
  0
LINE
  5
3F1
100
AcDbEntity
  8
1
  6
CONTINUOUS
 62
7
100
AcDbLine
 10
596.4461629999998
 20
259.3146779999999
 30
0.000000000000000
 11
596.4461629999998
 21
226.3147180000000
 31
0.000000000000000
  0
LINE
  5
3F2
100
AcDbEntity
  8
1
  6
CONTINUOUS
 62
7
100
AcDbLine
 10
598.4461629999998
 20
225.8147180000000
 30
0.000000000000000
 11
594.4461629999998
 21
225.8147180000000
 31
0.000000000000000
  0
ARC
  5
3F3
100
AcDbEntity
  8
1
  6
CONTINUOUS
 62
7
100
AcDbCircle
 10
595.9461629999998
 20
226.3147180000000
 30
0.000000000000000
 40
0.5000000000000000
100
AcDbArc
 50
270.0000000000000
 51
360.0000000000000
  0
ARC
  5
3F4
100
AcDbEntity
  8
1
  6
CONTINUOUS
 62
7
100
AcDbCircle
 10
598.4461629999998
 20
226.3147180000000
 30
0.000000000000000
 40
0.5000000000000000
100
AcDbArc
 50
270.0000000000000
 51
360.0000000000000
  0
ARC
  5
3F5
100
AcDbEntity
  8
1
  6
CONTINUOUS
 62
7
100
AcDbCircle
 10
594.4461629999998
 20
225.3147180000000
 30
0.000000000000000
 40
0.5000000000000000
100
AcDbArc
 50
90.00000000000000
 51
180.0000000000000
  0
LINE
  5
3F6
100
AcDbEntity
  8
4
  6
CENTER
 62
1
100
AcDbLine
 10
600.8081630000000
 20
221.8147180000000
 30
0.000000000000000
 11
590.4771629999998
 21
221.8147180000000
 31
0.000000000000000
  0
LINE
  5
3F7
100
AcDbEntity
  8
1
  6
CONTINUOUS
 62
7
100
AcDbLine
 10
599.9461629999998
 20
238.3147180000000
 30
0.000000000000000
 11
599.4461629999998
 21
238.3147180000000
 31
0.000000000000000
  0
ARC
  5
3F8
100
AcDbEntity
  8
1
  6
CONTINUOUS
 62
7
100
AcDbCircle
 10
599.4461629999998
 20
237.8147180000000
 30
0.000000000000000
 40
0.5000000000000000
100
AcDbArc
 50
90.00000000000000
 51
180.0000000000000
  0
ARC
  5
3F9
100
AcDbEntity
  8
1
  6
CONTINUOUS
 62
7
100
AcDbCircle
 10
599.9461629999998
 20
238.8147180000000
 30
0.000000000000000
 40
0.5000000000000000
100
AcDbArc
 50
270.0000000000000
 51
360.0000000000000
  0
LINE
  5
3FA
100
AcDbEntity
  8
4
  6
CENTER
 62
1
100
AcDbLine
 10
599.4751629999998
 20
263.8146759999999
 30
0.000000000000000
 11
590.1431629999997
 21
263.8146759999999
 31
0.000000000000000
  0
LINE
  5
3FB
100
AcDbEntity
  8
1
  6
CONTINUOUS
 62
7
100
AcDbLine
 10
599.9461629999998
 20
259.8146779999999
 30
0.000000000000000
 11
594.4461629999998
 21
259.8146779999999
 31
0.000000000000000
  0
ARC
  5
3FC
100
AcDbEntity
  8
1
  6
CONTINUOUS
 62
7
100
AcDbCircle
 10
599.9461629999998
 20
259.3146779999999
 30
0.000000000000000
 40
0.5000000000000000
100
AcDbArc
 50
0.000000000000000
 51
90.00000000000000
  0
ARC
  5
3FD
100
AcDbEntity
  8
1
  6
CONTINUOUS
 62
7
100
AcDbCircle
 10
595.9461629999998
 20
259.3146779999999
 30
0.000000000000000
 40
0.5000000000000000
100
AcDbArc
 50
0.000000000000000
 51
90.00000000000000
  0
ARC
  5
3FE
100
AcDbEntity
  8
1
  6
CONTINUOUS
 62
7
100
AcDbCircle
 10
594.4461629999998
 20
260.3146779999998
 30
0.000000000000000
 40
0.5000000000000000
100
AcDbArc
 50
180.0000000000000
 51
270.0000000000000
  0
LINE
  5
3FF
100
AcDbEntity
  8
4
  6
CENTER
 62
1
100
AcDbLine
 10
622.9781629999997
 20
289.8147180000000
 30
0.000000000000000
 11
572.6481639999998
 21
289.8147180000000
 31
0.000000000000000
  0
LINE
  5
400
100
AcDbEntity
  8
1
  6
CONTINUOUS
 62
7
100
AcDbLine
 10
513.4537629999998
 20
272.8146779999998
 30
0.000000000000000
 11
532.4537630000000
 21
272.8146779999998
 31
0.000000000000000
  0
LINE
  5
401
100
AcDbEntity
  8
1
  6
CONTINUOUS
 62
7
100
AcDbLine
 10
511.3337630000000
 20
267.2166760000000
 30
0.000000000000000
 11
512.4537629999998
 21
267.3146759999998
 31
0.000000000000000
  0
LINE
  5
402
100
AcDbEntity
  8
1
  6
CONTINUOUS
 62
7
100
AcDbLine
 10
513.4537629999998
 20
267.6146779999999
 30
0.000000000000000
 11
512.4537629999998
 21
267.6146779999999
 31
0.000000000000000
  0
LINE
  5
403
100
AcDbEntity
  8
1
  6
CONTINUOUS
 62
7
100
AcDbLine
 10
545.9033630000000
 20
294.8152180000000
 30
0.000000000000000
 11
545.9033630000000
 21
284.8142179999999
 31
0.000000000000000
  0
ARC
  5
404
100
AcDbEntity
  8
1
  6
CONTINUOUS
 62
7
100
AcDbCircle
 10
548.4593430000000
 20
285.4842179999998
 30
0.000000000000000
 40
2.555979999999999
100
AcDbArc
 50
145.6283629999998
 51
205.6283629999998
  0
ARC
  5
405
100
AcDbEntity
  8
1
  6
CONTINUOUS
 62
7
100
AcDbCircle
 10
547.3473830000000
 20
285.4842179999998
 30
0.000000000000000
 40
2.555979999999999
100
AcDbArc
 50
334.3716370000000
 51
394.3716370000000
  0
LINE
  5
406
100
AcDbEntity
  8
1
  6
CONTINUOUS
 62
7
100
AcDbLine
 10
549.9033630000000
 20
283.7147180000000
 30
0.000000000000000
 11
549.9033630000000
 21
295.9147180000000
 31
0.000000000000000
  0
LINE
  5
407
100
AcDbEntity
  8
1
  6
CONTINUOUS
 62
7
100
AcDbLine
 10
551.4033630000000
 20
281.8147180000000
 30
0.000000000000000
 11
551.4033630000000
 21
297.8147180000000
 31
0.000000000000000
  0
LINE
  5
408
100
AcDbEntity
  8
1
  6
CONTINUOUS
 62
7
100
AcDbLine
 10
553.0033630000000
 20
300.8147180000000
 30
0.000000000000000
 11
553.0033630000000
 21
278.8147180000000
 31
0.000000000000000
  0
LINE
  5
409
100
AcDbEntity
  8
1
  6
CONTINUOUS
 62
7
100
AcDbLine
 10
555.0033630000000
 20
300.8147180000000
 30
0.000000000000000
 11
555.0033630000000
 21
278.8147180000000
 31
0.000000000000000
  0
ARC
  5
40A
100
AcDbEntity
  8
1
  6
CONTINUOUS
 62
7
100
AcDbCircle
 10
547.3473629999999
 20
285.4852179999999
 30
0.000000000000000
 40
2.555820000000000
100
AcDbArc
 50
325.6159999999998
 51
325.6471430000000
  0
LINE
  5
40B
100
AcDbEntity
  8
1
  6
CONTINUOUS
 62
7
100
AcDbLine
 10
549.9033630000000
 20
283.7147180000000
 30
0.000000000000000
 11
551.4033630000000
 21
283.7147180000000
 31
0.000000000000000
  0
LINE
  5
40C
100
AcDbEntity
  8
1
  6
CONTINUOUS
 62
7
100
AcDbLine
 10
551.4033630000000
 20
281.8147180000000
 30
0.000000000000000
 11
553.0033630000000
 21
281.8147180000000
 31
0.000000000000000
  0
LINE
  5
40D
100
AcDbEntity
  8
1
  6
CONTINUOUS
 62
7
100
AcDbLine
 10
553.0033630000000
 20
278.8147180000000
 30
0.000000000000000
 11
555.0033630000000
 21
278.8147180000000
 31
0.000000000000000
  0
LINE
  5
40E
100
AcDbEntity
  8
1
  6
CONTINUOUS
 62
7
100
AcDbLine
 10
549.4570710000000
 20
284.0412180000000
 30
0.000000000000000
 11
546.3496550000000
 21
284.0412180000000
 31
0.000000000000000
  0
LINE
  5
40F
100
AcDbEntity
  8
1
  6
CONTINUOUS
 62
7
100
AcDbLine
 10
545.9033630000000
 20
284.8142180000000
 30
0.000000000000000
 11
546.3496550000000
 21
284.0412180000001
 31
0.000000000000000
  0
LINE
  5
410
100
AcDbEntity
  8
1
  6
CONTINUOUS
 62
7
100
AcDbLine
 10
549.9033630000001
 20
284.8142180000000
 30
0.000000000000000
 11
549.4570710000000
 21
284.0412180000000
 31
0.000000000000000
  0
LINE
  5
411
100
AcDbEntity
  8
1
  6
CONTINUOUS
 62
7
100
AcDbLine
 10
549.9033630000000
 20
288.3147180000000
 30
0.000000000000000
 11
551.4033630000001
 21
289.8147180000001
 31
0.000000000000000
  0
LINE
  5
412
100
AcDbEntity
  8
1
  6
CONTINUOUS
 62
7
100
AcDbLine
 10
549.9033630000000
 20
289.8147180000000
 30
0.000000000000000
 11
551.4033630000000
 21
291.3147180000001
 31
0.000000000000000
  0
LINE
  5
413
100
AcDbEntity
  8
1
  6
CONTINUOUS
 62
7
100
AcDbLine
 10
545.9033630000001
 20
294.8152180000000
 30
0.000000000000000
 11
546.3496550000000
 21
295.5882179999999
 31
0.000000000000000
  0
ARC
  5
414
100
AcDbEntity
  8
1
  6
CONTINUOUS
 62
7
100
AcDbCircle
 10
555.4643119999998
 20
289.8152180000000
 30
0.000000000000000
 40
9.560949000000001
100
AcDbArc
 50
162.4247879999998
 51
197.5752119999999
  0
ARC
  5
415
100
AcDbEntity
  8
1
  6
CONTINUOUS
 62
7
100
AcDbCircle
 10
548.4593430000000
 20
294.1452180000000
 30
0.000000000000000
 40
2.555979999999999
100
AcDbArc
 50
154.3716370000000
 51
214.3716370000000
  0
LINE
  5
416
100
AcDbEntity
  8
1
  6
CONTINUOUS
 62
7
100
AcDbLine
 10
553.0033630000000
 20
300.8147180000000
 30
0.000000000000000
 11
555.0033630000000
 21
300.8147180000000
 31
0.000000000000000
  0
LINE
  5
417
100
AcDbEntity
  8
1
  6
CONTINUOUS
 62
7
100
AcDbLine
 10
549.9033630000001
 20
294.8152180000000
 30
0.000000000000000
 11
549.4570710000002
 21
295.5882180000000
 31
0.000000000000000
  0
ARC
  5
418
100
AcDbEntity
  8
1
  6
CONTINUOUS
 62
7
100
AcDbCircle
 10
547.3473830000000
 20
294.1452180000000
 30
0.000000000000000
 40
2.555979999999999
100
AcDbArc
 50
325.6283629999999
 51
385.6283630000000
  0
ARC
  5
419
100
AcDbEntity
  8
1
  6
CONTINUOUS
 62
7
100
AcDbCircle
 10
540.3424139999998
 20
289.8152180000000
 30
0.000000000000000
 40
9.560949000000001
100
AcDbArc
 50
342.4247879999999
 51
377.5752120000000
  0
LINE
  5
41A
100
AcDbEntity
  8
1
  6
CONTINUOUS
 62
7
100
AcDbLine
 10
551.4033630000000
 20
297.8147180000000
 30
0.000000000000000
 11
553.0033630000000
 21
297.8147180000000
 31
0.000000000000000
  0
LINE
  5
41B
100
AcDbEntity
  8
1
  6
CONTINUOUS
 62
7
100
AcDbLine
 10
549.9033630000000
 20
295.9147180000000
 30
0.000000000000000
 11
551.4033630000000
 21
295.9147180000000
 31
0.000000000000000
  0
LINE
  5
41C
100
AcDbEntity
  8
4
  6
CENTER
 62
1
100
AcDbLine
 10
542.9033630000000
 20
289.8147180000000
 30
0.000000000000000
 11
558.0033630000000
 21
289.8147180000000
 31
0.000000000000000
  0
LINE
  5
41D
100
AcDbEntity
  8
1
  6
CONTINUOUS
 62
7
100
AcDbLine
 10
549.4570710000000
 20
286.9282180000000
 30
0.000000000000000
 11
546.3496550000000
 21
286.9282180000000
 31
0.000000000000000
  0
LINE
  5
41E
100
AcDbEntity
  8
1
  6
CONTINUOUS
 62
7
100
AcDbLine
 10
549.4570710000000
 20
292.7022180000000
 30
0.000000000000000
 11
546.3496550000000
 21
292.7022180000000
 31
0.000000000000000
  0
LINE
  5
41F
100
AcDbEntity
  8
1
  6
CONTINUOUS
 62
7
100
AcDbLine
 10
549.4570710000000
 20
295.5882179999999
 30
0.000000000000000
 11
546.3496550000000
 21
295.5882179999999
 31
0.000000000000000
  0
ARC
  5
420
100
AcDbEntity
  8
1
  6
CONTINUOUS
 62
7
100
AcDbCircle
 10
609.9461629999998
 20
306.8147180000000
 30
0.000000000000000
 40
1.000000000000000
100
AcDbArc
 50
90.00000000000000
 51
180.0000000000000
  0
LINE
  5
421
100
AcDbEntity
  8
1
  6
CONTINUOUS
 62
7
100
AcDbLine
 10
608.9461629999998
 20
282.8186180000000
 30
0.000000000000000
 11
600.4461629999998
 21
282.8186180000000
 31
0.000000000000000
  0
LINE
  5
422
100
AcDbEntity
  8
1
  6
CONTINUOUS
 62
7
100
AcDbLine
 10
608.9461629999998
 20
306.0647180000001
 30
0.000000000000000
 11
593.4461629999998
 21
306.0647180000001
 31
0.000000000000000
  0
LINE
  5
423
100
AcDbEntity
  8
2
  6
CONTINUOUS
 62
4
100
AcDbLine
 10
576.9458630000000
 20
289.8147180000000
 30
0.000000000000000
 11
580.9458630000000
 21
283.0803369999999
 31
0.000000000000000
  0
LINE
  5
424
100
AcDbEntity
  8
2
  6
CONTINUOUS
 62
4
100
AcDbLine
 10
580.9458629999999
 20
289.4779989999998
 30
0.000000000000000
 11
576.9458629999999
 21
282.7436180000000
 31
0.000000000000000
  0
LINE
  5
425
100
AcDbEntity
  8
1
  6
CONTINUOUS
 62
7
100
AcDbLine
 10
576.9458630000000
 20
296.8857180000000
 30
0.000000000000000
 11
576.9458630000000
 21
282.7436180000000
 31
0.000000000000000
  0
LINE
  5
426
100
AcDbEntity
  8
1
  6
CONTINUOUS
 62
7
100
AcDbLine
 10
580.9458630000000
 20
301.0730340000000
 30
0.000000000000000
 11
580.9458630000000
 21
276.8147180000000
 31
0.000000000000000
  0
LINE
  5
427
100
AcDbEntity
  8
1
  6
CONTINUOUS
 62
7
100
AcDbLine
 10
582.9458630000000
 20
276.8147180000000
 30
0.000000000000000
 11
582.9458630000000
 21
301.0730340000000
 31
0.000000000000000
  0
LINE
  5
428
100
AcDbEntity
  8
1
  6
CONTINUOUS
 62
7
100
AcDbLine
 10
583.1458629999997
 20
300.6400179999999
 30
0.000000000000000
 11
583.1458629999997
 21
278.0148179999998
 31
0.000000000000000
  0
LINE
  5
429
100
AcDbEntity
  8
1
  6
CONTINUOUS
 62
7
100
AcDbLine
 10
593.4461629999998
 20
306.0647180000001
 30
0.000000000000000
 11
593.4461629999998
 21
273.5646779999999
 31
0.000000000000000
  0
LINE
  5
42A
100
AcDbEntity
  8
1
  6
CONTINUOUS
 62
7
100
AcDbLine
 10
593.4461629999998
 20
277.3147180000000
 30
0.000000000000000
 11
584.1458629999997
 21
277.3147180000000
 31
0.000000000000000
  0
LINE
  5
42B
100
AcDbEntity
  8
1
  6
CONTINUOUS
 62
7
100
AcDbLine
 10
583.8037630000000
 20
277.0751180000000
 30
0.000000000000000
 11
593.4461629999998
 21
273.5646780000000
 31
0.000000000000000
  0
LINE
  5
42C
100
AcDbEntity
  8
1
  6
CONTINUOUS
 62
7
100
AcDbLine
 10
583.1458629999997
 20
282.6147179999999
 30
0.000000000000000
 11
582.9458630000000
 21
282.6147179999999
 31
0.000000000000000
  0
ARC
  5
42D
100
AcDbEntity
  8
1
  6
CONTINUOUS
 62
7
100
AcDbCircle
 10
584.1458629999997
 20
278.0148179999998
 30
0.000000000000000
 40
1.000000000000000
100
AcDbArc
 50
180.0000000000000
 51
249.9950000000000
  0
ARC
  5
42E
100
AcDbEntity
  8
1
  6
CONTINUOUS
 62
7
100
AcDbCircle
 10
584.1458629999997
 20
278.3147180000000
 30
0.000000000000000
 40
1.000000000000000
100
AcDbArc
 50
180.0000000000000
 51
270.0000000000000
  0
LINE
  5
42F
100
AcDbEntity
  8
1
  6
CONTINUOUS
 62
7
100
AcDbLine
 10
582.9458630000000
 20
276.8147180000000
 30
0.000000000000000
 11
580.9458630000000
 21
276.8147180000000
 31
0.000000000000000
  0
LINE
  5
430
100
AcDbEntity
  8
1
  6
CONTINUOUS
 62
7
100
AcDbLine
 10
580.9458630000000
 20
282.7436180000000
 30
0.000000000000000
 11
576.9458630000000
 21
282.7436180000000
 31
0.000000000000000
  0
LINE
  5
431
100
AcDbEntity
  8
1
  6
CONTINUOUS
 62
7
100
AcDbLine
 10
596.4461629999998
 20
273.0646779999998
 30
0.000000000000000
 11
596.4461629999998
 21
268.3146779999999
 31
0.000000000000000
  0
LINE
  5
432
100
AcDbEntity
  8
1
  6
CONTINUOUS
 62
7
100
AcDbLine
 10
599.9461629999998
 20
267.8146779999999
 30
0.000000000000000
 11
594.4461629999998
 21
267.8146779999999
 31
0.000000000000000
  0
ARC
  5
433
100
AcDbEntity
  8
1
  6
CONTINUOUS
 62
7
100
AcDbCircle
 10
599.9461629999998
 20
273.0646779999998
 30
0.000000000000000
 40
0.5000000000000000
100
AcDbArc
 50
0.000000000000000
 51
90.00000000000000
  0
ARC
  5
434
100
AcDbEntity
  8
1
  6
CONTINUOUS
 62
7
100
AcDbCircle
 10
599.9461629999998
 20
268.3146779999999
 30
0.000000000000000
 40
0.5000000000000000
100
AcDbArc
 50
270.0000000000000
 51
360.0000000000000
  0
ARC
  5
435
100
AcDbEntity
  8
1
  6
CONTINUOUS
 62
7
100
AcDbCircle
 10
595.9461629999998
 20
268.3146779999999
 30
0.000000000000000
 40
0.5000000000000000
100
AcDbArc
 50
270.0000000000000
 51
360.0000000000000
  0
ARC
  5
436
100
AcDbEntity
  8
1
  6
CONTINUOUS
 62
7
100
AcDbCircle
 10
595.9461629999998
 20
273.0646779999998
 30
0.000000000000000
 40
0.5000000000000000
100
AcDbArc
 50
0.000000000000000
 51
90.00000000000000
  0
LINE
  5
437
100
AcDbEntity
  8
1
  6
CONTINUOUS
 62
7
100
AcDbLine
 10
599.9461629999998
 20
273.5646779999999
 30
0.000000000000000
 11
593.4461629999998
 21
273.5646779999999
 31
0.000000000000000
  0
ARC
  5
438
100
AcDbEntity
  8
1
  6
CONTINUOUS
 62
7
100
AcDbCircle
 10
594.4461629999998
 20
267.3146779999999
 30
0.000000000000000
 40
0.5000000000000000
100
AcDbArc
 50
90.00000000000000
 51
180.0000000000000
  0
LINE
  5
439
100
AcDbEntity
  8
1
  6
CONTINUOUS
 62
7
100
AcDbLine
 10
593.4461629999998
 20
300.6400179999999
 30
0.000000000000000
 11
583.1458629999997
 21
300.6400179999999
 31
0.000000000000000
  0
LINE
  5
43A
100
AcDbEntity
  8
1
  6
CONTINUOUS
 62
7
100
AcDbLine
 10
593.4461629999998
 20
290.8147180000000
 30
0.000000000000000
 11
583.1458629999997
 21
290.8147180000000
 31
0.000000000000000
  0
LINE
  5
43B
100
AcDbEntity
  8
1
  6
CONTINUOUS
 62
7
100
AcDbLine
 10
593.4461629999998
 20
288.8147180000000
 30
0.000000000000000
 11
583.1458629999997
 21
288.8147180000000
 31
0.000000000000000
  0
LINE
  5
43C
100
AcDbEntity
  8
1
  6
CONTINUOUS
 62
7
100
AcDbLine
 10
593.4461629999998
 20
303.8147180000001
 30
0.000000000000000
 11
581.6458629999997
 21
303.8147180000001
 31
0.000000000000000
  0
LINE
  5
43D
100
AcDbEntity
  8
1
  6
CONTINUOUS
 62
7
100
AcDbLine
 10
593.4461629999998
 20
302.3147180000000
 30
0.000000000000000
 11
581.1458629999997
 21
302.3147180000000
 31
0.000000000000000
  0
LINE
  5
43E
100
AcDbEntity
  8
1
  6
CONTINUOUS
 62
7
100
AcDbLine
 10
593.4461629999997
 20
306.0647180000001
 30
0.000000000000000
 11
587.2658629999999
 21
303.8147180000001
 31
0.000000000000000
  0
LINE
  5
43F
100
AcDbEntity
  8
1
  6
CONTINUOUS
 62
7
100
AcDbLine
 10
581.1458629999997
 20
301.0730340000000
 30
0.000000000000000
 11
581.1458629999997
 21
303.3147180000000
 31
0.000000000000000
  0
LINE
  5
440
100
AcDbEntity
  8
1
  6
CONTINUOUS
 62
7
100
AcDbLine
 10
583.1458629999997
 20
298.5615179999999
 30
0.000000000000000
 11
582.9458630000000
 21
298.5615179999999
 31
0.000000000000000
  0
LINE
  5
441
100
AcDbEntity
  8
1
  6
CONTINUOUS
 62
7
100
AcDbLine
 10
580.9458630000000
 20
301.0730340000000
 30
0.000000000000000
 11
582.9458630000000
 21
301.0730340000000
 31
0.000000000000000
  0
LINE
  5
442
100
AcDbEntity
  8
1
  6
CONTINUOUS
 62
7
100
AcDbLine
 10
583.1458629999997
 20
297.0147180000000
 30
0.000000000000000
 11
582.9458630000000
 21
297.0147180000000
 31
0.000000000000000
  0
ARC
  5
443
100
AcDbEntity
  8
1
  6
CONTINUOUS
 62
7
100
AcDbCircle
 10
581.6458629999997
 20
303.3147180000000
 30
0.000000000000000
 40
0.5000000000000000
100
AcDbArc
 50
90.00000000000000
 51
180.0000000000000
  0
LINE
  5
444
100
AcDbEntity
  8
1
  6
CONTINUOUS
 62
7
100
AcDbLine
 10
580.9458630000000
 20
296.8857180000000
 30
0.000000000000000
 11
576.9458630000000
 21
296.8857180000000
 31
0.000000000000000
  0
LINE
  5
445
100
AcDbEntity
  8
1
  6
CONTINUOUS
 62
7
100
AcDbLine
 10
580.9458630000000
 20
289.8147180000000
 30
0.000000000000000
 11
576.9458630000000
 21
289.8147180000000
 31
0.000000000000000
  0
LINE
  5
446
100
AcDbEntity
  8
2
  6
CONTINUOUS
 62
4
100
AcDbLine
 10
576.9458629999999
 20
296.8857179999999
 30
0.000000000000000
 11
580.9458629999999
 21
290.1514320000000
 31
0.000000000000000
  0
LINE
  5
447
100
AcDbEntity
  8
2
  6
CONTINUOUS
 62
4
100
AcDbLine
 10
580.9458630000000
 20
296.5490040000000
 30
0.000000000000000
 11
576.9458629999999
 21
289.8147180000000
 31
0.000000000000000
  0
ARC
  5
448
100
AcDbEntity
  8
1
  6
CONTINUOUS
 62
7
100
AcDbCircle
 10
687.9881629999996
 20
289.8147180000000
 30
0.000000000000000
 40
72.42839999999998
100
AcDbArc
 50
168.7743000000000
 51
191.2260000000000
  0
LINE
  5
449
100
AcDbEntity
  8
1
  6
CONTINUOUS
 62
7
100
AcDbLine
 10
608.9461629999998
 20
306.8147180000000
 30
0.000000000000000
 11
608.9461629999998
 21
293.4235179999999
 31
0.000000000000000
  0
ARC
  5
44A
100
AcDbEntity
  8
1
  6
CONTINUOUS
 62
7
100
AcDbCircle
 10
615.3458630000000
 20
290.0715180000000
 30
0.000000000000000
 40
2.000000000000000
100
AcDbArc
 50
0.000000000000000
 51
36.85557100000000
  0
LINE
  5
44B
100
AcDbEntity
  8
1
  6
CONTINUOUS
 62
7
100
AcDbLine
 10
610.9461629999998
 20
307.8147180000001
 30
0.000000000000000
 11
609.9461629999998
 21
307.8147180000001
 31
0.000000000000000
  0
LINE
  5
44C
100
AcDbEntity
  8
1
  6
CONTINUOUS
 62
7
100
AcDbLine
 10
614.4461629999998
 20
312.8147180000000
 30
0.000000000000000
 11
610.9461629999998
 21
312.8147180000000
 31
0.000000000000000
  0
LINE
  5
44D
100
AcDbEntity
  8
1
  6
CONTINUOUS
 62
7
100
AcDbLine
 10
614.4461629999998
 20
312.8147180000000
 30
0.000000000000000
 11
616.9461629999998
 21
308.3147180000000
 31
0.000000000000000
  0
LINE
  5
44E
100
AcDbEntity
  8
5
  6
PHANTOM
 62
6
100
AcDbLine
 10
667.2211650000002
 20
229.7107100000000
 30
0.000000000000000
 11
673.4371800000001
 21
235.2989900000001
 31
0.000000000000000
  0
LINE
  5
44F
100
AcDbEntity
  8
5
  6
PHANTOM
 62
6
100
AcDbLine
 10
657.9955629999997
 20
234.7427179999999
 30
0.000000000000000
 11
656.6745629999998
 21
232.4538180000000
 31
0.000000000000000
  0
ARC
  5
450
100
AcDbEntity
  8
5
  6
PHANTOM
 62
6
100
AcDbCircle
 10
658.4065630000000
 20
231.4538180000000
 30
0.000000000000000
 40
2.000000000000000
100
AcDbArc
 50
150.0000000000000
 51
225.0000000000000
  0
LINE
  5
451
100
AcDbEntity
  8
5
  6
PHANTOM
 62
6
100
AcDbLine
 10
667.2211650000000
 20
229.7107100000000
 30
0.000000000000000
 11
663.6855630000000
 21
226.1750179999999
 31
0.000000000000000
  0
ARC
  5
452
100
AcDbEntity
  8
5
  6
PHANTOM
 62
6
100
AcDbCircle
 10
662.2715630000000
 20
227.5893180000000
 30
0.000000000000000
 40
2.000000000000000
100
AcDbArc
 50
225.0000000000000
 51
315.0000000000000
  0
ARC
  5
453
100
AcDbEntity
  8
5
  6
PHANTOM
 62
6
100
AcDbCircle
 10
654.5315630000000
 20
236.7427180000000
 30
0.000000000000000
 40
4.000000000000000
100
AcDbArc
 50
329.9999999999999
 51
404.9999999999999
  0
LINE
  5
454
100
AcDbEntity
  8
5
  6
PHANTOM
 62
6
100
AcDbLine
 10
656.9925630000000
 20
230.0396179999999
 30
0.000000000000000
 11
660.8565630000001
 21
226.1750179999999
 31
0.000000000000000
  0
ARC
  5
455
100
AcDbEntity
  8
5
  6
PHANTOM
 62
6
100
AcDbCircle
 10
672.7686210000001
 20
236.0426490000000
 30
0.000000000000000
 40
1.000000000000000
100
AcDbArc
 50
311.9559560000000
 51
404.9999520000000
  0
LINE
  5
456
100
AcDbEntity
  8
1
  6
CONTINUOUS
 62
7
100
AcDbLine
 10
50.99558000000000
 20
355.7503040000000
 30
0.000000000000000
 11
37.99557999999999
 21
355.7503040000000
 31
0.000000000000000
  0
LINE
  5
457
100
AcDbEntity
  8
1
  6
CONTINUOUS
 62
7
100
AcDbLine
 10
50.99558000000000
 20
367.7503040000000
 30
0.000000000000000
 11
37.99557999999999
 21
367.7503040000000
 31
0.000000000000000
  0
LINE
  5
458
100
AcDbEntity
  8
1
  6
CONTINUOUS
 62
7
100
AcDbLine
 10
39.58788699999999
 20
366.4618420000000
 30
0.000000000000000
 11
49.78788699999997
 21
362.2118420000000
 31
0.000000000000000
  0
LINE
  5
459
100
AcDbEntity
  8
1
  6
CONTINUOUS
 62
7
100
AcDbLine
 10
39.58788700000004
 20
357.0387650000000
 30
0.000000000000000
 11
49.78788700000000
 21
361.2887650000000
 31
0.000000000000000
  0
ARC
  5
45A
100
AcDbEntity
  8
1
  6
CONTINUOUS
 62
7
100
AcDbCircle
 10
37.99557999999999
 20
356.2503040000001
 30
0.000000000000000
 40
0.5000000000000000
100
AcDbArc
 50
180.0000000000000
 51
270.0000000000000
  0
LINE
  5
45B
100
AcDbEntity
  8
1
  6
CONTINUOUS
 62
7
100
AcDbLine
 10
37.49557999999999
 20
367.2503040000000
 30
0.000000000000000
 11
37.49557999999999
 21
356.2503040000001
 31
0.000000000000000
  0
ARC
  5
45C
100
AcDbEntity
  8
1
  6
CONTINUOUS
 62
7
100
AcDbCircle
 10
37.99557999999999
 20
367.2503040000000
 30
0.000000000000000
 40
0.5000000000000000
100
AcDbArc
 50
90.00000000000000
 51
180.0000000000000
  0
ARC
  5
45D
100
AcDbEntity
  8
1
  6
CONTINUOUS
 62
7
100
AcDbCircle
 10
39.39557999999999
 20
357.5003040000000
 30
0.000000000000000
 40
0.5000000000000000
100
AcDbArc
 50
180.0000000000000
 51
292.6198649999999
  0
ARC
  5
45E
100
AcDbEntity
  8
1
  6
CONTINUOUS
 62
7
100
AcDbCircle
 10
39.39557999999999
 20
366.0003040000000
 30
0.000000000000000
 40
0.5000000000000000
100
AcDbArc
 50
67.38013500000000
 51
180.0000000000000
  0
LINE
  5
45F
100
AcDbEntity
  8
1
  6
CONTINUOUS
 62
7
100
AcDbLine
 10
38.89557999999999
 20
357.5003040000000
 30
0.000000000000000
 11
38.89557999999999
 21
366.0003040000000
 31
0.000000000000000
  0
ARC
  5
460
100
AcDbEntity
  8
1
  6
CONTINUOUS
 62
7
100
AcDbCircle
 10
50.99558000000000
 20
356.2503040000001
 30
0.000000000000000
 40
0.5000000000000000
100
AcDbArc
 50
270.0000000000000
 51
360.0000000000000
  0
LINE
  5
461
100
AcDbEntity
  8
1
  6
CONTINUOUS
 62
7
100
AcDbLine
 10
51.49557999999998
 20
367.2503040000000
 30
0.000000000000000
 11
51.49557999999998
 21
356.2503040000001
 31
0.000000000000000
  0
ARC
  5
462
100
AcDbEntity
  8
1
  6
CONTINUOUS
 62
7
100
AcDbCircle
 10
50.99558000000000
 20
367.2503040000000
 30
0.000000000000000
 40
0.5000000000000000
100
AcDbArc
 50
0.000000000000000
 51
90.00000000000000
  0
ARC
  5
463
100
AcDbEntity
  8
1
  6
CONTINUOUS
 62
7
100
AcDbCircle
 10
49.59558000000000
 20
361.7503040000000
 30
0.000000000000000
 40
0.5000000000000000
100
AcDbArc
 50
292.6198649999999
 51
427.3801350000000
  0
ENDSEC
  0
SECTION
  2
OBJECTS
  0
DICTIONARY
  5
48D
100
AcDbDictionary
  3
ACAD_GROUP
350
48E
  3
ACAD_LAYOUT
350
48F
  3
ACAD_MLINESTYLE
350
490
  0
DICTIONARY
  5
48E
102
{ACAD_REACTORS
330
48D
102
}
330
48D
100
AcDbDictionary
  0
DICTIONARY
  5
48F
102
{ACAD_REACTORS
330
48D
102
}
330
48D
100
AcDbDictionary
  3
Model
350
491
  3
ﾚｲｱｳﾄ1
350
492
  3
ﾚｲｱｳﾄ2
350
493
  0
DICTIONARY
  5
490
102
{ACAD_REACTORS
330
48D
102
}
330
48D
100
AcDbDictionary
  3
STANDARD
350
494
  0
LAYOUT
  5
491
102
{ACAD_REACTORS
330
48F
102
}
330
48F
100
AcDbPlotSettings
 70
11952
  4
A3
 44
297.000000
 45
420.000000
 73
  1
 72
  1
100
AcDbLayout
  1
Model
 71
0
330
484
  0
LAYOUT
  5
492
102
{ACAD_REACTORS
330
48F
102
}
330
48F
100
AcDbPlotSettings
100
AcDbLayout
  1
ﾚｲｱｳﾄ1
 71
1
330
485
  0
LAYOUT
  5
493
102
{ACAD_REACTORS
330
48F
102
}
330
48F
100
AcDbPlotSettings
100
AcDbLayout
  1
ﾚｲｱｳﾄ2
 71
2
330
486
  0
MLINESTYLE
  5
494
102
{ACAD_REACTORS
330
490
102
}
330
490
100
AcDbMlineStyle
  2
STANDARD
 70
     0
  3

 62
   256
 51
90.00
 52
90.00
 71
     2
 49
0.50
 62
   256
  6
BYLAYER
 49
-0.50
 62
   256
  6
BYLAYER
  0
ENDSEC
  0
EOF
