  0
SECTION
  2
HEADER
  9
$ACADVER
  1
AC1027
  9
$DWGCODEPAGE
  3
ANSI_932
  9
$LTSCALE
 40
20.0
  9
$FILLMODE
 70
     1
  9
$CLAYER
  8
0
  9
$PDMODE
 70
     0
  9
$SPLFRAME
 70
     0
  9
$SPLINETYPE
 70
     6
  9
$SPLINESEGS
 70
     8
  9
$DIMASZ
 40
2.000000
  9
$DIMEXE
 40
1.500000
  9
$DIMEXO
 40
0.800000
  9
$DIMTAD
 70
     1
  9
$DIMTIH
 70
     0
  9
$DIMTOH
 70
     0
  9
$DIMTVP
 40
0.500000
  9
$DIMTXT
 40
3.100000
  9
$EXTMIN
 10
0.000000
 20
0.000000
 30
0.000000
  9
$EXTMAX
 10
297.000000
 20
420.000000
 30
0.000000
  9
$MEASUREMENT
 70
  1
  9
$LIMMIN
 10
0.000000
 20
0.000000
  9
$LIMMAX
 10
297.000000
 20
420.000000
  9
$HANDSEED
  5
3AC
  9
$LWDISPLAY
290
     0
  9
$DIMBLK
  1
_OPEN
  9
$DIMDEC
 70
     2
  9
$DIMADEC
 70
     2
  9
$DIMAUNIT
 70
     0
  9
$DIMZIN
 70
     8
  9
$DIMAZIN
 70
     2
  9
$DIMTOFL
 70
     1
  0
ENDSEC
  0
SECTION
  2
CLASSES
  0
ENDSEC
  0
SECTION
  2
TABLES
  0
TABLE
  2
VPORT
  5
37B
100
AcDbSymbolTable
 70
     1
  0
VPORT
  5
37C
100
AcDbSymbolTableRecord
100
AcDbViewportTableRecord
  2
*ACTIVE
 70
     0
 12
369.177558
 22
227.657163
 40
419.314327
 41
1.713166
  0
ENDTAB
  0
TABLE
  2
LTYPE
  5
37D
100
AcDbSymbolTable
 70
     3
  0
LTYPE
  5
37E
100
AcDbSymbolTableRecord
100
AcDbLinetypeTableRecord
  2
BYBLOCK
 70
     0
  3

 72
    65
 73
     0
 40
0.0
  0
LTYPE
  5
37F
100
AcDbSymbolTableRecord
100
AcDbLinetypeTableRecord
  2
BYLAYER
 70
     0
  3

 72
    65
 73
     0
 40
0.0
  0
LTYPE
  5
380
100
AcDbSymbolTableRecord
100
AcDbLinetypeTableRecord
  2
CONTINUOUS
 70
     0
  3
Solid line (NEC CAE2D for Win R17.0 : 2022.11.25)
 72
    65
 73
     0
 40
0.0
  0
LTYPE
  5
381
100
AcDbSymbolTableRecord
100
AcDbLinetypeTableRecord
  2
CENTER
 70
     0
  3
____ _ ____ _ ____ _ ____ _ ____ _ ____
 72
    65
 73
     4
 40
2.0
 49
1.25
 74
     0
 49
-0.25
 74
     0
 49
0.25
 74
     0
 49
-0.25
 74
     0
  0
LTYPE
  5
382
100
AcDbSymbolTableRecord
100
AcDbLinetypeTableRecord
  2
PHANTOM
 70
     0
  3
______  __  __  ______  __  __  ______ 
 72
    65
 73
     6
 40
2.5
 49
1.25
 74
     0
 49
-0.25
 74
     0
 49
0.25
 74
     0
 49
-0.25
 74
     0
 49
0.25
 74
     0
 49
-0.25
 74
     0
  0
ENDTAB
  0
TABLE
  2
LAYER
  5
383
100
AcDbSymbolTable
 70
    10
  0
LAYER
  5
384
100
AcDbSymbolTableRecord
100
AcDbLayerTableRecord
  2
0
 70
     0
 62
     7
  6
CONTINUOUS
370
    -3
390

  0
LAYER
  5
385
100
AcDbSymbolTableRecord
100
AcDbLayerTableRecord
  2
DXF0
 70
     0
 62
     7
  6
CONTINUOUS
370
    -3
390

  0
LAYER
  5
386
100
AcDbSymbolTableRecord
100
AcDbLayerTableRecord
  2
4
 70
     0
 62
     1
  6
CONTINUOUS
370
    -3
390

  0
LAYER
  5
387
100
AcDbSymbolTableRecord
100
AcDbLayerTableRecord
  2
5
 70
     0
 62
     6
  6
CONTINUOUS
370
    -3
390

  0
LAYER
  5
388
100
AcDbSymbolTableRecord
100
AcDbLayerTableRecord
  2
1
 70
     0
 62
     7
  6
CONTINUOUS
370
    -3
390

  0
LAYER
  5
389
100
AcDbSymbolTableRecord
100
AcDbLayerTableRecord
  2
2
 70
     0
 62
     4
  6
CONTINUOUS
370
    -3
390

  0
LAYER
  5
38A
100
AcDbSymbolTableRecord
100
AcDbLayerTableRecord
  2
3
 70
     0
 62
     2
  6
CONTINUOUS
370
    -3
390

  0
LAYER
  5
38B
100
AcDbSymbolTableRecord
100
AcDbLayerTableRecord
  2
6
 70
     0
 62
     5
  6
CONTINUOUS
370
    -3
390

  0
LAYER
  5
38C
100
AcDbSymbolTableRecord
100
AcDbLayerTableRecord
  2
7
 70
     0
 62
     3
  6
CONTINUOUS
370
    -3
390

  0
LAYER
  5
38D
100
AcDbSymbolTableRecord
100
AcDbLayerTableRecord
  2
DXF1023
 70
     0
 62
    16
  6
CONTINUOUS
370
    -3
390

  0
ENDTAB
  0
TABLE
  2
STYLE
  5
38E
100
AcDbSymbolTable
 70
     4
  0
STYLE
  5
38F
100
AcDbSymbolTableRecord
100
AcDbTextStyleTableRecord
  2
STANDARD
 70
    64
 40
0.0
 41
1.0
 50
0.0
 71
     0
 42
3.000000000000000
  3
TXT
  4

  0
STYLE
  5
390
100
AcDbSymbolTableRecord
100
AcDbTextStyleTableRecord
  2
ANKTATE
 70
    68
 40
0.0
 41
1.0
 50
0.0
 71
     0
 42
3.000000000000000
  3
TXT
  4

  0
STYLE
  5
391
100
AcDbSymbolTableRecord
100
AcDbTextStyleTableRecord
  2
KNJYOKO
 70
    64
 40
0.0
 41
1.0
 50
0.0
 71
     0
 42
3.000000000000000
  3
TXT
  4
BIGFONT
  0
STYLE
  5
392
100
AcDbSymbolTableRecord
100
AcDbTextStyleTableRecord
  2
KNJTATE
 70
    68
 40
0.0
 41
1.0
 50
0.0
 71
     0
 42
3.000000000000000
  3
TXT
  4
BIGFONT
  0
ENDTAB
  0
TABLE
  2
VIEW
  5
393
100
AcDbSymbolTable
 70
     0
  0
ENDTAB
  0
TABLE
  2
UCS
  5
394
100
AcDbSymbolTable
 70
     0
  0
ENDTAB
  0
TABLE
  2
APPID
  5
395
100
AcDbSymbolTable
 70
     1
  0
APPID
  5
396
100
AcDbSymbolTableRecord
100
AcDbRegAppTableRecord
  2
ACAD
 70
     0
  0
ENDTAB
  0
TABLE
  2
DIMSTYLE
  5
397
100
AcDbSymbolTable
 70
     2
100
AcDbDimStyleTable
  0
DIMSTYLE
105
398
100
AcDbSymbolTableRecord
100
AcDbDimStyleTableRecord
  2
STANDARD
 70
     0
 41
2.000000
 44
1.500000
 42
0.800000
145
0.661290
140
3.100000
144
1.000000
146
0.645161
340
38F
  0
DIMSTYLE
105
399
100
AcDbSymbolTableRecord
100
AcDbDimStyleTableRecord
  2
DXF001
 70
     0
 41
2.000000
 44
1.500000
 42
0.800000
145
0.661290
140
3.100000
144
1.000000
146
0.645161
 77
     1
 73
     0
 74
     0
271
     2
179
     2
275
     0
 78
     8
 79
     2
172
     1
340
38F
  0
ENDTAB
  0
TABLE
  2
BLOCK_RECORD
  5
39A
100
AcDbSymbolTable
 70
    12
  0
BLOCK_RECORD
  5
39B
100
AcDbSymbolTableRecord
100
AcDbBlockTableRecord
  2
*MODEL_SPACE
  0
BLOCK_RECORD
  5
39C
100
AcDbSymbolTableRecord
100
AcDbBlockTableRecord
  2
*PAPER_SPACE
  0
BLOCK_RECORD
  5
39D
100
AcDbSymbolTableRecord
100
AcDbBlockTableRecord
  2
*PAPER_SPACE0
  0
BLOCK_RECORD
  5
1
100
AcDbSymbolTableRecord
100
AcDbBlockTableRecord
  2
_NONE
  0
BLOCK_RECORD
  5
4
100
AcDbSymbolTableRecord
100
AcDbBlockTableRecord
  2
_CLOSED
  0
BLOCK_RECORD
  5
B
100
AcDbSymbolTableRecord
100
AcDbBlockTableRecord
  2
_DOT
  0
BLOCK_RECORD
  5
13
100
AcDbSymbolTableRecord
100
AcDbBlockTableRecord
  2
_OPEN
  0
BLOCK_RECORD
  5
19
100
AcDbSymbolTableRecord
100
AcDbBlockTableRecord
  2
_ORIGIN
  0
BLOCK_RECORD
  5
1E
100
AcDbSymbolTableRecord
100
AcDbBlockTableRecord
  2
_OPEN30
  0
BLOCK_RECORD
  5
24
100
AcDbSymbolTableRecord
100
AcDbBlockTableRecord
  2
_BOXFILLED
  0
BLOCK_RECORD
  5
29
100
AcDbSymbolTableRecord
100
AcDbBlockTableRecord
  2
_BOXBLANK
  0
BLOCK_RECORD
  5
31
100
AcDbSymbolTableRecord
100
AcDbBlockTableRecord
  2
_OBLIQUE
  0
BLOCK_RECORD
  5
35
100
AcDbSymbolTableRecord
100
AcDbBlockTableRecord
  2
_OPEN90
  0
BLOCK_RECORD
  5
3B
100
AcDbSymbolTableRecord
100
AcDbBlockTableRecord
  2
_CLOSEDBLANK
  0
BLOCK_RECORD
  5
41
100
AcDbSymbolTableRecord
100
AcDbBlockTableRecord
  2
_DOTBLANK
  0
ENDTAB
  0
ENDSEC
  0
SECTION
  2
BLOCKS
  0
BLOCK
  5
39E
100
AcDbEntity
  8
0
100
AcDbBlockBegin
  2
*MODEL_SPACE
 70
     0
 10
0.0
 20
0.0
 30
0.0
  3
*MODEL_SPACE
  1

  0
ENDBLK
  5
39F
100
AcDbEntity
  8
0
100
AcDbBlockEnd
  0
BLOCK
  5
3A0
100
AcDbEntity
  8
0
100
AcDbBlockBegin
  2
*PAPER_SPACE
 70
     0
 10
0.0
 20
0.0
 30
0.0
  3
*PAPER_SPACE
  1

  0
ENDBLK
  5
3A1
100
AcDbEntity
  8
0
100
AcDbBlockEnd
  0
BLOCK
  5
3A2
100
AcDbEntity
  8
0
100
AcDbBlockBegin
  2
*PAPER_SPACE0
 70
     0
 10
0.0
 20
0.0
 30
0.0
  3
*PAPER_SPACE0
  1

  0
ENDBLK
  5
3A3
100
AcDbEntity
  8
0
100
AcDbBlockEnd
  0
BLOCK
  5
2
330
1
100
AcDbEntity
  8
0
100
AcDbBlockBegin
  2
_NONE
 70
     0
 10
0.0
 20
0.0
 30
0.0
  3
_NONE
  1

  0
ENDBLK
  5
3
330
1
100
AcDbEntity
  8
0
100
AcDbBlockEnd
  0
BLOCK
  5
5
330
4
100
AcDbEntity
  8
0
100
AcDbBlockBegin
  2
_CLOSED
 70
     0
 10
0.0
 20
0.0
 30
0.0
  3
_CLOSED
  1

  0
LINE
  5
6
330
4
100
AcDbEntity
  8
0
  6
BYBLOCK
 62
     0
370
    -2
100
AcDbLine
 10
-1.0
 20
0.166667
 30
0.0
 11
0.0
 21
0.0
 31
0.0
  0
LINE
  5
7
330
4
100
AcDbEntity
  8
0
  6
BYBLOCK
 62
     0
370
    -2
100
AcDbLine
 10
0.0
 20
0.0
 30
0.0
 11
-1.0
 21
-0.166667
 31
0.0
  0
LINE
  5
8
330
4
100
AcDbEntity
  8
0
  6
BYBLOCK
 62
     0
370
    -2
100
AcDbLine
 10
-1.0
 20
0.166667
 30
0.0
 11
-1.0
 21
-0.166667
 31
0.0
  0
LINE
  5
9
330
4
100
AcDbEntity
  8
0
  6
BYBLOCK
 62
     0
370
    -2
100
AcDbLine
 10
0.0
 20
0.0
 30
0.0
 11
-1.0
 21
0.0
 31
0.0
  0
ENDBLK
  5
A
330
4
100
AcDbEntity
  8
0
100
AcDbBlockEnd
  0
BLOCK
  5
C
330
B
100
AcDbEntity
  8
0
100
AcDbBlockBegin
  2
_DOT
 70
     0
 10
0.0
 20
0.0
 30
0.0
  3
_DOT
  1

  0
POLYLINE
  5
D
330
B
100
AcDbEntity
  8
0
  6
BYBLOCK
 62
     0
370
    -2
100
AcDb2dPolyline
 66
     1
 10
0.0
 20
0.0
 30
0.0
 70
     1
 40
0.5
 41
0.5
  0
VERTEX
  5
E
330
B
100
AcDbEntity
  8
0
  6
BYBLOCK
 62
     0
370
    -2
100
AcDbVertex
100
AcDb2dVertex
 10
-0.25
 20
0.0
 30
0.0
 42
1.0
  0
VERTEX
  5
F
330
B
100
AcDbEntity
  8
0
  6
BYBLOCK
 62
     0
370
    -2
100
AcDbVertex
100
AcDb2dVertex
 10
0.25
 20
0.0
 30
0.0
 42
1.0
  0
SEQEND
  5
10
330
B
100
AcDbEntity
  8
0
  6
BYBLOCK
 62
     0
370
    -2
  0
LINE
  5
11
330
B
100
AcDbEntity
  8
0
  6
BYBLOCK
 62
     0
370
    -2
100
AcDbLine
 10
-0.5
 20
0.0
 30
0.0
 11
-1.0
 21
0.0
 31
0.0
  0
ENDBLK
  5
12
330
B
100
AcDbEntity
  8
0
100
AcDbBlockEnd
  0
BLOCK
  5
14
330
13
100
AcDbEntity
  8
0
100
AcDbBlockBegin
  2
_OPEN
 70
     0
 10
0.0
 20
0.0
 30
0.0
  3
_OPEN
  1

  0
LINE
  5
15
330
13
100
AcDbEntity
  8
0
  6
BYBLOCK
 62
     0
370
    -2
100
AcDbLine
 10
-1.0
 20
0.166667
 30
0.0
 11
0.0
 21
0.0
 31
0.0
  0
LINE
  5
16
330
13
100
AcDbEntity
  8
0
  6
BYBLOCK
 62
     0
370
    -2
100
AcDbLine
 10
0.0
 20
0.0
 30
0.0
 11
-1.0
 21
-0.166667
 31
0.0
  0
LINE
  5
17
330
13
100
AcDbEntity
  8
0
  6
BYBLOCK
 62
     0
370
    -2
100
AcDbLine
 10
0.0
 20
0.0
 30
0.0
 11
-1.0
 21
0.0
 31
0.0
  0
ENDBLK
  5
18
330
13
100
AcDbEntity
  8
0
100
AcDbBlockEnd
  0
BLOCK
  5
1A
330
19
100
AcDbEntity
  8
0
100
AcDbBlockBegin
  2
_ORIGIN
 70
     0
 10
0.0
 20
0.0
 30
0.0
  3
_ORIGIN
  1

  0
CIRCLE
  5
1B
330
19
100
AcDbEntity
  8
0
  6
BYBLOCK
 62
     0
370
    -2
100
AcDbCircle
 10
0.0
 20
0.0
 30
0.0
 40
0.5
  0
LINE
  5
1C
330
19
100
AcDbEntity
  8
0
  6
BYBLOCK
 62
     0
370
    -2
100
AcDbLine
 10
0.0
 20
0.0
 30
0.0
 11
-1.0
 21
0.0
 31
0.0
  0
ENDBLK
  5
1D
330
19
100
AcDbEntity
  8
0
100
AcDbBlockEnd
  0
BLOCK
  5
1F
330
1E
100
AcDbEntity
  8
0
100
AcDbBlockBegin
  2
_OPEN30
 70
     0
 10
0.0
 20
0.0
 30
0.0
  3
_OPEN30
  1

  0
LINE
  5
20
330
1E
100
AcDbEntity
  8
0
  6
BYBLOCK
 62
     0
370
    -2
100
AcDbLine
 10
-1.0
 20
0.267949
 30
0.0
 11
0.0
 21
0.0
 31
0.0
  0
LINE
  5
21
330
1E
100
AcDbEntity
  8
0
  6
BYBLOCK
 62
     0
370
    -2
100
AcDbLine
 10
0.0
 20
0.0
 30
0.0
 11
-1.0
 21
-0.267949
 31
0.0
  0
LINE
  5
22
330
1E
100
AcDbEntity
  8
0
  6
BYBLOCK
 62
     0
370
    -2
100
AcDbLine
 10
0.0
 20
0.0
 30
0.0
 11
-1.0
 21
0.0
 31
0.0
  0
ENDBLK
  5
23
330
1E
100
AcDbEntity
  8
0
100
AcDbBlockEnd
  0
BLOCK
  5
25
330
24
100
AcDbEntity
  8
0
100
AcDbBlockBegin
  2
_BOXFILLED
 70
     0
 10
0.0
 20
0.0
 30
0.0
  3
_BOXFILLED
  1

  0
SOLID
  5
26
330
24
100
AcDbEntity
  8
0
  6
BYBLOCK
 62
     0
370
    -2
100
AcDbTrace
 10
-0.5
 20
0.5
 30
0.0
 11
0.5
 21
0.5
 31
0.0
 12
-0.5
 22
-0.5
 32
0.0
 13
0.5
 23
-0.5
 33
0.0
  0
LINE
  5
27
330
24
100
AcDbEntity
  8
0
  6
BYBLOCK
 62
     0
370
    -2
100
AcDbLine
 10
-0.5
 20
0.0
 30
0.0
 11
-1.0
 21
0.0
 31
0.0
  0
ENDBLK
  5
28
330
24
100
AcDbEntity
  8
0
100
AcDbBlockEnd
  0
BLOCK
  5
2A
330
29
100
AcDbEntity
  8
0
100
AcDbBlockBegin
  2
_BOXBLANK
 70
     0
 10
0.0
 20
0.0
 30
0.0
  3
_BOXBLANK
  1

  0
LINE
  5
2B
330
29
100
AcDbEntity
  8
0
  6
BYBLOCK
 62
     0
370
    -2
100
AcDbLine
 10
-0.5
 20
-0.5
 30
0.0
 11
0.5
 21
-0.5
 31
0.0
  0
LINE
  5
2C
330
29
100
AcDbEntity
  8
0
  6
BYBLOCK
 62
     0
370
    -2
100
AcDbLine
 10
0.5
 20
-0.5
 30
0.0
 11
0.5
 21
0.5
 31
0.0
  0
LINE
  5
2D
330
29
100
AcDbEntity
  8
0
  6
BYBLOCK
 62
     0
370
    -2
100
AcDbLine
 10
0.5
 20
0.5
 30
0.0
 11
-0.5
 21
0.5
 31
0.0
  0
LINE
  5
2E
330
29
100
AcDbEntity
  8
0
  6
BYBLOCK
 62
     0
370
    -2
100
AcDbLine
 10
-0.5
 20
0.5
 30
0.0
 11
-0.5
 21
-0.5
 31
0.0
  0
LINE
  5
2F
330
29
100
AcDbEntity
  8
0
  6
BYBLOCK
 62
     0
370
    -2
100
AcDbLine
 10
-0.5
 20
0.0
 30
0.0
 11
-1.0
 21
0.0
 31
0.0
  0
ENDBLK
  5
30
330
29
100
AcDbEntity
  8
0
100
AcDbBlockEnd
  0
BLOCK
  5
32
330
31
100
AcDbEntity
  8
0
100
AcDbBlockBegin
  2
_OBLIQUE
 70
     0
 10
0.0
 20
0.0
 30
0.0
  3
_OBLIQUE
  1

  0
LINE
  5
33
330
31
100
AcDbEntity
  8
0
  6
BYBLOCK
 62
     0
370
    -2
100
AcDbLine
 10
-0.5
 20
-0.5
 30
0.0
 11
0.5
 21
0.5
 31
0.0
  0
ENDBLK
  5
34
330
31
100
AcDbEntity
  8
0
100
AcDbBlockEnd
  0
BLOCK
  5
36
330
35
100
AcDbEntity
  8
0
100
AcDbBlockBegin
  2
_OPEN90
 70
     0
 10
0.0
 20
0.0
 30
0.0
  3
_OPEN90
  1

  0
LINE
  5
37
330
35
100
AcDbEntity
  8
0
  6
BYBLOCK
 62
     0
370
    -2
100
AcDbLine
 10
-0.5
 20
0.5
 30
0.0
 11
0.0
 21
0.0
 31
0.0
  0
LINE
  5
38
330
35
100
AcDbEntity
  8
0
  6
BYBLOCK
 62
     0
370
    -2
100
AcDbLine
 10
0.0
 20
0.0
 30
0.0
 11
-0.5
 21
-0.5
 31
0.0
  0
LINE
  5
39
330
35
100
AcDbEntity
  8
0
  6
BYBLOCK
 62
     0
370
    -2
100
AcDbLine
 10
0.0
 20
0.0
 30
0.0
 11
-1.0
 21
0.0
 31
0.0
  0
ENDBLK
  5
3A
330
35
100
AcDbEntity
  8
0
100
AcDbBlockEnd
  0
BLOCK
  5
3C
330
3B
100
AcDbEntity
  8
0
100
AcDbBlockBegin
  2
_CLOSEDBLANK
 70
     0
 10
0.0
 20
0.0
 30
0.0
  3
_CLOSEDBLANK
  1

  0
LINE
  5
3D
330
3B
100
AcDbEntity
  8
0
  6
BYBLOCK
 62
     0
370
    -2
100
AcDbLine
 10
-1.0
 20
0.1666666666666666
 30
0.0
 11
0.0
 21
0.0
 31
0.0
  0
LINE
  5
3E
330
3B
100
AcDbEntity
  8
0
  6
BYBLOCK
 62
     0
370
    -2
100
AcDbLine
 10
0.0
 20
0.0
 30
0.0
 11
-1.0
 21
-0.1666666666666666
 31
0.0
  0
LINE
  5
3F
330
3B
100
AcDbEntity
  8
0
  6
BYBLOCK
 62
     0
370
    -2
100
AcDbLine
 10
-1.0
 20
0.1666666666666666
 30
0.0
 11
-1.0
 21
-0.1666666666666666
 31
0.0
  0
ENDBLK
  5
40
330
3B
100
AcDbEntity
  8
0
100
AcDbBlockEnd
  0
BLOCK
  5
42
330
41
100
AcDbEntity
  8
0
100
AcDbBlockBegin
  2
_DOTBLANK
 70
     0
 10
0.0
 20
0.0
 30
0.0
  3
_DOTBLANK
  1

  0
CIRCLE
  5
43
330
41
100
AcDbEntity
  8
0
  6
BYBLOCK
 62
     0
370
    -2
100
AcDbCircle
 10
0.0
 20
0.0
 30
0.0
 40
0.5
  0
LINE
  5
44
330
41
100
AcDbEntity
  8
0
  6
BYBLOCK
 62
     0
370
    -2
100
AcDbLine
 10
-0.5
 20
0.0
 30
0.0
 11
-1.0
 21
0.0
 31
0.0
  0
ENDBLK
  5
45
330
41
100
AcDbEntity
  8
0
100
AcDbBlockEnd
  0
ENDSEC
  0
SECTION
  2
ENTITIES
  0
LINE
  5
46
100
AcDbEntity
  8
4
  6
CENTER
 62
1
100
AcDbLine
 10
256.5900169999999
 20
60.10842100000002
 30
0.000000000000000
 11
241.4900169999999
 21
60.10842100000002
 31
0.000000000000000
  0
LINE
  5
47
100
AcDbEntity
  8
4
  6
CENTER
 62
1
100
AcDbLine
 10
256.4234169999999
 20
283.3326470000000
 30
0.000000000000000
 11
241.4900169999999
 21
283.3326470000000
 31
0.000000000000000
  0
ARC
  5
48
100
AcDbEntity
  8
5
  6
PHANTOM
 62
6
100
AcDbCircle
 10
52.48221700000001
 20
176.3326470000000
 30
0.000000000000000
 40
1.000000000000000
100
AcDbArc
 50
270.0000000000000
 51
360.0000000000000
  0
ARC
  5
49
100
AcDbEntity
  8
5
  6
PHANTOM
 62
6
100
AcDbCircle
 10
32.48221700000000
 20
176.3326470000000
 30
0.000000000000000
 40
1.000000000000000
100
AcDbArc
 50
180.0000000000000
 51
270.0000000000000
  0
LINE
  5
4A
100
AcDbEntity
  8
4
  6
CENTER
 62
1
100
AcDbLine
 10
42.48221700000000
 20
306.3326470000000
 30
0.000000000000000
 11
42.48221700000000
 21
172.3326470000000
 31
0.000000000000000
  0
MTEXT
  5
4B
100
AcDbEntity
  8
7
  6
CONTINUOUS
 62
3
100
AcDbMText
 10
10.00000000000000
 20
18.00000000000000
 30
0.000000000000000
 40
3.000000000000000
 41
0.000000000000000
 44
0.6739999771118164
 71
     7
 72
     1
  1
{\H0.94x;{TYPE No.THA-302J-3K(No.200)}}
 11
1.000000000000000
 21
0.000000000000000
 31
0.000000000000000
  7
STANDARD
  0
LINE
  5
4C
100
AcDbEntity
  8
5
  6
PHANTOM
 62
6
100
AcDbLine
 10
32.48221700000000
 20
175.3326470000000
 30
0.000000000000000
 11
52.48221700000001
 21
175.3326470000000
 31
0.000000000000000
  0
LINE
  5
4D
100
AcDbEntity
  8
1
  6
CONTINUOUS
 62
7
100
AcDbLine
 10
188.5472169999999
 20
77.10842099999998
 30
0.000000000000000
 11
192.0472170000000
 21
77.10842099999998
 31
0.000000000000000
  0
LINE
  5
4E
100
AcDbEntity
  8
1
  6
CONTINUOUS
 62
7
100
AcDbLine
 10
188.5472169999999
 20
43.10842100000000
 30
0.000000000000000
 11
192.0472170000000
 21
43.10842100000000
 31
0.000000000000000
  0
LINE
  5
4F
100
AcDbEntity
  8
4
  6
CENTER
 62
1
100
AcDbLine
 10
182.6475169999999
 20
60.10842099999999
 30
0.000000000000000
 11
229.0475170000000
 21
60.10842099999999
 31
0.000000000000000
  0
LINE
  5
50
100
AcDbEntity
  8
1
  6
CONTINUOUS
 62
7
100
AcDbLine
 10
188.5472169999999
 20
48.85842100000000
 30
0.000000000000000
 11
188.5472169999999
 21
43.10842100000000
 31
0.000000000000000
  0
LINE
  5
51
100
AcDbEntity
  8
1
  6
CONTINUOUS
 62
7
100
AcDbLine
 10
186.0472169999999
 20
51.10842099999999
 30
0.000000000000000
 11
188.5472169999999
 21
43.10842100000000
 31
0.000000000000000
  0
LINE
  5
52
100
AcDbEntity
  8
1
  6
CONTINUOUS
 62
7
100
AcDbLine
 10
191.0472170000000
 20
77.10842099999998
 30
0.000000000000000
 11
191.0472170000000
 21
43.10842100000000
 31
0.000000000000000
  0
LINE
  5
53
100
AcDbEntity
  8
1
  6
CONTINUOUS
 62
7
100
AcDbLine
 10
189.1472169999999
 20
71.35842099999995
 30
0.000000000000000
 11
189.1472169999999
 21
48.85842100000000
 31
0.000000000000000
  0
LINE
  5
54
100
AcDbEntity
  8
1
  6
CONTINUOUS
 62
7
100
AcDbLine
 10
188.2472169999998
 20
71.10842099999998
 30
0.000000000000000
 11
188.2472169999998
 21
49.10842099999999
 31
0.000000000000000
  0
LINE
  5
55
100
AcDbEntity
  8
1
  6
CONTINUOUS
 62
7
100
AcDbLine
 10
186.7042679999999
 20
71.21098400000000
 30
0.000000000000000
 11
186.7042679999999
 21
49.00585800000000
 31
0.000000000000000
  0
ARC
  5
56
100
AcDbEntity
  8
1
  6
CONTINUOUS
 62
7
100
AcDbCircle
 10
285.6475169999999
 20
60.10842099999999
 30
0.000000000000000
 40
100.0000000000000
100
AcDbArc
 50
175.4520760000000
 51
184.5479239999999
  0
LINE
  5
57
100
AcDbEntity
  8
1
  6
CONTINUOUS
 62
7
100
AcDbLine
 10
186.0472169999999
 20
69.10842099999999
 30
0.000000000000000
 11
186.0472169999999
 21
51.10842100000000
 31
0.000000000000000
  0
LINE
  5
58
100
AcDbEntity
  8
1
  6
CONTINUOUS
 62
7
100
AcDbLine
 10
186.7503420000000
 20
48.85842100000000
 30
0.000000000000000
 11
189.1472169999999
 21
48.85842100000000
 31
0.000000000000000
  0
LINE
  5
59
100
AcDbEntity
  8
1
  6
CONTINUOUS
 62
7
100
AcDbLine
 10
186.7042679999999
 20
49.10842099999999
 30
0.000000000000000
 11
189.1472169999999
 21
49.10842099999999
 31
0.000000000000000
  0
ARC
  5
5A
100
AcDbEntity
  8
1
  6
CONTINUOUS
 62
7
100
AcDbCircle
 10
186.9592319999999
 20
52.25842100000001
 30
0.000000000000000
 40
1.000000000000000
100
AcDbArc
 50
184.5479239999999
 51
204.2146199999999
  0
LINE
  5
5B
100
AcDbEntity
  8
1
  6
CONTINUOUS
 62
7
100
AcDbLine
 10
186.7503420000000
 20
71.35842099999995
 30
0.000000000000000
 11
189.1472169999999
 21
71.35842099999995
 31
0.000000000000000
  0
LINE
  5
5C
100
AcDbEntity
  8
1
  6
CONTINUOUS
 62
7
100
AcDbLine
 10
186.7042679999999
 20
71.10842099999998
 30
0.000000000000000
 11
189.1472169999999
 21
71.10842099999998
 31
0.000000000000000
  0
ARC
  5
5D
100
AcDbEntity
  8
1
  6
CONTINUOUS
 62
7
100
AcDbCircle
 10
186.9592319999999
 20
67.95842100000000
 30
0.000000000000000
 40
1.000000000000000
100
AcDbArc
 50
155.7853800000000
 51
175.4520760000000
  0
LINE
  5
5E
100
AcDbEntity
  8
1
  6
CONTINUOUS
 62
7
100
AcDbLine
 10
188.5472169999999
 20
77.10842099999998
 30
0.000000000000000
 11
186.0472169999999
 21
69.10842099999999
 31
0.000000000000000
  0
LINE
  5
5F
100
AcDbEntity
  8
1
  6
CONTINUOUS
 62
7
100
AcDbLine
 10
188.5472169999999
 20
77.10842099999998
 30
0.000000000000000
 11
188.5472169999999
 21
71.35842099999995
 31
0.000000000000000
  0
LINE
  5
60
100
AcDbEntity
  8
1
  6
CONTINUOUS
 62
7
100
AcDbLine
 10
192.0472170000000
 20
77.10842099999998
 30
0.000000000000000
 11
192.0472170000000
 21
43.10842100000000
 31
0.000000000000000
  0
LINE
  5
61
100
AcDbEntity
  8
2
  6
CONTINUOUS
 62
4
100
AcDbLine
 10
226.0475169999999
 20
67.17942100000000
 30
0.000000000000000
 11
222.0475170000000
 21
62.46542100000001
 31
0.000000000000000
  0
LINE
  5
62
100
AcDbEntity
  8
1
  6
CONTINUOUS
 62
7
100
AcDbLine
 10
222.0475169999999
 20
67.17942099999999
 30
0.000000000000000
 11
226.0475169999998
 21
67.17942099999999
 31
0.000000000000000
  0
LINE
  5
63
100
AcDbEntity
  8
2
  6
CONTINUOUS
 62
4
100
AcDbLine
 10
222.0475170000000
 20
57.75142099999998
 30
0.000000000000000
 11
226.0475169999998
 21
53.03742099999999
 31
0.000000000000000
  0
LINE
  5
64
100
AcDbEntity
  8
2
  6
CONTINUOUS
 62
4
100
AcDbLine
 10
226.0475169999998
 20
60.10842099999999
 30
0.000000000000000
 11
222.0475169999999
 21
55.39442099999997
 31
0.000000000000000
  0
LINE
  5
65
100
AcDbEntity
  8
1
  6
CONTINUOUS
 62
7
100
AcDbLine
 10
222.0475169999999
 20
53.03742100000000
 30
0.000000000000000
 11
226.0475169999998
 21
53.03742100000000
 31
0.000000000000000
  0
LINE
  5
66
100
AcDbEntity
  8
1
  6
CONTINUOUS
 62
7
100
AcDbLine
 10
222.0475169999999
 20
60.10842099999999
 30
0.000000000000000
 11
226.0475169999998
 21
60.10842099999999
 31
0.000000000000000
  0
LINE
  5
67
100
AcDbEntity
  8
2
  6
CONTINUOUS
 62
4
100
AcDbLine
 10
222.0475170000000
 20
64.82242099999998
 30
0.000000000000000
 11
226.0475169999998
 21
60.10842099999999
 31
0.000000000000000
  0
LINE
  5
68
100
AcDbEntity
  8
1
  6
CONTINUOUS
 62
7
100
AcDbLine
 10
218.5475170000000
 20
72.10842099999998
 30
0.000000000000000
 11
218.5475170000000
 21
48.10842100000000
 31
0.000000000000000
  0
LINE
  5
69
100
AcDbEntity
  8
1
  6
CONTINUOUS
 62
7
100
AcDbLine
 10
219.8475170000000
 20
49.05842100000000
 30
0.000000000000000
 11
219.8475170000000
 21
71.15842099999998
 31
0.000000000000000
  0
LINE
  5
6A
100
AcDbEntity
  8
1
  6
CONTINUOUS
 62
7
100
AcDbLine
 10
220.0475170000000
 20
47.10842099999999
 30
0.000000000000000
 11
220.0475170000000
 21
71.36672100000000
 31
0.000000000000000
  0
LINE
  5
6B
100
AcDbEntity
  8
1
  6
CONTINUOUS
 62
7
100
AcDbLine
 10
222.0475169999999
 20
47.10842099999999
 30
0.000000000000000
 11
222.0475169999999
 21
71.36672100000000
 31
0.000000000000000
  0
LINE
  5
6C
100
AcDbEntity
  8
1
  6
CONTINUOUS
 62
7
100
AcDbLine
 10
192.0472170000000
 20
47.10842099999999
 30
0.000000000000000
 11
217.5475169999999
 21
47.10842099999999
 31
0.000000000000000
  0
LINE
  5
6D
100
AcDbEntity
  8
1
  6
CONTINUOUS
 62
7
100
AcDbLine
 10
194.0472169999999
 20
47.10842099999999
 30
0.000000000000000
 11
194.0472169999999
 21
46.06259099999999
 31
0.000000000000000
  0
ARC
  5
6E
100
AcDbEntity
  8
1
  6
CONTINUOUS
 62
7
100
AcDbCircle
 10
204.0472170000000
 20
47.33382100000000
 30
0.000000000000000
 40
1.000000000000000
100
AcDbArc
 50
271.4320000000000
 51
346.9735989999999
  0
LINE
  5
6F
100
AcDbEntity
  8
1
  6
CONTINUOUS
 62
7
100
AcDbLine
 10
192.0472170000000
 20
46.00842100000000
 30
0.000000000000000
 11
204.0722170000000
 21
46.33412100000000
 31
0.000000000000000
  0
ARC
  5
70
100
AcDbEntity
  8
1
  6
CONTINUOUS
 62
7
100
AcDbCircle
 10
217.5475169999999
 20
48.10842100000000
 30
0.000000000000000
 40
1.000000000000000
100
AcDbArc
 50
270.0000000000000
 51
360.0000000000000
  0
LINE
  5
71
100
AcDbEntity
  8
1
  6
CONTINUOUS
 62
7
100
AcDbLine
 10
220.0475170000000
 20
47.10842099999999
 30
0.000000000000000
 11
222.0475169999999
 21
47.10842099999999
 31
0.000000000000000
  0
ARC
  5
72
100
AcDbEntity
  8
1
  6
CONTINUOUS
 62
7
100
AcDbCircle
 10
218.8475169999999
 20
49.05842100000000
 30
0.000000000000000
 40
1.000000000000000
100
AcDbArc
 50
270.0000000000000
 51
360.0000000000000
  0
LINE
  5
73
100
AcDbEntity
  8
1
  6
CONTINUOUS
 62
7
100
AcDbLine
 10
219.8475170000000
 20
52.90842099999998
 30
0.000000000000000
 11
220.0475170000000
 21
52.90842099999998
 31
0.000000000000000
  0
LINE
  5
74
100
AcDbEntity
  8
1
  6
CONTINUOUS
 62
7
100
AcDbLine
 10
218.5475170000000
 20
48.05842100000000
 30
0.000000000000000
 11
218.8475169999999
 21
48.05842100000000
 31
0.000000000000000
  0
LINE
  5
75
100
AcDbEntity
  8
1
  6
CONTINUOUS
 62
7
100
AcDbLine
 10
192.0472170000000
 20
73.10842099999998
 30
0.000000000000000
 11
217.5475169999999
 21
73.10842099999998
 31
0.000000000000000
  0
LINE
  5
76
100
AcDbEntity
  8
1
  6
CONTINUOUS
 62
7
100
AcDbLine
 10
194.0472169999999
 20
74.15420100000000
 30
0.000000000000000
 11
194.0472169999999
 21
73.10842099999998
 31
0.000000000000000
  0
ARC
  5
77
100
AcDbEntity
  8
1
  6
CONTINUOUS
 62
7
100
AcDbCircle
 10
204.0472170000000
 20
72.88342100000000
 30
0.000000000000000
 40
1.000000000000000
100
AcDbArc
 50
13.00287799999999
 51
88.56789999999998
  0
LINE
  5
78
100
AcDbEntity
  8
1
  6
CONTINUOUS
 62
7
100
AcDbLine
 10
192.0472170000000
 20
74.20842100000000
 30
0.000000000000000
 11
204.0722170000000
 21
73.88242099999998
 31
0.000000000000000
  0
ARC
  5
79
100
AcDbEntity
  8
1
  6
CONTINUOUS
 62
7
100
AcDbCircle
 10
217.5475169999999
 20
72.10842099999998
 30
0.000000000000000
 40
1.000000000000000
100
AcDbArc
 50
0.000000000000000
 51
90.00000000000000
  0
LINE
  5
7A
100
AcDbEntity
  8
1
  6
CONTINUOUS
 62
7
100
AcDbLine
 10
219.8475170000000
 20
67.30842100000000
 30
0.000000000000000
 11
220.0475170000000
 21
67.30842100000000
 31
0.000000000000000
  0
ARC
  5
7B
100
AcDbEntity
  8
1
  6
CONTINUOUS
 62
7
100
AcDbCircle
 10
218.8475169999999
 20
71.15842099999998
 30
0.000000000000000
 40
1.000000000000000
100
AcDbArc
 50
0.000000000000000
 51
90.00000000000000
  0
LINE
  5
7C
100
AcDbEntity
  8
1
  6
CONTINUOUS
 62
7
100
AcDbLine
 10
218.5475170000000
 20
72.15842099999998
 30
0.000000000000000
 11
218.8475169999999
 21
72.15842099999998
 31
0.000000000000000
  0
LINE
  5
7D
100
AcDbEntity
  8
1
  6
CONTINUOUS
 62
7
100
AcDbLine
 10
220.0475170000000
 20
71.36672100000000
 30
0.000000000000000
 11
222.0475169999999
 21
71.36672100000000
 31
0.000000000000000
  0
LINE
  5
7E
100
AcDbEntity
  8
1
  6
CONTINUOUS
 62
7
100
AcDbLine
 10
247.4900170000000
 20
71.10842099999998
 30
0.000000000000000
 11
247.4900170000000
 21
49.10842099999999
 31
0.000000000000000
  0
LINE
  5
7F
100
AcDbEntity
  8
1
  6
CONTINUOUS
 62
7
100
AcDbLine
 10
245.4900170000000
 20
71.10842099999998
 30
0.000000000000000
 11
245.4900170000000
 21
49.10842099999999
 31
0.000000000000000
  0
LINE
  5
80
100
AcDbEntity
  8
1
  6
CONTINUOUS
 62
7
100
AcDbLine
 10
249.0900169999999
 20
52.10842100000000
 30
0.000000000000000
 11
249.0900169999999
 21
68.10842099999999
 31
0.000000000000000
  0
LINE
  5
81
100
AcDbEntity
  8
1
  6
CONTINUOUS
 62
7
100
AcDbLine
 10
250.5900169999999
 20
54.00842100000000
 30
0.000000000000000
 11
250.5900169999999
 21
66.20842100000000
 31
0.000000000000000
  0
LINE
  5
82
100
AcDbEntity
  8
1
  6
CONTINUOUS
 62
7
100
AcDbLine
 10
226.0475169999998
 20
67.17942099999999
 30
0.000000000000000
 11
226.0475169999998
 21
53.03742100000000
 31
0.000000000000000
  0
LINE
  5
83
100
AcDbEntity
  8
1
  6
CONTINUOUS
 62
7
100
AcDbLine
 10
254.5900169999999
 20
65.10842099999999
 30
0.000000000000000
 11
250.5900169999999
 21
65.10842099999999
 31
0.000000000000000
  0
LINE
  5
84
100
AcDbEntity
  8
1
  6
CONTINUOUS
 62
7
100
AcDbLine
 10
247.4900170000000
 20
49.10842099999999
 30
0.000000000000000
 11
243.4900170000000
 21
49.10842099999999
 31
0.000000000000000
  0
ARC
  5
85
100
AcDbEntity
  8
1
  6
CONTINUOUS
 62
7
100
AcDbCircle
 10
247.3647249999999
 20
57.60842099999999
 30
0.000000000000000
 40
7.225291999999996
100
AcDbArc
 50
339.7567340000000
 51
380.2432660000000
  0
ARC
  5
86
100
AcDbEntity
  8
1
  6
CONTINUOUS
 62
7
100
AcDbCircle
 10
257.8153090000000
 20
57.60842099999999
 30
0.000000000000000
 40
7.225291999999996
100
AcDbArc
 50
159.7567339999999
 51
200.2432660000000
  0
LINE
  5
87
100
AcDbEntity
  8
1
  6
CONTINUOUS
 62
7
100
AcDbLine
 10
254.5900169999999
 20
55.10842099999999
 30
0.000000000000000
 11
250.5900169999999
 21
55.10842099999999
 31
0.000000000000000
  0
LINE
  5
88
100
AcDbEntity
  8
1
  6
CONTINUOUS
 62
7
100
AcDbLine
 10
249.0900169999999
 20
52.10842100000000
 30
0.000000000000000
 11
247.4900170000000
 21
52.10842100000000
 31
0.000000000000000
  0
LINE
  5
89
100
AcDbEntity
  8
1
  6
CONTINUOUS
 62
7
100
AcDbLine
 10
250.5900169999999
 20
54.00842100000000
 30
0.000000000000000
 11
249.0900169999999
 21
54.00842100000000
 31
0.000000000000000
  0
LINE
  5
8A
100
AcDbEntity
  8
1
  6
CONTINUOUS
 62
7
100
AcDbLine
 10
249.0900169999999
 20
60.10842100000001
 30
0.000000000000000
 11
250.5900169999999
 21
61.60842100000001
 31
0.000000000000000
  0
LINE
  5
8B
100
AcDbEntity
  8
1
  6
CONTINUOUS
 62
7
100
AcDbLine
 10
249.0900169999999
 20
58.60842100000001
 30
0.000000000000000
 11
250.5900169999999
 21
60.10842100000001
 31
0.000000000000000
  0
LINE
  5
8C
100
AcDbEntity
  8
1
  6
CONTINUOUS
 62
7
100
AcDbLine
 10
251.0363089999999
 20
60.10842099999999
 30
0.000000000000000
 11
254.1437249999999
 21
60.10842099999999
 31
0.000000000000000
  0
LINE
  5
8D
100
AcDbEntity
  8
1
  6
CONTINUOUS
 62
7
100
AcDbLine
 10
254.5900169999999
 20
65.10842099999999
 30
0.000000000000000
 11
254.5900169999999
 21
55.10842099999999
 31
0.000000000000000
  0
ARC
  5
8E
100
AcDbEntity
  8
1
  6
CONTINUOUS
 62
7
100
AcDbCircle
 10
247.3647249999999
 20
62.60842099999999
 30
0.000000000000000
 40
7.225291999999996
100
AcDbArc
 50
339.7567340000000
 51
380.2432660000000
  0
ARC
  5
8F
100
AcDbEntity
  8
1
  6
CONTINUOUS
 62
7
100
AcDbCircle
 10
257.8153090000000
 20
62.60842099999999
 30
0.000000000000000
 40
7.225291999999996
100
AcDbArc
 50
159.7567339999999
 51
200.2432660000000
  0
LINE
  5
90
100
AcDbEntity
  8
1
  6
CONTINUOUS
 62
7
100
AcDbLine
 10
247.4900170000000
 20
71.10842099999998
 30
0.000000000000000
 11
243.4900170000000
 21
71.10842099999998
 31
0.000000000000000
  0
LINE
  5
91
100
AcDbEntity
  8
1
  6
CONTINUOUS
 62
7
100
AcDbLine
 10
249.0900169999999
 20
68.10842099999999
 30
0.000000000000000
 11
247.4900170000000
 21
68.10842099999999
 31
0.000000000000000
  0
LINE
  5
92
100
AcDbEntity
  8
1
  6
CONTINUOUS
 62
7
100
AcDbLine
 10
250.5900169999999
 20
66.20842100000000
 30
0.000000000000000
 11
249.0900169999999
 21
66.20842100000000
 31
0.000000000000000
  0
LINE
  5
93
100
AcDbEntity
  8
1
  6
CONTINUOUS
 62
7
100
AcDbLine
 10
60.23221700000000
 20
266.3326070000000
 30
0.000000000000000
 11
60.23221700000000
 21
238.3326470000000
 31
0.000000000000000
  0
LINE
  5
94
100
AcDbEntity
  8
1
  6
CONTINUOUS
 62
7
100
AcDbLine
 10
24.73221699999999
 20
266.3326070000000
 30
0.000000000000000
 11
24.73221699999999
 21
238.3326470000000
 31
0.000000000000000
  0
LINE
  5
95
100
AcDbEntity
  8
1
  6
CONTINUOUS
 62
7
100
AcDbLine
 10
51.68221700000000
 20
298.8326470000000
 30
0.000000000000000
 11
51.68221700000000
 21
214.8326470000000
 31
0.000000000000000
  0
LINE
  5
96
100
AcDbEntity
  8
1
  6
CONTINUOUS
 62
7
100
AcDbLine
 10
33.28221699999998
 20
298.8326470000000
 30
0.000000000000000
 11
33.28221699999998
 21
214.8326470000000
 31
0.000000000000000
  0
LINE
  5
97
100
AcDbEntity
  8
1
  6
CONTINUOUS
 62
7
100
AcDbLine
 10
33.48221699999999
 20
286.4392470000000
 30
0.000000000000000
 11
33.48221699999999
 21
216.8326470000000
 31
0.000000000000000
  0
LINE
  5
98
100
AcDbEntity
  8
1
  6
CONTINUOUS
 62
7
100
AcDbLine
 10
51.48221700000000
 20
286.4392470000000
 30
0.000000000000000
 11
51.48221700000000
 21
216.8326470000000
 31
0.000000000000000
  0
LINE
  5
99
100
AcDbEntity
  8
1
  6
CONTINUOUS
 62
7
100
AcDbLine
 10
25.48221700000000
 20
299.3326469999999
 30
0.000000000000000
 11
25.48221700000000
 21
183.3326470000000
 31
0.000000000000000
  0
LINE
  5
9A
100
AcDbEntity
  8
1
  6
CONTINUOUS
 62
7
100
AcDbLine
 10
59.48221700000001
 20
299.3326469999999
 30
0.000000000000000
 11
59.48221700000001
 21
183.3326470000000
 31
0.000000000000000
  0
ARC
  5
9B
100
AcDbEntity
  8
1
  6
CONTINUOUS
 62
7
100
AcDbCircle
 10
32.48221700000000
 20
180.3326470000000
 30
0.000000000000000
 40
1.000000000000000
100
AcDbArc
 50
180.0000000000000
 51
270.0000000000000
  0
ARC
  5
9C
100
AcDbEntity
  8
1
  6
CONTINUOUS
 62
7
100
AcDbCircle
 10
32.23221699999999
 20
213.3326470000000
 30
0.000000000000000
 40
1.000000000000000
100
AcDbArc
 50
90.00000000000000
 51
180.0000000000000
  0
ARC
  5
9D
100
AcDbEntity
  8
1
  6
CONTINUOUS
 62
7
100
AcDbCircle
 10
32.48221700000000
 20
213.3326470000000
 30
0.000000000000000
 40
1.000000000000000
100
AcDbArc
 50
90.00000000000000
 51
180.0000000000000
  0
ARC
  5
9E
100
AcDbEntity
  8
1
  6
CONTINUOUS
 62
7
100
AcDbCircle
 10
42.48221700000000
 20
225.9127470000000
 30
0.000000000000000
 40
30.00000000000000
100
AcDbArc
 50
248.4900000000000
 51
291.5099999999998
  0
ARC
  5
9F
100
AcDbEntity
  8
1
  6
CONTINUOUS
 62
7
100
AcDbCircle
 10
42.48221700000000
 20
226.5826469999999
 30
0.000000000000000
 40
30.00000000000000
100
AcDbArc
 50
248.4900000000000
 51
291.5099999999998
  0
LINE
  5
A0
100
AcDbEntity
  8
1
  6
CONTINUOUS
 62
7
100
AcDbLine
 10
29.48221699999999
 20
179.3326470000000
 30
0.000000000000000
 11
55.48221700000000
 21
179.3326470000000
 31
0.000000000000000
  0
LINE
  5
A1
100
AcDbEntity
  8
1
  6
CONTINUOUS
 62
7
100
AcDbLine
 10
31.48221700000000
 20
213.3326470000000
 30
0.000000000000000
 11
31.48221700000000
 21
180.3326470000000
 31
0.000000000000000
  0
LINE
  5
A2
100
AcDbEntity
  8
1
  6
CONTINUOUS
 62
7
100
AcDbLine
 10
31.23221700000000
 20
213.3326470000000
 30
0.000000000000000
 11
31.23221700000000
 21
179.3326470000000
 31
0.000000000000000
  0
ARC
  5
A3
100
AcDbEntity
  8
1
  6
CONTINUOUS
 62
7
100
AcDbCircle
 10
29.48221699999999
 20
183.3326470000000
 30
0.000000000000000
 40
4.000000000000000
100
AcDbArc
 50
180.0000000000000
 51
270.0000000000000
  0
LINE
  5
A4
100
AcDbEntity
  8
5
  6
PHANTOM
 62
6
100
AcDbLine
 10
31.48221700000000
 20
180.3326470000000
 30
0.000000000000000
 11
31.48221700000000
 21
176.3326470000000
 31
0.000000000000000
  0
LINE
  5
A5
100
AcDbEntity
  8
1
  6
CONTINUOUS
 62
7
100
AcDbLine
 10
31.23221699999999
 20
183.8326470000000
 30
0.000000000000000
 11
27.53521699999999
 21
180.9397470000000
 31
0.000000000000000
  0
CIRCLE
  5
A6
100
AcDbEntity
  8
1
  6
CONTINUOUS
 62
7
100
AcDbCircle
 10
42.48221700000000
 20
204.3326470000000
 30
0.000000000000000
 40
7.650000000000000
  0
LINE
  5
A7
100
AcDbEntity
  8
1
  6
CONTINUOUS
 62
7
100
AcDbLine
 10
53.48221699999999
 20
213.3326470000000
 30
0.000000000000000
 11
53.48221699999999
 21
180.3326470000000
 31
0.000000000000000
  0
LINE
  5
A8
100
AcDbEntity
  8
1
  6
CONTINUOUS
 62
7
100
AcDbLine
 10
53.73221700000001
 20
213.3326470000000
 30
0.000000000000000
 11
53.73221700000001
 21
179.3326470000000
 31
0.000000000000000
  0
LINE
  5
A9
100
AcDbEntity
  8
1
  6
CONTINUOUS
 62
7
100
AcDbLine
 10
31.92321699999999
 20
183.8326470000000
 30
0.000000000000000
 11
53.20521700000000
 21
183.8326470000000
 31
0.000000000000000
  0
LINE
  5
AA
100
AcDbEntity
  8
1
  6
CONTINUOUS
 62
7
100
AcDbLine
 10
47.48221699999998
 20
191.8326470000000
 30
0.000000000000000
 11
42.48221699999999
 21
188.8326470000000
 31
0.000000000000000
  0
LINE
  5
AB
100
AcDbEntity
  8
1
  6
CONTINUOUS
 62
7
100
AcDbLine
 10
42.48221700000001
 20
188.8326470000000
 30
0.000000000000000
 11
37.48221700000000
 21
191.8325470000000
 31
0.000000000000000
  0
LINE
  5
AC
100
AcDbEntity
  8
1
  6
CONTINUOUS
 62
7
100
AcDbLine
 10
37.48221700000000
 20
191.8326470000000
 30
0.000000000000000
 11
47.48221700000000
 21
191.8326470000000
 31
0.000000000000000
  0
ARC
  5
AD
100
AcDbEntity
  8
1
  6
CONTINUOUS
 62
7
100
AcDbCircle
 10
52.48221700000001
 20
180.3326470000000
 30
0.000000000000000
 40
1.000000000000000
100
AcDbArc
 50
270.0000000000000
 51
360.0000000000000
  0
ARC
  5
AE
100
AcDbEntity
  8
1
  6
CONTINUOUS
 62
7
100
AcDbCircle
 10
55.48221700000000
 20
183.3326470000000
 30
0.000000000000000
 40
4.000000000000000
100
AcDbArc
 50
270.0000000000000
 51
360.0000000000000
  0
LINE
  5
AF
100
AcDbEntity
  8
5
  6
PHANTOM
 62
6
100
AcDbLine
 10
53.48221699999999
 20
180.3326470000000
 30
0.000000000000000
 11
53.48221699999999
 21
176.3326470000000
 31
0.000000000000000
  0
LINE
  5
B0
100
AcDbEntity
  8
1
  6
CONTINUOUS
 62
7
100
AcDbLine
 10
53.73221700000001
 20
183.8326470000000
 30
0.000000000000000
 11
57.51321699999998
 21
180.8730470000000
 31
0.000000000000000
  0
LINE
  5
B1
100
AcDbEntity
  8
1
  6
CONTINUOUS
 62
7
100
AcDbLine
 10
32.23221699999999
 20
214.3326470000000
 30
0.000000000000000
 11
52.73221700000000
 21
214.3326470000000
 31
0.000000000000000
  0
LINE
  5
B2
100
AcDbEntity
  8
4
  6
CENTER
 62
1
100
AcDbLine
 10
32.78321700000000
 20
204.3326470000000
 30
0.000000000000000
 11
52.55421700000000
 21
204.3326470000000
 31
0.000000000000000
  0
ARC
  5
B3
100
AcDbEntity
  8
1
  6
CONTINUOUS
 62
7
100
AcDbCircle
 10
35.98221699999999
 20
216.8326470000000
 30
0.000000000000000
 40
2.500000000000000
100
AcDbArc
 50
180.0000000000000
 51
270.0000000000000
  0
ARC
  5
B4
100
AcDbEntity
  8
1
  6
CONTINUOUS
 62
7
100
AcDbCircle
 10
32.78221699999999
 20
214.8326470000000
 30
0.000000000000000
 40
0.5000000000000000
100
AcDbArc
 50
270.0000000000000
 51
360.0000000000000
  0
LINE
  5
B5
100
AcDbEntity
  8
1
  6
CONTINUOUS
 62
7
100
AcDbLine
 10
41.43221700000000
 20
207.8326469999999
 30
0.000000000000000
 11
43.53221699999997
 21
207.8326469999999
 31
0.000000000000000
  0
LINE
  5
B6
100
AcDbEntity
  8
1
  6
CONTINUOUS
 62
7
100
AcDbLine
 10
41.43221700000000
 20
207.8326469999999
 30
0.000000000000000
 11
41.43221700000000
 21
200.8326470000000
 31
0.000000000000000
  0
LINE
  5
B7
100
AcDbEntity
  8
1
  6
CONTINUOUS
 62
7
100
AcDbLine
 10
41.43221700000000
 20
200.8326470000000
 30
0.000000000000000
 11
43.53221699999997
 21
200.8326470000000
 31
0.000000000000000
  0
LINE
  5
B8
100
AcDbEntity
  8
1
  6
CONTINUOUS
 62
7
100
AcDbLine
 10
43.53221699999997
 20
207.8326469999999
 30
0.000000000000000
 11
43.53221699999997
 21
200.8326470000000
 31
0.000000000000000
  0
ARC
  5
B9
100
AcDbEntity
  8
1
  6
CONTINUOUS
 62
7
100
AcDbCircle
 10
48.98221700000000
 20
216.8326470000000
 30
0.000000000000000
 40
2.500000000000000
100
AcDbArc
 50
270.0000000000000
 51
360.0000000000000
  0
ARC
  5
BA
100
AcDbEntity
  8
1
  6
CONTINUOUS
 62
7
100
AcDbCircle
 10
52.18221700000000
 20
214.8326470000000
 30
0.000000000000000
 40
0.5000000000000000
100
AcDbArc
 50
180.0000000000000
 51
270.0000000000000
  0
ARC
  5
BB
100
AcDbEntity
  8
1
  6
CONTINUOUS
 62
7
100
AcDbCircle
 10
52.73221700000000
 20
213.3326470000000
 30
0.000000000000000
 40
1.000000000000000
100
AcDbArc
 50
0.000000000000000
 51
90.00000000000000
  0
ARC
  5
BC
100
AcDbEntity
  8
1
  6
CONTINUOUS
 62
7
100
AcDbCircle
 10
52.48221700000001
 20
213.3326470000000
 30
0.000000000000000
 40
1.000000000000000
100
AcDbArc
 50
0.000000000000000
 51
90.00000000000000
  0
ARC
  5
BD
100
AcDbEntity
  8
1
  6
CONTINUOUS
 62
7
100
AcDbCircle
 10
26.73221700000000
 20
238.3326470000000
 30
0.000000000000000
 40
2.000000000000000
100
AcDbArc
 50
180.0000000000000
 51
231.3178130000000
  0
ARC
  5
BE
100
AcDbEntity
  8
1
  6
CONTINUOUS
 62
7
100
AcDbCircle
 10
58.23221700000001
 20
238.3326470000000
 30
0.000000000000000
 40
2.000000000000000
100
AcDbArc
 50
308.6821870000000
 51
360.0000000000000
  0
LINE
  5
BF
100
AcDbEntity
  8
5
  6
PHANTOM
 62
6
100
AcDbLine
 10
39.37521699999999
 20
292.3326470000000
 30
0.000000000000000
 11
108.9822169999999
 21
292.3326470000000
 31
0.000000000000000
  0
LINE
  5
C0
100
AcDbEntity
  8
5
  6
PHANTOM
 62
6
100
AcDbLine
 10
39.37521699999999
 20
274.3326469999999
 30
0.000000000000000
 11
108.9822169999999
 21
274.3326469999999
 31
0.000000000000000
  0
LINE
  5
C1
100
AcDbEntity
  8
4
  6
CENTER
 62
1
100
AcDbLine
 10
22.48221699999999
 20
283.3326470000000
 30
0.000000000000000
 11
114.4822169999999
 21
283.3326470000000
 31
0.000000000000000
  0
ARC
  5
C2
100
AcDbEntity
  8
1
  6
CONTINUOUS
 62
7
100
AcDbCircle
 10
42.48221700000000
 20
283.3326470000000
 30
0.000000000000000
 40
13.92500000000000
100
AcDbArc
 50
311.3519999999997
 51
588.6480000000000
  0
LINE
  5
C3
100
AcDbEntity
  8
1
  6
CONTINUOUS
 62
7
100
AcDbLine
 10
29.48221699999999
 20
303.3326469999999
 30
0.000000000000000
 11
55.48221700000000
 21
303.3326469999999
 31
0.000000000000000
  0
LINE
  5
C4
100
AcDbEntity
  8
1
  6
CONTINUOUS
 62
7
100
AcDbLine
 10
28.04921699999998
 20
301.8511470000000
 30
0.000000000000000
 11
33.28221699999997
 21
298.8326470000000
 31
0.000000000000000
  0
ARC
  5
C5
100
AcDbEntity
  8
1
  6
CONTINUOUS
 62
7
100
AcDbCircle
 10
26.73221700000000
 20
266.3326070000000
 30
0.000000000000000
 40
2.000000000000000
100
AcDbArc
 50
128.6821870000000
 51
180.0000000000000
  0
ARC
  5
C6
100
AcDbEntity
  8
1
  6
CONTINUOUS
 62
7
100
AcDbCircle
 10
29.48221699999999
 20
299.3326469999999
 30
0.000000000000000
 40
4.000000000000000
100
AcDbArc
 50
90.00000000000000
 51
180.0000000000000
  0
LINE
  5
C7
100
AcDbEntity
  8
5
  6
PHANTOM
 62
6
100
AcDbLine
 10
38.87521700000000
 20
274.8326470000000
 30
0.000000000000000
 11
38.87521700000000
 21
291.8326470000000
 31
0.000000000000000
  0
ARC
  5
C8
100
AcDbEntity
  8
1
  6
CONTINUOUS
 62
7
100
AcDbCircle
 10
42.48221700000000
 20
325.4178469999998
 30
0.000000000000000
 40
41.00000000000000
100
AcDbArc
 50
276.7110000000000
 51
281.6469999999998
  0
LINE
  5
C9
100
AcDbEntity
  8
5
  6
PHANTOM
 62
6
100
AcDbLine
 10
32.02921699999999
 20
274.1325470000000
 30
0.000000000000000
 11
52.93521700000000
 21
274.1325470000000
 31
0.000000000000000
  0
ARC
  5
CA
100
AcDbEntity
  8
5
  6
PHANTOM
 62
6
100
AcDbCircle
 10
39.37521699999999
 20
274.8326470000000
 30
0.000000000000000
 40
0.5000000000000000
100
AcDbArc
 50
180.0000000000000
 51
270.0000000000000
  0
ARC
  5
CB
100
AcDbEntity
  8
1
  6
CONTINUOUS
 62
7
100
AcDbCircle
 10
42.48221700000000
 20
325.4178469999998
 30
0.000000000000000
 40
41.00000000000000
100
AcDbArc
 50
265.2230000000000
 51
275.4280000000000
  0
ARC
  5
CC
100
AcDbEntity
  8
1
  6
CONTINUOUS
 62
7
100
AcDbCircle
 10
42.48221700000000
 20
325.4178469999998
 30
0.000000000000000
 40
41.00000000000000
100
AcDbArc
 50
258.2709999999999
 51
264.3079999999998
  0
ARC
  5
CD
100
AcDbEntity
  8
1
  6
CONTINUOUS
 62
7
100
AcDbCircle
 10
58.23221700000001
 20
266.3326070000000
 30
0.000000000000000
 40
2.000000000000000
100
AcDbArc
 50
0.000000000000000
 51
51.31781300000000
  0
LINE
  5
CE
100
AcDbEntity
  8
1
  6
CONTINUOUS
 62
7
100
AcDbLine
 10
33.98221700000000
 20
286.9392470000000
 30
0.000000000000000
 11
50.98221699999999
 21
286.9392470000000
 31
0.000000000000000
  0
LINE
  5
CF
100
AcDbEntity
  8
1
  6
CONTINUOUS
 62
7
100
AcDbLine
 10
33.28221699999998
 20
298.8326470000000
 30
0.000000000000000
 11
51.68221700000000
 21
298.8326470000000
 31
0.000000000000000
  0
LINE
  5
D0
100
AcDbEntity
  8
5
  6
PHANTOM
 62
6
100
AcDbLine
 10
32.02921699999999
 20
292.5326469999999
 30
0.000000000000000
 11
52.93521700000000
 21
292.5326469999999
 31
0.000000000000000
  0
ARC
  5
D1
100
AcDbEntity
  8
1
  6
CONTINUOUS
 62
7
100
AcDbCircle
 10
33.98221700000000
 20
286.4392470000000
 30
0.000000000000000
 40
0.5000000000000000
100
AcDbArc
 50
90.00000000000000
 51
180.0000000000000
  0
ARC
  5
D2
100
AcDbEntity
  8
5
  6
PHANTOM
 62
6
100
AcDbCircle
 10
39.37521699999999
 20
291.8326470000000
 30
0.000000000000000
 40
0.5000000000000000
100
AcDbArc
 50
90.00000000000000
 51
180.0000000000000
  0
ARC
  5
D3
100
AcDbEntity
  8
1
  6
CONTINUOUS
 62
7
100
AcDbCircle
 10
50.98221699999999
 20
286.4392470000000
 30
0.000000000000000
 40
0.5000000000000000
100
AcDbArc
 50
0.000000000000000
 51
90.00000000000000
  0
ARC
  5
D4
100
AcDbEntity
  8
1
  6
CONTINUOUS
 62
7
100
AcDbCircle
 10
55.48221700000000
 20
299.3326469999999
 30
0.000000000000000
 40
4.000000000000000
100
AcDbArc
 50
0.000000000000000
 51
90.00000000000000
  0
LINE
  5
D5
100
AcDbEntity
  8
1
  6
CONTINUOUS
 62
7
100
AcDbLine
 10
51.68221700000002
 20
298.8326470000001
 30
0.000000000000000
 11
56.94021700000000
 21
301.8665470000001
 31
0.000000000000000
  0
LINE
  5
D6
100
AcDbEntity
  8
5
  6
PHANTOM
 62
6
100
AcDbLine
 10
111.4822169999999
 20
276.8326470000000
 30
0.000000000000000
 11
111.4822169999999
 21
289.8326470000000
 31
0.000000000000000
  0
ARC
  5
D7
100
AcDbEntity
  8
5
  6
PHANTOM
 62
6
100
AcDbCircle
 10
108.9822169999999
 20
276.8326470000000
 30
0.000000000000000
 40
2.500000000000000
100
AcDbArc
 50
270.0000000000000
 51
360.0000000000000
  0
ARC
  5
D8
100
AcDbEntity
  8
5
  6
PHANTOM
 62
6
100
AcDbCircle
 10
108.9822169999999
 20
289.8326470000000
 30
0.000000000000000
 40
2.500000000000000
100
AcDbArc
 50
0.000000000000000
 51
90.00000000000000
  0
LINE
  5
D9
100
AcDbEntity
  8
5
  6
PHANTOM
 62
6
100
AcDbLine
 10
185.4765170000000
 20
272.9326469999999
 30
0.000000000000000
 11
154.4715170000000
 21
241.9279469999998
 31
0.000000000000000
  0
LINE
  5
DA
100
AcDbEntity
  8
5
  6
PHANTOM
 62
6
100
AcDbLine
 10
186.0472170000000
 20
286.7969679999999
 30
0.000000000000000
 11
139.7315169999999
 21
240.4819470000000
 31
0.000000000000000
  0
LINE
  5
DB
100
AcDbEntity
  8
5
  6
PHANTOM
 62
6
100
AcDbLine
 10
185.7125169999999
 20
284.3410470000000
 30
0.000000000000000
 11
178.7675169999999
 21
216.4384470000000
 31
0.000000000000000
  0
LINE
  5
DC
100
AcDbEntity
  8
1
  6
CONTINUOUS
 62
7
100
AcDbLine
 10
186.0472169999999
 20
298.8326470000000
 30
0.000000000000000
 11
186.0472169999999
 21
214.6326469999999
 31
0.000000000000000
  0
LINE
  5
DD
100
AcDbEntity
  8
1
  6
CONTINUOUS
 62
7
100
AcDbLine
 10
192.0472170000000
 20
303.3326469999999
 30
0.000000000000000
 11
192.0472170000000
 21
179.3326470000000
 31
0.000000000000000
  0
LINE
  5
DE
100
AcDbEntity
  8
1
  6
CONTINUOUS
 62
7
100
AcDbLine
 10
202.0472170000000
 20
268.2326470000000
 30
0.000000000000000
 11
202.0472170000000
 21
229.3326470000000
 31
0.000000000000000
  0
LINE
  5
DF
100
AcDbEntity
  8
1
  6
CONTINUOUS
 62
7
100
AcDbLine
 10
191.0472170000000
 20
303.3326469999999
 30
0.000000000000000
 11
191.0472170000000
 21
179.3326470000000
 31
0.000000000000000
  0
LINE
  5
E0
100
AcDbEntity
  8
1
  6
CONTINUOUS
 62
7
100
AcDbLine
 10
188.5472169999999
 20
303.3326469999999
 30
0.000000000000000
 11
188.5472169999999
 21
179.3326470000000
 31
0.000000000000000
  0
LINE
  5
E1
100
AcDbEntity
  8
1
  6
CONTINUOUS
 62
7
100
AcDbLine
 10
185.6475169999999
 20
283.5894469999999
 30
0.000000000000000
 11
185.6475169999999
 21
215.3326470000000
 31
0.000000000000000
  0
LINE
  5
E2
100
AcDbEntity
  8
1
  6
CONTINUOUS
 62
7
100
AcDbLine
 10
188.5472169999999
 20
179.3326470000000
 30
0.000000000000000
 11
192.0472170000000
 21
179.3326470000000
 31
0.000000000000000
  0
LINE
  5
E3
100
AcDbEntity
  8
1
  6
CONTINUOUS
 62
7
100
AcDbLine
 10
186.0472169999999
 20
198.0021660000000
 30
0.000000000000000
 11
186.7042679999999
 21
198.1782220000000
 31
0.000000000000000
  0
LINE
  5
E4
100
AcDbEntity
  8
1
  6
CONTINUOUS
 62
7
100
AcDbLine
 10
186.7042679999999
 20
214.6326469999999
 30
0.000000000000000
 11
186.7042679999999
 21
182.6499540000000
 31
0.000000000000000
  0
LINE
  5
E5
100
AcDbEntity
  8
1
  6
CONTINUOUS
 62
7
100
AcDbLine
 10
186.0472169999999
 20
198.0021660000000
 30
0.000000000000000
 11
186.0472169999999
 21
183.8326470000000
 31
0.000000000000000
  0
LINE
  5
E6
100
AcDbEntity
  8
1
  6
CONTINUOUS
 62
7
100
AcDbLine
 10
186.0472169999999
 20
183.8326470000000
 30
0.000000000000000
 11
188.5472169999999
 21
179.3326470000000
 31
0.000000000000000
  0
LINE
  5
E7
100
AcDbEntity
  8
1
  6
CONTINUOUS
 62
7
100
AcDbLine
 10
186.0472169999999
 20
214.6326469999999
 30
0.000000000000000
 11
186.7042679999999
 21
214.6326469999999
 31
0.000000000000000
  0
ARC
  5
E8
100
AcDbEntity
  8
5
  6
PHANTOM
 62
6
100
AcDbCircle
 10
179.7625170000000
 20
216.3366470000000
 30
0.000000000000000
 40
1.000000000000000
100
AcDbArc
 50
174.1600000000000
 51
264.1600000000000
  0
ARC
  5
E9
100
AcDbEntity
  8
1
  6
CONTINUOUS
 62
7
100
AcDbCircle
 10
186.6475170000000
 20
215.3326470000000
 30
0.000000000000000
 40
1.000000000000000
100
AcDbArc
 50
180.0000000000000
 51
273.2533570000000
  0
LINE
  5
EA
100
AcDbEntity
  8
5
  6
PHANTOM
 62
6
100
AcDbLine
 10
183.0425170000000
 20
214.9959470000000
 30
0.000000000000000
 11
186.0472169999999
 21
214.9891960000000
 31
0.000000000000000
  0
LINE
  5
EB
100
AcDbEntity
  8
5
  6
PHANTOM
 62
6
100
AcDbLine
 10
179.6605170000000
 20
215.3418470000000
 30
0.000000000000000
 11
183.0425170000000
 21
214.9959470000000
 31
0.000000000000000
  0
ARC
  5
EC
100
AcDbEntity
  8
5
  6
PHANTOM
 62
6
100
AcDbCircle
 10
157.2995169999998
 20
239.0995470000000
 30
0.000000000000000
 40
4.000000000000000
100
AcDbArc
 50
135.0000000000000
 51
210.0000000000000
  0
LINE
  5
ED
100
AcDbEntity
  8
5
  6
PHANTOM
 62
6
100
AcDbLine
 10
142.1365170000000
 20
236.6635469999999
 30
0.000000000000000
 11
146.0255169999998
 21
233.4815470000001
 31
0.000000000000000
  0
ARC
  5
EE
100
AcDbEntity
  8
5
  6
PHANTOM
 62
6
100
AcDbCircle
 10
140.4395169999999
 20
239.7748469999999
 30
0.000000000000000
 40
1.000000000000000
100
AcDbArc
 50
135.0000000000000
 51
225.0000000000000
  0
LINE
  5
EF
100
AcDbEntity
  8
5
  6
PHANTOM
 62
6
100
AcDbLine
 10
139.7315169999999
 20
239.0677470000000
 30
0.000000000000000
 11
142.1365170000000
 21
236.6635469999999
 31
0.000000000000000
  0
ARC
  5
F0
100
AcDbEntity
  8
5
  6
PHANTOM
 62
6
100
AcDbCircle
 10
153.4255169999999
 20
233.8106470000000
 30
0.000000000000000
 40
2.000000000000000
100
AcDbArc
 50
315.0000000000000
 51
390.0000000000000
  0
ARC
  5
F1
100
AcDbEntity
  8
5
  6
PHANTOM
 62
6
100
AcDbCircle
 10
151.1275169999999
 20
231.5130470000000
 30
0.000000000000000
 40
2.000000000000000
100
AcDbArc
 50
227.4540000000000
 51
315.0000000000000
  0
LINE
  5
F2
100
AcDbEntity
  8
5
  6
PHANTOM
 62
6
100
AcDbLine
 10
153.8355169999999
 20
237.0995469999999
 30
0.000000000000000
 11
155.1575169999998
 21
234.8106469999998
 31
0.000000000000000
  0
LINE
  5
F3
100
AcDbEntity
  8
5
  6
PHANTOM
 62
6
100
AcDbLine
 10
146.0255169999998
 20
233.4815470000000
 30
0.000000000000000
 11
149.7755169999996
 21
230.0396469999999
 31
0.000000000000000
  0
LINE
  5
F4
100
AcDbEntity
  8
5
  6
PHANTOM
 62
6
100
AcDbLine
 10
154.8395170000000
 20
232.3964469999999
 30
0.000000000000000
 11
152.5415170000000
 21
230.0988470000000
 31
0.000000000000000
  0
LINE
  5
F5
100
AcDbEntity
  8
1
  6
CONTINUOUS
 62
7
100
AcDbLine
 10
204.0472170000000
 20
227.3326470000000
 30
0.000000000000000
 11
204.0472170000000
 21
217.4362470000000
 31
0.000000000000000
  0
LINE
  5
F6
100
AcDbEntity
  8
1
  6
CONTINUOUS
 62
7
100
AcDbLine
 10
194.0472169999999
 20
215.2965470000000
 30
0.000000000000000
 11
194.0472169999999
 21
185.4111470000000
 31
0.000000000000000
  0
LINE
  5
F7
100
AcDbEntity
  8
1
  6
CONTINUOUS
 62
7
100
AcDbLine
 10
218.5475170000000
 20
215.3067470000000
 30
0.000000000000000
 11
218.5475170000000
 21
186.3644469999999
 31
0.000000000000000
  0
LINE
  5
F8
100
AcDbEntity
  8
1
  6
CONTINUOUS
 62
7
100
AcDbLine
 10
192.0472170000000
 20
184.3715470000000
 30
0.000000000000000
 11
217.5864170000000
 21
185.3652470000000
 31
0.000000000000000
  0
ARC
  5
F9
100
AcDbEntity
  8
1
  6
CONTINUOUS
 62
7
100
AcDbCircle
 10
193.0472169999999
 20
185.4111470000000
 30
0.000000000000000
 40
1.000000000000000
100
AcDbArc
 50
272.2280000000000
 51
360.0000000000000
  0
ARC
  5
FA
100
AcDbEntity
  8
1
  6
CONTINUOUS
 62
7
100
AcDbCircle
 10
217.5475169999999
 20
186.3644469999999
 30
0.000000000000000
 40
1.000000000000000
100
AcDbArc
 50
272.2280000000000
 51
360.0000000000000
  0
LINE
  5
FB
100
AcDbEntity
  8
1
  6
CONTINUOUS
 62
7
100
AcDbLine
 10
205.0372170000000
 20
216.4362469999999
 30
0.000000000000000
 11
217.5578170000000
 21
216.3067470000000
 31
0.000000000000000
  0
ARC
  5
FC
100
AcDbEntity
  8
1
  6
CONTINUOUS
 62
7
100
AcDbCircle
 10
193.0472169999999
 20
215.2965470000000
 30
0.000000000000000
 40
1.000000000000000
100
AcDbArc
 50
0.000000000000000
 51
90.00000000000000
  0
ARC
  5
FD
100
AcDbEntity
  8
1
  6
CONTINUOUS
 62
7
100
AcDbCircle
 10
205.0472169999999
 20
217.4362470000000
 30
0.000000000000000
 40
1.000000000000000
100
AcDbArc
 50
180.0000000000000
 51
269.4069999999999
  0
LINE
  5
FE
100
AcDbEntity
  8
1
  6
CONTINUOUS
 62
7
100
AcDbLine
 10
193.0472169999999
 20
216.2965470000000
 30
0.000000000000000
 11
205.0372170000000
 21
216.4362469999999
 31
0.000000000000000
  0
LINE
  5
FF
100
AcDbEntity
  8
1
  6
CONTINUOUS
 62
7
100
AcDbLine
 10
192.0472170000000
 20
216.2965470000000
 30
0.000000000000000
 11
193.0472169999999
 21
216.2965470000000
 31
0.000000000000000
  0
ARC
  5
100
100
AcDbEntity
  8
1
  6
CONTINUOUS
 62
7
100
AcDbCircle
 10
217.5475169999999
 20
215.3067470000000
 30
0.000000000000000
 40
1.000000000000000
100
AcDbArc
 50
0.000000000000000
 51
89.40730000000001
  0
LINE
  5
101
100
AcDbEntity
  8
4
  6
CENTER
 62
1
100
AcDbLine
 10
215.5475169999998
 20
201.8326470000000
 30
0.000000000000000
 11
221.5475169999999
 21
201.8326470000000
 31
0.000000000000000
  0
ARC
  5
102
100
AcDbEntity
  8
1
  6
CONTINUOUS
 62
7
100
AcDbCircle
 10
203.0472169999999
 20
229.3326470000000
 30
0.000000000000000
 40
1.000000000000000
100
AcDbArc
 50
180.0000000000000
 51
270.0000000000000
  0
ARC
  5
103
100
AcDbEntity
  8
1
  6
CONTINUOUS
 62
7
100
AcDbCircle
 10
203.0472169999999
 20
227.3326470000000
 30
0.000000000000000
 40
1.000000000000000
100
AcDbArc
 50
0.000000000000000
 51
90.00000000000000
  0
LINE
  5
104
100
AcDbEntity
  8
4
  6
CENTER
 62
1
100
AcDbLine
 10
199.0472169999999
 20
252.3326069999999
 30
0.000000000000000
 11
205.0472169999999
 21
252.3326069999999
 31
0.000000000000000
  0
LINE
  5
105
100
AcDbEntity
  8
1
  6
CONTINUOUS
 62
7
100
AcDbLine
 10
188.5472169999999
 20
303.3326469999999
 30
0.000000000000000
 11
192.0472170000000
 21
303.3326469999999
 31
0.000000000000000
  0
LINE
  5
106
100
AcDbEntity
  8
4
  6
CENTER
 62
1
100
AcDbLine
 10
183.0472169999999
 20
283.3326470000000
 30
0.000000000000000
 11
229.0475170000000
 21
283.3326470000000
 31
0.000000000000000
  0
ARC
  5
107
100
AcDbEntity
  8
1
  6
CONTINUOUS
 62
7
100
AcDbCircle
 10
139.2332169999999
 20
283.3326470000000
 30
0.000000000000000
 40
48.35250000000000
100
AcDbArc
 50
345.5079999999999
 51
374.4921000000000
  0
ARC
  5
108
100
AcDbEntity
  8
5
  6
PHANTOM
 62
6
100
AcDbCircle
 10
187.7015169999999
 20
284.1375470000000
 30
0.000000000000000
 40
2.000000000000000
100
AcDbArc
 50
145.8070779999999
 51
174.1600000000000
  0
ARC
  5
109
100
AcDbEntity
  8
1
  6
CONTINUOUS
 62
7
100
AcDbCircle
 10
187.6475169999999
 20
283.5894469999999
 30
0.000000000000000
 40
2.000000000000000
100
AcDbArc
 50
143.1444289999996
 51
180.0000000000000
  0
LINE
  5
10A
100
AcDbEntity
  8
5
  6
PHANTOM
 62
6
100
AcDbLine
 10
185.4765170000000
 20
272.9326469999999
 30
0.000000000000000
 11
186.0472169999999
 21
272.9326469999999
 31
0.000000000000000
  0
LINE
  5
10B
100
AcDbEntity
  8
1
  6
CONTINUOUS
 62
7
100
AcDbLine
 10
188.5472169999999
 20
303.3326469999998
 30
0.000000000000000
 11
186.0472169999999
 21
298.8326470000000
 31
0.000000000000000
  0
LINE
  5
10C
100
AcDbEntity
  8
1
  6
CONTINUOUS
 62
7
100
AcDbLine
 10
222.0475169999999
 20
276.2615470000000
 30
0.000000000000000
 11
226.0475169999998
 21
276.2615470000000
 31
0.000000000000000
  0
LINE
  5
10D
100
AcDbEntity
  8
2
  6
CONTINUOUS
 62
4
100
AcDbLine
 10
222.0475169999999
 20
280.9755470000000
 30
0.000000000000000
 11
226.0475169999998
 21
276.2615470000001
 31
0.000000000000000
  0
LINE
  5
10E
100
AcDbEntity
  8
2
  6
CONTINUOUS
 62
4
100
AcDbLine
 10
226.0475169999999
 20
283.3326470000001
 30
0.000000000000000
 11
222.0475170000000
 21
278.6185470000000
 31
0.000000000000000
  0
LINE
  5
10F
100
AcDbEntity
  8
1
  6
CONTINUOUS
 62
7
100
AcDbLine
 10
222.0475169999999
 20
283.3326470000000
 30
0.000000000000000
 11
226.0475169999998
 21
283.3326470000000
 31
0.000000000000000
  0
LINE
  5
110
100
AcDbEntity
  8
2
  6
CONTINUOUS
 62
4
100
AcDbLine
 10
222.0475169999999
 20
288.0466470000000
 30
0.000000000000000
 11
226.0475169999998
 21
283.3326470000000
 31
0.000000000000000
  0
LINE
  5
111
100
AcDbEntity
  8
2
  6
CONTINUOUS
 62
4
100
AcDbLine
 10
226.0475169999999
 20
290.4036469999999
 30
0.000000000000000
 11
222.0475170000000
 21
285.6896469999999
 31
0.000000000000000
  0
LINE
  5
112
100
AcDbEntity
  8
1
  6
CONTINUOUS
 62
7
100
AcDbLine
 10
222.0475169999999
 20
290.4036469999998
 30
0.000000000000000
 11
226.0475169999998
 21
290.4036469999998
 31
0.000000000000000
  0
LINE
  5
113
100
AcDbEntity
  8
1
  6
CONTINUOUS
 62
7
100
AcDbLine
 10
220.0475170000000
 20
270.3326469999999
 30
0.000000000000000
 11
220.0475170000000
 21
292.0794470000000
 31
0.000000000000000
  0
LINE
  5
114
100
AcDbEntity
  8
1
  6
CONTINUOUS
 62
7
100
AcDbLine
 10
194.0472169999999
 20
297.4326469999998
 30
0.000000000000000
 11
194.0472169999999
 21
283.3326470000000
 31
0.000000000000000
  0
LINE
  5
115
100
AcDbEntity
  8
1
  6
CONTINUOUS
 62
7
100
AcDbLine
 10
205.0472169999999
 20
294.5435469999998
 30
0.000000000000000
 11
205.0472169999999
 21
270.2326470000000
 31
0.000000000000000
  0
LINE
  5
116
100
AcDbEntity
  8
1
  6
CONTINUOUS
 62
7
100
AcDbLine
 10
222.0475169999999
 20
294.5909770000000
 30
0.000000000000000
 11
222.0475169999999
 21
270.3326469999999
 31
0.000000000000000
  0
LINE
  5
117
100
AcDbEntity
  8
1
  6
CONTINUOUS
 62
7
100
AcDbLine
 10
219.8475170000000
 20
293.7682470000000
 30
0.000000000000000
 11
219.8475170000000
 21
272.2826470000000
 31
0.000000000000000
  0
LINE
  5
118
100
AcDbEntity
  8
1
  6
CONTINUOUS
 62
7
100
AcDbLine
 10
206.0472169999999
 20
271.2826469999999
 30
0.000000000000000
 11
218.8475169999999
 21
271.2826469999999
 31
0.000000000000000
  0
ARC
  5
119
100
AcDbEntity
  8
1
  6
CONTINUOUS
 62
7
100
AcDbCircle
 10
202.0472170000000
 20
269.2326469999998
 30
0.000000000000000
 40
1.000000000000000
100
AcDbArc
 50
270.0000000000000
 51
360.0000000000000
  0
LINE
  5
11A
100
AcDbEntity
  8
1
  6
CONTINUOUS
 62
7
100
AcDbLine
 10
203.0472169999999
 20
275.3898469999999
 30
0.000000000000000
 11
203.0472169999999
 21
269.2326469999998
 31
0.000000000000000
  0
LINE
  5
11B
100
AcDbEntity
  8
1
  6
CONTINUOUS
 62
7
100
AcDbLine
 10
203.0472169999999
 20
275.3898469999999
 30
0.000000000000000
 11
192.0472170000000
 21
275.3898469999999
 31
0.000000000000000
  0
ARC
  5
11C
100
AcDbEntity
  8
1
  6
CONTINUOUS
 62
7
100
AcDbCircle
 10
204.0472170000000
 20
270.2326470000000
 30
0.000000000000000
 40
1.000000000000000
100
AcDbArc
 50
270.0000000000000
 51
360.0000000000000
  0
ARC
  5
11D
100
AcDbEntity
  8
1
  6
CONTINUOUS
 62
7
100
AcDbCircle
 10
206.0472169999999
 20
270.2826470000000
 30
0.000000000000000
 40
1.000000000000000
100
AcDbArc
 50
90.00000000000000
 51
180.0000000000000
  0
LINE
  5
11E
100
AcDbEntity
  8
1
  6
CONTINUOUS
 62
7
100
AcDbLine
 10
203.0472169999999
 20
269.2326469999998
 30
0.000000000000000
 11
204.0472170000000
 21
269.2326469999998
 31
0.000000000000000
  0
LINE
  5
11F
100
AcDbEntity
  8
1
  6
CONTINUOUS
 62
7
100
AcDbLine
 10
219.8475170000000
 20
276.1326470000000
 30
0.000000000000000
 11
220.0475170000000
 21
276.1326470000000
 31
0.000000000000000
  0
ARC
  5
120
100
AcDbEntity
  8
1
  6
CONTINUOUS
 62
7
100
AcDbCircle
 10
218.8475169999999
 20
272.2826470000000
 30
0.000000000000000
 40
1.000000000000000
100
AcDbArc
 50
270.0000000000000
 51
360.0000000000000
  0
LINE
  5
121
100
AcDbEntity
  8
1
  6
CONTINUOUS
 62
7
100
AcDbLine
 10
220.0475170000000
 20
270.3326469999999
 30
0.000000000000000
 11
222.0475169999999
 21
270.3326469999999
 31
0.000000000000000
  0
LINE
  5
122
100
AcDbEntity
  8
1
  6
CONTINUOUS
 62
7
100
AcDbLine
 10
220.0475170000000
 20
276.8326470000000
 30
0.000000000000000
 11
222.0475169999999
 21
276.8326470000000
 31
0.000000000000000
  0
LINE
  5
123
100
AcDbEntity
  8
1
  6
CONTINUOUS
 62
7
100
AcDbLine
 10
220.0475170000000
 20
278.3326469999999
 30
0.000000000000000
 11
222.0475169999999
 21
278.3326469999999
 31
0.000000000000000
  0
LINE
  5
124
100
AcDbEntity
  8
1
  6
CONTINUOUS
 62
7
100
AcDbLine
 10
221.8475170000000
 20
295.5435469999999
 30
0.000000000000000
 11
206.0472169999999
 21
295.5435469999999
 31
0.000000000000000
  0
LINE
  5
125
100
AcDbEntity
  8
1
  6
CONTINUOUS
 62
7
100
AcDbLine
 10
206.0472169999999
 20
293.7682470000000
 30
0.000000000000000
 11
219.8475170000000
 21
293.7682470000000
 31
0.000000000000000
  0
LINE
  5
126
100
AcDbEntity
  8
1
  6
CONTINUOUS
 62
7
100
AcDbLine
 10
194.0472169999999
 20
297.4326469999998
 30
0.000000000000000
 11
220.8475169999999
 21
297.4326469999998
 31
0.000000000000000
  0
ARC
  5
127
100
AcDbEntity
  8
1
  6
CONTINUOUS
 62
7
100
AcDbCircle
 10
206.0472169999999
 20
294.5435469999998
 30
0.000000000000000
 40
1.000000000000000
100
AcDbArc
 50
90.00000000000000
 51
180.0000000000000
  0
ARC
  5
128
100
AcDbEntity
  8
1
  6
CONTINUOUS
 62
7
100
AcDbCircle
 10
206.0472169999999
 20
292.7682469999998
 30
0.000000000000000
 40
1.000000000000000
100
AcDbArc
 50
90.00000000000000
 51
180.0000000000000
  0
ARC
  5
129
100
AcDbEntity
  8
1
  6
CONTINUOUS
 62
7
100
AcDbCircle
 10
193.0472169999999
 20
297.3326469999999
 30
0.000000000000000
 40
1.000000000000000
100
AcDbArc
 50
5.739169999999997
 51
90.00000000000000
  0
LINE
  5
12A
100
AcDbEntity
  8
1
  6
CONTINUOUS
 62
7
100
AcDbLine
 10
192.0472170000000
 20
298.3326470000000
 30
0.000000000000000
 11
193.0472169999999
 21
298.3326470000000
 31
0.000000000000000
  0
LINE
  5
12B
100
AcDbEntity
  8
1
  6
CONTINUOUS
 62
7
100
AcDbLine
 10
219.8475170000000
 20
290.5326469999998
 30
0.000000000000000
 11
220.0475170000000
 21
290.5326469999998
 31
0.000000000000000
  0
LINE
  5
12C
100
AcDbEntity
  8
1
  6
CONTINUOUS
 62
7
100
AcDbLine
 10
221.8475170000000
 20
296.4326469999998
 30
0.000000000000000
 11
221.8475170000000
 21
292.0794470000000
 31
0.000000000000000
  0
LINE
  5
12D
100
AcDbEntity
  8
1
  6
CONTINUOUS
 62
7
100
AcDbLine
 10
222.0475169999999
 20
293.3326470000000
 30
0.000000000000000
 11
221.8475170000000
 21
293.3326470000000
 31
0.000000000000000
  0
LINE
  5
12E
100
AcDbEntity
  8
1
  6
CONTINUOUS
 62
7
100
AcDbLine
 10
222.0475169999999
 20
294.5909770000000
 30
0.000000000000000
 11
221.8475170000000
 21
294.5909770000000
 31
0.000000000000000
  0
ARC
  5
12F
100
AcDbEntity
  8
1
  6
CONTINUOUS
 62
7
100
AcDbCircle
 10
220.8475169999999
 20
296.4326469999998
 30
0.000000000000000
 40
1.000000000000000
100
AcDbArc
 50
0.000000000000000
 51
90.00000000000000
  0
LINE
  5
130
100
AcDbEntity
  8
1
  6
CONTINUOUS
 62
7
100
AcDbLine
 10
219.8475170000000
 20
292.0794470000000
 30
0.000000000000000
 11
221.8475170000000
 21
292.0794470000000
 31
0.000000000000000
  0
ARC
  5
131
100
AcDbEntity
  8
1
  6
CONTINUOUS
 62
7
100
AcDbCircle
 10
245.0290680000000
 20
283.3331470000000
 30
0.000000000000000
 40
9.560949000000001
100
AcDbArc
 50
342.4247879999998
 51
377.5752120000000
  0
LINE
  5
132
100
AcDbEntity
  8
1
  6
CONTINUOUS
 62
7
100
AcDbLine
 10
254.5900169999999
 20
288.3331469999999
 30
0.000000000000000
 11
254.5900169999999
 21
278.3321470000000
 31
0.000000000000000
  0
ARC
  5
133
100
AcDbEntity
  8
1
  6
CONTINUOUS
 62
7
100
AcDbCircle
 10
260.1509660000000
 20
283.3331470000000
 30
0.000000000000000
 40
9.560949000000001
100
AcDbArc
 50
162.4247879999998
 51
197.5752119999999
  0
LINE
  5
134
100
AcDbEntity
  8
1
  6
CONTINUOUS
 62
7
100
AcDbLine
 10
226.0475169999998
 20
290.4036469999998
 30
0.000000000000000
 11
226.0475169999998
 21
276.2615470000000
 31
0.000000000000000
  0
LINE
  5
135
100
AcDbEntity
  8
1
  6
CONTINUOUS
 62
7
100
AcDbLine
 10
245.4900170000000
 20
294.3326470000000
 30
0.000000000000000
 11
245.4900170000000
 21
272.3326469999999
 31
0.000000000000000
  0
LINE
  5
136
100
AcDbEntity
  8
1
  6
CONTINUOUS
 62
7
100
AcDbLine
 10
247.4900170000000
 20
294.3326470000000
 30
0.000000000000000
 11
247.4900170000000
 21
272.3326469999999
 31
0.000000000000000
  0
LINE
  5
137
100
AcDbEntity
  8
1
  6
CONTINUOUS
 62
7
100
AcDbLine
 10
249.0900169999999
 20
275.3326470000000
 30
0.000000000000000
 11
249.0900169999999
 21
291.3326470000000
 31
0.000000000000000
  0
LINE
  5
138
100
AcDbEntity
  8
1
  6
CONTINUOUS
 62
7
100
AcDbLine
 10
250.5900169999999
 20
277.2326469999998
 30
0.000000000000000
 11
250.5900169999999
 21
289.4326469999998
 31
0.000000000000000
  0
LINE
  5
139
100
AcDbEntity
  8
1
  6
CONTINUOUS
 62
7
100
AcDbLine
 10
254.5900169999999
 20
278.3321470000000
 30
0.000000000000000
 11
254.1437249999999
 21
277.5591469999999
 31
0.000000000000000
  0
ARC
  5
13A
100
AcDbEntity
  8
1
  6
CONTINUOUS
 62
7
100
AcDbCircle
 10
252.0340369999999
 20
279.0021469999999
 30
0.000000000000000
 40
2.555979999999999
100
AcDbArc
 50
334.3716370000000
 51
394.3716370000000
  0
LINE
  5
13B
100
AcDbEntity
  8
1
  6
CONTINUOUS
 62
7
100
AcDbLine
 10
250.5900169999999
 20
278.3321470000000
 30
0.000000000000000
 11
251.0363089999999
 21
277.5591470000000
 31
0.000000000000000
  0
ARC
  5
13C
100
AcDbEntity
  8
1
  6
CONTINUOUS
 62
7
100
AcDbCircle
 10
253.1459969999999
 20
279.0021469999999
 30
0.000000000000000
 40
2.555979999999999
100
AcDbArc
 50
145.6283629999998
 51
205.6283629999998
  0
LINE
  5
13D
100
AcDbEntity
  8
1
  6
CONTINUOUS
 62
7
100
AcDbLine
 10
251.0363089999999
 20
277.5591470000000
 30
0.000000000000000
 11
254.1437249999999
 21
277.5591470000000
 31
0.000000000000000
  0
ARC
  5
13E
100
AcDbEntity
  8
1
  6
CONTINUOUS
 62
7
100
AcDbCircle
 10
253.1460169999999
 20
279.0031470000000
 30
0.000000000000000
 40
2.555820000000000
100
AcDbArc
 50
214.3528569999999
 51
214.3839999999999
  0
ARC
  5
13F
100
AcDbEntity
  8
1
  6
CONTINUOUS
 62
7
100
AcDbCircle
 10
252.0340170000000
 20
279.0031470000000
 30
0.000000000000000
 40
2.555820000000000
100
AcDbArc
 50
325.6159999999998
 51
325.6471430000000
  0
LINE
  5
140
100
AcDbEntity
  8
1
  6
CONTINUOUS
 62
7
100
AcDbLine
 10
251.0363089999999
 20
280.4461470000000
 30
0.000000000000000
 11
254.1437249999999
 21
280.4461470000000
 31
0.000000000000000
  0
LINE
  5
141
100
AcDbEntity
  8
1
  6
CONTINUOUS
 62
7
100
AcDbLine
 10
250.5900169999999
 20
284.8326469999999
 30
0.000000000000000
 11
249.0900169999999
 21
283.3326470000001
 31
0.000000000000000
  0
LINE
  5
142
100
AcDbEntity
  8
1
  6
CONTINUOUS
 62
7
100
AcDbLine
 10
250.5900170000000
 20
283.3326470000001
 30
0.000000000000000
 11
249.0900170000000
 21
281.8326470000001
 31
0.000000000000000
  0
LINE
  5
143
100
AcDbEntity
  8
1
  6
CONTINUOUS
 62
7
100
AcDbLine
 10
247.4900170000000
 20
272.3326469999999
 30
0.000000000000000
 11
243.4900170000000
 21
272.3326469999999
 31
0.000000000000000
  0
LINE
  5
144
100
AcDbEntity
  8
1
  6
CONTINUOUS
 62
7
100
AcDbLine
 10
249.0900169999999
 20
275.3326470000000
 30
0.000000000000000
 11
247.4900170000000
 21
275.3326470000000
 31
0.000000000000000
  0
LINE
  5
145
100
AcDbEntity
  8
1
  6
CONTINUOUS
 62
7
100
AcDbLine
 10
250.5900169999999
 20
277.2326469999998
 30
0.000000000000000
 11
249.0900169999999
 21
277.2326469999998
 31
0.000000000000000
  0
ARC
  5
146
100
AcDbEntity
  8
1
  6
CONTINUOUS
 62
7
100
AcDbCircle
 10
252.0340369999999
 20
287.6631469999998
 30
0.000000000000000
 40
2.555979999999999
100
AcDbArc
 50
325.6283629999998
 51
385.6283630000000
  0
LINE
  5
147
100
AcDbEntity
  8
1
  6
CONTINUOUS
 62
7
100
AcDbLine
 10
254.5900169999999
 20
288.3331469999999
 30
0.000000000000000
 11
254.1437249999999
 21
289.1061470000000
 31
0.000000000000000
  0
LINE
  5
148
100
AcDbEntity
  8
1
  6
CONTINUOUS
 62
7
100
AcDbLine
 10
251.0363089999999
 20
286.2201470000000
 30
0.000000000000000
 11
254.1437249999999
 21
286.2201470000000
 31
0.000000000000000
  0
LINE
  5
149
100
AcDbEntity
  8
1
  6
CONTINUOUS
 62
7
100
AcDbLine
 10
251.0363089999999
 20
289.1061470000000
 30
0.000000000000000
 11
254.1437249999999
 21
289.1061470000000
 31
0.000000000000000
  0
ARC
  5
14A
100
AcDbEntity
  8
1
  6
CONTINUOUS
 62
7
100
AcDbCircle
 10
253.1459969999999
 20
287.6631469999998
 30
0.000000000000000
 40
2.555979999999999
100
AcDbArc
 50
154.3716370000000
 51
214.3716370000000
  0
LINE
  5
14B
100
AcDbEntity
  8
1
  6
CONTINUOUS
 62
7
100
AcDbLine
 10
250.5900169999999
 20
288.3331469999999
 30
0.000000000000000
 11
251.0363089999999
 21
289.1061470000000
 31
0.000000000000000
  0
LINE
  5
14C
100
AcDbEntity
  8
1
  6
CONTINUOUS
 62
7
100
AcDbLine
 10
247.4900170000000
 20
294.3326470000000
 30
0.000000000000000
 11
243.4900170000000
 21
294.3326470000000
 31
0.000000000000000
  0
LINE
  5
14D
100
AcDbEntity
  8
1
  6
CONTINUOUS
 62
7
100
AcDbLine
 10
249.0900169999999
 20
291.3326470000000
 30
0.000000000000000
 11
247.4900170000000
 21
291.3326470000000
 31
0.000000000000000
  0
LINE
  5
14E
100
AcDbEntity
  8
1
  6
CONTINUOUS
 62
7
100
AcDbLine
 10
250.5900169999999
 20
289.4326469999998
 30
0.000000000000000
 11
249.0900169999999
 21
289.4326469999998
 31
0.000000000000000
  0
ARC
  5
14F
100
AcDbEntity
  8
5
  6
PHANTOM
 62
6
100
AcDbCircle
 10
423.8973169999998
 20
176.3326470000000
 30
0.000000000000000
 40
1.000000000000000
100
AcDbArc
 50
180.0000000000000
 51
270.0000000000000
  0
ARC
  5
150
100
AcDbEntity
  8
5
  6
PHANTOM
 62
6
100
AcDbCircle
 10
443.8973169999998
 20
176.3326470000000
 30
0.000000000000000
 40
1.000000000000000
100
AcDbArc
 50
270.0000000000000
 51
360.0000000000000
  0
LINE
  5
151
100
AcDbEntity
  8
4
  6
CENTER
 62
1
100
AcDbLine
 10
433.8973170000000
 20
306.3326470000000
 30
0.000000000000000
 11
433.8973170000000
 21
172.3326470000000
 31
0.000000000000000
  0
LINE
  5
152
100
AcDbEntity
  8
1
  6
CONTINUOUS
 62
7
100
AcDbLine
 10
280.0396169999999
 20
46.35842100000000
 30
0.000000000000000
 11
280.0396169999999
 21
42.35842100000000
 31
0.000000000000000
  0
LINE
  5
153
100
AcDbEntity
  8
1
  6
CONTINUOUS
 62
7
100
AcDbLine
 10
278.0396169999999
 20
46.35842100000000
 30
0.000000000000000
 11
278.0396169999999
 21
42.35842100000000
 31
0.000000000000000
  0
LINE
  5
154
100
AcDbEntity
  8
1
  6
CONTINUOUS
 62
7
100
AcDbLine
 10
278.0396169999999
 20
42.35842100000000
 30
0.000000000000000
 11
280.0396169999999
 21
42.35842100000000
 31
0.000000000000000
  0
LINE
  5
155
100
AcDbEntity
  8
1
  6
CONTINUOUS
 62
7
100
AcDbLine
 10
280.0396169999999
 20
71.85842099999998
 30
0.000000000000000
 11
287.7396170000000
 21
71.85842099999998
 31
0.000000000000000
  0
LINE
  5
156
100
AcDbEntity
  8
1
  6
CONTINUOUS
 62
7
100
AcDbLine
 10
280.0396169999999
 20
73.85842099999995
 30
0.000000000000000
 11
287.7396170000000
 21
73.85842099999995
 31
0.000000000000000
  0
LINE
  5
157
100
AcDbEntity
  8
1
  6
CONTINUOUS
 62
7
100
AcDbLine
 10
280.0396169999999
 20
46.35842100000000
 30
0.000000000000000
 11
287.7396170000000
 21
46.35842100000000
 31
0.000000000000000
  0
LINE
  5
158
100
AcDbEntity
  8
1
  6
CONTINUOUS
 62
7
100
AcDbLine
 10
280.0396169999999
 20
48.35842100000000
 30
0.000000000000000
 11
287.7396170000000
 21
48.35842100000000
 31
0.000000000000000
  0
LINE
  5
159
100
AcDbEntity
  8
4
  6
CENTER
 62
1
100
AcDbLine
 10
284.3750070000000
 20
60.10842099999999
 30
0.000000000000000
 11
297.3396170000000
 21
60.10842099999999
 31
0.000000000000000
  0
ARC
  5
15A
100
AcDbEntity
  8
1
  6
CONTINUOUS
 62
7
100
AcDbCircle
 10
280.0396169999999
 20
46.35842100000000
 30
0.000000000000000
 40
2.000000000000000
100
AcDbArc
 50
90.00000000000000
 51
180.0000000000000
  0
ARC
  5
15B
100
AcDbEntity
  8
1
  6
CONTINUOUS
 62
7
100
AcDbCircle
 10
280.0396169999999
 20
73.85842099999995
 30
0.000000000000000
 40
2.000000000000000
100
AcDbArc
 50
180.0000000000000
 51
270.0000000000000
  0
LINE
  5
15C
100
AcDbEntity
  8
1
  6
CONTINUOUS
 62
7
100
AcDbLine
 10
280.0396169999999
 20
77.85842099999998
 30
0.000000000000000
 11
280.0396169999999
 21
73.85842099999995
 31
0.000000000000000
  0
LINE
  5
15D
100
AcDbEntity
  8
1
  6
CONTINUOUS
 62
7
100
AcDbLine
 10
278.0396169999999
 20
77.85842099999998
 30
0.000000000000000
 11
280.0396169999999
 21
77.85842099999998
 31
0.000000000000000
  0
LINE
  5
15E
100
AcDbEntity
  8
1
  6
CONTINUOUS
 62
7
100
AcDbLine
 10
278.0396169999999
 20
77.85842099999998
 30
0.000000000000000
 11
278.0396169999999
 21
73.85842099999995
 31
0.000000000000000
  0
LINE
  5
15F
100
AcDbEntity
  8
1
  6
CONTINUOUS
 62
7
100
AcDbLine
 10
287.7396170000000
 20
71.85842099999998
 30
0.000000000000000
 11
287.7396170000000
 21
48.35842100000000
 31
0.000000000000000
  0
LINE
  5
160
100
AcDbEntity
  8
1
  6
CONTINUOUS
 62
7
100
AcDbLine
 10
289.7396170000000
 20
71.85842099999998
 30
0.000000000000000
 11
289.7396170000000
 21
48.35842100000000
 31
0.000000000000000
  0
LINE
  5
161
100
AcDbEntity
  8
1
  6
CONTINUOUS
 62
7
100
AcDbLine
 10
292.5006169999999
 20
64.48042099999999
 30
0.000000000000000
 11
291.0396169999996
 21
64.60842099999999
 31
0.000000000000000
  0
LINE
  5
162
100
AcDbEntity
  8
1
  6
CONTINUOUS
 62
7
100
AcDbLine
 10
289.7396170000000
 20
64.70842100000000
 30
0.000000000000000
 11
291.0396169999996
 21
64.70842100000000
 31
0.000000000000000
  0
ARC
  5
163
100
AcDbEntity
  8
1
  6
CONTINUOUS
 62
7
100
AcDbCircle
 10
292.3616169999998
 20
62.88642100000000
 30
0.000000000000000
 40
1.600000000000000
100
AcDbArc
 50
15.49400000000000
 51
84.99990000000004
  0
ARC
  5
164
100
AcDbEntity
  8
1
  6
CONTINUOUS
 62
7
100
AcDbCircle
 10
287.7396170000000
 20
48.35842100000000
 30
0.000000000000000
 40
2.000000000000000
100
AcDbArc
 50
270.0000000000000
 51
360.0000000000000
  0
LINE
  5
165
100
AcDbEntity
  8
1
  6
CONTINUOUS
 62
7
100
AcDbLine
 10
292.5006169999999
 20
55.73642100000001
 30
0.000000000000000
 11
291.0396169999997
 21
55.60842100000000
 31
0.000000000000000
  0
LINE
  5
166
100
AcDbEntity
  8
1
  6
CONTINUOUS
 62
7
100
AcDbLine
 10
289.7396170000000
 20
55.50842100000000
 30
0.000000000000000
 11
291.0396169999996
 21
55.50842100000000
 31
0.000000000000000
  0
LINE
  5
167
100
AcDbEntity
  8
1
  6
CONTINUOUS
 62
7
100
AcDbLine
 10
289.7396170000000
 20
60.10842100000001
 30
0.000000000000000
 11
291.0396169999996
 21
61.40842099999999
 31
0.000000000000000
  0
LINE
  5
168
100
AcDbEntity
  8
1
  6
CONTINUOUS
 62
7
100
AcDbLine
 10
289.7396170000000
 20
58.80842099999995
 30
0.000000000000000
 11
291.0396169999996
 21
60.10842099999999
 31
0.000000000000000
  0
ARC
  5
169
100
AcDbEntity
  8
1
  6
CONTINUOUS
 62
7
100
AcDbCircle
 10
292.3616169999998
 20
57.33042099999998
 30
0.000000000000000
 40
1.600000000000000
100
AcDbArc
 50
275.0000000000000
 51
344.5059999999998
  0
LINE
  5
16A
100
AcDbEntity
  8
1
  6
CONTINUOUS
 62
7
100
AcDbLine
 10
291.0396169999996
 20
64.70842100000000
 30
0.000000000000000
 11
291.0396169999996
 21
55.50842100000000
 31
0.000000000000000
  0
ARC
  5
16B
100
AcDbEntity
  8
1
  6
CONTINUOUS
 62
7
100
AcDbCircle
 10
282.3396169999998
 20
60.10842099999999
 30
0.000000000000000
 40
12.00000000000000
100
AcDbArc
 50
344.5059999999998
 51
375.4940000000000
  0
ARC
  5
16C
100
AcDbEntity
  8
1
  6
CONTINUOUS
 62
7
100
AcDbCircle
 10
287.7396170000000
 20
71.85842099999998
 30
0.000000000000000
 40
2.000000000000000
100
AcDbArc
 50
0.000000000000000
 51
90.00000000000000
  0
LINE
  5
16D
100
AcDbEntity
  8
5
  6
PHANTOM
 62
6
100
AcDbLine
 10
443.8973169999998
 20
175.3326470000000
 30
0.000000000000000
 11
423.8973169999998
 21
175.3326470000000
 31
0.000000000000000
  0
LINE
  5
16E
100
AcDbEntity
  8
5
  6
PHANTOM
 62
6
100
AcDbLine
 10
416.8973170000000
 20
292.3326470000000
 30
0.000000000000000
 11
367.3973170000000
 21
292.3326470000000
 31
0.000000000000000
  0
LINE
  5
16F
100
AcDbEntity
  8
5
  6
PHANTOM
 62
6
100
AcDbLine
 10
416.8973170000000
 20
274.3326469999999
 30
0.000000000000000
 11
367.3973170000000
 21
274.3326469999999
 31
0.000000000000000
  0
LINE
  5
170
100
AcDbEntity
  8
4
  6
CENTER
 62
1
100
AcDbLine
 10
453.8973170000000
 20
283.3326470000000
 30
0.000000000000000
 11
361.8973169999999
 21
283.3326470000000
 31
0.000000000000000
  0
LINE
  5
171
100
AcDbEntity
  8
1
  6
CONTINUOUS
 62
7
100
AcDbLine
 10
280.0396169999999
 20
268.3326470000000
 30
0.000000000000000
 11
280.0396169999999
 21
236.3326470000000
 31
0.000000000000000
  0
LINE
  5
172
100
AcDbEntity
  8
1
  6
CONTINUOUS
 62
7
100
AcDbLine
 10
289.7396170000000
 20
268.3326470000000
 30
0.000000000000000
 11
289.7396170000000
 21
236.3326470000000
 31
0.000000000000000
  0
LINE
  5
173
100
AcDbEntity
  8
1
  6
CONTINUOUS
 62
7
100
AcDbLine
 10
278.0396169999999
 20
268.3326470000000
 30
0.000000000000000
 11
278.0396169999999
 21
236.3326470000000
 31
0.000000000000000
  0
LINE
  5
174
100
AcDbEntity
  8
4
  6
CENTER
 62
1
100
AcDbLine
 10
286.6095169999998
 20
252.3326069999999
 30
0.000000000000000
 11
297.3396170000000
 21
252.3326069999999
 31
0.000000000000000
  0
LINE
  5
175
100
AcDbEntity
  8
1
  6
CONTINUOUS
 62
7
100
AcDbLine
 10
278.0396169999999
 20
236.3326470000000
 30
0.000000000000000
 11
289.7396170000000
 21
236.3326470000000
 31
0.000000000000000
  0
ARC
  5
176
100
AcDbEntity
  8
1
  6
CONTINUOUS
 62
7
100
AcDbCircle
 10
282.3396169999998
 20
252.3326069999999
 30
0.000000000000000
 40
12.00000000000000
100
AcDbArc
 50
344.5059999999998
 51
375.4940000000000
  0
LINE
  5
177
100
AcDbEntity
  8
1
  6
CONTINUOUS
 62
7
100
AcDbLine
 10
289.7396170000000
 20
256.9326069999996
 30
0.000000000000000
 11
291.0396169999996
 21
256.9326069999996
 31
0.000000000000000
  0
LINE
  5
178
100
AcDbEntity
  8
1
  6
CONTINUOUS
 62
7
100
AcDbLine
 10
289.7396170000000
 20
251.0326070000000
 30
0.000000000000000
 11
291.0396169999997
 21
252.3326069999999
 31
0.000000000000000
  0
LINE
  5
179
100
AcDbEntity
  8
1
  6
CONTINUOUS
 62
7
100
AcDbLine
 10
289.7396170000001
 20
252.3326069999999
 30
0.000000000000000
 11
291.0396169999997
 21
253.6326069999998
 31
0.000000000000000
  0
LINE
  5
17A
100
AcDbEntity
  8
1
  6
CONTINUOUS
 62
7
100
AcDbLine
 10
292.5006169999998
 20
256.7046069999998
 30
0.000000000000000
 11
291.0396169999996
 21
256.8326069999998
 31
0.000000000000000
  0
ARC
  5
17B
100
AcDbEntity
  8
1
  6
CONTINUOUS
 62
7
100
AcDbCircle
 10
292.3616169999998
 20
255.1106069999999
 30
0.000000000000000
 40
1.600000000000000
100
AcDbArc
 50
15.49400000000000
 51
84.99990000000004
  0
LINE
  5
17C
100
AcDbEntity
  8
1
  6
CONTINUOUS
 62
7
100
AcDbLine
 10
289.7396170000000
 20
247.7326069999997
 30
0.000000000000000
 11
291.0396169999996
 21
247.7326069999997
 31
0.000000000000000
  0
LINE
  5
17D
100
AcDbEntity
  8
1
  6
CONTINUOUS
 62
7
100
AcDbLine
 10
292.5006169999998
 20
247.9606069999999
 30
0.000000000000000
 11
291.0396169999996
 21
247.8326070000000
 31
0.000000000000000
  0
LINE
  5
17E
100
AcDbEntity
  8
1
  6
CONTINUOUS
 62
7
100
AcDbLine
 10
291.0396169999996
 20
256.9326069999996
 30
0.000000000000000
 11
291.0396169999996
 21
247.7326069999997
 31
0.000000000000000
  0
ARC
  5
17F
100
AcDbEntity
  8
1
  6
CONTINUOUS
 62
7
100
AcDbCircle
 10
292.3616169999998
 20
249.5546069999999
 30
0.000000000000000
 40
1.600000000000000
100
AcDbArc
 50
275.0000000000000
 51
344.5059999999998
  0
LINE
  5
180
100
AcDbEntity
  8
1
  6
CONTINUOUS
 62
7
100
AcDbLine
 10
278.0396169999999
 20
268.3326470000000
 30
0.000000000000000
 11
289.7396170000000
 21
268.3326470000000
 31
0.000000000000000
  0
LINE
  5
181
100
AcDbEntity
  8
5
  6
PHANTOM
 62
6
100
AcDbLine
 10
364.8973170000000
 20
276.8326470000000
 30
0.000000000000000
 11
364.8973170000000
 21
289.8326470000000
 31
0.000000000000000
  0
ARC
  5
182
100
AcDbEntity
  8
5
  6
PHANTOM
 62
6
100
AcDbCircle
 10
367.3973170000000
 20
276.8326470000000
 30
0.000000000000000
 40
2.500000000000000
100
AcDbArc
 50
180.0000000000000
 51
270.0000000000000
  0
ARC
  5
183
100
AcDbEntity
  8
5
  6
PHANTOM
 62
6
100
AcDbCircle
 10
367.3973170000000
 20
289.8326470000000
 30
0.000000000000000
 40
2.500000000000000
100
AcDbArc
 50
90.00000000000000
 51
180.0000000000000
  0
LINE
  5
184
100
AcDbEntity
  8
1
  6
CONTINUOUS
 62
7
100
AcDbLine
 10
447.6473170000000
 20
268.3326470000000
 30
0.000000000000000
 11
447.6473170000000
 21
236.3326470000000
 31
0.000000000000000
  0
LINE
  5
185
100
AcDbEntity
  8
1
  6
CONTINUOUS
 62
7
100
AcDbLine
 10
420.1473169999998
 20
268.3326470000000
 30
0.000000000000000
 11
420.1473169999998
 21
236.3326470000000
 31
0.000000000000000
  0
LINE
  5
186
100
AcDbEntity
  8
1
  6
CONTINUOUS
 62
7
100
AcDbLine
 10
451.6473170000000
 20
266.3326070000000
 30
0.000000000000000
 11
451.6473170000000
 21
238.3326470000000
 31
0.000000000000000
  0
LINE
  5
187
100
AcDbEntity
  8
1
  6
CONTINUOUS
 62
7
100
AcDbLine
 10
416.1473169999998
 20
266.3326070000000
 30
0.000000000000000
 11
416.1473169999998
 21
238.3326470000000
 31
0.000000000000000
  0
ARC
  5
188
100
AcDbEntity
  8
1
  6
CONTINUOUS
 62
7
100
AcDbCircle
 10
445.8973170000000
 20
215.2965470000000
 30
0.000000000000000
 40
1.000000000000000
100
AcDbArc
 50
0.000000000000000
 51
90.00000000000000
  0
ARC
  5
189
100
AcDbEntity
  8
1
  6
CONTINUOUS
 62
7
100
AcDbCircle
 10
445.9973170000000
 20
186.3326470000000
 30
0.000000000000000
 40
2.000000000000000
100
AcDbArc
 50
270.0000000000000
 51
360.0000000000000
  0
LINE
  5
18A
100
AcDbEntity
  8
1
  6
CONTINUOUS
 62
7
100
AcDbLine
 10
449.6473169999998
 20
236.3326470000000
 30
0.000000000000000
 11
418.1473170000000
 21
236.3326470000000
 31
0.000000000000000
  0
LINE
  5
18B
100
AcDbEntity
  8
1
  6
CONTINUOUS
 62
7
100
AcDbLine
 10
420.7973170000000
 20
216.2965470000000
 30
0.000000000000000
 11
446.9973170000000
 21
216.2965470000000
 31
0.000000000000000
  0
LINE
  5
18C
100
AcDbEntity
  8
1
  6
CONTINUOUS
 62
7
100
AcDbLine
 10
420.8973170000000
 20
179.3326470000000
 30
0.000000000000000
 11
446.8973169999999
 21
179.3326470000000
 31
0.000000000000000
  0
LINE
  5
18D
100
AcDbEntity
  8
1
  6
CONTINUOUS
 62
7
100
AcDbLine
 10
445.5473170000000
 20
236.3326470000000
 30
0.000000000000000
 11
445.5473170000000
 21
217.2965470000000
 31
0.000000000000000
  0
LINE
  5
18E
100
AcDbEntity
  8
1
  6
CONTINUOUS
 62
7
100
AcDbLine
 10
422.2473169999997
 20
236.3326470000000
 30
0.000000000000000
 11
422.2473169999997
 21
217.2965470000000
 31
0.000000000000000
  0
LINE
  5
18F
100
AcDbEntity
  8
1
  6
CONTINUOUS
 62
7
100
AcDbLine
 10
416.8973170000000
 20
236.7713469999999
 30
0.000000000000000
 11
416.8973170000000
 21
183.3326470000000
 31
0.000000000000000
  0
LINE
  5
190
100
AcDbEntity
  8
1
  6
CONTINUOUS
 62
7
100
AcDbLine
 10
419.7973170000000
 20
236.3326470000000
 30
0.000000000000000
 11
419.7973170000000
 21
186.3326470000000
 31
0.000000000000000
  0
LINE
  5
191
100
AcDbEntity
  8
1
  6
CONTINUOUS
 62
7
100
AcDbLine
 10
420.8973170000000
 20
215.2965470000000
 30
0.000000000000000
 11
420.8973170000000
 21
184.5465470000000
 31
0.000000000000000
  0
LINE
  5
192
100
AcDbEntity
  8
1
  6
CONTINUOUS
 62
7
100
AcDbLine
 10
421.7973170000000
 20
184.3326470000000
 30
0.000000000000000
 11
445.9973170000000
 21
184.3326470000000
 31
0.000000000000000
  0
LINE
  5
193
100
AcDbEntity
  8
5
  6
PHANTOM
 62
6
100
AcDbLine
 10
422.8973169999998
 20
179.3326470000000
 30
0.000000000000000
 11
422.8973169999998
 21
176.3326470000000
 31
0.000000000000000
  0
ARC
  5
194
100
AcDbEntity
  8
1
  6
CONTINUOUS
 62
7
100
AcDbCircle
 10
421.7973170000000
 20
186.3326470000000
 30
0.000000000000000
 40
2.000000000000000
100
AcDbArc
 50
180.0000000000000
 51
270.0000000000000
  0
ARC
  5
195
100
AcDbEntity
  8
1
  6
CONTINUOUS
 62
7
100
AcDbCircle
 10
420.8973170000000
 20
183.3326470000000
 30
0.000000000000000
 40
4.000000000000000
100
AcDbArc
 50
180.0000000000000
 51
270.0000000000000
  0
LINE
  5
196
100
AcDbEntity
  8
5
  6
PHANTOM
 62
6
100
AcDbLine
 10
444.8973170000000
 20
179.3326470000000
 30
0.000000000000000
 11
444.8973170000000
 21
176.3326470000000
 31
0.000000000000000
  0
LINE
  5
197
100
AcDbEntity
  8
1
  6
CONTINUOUS
 62
7
100
AcDbLine
 10
427.8973169999998
 20
213.2965470000000
 30
0.000000000000000
 11
439.8973169999998
 21
213.2965470000000
 31
0.000000000000000
  0
LINE
  5
198
100
AcDbEntity
  8
1
  6
CONTINUOUS
 62
7
100
AcDbLine
 10
427.8973169999998
 20
208.2965469999999
 30
0.000000000000000
 11
439.8973169999998
 21
208.2965469999999
 31
0.000000000000000
  0
ARC
  5
199
100
AcDbEntity
  8
1
  6
CONTINUOUS
 62
7
100
AcDbCircle
 10
421.8973169999999
 20
215.2965470000000
 30
0.000000000000000
 40
1.000000000000000
100
AcDbArc
 50
90.00000000000000
 51
180.0000000000000
  0
ARC
  5
19A
100
AcDbEntity
  8
1
  6
CONTINUOUS
 62
7
100
AcDbCircle
 10
420.7973170000000
 20
215.2965470000000
 30
0.000000000000000
 40
1.000000000000000
100
AcDbArc
 50
90.00000000000000
 51
180.0000000000000
  0
ARC
  5
19B
100
AcDbEntity
  8
1
  6
CONTINUOUS
 62
7
100
AcDbCircle
 10
421.2473169999998
 20
217.2965470000000
 30
0.000000000000000
 40
1.000000000000000
100
AcDbArc
 50
270.0000000000000
 51
360.0000000000000
  0
CIRCLE
  5
19C
100
AcDbEntity
  8
1
  6
CONTINUOUS
 62
7
100
AcDbCircle
 10
425.3973170000000
 20
201.8326470000000
 30
0.000000000000000
 40
2.600000000000000
  0
ARC
  5
19D
100
AcDbEntity
  8
1
  6
CONTINUOUS
 62
7
100
AcDbCircle
 10
425.3973170000000
 20
201.8326470000000
 30
0.000000000000000
 40
1.300000000000000
100
AcDbArc
 50
304.8090000000001
 51
325.1909999999998
  0
ARC
  5
19E
100
AcDbEntity
  8
1
  6
CONTINUOUS
 62
7
100
AcDbCircle
 10
425.3973170000000
 20
201.8326470000000
 30
0.000000000000000
 40
1.300000000000000
100
AcDbArc
 50
214.8090000000000
 51
235.1909999999999
  0
ARC
  5
19F
100
AcDbEntity
  8
1
  6
CONTINUOUS
 62
7
100
AcDbCircle
 10
425.3973170000000
 20
201.8326470000000
 30
0.000000000000000
 40
1.300000000000000
100
AcDbArc
 50
124.8094000000000
 51
145.1909999999998
  0
ARC
  5
1A0
100
AcDbEntity
  8
1
  6
CONTINUOUS
 62
7
100
AcDbCircle
 10
425.3973170000000
 20
201.8326470000000
 30
0.000000000000000
 40
1.300000000000000
100
AcDbArc
 50
34.80900000000000
 51
55.19060000000000
  0
LINE
  5
1A1
100
AcDbEntity
  8
4
  6
CENTER
 62
1
100
AcDbLine
 10
425.3973170000000
 20
204.9677470000000
 30
0.000000000000000
 11
425.3973170000000
 21
198.8282470000000
 31
0.000000000000000
  0
LINE
  5
1A2
100
AcDbEntity
  8
4
  6
CENTER
 62
1
100
AcDbLine
 10
422.4401170000000
 20
201.8326470000000
 30
0.000000000000000
 11
428.3716169999998
 21
201.8326470000000
 31
0.000000000000000
  0
LINE
  5
1A3
100
AcDbEntity
  8
1
  6
CONTINUOUS
 62
7
100
AcDbLine
 10
425.3973879999999
 20
201.1763810000000
 30
0.000000000000000
 11
425.9224139999997
 21
200.9749269999999
 31
0.000000000000000
  0
LINE
  5
1A4
100
AcDbEntity
  8
1
  6
CONTINUOUS
 62
7
100
AcDbLine
 10
425.9224849999999
 20
200.9748559999999
 30
0.000000000000000
 11
426.1394250000001
 21
200.7652690000000
 31
0.000000000000000
  0
LINE
  5
1A5
100
AcDbEntity
  8
1
  6
CONTINUOUS
 62
7
100
AcDbLine
 10
426.0536529999999
 20
201.8326470000000
 30
0.000000000000000
 11
426.2551789999998
 21
201.3075499999999
 31
0.000000000000000
  0
LINE
  5
1A6
100
AcDbEntity
  8
1
  6
CONTINUOUS
 62
7
100
AcDbLine
 10
426.2551789999999
 20
201.3075499999999
 30
0.000000000000000
 11
426.4646950000000
 21
201.0905379999999
 31
0.000000000000000
  0
LINE
  5
1A7
100
AcDbEntity
  8
1
  6
CONTINUOUS
 62
7
100
AcDbLine
 10
424.7411220000000
 20
201.8326470000000
 30
0.000000000000000
 11
424.5395960000000
 21
201.3075499999999
 31
0.000000000000000
  0
LINE
  5
1A8
100
AcDbEntity
  8
1
  6
CONTINUOUS
 62
7
100
AcDbLine
 10
424.5395960000001
 20
201.3075500000000
 30
0.000000000000000
 11
424.3300099999999
 21
201.0906090000001
 31
0.000000000000000
  0
LINE
  5
1A9
100
AcDbEntity
  8
1
  6
CONTINUOUS
 62
7
100
AcDbLine
 10
425.3973880000000
 20
201.1763810000000
 30
0.000000000000000
 11
424.8722900000000
 21
200.9748559999999
 31
0.000000000000000
  0
LINE
  5
1AA
100
AcDbEntity
  8
1
  6
CONTINUOUS
 62
7
100
AcDbLine
 10
424.8722900000000
 20
200.9748559999999
 30
0.000000000000000
 11
424.6552079999998
 21
200.7652690000000
 31
0.000000000000000
  0
LINE
  5
1AB
100
AcDbEntity
  8
1
  6
CONTINUOUS
 62
7
100
AcDbLine
 10
425.3973880000000
 20
202.4889130000000
 30
0.000000000000000
 11
424.8722900000000
 21
202.6904379999999
 31
0.000000000000000
  0
LINE
  5
1AC
100
AcDbEntity
  8
1
  6
CONTINUOUS
 62
7
100
AcDbLine
 10
424.8722900000000
 20
202.6904379999999
 30
0.000000000000000
 11
424.6552079999998
 21
202.9000250000000
 31
0.000000000000000
  0
LINE
  5
1AD
100
AcDbEntity
  8
1
  6
CONTINUOUS
 62
7
100
AcDbLine
 10
424.7411220000001
 20
201.8326470000000
 30
0.000000000000000
 11
424.5395960000001
 21
202.3577449999999
 31
0.000000000000000
  0
LINE
  5
1AE
100
AcDbEntity
  8
1
  6
CONTINUOUS
 62
7
100
AcDbLine
 10
424.5395960000000
 20
202.3577449999999
 30
0.000000000000000
 11
424.3300099999997
 21
202.5746849999999
 31
0.000000000000000
  0
LINE
  5
1AF
100
AcDbEntity
  8
1
  6
CONTINUOUS
 62
7
100
AcDbLine
 10
425.9224849999998
 20
202.6904379999999
 30
0.000000000000000
 11
426.1394250000000
 21
202.9000250000000
 31
0.000000000000000
  0
LINE
  5
1B0
100
AcDbEntity
  8
1
  6
CONTINUOUS
 62
7
100
AcDbLine
 10
425.3973879999999
 20
202.4889130000000
 30
0.000000000000000
 11
425.9224849999998
 21
202.6904379999999
 31
0.000000000000000
  0
LINE
  5
1B1
100
AcDbEntity
  8
1
  6
CONTINUOUS
 62
7
100
AcDbLine
 10
426.2551789999999
 20
202.3577449999999
 30
0.000000000000000
 11
426.4646950000001
 21
202.5747560000000
 31
0.000000000000000
  0
LINE
  5
1B2
100
AcDbEntity
  8
1
  6
CONTINUOUS
 62
7
100
AcDbLine
 10
426.0536530000001
 20
201.8326470000000
 30
0.000000000000000
 11
426.2551080000000
 21
202.3576740000000
 31
0.000000000000000
  0
LINE
  5
1B3
100
AcDbEntity
  8
1
  6
CONTINUOUS
 62
7
100
AcDbLine
 10
427.8973169999998
 20
213.2965470000000
 30
0.000000000000000
 11
427.8973169999998
 21
208.2965469999999
 31
0.000000000000000
  0
ARC
  5
1B4
100
AcDbEntity
  8
1
  6
CONTINUOUS
 62
7
100
AcDbCircle
 10
446.5473170000000
 20
217.2965470000000
 30
0.000000000000000
 40
1.000000000000000
100
AcDbArc
 50
180.0000000000000
 51
270.0000000000000
  0
CIRCLE
  5
1B5
100
AcDbEntity
  8
1
  6
CONTINUOUS
 62
7
100
AcDbCircle
 10
442.3973170000000
 20
201.8326470000000
 30
0.000000000000000
 40
2.600000000000000
  0
ARC
  5
1B6
100
AcDbEntity
  8
1
  6
CONTINUOUS
 62
7
100
AcDbCircle
 10
442.3973170000000
 20
201.8326470000000
 30
0.000000000000000
 40
1.300000000000000
100
AcDbArc
 50
304.8090000000001
 51
325.1909999999998
  0
ARC
  5
1B7
100
AcDbEntity
  8
1
  6
CONTINUOUS
 62
7
100
AcDbCircle
 10
442.3973170000000
 20
201.8326470000000
 30
0.000000000000000
 40
1.300000000000000
100
AcDbArc
 50
214.8090000000000
 51
235.1909999999999
  0
ARC
  5
1B8
100
AcDbEntity
  8
1
  6
CONTINUOUS
 62
7
100
AcDbCircle
 10
442.3973170000000
 20
201.8326470000000
 30
0.000000000000000
 40
1.300000000000000
100
AcDbArc
 50
124.8094000000000
 51
145.1909999999998
  0
ARC
  5
1B9
100
AcDbEntity
  8
1
  6
CONTINUOUS
 62
7
100
AcDbCircle
 10
442.3973170000000
 20
201.8326470000000
 30
0.000000000000000
 40
1.300000000000000
100
AcDbArc
 50
34.80900000000000
 51
55.19060000000000
  0
LINE
  5
1BA
100
AcDbEntity
  8
4
  6
CENTER
 62
1
100
AcDbLine
 10
442.3973170000000
 20
204.9677470000000
 30
0.000000000000000
 11
442.3973170000000
 21
198.8282470000000
 31
0.000000000000000
  0
LINE
  5
1BB
100
AcDbEntity
  8
4
  6
CENTER
 62
1
100
AcDbLine
 10
439.4401170000000
 20
201.8326470000000
 30
0.000000000000000
 11
445.3716169999998
 21
201.8326470000000
 31
0.000000000000000
  0
LINE
  5
1BC
100
AcDbEntity
  8
1
  6
CONTINUOUS
 62
7
100
AcDbLine
 10
442.3973880000000
 20
201.1763810000000
 30
0.000000000000000
 11
442.9224849999997
 21
200.9748559999999
 31
0.000000000000000
  0
LINE
  5
1BD
100
AcDbEntity
  8
1
  6
CONTINUOUS
 62
7
100
AcDbLine
 10
442.9224849999998
 20
200.9748559999999
 30
0.000000000000000
 11
443.1394250000001
 21
200.7652690000001
 31
0.000000000000000
  0
LINE
  5
1BE
100
AcDbEntity
  8
1
  6
CONTINUOUS
 62
7
100
AcDbLine
 10
443.0536529999999
 20
201.8326470000000
 30
0.000000000000000
 11
443.2551789999997
 21
201.3075499999999
 31
0.000000000000000
  0
LINE
  5
1BF
100
AcDbEntity
  8
1
  6
CONTINUOUS
 62
7
100
AcDbLine
 10
443.2551789999996
 20
201.3075499999998
 30
0.000000000000000
 11
443.4646949999999
 21
201.0905379999998
 31
0.000000000000000
  0
LINE
  5
1C0
100
AcDbEntity
  8
1
  6
CONTINUOUS
 62
7
100
AcDbLine
 10
441.7411219999997
 20
201.8326470000000
 30
0.000000000000000
 11
441.5395960000000
 21
201.3075499999999
 31
0.000000000000000
  0
LINE
  5
1C1
100
AcDbEntity
  8
1
  6
CONTINUOUS
 62
7
100
AcDbLine
 10
441.5395960000000
 20
201.3075499999999
 30
0.000000000000000
 11
441.3299389999997
 21
201.0905379999999
 31
0.000000000000000
  0
LINE
  5
1C2
100
AcDbEntity
  8
1
  6
CONTINUOUS
 62
7
100
AcDbLine
 10
442.3973880000000
 20
201.1763810000000
 30
0.000000000000000
 11
441.8722900000001
 21
200.9748559999999
 31
0.000000000000000
  0
LINE
  5
1C3
100
AcDbEntity
  8
1
  6
CONTINUOUS
 62
7
100
AcDbLine
 10
441.8722900000000
 20
200.9748559999999
 30
0.000000000000000
 11
441.6552789999998
 21
200.7653399999999
 31
0.000000000000000
  0
LINE
  5
1C4
100
AcDbEntity
  8
1
  6
CONTINUOUS
 62
7
100
AcDbLine
 10
442.3973880000000
 20
202.4889130000000
 30
0.000000000000000
 11
441.8722900000000
 21
202.6904379999999
 31
0.000000000000000
  0
LINE
  5
1C5
100
AcDbEntity
  8
1
  6
CONTINUOUS
 62
7
100
AcDbLine
 10
441.8722900000001
 20
202.6904379999999
 30
0.000000000000000
 11
441.6552789999999
 21
202.8999540000000
 31
0.000000000000000
  0
LINE
  5
1C6
100
AcDbEntity
  8
1
  6
CONTINUOUS
 62
7
100
AcDbLine
 10
441.7411219999998
 20
201.8326470000000
 30
0.000000000000000
 11
441.5395960000001
 21
202.3577449999999
 31
0.000000000000000
  0
LINE
  5
1C7
100
AcDbEntity
  8
1
  6
CONTINUOUS
 62
7
100
AcDbLine
 10
441.5395960000000
 20
202.3577449999999
 30
0.000000000000000
 11
441.3300099999998
 21
202.5746849999999
 31
0.000000000000000
  0
LINE
  5
1C8
100
AcDbEntity
  8
1
  6
CONTINUOUS
 62
7
100
AcDbLine
 10
442.9224849999998
 20
202.6904379999999
 30
0.000000000000000
 11
443.1394250000001
 21
202.9000250000001
 31
0.000000000000000
  0
LINE
  5
1C9
100
AcDbEntity
  8
1
  6
CONTINUOUS
 62
7
100
AcDbLine
 10
442.3973880000000
 20
202.4889130000000
 30
0.000000000000000
 11
442.9224849999997
 21
202.6904379999999
 31
0.000000000000000
  0
LINE
  5
1CA
100
AcDbEntity
  8
1
  6
CONTINUOUS
 62
7
100
AcDbLine
 10
443.2551789999997
 20
202.3577449999999
 30
0.000000000000000
 11
443.4646950000000
 21
202.5747560000000
 31
0.000000000000000
  0
LINE
  5
1CB
100
AcDbEntity
  8
1
  6
CONTINUOUS
 62
7
100
AcDbLine
 10
443.0536530000000
 20
201.8326470000000
 30
0.000000000000000
 11
443.2551080000000
 21
202.3576740000000
 31
0.000000000000000
  0
LINE
  5
1CC
100
AcDbEntity
  8
1
  6
CONTINUOUS
 62
7
100
AcDbLine
 10
439.8973169999998
 20
213.2965470000000
 30
0.000000000000000
 11
439.8973169999998
 21
208.2965469999999
 31
0.000000000000000
  0
LINE
  5
1CD
100
AcDbEntity
  8
1
  6
CONTINUOUS
 62
7
100
AcDbLine
 10
423.2473170000000
 20
228.3326469999999
 30
0.000000000000000
 11
444.5473170000000
 21
228.3326469999999
 31
0.000000000000000
  0
ARC
  5
1CE
100
AcDbEntity
  8
1
  6
CONTINUOUS
 62
7
100
AcDbCircle
 10
423.2473170000000
 20
227.3326470000000
 30
0.000000000000000
 40
1.000000000000000
100
AcDbArc
 50
90.00000000000000
 51
180.0000000000000
  0
ARC
  5
1CF
100
AcDbEntity
  8
1
  6
CONTINUOUS
 62
7
100
AcDbCircle
 10
418.1473170000000
 20
238.3326470000000
 30
0.000000000000000
 40
2.000000000000000
100
AcDbArc
 50
180.0000000000000
 51
270.0000000000000
  0
ARC
  5
1D0
100
AcDbEntity
  8
1
  6
CONTINUOUS
 62
7
100
AcDbCircle
 10
444.5473170000000
 20
227.3326470000000
 30
0.000000000000000
 40
1.000000000000000
100
AcDbArc
 50
0.000000000000000
 51
90.00000000000000
  0
CIRCLE
  5
1D1
100
AcDbEntity
  8
1
  6
CONTINUOUS
 62
7
100
AcDbCircle
 10
433.8973170000000
 20
252.3326069999999
 30
0.000000000000000
 40
4.599999999999996
  0
CIRCLE
  5
1D2
100
AcDbEntity
  8
1
  6
CONTINUOUS
 62
7
100
AcDbCircle
 10
433.8973170000000
 20
252.3326069999999
 30
0.000000000000000
 40
4.500000000000000
  0
LINE
  5
1D3
100
AcDbEntity
  8
4
  6
CENTER
 62
1
100
AcDbLine
 10
441.3973170000000
 20
252.3326069999999
 30
0.000000000000000
 11
426.3973169999998
 21
252.3326069999999
 31
0.000000000000000
  0
LINE
  5
1D4
100
AcDbEntity
  8
1
  6
CONTINUOUS
 62
7
100
AcDbLine
 10
434.9183790000000
 20
252.3326070000000
 30
0.000000000000000
 11
435.1467749999999
 21
252.9612250000000
 31
0.000000000000000
  0
LINE
  5
1D5
100
AcDbEntity
  8
1
  6
CONTINUOUS
 62
7
100
AcDbLine
 10
435.1467750000000
 20
252.9612250000000
 30
0.000000000000000
 11
435.9012569999999
 21
253.7425779999999
 31
0.000000000000000
  0
LINE
  5
1D6
100
AcDbEntity
  8
1
  6
CONTINUOUS
 62
7
100
AcDbLine
 10
434.9183790000000
 20
252.3326069999999
 30
0.000000000000000
 11
435.1467750000000
 21
251.7039889999999
 31
0.000000000000000
  0
LINE
  5
1D7
100
AcDbEntity
  8
1
  6
CONTINUOUS
 62
7
100
AcDbLine
 10
435.1467750000000
 20
251.7039889999999
 30
0.000000000000000
 11
435.9012569999999
 21
250.9226359999999
 31
0.000000000000000
  0
ARC
  5
1D8
100
AcDbEntity
  8
1
  6
CONTINUOUS
 62
7
100
AcDbCircle
 10
433.8973170000000
 20
252.3326069999999
 30
0.000000000000000
 40
2.450000000000000
100
AcDbArc
 50
35.12899999999999
 51
54.87089000000000
  0
ARC
  5
1D9
100
AcDbEntity
  8
1
  6
CONTINUOUS
 62
7
100
AcDbCircle
 10
433.8973170000000
 20
252.3326069999999
 30
0.000000000000000
 40
2.450000000000000
100
AcDbArc
 50
305.1290000000000
 51
324.8709999999999
  0
LINE
  5
1DA
100
AcDbEntity
  8
1
  6
CONTINUOUS
 62
7
100
AcDbLine
 10
433.8973170000000
 20
253.3536690000000
 30
0.000000000000000
 11
434.5259349999998
 21
253.5820650000000
 31
0.000000000000000
  0
LINE
  5
1DB
100
AcDbEntity
  8
1
  6
CONTINUOUS
 62
7
100
AcDbLine
 10
433.8973169999999
 20
253.3536690000000
 30
0.000000000000000
 11
433.2686990000000
 21
253.5820649999999
 31
0.000000000000000
  0
LINE
  5
1DC
100
AcDbEntity
  8
1
  6
CONTINUOUS
 62
7
100
AcDbLine
 10
432.8769620000000
 20
252.3333140000001
 30
0.000000000000000
 11
432.6478589999999
 21
252.9612250000001
 31
0.000000000000000
  0
LINE
  5
1DD
100
AcDbEntity
  8
1
  6
CONTINUOUS
 62
7
100
AcDbLine
 10
432.8769619999999
 20
252.3333140000000
 30
0.000000000000000
 11
432.6478589999998
 21
251.7039889999999
 31
0.000000000000000
  0
LINE
  5
1DE
100
AcDbEntity
  8
1
  6
CONTINUOUS
 62
7
100
AcDbLine
 10
433.8980240000000
 20
251.3122520000000
 30
0.000000000000000
 11
433.2686990000001
 21
251.0831490000000
 31
0.000000000000000
  0
LINE
  5
1DF
100
AcDbEntity
  8
1
  6
CONTINUOUS
 62
7
100
AcDbLine
 10
433.8980240000001
 20
251.3122520000001
 30
0.000000000000000
 11
434.5259349999998
 21
251.0831490000001
 31
0.000000000000000
  0
ARC
  5
1E0
100
AcDbEntity
  8
1
  6
CONTINUOUS
 62
7
100
AcDbCircle
 10
433.8973170000000
 20
252.3326069999999
 30
0.000000000000000
 40
2.450000000000000
100
AcDbArc
 50
125.1291000000000
 51
144.8709000000000
  0
ARC
  5
1E1
100
AcDbEntity
  8
1
  6
CONTINUOUS
 62
7
100
AcDbCircle
 10
433.8973170000000
 20
252.3326069999999
 30
0.000000000000000
 40
2.450000000000000
100
AcDbArc
 50
215.1289999999999
 51
234.8710000000000
  0
LINE
  5
1E2
100
AcDbEntity
  8
1
  6
CONTINUOUS
 62
7
100
AcDbLine
 10
433.2686990000001
 20
253.5820650000000
 30
0.000000000000000
 11
432.4873460000001
 21
254.3365479999999
 31
0.000000000000000
  0
LINE
  5
1E3
100
AcDbEntity
  8
1
  6
CONTINUOUS
 62
7
100
AcDbLine
 10
432.6478589999997
 20
252.9612249999999
 30
0.000000000000000
 11
431.8933759999999
 21
253.7425779999998
 31
0.000000000000000
  0
LINE
  5
1E4
100
AcDbEntity
  8
1
  6
CONTINUOUS
 62
7
100
AcDbLine
 10
432.6478589999998
 20
251.7039889999999
 30
0.000000000000000
 11
431.8933760000000
 21
250.9226359999998
 31
0.000000000000000
  0
LINE
  5
1E5
100
AcDbEntity
  8
1
  6
CONTINUOUS
 62
7
100
AcDbLine
 10
433.2686990000000
 20
251.0831490000000
 30
0.000000000000000
 11
432.4873460000000
 21
250.3286660000001
 31
0.000000000000000
  0
LINE
  5
1E6
100
AcDbEntity
  8
1
  6
CONTINUOUS
 62
7
100
AcDbLine
 10
434.5259349999998
 20
253.5820650000000
 30
0.000000000000000
 11
435.3072880000000
 21
254.3365479999999
 31
0.000000000000000
  0
LINE
  5
1E7
100
AcDbEntity
  8
1
  6
CONTINUOUS
 62
7
100
AcDbLine
 10
434.5259349999997
 20
251.0831490000000
 30
0.000000000000000
 11
435.3072880000000
 21
250.3286660000000
 31
0.000000000000000
  0
LINE
  5
1E8
100
AcDbEntity
  8
1
  6
CONTINUOUS
 62
7
100
AcDbLine
 10
450.8973169999999
 20
236.7713469999999
 30
0.000000000000000
 11
450.8973169999999
 21
183.3326470000000
 31
0.000000000000000
  0
LINE
  5
1E9
100
AcDbEntity
  8
1
  6
CONTINUOUS
 62
7
100
AcDbLine
 10
447.9973170000000
 20
236.3326470000000
 30
0.000000000000000
 11
447.9973170000000
 21
186.3326470000000
 31
0.000000000000000
  0
LINE
  5
1EA
100
AcDbEntity
  8
1
  6
CONTINUOUS
 62
7
100
AcDbLine
 10
446.8973169999999
 20
215.2965470000000
 30
0.000000000000000
 11
446.8973169999999
 21
184.5465470000000
 31
0.000000000000000
  0
ARC
  5
1EB
100
AcDbEntity
  8
1
  6
CONTINUOUS
 62
7
100
AcDbCircle
 10
446.8973169999999
 20
183.3326470000000
 30
0.000000000000000
 40
4.000000000000000
100
AcDbArc
 50
270.0000000000000
 51
360.0000000000000
  0
ARC
  5
1EC
100
AcDbEntity
  8
1
  6
CONTINUOUS
 62
7
100
AcDbCircle
 10
446.9973170000000
 20
215.2965470000000
 30
0.000000000000000
 40
1.000000000000000
100
AcDbArc
 50
0.000000000000000
 51
90.00000000000000
  0
ARC
  5
1ED
100
AcDbEntity
  8
1
  6
CONTINUOUS
 62
7
100
AcDbCircle
 10
449.6473169999998
 20
238.3326470000000
 30
0.000000000000000
 40
2.000000000000000
100
AcDbArc
 50
270.0000000000000
 51
360.0000000000000
  0
ARC
  5
1EE
100
AcDbEntity
  8
1
  6
CONTINUOUS
 62
7
100
AcDbCircle
 10
433.8973170000000
 20
283.3326470000000
 30
0.000000000000000
 40
13.00000000000000
100
AcDbArc
 50
210.0000000000000
 51
420.0000000000000
  0
ARC
  5
1EF
100
AcDbEntity
  8
1
  6
CONTINUOUS
 62
7
100
AcDbCircle
 10
445.9973170000000
 20
296.3326470000000
 30
0.000000000000000
 40
2.000000000000000
100
AcDbArc
 50
0.000000000000000
 51
90.00000000000000
  0
CIRCLE
  5
1F0
100
AcDbEntity
  8
1
  6
CONTINUOUS
 62
7
100
AcDbCircle
 10
433.8973170000000
 20
283.3326470000000
 30
0.000000000000000
 40
14.10000000000000
  0
LINE
  5
1F1
100
AcDbEntity
  8
1
  6
CONTINUOUS
 62
7
100
AcDbLine
 10
449.6473169999998
 20
268.3326470000000
 30
0.000000000000000
 11
418.1473170000000
 21
268.3326470000000
 31
0.000000000000000
  0
LINE
  5
1F2
100
AcDbEntity
  8
1
  6
CONTINUOUS
 62
7
100
AcDbLine
 10
420.8973170000000
 20
303.3326469999999
 30
0.000000000000000
 11
446.8973169999999
 21
303.3326469999999
 31
0.000000000000000
  0
LINE
  5
1F3
100
AcDbEntity
  8
1
  6
CONTINUOUS
 62
7
100
AcDbLine
 10
438.8973169999998
 20
280.4456470000000
 30
0.000000000000000
 11
438.8973169999998
 21
286.2196470000000
 31
0.000000000000000
  0
LINE
  5
1F4
100
AcDbEntity
  8
1
  6
CONTINUOUS
 62
7
100
AcDbLine
 10
433.9002809999998
 20
284.8173770000001
 30
0.000000000000000
 11
435.2508079999998
 21
286.1215649999999
 31
0.000000000000000
  0
LINE
  5
1F5
100
AcDbEntity
  8
1
  6
CONTINUOUS
 62
7
100
AcDbLine
 10
432.5438259999999
 20
286.1215649999998
 30
0.000000000000000
 11
433.8943519999999
 21
284.8173770000001
 31
0.000000000000000
  0
ARC
  5
1F6
100
AcDbEntity
  8
1
  6
CONTINUOUS
 62
7
100
AcDbCircle
 10
433.8973170000000
 20
283.3326470000000
 30
0.000000000000000
 40
3.100000000000000
100
AcDbArc
 50
115.8877849999998
 51
154.1122149999999
  0
LINE
  5
1F7
100
AcDbEntity
  8
1
  6
CONTINUOUS
 62
7
100
AcDbLine
 10
428.8973170000000
 20
280.4456470000000
 30
0.000000000000000
 11
428.8973170000000
 21
286.2196470000000
 31
0.000000000000000
  0
CIRCLE
  5
1F8
100
AcDbEntity
  8
1
  6
CONTINUOUS
 62
7
100
AcDbCircle
 10
433.8973170000000
 20
283.3326470000000
 30
0.000000000000000
 40
5.000000000000000
  0
CIRCLE
  5
1F9
100
AcDbEntity
  8
1
  6
CONTINUOUS
 62
7
100
AcDbCircle
 10
433.8973170000000
 20
283.3326470000000
 30
0.000000000000000
 40
4.049999999999998
  0
ARC
  5
1FA
100
AcDbEntity
  8
1
  6
CONTINUOUS
 62
7
100
AcDbCircle
 10
433.8973170000000
 20
283.3326470000000
 30
0.000000000000000
 40
3.100000000000000
100
AcDbArc
 50
25.88778500000000
 51
64.11221500000001
  0
CIRCLE
  5
1FB
100
AcDbEntity
  8
1
  6
CONTINUOUS
 62
7
100
AcDbCircle
 10
433.8973170000000
 20
283.3326470000000
 30
0.000000000000000
 40
8.000000000000000
  0
CIRCLE
  5
1FC
100
AcDbEntity
  8
1
  6
CONTINUOUS
 62
7
100
AcDbCircle
 10
433.8973170000000
 20
283.3326470000000
 30
0.000000000000000
 40
11.00000000000000
  0
CIRCLE
  5
1FD
100
AcDbEntity
  8
1
  6
CONTINUOUS
 62
7
100
AcDbCircle
 10
433.8973170000000
 20
283.3326470000000
 30
0.000000000000000
 40
6.099999999999997
  0
ARC
  5
1FE
100
AcDbEntity
  8
1
  6
CONTINUOUS
 62
7
100
AcDbCircle
 10
433.8973170000000
 20
283.3326470000000
 30
0.000000000000000
 40
12.05000000000000
100
AcDbArc
 50
119.9999999999999
 51
210.0000000000000
  0
LINE
  5
1FF
100
AcDbEntity
  8
1
  6
CONTINUOUS
 62
7
100
AcDbLine
 10
419.7973170000000
 20
296.3326470000000
 30
0.000000000000000
 11
419.7973170000000
 21
268.3326470000000
 31
0.000000000000000
  0
LINE
  5
200
100
AcDbEntity
  8
1
  6
CONTINUOUS
 62
7
100
AcDbLine
 10
416.8973170000000
 20
299.3326469999999
 30
0.000000000000000
 11
416.8973170000000
 21
267.8938469999998
 31
0.000000000000000
  0
LINE
  5
201
100
AcDbEntity
  8
1
  6
CONTINUOUS
 62
7
100
AcDbLine
 10
428.8973169999999
 20
280.4456470000000
 30
0.000000000000000
 11
433.8973169999999
 21
277.5586469999999
 31
0.000000000000000
  0
LINE
  5
202
100
AcDbEntity
  8
1
  6
CONTINUOUS
 62
7
100
AcDbLine
 10
423.2473170000000
 20
269.2326469999998
 30
0.000000000000000
 11
444.5473170000000
 21
269.2326469999998
 31
0.000000000000000
  0
ARC
  5
203
100
AcDbEntity
  8
1
  6
CONTINUOUS
 62
7
100
AcDbCircle
 10
418.1473170000000
 20
266.3326070000000
 30
0.000000000000000
 40
2.000000000000000
100
AcDbArc
 50
90.00000000000000
 51
180.0000000000000
  0
ARC
  5
204
100
AcDbEntity
  8
1
  6
CONTINUOUS
 62
7
100
AcDbCircle
 10
423.2473170000000
 20
270.2326470000000
 30
0.000000000000000
 40
1.000000000000000
100
AcDbArc
 50
180.0000000000000
 51
270.0000000000000
  0
LINE
  5
205
100
AcDbEntity
  8
1
  6
CONTINUOUS
 62
7
100
AcDbLine
 10
424.3710490000001
 20
277.8326269999999
 30
0.000000000000000
 11
422.6390170000000
 21
276.8326470000000
 31
0.000000000000000
  0
LINE
  5
206
100
AcDbEntity
  8
1
  6
CONTINUOUS
 62
7
100
AcDbLine
 10
422.2473169999997
 20
275.3898469999999
 30
0.000000000000000
 11
422.2473169999997
 21
268.3326470000000
 31
0.000000000000000
  0
LINE
  5
207
100
AcDbEntity
  8
1
  6
CONTINUOUS
 62
7
100
AcDbLine
 10
433.8973169999998
 20
284.8164699999998
 30
0.000000000000000
 11
433.8943519999998
 21
284.8173770000000
 31
0.000000000000000
  0
LINE
  5
208
100
AcDbEntity
  8
1
  6
CONTINUOUS
 62
7
100
AcDbLine
 10
433.8973169999999
 20
284.8164699999998
 30
0.000000000000000
 11
433.9002809999997
 21
284.8173770000000
 31
0.000000000000000
  0
LINE
  5
209
100
AcDbEntity
  8
1
  6
CONTINUOUS
 62
7
100
AcDbLine
 10
435.2508079999998
 20
280.5437290000000
 30
0.000000000000000
 11
433.9002809999998
 21
281.8479169999999
 31
0.000000000000000
  0
LINE
  5
20A
100
AcDbEntity
  8
1
  6
CONTINUOUS
 62
7
100
AcDbLine
 10
435.3811400000000
 20
283.3326470000000
 30
0.000000000000000
 11
435.3820460000000
 21
283.3356120000000
 31
0.000000000000000
  0
LINE
  5
20B
100
AcDbEntity
  8
1
  6
CONTINUOUS
 62
7
100
AcDbLine
 10
435.3811400000000
 20
283.3326470000000
 30
0.000000000000000
 11
435.3820460000000
 21
283.3296820000000
 31
0.000000000000000
  0
LINE
  5
20C
100
AcDbEntity
  8
1
  6
CONTINUOUS
 62
7
100
AcDbLine
 10
433.8973170000000
 20
281.8488239999998
 30
0.000000000000000
 11
433.9002809999998
 21
281.8479169999998
 31
0.000000000000000
  0
LINE
  5
20D
100
AcDbEntity
  8
1
  6
CONTINUOUS
 62
7
100
AcDbLine
 10
433.8973169999998
 20
281.8488239999997
 30
0.000000000000000
 11
433.8943519999997
 21
281.8479169999997
 31
0.000000000000000
  0
LINE
  5
20E
100
AcDbEntity
  8
1
  6
CONTINUOUS
 62
7
100
AcDbLine
 10
432.4134940000000
 20
283.3326470000000
 30
0.000000000000000
 11
432.4125869999998
 21
283.3296820000000
 31
0.000000000000000
  0
LINE
  5
20F
100
AcDbEntity
  8
1
  6
CONTINUOUS
 62
7
100
AcDbLine
 10
432.4134940000000
 20
283.3326470000000
 30
0.000000000000000
 11
432.4125869999998
 21
283.3356120000001
 31
0.000000000000000
  0
LINE
  5
210
100
AcDbEntity
  8
1
  6
CONTINUOUS
 62
7
100
AcDbLine
 10
433.8943520000000
 20
281.8479169999998
 30
0.000000000000000
 11
432.5438259999999
 21
280.5437290000000
 31
0.000000000000000
  0
ARC
  5
211
100
AcDbEntity
  8
1
  6
CONTINUOUS
 62
7
100
AcDbCircle
 10
433.8973170000000
 20
283.3326470000000
 30
0.000000000000000
 40
3.100000000000000
100
AcDbArc
 50
205.8877850000000
 51
244.1122150000000
  0
LINE
  5
212
100
AcDbEntity
  8
1
  6
CONTINUOUS
 62
7
100
AcDbLine
 10
432.4125869999998
 20
283.3296820000000
 30
0.000000000000000
 11
431.1083990000001
 21
281.9791560000000
 31
0.000000000000000
  0
LINE
  5
213
100
AcDbEntity
  8
1
  6
CONTINUOUS
 62
7
100
AcDbLine
 10
431.1083990000001
 20
284.6861379999998
 30
0.000000000000000
 11
432.4125869999998
 21
283.3356120000000
 31
0.000000000000000
  0
LINE
  5
214
100
AcDbEntity
  8
1
  6
CONTINUOUS
 62
7
100
AcDbLine
 10
438.8973169999998
 20
280.4456469999999
 30
0.000000000000000
 11
433.8973169999999
 21
277.5586469999998
 31
0.000000000000000
  0
ARC
  5
215
100
AcDbEntity
  8
1
  6
CONTINUOUS
 62
7
100
AcDbCircle
 10
433.8973170000000
 20
283.3326470000000
 30
0.000000000000000
 40
3.100000000000000
100
AcDbArc
 50
295.8877850000000
 51
334.1122149999999
  0
LINE
  5
216
100
AcDbEntity
  8
1
  6
CONTINUOUS
 62
7
100
AcDbLine
 10
436.6862349999998
 20
281.9791560000000
 30
0.000000000000000
 11
435.3820460000000
 21
283.3296820000000
 31
0.000000000000000
  0
LINE
  5
217
100
AcDbEntity
  8
1
  6
CONTINUOUS
 62
7
100
AcDbLine
 10
435.3820460000001
 20
283.3356120000000
 30
0.000000000000000
 11
436.6862349999998
 21
284.6861379999997
 31
0.000000000000000
  0
ARC
  5
218
100
AcDbEntity
  8
1
  6
CONTINUOUS
 62
7
100
AcDbCircle
 10
444.5473170000000
 20
270.2326470000000
 30
0.000000000000000
 40
1.000000000000000
100
AcDbArc
 50
270.0000000000000
 51
360.0000000000000
  0
LINE
  5
219
100
AcDbEntity
  8
1
  6
CONTINUOUS
 62
7
100
AcDbLine
 10
445.5473170000000
 20
275.3898469999999
 30
0.000000000000000
 11
445.5473170000000
 21
268.3326470000000
 31
0.000000000000000
  0
LINE
  5
21A
100
AcDbEntity
  8
1
  6
CONTINUOUS
 62
7
100
AcDbLine
 10
433.8973170000000
 20
289.1056469999998
 30
0.000000000000000
 11
428.8973170000000
 21
286.2196470000000
 31
0.000000000000000
  0
LINE
  5
21B
100
AcDbEntity
  8
1
  6
CONTINUOUS
 62
7
100
AcDbLine
 10
421.7973170000000
 20
298.3326470000000
 30
0.000000000000000
 11
445.9973170000000
 21
298.3326470000000
 31
0.000000000000000
  0
ARC
  5
21C
100
AcDbEntity
  8
1
  6
CONTINUOUS
 62
7
100
AcDbCircle
 10
421.7973170000000
 20
296.3326470000000
 30
0.000000000000000
 40
2.000000000000000
100
AcDbArc
 50
90.00000000000000
 51
180.0000000000000
  0
ARC
  5
21D
100
AcDbEntity
  8
1
  6
CONTINUOUS
 62
7
100
AcDbCircle
 10
420.8973170000000
 20
299.3326469999999
 30
0.000000000000000
 40
4.000000000000000
100
AcDbArc
 50
90.00000000000000
 51
180.0000000000000
  0
LINE
  5
21E
100
AcDbEntity
  8
1
  6
CONTINUOUS
 62
7
100
AcDbLine
 10
428.3972949999998
 20
292.8589140000000
 30
0.000000000000000
 11
426.8473169999999
 21
295.5435469999998
 31
0.000000000000000
  0
LINE
  5
21F
100
AcDbEntity
  8
1
  6
CONTINUOUS
 62
7
100
AcDbLine
 10
433.8973170000000
 20
289.1056469999998
 30
0.000000000000000
 11
438.8973169999998
 21
286.2196470000000
 31
0.000000000000000
  0
LINE
  5
220
100
AcDbEntity
  8
1
  6
CONTINUOUS
 62
7
100
AcDbLine
 10
439.3973410000001
 20
292.8589129999999
 30
0.000000000000000
 11
440.9473170000001
 21
295.5435469999999
 31
0.000000000000000
  0
LINE
  5
221
100
AcDbEntity
  8
1
  6
CONTINUOUS
 62
7
100
AcDbLine
 10
447.9973170000000
 20
296.3326470000000
 30
0.000000000000000
 11
447.9973170000000
 21
268.3326470000000
 31
0.000000000000000
  0
LINE
  5
222
100
AcDbEntity
  8
1
  6
CONTINUOUS
 62
7
100
AcDbLine
 10
450.8973169999999
 20
299.3326469999999
 30
0.000000000000000
 11
450.8973169999999
 21
267.8938469999998
 31
0.000000000000000
  0
ARC
  5
223
100
AcDbEntity
  8
1
  6
CONTINUOUS
 62
7
100
AcDbCircle
 10
449.6473169999998
 20
266.3326070000000
 30
0.000000000000000
 40
2.000000000000000
100
AcDbArc
 50
0.000000000000000
 51
90.00000000000000
  0
ARC
  5
224
100
AcDbEntity
  8
1
  6
CONTINUOUS
 62
7
100
AcDbCircle
 10
446.8973169999999
 20
299.3326469999999
 30
0.000000000000000
 40
4.000000000000000
100
AcDbArc
 50
0.000000000000000
 51
90.00000000000000
  0
LINE
  5
225
100
AcDbEntity
  8
4
  6
CENTER
 62
1
100
AcDbLine
 10
256.5900169999999
 20
419.5643269999997
 30
0.000000000000000
 11
241.4900169999999
 21
419.5643269999997
 31
0.000000000000000
  0
LINE
  5
226
100
AcDbEntity
  8
1
  6
CONTINUOUS
 62
7
100
AcDbLine
 10
55.83905099999999
 20
419.0833200000000
 30
0.000000000000000
 11
78.61049699999998
 21
419.0833200000000
 31
0.000000000000000
  0
LINE
  5
227
100
AcDbEntity
  8
1
  6
CONTINUOUS
 62
7
100
AcDbLine
 10
55.83905099999999
 20
420.2833199999998
 30
0.000000000000000
 11
79.24632099999998
 21
420.2833199999998
 31
0.000000000000000
  0
LINE
  5
228
100
AcDbEntity
  8
1
  6
CONTINUOUS
 62
7
100
AcDbLine
 10
59.33905100000000
 20
422.6833199999998
 30
0.000000000000000
 11
76.83905100000000
 21
422.6833199999998
 31
0.000000000000000
  0
LINE
  5
229
100
AcDbEntity
  8
1
  6
CONTINUOUS
 62
7
100
AcDbLine
 10
59.33905100000000
 20
416.4833200000000
 30
0.000000000000000
 11
75.83905099999998
 21
416.4833200000000
 31
0.000000000000000
  0
LINE
  5
22A
100
AcDbEntity
  8
4
  6
CENTER
 62
1
100
AcDbLine
 10
29.59353800000000
 20
419.5833200000000
 30
0.000000000000000
 11
80.62795899999998
 21
419.5833200000000
 31
0.000000000000000
  0
LINE
  5
22B
100
AcDbEntity
  8
1
  6
CONTINUOUS
 62
7
100
AcDbLine
 10
31.67495000000005
 20
414.5794710000000
 30
0.000000000000000
 11
35.74531800000003
 21
408.4739200000000
 31
0.000000000000000
  0
LINE
  5
22C
100
AcDbEntity
  8
1
  6
CONTINUOUS
 62
7
100
AcDbLine
 10
31.67495000000000
 20
424.5871690000000
 30
0.000000000000000
 11
35.74531799999997
 21
430.6927200000000
 31
0.000000000000000
  0
LINE
  5
22D
100
AcDbEntity
  8
1
  6
CONTINUOUS
 62
7
100
AcDbLine
 10
31.33908700000000
 20
423.4777750000000
 30
0.000000000000000
 11
31.33908700000000
 21
415.6888770000000
 31
0.000000000000000
  0
LINE
  5
22E
100
AcDbEntity
  8
1
  6
CONTINUOUS
 62
7
100
AcDbLine
 10
31.33905100000000
 20
423.4777690000000
 30
0.000000000000000
 11
31.33905100000000
 21
415.6888710000000
 31
0.000000000000000
  0
ARC
  5
22F
100
AcDbEntity
  8
1
  6
CONTINUOUS
 62
7
100
AcDbCircle
 10
33.33905099999999
 20
415.6888710000000
 30
0.000000000000000
 40
2.000000000000000
100
AcDbArc
 50
180.0000000000000
 51
213.6900680000000
  0
ARC
  5
230
100
AcDbEntity
  8
1
  6
CONTINUOUS
 62
7
100
AcDbCircle
 10
33.33905099999999
 20
423.4777690000000
 30
0.000000000000000
 40
2.000000000000000
100
AcDbArc
 50
146.3099319999996
 51
180.0000000000000
  0
LINE
  5
231
100
AcDbEntity
  8
1
  6
CONTINUOUS
 62
7
100
AcDbLine
 10
52.33905100000000
 20
416.3333200000000
 30
0.000000000000000
 11
52.33905100000000
 21
422.8333199999998
 31
0.000000000000000
  0
ARC
  5
232
100
AcDbEntity
  8
1
  6
CONTINUOUS
 62
7
100
AcDbCircle
 10
35.80643600000000
 20
419.5833200000000
 30
0.000000000000000
 40
10.03262800000000
100
AcDbArc
 50
324.4619999999998
 51
395.5380000000000
  0
ARC
  5
233
100
AcDbEntity
  8
1
  6
CONTINUOUS
 62
7
100
AcDbCircle
 10
48.87166600000000
 20
419.5833200000000
 30
0.000000000000000
 40
10.03262800000000
100
AcDbArc
 50
144.4620000000000
 51
215.5377000000000
  0
LINE
  5
234
100
AcDbEntity
  8
1
  6
CONTINUOUS
 62
7
100
AcDbLine
 10
32.33905099999999
 20
415.6888710000000
 30
0.000000000000000
 11
32.33905099999999
 21
423.4777690000000
 31
0.000000000000000
  0
LINE
  5
235
100
AcDbEntity
  8
1
  6
CONTINUOUS
 62
7
100
AcDbLine
 10
37.33905099999999
 20
423.0833200000000
 30
0.000000000000000
 11
37.33905099999999
 21
416.0833199999998
 31
0.000000000000000
  0
LINE
  5
236
100
AcDbEntity
  8
1
  6
CONTINUOUS
 62
7
100
AcDbLine
 10
33.33905099999999
 20
423.0833200000000
 30
0.000000000000000
 11
33.33905099999999
 21
416.0833199999998
 31
0.000000000000000
  0
LINE
  5
237
100
AcDbEntity
  8
1
  6
CONTINUOUS
 62
7
100
AcDbLine
 10
52.33905099999998
 20
416.3333200000000
 30
0.000000000000000
 11
42.27238399999999
 21
408.7833199999999
 31
0.000000000000000
  0
LINE
  5
238
100
AcDbEntity
  8
1
  6
CONTINUOUS
 62
7
100
AcDbLine
 10
42.87238399999998
 20
407.9833200000000
 30
0.000000000000000
 11
52.33905099999998
 21
415.0833200000001
 31
0.000000000000000
  0
ARC
  5
239
100
AcDbEntity
  8
1
  6
CONTINUOUS
 62
7
100
AcDbCircle
 10
41.67238400000000
 20
409.5833200000000
 30
0.000000000000000
 40
1.000000000000000
100
AcDbArc
 50
270.0000000000000
 51
306.8698979999998
  0
ARC
  5
23A
100
AcDbEntity
  8
1
  6
CONTINUOUS
 62
7
100
AcDbCircle
 10
41.67238400000000
 20
409.5833200000000
 30
0.000000000000000
 40
2.000000000000000
100
AcDbArc
 50
270.0000000000000
 51
306.8698979999998
  0
ARC
  5
23B
100
AcDbEntity
  8
1
  6
CONTINUOUS
 62
7
100
AcDbCircle
 10
42.33826099999999
 20
414.9177309999998
 30
0.000000000000000
 40
2.004309000000000
100
AcDbArc
 50
270.0000000000000
 51
324.4619999999998
  0
LINE
  5
23C
100
AcDbEntity
  8
1
  6
CONTINUOUS
 62
7
100
AcDbLine
 10
40.20519500000000
 20
414.5293259999998
 30
0.000000000000000
 11
43.55873500000000
 21
414.5293259999998
 31
0.000000000000000
  0
LINE
  5
23D
100
AcDbEntity
  8
1
  6
CONTINUOUS
 62
7
100
AcDbLine
 10
43.77346300000000
 20
415.3061349999998
 30
0.000000000000000
 11
40.90463900000000
 21
415.3061349999998
 31
0.000000000000000
  0
LINE
  5
23E
100
AcDbEntity
  8
1
  6
CONTINUOUS
 62
7
100
AcDbLine
 10
40.41992299999999
 20
416.0845229999996
 30
0.000000000000000
 11
44.25659999999999
 21
416.0845229999996
 31
0.000000000000000
  0
LINE
  5
23F
100
AcDbEntity
  8
1
  6
CONTINUOUS
 62
7
100
AcDbLine
 10
41.40514300000000
 20
417.6397190000000
 30
0.000000000000000
 11
39.92099700000000
 21
417.6397190000000
 31
0.000000000000000
  0
ARC
  5
240
100
AcDbEntity
  8
1
  6
CONTINUOUS
 62
7
100
AcDbCircle
 10
40.90463900000000
 20
415.6961180000000
 30
0.000000000000000
 40
0.3889570000000000
100
AcDbArc
 50
206.0144000000000
 51
270.0000000000000
  0
ARC
  5
241
100
AcDbEntity
  8
1
  6
CONTINUOUS
 62
7
100
AcDbCircle
 10
48.87166600000000
 20
419.5833200000000
 30
0.000000000000000
 40
9.254918999999999
100
AcDbArc
 50
202.9440000000000
 51
206.0144000000000
  0
ARC
  5
242
100
AcDbEntity
  8
1
  6
CONTINUOUS
 62
7
100
AcDbCircle
 10
40.41992299999999
 20
416.0071580000000
 30
0.000000000000000
 40
0.07779100000000000
100
AcDbArc
 50
90.00000000000000
 51
202.9440000000000
  0
ARC
  5
243
100
AcDbEntity
  8
1
  6
CONTINUOUS
 62
7
100
AcDbCircle
 10
43.77346300000000
 20
415.6961180000000
 30
0.000000000000000
 40
0.3889570000000000
100
AcDbArc
 50
270.0000000000000
 51
333.9859999999998
  0
ARC
  5
244
100
AcDbEntity
  8
1
  6
CONTINUOUS
 62
7
100
AcDbCircle
 10
39.92099700000000
 20
417.5623540000000
 30
0.000000000000000
 40
0.07779100000000000
100
AcDbArc
 50
90.00000000000000
 51
192.7289000000000
  0
ARC
  5
245
100
AcDbEntity
  8
1
  6
CONTINUOUS
 62
7
100
AcDbCircle
 10
48.87166600000000
 20
419.5833200000000
 30
0.000000000000000
 40
9.254918999999999
100
AcDbArc
 50
192.7289000000000
 51
193.2680999999999
  0
ARC
  5
246
100
AcDbEntity
  8
1
  6
CONTINUOUS
 62
7
100
AcDbCircle
 10
48.87166600000000
 20
419.5833200000000
 30
0.000000000000000
 40
9.254918999999999
100
AcDbArc
 50
193.2680999999999
 51
195.2574999999999
  0
ARC
  5
247
100
AcDbEntity
  8
1
  6
CONTINUOUS
 62
7
100
AcDbCircle
 10
40.31887400000000
 20
417.2513149999998
 30
0.000000000000000
 40
0.3889570000000000
100
AcDbArc
 50
195.2574999999999
 51
270.0000000000000
  0
ARC
  5
248
100
AcDbEntity
  8
1
  6
CONTINUOUS
 62
7
100
AcDbCircle
 10
44.35922800000000
 20
417.2513149999998
 30
0.000000000000000
 40
0.3889570000000000
100
AcDbArc
 50
270.0000000000000
 51
344.7419999999997
  0
ARC
  5
249
100
AcDbEntity
  8
1
  6
CONTINUOUS
 62
7
100
AcDbCircle
 10
35.80643600000000
 20
419.5833200000000
 30
0.000000000000000
 40
9.254918999999999
100
AcDbArc
 50
344.7419999999997
 51
344.7940000000000
  0
ARC
  5
24A
100
AcDbEntity
  8
1
  6
CONTINUOUS
 62
7
100
AcDbCircle
 10
35.80643600000000
 20
419.5833200000000
 30
0.000000000000000
 40
9.254918999999999
100
AcDbArc
 50
344.7940000000000
 51
347.2709999999996
  0
ARC
  5
24B
100
AcDbEntity
  8
1
  6
CONTINUOUS
 62
7
100
AcDbCircle
 10
44.75710499999999
 20
417.5623540000000
 30
0.000000000000000
 40
0.07779100000000000
100
AcDbArc
 50
347.2709999999996
 51
450.0000000000000
  0
LINE
  5
24C
100
AcDbEntity
  8
1
  6
CONTINUOUS
 62
7
100
AcDbLine
 10
40.31887400000000
 20
416.8613320000000
 30
0.000000000000000
 11
44.35922800000000
 21
416.8613320000000
 31
0.000000000000000
  0
LINE
  5
24D
100
AcDbEntity
  8
1
  6
CONTINUOUS
 62
7
100
AcDbLine
 10
44.75710499999999
 20
417.6397190000000
 30
0.000000000000000
 11
43.27137899999999
 21
417.6397190000000
 31
0.000000000000000
  0
ARC
  5
24E
100
AcDbEntity
  8
1
  6
CONTINUOUS
 62
7
100
AcDbCircle
 10
44.25659999999999
 20
416.0071580000000
 30
0.000000000000000
 40
0.07779100000000000
100
AcDbArc
 50
337.0559999999998
 51
450.0000000000000
  0
ARC
  5
24F
100
AcDbEntity
  8
1
  6
CONTINUOUS
 62
7
100
AcDbCircle
 10
35.80643600000000
 20
419.5833200000000
 30
0.000000000000000
 40
9.254918999999999
100
AcDbArc
 50
333.9859999999998
 51
337.0559999999998
  0
ARC
  5
250
100
AcDbEntity
  8
1
  6
CONTINUOUS
 62
7
100
AcDbCircle
 10
42.33826099999999
 20
414.9177309999998
 30
0.000000000000000
 40
2.004309000000000
100
AcDbArc
 50
215.5377000000000
 51
256.5374000000000
  0
LINE
  5
251
100
AcDbEntity
  8
1
  6
CONTINUOUS
 62
7
100
AcDbLine
 10
36.57736799999998
 20
409.0286199999997
 30
0.000000000000000
 11
32.50700099999997
 21
415.1341709999997
 31
0.000000000000000
  0
ARC
  5
252
100
AcDbEntity
  8
1
  6
CONTINUOUS
 62
7
100
AcDbCircle
 10
33.33905099999999
 20
415.6888710000000
 30
0.000000000000000
 40
1.000000000000000
100
AcDbArc
 50
180.0000000000000
 51
213.6900680000000
  0
ARC
  5
253
100
AcDbEntity
  8
1
  6
CONTINUOUS
 62
7
100
AcDbCircle
 10
37.40941800000000
 20
409.5833200000000
 30
0.000000000000000
 40
1.000000000000000
100
AcDbArc
 50
213.6900680000000
 51
270.0000000000000
  0
ARC
  5
254
100
AcDbEntity
  8
1
  6
CONTINUOUS
 62
7
100
AcDbCircle
 10
37.40941800000000
 20
409.5833200000000
 30
0.000000000000000
 40
2.000000000000000
100
AcDbArc
 50
213.6900680000000
 51
270.0000000000000
  0
ARC
  5
255
100
AcDbEntity
  8
1
  6
CONTINUOUS
 62
7
100
AcDbCircle
 10
36.83905100000000
 20
416.0833199999998
 30
0.000000000000000
 40
0.5000000000000000
100
AcDbArc
 50
270.0000000000000
 51
360.0000000000000
  0
ARC
  5
256
100
AcDbEntity
  8
1
  6
CONTINUOUS
 62
7
100
AcDbCircle
 10
33.83905099999999
 20
416.0833199999998
 30
0.000000000000000
 40
0.5000000000000000
100
AcDbArc
 50
180.0000000000000
 51
270.0000000000000
  0
LINE
  5
257
100
AcDbEntity
  8
1
  6
CONTINUOUS
 62
7
100
AcDbLine
 10
33.83905099999999
 20
415.5833200000000
 30
0.000000000000000
 11
36.83905100000000
 21
415.5833200000000
 31
0.000000000000000
  0
LINE
  5
258
100
AcDbEntity
  8
1
  6
CONTINUOUS
 62
7
100
AcDbLine
 10
41.67238400000000
 20
408.5833200000000
 30
0.000000000000000
 11
37.40941800000000
 21
408.5833200000000
 31
0.000000000000000
  0
LINE
  5
259
100
AcDbEntity
  8
1
  6
CONTINUOUS
 62
7
100
AcDbLine
 10
37.40941800000000
 20
407.5833199999998
 30
0.000000000000000
 11
41.67238400000000
 21
407.5833199999998
 31
0.000000000000000
  0
ARC
  5
25A
100
AcDbEntity
  8
1
  6
CONTINUOUS
 62
7
100
AcDbCircle
 10
59.03905100000000
 20
415.3833200000000
 30
0.000000000000000
 40
0.3000000000000000
100
AcDbArc
 50
270.0000000000000
 51
360.0000000000000
  0
LINE
  5
25B
100
AcDbEntity
  8
1
  6
CONTINUOUS
 62
7
100
AcDbLine
 10
59.33905100000000
 20
416.4833200000000
 30
0.000000000000000
 11
59.33905100000000
 21
415.3833200000000
 31
0.000000000000000
  0
LINE
  5
25C
100
AcDbEntity
  8
1
  6
CONTINUOUS
 62
7
100
AcDbLine
 10
52.33905100000000
 20
415.0833200000000
 30
0.000000000000000
 11
59.03905100000000
 21
415.0833200000000
 31
0.000000000000000
  0
LINE
  5
25D
100
AcDbEntity
  8
1
  6
CONTINUOUS
 62
7
100
AcDbLine
 10
42.27238400000002
 20
430.3833200000000
 30
0.000000000000000
 11
52.33905099999998
 21
422.8333199999997
 31
0.000000000000000
  0
LINE
  5
25E
100
AcDbEntity
  8
1
  6
CONTINUOUS
 62
7
100
AcDbLine
 10
42.87238399999998
 20
431.1833199999999
 30
0.000000000000000
 11
52.33905100000001
 21
424.0833199999998
 31
0.000000000000000
  0
ARC
  5
25F
100
AcDbEntity
  8
1
  6
CONTINUOUS
 62
7
100
AcDbCircle
 10
41.67238400000000
 20
429.5833200000000
 30
0.000000000000000
 40
1.000000000000000
100
AcDbArc
 50
53.13010200000000
 51
90.00000000000000
  0
ARC
  5
260
100
AcDbEntity
  8
1
  6
CONTINUOUS
 62
7
100
AcDbCircle
 10
41.67238400000000
 20
429.5833200000000
 30
0.000000000000000
 40
2.000000000000000
100
AcDbArc
 50
53.13010200000000
 51
90.00000000000000
  0
LINE
  5
261
100
AcDbEntity
  8
1
  6
CONTINUOUS
 62
7
100
AcDbLine
 10
39.62574599999999
 20
419.9733039999999
 30
0.000000000000000
 11
45.05235600000000
 21
419.9733039999999
 31
0.000000000000000
  0
LINE
  5
262
100
AcDbEntity
  8
1
  6
CONTINUOUS
 62
7
100
AcDbLine
 10
42.33826099999999
 20
419.1949160000000
 30
0.000000000000000
 11
42.33826099999999
 21
418.4181069999998
 31
0.000000000000000
  0
LINE
  5
263
100
AcDbEntity
  8
1
  6
CONTINUOUS
 62
7
100
AcDbLine
 10
39.69048000000000
 20
418.4181069999998
 30
0.000000000000000
 11
44.98762199999998
 21
418.4181069999998
 31
0.000000000000000
  0
LINE
  5
264
100
AcDbEntity
  8
1
  6
CONTINUOUS
 62
7
100
AcDbLine
 10
39.62574599999999
 20
419.1949160000000
 30
0.000000000000000
 11
45.05235600000000
 21
419.1949160000000
 31
0.000000000000000
  0
LINE
  5
265
100
AcDbEntity
  8
1
  6
CONTINUOUS
 62
7
100
AcDbLine
 10
41.40514300000000
 20
421.5284999999998
 30
0.000000000000000
 11
40.14361899999999
 21
421.5284999999998
 31
0.000000000000000
  0
LINE
  5
266
100
AcDbEntity
  8
1
  6
CONTINUOUS
 62
7
100
AcDbLine
 10
42.33826099999999
 20
421.5284999999998
 30
0.000000000000000
 11
42.33826099999999
 21
421.1400959999998
 31
0.000000000000000
  0
LINE
  5
267
100
AcDbEntity
  8
1
  6
CONTINUOUS
 62
7
100
AcDbLine
 10
40.14835500000000
 20
423.0836969999998
 30
0.000000000000000
 11
41.94985700000000
 21
423.0836969999998
 31
0.000000000000000
  0
LINE
  5
268
100
AcDbEntity
  8
1
  6
CONTINUOUS
 62
7
100
AcDbLine
 10
41.94985700000000
 20
423.8620840000000
 30
0.000000000000000
 11
40.28887600000000
 21
423.8620840000000
 31
0.000000000000000
  0
LINE
  5
269
100
AcDbEntity
  8
1
  6
CONTINUOUS
 62
7
100
AcDbLine
 10
42.33826099999999
 20
423.4721009999995
 30
0.000000000000000
 11
44.20449699999998
 21
423.4721009999995
 31
0.000000000000000
  0
LINE
  5
26A
100
AcDbEntity
  8
1
  6
CONTINUOUS
 62
7
100
AcDbLine
 10
43.79398900000000
 20
424.2568039999999
 30
0.000000000000000
 11
40.51623399999997
 21
425.1362399999997
 31
0.000000000000000
  0
LINE
  5
26B
100
AcDbEntity
  8
1
  6
CONTINUOUS
 62
7
100
AcDbLine
 10
42.33826099999999
 20
426.2540870000000
 30
0.000000000000000
 11
42.33826099999999
 21
424.6467879999998
 31
0.000000000000000
  0
ARC
  5
26C
100
AcDbEntity
  8
1
  6
CONTINUOUS
 62
7
100
AcDbCircle
 10
41.94985700000000
 20
423.4721009999995
 30
0.000000000000000
 40
0.3889570000000000
100
AcDbArc
 50
270.0000000000000
 51
450.0000000000000
  0
ARC
  5
26D
100
AcDbEntity
  8
1
  6
CONTINUOUS
 62
7
100
AcDbCircle
 10
42.33826099999999
 20
424.2504889999996
 30
0.000000000000000
 40
2.004309000000000
100
AcDbArc
 50
62.25000000000000
 51
144.4620000000000
  0
ARC
  5
26E
100
AcDbEntity
  8
1
  6
CONTINUOUS
 62
7
100
AcDbCircle
 10
42.33826099999999
 20
424.2504889999996
 30
0.000000000000000
 40
2.004309000000000
100
AcDbArc
 50
35.53799999999996
 51
45.69899999999998
  0
ARC
  5
26F
100
AcDbEntity
  8
1
  6
CONTINUOUS
 62
7
100
AcDbCircle
 10
40.14361899999999
 20
421.1400959999998
 30
0.000000000000000
 40
0.3889570000000000
100
AcDbArc
 50
90.00000000000000
 51
169.8960000000000
  0
ARC
  5
270
100
AcDbEntity
  8
1
  6
CONTINUOUS
 62
7
100
AcDbCircle
 10
48.87166600000000
 20
419.5833200000000
 30
0.000000000000000
 40
9.254918999999999
100
AcDbArc
 50
169.8960000000000
 51
172.2069999999999
  0
ARC
  5
271
100
AcDbEntity
  8
1
  6
CONTINUOUS
 62
7
100
AcDbCircle
 10
39.77889700000000
 20
420.8290560000000
 30
0.000000000000000
 40
0.07779100000000000
100
AcDbArc
 50
172.2069999999999
 51
270.0000000000000
  0
ARC
  5
272
100
AcDbEntity
  8
1
  6
CONTINUOUS
 62
7
100
AcDbCircle
 10
44.53448300000000
 20
421.1400959999998
 30
0.000000000000000
 40
0.3889570000000000
100
AcDbArc
 50
10.10399999999999
 51
90.00000000000000
  0
ARC
  5
273
100
AcDbEntity
  8
1
  6
CONTINUOUS
 62
7
100
AcDbCircle
 10
44.89920399999999
 20
420.8290560000000
 30
0.000000000000000
 40
0.07779100000000000
100
AcDbArc
 50
270.0000000000000
 51
367.7930000000000
  0
ARC
  5
274
100
AcDbEntity
  8
1
  6
CONTINUOUS
 62
7
100
AcDbCircle
 10
35.80643600000000
 20
419.5833200000000
 30
0.000000000000000
 40
9.254918999999999
100
AcDbArc
 50
7.792999999999998
 51
10.10399999999999
  0
LINE
  5
275
100
AcDbEntity
  8
1
  6
CONTINUOUS
 62
7
100
AcDbLine
 10
39.77889700000000
 20
420.7501119999998
 30
0.000000000000000
 11
44.89920399999999
 21
420.7501119999998
 31
0.000000000000000
  0
LINE
  5
276
100
AcDbEntity
  8
1
  6
CONTINUOUS
 62
7
100
AcDbLine
 10
44.53448300000000
 20
421.5284999999998
 30
0.000000000000000
 11
42.33826099999999
 21
421.5284999999998
 31
0.000000000000000
  0
LINE
  5
277
100
AcDbEntity
  8
1
  6
CONTINUOUS
 62
7
100
AcDbLine
 10
39.78205499999999
 20
422.3053089999998
 30
0.000000000000000
 11
44.65131999999999
 21
422.3053089999998
 31
0.000000000000000
  0
ARC
  5
278
100
AcDbEntity
  8
1
  6
CONTINUOUS
 62
7
100
AcDbCircle
 10
37.40941800000000
 20
429.5833200000000
 30
0.000000000000000
 40
1.000000000000000
100
AcDbArc
 50
90.00000000000000
 51
146.3099319999996
  0
ARC
  5
279
100
AcDbEntity
  8
1
  6
CONTINUOUS
 62
7
100
AcDbCircle
 10
37.40941800000000
 20
429.5833200000000
 30
0.000000000000000
 40
2.000000000000000
100
AcDbArc
 50
90.00000000000000
 51
146.3099319999996
  0
ARC
  5
27A
100
AcDbEntity
  8
1
  6
CONTINUOUS
 62
7
100
AcDbCircle
 10
33.33905099999999
 20
423.4777690000000
 30
0.000000000000000
 40
1.000000000000000
100
AcDbArc
 50
146.3099319999996
 51
180.0000000000000
  0
ARC
  5
27B
100
AcDbEntity
  8
1
  6
CONTINUOUS
 62
7
100
AcDbCircle
 10
33.83905099999999
 20
423.0833200000000
 30
0.000000000000000
 40
0.5000000000000000
100
AcDbArc
 50
90.00000000000000
 51
180.0000000000000
  0
ARC
  5
27C
100
AcDbEntity
  8
1
  6
CONTINUOUS
 62
7
100
AcDbCircle
 10
36.83905100000000
 20
423.0833200000000
 30
0.000000000000000
 40
0.5000000000000000
100
AcDbArc
 50
0.000000000000000
 51
90.00000000000000
  0
LINE
  5
27D
100
AcDbEntity
  8
1
  6
CONTINUOUS
 62
7
100
AcDbLine
 10
33.83905099999999
 20
423.5833200000000
 30
0.000000000000000
 11
36.83905100000000
 21
423.5833200000000
 31
0.000000000000000
  0
LINE
  5
27E
100
AcDbEntity
  8
1
  6
CONTINUOUS
 62
7
100
AcDbLine
 10
36.57736800000001
 20
430.1380199999998
 30
0.000000000000000
 11
32.50700100000003
 21
424.0324689999998
 31
0.000000000000000
  0
LINE
  5
27F
100
AcDbEntity
  8
1
  6
CONTINUOUS
 62
7
100
AcDbLine
 10
37.40941800000000
 20
430.5833200000000
 30
0.000000000000000
 11
41.67238400000000
 21
430.5833200000000
 31
0.000000000000000
  0
LINE
  5
280
100
AcDbEntity
  8
1
  6
CONTINUOUS
 62
7
100
AcDbLine
 10
37.40941800000000
 20
431.5833200000000
 30
0.000000000000000
 11
41.67238400000000
 21
431.5833200000000
 31
0.000000000000000
  0
ARC
  5
281
100
AcDbEntity
  8
1
  6
CONTINUOUS
 62
7
100
AcDbCircle
 10
59.03905100000000
 20
423.7833199999998
 30
0.000000000000000
 40
0.3000000000000000
100
AcDbArc
 50
0.000000000000000
 51
90.00000000000000
  0
LINE
  5
282
100
AcDbEntity
  8
1
  6
CONTINUOUS
 62
7
100
AcDbLine
 10
59.33905100000000
 20
423.7833199999998
 30
0.000000000000000
 11
59.33905100000000
 21
422.6833199999998
 31
0.000000000000000
  0
LINE
  5
283
100
AcDbEntity
  8
1
  6
CONTINUOUS
 62
7
100
AcDbLine
 10
55.83905099999999
 20
420.2833199999998
 30
0.000000000000000
 11
55.83905099999999
 21
419.0833200000000
 31
0.000000000000000
  0
LINE
  5
284
100
AcDbEntity
  8
1
  6
CONTINUOUS
 62
7
100
AcDbLine
 10
52.33905100000000
 20
424.0833199999998
 30
0.000000000000000
 11
59.03905100000000
 21
424.0833199999998
 31
0.000000000000000
  0
LINE
  5
285
100
AcDbEntity
  8
1
  6
CONTINUOUS
 62
7
100
AcDbLine
 10
75.83905099999996
 20
416.4833199999999
 30
0.000000000000000
 11
79.18114500000001
 21
419.6186670000000
 31
0.000000000000000
  0
LINE
  5
286
100
AcDbEntity
  8
1
  6
CONTINUOUS
 62
7
100
AcDbLine
 10
76.83905099999998
 20
422.6833199999999
 30
0.000000000000000
 11
79.19206899999998
 21
420.3374079999999
 31
0.000000000000000
  0
ARC
  5
287
100
AcDbEntity
  8
1
  6
CONTINUOUS
 62
7
100
AcDbCircle
 10
78.83905099999998
 20
419.9833199999998
 30
0.000000000000000
 40
0.5000000000000000
100
AcDbArc
 50
313.1718549999998
 51
405.0866460000000
  0
LINE
  5
288
100
AcDbEntity
  8
1
  6
CONTINUOUS
 62
7
100
AcDbLine
 10
188.5472169999999
 20
436.5643269999998
 30
0.000000000000000
 11
192.0472170000000
 21
436.5643269999998
 31
0.000000000000000
  0
LINE
  5
289
100
AcDbEntity
  8
1
  6
CONTINUOUS
 62
7
100
AcDbLine
 10
188.5472169999999
 20
402.5643269999997
 30
0.000000000000000
 11
192.0472170000000
 21
402.5643269999997
 31
0.000000000000000
  0
LINE
  5
28A
100
AcDbEntity
  8
4
  6
CENTER
 62
1
100
AcDbLine
 10
182.6475169999999
 20
419.5643269999997
 30
0.000000000000000
 11
229.0475170000000
 21
419.5643269999997
 31
0.000000000000000
  0
ARC
  5
28B
100
AcDbEntity
  8
1
  6
CONTINUOUS
 62
7
100
AcDbCircle
 10
285.6475169999999
 20
419.5643269999997
 30
0.000000000000000
 40
100.0000000000000
100
AcDbArc
 50
175.4520760000000
 51
184.5479239999999
  0
LINE
  5
28C
100
AcDbEntity
  8
1
  6
CONTINUOUS
 62
7
100
AcDbLine
 10
191.0472170000000
 20
436.5643269999998
 30
0.000000000000000
 11
191.0472170000000
 21
402.5643269999997
 31
0.000000000000000
  0
LINE
  5
28D
100
AcDbEntity
  8
1
  6
CONTINUOUS
 62
7
100
AcDbLine
 10
188.5472169999999
 20
436.5643269999998
 30
0.000000000000000
 11
188.5472169999999
 21
402.5643269999997
 31
0.000000000000000
  0
LINE
  5
28E
100
AcDbEntity
  8
1
  6
CONTINUOUS
 62
7
100
AcDbLine
 10
186.0472169999999
 20
428.5643269999998
 30
0.000000000000000
 11
186.0472169999999
 21
410.5643269999998
 31
0.000000000000000
  0
ARC
  5
28F
100
AcDbEntity
  8
1
  6
CONTINUOUS
 62
7
100
AcDbCircle
 10
186.9592319999999
 20
411.7143270000000
 30
0.000000000000000
 40
1.000000000000000
100
AcDbArc
 50
184.5479239999999
 51
204.2146199999999
  0
LINE
  5
290
100
AcDbEntity
  8
1
  6
CONTINUOUS
 62
7
100
AcDbLine
 10
186.0472169999998
 20
410.5643269999998
 30
0.000000000000000
 11
188.5472169999998
 21
402.5643269999997
 31
0.000000000000000
  0
ARC
  5
291
100
AcDbEntity
  8
1
  6
CONTINUOUS
 62
7
100
AcDbCircle
 10
186.9592319999999
 20
427.4143269999997
 30
0.000000000000000
 40
1.000000000000000
100
AcDbArc
 50
155.7853800000000
 51
175.4520760000000
  0
LINE
  5
292
100
AcDbEntity
  8
1
  6
CONTINUOUS
 62
7
100
AcDbLine
 10
188.5472169999999
 20
436.5643269999998
 30
0.000000000000000
 11
186.0472169999999
 21
428.5643269999998
 31
0.000000000000000
  0
LINE
  5
293
100
AcDbEntity
  8
2
  6
CONTINUOUS
 62
4
100
AcDbLine
 10
222.0475169999999
 20
417.2073270000001
 30
0.000000000000000
 11
226.0475169999998
 21
412.4933270000000
 31
0.000000000000000
  0
LINE
  5
294
100
AcDbEntity
  8
2
  6
CONTINUOUS
 62
4
100
AcDbLine
 10
226.0475169999997
 20
419.5643269999997
 30
0.000000000000000
 11
222.0475169999999
 21
414.8503269999998
 31
0.000000000000000
  0
LINE
  5
295
100
AcDbEntity
  8
2
  6
CONTINUOUS
 62
4
100
AcDbLine
 10
226.0475169999998
 20
426.6353269999997
 30
0.000000000000000
 11
222.0475169999998
 21
421.9213269999999
 31
0.000000000000000
  0
LINE
  5
296
100
AcDbEntity
  8
2
  6
CONTINUOUS
 62
4
100
AcDbLine
 10
222.0475169999999
 20
424.2783269999998
 30
0.000000000000000
 11
226.0475169999998
 21
419.5643269999997
 31
0.000000000000000
  0
LINE
  5
297
100
AcDbEntity
  8
1
  6
CONTINUOUS
 62
7
100
AcDbLine
 10
222.0475169999999
 20
419.5643269999997
 30
0.000000000000000
 11
226.0475169999998
 21
419.5643269999997
 31
0.000000000000000
  0
LINE
  5
298
100
AcDbEntity
  8
1
  6
CONTINUOUS
 62
7
100
AcDbLine
 10
222.0475169999999
 20
426.6353269999997
 30
0.000000000000000
 11
226.0475169999998
 21
426.6353269999997
 31
0.000000000000000
  0
LINE
  5
299
100
AcDbEntity
  8
1
  6
CONTINUOUS
 62
7
100
AcDbLine
 10
222.0475169999999
 20
412.4933270000000
 30
0.000000000000000
 11
226.0475169999998
 21
412.4933270000000
 31
0.000000000000000
  0
LINE
  5
29A
100
AcDbEntity
  8
1
  6
CONTINUOUS
 62
7
100
AcDbLine
 10
221.8475170000000
 20
426.6143269999998
 30
0.000000000000000
 11
221.8475170000000
 21
412.5143269999998
 31
0.000000000000000
  0
LINE
  5
29B
100
AcDbEntity
  8
1
  6
CONTINUOUS
 62
7
100
AcDbLine
 10
192.0472170000000
 20
436.5643269999998
 30
0.000000000000000
 11
192.0472170000000
 21
402.5643269999997
 31
0.000000000000000
  0
LINE
  5
29C
100
AcDbEntity
  8
1
  6
CONTINUOUS
 62
7
100
AcDbLine
 10
194.0472169999999
 20
432.6393269999998
 30
0.000000000000000
 11
194.0472169999999
 21
406.4897270000000
 31
0.000000000000000
  0
LINE
  5
29D
100
AcDbEntity
  8
1
  6
CONTINUOUS
 62
7
100
AcDbLine
 10
222.0475169999999
 20
432.5643269999998
 30
0.000000000000000
 11
222.0475169999999
 21
408.3060269999998
 31
0.000000000000000
  0
LINE
  5
29E
100
AcDbEntity
  8
1
  6
CONTINUOUS
 62
7
100
AcDbLine
 10
205.0472169999999
 20
412.5143269999998
 30
0.000000000000000
 11
221.8475170000000
 21
412.5143269999998
 31
0.000000000000000
  0
LINE
  5
29F
100
AcDbEntity
  8
1
  6
CONTINUOUS
 62
7
100
AcDbLine
 10
205.0472169999999
 20
407.5143269999998
 30
0.000000000000000
 11
218.8475169999999
 21
407.5143269999998
 31
0.000000000000000
  0
ARC
  5
2A0
100
AcDbEntity
  8
1
  6
CONTINUOUS
 62
7
100
AcDbCircle
 10
193.0472169999999
 20
406.4897270000000
 30
0.000000000000000
 40
1.000000000000000
100
AcDbArc
 50
271.4320000000000
 51
360.0000000000000
  0
ARC
  5
2A1
100
AcDbEntity
  8
1
  6
CONTINUOUS
 62
7
100
AcDbCircle
 10
204.0472170000000
 20
406.7897270000000
 30
0.000000000000000
 40
1.000000000000000
100
AcDbArc
 50
271.4320000000000
 51
360.0000000000000
  0
LINE
  5
2A2
100
AcDbEntity
  8
1
  6
CONTINUOUS
 62
7
100
AcDbLine
 10
205.0472169999999
 20
412.5143269999998
 30
0.000000000000000
 11
205.0472169999999
 21
406.7897270000000
 31
0.000000000000000
  0
LINE
  5
2A3
100
AcDbEntity
  8
1
  6
CONTINUOUS
 62
7
100
AcDbLine
 10
192.0472170000000
 20
405.4643270000000
 30
0.000000000000000
 11
204.0722170000000
 21
405.7900270000000
 31
0.000000000000000
  0
LINE
  5
2A4
100
AcDbEntity
  8
1
  6
CONTINUOUS
 62
7
100
AcDbLine
 10
219.8475170000000
 20
412.3643270000000
 30
0.000000000000000
 11
220.0475170000000
 21
412.3643270000000
 31
0.000000000000000
  0
LINE
  5
2A5
100
AcDbEntity
  8
1
  6
CONTINUOUS
 62
7
100
AcDbLine
 10
219.8475170000000
 20
408.5143269999998
 30
0.000000000000000
 11
219.8475170000000
 21
412.5143269999998
 31
0.000000000000000
  0
ARC
  5
2A6
100
AcDbEntity
  8
1
  6
CONTINUOUS
 62
7
100
AcDbCircle
 10
218.8475169999999
 20
408.5143269999998
 30
0.000000000000000
 40
1.000000000000000
100
AcDbArc
 50
270.0000000000000
 51
360.0000000000000
  0
LINE
  5
2A7
100
AcDbEntity
  8
1
  6
CONTINUOUS
 62
7
100
AcDbLine
 10
220.0475170000000
 20
409.5643270000000
 30
0.000000000000000
 11
222.0475169999999
 21
409.5643270000000
 31
0.000000000000000
  0
LINE
  5
2A8
100
AcDbEntity
  8
1
  6
CONTINUOUS
 62
7
100
AcDbLine
 10
220.0475170000000
 20
408.3060269999998
 30
0.000000000000000
 11
222.0475169999999
 21
408.3060269999998
 31
0.000000000000000
  0
LINE
  5
2A9
100
AcDbEntity
  8
1
  6
CONTINUOUS
 62
7
100
AcDbLine
 10
220.0475170000000
 20
412.5143269999998
 30
0.000000000000000
 11
220.0475170000000
 21
408.3060269999998
 31
0.000000000000000
  0
LINE
  5
2AA
100
AcDbEntity
  8
1
  6
CONTINUOUS
 62
7
100
AcDbLine
 10
205.0472169999999
 20
426.6143269999998
 30
0.000000000000000
 11
221.8475170000000
 21
426.6143269999998
 31
0.000000000000000
  0
LINE
  5
2AB
100
AcDbEntity
  8
1
  6
CONTINUOUS
 62
7
100
AcDbLine
 10
205.0472169999999
 20
431.6143269999998
 30
0.000000000000000
 11
218.8475169999999
 21
431.6143269999998
 31
0.000000000000000
  0
ARC
  5
2AC
100
AcDbEntity
  8
1
  6
CONTINUOUS
 62
7
100
AcDbCircle
 10
193.0472169999999
 20
432.6393269999998
 30
0.000000000000000
 40
1.000000000000000
100
AcDbArc
 50
0.000000000000000
 51
88.56789999999998
  0
ARC
  5
2AD
100
AcDbEntity
  8
1
  6
CONTINUOUS
 62
7
100
AcDbCircle
 10
204.0472170000000
 20
432.3393269999998
 30
0.000000000000000
 40
1.000000000000000
100
AcDbArc
 50
0.000000000000000
 51
88.56789999999998
  0
LINE
  5
2AE
100
AcDbEntity
  8
1
  6
CONTINUOUS
 62
7
100
AcDbLine
 10
192.0472170000000
 20
433.6643269999997
 30
0.000000000000000
 11
204.0722170000000
 21
433.3383269999997
 31
0.000000000000000
  0
LINE
  5
2AF
100
AcDbEntity
  8
1
  6
CONTINUOUS
 62
7
100
AcDbLine
 10
205.0472169999999
 20
432.3393269999998
 30
0.000000000000000
 11
205.0472169999999
 21
426.6143269999998
 31
0.000000000000000
  0
LINE
  5
2B0
100
AcDbEntity
  8
1
  6
CONTINUOUS
 62
7
100
AcDbLine
 10
219.8475170000000
 20
426.7643269999998
 30
0.000000000000000
 11
220.0475170000000
 21
426.7643269999998
 31
0.000000000000000
  0
LINE
  5
2B1
100
AcDbEntity
  8
1
  6
CONTINUOUS
 62
7
100
AcDbLine
 10
219.8475170000000
 20
430.6143269999998
 30
0.000000000000000
 11
219.8475170000000
 21
426.6143269999998
 31
0.000000000000000
  0
ARC
  5
2B2
100
AcDbEntity
  8
1
  6
CONTINUOUS
 62
7
100
AcDbCircle
 10
218.8475169999999
 20
430.6143269999998
 30
0.000000000000000
 40
1.000000000000000
100
AcDbArc
 50
0.000000000000000
 51
90.00000000000000
  0
LINE
  5
2B3
100
AcDbEntity
  8
1
  6
CONTINUOUS
 62
7
100
AcDbLine
 10
220.0475170000000
 20
432.5643269999998
 30
0.000000000000000
 11
222.0475169999999
 21
432.5643269999998
 31
0.000000000000000
  0
LINE
  5
2B4
100
AcDbEntity
  8
1
  6
CONTINUOUS
 62
7
100
AcDbLine
 10
220.0475170000000
 20
432.5643269999998
 30
0.000000000000000
 11
220.0475170000000
 21
426.6143269999998
 31
0.000000000000000
  0
ARC
  5
2B5
100
AcDbEntity
  8
1
  6
CONTINUOUS
 62
7
100
AcDbCircle
 10
247.3647249999999
 20
417.0643270000000
 30
0.000000000000000
 40
7.225291999999996
100
AcDbArc
 50
339.7567340000000
 51
380.2432660000000
  0
LINE
  5
2B6
100
AcDbEntity
  8
1
  6
CONTINUOUS
 62
7
100
AcDbLine
 10
254.5900169999999
 20
424.5643269999998
 30
0.000000000000000
 11
254.5900169999999
 21
414.5643269999998
 31
0.000000000000000
  0
ARC
  5
2B7
100
AcDbEntity
  8
1
  6
CONTINUOUS
 62
7
100
AcDbCircle
 10
257.8153090000000
 20
417.0643270000000
 30
0.000000000000000
 40
7.225291999999996
100
AcDbArc
 50
159.7567339999999
 51
200.2432660000000
  0
LINE
  5
2B8
100
AcDbEntity
  8
1
  6
CONTINUOUS
 62
7
100
AcDbLine
 10
226.0475169999998
 20
426.6353269999997
 30
0.000000000000000
 11
226.0475169999998
 21
412.4933270000000
 31
0.000000000000000
  0
LINE
  5
2B9
100
AcDbEntity
  8
1
  6
CONTINUOUS
 62
7
100
AcDbLine
 10
245.4900170000000
 20
430.5643269999998
 30
0.000000000000000
 11
245.4900170000000
 21
408.5643270000000
 31
0.000000000000000
  0
LINE
  5
2BA
100
AcDbEntity
  8
1
  6
CONTINUOUS
 62
7
100
AcDbLine
 10
247.4900170000000
 20
430.5643269999998
 30
0.000000000000000
 11
247.4900170000000
 21
408.5643270000000
 31
0.000000000000000
  0
LINE
  5
2BB
100
AcDbEntity
  8
1
  6
CONTINUOUS
 62
7
100
AcDbLine
 10
249.0900169999999
 20
411.5643269999996
 30
0.000000000000000
 11
249.0900169999999
 21
427.5643269999997
 31
0.000000000000000
  0
LINE
  5
2BC
100
AcDbEntity
  8
1
  6
CONTINUOUS
 62
7
100
AcDbLine
 10
250.5900169999999
 20
413.4643270000000
 30
0.000000000000000
 11
250.5900169999999
 21
425.6643269999996
 31
0.000000000000000
  0
LINE
  5
2BD
100
AcDbEntity
  8
1
  6
CONTINUOUS
 62
7
100
AcDbLine
 10
254.5900169999999
 20
414.5643269999998
 30
0.000000000000000
 11
250.5900169999999
 21
414.5643269999998
 31
0.000000000000000
  0
LINE
  5
2BE
100
AcDbEntity
  8
1
  6
CONTINUOUS
 62
7
100
AcDbLine
 10
247.4900170000000
 20
408.5643270000000
 30
0.000000000000000
 11
243.4900170000000
 21
408.5643270000000
 31
0.000000000000000
  0
LINE
  5
2BF
100
AcDbEntity
  8
1
  6
CONTINUOUS
 62
7
100
AcDbLine
 10
249.0900169999999
 20
411.5643269999996
 30
0.000000000000000
 11
247.4900170000000
 21
411.5643269999996
 31
0.000000000000000
  0
LINE
  5
2C0
100
AcDbEntity
  8
1
  6
CONTINUOUS
 62
7
100
AcDbLine
 10
250.5900169999999
 20
413.4643270000000
 30
0.000000000000000
 11
249.0900169999999
 21
413.4643270000000
 31
0.000000000000000
  0
LINE
  5
2C1
100
AcDbEntity
  8
1
  6
CONTINUOUS
 62
7
100
AcDbLine
 10
249.0900169999999
 20
418.0643270000000
 30
0.000000000000000
 11
250.5900169999999
 21
419.5643269999997
 31
0.000000000000000
  0
LINE
  5
2C2
100
AcDbEntity
  8
1
  6
CONTINUOUS
 62
7
100
AcDbLine
 10
249.0900170000000
 20
419.5643269999998
 30
0.000000000000000
 11
250.5900170000000
 21
421.0643269999999
 31
0.000000000000000
  0
ARC
  5
2C3
100
AcDbEntity
  8
1
  6
CONTINUOUS
 62
7
100
AcDbCircle
 10
247.3647249999999
 20
422.0643269999998
 30
0.000000000000000
 40
7.225291999999996
100
AcDbArc
 50
339.7567340000000
 51
380.2432660000000
  0
ARC
  5
2C4
100
AcDbEntity
  8
1
  6
CONTINUOUS
 62
7
100
AcDbCircle
 10
257.8153090000000
 20
422.0643269999998
 30
0.000000000000000
 40
7.225291999999996
100
AcDbArc
 50
159.7567339999999
 51
200.2432660000000
  0
LINE
  5
2C5
100
AcDbEntity
  8
1
  6
CONTINUOUS
 62
7
100
AcDbLine
 10
254.5900169999999
 20
424.5643269999998
 30
0.000000000000000
 11
250.5900169999999
 21
424.5643269999998
 31
0.000000000000000
  0
LINE
  5
2C6
100
AcDbEntity
  8
1
  6
CONTINUOUS
 62
7
100
AcDbLine
 10
251.0363089999999
 20
419.5643269999997
 30
0.000000000000000
 11
254.1437249999999
 21
419.5643269999997
 31
0.000000000000000
  0
LINE
  5
2C7
100
AcDbEntity
  8
1
  6
CONTINUOUS
 62
7
100
AcDbLine
 10
247.4900170000000
 20
430.5643269999998
 30
0.000000000000000
 11
243.4900170000000
 21
430.5643269999998
 31
0.000000000000000
  0
LINE
  5
2C8
100
AcDbEntity
  8
1
  6
CONTINUOUS
 62
7
100
AcDbLine
 10
249.0900169999999
 20
427.5643269999997
 30
0.000000000000000
 11
247.4900170000000
 21
427.5643269999997
 31
0.000000000000000
  0
LINE
  5
2C9
100
AcDbEntity
  8
1
  6
CONTINUOUS
 62
7
100
AcDbLine
 10
250.5900169999999
 20
425.6643269999996
 30
0.000000000000000
 11
249.0900169999999
 21
425.6643269999996
 31
0.000000000000000
  0
LINE
  5
2CA
100
AcDbEntity
  8
1
  6
CONTINUOUS
 62
7
100
AcDbLine
 10
280.0396169999999
 20
433.3143269999998
 30
0.000000000000000
 11
287.7396170000000
 21
433.3143269999998
 31
0.000000000000000
  0
LINE
  5
2CB
100
AcDbEntity
  8
1
  6
CONTINUOUS
 62
7
100
AcDbLine
 10
280.0396169999999
 20
405.8143270000000
 30
0.000000000000000
 11
287.7396170000000
 21
405.8143270000000
 31
0.000000000000000
  0
LINE
  5
2CC
100
AcDbEntity
  8
1
  6
CONTINUOUS
 62
7
100
AcDbLine
 10
280.0396169999999
 20
431.3143269999998
 30
0.000000000000000
 11
287.7396170000000
 21
431.3143269999998
 31
0.000000000000000
  0
LINE
  5
2CD
100
AcDbEntity
  8
1
  6
CONTINUOUS
 62
7
100
AcDbLine
 10
280.0396169999999
 20
407.8143269999998
 30
0.000000000000000
 11
287.7396170000000
 21
407.8143269999998
 31
0.000000000000000
  0
LINE
  5
2CE
100
AcDbEntity
  8
4
  6
CENTER
 62
1
100
AcDbLine
 10
284.3750070000000
 20
419.5643269999997
 30
0.000000000000000
 11
297.3396170000000
 21
419.5643269999997
 31
0.000000000000000
  0
ARC
  5
2CF
100
AcDbEntity
  8
1
  6
CONTINUOUS
 62
7
100
AcDbCircle
 10
280.0396169999999
 20
405.8143270000000
 30
0.000000000000000
 40
2.000000000000000
100
AcDbArc
 50
90.00000000000000
 51
180.0000000000000
  0
LINE
  5
2D0
100
AcDbEntity
  8
1
  6
CONTINUOUS
 62
7
100
AcDbLine
 10
280.0396169999999
 20
405.8143270000000
 30
0.000000000000000
 11
280.0396169999999
 21
401.8143270000000
 31
0.000000000000000
  0
LINE
  5
2D1
100
AcDbEntity
  8
1
  6
CONTINUOUS
 62
7
100
AcDbLine
 10
278.0396169999999
 20
405.8143270000000
 30
0.000000000000000
 11
278.0396169999999
 21
401.8143270000000
 31
0.000000000000000
  0
LINE
  5
2D2
100
AcDbEntity
  8
1
  6
CONTINUOUS
 62
7
100
AcDbLine
 10
278.0396169999999
 20
401.8143270000000
 30
0.000000000000000
 11
280.0396169999999
 21
401.8143270000000
 31
0.000000000000000
  0
ARC
  5
2D3
100
AcDbEntity
  8
1
  6
CONTINUOUS
 62
7
100
AcDbCircle
 10
280.0396169999999
 20
433.3143269999998
 30
0.000000000000000
 40
2.000000000000000
100
AcDbArc
 50
180.0000000000000
 51
270.0000000000000
  0
LINE
  5
2D4
100
AcDbEntity
  8
1
  6
CONTINUOUS
 62
7
100
AcDbLine
 10
280.0396169999999
 20
437.3143269999998
 30
0.000000000000000
 11
280.0396169999999
 21
433.3143269999998
 31
0.000000000000000
  0
LINE
  5
2D5
100
AcDbEntity
  8
1
  6
CONTINUOUS
 62
7
100
AcDbLine
 10
278.0396169999999
 20
437.3143269999998
 30
0.000000000000000
 11
280.0396169999999
 21
437.3143269999998
 31
0.000000000000000
  0
LINE
  5
2D6
100
AcDbEntity
  8
1
  6
CONTINUOUS
 62
7
100
AcDbLine
 10
278.0396169999999
 20
437.3143269999998
 30
0.000000000000000
 11
278.0396169999999
 21
433.3143269999998
 31
0.000000000000000
  0
LINE
  5
2D7
100
AcDbEntity
  8
1
  6
CONTINUOUS
 62
7
100
AcDbLine
 10
291.0396169999996
 20
424.1643269999998
 30
0.000000000000000
 11
291.0396169999996
 21
414.9643270000000
 31
0.000000000000000
  0
ARC
  5
2D8
100
AcDbEntity
  8
1
  6
CONTINUOUS
 62
7
100
AcDbCircle
 10
282.3396169999998
 20
419.5643269999997
 30
0.000000000000000
 40
12.00000000000000
100
AcDbArc
 50
344.5059999999998
 51
375.4940000000000
  0
LINE
  5
2D9
100
AcDbEntity
  8
1
  6
CONTINUOUS
 62
7
100
AcDbLine
 10
287.7396170000000
 20
431.3143269999998
 30
0.000000000000000
 11
287.7396170000000
 21
407.8143269999998
 31
0.000000000000000
  0
LINE
  5
2DA
100
AcDbEntity
  8
1
  6
CONTINUOUS
 62
7
100
AcDbLine
 10
289.7396170000000
 20
431.3143269999998
 30
0.000000000000000
 11
289.7396170000000
 21
407.8143269999998
 31
0.000000000000000
  0
LINE
  5
2DB
100
AcDbEntity
  8
1
  6
CONTINUOUS
 62
7
100
AcDbLine
 10
289.7396170000000
 20
414.9643270000000
 30
0.000000000000000
 11
291.0396169999996
 21
414.9643270000000
 31
0.000000000000000
  0
ARC
  5
2DC
100
AcDbEntity
  8
1
  6
CONTINUOUS
 62
7
100
AcDbCircle
 10
292.3616169999998
 20
416.7863270000000
 30
0.000000000000000
 40
1.600000000000000
100
AcDbArc
 50
275.0000000000000
 51
344.5059999999998
  0
LINE
  5
2DD
100
AcDbEntity
  8
1
  6
CONTINUOUS
 62
7
100
AcDbLine
 10
292.5006169999997
 20
415.1923270000000
 30
0.000000000000000
 11
291.0396169999996
 21
415.0643269999997
 31
0.000000000000000
  0
ARC
  5
2DE
100
AcDbEntity
  8
1
  6
CONTINUOUS
 62
7
100
AcDbCircle
 10
287.7396170000000
 20
407.8143269999998
 30
0.000000000000000
 40
2.000000000000000
100
AcDbArc
 50
270.0000000000000
 51
360.0000000000000
  0
LINE
  5
2DF
100
AcDbEntity
  8
1
  6
CONTINUOUS
 62
7
100
AcDbLine
 10
289.7396170000000
 20
418.2643269999998
 30
0.000000000000000
 11
291.0396169999997
 21
419.5643269999998
 31
0.000000000000000
  0
LINE
  5
2E0
100
AcDbEntity
  8
1
  6
CONTINUOUS
 62
7
100
AcDbLine
 10
289.7396170000001
 20
419.5643269999997
 30
0.000000000000000
 11
291.0396169999997
 21
420.8643269999999
 31
0.000000000000000
  0
LINE
  5
2E1
100
AcDbEntity
  8
1
  6
CONTINUOUS
 62
7
100
AcDbLine
 10
289.7396170000000
 20
424.1643269999998
 30
0.000000000000000
 11
291.0396169999996
 21
424.1643269999998
 31
0.000000000000000
  0
ARC
  5
2E2
100
AcDbEntity
  8
1
  6
CONTINUOUS
 62
7
100
AcDbCircle
 10
292.3616169999998
 20
422.3423269999996
 30
0.000000000000000
 40
1.600000000000000
100
AcDbArc
 50
15.49400000000000
 51
84.99990000000004
  0
LINE
  5
2E3
100
AcDbEntity
  8
1
  6
CONTINUOUS
 62
7
100
AcDbLine
 10
292.5006169999998
 20
423.9363269999997
 30
0.000000000000000
 11
291.0396169999996
 21
424.0643269999995
 31
0.000000000000000
  0
ARC
  5
2E4
100
AcDbEntity
  8
1
  6
CONTINUOUS
 62
7
100
AcDbCircle
 10
287.7396170000000
 20
431.3143269999998
 30
0.000000000000000
 40
2.000000000000000
100
AcDbArc
 50
0.000000000000000
 51
90.00000000000000
  0
LINE
  5
2E5
100
AcDbEntity
  8
1
  6
CONTINUOUS
 62
7
100
AcDbLine
 10
589.7550169999997
 20
268.3326470000000
 30
0.000000000000000
 11
589.7550169999997
 21
236.3326470000000
 31
0.000000000000000
  0
LINE
  5
2E6
100
AcDbEntity
  8
1
  6
CONTINUOUS
 62
7
100
AcDbLine
 10
578.0550170000000
 20
268.3326470000000
 30
0.000000000000000
 11
578.0550170000000
 21
236.3326470000000
 31
0.000000000000000
  0
LINE
  5
2E7
100
AcDbEntity
  8
1
  6
CONTINUOUS
 62
7
100
AcDbLine
 10
587.7550169999997
 20
268.3326470000000
 30
0.000000000000000
 11
587.7550169999997
 21
236.3326470000000
 31
0.000000000000000
  0
ARC
  5
2E8
100
AcDbEntity
  8
1
  6
CONTINUOUS
 62
7
100
AcDbCircle
 10
575.4330169999997
 20
255.1106069999999
 30
0.000000000000000
 40
1.600000000000000
100
AcDbArc
 50
95.00010000000000
 51
164.5059999999998
  0
ARC
  5
2E9
100
AcDbEntity
  8
1
  6
CONTINUOUS
 62
7
100
AcDbCircle
 10
575.4330169999997
 20
249.5546069999999
 30
0.000000000000000
 40
1.600000000000000
100
AcDbArc
 50
195.4940000000000
 51
265.0000000000000
  0
LINE
  5
2EA
100
AcDbEntity
  8
4
  6
CENTER
 62
1
100
AcDbLine
 10
581.1851169999997
 20
252.3326069999999
 30
0.000000000000000
 11
570.4550170000000
 21
252.3326069999999
 31
0.000000000000000
  0
ARC
  5
2EB
100
AcDbEntity
  8
1
  6
CONTINUOUS
 62
7
100
AcDbCircle
 10
585.4550170000000
 20
252.3326069999999
 30
0.000000000000000
 40
12.00000000000000
100
AcDbArc
 50
164.5059999999998
 51
195.4940000000000
  0
LINE
  5
2EC
100
AcDbEntity
  8
1
  6
CONTINUOUS
 62
7
100
AcDbLine
 10
589.7550169999997
 20
236.3326470000000
 30
0.000000000000000
 11
578.0550170000000
 21
236.3326470000000
 31
0.000000000000000
  0
LINE
  5
2ED
100
AcDbEntity
  8
1
  6
CONTINUOUS
 62
7
100
AcDbLine
 10
575.2940170000001
 20
256.7046069999999
 30
0.000000000000000
 11
576.7550169999997
 21
256.8326069999998
 31
0.000000000000000
  0
LINE
  5
2EE
100
AcDbEntity
  8
1
  6
CONTINUOUS
 62
7
100
AcDbLine
 10
578.0550170000000
 20
256.9326069999996
 30
0.000000000000000
 11
576.7550169999997
 21
256.9326069999996
 31
0.000000000000000
  0
LINE
  5
2EF
100
AcDbEntity
  8
1
  6
CONTINUOUS
 62
7
100
AcDbLine
 10
575.2940170000002
 20
247.9606069999999
 30
0.000000000000000
 11
576.7550169999998
 21
247.8326070000000
 31
0.000000000000000
  0
LINE
  5
2F0
100
AcDbEntity
  8
1
  6
CONTINUOUS
 62
7
100
AcDbLine
 10
578.0550170000000
 20
247.7326069999997
 30
0.000000000000000
 11
576.7550169999997
 21
247.7326069999997
 31
0.000000000000000
  0
LINE
  5
2F1
100
AcDbEntity
  8
1
  6
CONTINUOUS
 62
7
100
AcDbLine
 10
578.0550170000000
 20
252.3326070000000
 30
0.000000000000000
 11
576.7550169999997
 21
251.0326070000000
 31
0.000000000000000
  0
LINE
  5
2F2
100
AcDbEntity
  8
1
  6
CONTINUOUS
 62
7
100
AcDbLine
 10
578.0550170000000
 20
253.6326069999998
 30
0.000000000000000
 11
576.7550169999996
 21
252.3326069999999
 31
0.000000000000000
  0
LINE
  5
2F3
100
AcDbEntity
  8
1
  6
CONTINUOUS
 62
7
100
AcDbLine
 10
576.7550169999997
 20
256.9326069999996
 30
0.000000000000000
 11
576.7550169999997
 21
247.7326069999997
 31
0.000000000000000
  0
LINE
  5
2F4
100
AcDbEntity
  8
1
  6
CONTINUOUS
 62
7
100
AcDbLine
 10
589.7550169999997
 20
268.3326470000000
 30
0.000000000000000
 11
578.0550170000000
 21
268.3326470000000
 31
0.000000000000000
  0
LINE
  5
2F5
100
AcDbEntity
  8
1
  6
CONTINUOUS
 62
7
100
AcDbLine
 10
617.2046169999996
 20
277.2326469999998
 30
0.000000000000000
 11
617.2046169999996
 21
289.4326469999998
 31
0.000000000000000
  0
LINE
  5
2F6
100
AcDbEntity
  8
1
  6
CONTINUOUS
 62
7
100
AcDbLine
 10
613.2046169999996
 20
288.3331469999999
 30
0.000000000000000
 11
613.2046169999996
 21
278.3321470000000
 31
0.000000000000000
  0
ARC
  5
2F7
100
AcDbEntity
  8
1
  6
CONTINUOUS
 62
7
100
AcDbCircle
 10
607.6436679999998
 20
283.3331470000000
 30
0.000000000000000
 40
9.560949000000001
100
AcDbArc
 50
342.4247879999998
 51
377.5752120000000
  0
ARC
  5
2F8
100
AcDbEntity
  8
1
  6
CONTINUOUS
 62
7
100
AcDbCircle
 10
622.7655660000000
 20
283.3331470000000
 30
0.000000000000000
 40
9.560949000000001
100
AcDbArc
 50
162.4247879999998
 51
197.5752119999999
  0
LINE
  5
2F9
100
AcDbEntity
  8
1
  6
CONTINUOUS
 62
7
100
AcDbLine
 10
618.7046170000000
 20
275.3326470000000
 30
0.000000000000000
 11
618.7046170000000
 21
291.3326470000000
 31
0.000000000000000
  0
LINE
  5
2FA
100
AcDbEntity
  8
1
  6
CONTINUOUS
 62
7
100
AcDbLine
 10
624.3046169999999
 20
294.3326470000000
 30
0.000000000000000
 11
624.3046169999999
 21
272.3326469999999
 31
0.000000000000000
  0
LINE
  5
2FB
100
AcDbEntity
  8
1
  6
CONTINUOUS
 62
7
100
AcDbLine
 10
620.3046170000000
 20
294.3326470000000
 30
0.000000000000000
 11
620.3046170000000
 21
272.3326469999999
 31
0.000000000000000
  0
LINE
  5
2FC
100
AcDbEntity
  8
4
  6
CENTER
 62
1
100
AcDbLine
 10
611.3712170000000
 20
283.3326470000000
 30
0.000000000000000
 11
626.3046169999999
 21
283.3326470000000
 31
0.000000000000000
  0
LINE
  5
2FD
100
AcDbEntity
  8
1
  6
CONTINUOUS
 62
7
100
AcDbLine
 10
617.2046169999996
 20
277.2326469999998
 30
0.000000000000000
 11
618.7046170000000
 21
277.2326469999998
 31
0.000000000000000
  0
LINE
  5
2FE
100
AcDbEntity
  8
1
  6
CONTINUOUS
 62
7
100
AcDbLine
 10
617.2046169999998
 20
283.3326470000001
 30
0.000000000000000
 11
618.7046170000001
 21
284.8326470000000
 31
0.000000000000000
  0
LINE
  5
2FF
100
AcDbEntity
  8
1
  6
CONTINUOUS
 62
7
100
AcDbLine
 10
617.2046169999998
 20
281.8326470000001
 30
0.000000000000000
 11
618.7046170000001
 21
283.3326470000001
 31
0.000000000000000
  0
LINE
  5
300
100
AcDbEntity
  8
1
  6
CONTINUOUS
 62
7
100
AcDbLine
 10
616.7583249999998
 20
280.4461470000000
 30
0.000000000000000
 11
613.6509089999997
 21
280.4461470000000
 31
0.000000000000000
  0
ARC
  5
301
100
AcDbEntity
  8
1
  6
CONTINUOUS
 62
7
100
AcDbCircle
 10
615.7606170000000
 20
279.0031470000000
 30
0.000000000000000
 40
2.555820000000000
100
AcDbArc
 50
214.3528569999999
 51
214.3839999999999
  0
ARC
  5
302
100
AcDbEntity
  8
1
  6
CONTINUOUS
 62
7
100
AcDbCircle
 10
614.6486169999997
 20
279.0031470000000
 30
0.000000000000000
 40
2.555820000000000
100
AcDbArc
 50
325.6159999999998
 51
325.6471430000000
  0
LINE
  5
303
100
AcDbEntity
  8
1
  6
CONTINUOUS
 62
7
100
AcDbLine
 10
616.7583249999998
 20
277.5591470000000
 30
0.000000000000000
 11
613.6509089999997
 21
277.5591470000000
 31
0.000000000000000
  0
ARC
  5
304
100
AcDbEntity
  8
1
  6
CONTINUOUS
 62
7
100
AcDbCircle
 10
614.6486369999998
 20
279.0021469999999
 30
0.000000000000000
 40
2.555979999999999
100
AcDbArc
 50
334.3716370000000
 51
394.3716370000000
  0
LINE
  5
305
100
AcDbEntity
  8
1
  6
CONTINUOUS
 62
7
100
AcDbLine
 10
617.2046169999996
 20
278.3321470000000
 30
0.000000000000000
 11
616.7583249999997
 21
277.5591469999999
 31
0.000000000000000
  0
ARC
  5
306
100
AcDbEntity
  8
1
  6
CONTINUOUS
 62
7
100
AcDbCircle
 10
615.7605969999997
 20
279.0021469999999
 30
0.000000000000000
 40
2.555979999999999
100
AcDbArc
 50
145.6283629999998
 51
205.6283629999998
  0
LINE
  5
307
100
AcDbEntity
  8
1
  6
CONTINUOUS
 62
7
100
AcDbLine
 10
613.2046169999995
 20
278.3321470000000
 30
0.000000000000000
 11
613.6509089999996
 21
277.5591470000000
 31
0.000000000000000
  0
LINE
  5
308
100
AcDbEntity
  8
1
  6
CONTINUOUS
 62
7
100
AcDbLine
 10
618.7046170000000
 20
275.3326470000000
 30
0.000000000000000
 11
620.3046170000000
 21
275.3326470000000
 31
0.000000000000000
  0
LINE
  5
309
100
AcDbEntity
  8
1
  6
CONTINUOUS
 62
7
100
AcDbLine
 10
620.3046170000000
 20
272.3326469999999
 30
0.000000000000000
 11
624.3046169999999
 21
272.3326469999999
 31
0.000000000000000
  0
ARC
  5
30A
100
AcDbEntity
  8
1
  6
CONTINUOUS
 62
7
100
AcDbCircle
 10
614.6486369999998
 20
287.6631469999998
 30
0.000000000000000
 40
2.555979999999999
100
AcDbArc
 50
325.6283629999998
 51
385.6283630000000
  0
ARC
  5
30B
100
AcDbEntity
  8
1
  6
CONTINUOUS
 62
7
100
AcDbCircle
 10
615.7605969999997
 20
287.6631469999998
 30
0.000000000000000
 40
2.555979999999999
100
AcDbArc
 50
154.3716370000000
 51
214.3716370000000
  0
LINE
  5
30C
100
AcDbEntity
  8
1
  6
CONTINUOUS
 62
7
100
AcDbLine
 10
616.7583249999998
 20
286.2201470000000
 30
0.000000000000000
 11
613.6509089999997
 21
286.2201470000000
 31
0.000000000000000
  0
LINE
  5
30D
100
AcDbEntity
  8
1
  6
CONTINUOUS
 62
7
100
AcDbLine
 10
617.2046169999996
 20
289.4326469999998
 30
0.000000000000000
 11
618.7046170000000
 21
289.4326469999998
 31
0.000000000000000
  0
LINE
  5
30E
100
AcDbEntity
  8
1
  6
CONTINUOUS
 62
7
100
AcDbLine
 10
618.7046170000000
 20
291.3326470000000
 30
0.000000000000000
 11
620.3046170000000
 21
291.3326470000000
 31
0.000000000000000
  0
LINE
  5
30F
100
AcDbEntity
  8
1
  6
CONTINUOUS
 62
7
100
AcDbLine
 10
617.2046169999995
 20
288.3331469999998
 30
0.000000000000000
 11
616.7583249999997
 21
289.1061470000000
 31
0.000000000000000
  0
LINE
  5
310
100
AcDbEntity
  8
1
  6
CONTINUOUS
 62
7
100
AcDbLine
 10
616.7583249999998
 20
289.1061470000000
 30
0.000000000000000
 11
613.6509089999997
 21
289.1061470000000
 31
0.000000000000000
  0
LINE
  5
311
100
AcDbEntity
  8
1
  6
CONTINUOUS
 62
7
100
AcDbLine
 10
613.2046169999998
 20
288.3331469999999
 30
0.000000000000000
 11
613.6509089999998
 21
289.1061470000001
 31
0.000000000000000
  0
LINE
  5
312
100
AcDbEntity
  8
1
  6
CONTINUOUS
 62
7
100
AcDbLine
 10
620.3046170000000
 20
294.3326470000000
 30
0.000000000000000
 11
624.3046169999999
 21
294.3326470000000
 31
0.000000000000000
  0
LINE
  5
313
100
AcDbEntity
  8
1
  6
CONTINUOUS
 62
7
100
AcDbLine
 10
682.1471169999998
 20
283.5894469999999
 30
0.000000000000000
 11
682.1471169999998
 21
215.3326470000000
 31
0.000000000000000
  0
LINE
  5
314
100
AcDbEntity
  8
1
  6
CONTINUOUS
 62
7
100
AcDbLine
 10
665.7474170000000
 20
268.2326470000000
 30
0.000000000000000
 11
665.7474170000000
 21
229.3326470000000
 31
0.000000000000000
  0
LINE
  5
315
100
AcDbEntity
  8
5
  6
PHANTOM
 62
6
100
AcDbLine
 10
682.0821169999999
 20
284.3410469999999
 30
0.000000000000000
 11
689.0271169999999
 21
216.4384469999999
 31
0.000000000000000
  0
LINE
  5
316
100
AcDbEntity
  8
5
  6
PHANTOM
 62
6
100
AcDbLine
 10
681.7474170000002
 20
286.7969679999998
 30
0.000000000000000
 11
728.0631170000001
 21
240.4819470000000
 31
0.000000000000000
  0
LINE
  5
317
100
AcDbEntity
  8
5
  6
PHANTOM
 62
6
100
AcDbLine
 10
682.3181170000000
 20
272.9326470000000
 30
0.000000000000000
 11
713.3231170000000
 21
241.9279469999999
 31
0.000000000000000
  0
LINE
  5
318
100
AcDbEntity
  8
1
  6
CONTINUOUS
 62
7
100
AcDbLine
 10
681.7474170000000
 20
298.8326470000000
 30
0.000000000000000
 11
681.7474170000000
 21
214.6326469999999
 31
0.000000000000000
  0
LINE
  5
319
100
AcDbEntity
  8
1
  6
CONTINUOUS
 62
7
100
AcDbLine
 10
679.2474170000000
 20
303.3326469999999
 30
0.000000000000000
 11
679.2474170000000
 21
179.3326470000000
 31
0.000000000000000
  0
LINE
  5
31A
100
AcDbEntity
  8
1
  6
CONTINUOUS
 62
7
100
AcDbLine
 10
676.7474170000000
 20
303.3326469999999
 30
0.000000000000000
 11
676.7474170000000
 21
179.3326470000000
 31
0.000000000000000
  0
LINE
  5
31B
100
AcDbEntity
  8
1
  6
CONTINUOUS
 62
7
100
AcDbLine
 10
675.7474170000000
 20
303.3326469999999
 30
0.000000000000000
 11
675.7474170000000
 21
179.3326470000000
 31
0.000000000000000
  0
LINE
  5
31C
100
AcDbEntity
  8
1
  6
CONTINUOUS
 62
7
100
AcDbLine
 10
663.7474170000000
 20
227.3326470000000
 30
0.000000000000000
 11
663.7474170000000
 21
217.4362470000000
 31
0.000000000000000
  0
LINE
  5
31D
100
AcDbEntity
  8
1
  6
CONTINUOUS
 62
7
100
AcDbLine
 10
674.7474170000000
 20
216.2965470000000
 30
0.000000000000000
 11
662.7574170000000
 21
216.4362469999999
 31
0.000000000000000
  0
LINE
  5
31E
100
AcDbEntity
  8
1
  6
CONTINUOUS
 62
7
100
AcDbLine
 10
675.7474170000000
 20
184.3715470000000
 30
0.000000000000000
 11
650.2082170000000
 21
185.3652470000000
 31
0.000000000000000
  0
LINE
  5
31F
100
AcDbEntity
  8
1
  6
CONTINUOUS
 62
7
100
AcDbLine
 10
649.2471169999999
 20
215.3067470000000
 30
0.000000000000000
 11
649.2471169999999
 21
186.3644469999999
 31
0.000000000000000
  0
ARC
  5
320
100
AcDbEntity
  8
1
  6
CONTINUOUS
 62
7
100
AcDbCircle
 10
650.2471169999997
 20
186.3644469999999
 30
0.000000000000000
 40
1.000000000000000
100
AcDbArc
 50
180.0000000000000
 51
267.7719999999998
  0
LINE
  5
321
100
AcDbEntity
  8
1
  6
CONTINUOUS
 62
7
100
AcDbLine
 10
662.7574170000000
 20
216.4362469999999
 30
0.000000000000000
 11
650.2368169999997
 21
216.3067470000000
 31
0.000000000000000
  0
ARC
  5
322
100
AcDbEntity
  8
1
  6
CONTINUOUS
 62
7
100
AcDbCircle
 10
650.2471169999997
 20
215.3067470000000
 30
0.000000000000000
 40
1.000000000000000
100
AcDbArc
 50
90.59269999999998
 51
180.0000000000000
  0
LINE
  5
323
100
AcDbEntity
  8
4
  6
CENTER
 62
1
100
AcDbLine
 10
652.2471170000000
 20
201.8326470000000
 30
0.000000000000000
 11
646.2471170000000
 21
201.8326470000000
 31
0.000000000000000
  0
ARC
  5
324
100
AcDbEntity
  8
1
  6
CONTINUOUS
 62
7
100
AcDbCircle
 10
662.7474170000000
 20
217.4362470000000
 30
0.000000000000000
 40
1.000000000000000
100
AcDbArc
 50
270.5930000000000
 51
360.0000000000000
  0
LINE
  5
325
100
AcDbEntity
  8
1
  6
CONTINUOUS
 62
7
100
AcDbLine
 10
681.7474170000000
 20
198.0021660000000
 30
0.000000000000000
 11
681.0903660000000
 21
198.1782220000000
 31
0.000000000000000
  0
LINE
  5
326
100
AcDbEntity
  8
1
  6
CONTINUOUS
 62
7
100
AcDbLine
 10
673.7474170000000
 20
215.2965470000000
 30
0.000000000000000
 11
673.7474170000000
 21
185.4111470000000
 31
0.000000000000000
  0
LINE
  5
327
100
AcDbEntity
  8
1
  6
CONTINUOUS
 62
7
100
AcDbLine
 10
681.0903660000000
 20
214.6326469999999
 30
0.000000000000000
 11
681.0903660000000
 21
182.6499540000000
 31
0.000000000000000
  0
LINE
  5
328
100
AcDbEntity
  8
1
  6
CONTINUOUS
 62
7
100
AcDbLine
 10
679.2474170000000
 20
179.3326470000000
 30
0.000000000000000
 11
675.7474170000000
 21
179.3326470000000
 31
0.000000000000000
  0
LINE
  5
329
100
AcDbEntity
  8
1
  6
CONTINUOUS
 62
7
100
AcDbLine
 10
681.7474169999999
 20
183.8326470000000
 30
0.000000000000000
 11
679.2474169999999
 21
179.3326470000000
 31
0.000000000000000
  0
ARC
  5
32A
100
AcDbEntity
  8
1
  6
CONTINUOUS
 62
7
100
AcDbCircle
 10
674.7474170000000
 20
185.4111470000000
 30
0.000000000000000
 40
1.000000000000000
100
AcDbArc
 50
180.0000000000000
 51
267.7719999999998
  0
LINE
  5
32B
100
AcDbEntity
  8
1
  6
CONTINUOUS
 62
7
100
AcDbLine
 10
681.7474170000000
 20
198.0021660000000
 30
0.000000000000000
 11
681.7474170000000
 21
183.8326470000000
 31
0.000000000000000
  0
LINE
  5
32C
100
AcDbEntity
  8
5
  6
PHANTOM
 62
6
100
AcDbLine
 10
688.1341169999998
 20
215.3418470000000
 30
0.000000000000000
 11
684.7521170000001
 21
214.9959470000001
 31
0.000000000000000
  0
LINE
  5
32D
100
AcDbEntity
  8
1
  6
CONTINUOUS
 62
7
100
AcDbLine
 10
675.7474170000000
 20
216.2965470000000
 30
0.000000000000000
 11
674.7474170000000
 21
216.2965470000000
 31
0.000000000000000
  0
LINE
  5
32E
100
AcDbEntity
  8
5
  6
PHANTOM
 62
6
100
AcDbLine
 10
684.7521170000000
 20
214.9959470000000
 30
0.000000000000000
 11
681.7474169999999
 21
214.9891960000000
 31
0.000000000000000
  0
ARC
  5
32F
100
AcDbEntity
  8
1
  6
CONTINUOUS
 62
7
100
AcDbCircle
 10
681.1471169999999
 20
215.3326470000000
 30
0.000000000000000
 40
1.000000000000000
100
AcDbArc
 50
266.7466430000000
 51
360.0000000000000
  0
ARC
  5
330
100
AcDbEntity
  8
1
  6
CONTINUOUS
 62
7
100
AcDbCircle
 10
674.7474170000000
 20
215.2965470000000
 30
0.000000000000000
 40
1.000000000000000
100
AcDbArc
 50
90.00000000000000
 51
180.0000000000000
  0
LINE
  5
331
100
AcDbEntity
  8
1
  6
CONTINUOUS
 62
7
100
AcDbLine
 10
681.7474170000000
 20
214.6326469999999
 30
0.000000000000000
 11
681.0903660000000
 21
214.6326469999999
 31
0.000000000000000
  0
ARC
  5
332
100
AcDbEntity
  8
5
  6
PHANTOM
 62
6
100
AcDbCircle
 10
688.0321170000000
 20
216.3366470000000
 30
0.000000000000000
 40
1.000000000000000
100
AcDbArc
 50
275.8399999999999
 51
365.8400000000000
  0
ARC
  5
333
100
AcDbEntity
  8
1
  6
CONTINUOUS
 62
7
100
AcDbCircle
 10
664.7474170000000
 20
227.3326470000000
 30
0.000000000000000
 40
1.000000000000000
100
AcDbArc
 50
90.00000000000000
 51
180.0000000000000
  0
ARC
  5
334
100
AcDbEntity
  8
1
  6
CONTINUOUS
 62
7
100
AcDbCircle
 10
664.7474170000000
 20
229.3326470000000
 30
0.000000000000000
 40
1.000000000000000
100
AcDbArc
 50
270.0000000000000
 51
360.0000000000000
  0
LINE
  5
335
100
AcDbEntity
  8
4
  6
CENTER
 62
1
100
AcDbLine
 10
668.7474170000000
 20
252.3326069999999
 30
0.000000000000000
 11
662.7474170000000
 21
252.3326069999999
 31
0.000000000000000
  0
ARC
  5
336
100
AcDbEntity
  8
5
  6
PHANTOM
 62
6
100
AcDbCircle
 10
710.4951170000001
 20
239.0995470000000
 30
0.000000000000000
 40
4.000000000000000
100
AcDbArc
 50
329.9999999999999
 51
404.9999999999999
  0
LINE
  5
337
100
AcDbEntity
  8
5
  6
PHANTOM
 62
6
100
AcDbLine
 10
721.7691169999996
 20
233.4815469999999
 30
0.000000000000000
 11
718.0191169999999
 21
230.0396469999999
 31
0.000000000000000
  0
LINE
  5
338
100
AcDbEntity
  8
5
  6
PHANTOM
 62
6
100
AcDbLine
 10
713.9591170000001
 20
237.0995470000000
 30
0.000000000000000
 11
712.6371169999998
 21
234.8106469999999
 31
0.000000000000000
  0
ARC
  5
339
100
AcDbEntity
  8
5
  6
PHANTOM
 62
6
100
AcDbCircle
 10
714.3691169999997
 20
233.8106470000000
 30
0.000000000000000
 40
2.000000000000000
100
AcDbArc
 50
150.0000000000000
 51
225.0000000000000
  0
ARC
  5
33A
100
AcDbEntity
  8
5
  6
PHANTOM
 62
6
100
AcDbCircle
 10
716.6671169999997
 20
231.5130470000000
 30
0.000000000000000
 40
2.000000000000000
100
AcDbArc
 50
225.0000000000000
 51
312.5459999999998
  0
LINE
  5
33B
100
AcDbEntity
  8
5
  6
PHANTOM
 62
6
100
AcDbLine
 10
712.9551170000000
 20
232.3964469999999
 30
0.000000000000000
 11
715.2531169999997
 21
230.0988470000000
 31
0.000000000000000
  0
LINE
  5
33C
100
AcDbEntity
  8
5
  6
PHANTOM
 62
6
100
AcDbLine
 10
728.0631169999999
 20
239.0677470000000
 30
0.000000000000000
 11
725.6581169999995
 21
236.6635470000000
 31
0.000000000000000
  0
LINE
  5
33D
100
AcDbEntity
  8
5
  6
PHANTOM
 62
6
100
AcDbLine
 10
725.6581169999995
 20
236.6635469999999
 30
0.000000000000000
 11
721.7691169999996
 21
233.4815470000001
 31
0.000000000000000
  0
ARC
  5
33E
100
AcDbEntity
  8
5
  6
PHANTOM
 62
6
100
AcDbCircle
 10
727.3551169999997
 20
239.7748469999999
 30
0.000000000000000
 40
1.000000000000000
100
AcDbArc
 50
315.0000000000000
 51
404.9999999999999
  0
LINE
  5
33F
100
AcDbEntity
  8
1
  6
CONTINUOUS
 62
7
100
AcDbLine
 10
664.7474170000000
 20
275.3898469999999
 30
0.000000000000000
 11
675.7474170000000
 21
275.3898469999999
 31
0.000000000000000
  0
LINE
  5
340
100
AcDbEntity
  8
4
  6
CENTER
 62
1
100
AcDbLine
 10
684.7474170000000
 20
283.3326470000000
 30
0.000000000000000
 11
638.7471170000000
 21
283.3326470000000
 31
0.000000000000000
  0
LINE
  5
341
100
AcDbEntity
  8
1
  6
CONTINUOUS
 62
7
100
AcDbLine
 10
673.7474170000000
 20
297.4326469999998
 30
0.000000000000000
 11
646.9471170000002
 21
297.4326469999998
 31
0.000000000000000
  0
LINE
  5
342
100
AcDbEntity
  8
2
  6
CONTINUOUS
 62
4
100
AcDbLine
 10
641.7471169999999
 20
290.4036469999999
 30
0.000000000000000
 11
645.7471169999999
 21
285.6896469999998
 31
0.000000000000000
  0
LINE
  5
343
100
AcDbEntity
  8
2
  6
CONTINUOUS
 62
4
100
AcDbLine
 10
645.7471169999999
 20
288.0466470000000
 30
0.000000000000000
 11
641.7471169999999
 21
283.3326470000001
 31
0.000000000000000
  0
LINE
  5
344
100
AcDbEntity
  8
1
  6
CONTINUOUS
 62
7
100
AcDbLine
 10
647.9471170000000
 20
293.7682470000000
 30
0.000000000000000
 11
647.9471170000000
 21
272.2826470000000
 31
0.000000000000000
  0
LINE
  5
345
100
AcDbEntity
  8
1
  6
CONTINUOUS
 62
7
100
AcDbLine
 10
645.7471169999998
 20
294.5909770000000
 30
0.000000000000000
 11
645.7471169999998
 21
270.3326469999999
 31
0.000000000000000
  0
LINE
  5
346
100
AcDbEntity
  8
1
  6
CONTINUOUS
 62
7
100
AcDbLine
 10
641.7471169999998
 20
290.4036469999998
 30
0.000000000000000
 11
641.7471169999998
 21
276.2615470000000
 31
0.000000000000000
  0
LINE
  5
347
100
AcDbEntity
  8
1
  6
CONTINUOUS
 62
7
100
AcDbLine
 10
647.7471170000000
 20
270.3326469999999
 30
0.000000000000000
 11
647.7471170000000
 21
294.5909770000000
 31
0.000000000000000
  0
LINE
  5
348
100
AcDbEntity
  8
1
  6
CONTINUOUS
 62
7
100
AcDbLine
 10
662.7474170000000
 20
294.5435469999998
 30
0.000000000000000
 11
662.7474170000000
 21
270.2326470000000
 31
0.000000000000000
  0
LINE
  5
349
100
AcDbEntity
  8
1
  6
CONTINUOUS
 62
7
100
AcDbLine
 10
661.7474170000000
 20
271.2826469999999
 30
0.000000000000000
 11
648.9471170000000
 21
271.2826469999999
 31
0.000000000000000
  0
LINE
  5
34A
100
AcDbEntity
  8
1
  6
CONTINUOUS
 62
7
100
AcDbLine
 10
645.7471169999998
 20
283.3326470000000
 30
0.000000000000000
 11
641.7471169999998
 21
283.3326470000000
 31
0.000000000000000
  0
LINE
  5
34B
100
AcDbEntity
  8
2
  6
CONTINUOUS
 62
4
100
AcDbLine
 10
641.7471169999999
 20
283.3326470000001
 30
0.000000000000000
 11
645.7471169999999
 21
278.6185470000000
 31
0.000000000000000
  0
LINE
  5
34C
100
AcDbEntity
  8
1
  6
CONTINUOUS
 62
7
100
AcDbLine
 10
647.7471170000000
 20
270.3326469999999
 30
0.000000000000000
 11
645.7471169999998
 21
270.3326469999999
 31
0.000000000000000
  0
LINE
  5
34D
100
AcDbEntity
  8
1
  6
CONTINUOUS
 62
7
100
AcDbLine
 10
645.7471169999998
 20
276.2615470000000
 30
0.000000000000000
 11
641.7471169999998
 21
276.2615470000000
 31
0.000000000000000
  0
ARC
  5
34E
100
AcDbEntity
  8
1
  6
CONTINUOUS
 62
7
100
AcDbCircle
 10
648.9471170000000
 20
272.2826470000000
 30
0.000000000000000
 40
1.000000000000000
100
AcDbArc
 50
180.0000000000000
 51
270.0000000000000
  0
LINE
  5
34F
100
AcDbEntity
  8
1
  6
CONTINUOUS
 62
7
100
AcDbLine
 10
647.9471170000000
 20
276.1326470000000
 30
0.000000000000000
 11
647.7471170000000
 21
276.1326470000000
 31
0.000000000000000
  0
LINE
  5
350
100
AcDbEntity
  8
2
  6
CONTINUOUS
 62
4
100
AcDbLine
 10
645.7471169999998
 20
280.9755470000000
 30
0.000000000000000
 11
641.7471169999999
 21
276.2615470000001
 31
0.000000000000000
  0
LINE
  5
351
100
AcDbEntity
  8
1
  6
CONTINUOUS
 62
7
100
AcDbLine
 10
664.7474170000000
 20
269.2326469999998
 30
0.000000000000000
 11
663.7474170000000
 21
269.2326469999998
 31
0.000000000000000
  0
ARC
  5
352
100
AcDbEntity
  8
1
  6
CONTINUOUS
 62
7
100
AcDbCircle
 10
661.7474170000000
 20
270.2826470000000
 30
0.000000000000000
 40
1.000000000000000
100
AcDbArc
 50
0.000000000000000
 51
90.00000000000000
  0
ARC
  5
353
100
AcDbEntity
  8
1
  6
CONTINUOUS
 62
7
100
AcDbCircle
 10
663.7474170000000
 20
270.2326470000000
 30
0.000000000000000
 40
1.000000000000000
100
AcDbArc
 50
180.0000000000000
 51
270.0000000000000
  0
LINE
  5
354
100
AcDbEntity
  8
1
  6
CONTINUOUS
 62
7
100
AcDbLine
 10
664.7474170000000
 20
275.3898469999999
 30
0.000000000000000
 11
664.7474170000000
 21
269.2326469999998
 31
0.000000000000000
  0
ARC
  5
355
100
AcDbEntity
  8
1
  6
CONTINUOUS
 62
7
100
AcDbCircle
 10
665.7474170000000
 20
269.2326469999998
 30
0.000000000000000
 40
1.000000000000000
100
AcDbArc
 50
180.0000000000000
 51
270.0000000000000
  0
LINE
  5
356
100
AcDbEntity
  8
1
  6
CONTINUOUS
 62
7
100
AcDbLine
 10
661.7474170000000
 20
293.7682470000000
 30
0.000000000000000
 11
647.9471170000000
 21
293.7682470000000
 31
0.000000000000000
  0
LINE
  5
357
100
AcDbEntity
  8
1
  6
CONTINUOUS
 62
7
100
AcDbLine
 10
645.9471170000000
 20
295.5435469999999
 30
0.000000000000000
 11
661.7474170000000
 21
295.5435469999999
 31
0.000000000000000
  0
LINE
  5
358
100
AcDbEntity
  8
1
  6
CONTINUOUS
 62
7
100
AcDbLine
 10
647.9471170000000
 20
292.0794470000000
 30
0.000000000000000
 11
647.7471170000000
 21
292.0794470000000
 31
0.000000000000000
  0
LINE
  5
359
100
AcDbEntity
  8
1
  6
CONTINUOUS
 62
7
100
AcDbLine
 10
645.7471169999998
 20
290.4036469999998
 30
0.000000000000000
 11
641.7471169999998
 21
290.4036469999998
 31
0.000000000000000
  0
ARC
  5
35A
100
AcDbEntity
  8
1
  6
CONTINUOUS
 62
7
100
AcDbCircle
 10
646.9471170000002
 20
296.4326469999998
 30
0.000000000000000
 40
1.000000000000000
100
AcDbArc
 50
90.00000000000000
 51
180.0000000000000
  0
LINE
  5
35B
100
AcDbEntity
  8
1
  6
CONTINUOUS
 62
7
100
AcDbLine
 10
645.7471169999998
 20
294.5909770000000
 30
0.000000000000000
 11
647.7471170000000
 21
294.5909770000000
 31
0.000000000000000
  0
LINE
  5
35C
100
AcDbEntity
  8
1
  6
CONTINUOUS
 62
7
100
AcDbLine
 10
645.9471170000000
 20
296.4326469999998
 30
0.000000000000000
 11
645.9471170000000
 21
294.5909770000000
 31
0.000000000000000
  0
LINE
  5
35D
100
AcDbEntity
  8
1
  6
CONTINUOUS
 62
7
100
AcDbLine
 10
647.9471170000000
 20
290.5326469999998
 30
0.000000000000000
 11
647.7471170000000
 21
290.5326469999998
 31
0.000000000000000
  0
ARC
  5
35E
100
AcDbEntity
  8
1
  6
CONTINUOUS
 62
7
100
AcDbCircle
 10
661.7474170000000
 20
292.7682469999998
 30
0.000000000000000
 40
1.000000000000000
100
AcDbArc
 50
0.000000000000000
 51
90.00000000000000
  0
ARC
  5
35F
100
AcDbEntity
  8
1
  6
CONTINUOUS
 62
7
100
AcDbCircle
 10
661.7474170000000
 20
294.5435469999998
 30
0.000000000000000
 40
1.000000000000000
100
AcDbArc
 50
0.000000000000000
 51
90.00000000000000
  0
LINE
  5
360
100
AcDbEntity
  8
1
  6
CONTINUOUS
 62
7
100
AcDbLine
 10
673.7474170000000
 20
297.4326469999998
 30
0.000000000000000
 11
673.7474170000000
 21
283.3326470000000
 31
0.000000000000000
  0
ARC
  5
361
100
AcDbEntity
  8
1
  6
CONTINUOUS
 62
7
100
AcDbCircle
 10
728.5614170000000
 20
283.3326470000000
 30
0.000000000000000
 40
48.35250000000000
100
AcDbArc
 50
165.5079000000000
 51
194.4919999999999
  0
ARC
  5
362
100
AcDbEntity
  8
1
  6
CONTINUOUS
 62
7
100
AcDbCircle
 10
680.1471170000000
 20
283.5894469999999
 30
0.000000000000000
 40
2.000000000000000
100
AcDbArc
 50
0.000000000000000
 51
36.85557100000000
  0
ARC
  5
363
100
AcDbEntity
  8
5
  6
PHANTOM
 62
6
100
AcDbCircle
 10
680.0931170000000
 20
284.1375470000000
 30
0.000000000000000
 40
2.000000000000000
100
AcDbArc
 50
5.839999999999997
 51
34.19292199999999
  0
LINE
  5
364
100
AcDbEntity
  8
5
  6
PHANTOM
 62
6
100
AcDbLine
 10
682.3181170000000
 20
272.9326469999999
 30
0.000000000000000
 11
681.7474170000000
 21
272.9326469999999
 31
0.000000000000000
  0
LINE
  5
365
100
AcDbEntity
  8
1
  6
CONTINUOUS
 62
7
100
AcDbLine
 10
679.2474170000000
 20
303.3326469999999
 30
0.000000000000000
 11
675.7474170000000
 21
303.3326469999999
 31
0.000000000000000
  0
LINE
  5
366
100
AcDbEntity
  8
1
  6
CONTINUOUS
 62
7
100
AcDbLine
 10
679.2474169999999
 20
303.3326469999999
 30
0.000000000000000
 11
681.7474169999999
 21
298.8326470000000
 31
0.000000000000000
  0
LINE
  5
367
100
AcDbEntity
  8
1
  6
CONTINUOUS
 62
7
100
AcDbLine
 10
675.7474170000000
 20
298.3326470000000
 30
0.000000000000000
 11
674.7474170000000
 21
298.3326470000000
 31
0.000000000000000
  0
ARC
  5
368
100
AcDbEntity
  8
1
  6
CONTINUOUS
 62
7
100
AcDbCircle
 10
674.7474170000000
 20
297.3326469999999
 30
0.000000000000000
 40
1.000000000000000
100
AcDbArc
 50
90.00000000000000
 51
174.2608300000000
  0
LINE
  5
369
100
AcDbEntity
  8
1
  6
CONTINUOUS
 62
7
100
AcDbLine
 10
44.20315000000000
 20
359.9424980000000
 30
0.000000000000000
 11
31.20315000000000
 21
359.9424980000000
 31
0.000000000000000
  0
LINE
  5
36A
100
AcDbEntity
  8
1
  6
CONTINUOUS
 62
7
100
AcDbLine
 10
44.20315000000000
 20
371.9424979999998
 30
0.000000000000000
 11
31.20315000000000
 21
371.9424979999998
 31
0.000000000000000
  0
LINE
  5
36B
100
AcDbEntity
  8
1
  6
CONTINUOUS
 62
7
100
AcDbLine
 10
32.79545800000001
 20
370.6540359999998
 30
0.000000000000000
 11
42.99545800000000
 21
366.4040359999998
 31
0.000000000000000
  0
LINE
  5
36C
100
AcDbEntity
  8
1
  6
CONTINUOUS
 62
7
100
AcDbLine
 10
32.79545800000001
 20
361.2309589999999
 30
0.000000000000000
 11
42.99545799999997
 21
365.4809589999999
 31
0.000000000000000
  0
ARC
  5
36D
100
AcDbEntity
  8
1
  6
CONTINUOUS
 62
7
100
AcDbCircle
 10
31.20315000000000
 20
360.4424980000000
 30
0.000000000000000
 40
0.5000000000000000
100
AcDbArc
 50
180.0000000000000
 51
270.0000000000000
  0
LINE
  5
36E
100
AcDbEntity
  8
1
  6
CONTINUOUS
 62
7
100
AcDbLine
 10
30.70315000000000
 20
371.4424979999998
 30
0.000000000000000
 11
30.70315000000000
 21
360.4424980000000
 31
0.000000000000000
  0
ARC
  5
36F
100
AcDbEntity
  8
1
  6
CONTINUOUS
 62
7
100
AcDbCircle
 10
31.20315000000000
 20
371.4424979999998
 30
0.000000000000000
 40
0.5000000000000000
100
AcDbArc
 50
90.00000000000000
 51
180.0000000000000
  0
ARC
  5
370
100
AcDbEntity
  8
1
  6
CONTINUOUS
 62
7
100
AcDbCircle
 10
32.60315000000000
 20
361.6924980000000
 30
0.000000000000000
 40
0.5000000000000000
100
AcDbArc
 50
180.0000000000000
 51
292.6198649999999
  0
ARC
  5
371
100
AcDbEntity
  8
1
  6
CONTINUOUS
 62
7
100
AcDbCircle
 10
32.60315000000000
 20
370.1924980000000
 30
0.000000000000000
 40
0.5000000000000000
100
AcDbArc
 50
67.38013500000000
 51
180.0000000000000
  0
LINE
  5
372
100
AcDbEntity
  8
1
  6
CONTINUOUS
 62
7
100
AcDbLine
 10
32.10315000000000
 20
361.6924980000000
 30
0.000000000000000
 11
32.10315000000000
 21
370.1924980000000
 31
0.000000000000000
  0
ARC
  5
373
100
AcDbEntity
  8
1
  6
CONTINUOUS
 62
7
100
AcDbCircle
 10
44.20315000000000
 20
360.4424980000000
 30
0.000000000000000
 40
0.5000000000000000
100
AcDbArc
 50
270.0000000000000
 51
360.0000000000000
  0
LINE
  5
374
100
AcDbEntity
  8
1
  6
CONTINUOUS
 62
7
100
AcDbLine
 10
44.70315000000000
 20
371.4424979999998
 30
0.000000000000000
 11
44.70315000000000
 21
360.4424980000000
 31
0.000000000000000
  0
ARC
  5
375
100
AcDbEntity
  8
1
  6
CONTINUOUS
 62
7
100
AcDbCircle
 10
44.20315000000000
 20
371.4424979999998
 30
0.000000000000000
 40
0.5000000000000000
100
AcDbArc
 50
0.000000000000000
 51
90.00000000000000
  0
ARC
  5
376
100
AcDbEntity
  8
1
  6
CONTINUOUS
 62
7
100
AcDbCircle
 10
42.80315000000000
 20
365.9424980000000
 30
0.000000000000000
 40
0.5000000000000000
100
AcDbArc
 50
292.6198649999999
 51
427.3801350000000
  0
LINE
  5
377
100
AcDbEntity
  8
1
  6
CONTINUOUS
 62
7
100
AcDbLine
 10
243.4900170000000
 20
294.3326470000000
 30
0.000000000000000
 11
243.4900170000000
 21
272.3326469999999
 31
0.000000000000000
  0
LINE
  5
378
100
AcDbEntity
  8
1
  6
CONTINUOUS
 62
7
100
AcDbLine
 10
243.4900170000000
 20
430.5643269999998
 30
0.000000000000000
 11
243.4900170000000
 21
408.5643270000000
 31
0.000000000000000
  0
LINE
  5
379
100
AcDbEntity
  8
1
  6
CONTINUOUS
 62
7
100
AcDbLine
 10
243.4900170000000
 20
71.10842099999998
 30
0.000000000000000
 11
243.4900170000000
 21
49.10842099999999
 31
0.000000000000000
  0
LINE
  5
37A
100
AcDbEntity
  8
1
  6
CONTINUOUS
 62
7
100
AcDbLine
 10
622.3046169999999
 20
294.3326470000000
 30
0.000000000000000
 11
622.3046169999999
 21
272.3326469999999
 31
0.000000000000000
  0
ENDSEC
  0
SECTION
  2
OBJECTS
  0
DICTIONARY
  5
3A4
100
AcDbDictionary
  3
ACAD_GROUP
350
3A5
  3
ACAD_LAYOUT
350
3A6
  3
ACAD_MLINESTYLE
350
3A7
  0
DICTIONARY
  5
3A5
102
{ACAD_REACTORS
330
3A4
102
}
330
3A4
100
AcDbDictionary
  0
DICTIONARY
  5
3A6
102
{ACAD_REACTORS
330
3A4
102
}
330
3A4
100
AcDbDictionary
  3
Model
350
3A8
  3
ﾚｲｱｳﾄ1
350
3A9
  3
ﾚｲｱｳﾄ2
350
3AA
  0
DICTIONARY
  5
3A7
102
{ACAD_REACTORS
330
3A4
102
}
330
3A4
100
AcDbDictionary
  3
STANDARD
350
3AB
  0
LAYOUT
  5
3A8
102
{ACAD_REACTORS
330
3A6
102
}
330
3A6
100
AcDbPlotSettings
 70
11952
  4
A3
 44
297.000000
 45
420.000000
 73
  1
 72
  1
100
AcDbLayout
  1
Model
 71
0
330
39B
  0
LAYOUT
  5
3A9
102
{ACAD_REACTORS
330
3A6
102
}
330
3A6
100
AcDbPlotSettings
100
AcDbLayout
  1
ﾚｲｱｳﾄ1
 71
1
330
39C
  0
LAYOUT
  5
3AA
102
{ACAD_REACTORS
330
3A6
102
}
330
3A6
100
AcDbPlotSettings
100
AcDbLayout
  1
ﾚｲｱｳﾄ2
 71
2
330
39D
  0
MLINESTYLE
  5
3AB
102
{ACAD_REACTORS
330
3A7
102
}
330
3A7
100
AcDbMlineStyle
  2
STANDARD
 70
     0
  3

 62
   256
 51
90.00
 52
90.00
 71
     2
 49
0.50
 62
   256
  6
BYLAYER
 49
-0.50
 62
   256
  6
BYLAYER
  0
ENDSEC
  0
EOF
