  0
SECTION
  2
HEADER
  9
$ACADVER
  1
AC1015
  9
$ACADMAINTVER
 70
    20
  9
$DWGCODEPAGE
  3
ANSI_932
  9
$INSBASE
 10
0.0
 20
0.0
 30
0.0
  9
$EXTMIN
 10
10.0
 20
9.999999999999998
 30
0.0
  9
$EXTMAX
 10
291.5843629999999
 20
221.66754
 30
0.0
  9
$LIMMIN
 10
0.0
 20
0.0
  9
$LIMMAX
 10
396.0
 20
273.0
  9
$ORTHOMODE
 70
     1
  9
$REGENMODE
 70
     1
  9
$FILLMODE
 70
     1
  9
$QTEXTMODE
 70
     0
  9
$MIRRTEXT
 70
     1
  9
$LTSCALE
 40
20.0
  9
$ATTMODE
 70
     1
  9
$TEXTSIZE
 40
5.0
  9
$TRACEWID
 40
1.0
  9
$TEXTSTYLE
  7
STANDARD
  9
$CLAYER
  8
0
  9
$CELTYPE
  6
BYLAYER
  9
$CECOLOR
 62
   256
  9
$CELTSCALE
 40
1.0
  9
$DISPSILH
 70
     0
  9
$DIMSCALE
 40
1.0
  9
$DIMASZ
 40
3.0
  9
$DIMEXO
 40
1.0
  9
$DIMDLI
 40
10.0
  9
$DIMRND
 40
0.0
  9
$DIMDLE
 40
0.0
  9
$DIMEXE
 40
1.0
  9
$DIMTP
 40
0.0
  9
$DIMTM
 40
0.0
  9
$DIMTXT
 40
3.2
  9
$DIMCEN
 40
0.0
  9
$DIMTSZ
 40
0.0
  9
$DIMTOL
 70
     0
  9
$DIMLIM
 70
     0
  9
$DIMTIH
 70
     0
  9
$DIMTOH
 70
     0
  9
$DIMSE1
 70
     0
  9
$DIMSE2
 70
     0
  9
$DIMTAD
 70
     3
  9
$DIMZIN
 70
     8
  9
$DIMBLK
  1

  9
$DIMASO
 70
     1
  9
$DIMSHO
 70
     1
  9
$DIMPOST
  1

  9
$DIMAPOST
  1

  9
$DIMALT
 70
     0
  9
$DIMALTD
 70
     2
  9
$DIMALTF
 40
25.4
  9
$DIMLFAC
 40
1.0
  9
$DIMTOFL
 70
     1
  9
$DIMTVP
 40
0.0
  9
$DIMTIX
 70
     0
  9
$DIMSOXD
 70
     0
  9
$DIMSAH
 70
     1
  9
$DIMBLK1
  1

  9
$DIMBLK2
  1

  9
$DIMSTYLE
  2
STANDARD
  9
$DIMCLRD
 70
     0
  9
$DIMCLRE
 70
     0
  9
$DIMCLRT
 70
     0
  9
$DIMTFAC
 40
1.0
  9
$DIMGAP
 40
1.0
  9
$DIMJUST
 70
     0
  9
$DIMSD1
 70
     0
  9
$DIMSD2
 70
     0
  9
$DIMTOLJ
 70
     1
  9
$DIMTZIN
 70
     0
  9
$DIMALTZ
 70
     0
  9
$DIMALTTZ
 70
     0
  9
$DIMUPT
 70
     0
  9
$DIMDEC
 70
     4
  9
$DIMTDEC
 70
     4
  9
$DIMALTU
 70
     2
  9
$DIMALTTD
 70
     2
  9
$DIMTXSTY
  7
STANDARD
  9
$DIMAUNIT
 70
     0
  9
$DIMADEC
 70
     0
  9
$DIMALTRND
 40
0.0
  9
$DIMAZIN
 70
     0
  9
$DIMDSEP
 70
    46
  9
$DIMATFIT
 70
     3
  9
$DIMFRAC
 70
     0
  9
$DIMLDRBLK
  1

  9
$DIMLUNIT
 70
     2
  9
$DIMLWD
 70
    -2
  9
$DIMLWE
 70
    -2
  9
$DIMTMOVE
 70
     0
  9
$LUNITS
 70
     2
  9
$LUPREC
 70
     4
  9
$SKETCHINC
 40
1.0
  9
$FILLETRAD
 40
2.5
  9
$AUNITS
 70
     0
  9
$AUPREC
 70
     2
  9
$MENU
  1
.
  9
$ELEVATION
 40
0.0
  9
$PELEVATION
 40
0.0
  9
$THICKNESS
 40
0.0
  9
$LIMCHECK
 70
     0
  9
$CHAMFERA
 40
10.0
  9
$CHAMFERB
 40
10.0
  9
$CHAMFERC
 40
0.0
  9
$CHAMFERD
 40
0.0
  9
$SKPOLY
 70
     0
  9
$TDCREATE
 40
2450737.555404746
  9
$TDUCREATE
 40
2450737.180404746
  9
$TDUPDATE
 40
2457192.640610729
  9
$TDUUPDATE
 40
2457192.265610729
  9
$TDINDWG
 40
0.0000155324
  9
$TDUSRTIMER
 40
0.0000150347
  9
$USRTIMER
 70
     1
  9
$ANGBASE
 50
0.0
  9
$ANGDIR
 70
     0
  9
$PDMODE
 70
     0
  9
$PDSIZE
 40
0.0
  9
$PLINEWID
 40
0.0
  9
$SPLFRAME
 70
     0
  9
$SPLINETYPE
 70
     6
  9
$SPLINESEGS
 70
     8
  9
$HANDSEED
  5
9AD8
  9
$SURFTAB1
 70
     6
  9
$SURFTAB2
 70
     6
  9
$SURFTYPE
 70
     6
  9
$SURFU
 70
     6
  9
$SURFV
 70
     6
  9
$UCSBASE
  2

  9
$UCSNAME
  2

  9
$UCSORG
 10
0.0
 20
0.0
 30
0.0
  9
$UCSXDIR
 10
1.0
 20
0.0
 30
0.0
  9
$UCSYDIR
 10
0.0
 20
1.0
 30
0.0
  9
$UCSORTHOREF
  2

  9
$UCSORTHOVIEW
 70
     0
  9
$UCSORGTOP
 10
0.0
 20
0.0
 30
0.0
  9
$UCSORGBOTTOM
 10
0.0
 20
0.0
 30
0.0
  9
$UCSORGLEFT
 10
0.0
 20
0.0
 30
0.0
  9
$UCSORGRIGHT
 10
0.0
 20
0.0
 30
0.0
  9
$UCSORGFRONT
 10
0.0
 20
0.0
 30
0.0
  9
$UCSORGBACK
 10
0.0
 20
0.0
 30
0.0
  9
$PUCSBASE
  2

  9
$PUCSNAME
  2

  9
$PUCSORG
 10
0.0
 20
0.0
 30
0.0
  9
$PUCSXDIR
 10
1.0
 20
0.0
 30
0.0
  9
$PUCSYDIR
 10
0.0
 20
1.0
 30
0.0
  9
$PUCSORTHOREF
  2

  9
$PUCSORTHOVIEW
 70
     0
  9
$PUCSORGTOP
 10
0.0
 20
0.0
 30
0.0
  9
$PUCSORGBOTTOM
 10
0.0
 20
0.0
 30
0.0
  9
$PUCSORGLEFT
 10
0.0
 20
0.0
 30
0.0
  9
$PUCSORGRIGHT
 10
0.0
 20
0.0
 30
0.0
  9
$PUCSORGFRONT
 10
0.0
 20
0.0
 30
0.0
  9
$PUCSORGBACK
 10
0.0
 20
0.0
 30
0.0
  9
$USERI1
 70
     0
  9
$USERI2
 70
     0
  9
$USERI3
 70
     0
  9
$USERI4
 70
     0
  9
$USERI5
 70
     0
  9
$USERR1
 40
0.0
  9
$USERR2
 40
0.0
  9
$USERR3
 40
0.0
  9
$USERR4
 40
0.0
  9
$USERR5
 40
0.0
  9
$WORLDVIEW
 70
     1
  9
$SHADEDGE
 70
     3
  9
$SHADEDIF
 70
    70
  9
$TILEMODE
 70
     1
  9
$MAXACTVP
 70
    16
  9
$PINSBASE
 10
0.0
 20
0.0
 30
0.0
  9
$PLIMCHECK
 70
     0
  9
$PEXTMIN
 10
1.000000000000000E+20
 20
1.000000000000000E+20
 30
1.000000000000000E+20
  9
$PEXTMAX
 10
-1.000000000000000E+20
 20
-1.000000000000000E+20
 30
-1.000000000000000E+20
  9
$PLIMMIN
 10
0.0
 20
0.0
  9
$PLIMMAX
 10
420.0
 20
297.0
  9
$UNITMODE
 70
     0
  9
$VISRETAIN
 70
     0
  9
$PLINEGEN
 70
     0
  9
$PSLTSCALE
 70
     0
  9
$TREEDEPTH
 70
  3020
  9
$CMLSTYLE
  2
STANDARD
  9
$CMLJUST
 70
     0
  9
$CMLSCALE
 40
1.0
  9
$PROXYGRAPHICS
 70
     1
  9
$MEASUREMENT
 70
     0
  9
$CELWEIGHT
370
    -1
  9
$ENDCAPS
280
     0
  9
$JOINSTYLE
280
     0
  9
$LWDISPLAY
290
     0
  9
$INSUNITS
 70
     0
  9
$HYPERLINKBASE
  1

  9
$STYLESHEET
  1

  9
$XEDIT
290
     1
  9
$CEPSNTYPE
380
     0
  9
$PSTYLEMODE
290
     1
  9
$FINGERPRINTGUID
  2
{E435737F-D4FD-4E95-99C7-6D57A7AFDD78}
  9
$VERSIONGUID
  2
{20781742-2FC2-4FBB-A13E-00EAEBF9C04F}
  9
$EXTNAMES
290
     1
  9
$PSVPSCALE
 40
0.0
  9
$OLESTARTUP
290
     0
  0
ENDSEC
  0
SECTION
  2
CLASSES
  0
CLASS
  1
ACDBDICTIONARYWDFLT
  2
AcDbDictionaryWithDefault
  3
ObjectDBX Classes
 90
        0
280
     0
281
     0
  0
CLASS
  1
ACDBPLACEHOLDER
  2
AcDbPlaceHolder
  3
ObjectDBX Classes
 90
        0
280
     0
281
     0
  0
CLASS
  1
LAYOUT
  2
AcDbLayout
  3
ObjectDBX Classes
 90
        0
280
     0
281
     0
  0
CLASS
  1
DICTIONARYVAR
  2
AcDbDictionaryVar
  3
ObjectDBX Classes
 90
        0
280
     0
281
     0
  0
CLASS
  1
MATERIAL
  2
AcDbMaterial
  3
ObjectDBX Classes
 90
     1153
280
     0
281
     0
  0
CLASS
  1
VISUALSTYLE
  2
AcDbVisualStyle
  3
ObjectDBX Classes
 90
     4095
280
     0
281
     0
  0
CLASS
  1
TABLESTYLE
  2
AcDbTableStyle
  3
ObjectDBX Classes
 90
     4095
280
     0
281
     0
  0
CLASS
  1
SCALE
  2
AcDbScale
  3
ObjectDBX Classes
 90
     1153
280
     0
281
     0
  0
CLASS
  1
MLEADERSTYLE
  2
AcDbMLeaderStyle
  3
ACDB_MLEADERSTYLE_CLASS
 90
     4095
280
     0
281
     0
  0
CLASS
  1
ACDBSECTIONVIEWSTYLE
  2
AcDbSectionViewStyle
  3
ObjectDBX Classes
 90
     1025
280
     0
281
     0
  0
CLASS
  1
ACDBDETAILVIEWSTYLE
  2
AcDbDetailViewStyle
  3
ObjectDBX Classes
 90
     1025
280
     0
281
     0
  0
CLASS
  1
CELLSTYLEMAP
  2
AcDbCellStyleMap
  3
ObjectDBX Classes
 90
     1152
280
     0
281
     0
  0
ENDSEC
  0
SECTION
  2
TABLES
  0
TABLE
  2
VPORT
  5
9752
330
0
100
AcDbSymbolTable
 70
     1
  0
VPORT
  5
9A21
330
9752
100
AcDbSymbolTableRecord
100
AcDbViewportTableRecord
  2
*ACTIVE
 70
     0
 10
0.0
 20
0.0
 11
1.0
 21
1.0
 12
214.9127183020535
 22
115.8383795178243
 13
0.0
 23
0.0
 14
10.0
 24
10.0
 15
10.0
 25
10.0
 16
0.0
 26
0.0
 36
1.0
 17
0.0
 27
0.0
 37
0.0
 40
214.0660253960892
 41
1.899603698811096
 42
50.0
 43
0.0
 44
0.0
 50
0.0
 51
0.0
 71
     0
 72
   100
 73
     1
 74
     0
 75
     0
 76
     0
 77
     0
 78
     0
281
     0
 65
     1
110
0.0
120
0.0
130
0.0
111
1.0
121
0.0
131
0.0
112
0.0
122
1.0
132
0.0
 79
     0
146
0.0
1001
ACAD_NAV_VCDISPLAY
1070
     3
  0
ENDTAB
  0
TABLE
  2
LTYPE
  5
974F
330
0
100
AcDbSymbolTable
 70
     4
  0
LTYPE
  5
975D
330
974F
100
AcDbSymbolTableRecord
100
AcDbLinetypeTableRecord
  2
BYBLOCK
 70
     0
  3

 72
    65
 73
     0
 40
0.0
  0
LTYPE
  5
975E
330
974F
100
AcDbSymbolTableRecord
100
AcDbLinetypeTableRecord
  2
BYLAYER
 70
     0
  3

 72
    65
 73
     0
 40
0.0
  0
LTYPE
  5
975F
330
974F
100
AcDbSymbolTableRecord
100
AcDbLinetypeTableRecord
  2
CONTINUOUS
 70
     0
  3
Solid line
 72
    65
 73
     0
 40
0.0
  0
LTYPE
  5
976D
330
974F
100
AcDbSymbolTableRecord
100
AcDbLinetypeTableRecord
  2
DASHED
 70
     0
  3
__ __ __ __ __ __ __ __ __ __ __ __ __ __ __ __
 72
    65
 73
     2
 40
0.75
 49
0.5
 74
     0
 49
-0.25
 74
     0
  0
LTYPE
  5
976E
330
974F
100
AcDbSymbolTableRecord
100
AcDbLinetypeTableRecord
  2
CENTER
 70
     0
  3
____ _ ____ _ ____ _ ____ _ ____ _ ____ _ ____ 
 72
    65
 73
     4
 40
2.0
 49
1.25
 74
     0
 49
-0.25
 74
     0
 49
0.25
 74
     0
 49
-0.25
 74
     0
  0
LTYPE
  5
976F
330
974F
100
AcDbSymbolTableRecord
100
AcDbLinetypeTableRecord
  2
PHANTOM
 70
     0
  3
______  __  __  ______  __  __  ______  __  __ 
 72
    65
 73
     6
 40
2.5
 49
1.25
 74
     0
 49
-0.25
 74
     0
 49
0.25
 74
     0
 49
-0.25
 74
     0
 49
0.25
 74
     0
 49
-0.25
 74
     0
  0
ENDTAB
  0
TABLE
  2
LAYER
  5
974C
330
0
100
AcDbSymbolTable
 70
     8
  0
LAYER
  5
975A
102
{ACAD_XDICTIONARY
360
9A7C
102
}
330
974C
100
AcDbSymbolTableRecord
100
AcDbLayerTableRecord
  2
0
 70
     0
 62
     7
  6
CONTINUOUS
370
    -3
390
9A2A
  0
LAYER
  5
9770
102
{ACAD_XDICTIONARY
360
9A7E
102
}
330
974C
100
AcDbSymbolTableRecord
100
AcDbLayerTableRecord
  2
4
 70
     0
 62
     1
  6
CENTER
370
    -3
390
9A2A
  0
LAYER
  5
9771
102
{ACAD_XDICTIONARY
360
9A80
102
}
330
974C
100
AcDbSymbolTableRecord
100
AcDbLayerTableRecord
  2
5
 70
     0
 62
     6
  6
PHANTOM
370
    -3
390
9A2A
  0
LAYER
  5
9772
102
{ACAD_XDICTIONARY
360
9A82
102
}
330
974C
100
AcDbSymbolTableRecord
100
AcDbLayerTableRecord
  2
1
 70
     0
 62
     7
  6
CONTINUOUS
370
    -3
390
9A2A
  0
LAYER
  5
9773
102
{ACAD_XDICTIONARY
360
9A84
102
}
330
974C
100
AcDbSymbolTableRecord
100
AcDbLayerTableRecord
  2
2
 70
     0
 62
     4
  6
CONTINUOUS
370
    -3
390
9A2A
  0
LAYER
  5
9774
102
{ACAD_XDICTIONARY
360
9A86
102
}
330
974C
100
AcDbSymbolTableRecord
100
AcDbLayerTableRecord
  2
3
 70
     0
 62
     2
  6
DASHED
370
    -3
390
9A2A
  0
LAYER
  5
9775
102
{ACAD_XDICTIONARY
360
9A88
102
}
330
974C
100
AcDbSymbolTableRecord
100
AcDbLayerTableRecord
  2
6
 70
     0
 62
     5
  6
CONTINUOUS
370
    -3
390
9A2A
  0
LAYER
  5
9776
102
{ACAD_XDICTIONARY
360
9A8A
102
}
330
974C
100
AcDbSymbolTableRecord
100
AcDbLayerTableRecord
  2
7
 70
     0
 62
     3
  6
CONTINUOUS
370
    -3
390
9A2A
  0
ENDTAB
  0
TABLE
  2
STYLE
  5
974D
330
0
100
AcDbSymbolTable
 70
     1
  0
STYLE
  5
975B
330
974D
100
AcDbSymbolTableRecord
100
AcDbTextStyleTableRecord
  2
STANDARD
 70
     0
 40
0.0
 41
1.0
 50
0.0
 71
     0
 42
5.0
  3
txt
  4

  0
ENDTAB
  0
TABLE
  2
VIEW
  5
9750
330
0
100
AcDbSymbolTable
 70
     0
  0
ENDTAB
  0
TABLE
  2
UCS
  5
9751
330
0
100
AcDbSymbolTable
 70
     0
  0
ENDTAB
  0
TABLE
  2
APPID
  5
9753
330
0
100
AcDbSymbolTable
 70
     3
  0
APPID
  5
975C
330
9753
100
AcDbSymbolTableRecord
100
AcDbRegAppTableRecord
  2
ACAD
 70
     0
  0
APPID
  5
9A96
330
9753
100
AcDbSymbolTableRecord
100
AcDbRegAppTableRecord
  2
ACAD_NAV_VCDISPLAY
 70
     0
  0
APPID
  5
9ACF
330
9753
100
AcDbSymbolTableRecord
100
AcDbRegAppTableRecord
  2
ACAD_MLEADERVER
 70
     0
  0
ENDTAB
  0
TABLE
  2
DIMSTYLE
  5
9754
330
0
100
AcDbSymbolTable
 70
     1
100
AcDbDimStyleTable
 71
     0
  0
DIMSTYLE
105
9778
330
9754
100
AcDbSymbolTableRecord
100
AcDbDimStyleTableRecord
  2
STANDARD
 70
     0
 41
3.0
 42
1.0
 43
10.0
 44
1.0
 73
     0
 74
     0
 77
     3
 78
     8
140
3.2
141
0.0
147
1.0
172
     1
173
     1
284
     8
285
     8
286
     8
340
975B
  0
ENDTAB
  0
TABLE
  2
BLOCK_RECORD
  5
974B
330
0
100
AcDbSymbolTable
 70
     0
  0
BLOCK_RECORD
  5
9768
102
{ACAD_XDICTIONARY
360
9A24
102
}
330
974B
100
AcDbSymbolTableRecord
100
AcDbBlockTableRecord
  2
*MODEL_SPACE
340
9A78
  0
BLOCK_RECORD
  5
9764
102
{ACAD_XDICTIONARY
360
9A22
102
}
330
974B
100
AcDbSymbolTableRecord
100
AcDbBlockTableRecord
  2
*PAPER_SPACE
340
9A79
  0
ENDTAB
  0
ENDSEC
  0
SECTION
  2
BLOCKS
  0
BLOCK
  5
9769
330
9768
100
AcDbEntity
  8
0
100
AcDbBlockBegin
  2
*MODEL_SPACE
 70
     0
 10
0.0
 20
0.0
 30
0.0
  3
*MODEL_SPACE
  1

  0
ENDBLK
  5
976A
330
9768
100
AcDbEntity
  8
0
100
AcDbBlockEnd
  0
BLOCK
  5
9765
330
9764
100
AcDbEntity
 67
     1
  8
0
100
AcDbBlockBegin
  2
*PAPER_SPACE
 70
     0
 10
0.0
 20
0.0
 30
0.0
  3
*PAPER_SPACE
  1

  0
ENDBLK
  5
9766
330
9764
100
AcDbEntity
 67
     1
  8
0
100
AcDbBlockEnd
  0
ENDSEC
  0
SECTION
  2
ENTITIES
  0
TEXT
  5
9780
330
9768
100
AcDbEntity
  8
7
  6
Continuous
100
AcDbText
 10
10.0
 20
18.0
 30
0.0
 40
3.0
  1
TYPE No.THA-306JS
100
AcDbText
  0
TEXT
  5
9781
330
9768
100
AcDbEntity
  8
7
  6
Continuous
100
AcDbText
 10
10.0
 20
26.0
 30
0.0
 40
3.0
  1
CODE No.3797
100
AcDbText
  0
TEXT
  5
9782
330
9768
100
AcDbEntity
  8
1
  6
Continuous
100
AcDbText
 10
10.0
 20
10.0
 30
0.0
 40
1.399999999999999
  1
LAYER
100
AcDbText
  0
TEXT
  5
9783
330
9768
100
AcDbEntity
  8
1
  6
Continuous
100
AcDbText
 10
17.97951099999998
 20
10.04873699999998
 30
0.0
 40
1.399999999999999
  1
1
100
AcDbText
  0
TEXT
  5
9784
330
9768
100
AcDbEntity
  8
7
  6
Continuous
100
AcDbText
 10
29.97951099999999
 20
10.04873699999998
 30
0.0
 40
1.399999999999999
  1
7
100
AcDbText
  0
TEXT
  5
9785
330
9768
100
AcDbEntity
  8
4
  6
CENTER
100
AcDbText
 10
23.97951099999999
 20
10.04873699999998
 30
0.0
 40
1.399999999999999
  1
4
100
AcDbText
  0
TEXT
  5
9786
330
9768
100
AcDbEntity
  8
3
  6
DASHED
100
AcDbText
 10
21.979511
 20
10.04873699999998
 30
0.0
 40
1.399999999999999
  1
3
100
AcDbText
  0
TEXT
  5
9787
330
9768
100
AcDbEntity
  8
2
  6
Continuous
100
AcDbText
 10
19.97951099999999
 20
10.04873699999998
 30
0.0
 40
1.399999999999999
  1
2
100
AcDbText
  0
TEXT
  5
9788
330
9768
100
AcDbEntity
  8
6
  6
Continuous
100
AcDbText
 10
27.979511
 20
10.04873699999998
 30
0.0
 40
1.399999999999999
  1
6
100
AcDbText
  0
TEXT
  5
9789
330
9768
100
AcDbEntity
  8
5
  6
PHANTOM
100
AcDbText
 10
25.97951099999999
 20
10.04873699999998
 30
0.0
 40
1.399999999999999
  1
5
100
AcDbText
  0
LINE
  5
978A
330
9768
100
AcDbEntity
  8
4
  6
CENTER
100
AcDbLine
 10
74.784363
 20
131.1915399999997
 30
0.0
 11
11.784363
 21
131.1915399999997
 31
0.0
  0
LINE
  5
978B
330
9768
100
AcDbEntity
  8
1
  6
Continuous
100
AcDbLine
 10
28.28436299999999
 20
127.1535399999998
 30
0.0
 11
28.28436299999999
 21
123.4875399999999
 31
0.0
  0
LINE
  5
978C
330
9768
100
AcDbEntity
  8
1
  6
Continuous
100
AcDbLine
 10
28.28436299999999
 20
138.8965399999999
 30
0.0
 11
28.28436299999999
 21
135.2305399999999
 31
0.0
  0
LINE
  5
978D
330
9768
100
AcDbEntity
  8
1
  6
Continuous
100
AcDbLine
 10
33.28436299999999
 20
127.1535399999998
 30
0.0
 11
33.28436299999999
 21
123.4875399999999
 31
0.0
  0
LINE
  5
978E
330
9768
100
AcDbEntity
  8
1
  6
Continuous
100
AcDbLine
 10
33.28436299999999
 20
138.8965399999999
 30
0.0
 11
33.28436299999999
 21
135.2305399999999
 31
0.0
  0
LINE
  5
978F
330
9768
100
AcDbEntity
  8
1
  6
Continuous
100
AcDbLine
 10
24.935363
 20
123.7055399999998
 30
0.0
 11
21.856363
 21
119.7655399999999
 31
0.0
  0
LINE
  5
9790
330
9768
100
AcDbEntity
  8
1
  6
Continuous
100
AcDbLine
 10
24.935363
 20
138.6785399999999
 30
0.0
 11
21.85736299999998
 21
142.61854
 31
0.0
  0
LINE
  5
9791
330
9768
100
AcDbEntity
  8
1
  6
Continuous
100
AcDbLine
 10
27.848363
 20
140.22754
 30
0.0
 11
26.303363
 21
144.9825399999998
 31
0.0
  0
LINE
  5
9792
330
9768
100
AcDbEntity
  8
4
  6
CENTER
100
AcDbLine
 10
30.78436299999999
 20
112.19154
 30
0.0
 11
30.78436299999999
 21
150.19154
 31
0.0
  0
LINE
  5
9793
330
9768
100
AcDbEntity
  8
1
  6
Continuous
100
AcDbLine
 10
27.39736300000001
 20
135.5265399999999
 30
0.0
 11
25.550363
 21
137.8905399999998
 31
0.0
  0
LINE
  5
9794
330
9768
100
AcDbEntity
  8
1
  6
Continuous
100
AcDbLine
 10
27.398363
 20
126.8585399999999
 30
0.0
 11
25.551363
 21
124.4935399999999
 31
0.0
  0
LINE
  5
9795
330
9768
100
AcDbEntity
  8
4
  6
CENTER
100
AcDbLine
 10
33.28436299999999
 20
117.6915399999999
 30
0.0
 11
28.28436299999999
 21
117.6915399999999
 31
0.0
  0
LINE
  5
9796
330
9768
100
AcDbEntity
  8
1
  6
Continuous
100
AcDbLine
 10
125.8643629999999
 20
115.1915399999999
 30
0.0
 11
125.8643629999999
 21
147.19154
 31
0.0
  0
LINE
  5
9797
330
9768
100
AcDbEntity
  8
1
  6
Continuous
100
AcDbLine
 10
143.1643629999999
 20
138.1205399999998
 30
0.0
 11
143.1643629999999
 21
141.1915399999998
 31
0.0
  0
LINE
  5
9798
330
9768
100
AcDbEntity
  8
4
  6
CENTER
100
AcDbLine
 10
119.664363
 20
131.1915399999997
 30
0.0
 11
157.8253629999998
 21
131.1915399999997
 31
0.0
  0
LINE
  5
9799
330
9768
100
AcDbEntity
  8
1
  6
Continuous
100
AcDbLine
 10
126.164363
 20
115.1915399999999
 30
0.0
 11
131.8643629999999
 21
115.1915399999999
 31
0.0
  0
LINE
  5
979A
330
9768
100
AcDbEntity
  8
1
  6
Continuous
100
AcDbLine
 10
126.164363
 20
147.19154
 30
0.0
 11
131.8643629999999
 21
147.19154
 31
0.0
  0
LINE
  5
979B
330
9768
100
AcDbEntity
  8
1
  6
Continuous
100
AcDbLine
 10
141.1643629999999
 20
121.1925399999998
 30
0.0
 11
140.1643629999998
 21
120.1925399999998
 31
0.0
  0
LINE
  5
979C
330
9768
100
AcDbEntity
  8
1
  6
Continuous
100
AcDbLine
 10
140.1643629999998
 20
142.1925399999998
 30
0.0
 11
141.1643629999999
 21
141.1925399999998
 31
0.0
  0
LINE
  5
979D
330
9768
100
AcDbEntity
  8
1
  6
Continuous
100
AcDbLine
 10
140.1643629999998
 20
120.1915399999998
 30
0.0
 11
140.1643629999998
 21
125.6465399999999
 31
0.0
  0
LINE
  5
979E
330
9768
100
AcDbEntity
  8
1
  6
Continuous
100
AcDbLine
 10
140.1643629999998
 20
142.19154
 30
0.0
 11
140.1643629999998
 21
136.73754
 31
0.0
  0
LINE
  5
979F
330
9768
100
AcDbEntity
  8
1
  6
Continuous
100
AcDbLine
 10
141.1643629999999
 20
141.1915399999998
 30
0.0
 11
143.1643629999999
 21
141.1915399999998
 31
0.0
  0
LINE
  5
97A0
330
9768
100
AcDbEntity
  8
1
  6
Continuous
100
AcDbLine
 10
130.8643629999999
 20
115.1915399999999
 30
0.0
 11
130.8643629999999
 21
147.19154
 31
0.0
  0
LINE
  5
97A1
330
9768
100
AcDbEntity
  8
1
  6
Continuous
100
AcDbLine
 10
126.164363
 20
115.1925399999998
 30
0.0
 11
125.8643629999999
 21
115.4925399999999
 31
0.0
  0
LINE
  5
97A2
330
9768
100
AcDbEntity
  8
1
  6
Continuous
100
AcDbLine
 10
125.8643629999999
 20
146.89254
 30
0.0
 11
126.164363
 21
147.1925399999998
 31
0.0
  0
LINE
  5
97A3
330
9768
100
AcDbEntity
  8
4
  6
CENTER
100
AcDbLine
 10
291.5843629999999
 20
131.1915399999997
 30
0.0
 11
253.584363
 21
131.1915399999997
 31
0.0
  0
LINE
  5
97A4
330
9768
100
AcDbEntity
  8
1
  6
Continuous
100
AcDbLine
 10
282.084363
 20
125.6465399999999
 30
0.0
 11
282.084363
 21
136.73754
 31
0.0
  0
LINE
  5
97A5
330
9768
100
AcDbEntity
  8
1
  6
Continuous
100
AcDbLine
 10
268.386363
 20
138.46254
 30
0.0
 11
267.7363629999999
 21
139.58854
 31
0.0
  0
LINE
  5
97A6
330
9768
100
AcDbEntity
  8
1
  6
Continuous
100
AcDbLine
 10
143.1643629999999
 20
138.1205399999998
 30
0.0
 11
141.1643629999999
 21
138.1205399999998
 31
0.0
  0
LINE
  5
97A7
330
9768
100
AcDbEntity
  8
4
  6
CENTER
100
AcDbLine
 10
272.5843629999999
 20
110.14154
 30
0.0
 11
272.5843629999999
 21
152.8415399999999
 31
0.0
  0
LINE
  5
97A8
330
9768
100
AcDbEntity
  8
1
  6
Continuous
100
AcDbLine
 10
130.8643629999999
 20
189.66754
 30
0.0
 11
130.8643629999999
 21
221.66754
 31
0.0
  0
LINE
  5
97A9
330
9768
100
AcDbEntity
  8
1
  6
Continuous
100
AcDbLine
 10
130.764363
 20
189.66754
 30
0.0
 11
130.8643629999999
 21
189.7675399999999
 31
0.0
  0
LINE
  5
97AA
330
9768
100
AcDbEntity
  8
1
  6
Continuous
100
AcDbLine
 10
126.164363
 20
189.66754
 30
0.0
 11
130.764363
 21
189.66754
 31
0.0
  0
LINE
  5
97AB
330
9768
100
AcDbEntity
  8
1
  6
Continuous
100
AcDbLine
 10
126.164363
 20
189.66754
 30
0.0
 11
125.8643629999999
 21
189.9675399999999
 31
0.0
  0
LINE
  5
97AC
330
9768
100
AcDbEntity
  8
1
  6
Continuous
100
AcDbLine
 10
125.8643629999999
 20
189.66754
 30
0.0
 11
125.8643629999999
 21
221.66754
 31
0.0
  0
LINE
  5
97AD
330
9768
100
AcDbEntity
  8
1
  6
Continuous
100
AcDbLine
 10
125.8643629999999
 20
221.36754
 30
0.0
 11
126.164363
 21
221.66754
 31
0.0
  0
LINE
  5
97AE
330
9768
100
AcDbEntity
  8
1
  6
Continuous
100
AcDbLine
 10
126.164363
 20
221.66754
 30
0.0
 11
130.764363
 21
221.66754
 31
0.0
  0
LINE
  5
97AF
330
9768
100
AcDbEntity
  8
1
  6
Continuous
100
AcDbLine
 10
130.764363
 20
221.66754
 30
0.0
 11
130.8643629999999
 21
221.5675399999998
 31
0.0
  0
LINE
  5
97B0
330
9768
100
AcDbEntity
  8
1
  6
Continuous
100
AcDbLine
 10
140.1643629999998
 20
196.16754
 30
0.0
 11
140.1643629999998
 21
214.6675399999999
 31
0.0
  0
LINE
  5
97B1
330
9768
100
AcDbEntity
  8
1
  6
Continuous
100
AcDbLine
 10
126.164363
 20
189.66754
 30
0.0
 11
126.164363
 21
221.66754
 31
0.0
  0
LINE
  5
97B2
330
9768
100
AcDbEntity
  8
1
  6
Continuous
100
AcDbLine
 10
130.764363
 20
189.66754
 30
0.0
 11
130.764363
 21
221.66754
 31
0.0
  0
LINE
  5
97B3
330
9768
100
AcDbEntity
  8
1
  6
Continuous
100
AcDbLine
 10
141.1643629999999
 20
196.16754
 30
0.0
 11
141.1643629999999
 21
214.6675399999999
 31
0.0
  0
LINE
  5
97B4
330
9768
100
AcDbEntity
  8
1
  6
Continuous
100
AcDbLine
 10
33.719363
 20
140.22754
 30
0.0
 11
35.26436300000001
 21
144.9825399999998
 31
0.0
  0
LINE
  5
97B5
330
9768
100
AcDbEntity
  8
1
  6
Continuous
100
AcDbLine
 10
154.364363
 20
208.6675399999998
 30
0.0
 11
154.364363
 21
202.66754
 31
0.0
  0
LINE
  5
97B6
330
9768
100
AcDbEntity
  8
1
  6
Continuous
100
AcDbLine
 10
209.864363
 20
123.4915399999999
 30
0.0
 11
209.864363
 21
138.8925399999999
 31
0.0
  0
LINE
  5
97B7
330
9768
100
AcDbEntity
  8
1
  6
Continuous
100
AcDbLine
 10
272.4243629999999
 20
125.6945399999999
 30
0.0
 11
267.0863629999999
 21
131.0325399999999
 31
0.0
  0
LINE
  5
97B8
330
9768
100
AcDbEntity
  8
1
  6
Continuous
100
AcDbLine
 10
278.081363
 20
131.3515399999998
 30
0.0
 11
272.7433629999998
 21
136.6895399999999
 31
0.0
  0
LINE
  5
97B9
330
9768
100
AcDbEntity
  8
1
  6
Continuous
100
AcDbLine
 10
278.081363
 20
131.0325399999999
 30
0.0
 11
272.7433629999998
 21
125.6945399999999
 31
0.0
  0
LINE
  5
97BA
330
9768
100
AcDbEntity
  8
1
  6
Continuous
100
AcDbLine
 10
272.4243629999999
 20
136.6895399999999
 30
0.0
 11
267.0863629999999
 21
131.3515399999998
 31
0.0
  0
LINE
  5
97BB
330
9768
100
AcDbEntity
  8
1
  6
Continuous
100
AcDbLine
 10
144.864363
 20
131.3515399999998
 30
0.0
 11
143.3643629999999
 21
131.3515399999998
 31
0.0
  0
LINE
  5
97BC
330
9768
100
AcDbEntity
  8
1
  6
Continuous
100
AcDbLine
 10
144.864363
 20
131.0325399999999
 30
0.0
 11
143.3643629999999
 21
131.0325399999999
 31
0.0
  0
LINE
  5
97BD
330
9768
100
AcDbEntity
  8
1
  6
Continuous
100
AcDbLine
 10
144.864363
 20
136.6895399999999
 30
0.0
 11
143.3643629999999
 21
136.6895399999999
 31
0.0
  0
LINE
  5
97BE
330
9768
100
AcDbEntity
  8
1
  6
Continuous
100
AcDbLine
 10
144.864363
 20
125.6945399999999
 30
0.0
 11
143.3643629999999
 21
125.6945399999999
 31
0.0
  0
LINE
  5
97BF
330
9768
100
AcDbEntity
  8
2
  6
Continuous
100
AcDbLine
 10
143.3643629999999
 20
133.6395399999998
 30
0.0
 11
144.864363
 21
131.3515399999998
 31
0.0
  0
LINE
  5
97C0
330
9768
100
AcDbEntity
  8
2
  6
Continuous
100
AcDbLine
 10
143.3643629999999
 20
134.4015399999999
 30
0.0
 11
144.864363
 21
136.6895399999999
 31
0.0
  0
LINE
  5
97C1
330
9768
100
AcDbEntity
  8
2
  6
Continuous
100
AcDbLine
 10
143.3643629999999
 20
128.7445399999998
 30
0.0
 11
144.864363
 21
131.0325399999999
 31
0.0
  0
LINE
  5
97C2
330
9768
100
AcDbEntity
  8
2
  6
Continuous
100
AcDbLine
 10
143.3643629999999
 20
127.9825399999999
 30
0.0
 11
144.864363
 21
125.6945399999999
 31
0.0
  0
LINE
  5
97C3
330
9768
100
AcDbEntity
  8
1
  6
Continuous
100
AcDbLine
 10
153.364363
 20
209.66754
 30
0.0
 11
154.364363
 21
208.6675399999998
 31
0.0
  0
LINE
  5
97C4
330
9768
100
AcDbEntity
  8
1
  6
Continuous
100
AcDbLine
 10
154.364363
 20
202.66754
 30
0.0
 11
153.364363
 21
201.66754
 31
0.0
  0
LINE
  5
97C5
330
9768
100
AcDbEntity
  8
1
  6
Continuous
100
AcDbLine
 10
276.5343629999999
 20
138.0335399999998
 30
0.0
 11
277.584363
 21
139.85254
 31
0.0
  0
LINE
  5
97C6
330
9768
100
AcDbEntity
  8
1
  6
Continuous
100
AcDbLine
 10
265.742363
 20
127.2415399999998
 30
0.0
 11
263.923363
 21
126.1915399999999
 31
0.0
  0
LINE
  5
97C7
330
9768
100
AcDbEntity
  8
1
  6
Continuous
100
AcDbLine
 10
263.084363
 20
134.31454
 30
0.0
 11
263.084363
 21
128.0695399999999
 31
0.0
  0
LINE
  5
97C8
330
9768
100
AcDbEntity
  8
1
  6
Continuous
100
AcDbLine
 10
123.3643629999999
 20
133.1915399999997
 30
0.0
 11
123.3643629999999
 21
129.19154
 31
0.0
  0
LINE
  5
97C9
330
9768
100
AcDbEntity
  8
1
  6
Continuous
100
AcDbLine
 10
123.3643629999999
 20
133.1915399999997
 30
0.0
 11
123.8643629999998
 21
133.1915399999997
 31
0.0
  0
LINE
  5
97CA
330
9768
100
AcDbEntity
  8
1
  6
Continuous
100
AcDbLine
 10
123.3643629999999
 20
129.19154
 30
0.0
 11
123.8643629999998
 21
129.19154
 31
0.0
  0
LINE
  5
97CB
330
9768
100
AcDbEntity
  8
1
  6
Continuous
100
AcDbLine
 10
141.1643629999999
 20
121.1915399999998
 30
0.0
 11
141.1643629999999
 21
141.1915399999998
 31
0.0
  0
LINE
  5
97CC
330
9768
100
AcDbEntity
  8
4
  6
CENTER
100
AcDbLine
 10
55.78436299999999
 20
112.19154
 30
0.0
 11
55.78436299999999
 21
150.19154
 31
0.0
  0
LINE
  5
97CD
330
9768
100
AcDbEntity
  8
4
  6
CENTER
100
AcDbLine
 10
43.28436299999999
 20
138.7945399999999
 30
0.0
 11
43.28436299999999
 21
124.0925399999998
 31
0.0
  0
LINE
  5
97CE
330
9768
100
AcDbEntity
  8
1
  6
Continuous
100
AcDbLine
 10
263.584363
 20
124.8675399999999
 30
0.0
 11
263.584363
 21
126.8335399999999
 31
0.0
  0
LINE
  5
97CF
330
9768
100
AcDbEntity
  8
1
  6
Continuous
100
AcDbLine
 10
263.584363
 20
135.5505399999999
 30
0.0
 11
263.584363
 21
137.5165399999999
 31
0.0
  0
LINE
  5
97D0
330
9768
100
AcDbEntity
  8
1
  6
Continuous
100
AcDbLine
 10
190.7703629999998
 20
149.6675399999998
 30
0.0
 11
193.7703629999998
 21
149.6675399999998
 31
0.0
  0
LINE
  5
97D1
330
9768
100
AcDbEntity
  8
1
  6
Continuous
100
AcDbLine
 10
193.7703629999998
 20
149.6675399999998
 30
0.0
 11
193.7703629999998
 21
112.7165399999999
 31
0.0
  0
LINE
  5
97D2
330
9768
100
AcDbEntity
  8
1
  6
Continuous
100
AcDbLine
 10
190.7703629999998
 20
149.6675399999998
 30
0.0
 11
190.7703629999998
 21
112.7165399999999
 31
0.0
  0
LINE
  5
97D3
330
9768
100
AcDbEntity
  8
1
  6
Continuous
100
AcDbLine
 10
190.7703629999998
 20
112.7165399999999
 30
0.0
 11
193.7703629999998
 21
112.7165399999999
 31
0.0
  0
LINE
  5
97D4
330
9768
100
AcDbEntity
  8
1
  6
Continuous
100
AcDbLine
 10
190.7703629999998
 20
121.9545399999998
 30
0.0
 11
193.7703629999998
 21
121.9545399999998
 31
0.0
  0
LINE
  5
97D5
330
9768
100
AcDbEntity
  8
1
  6
Continuous
100
AcDbLine
 10
190.7703629999998
 20
140.42954
 30
0.0
 11
193.7703629999998
 21
140.42954
 31
0.0
  0
LINE
  5
97D6
330
9768
100
AcDbEntity
  8
1
  6
Continuous
100
AcDbLine
 10
218.364363
 20
137.69154
 30
0.0
 11
218.364363
 21
124.69154
 31
0.0
  0
LINE
  5
97D7
330
9768
100
AcDbEntity
  8
1
  6
Continuous
100
AcDbLine
 10
217.7833629999998
 20
138.69754
 30
0.0
 11
211.864363
 21
138.69754
 31
0.0
  0
LINE
  5
97D8
330
9768
100
AcDbEntity
  8
1
  6
Continuous
100
AcDbLine
 10
217.7833629999998
 20
123.6865399999998
 30
0.0
 11
211.864363
 21
123.6865399999998
 31
0.0
  0
LINE
  5
97D9
330
9768
100
AcDbEntity
  8
1
  6
Continuous
100
AcDbLine
 10
217.7833629999998
 20
134.94454
 30
0.0
 11
211.864363
 21
134.94454
 31
0.0
  0
LINE
  5
97DA
330
9768
100
AcDbEntity
  8
1
  6
Continuous
100
AcDbLine
 10
217.7833629999998
 20
127.4395399999998
 30
0.0
 11
211.864363
 21
127.4395399999998
 31
0.0
  0
LINE
  5
97DB
330
9768
100
AcDbEntity
  8
1
  6
Continuous
100
AcDbLine
 10
218.364363
 20
137.69154
 30
0.0
 11
217.7833629999998
 21
138.69754
 31
0.0
  0
LINE
  5
97DC
330
9768
100
AcDbEntity
  8
1
  6
Continuous
100
AcDbLine
 10
218.364363
 20
124.69154
 30
0.0
 11
217.7843629999999
 21
123.6865399999998
 31
0.0
  0
LINE
  5
97DD
330
9768
100
AcDbEntity
  8
1
  6
Continuous
100
AcDbLine
 10
143.3643629999999
 20
139.85254
 30
0.0
 11
143.1643629999999
 21
139.85254
 31
0.0
  0
LINE
  5
97DE
330
9768
100
AcDbEntity
  8
1
  6
Continuous
100
AcDbLine
 10
143.3643629999999
 20
121.1915399999998
 30
0.0
 11
141.3643629999999
 21
121.1915399999998
 31
0.0
  0
LINE
  5
97DF
330
9768
100
AcDbEntity
  8
1
  6
Continuous
100
AcDbLine
 10
143.3643629999999
 20
126.1915399999999
 30
0.0
 11
141.3643629999999
 21
126.1915399999999
 31
0.0
  0
LINE
  5
97E0
330
9768
100
AcDbEntity
  8
1
  6
Continuous
100
AcDbLine
 10
143.3643629999999
 20
139.0925399999999
 30
0.0
 11
143.1643629999999
 21
139.0925399999999
 31
0.0
  0
LINE
  5
97E1
330
9768
100
AcDbEntity
  8
1
  6
Continuous
100
AcDbLine
 10
143.3643629999999
 20
127.2415399999998
 30
0.0
 11
141.3643629999999
 21
127.2415399999998
 31
0.0
  0
LINE
  5
97E2
330
9768
100
AcDbEntity
  8
1
  6
Continuous
100
AcDbLine
 10
141.3643629999999
 20
138.1205399999998
 30
0.0
 11
141.3643629999999
 21
121.1915399999998
 31
0.0
  0
LINE
  5
97E3
330
9768
100
AcDbEntity
  8
1
  6
Continuous
100
AcDbLine
 10
143.3643629999999
 20
139.85254
 30
0.0
 11
143.3643629999999
 21
121.1915399999998
 31
0.0
  0
LINE
  5
97E4
330
9768
100
AcDbEntity
  8
1
  6
Continuous
100
AcDbLine
 10
123.8643629999998
 20
189.66754
 30
0.0
 11
123.8643629999998
 21
221.66754
 31
0.0
  0
LINE
  5
97E5
330
9768
100
AcDbEntity
  8
1
  6
Continuous
100
AcDbLine
 10
125.8643629999999
 20
189.66754
 30
0.0
 11
123.8643629999998
 21
189.66754
 31
0.0
  0
LINE
  5
97E6
330
9768
100
AcDbEntity
  8
1
  6
Continuous
100
AcDbLine
 10
123.8643629999998
 20
221.66754
 30
0.0
 11
125.8643629999999
 21
221.66754
 31
0.0
  0
LINE
  5
97E7
330
9768
100
AcDbEntity
  8
1
  6
Continuous
100
AcDbLine
 10
288.584363
 20
140.42954
 30
0.0
 11
272.5843629999999
 21
149.6675399999998
 31
0.0
  0
LINE
  5
97E8
330
9768
100
AcDbEntity
  8
1
  6
Continuous
100
AcDbLine
 10
272.5843629999999
 20
112.7165399999999
 30
0.0
 11
256.5843629999998
 21
121.9545399999998
 31
0.0
  0
LINE
  5
97E9
330
9768
100
AcDbEntity
  8
1
  6
Continuous
100
AcDbLine
 10
288.584363
 20
121.9545399999998
 30
0.0
 11
272.5843629999999
 21
112.7165399999999
 31
0.0
  0
LINE
  5
97EA
330
9768
100
AcDbEntity
  8
1
  6
Continuous
100
AcDbLine
 10
272.5843629999999
 20
149.6675399999998
 30
0.0
 11
256.5843629999998
 21
140.42954
 31
0.0
  0
LINE
  5
97EB
330
9768
100
AcDbEntity
  8
1
  6
Continuous
100
AcDbLine
 10
288.584363
 20
121.9545399999998
 30
0.0
 11
288.584363
 21
140.42954
 31
0.0
  0
LINE
  5
97EC
330
9768
100
AcDbEntity
  8
1
  6
Continuous
100
AcDbLine
 10
256.5843629999998
 20
121.9545399999998
 30
0.0
 11
256.5843629999998
 21
140.42954
 31
0.0
  0
LINE
  5
97ED
330
9768
100
AcDbEntity
  8
1
  6
Continuous
100
AcDbLine
 10
143.1643629999999
 20
139.85254
 30
0.0
 11
141.1643629999999
 21
139.85254
 31
0.0
  0
LINE
  5
97EE
330
9768
100
AcDbEntity
  8
1
  6
Continuous
100
AcDbLine
 10
126.164363
 20
115.1915399999999
 30
0.0
 11
126.164363
 21
147.19154
 31
0.0
  0
LINE
  5
97EF
330
9768
100
AcDbEntity
  8
1
  6
Continuous
100
AcDbLine
 10
131.8643629999999
 20
115.1915399999999
 30
0.0
 11
131.8643629999999
 21
147.19154
 31
0.0
  0
LINE
  5
97F0
330
9768
100
AcDbEntity
  8
1
  6
Continuous
100
AcDbLine
 10
131.8643629999999
 20
120.1915399999998
 30
0.0
 11
140.1643629999998
 21
120.1915399999998
 31
0.0
  0
LINE
  5
97F1
330
9768
100
AcDbEntity
  8
1
  6
Continuous
100
AcDbLine
 10
140.1643629999998
 20
125.6465399999999
 30
0.0
 11
131.8643629999999
 21
125.6465399999999
 31
0.0
  0
LINE
  5
97F2
330
9768
100
AcDbEntity
  8
2
  6
Continuous
100
AcDbLine
 10
140.1643629999998
 20
125.6465399999999
 30
0.0
 11
131.8643629999999
 21
135.5445399999998
 31
0.0
  0
LINE
  5
97F3
330
9768
100
AcDbEntity
  8
2
  6
Continuous
100
AcDbLine
 10
140.1643629999998
 20
136.73754
 30
0.0
 11
131.8643629999999
 21
126.8395399999999
 31
0.0
  0
LINE
  5
97F4
330
9768
100
AcDbEntity
  8
1
  6
Continuous
100
AcDbLine
 10
140.1643629999998
 20
136.73754
 30
0.0
 11
131.8643629999999
 21
136.73754
 31
0.0
  0
LINE
  5
97F5
330
9768
100
AcDbEntity
  8
1
  6
Continuous
100
AcDbLine
 10
131.8643629999999
 20
142.19154
 30
0.0
 11
140.1643629999998
 21
142.19154
 31
0.0
  0
LINE
  5
97F6
330
9768
100
AcDbEntity
  8
1
  6
Continuous
100
AcDbLine
 10
143.3643629999999
 20
125.69154
 30
0.0
 11
144.864363
 21
125.69154
 31
0.0
  0
LINE
  5
97F7
330
9768
100
AcDbEntity
  8
1
  6
Continuous
100
AcDbLine
 10
141.1643629999999
 20
125.69154
 30
0.0
 11
141.3643629999999
 21
125.69154
 31
0.0
  0
LINE
  5
97F8
330
9768
100
AcDbEntity
  8
1
  6
Continuous
100
AcDbLine
 10
143.3643629999999
 20
136.69154
 30
0.0
 11
144.864363
 21
136.69154
 31
0.0
  0
LINE
  5
97F9
330
9768
100
AcDbEntity
  8
1
  6
Continuous
100
AcDbLine
 10
141.1643629999999
 20
136.69154
 30
0.0
 11
141.3643629999999
 21
136.69154
 31
0.0
  0
LINE
  5
97FA
330
9768
100
AcDbEntity
  8
1
  6
Continuous
100
AcDbLine
 10
211.864363
 20
123.4915399999999
 30
0.0
 11
211.864363
 21
138.8925399999999
 31
0.0
  0
LINE
  5
97FB
330
9768
100
AcDbEntity
  8
1
  6
Continuous
100
AcDbLine
 10
209.864363
 20
123.4915399999999
 30
0.0
 11
211.864363
 21
123.4915399999999
 31
0.0
  0
LINE
  5
97FC
330
9768
100
AcDbEntity
  8
1
  6
Continuous
100
AcDbLine
 10
209.864363
 20
138.8925399999999
 30
0.0
 11
211.864363
 21
138.8925399999999
 31
0.0
  0
LINE
  5
97FD
330
9768
100
AcDbEntity
  8
1
  6
Continuous
100
AcDbLine
 10
123.8643629999998
 20
115.1915399999999
 30
0.0
 11
123.8643629999998
 21
147.19154
 31
0.0
  0
LINE
  5
97FE
330
9768
100
AcDbEntity
  8
1
  6
Continuous
100
AcDbLine
 10
123.8643629999998
 20
115.1915399999999
 30
0.0
 11
125.8643629999999
 21
115.1915399999999
 31
0.0
  0
LINE
  5
97FF
330
9768
100
AcDbEntity
  8
1
  6
Continuous
100
AcDbLine
 10
123.8643629999998
 20
147.19154
 30
0.0
 11
125.8643629999999
 21
147.19154
 31
0.0
  0
LINE
  5
9800
330
9768
100
AcDbEntity
  8
1
  6
Continuous
100
AcDbLine
 10
123.3643629999999
 20
191.16754
 30
0.0
 11
123.8643629999998
 21
191.16754
 31
0.0
  0
LINE
  5
9801
330
9768
100
AcDbEntity
  8
1
  6
Continuous
100
AcDbLine
 10
123.3643629999999
 20
195.16754
 30
0.0
 11
123.3643629999999
 21
191.16754
 31
0.0
  0
LINE
  5
9802
330
9768
100
AcDbEntity
  8
1
  6
Continuous
100
AcDbLine
 10
123.3643629999999
 20
195.16754
 30
0.0
 11
123.8643629999998
 21
195.16754
 31
0.0
  0
LINE
  5
9803
330
9768
100
AcDbEntity
  8
4
  6
CENTER
100
AcDbLine
 10
123.8643629999998
 20
193.1675399999998
 30
0.0
 11
121.1643629999999
 21
193.1675399999998
 31
0.0
  0
LINE
  5
9804
330
9768
100
AcDbEntity
  8
1
  6
Continuous
100
AcDbLine
 10
193.7703629999998
 20
189.66754
 30
0.0
 11
193.7703629999998
 21
221.66754
 31
0.0
  0
LINE
  5
9805
330
9768
100
AcDbEntity
  8
1
  6
Continuous
100
AcDbLine
 10
190.7703629999998
 20
189.66754
 30
0.0
 11
190.7703629999998
 21
221.66754
 31
0.0
  0
LINE
  5
9806
330
9768
100
AcDbEntity
  8
1
  6
Continuous
100
AcDbLine
 10
190.7703629999998
 20
189.66754
 30
0.0
 11
193.7703629999998
 21
189.66754
 31
0.0
  0
LINE
  5
9807
330
9768
100
AcDbEntity
  8
1
  6
Continuous
100
AcDbLine
 10
193.7703629999998
 20
221.66754
 30
0.0
 11
190.7703629999998
 21
221.66754
 31
0.0
  0
LINE
  5
9808
330
9768
100
AcDbEntity
  8
4
  6
CENTER
100
AcDbLine
 10
119.664363
 20
205.66754
 30
0.0
 11
157.8253629999998
 21
205.66754
 31
0.0
  0
LINE
  5
9809
330
9768
100
AcDbEntity
  8
1
  6
Continuous
100
AcDbLine
 10
193.7703629999998
 20
205.66754
 30
0.0
 11
190.7703629999998
 21
205.66754
 31
0.0
  0
LINE
  5
980A
330
9768
100
AcDbEntity
  8
1
  6
Continuous
100
AcDbLine
 10
131.8643629999999
 20
214.6675399999999
 30
0.0
 11
141.1643629999999
 21
214.6675399999999
 31
0.0
  0
LINE
  5
980B
330
9768
100
AcDbEntity
  8
1
  6
Continuous
100
AcDbLine
 10
131.8643629999999
 20
196.16754
 30
0.0
 11
141.1643629999999
 21
196.16754
 31
0.0
  0
LINE
  5
980C
330
9768
100
AcDbEntity
  8
1
  6
Continuous
100
AcDbLine
 10
131.8643629999999
 20
189.66754
 30
0.0
 11
131.8643629999999
 21
221.66754
 31
0.0
  0
LINE
  5
980D
330
9768
100
AcDbEntity
  8
1
  6
Continuous
100
AcDbLine
 10
130.8643629999999
 20
221.66754
 30
0.0
 11
131.8643629999999
 21
221.66754
 31
0.0
  0
LINE
  5
980E
330
9768
100
AcDbEntity
  8
1
  6
Continuous
100
AcDbLine
 10
130.8643629999999
 20
189.66754
 30
0.0
 11
131.8643629999999
 21
189.66754
 31
0.0
  0
LINE
  5
980F
330
9768
100
AcDbEntity
  8
1
  6
Continuous
100
AcDbLine
 10
141.1643629999999
 20
211.16754
 30
0.0
 11
141.3643629999999
 21
211.16754
 31
0.0
  0
LINE
  5
9810
330
9768
100
AcDbEntity
  8
1
  6
Continuous
100
AcDbLine
 10
141.1643629999999
 20
200.1675399999998
 30
0.0
 11
141.3643629999999
 21
200.1675399999998
 31
0.0
  0
LINE
  5
9811
330
9768
100
AcDbEntity
  8
1
  6
Continuous
100
AcDbLine
 10
141.3643629999999
 20
197.00654
 30
0.0
 11
141.3643629999999
 21
200.66754
 31
0.0
  0
LINE
  5
9812
330
9768
100
AcDbEntity
  8
1
  6
Continuous
100
AcDbLine
 10
143.3643629999999
 20
197.00654
 30
0.0
 11
143.3643629999999
 21
215.16754
 31
0.0
  0
LINE
  5
9813
330
9768
100
AcDbEntity
  8
1
  6
Continuous
100
AcDbLine
 10
209.864363
 20
213.3675399999999
 30
0.0
 11
211.864363
 21
213.3675399999999
 31
0.0
  0
LINE
  5
9814
330
9768
100
AcDbEntity
  8
1
  6
Continuous
100
AcDbLine
 10
211.864363
 20
213.3675399999999
 30
0.0
 11
211.864363
 21
197.9675399999999
 31
0.0
  0
LINE
  5
9815
330
9768
100
AcDbEntity
  8
1
  6
Continuous
100
AcDbLine
 10
209.864363
 20
213.3675399999999
 30
0.0
 11
209.864363
 21
197.9675399999999
 31
0.0
  0
LINE
  5
9816
330
9768
100
AcDbEntity
  8
1
  6
Continuous
100
AcDbLine
 10
143.3643629999999
 20
211.16754
 30
0.0
 11
144.864363
 21
211.16754
 31
0.0
  0
LINE
  5
9817
330
9768
100
AcDbEntity
  8
2
  6
Continuous
100
AcDbLine
 10
143.3643629999999
 20
208.8765399999998
 30
0.0
 11
144.864363
 21
211.16454
 31
0.0
  0
LINE
  5
9818
330
9768
100
AcDbEntity
  8
2
  6
Continuous
100
AcDbLine
 10
143.3643629999999
 20
208.1145399999999
 30
0.0
 11
144.864363
 21
205.8265399999999
 31
0.0
  0
LINE
  5
9819
330
9768
100
AcDbEntity
  8
1
  6
Continuous
100
AcDbLine
 10
144.864363
 20
205.8265399999999
 30
0.0
 11
143.3643629999999
 21
205.8265399999999
 31
0.0
  0
LINE
  5
981A
330
9768
100
AcDbEntity
  8
1
  6
Continuous
100
AcDbLine
 10
144.864363
 20
205.5075399999998
 30
0.0
 11
143.3643629999999
 21
205.5075399999998
 31
0.0
  0
LINE
  5
981B
330
9768
100
AcDbEntity
  8
2
  6
Continuous
100
AcDbLine
 10
143.3643629999999
 20
203.22054
 30
0.0
 11
144.864363
 21
205.5075399999998
 31
0.0
  0
LINE
  5
981C
330
9768
100
AcDbEntity
  8
2
  6
Continuous
100
AcDbLine
 10
143.3643629999999
 20
202.4575399999999
 30
0.0
 11
144.864363
 21
200.16954
 31
0.0
  0
LINE
  5
981D
330
9768
100
AcDbEntity
  8
1
  6
Continuous
100
AcDbLine
 10
144.864363
 20
200.16954
 30
0.0
 11
143.3643629999999
 21
200.16954
 31
0.0
  0
LINE
  5
981E
330
9768
100
AcDbEntity
  8
1
  6
Continuous
100
AcDbLine
 10
209.864363
 20
197.9675399999999
 30
0.0
 11
211.864363
 21
197.9675399999999
 31
0.0
  0
LINE
  5
981F
330
9768
100
AcDbEntity
  8
1
  6
Continuous
100
AcDbLine
 10
218.364363
 20
199.16754
 30
0.0
 11
218.364363
 21
212.1675399999999
 31
0.0
  0
LINE
  5
9820
330
9768
100
AcDbEntity
  8
1
  6
Continuous
100
AcDbLine
 10
218.364363
 20
212.1675399999999
 30
0.0
 11
211.864363
 21
212.1675399999999
 31
0.0
  0
LINE
  5
9821
330
9768
100
AcDbEntity
  8
1
  6
Continuous
100
AcDbLine
 10
218.364363
 20
199.16754
 30
0.0
 11
211.864363
 21
199.16754
 31
0.0
  0
LINE
  5
9822
330
9768
100
AcDbEntity
  8
1
  6
Continuous
100
AcDbLine
 10
217.7833629999998
 20
205.66754
 30
0.0
 11
211.864363
 21
205.66754
 31
0.0
  0
LINE
  5
9823
330
9768
100
AcDbEntity
  8
1
  6
Continuous
100
AcDbLine
 10
144.864363
 20
211.16454
 30
0.0
 11
143.3643629999999
 21
211.16454
 31
0.0
  0
LINE
  5
9824
330
9768
100
AcDbEntity
  8
1
  6
Continuous
100
AcDbLine
 10
143.3643629999999
 20
200.1675399999998
 30
0.0
 11
144.864363
 21
200.1675399999998
 31
0.0
  0
LINE
  5
9825
330
9768
100
AcDbEntity
  8
1
  6
Continuous
100
AcDbLine
 10
133.1663629999999
 20
142.19154
 30
0.0
 11
133.1653629999999
 21
136.73754
 31
0.0
  0
LINE
  5
9826
330
9768
100
AcDbEntity
  8
1
  6
Continuous
100
AcDbLine
 10
133.1643629999998
 20
125.6465399999999
 30
0.0
 11
133.1643629999998
 21
120.1915399999998
 31
0.0
  0
LINE
  5
9827
330
9768
100
AcDbEntity
  8
1
  6
Continuous
100
AcDbLine
 10
144.864363
 20
136.69154
 30
0.0
 11
144.864363
 21
125.69154
 31
0.0
  0
LINE
  5
9828
330
9768
100
AcDbEntity
  8
1
  6
Continuous
100
AcDbLine
 10
144.864363
 20
209.66754
 30
0.0
 11
153.364363
 21
209.66754
 31
0.0
  0
LINE
  5
9829
330
9768
100
AcDbEntity
  8
1
  6
Continuous
100
AcDbLine
 10
144.864363
 20
201.66754
 30
0.0
 11
153.364363
 21
201.66754
 31
0.0
  0
LINE
  5
982A
330
9768
100
AcDbEntity
  8
2
  6
Continuous
100
AcDbLine
 10
144.864363
 20
209.16754
 30
0.0
 11
153.8643629999999
 21
209.16754
 31
0.0
  0
LINE
  5
982B
330
9768
100
AcDbEntity
  8
2
  6
Continuous
100
AcDbLine
 10
144.864363
 20
202.1675399999999
 30
0.0
 11
153.8643629999999
 21
202.1675399999999
 31
0.0
  0
LINE
  5
982C
330
9768
100
AcDbEntity
  8
1
  6
Continuous
100
AcDbLine
 10
144.864363
 20
127.1915399999999
 30
0.0
 11
153.364363
 21
127.1915399999999
 31
0.0
  0
LINE
  5
982D
330
9768
100
AcDbEntity
  8
1
  6
Continuous
100
AcDbLine
 10
153.364363
 20
127.1925399999998
 30
0.0
 11
154.364363
 21
128.1925399999997
 31
0.0
  0
LINE
  5
982E
330
9768
100
AcDbEntity
  8
1
  6
Continuous
100
AcDbLine
 10
154.364363
 20
128.19154
 30
0.0
 11
154.364363
 21
134.1915399999997
 31
0.0
  0
LINE
  5
982F
330
9768
100
AcDbEntity
  8
1
  6
Continuous
100
AcDbLine
 10
154.364363
 20
134.1925399999998
 30
0.0
 11
153.364363
 21
135.1915399999997
 31
0.0
  0
LINE
  5
9830
330
9768
100
AcDbEntity
  8
1
  6
Continuous
100
AcDbLine
 10
144.864363
 20
135.1915399999997
 30
0.0
 11
153.364363
 21
135.1915399999997
 31
0.0
  0
LINE
  5
9831
330
9768
100
AcDbEntity
  8
1
  6
Continuous
100
AcDbLine
 10
144.864363
 20
200.1675399999998
 30
0.0
 11
144.864363
 21
211.16454
 31
0.0
  0
LINE
  5
9832
330
9768
100
AcDbEntity
  8
1
  6
Continuous
100
AcDbLine
 10
153.364363
 20
135.1915399999997
 30
0.0
 11
153.364363
 21
127.1915399999999
 31
0.0
  0
LINE
  5
9833
330
9768
100
AcDbEntity
  8
1
  6
Continuous
100
AcDbLine
 10
188.9723629999998
 20
193.26854
 30
0.0
 11
188.9723629999998
 21
218.0675399999998
 31
0.0
  0
LINE
  5
9834
330
9768
100
AcDbEntity
  8
1
  6
Continuous
100
AcDbLine
 10
188.9723629999998
 20
143.59054
 30
0.0
 11
188.9723629999998
 21
118.79154
 31
0.0
  0
LINE
  5
9835
330
9768
100
AcDbEntity
  8
1
  6
Continuous
100
AcDbLine
 10
266.084363
 20
188.2875399999998
 30
0.0
 11
272.5843629999999
 21
192.0405399999999
 31
0.0
  0
LINE
  5
9836
330
9768
100
AcDbEntity
  8
1
  6
Continuous
100
AcDbLine
 10
272.5843629999999
 20
177.02954
 30
0.0
 11
279.0843629999999
 21
180.7825399999999
 31
0.0
  0
LINE
  5
9837
330
9768
100
AcDbEntity
  8
1
  6
Continuous
100
AcDbLine
 10
266.084363
 20
188.2875399999998
 30
0.0
 11
266.084363
 21
180.7825399999999
 31
0.0
  0
LINE
  5
9838
330
9768
100
AcDbEntity
  8
1
  6
Continuous
100
AcDbLine
 10
279.0843629999999
 20
188.2875399999998
 30
0.0
 11
279.0843629999999
 21
180.7825399999999
 31
0.0
  0
LINE
  5
9839
330
9768
100
AcDbEntity
  8
1
  6
Continuous
100
AcDbLine
 10
266.084363
 20
180.7825399999999
 30
0.0
 11
272.5843629999999
 21
177.02954
 31
0.0
  0
LINE
  5
983A
330
9768
100
AcDbEntity
  8
1
  6
Continuous
100
AcDbLine
 10
272.5843629999999
 20
192.0405399999999
 30
0.0
 11
279.0843629999999
 21
188.2875399999998
 31
0.0
  0
LINE
  5
983B
330
9768
100
AcDbEntity
  8
1
  6
Continuous
100
AcDbLine
 10
153.364363
 20
201.66754
 30
0.0
 11
153.364363
 21
209.66754
 31
0.0
  0
LINE
  5
983C
330
9768
100
AcDbEntity
  8
4
  6
CENTER
100
AcDbLine
 10
184.080187
 20
205.66754
 30
0.0
 11
224.032195
 21
205.66754
 31
0.0
  0
LINE
  5
983D
330
9768
100
AcDbEntity
  8
4
  6
CENTER
100
AcDbLine
 10
184.080187
 20
131.1915399999997
 30
0.0
 11
224.4091009999999
 21
131.1915399999997
 31
0.0
  0
LINE
  5
983E
330
9768
100
AcDbEntity
  8
1
  6
Continuous
100
AcDbLine
 10
133.1643629999998
 20
196.16754
 30
0.0
 11
133.1643629999998
 21
214.6675399999999
 31
0.0
  0
LINE
  5
983F
330
9768
100
AcDbEntity
  8
4
  6
CENTER
100
AcDbLine
 10
272.5843629999999
 20
194.53554
 30
0.0
 11
272.5843629999999
 21
174.53554
 31
0.0
  0
LINE
  5
9840
330
9768
100
AcDbEntity
  8
4
  6
CENTER
100
AcDbLine
 10
262.5843629999998
 20
184.53554
 30
0.0
 11
282.5843629999998
 21
184.53554
 31
0.0
  0
LINE
  5
9841
330
9768
100
AcDbEntity
  8
2
  6
Continuous
100
AcDbLine
 10
133.1663629999999
 20
141.3795399999998
 30
0.0
 11
140.976363
 21
141.3795399999998
 31
0.0
  0
LINE
  5
9842
330
9768
100
AcDbEntity
  8
2
  6
Continuous
100
AcDbLine
 10
133.1643629999998
 20
121.0035399999999
 30
0.0
 11
140.976363
 21
121.0035399999999
 31
0.0
  0
LINE
  5
9843
330
9768
100
AcDbEntity
  8
2
  6
Continuous
100
AcDbLine
 10
133.1643629999998
 20
121.0035399999999
 30
0.0
 11
131.8643629999999
 21
120.2535399999999
 31
0.0
  0
LINE
  5
9844
330
9768
100
AcDbEntity
  8
2
  6
Continuous
100
AcDbLine
 10
133.1663629999999
 20
141.38054
 30
0.0
 11
131.8643629999999
 21
142.13154
 31
0.0
  0
LINE
  5
9845
330
9768
100
AcDbEntity
  8
2
  6
Continuous
100
AcDbLine
 10
144.864363
 20
134.5155399999999
 30
0.0
 11
154.0413629999999
 21
134.5155399999999
 31
0.0
  0
LINE
  5
9846
330
9768
100
AcDbEntity
  8
2
  6
Continuous
100
AcDbLine
 10
144.864363
 20
127.86854
 30
0.0
 11
154.0413629999999
 21
127.86854
 31
0.0
  0
LINE
  5
9847
330
9768
100
AcDbEntity
  8
1
  6
Continuous
100
AcDbLine
 10
143.1643629999999
 20
210.6675399999998
 30
0.0
 11
143.1643629999999
 21
200.66754
 31
0.0
  0
LINE
  5
9848
330
9768
100
AcDbEntity
  8
1
  6
Continuous
100
AcDbLine
 10
141.1643629999999
 20
200.66754
 30
0.0
 11
143.3643629999999
 21
200.66754
 31
0.0
  0
LINE
  5
9849
330
9768
100
AcDbEntity
  8
1
  6
Continuous
100
AcDbLine
 10
141.1643629999999
 20
210.6675399999998
 30
0.0
 11
143.3643629999999
 21
210.6675399999998
 31
0.0
  0
LINE
  5
984A
330
9768
100
AcDbEntity
  8
1
  6
Continuous
100
AcDbLine
 10
141.3643629999999
 20
210.6675399999998
 30
0.0
 11
141.3643629999999
 21
215.16754
 31
0.0
  0
LINE
  5
984B
330
9768
100
AcDbEntity
  8
1
  6
Continuous
100
AcDbLine
 10
141.3643629999999
 20
215.16754
 30
0.0
 11
143.3643629999999
 21
215.16754
 31
0.0
  0
LINE
  5
984C
330
9768
100
AcDbEntity
  8
1
  6
Continuous
100
AcDbLine
 10
141.3643629999999
 20
198.8255399999999
 30
0.0
 11
143.3643629999999
 21
198.8255399999999
 31
0.0
  0
LINE
  5
984D
330
9768
100
AcDbEntity
  8
1
  6
Continuous
100
AcDbLine
 10
141.3643629999999
 20
197.00654
 30
0.0
 11
143.3643629999999
 21
197.00654
 31
0.0
  0
LINE
  5
984E
330
9768
100
AcDbEntity
  8
1
  6
Continuous
100
AcDbLine
 10
130.8643629999999
 20
72.71654000000002
 30
0.0
 11
130.8643629999999
 21
40.71684
 31
0.0
  0
LINE
  5
984F
330
9768
100
AcDbEntity
  8
1
  6
Continuous
100
AcDbLine
 10
130.764363
 20
72.71654000000002
 30
0.0
 11
130.8643629999999
 21
72.61654
 31
0.0
  0
LINE
  5
9850
330
9768
100
AcDbEntity
  8
1
  6
Continuous
100
AcDbLine
 10
126.164363
 20
72.71654000000002
 30
0.0
 11
130.764363
 21
72.71654000000002
 31
0.0
  0
LINE
  5
9851
330
9768
100
AcDbEntity
  8
1
  6
Continuous
100
AcDbLine
 10
126.164363
 20
72.71654000000002
 30
0.0
 11
125.8643629999999
 21
72.41654
 31
0.0
  0
LINE
  5
9852
330
9768
100
AcDbEntity
  8
1
  6
Continuous
100
AcDbLine
 10
125.8643629999999
 20
72.71654000000002
 30
0.0
 11
125.8643629999999
 21
40.71684
 31
0.0
  0
LINE
  5
9853
330
9768
100
AcDbEntity
  8
1
  6
Continuous
100
AcDbLine
 10
125.8643629999999
 20
41.01684
 30
0.0
 11
126.164363
 21
40.71684
 31
0.0
  0
LINE
  5
9854
330
9768
100
AcDbEntity
  8
1
  6
Continuous
100
AcDbLine
 10
126.164363
 20
40.71684
 30
0.0
 11
130.764363
 21
40.71684
 31
0.0
  0
LINE
  5
9855
330
9768
100
AcDbEntity
  8
1
  6
Continuous
100
AcDbLine
 10
130.764363
 20
40.71684
 30
0.0
 11
130.8643629999999
 21
40.81684
 31
0.0
  0
LINE
  5
9856
330
9768
100
AcDbEntity
  8
1
  6
Continuous
100
AcDbLine
 10
140.1643629999998
 20
66.21654000000001
 30
0.0
 11
140.1643629999998
 21
47.71683999999999
 31
0.0
  0
LINE
  5
9857
330
9768
100
AcDbEntity
  8
1
  6
Continuous
100
AcDbLine
 10
126.164363
 20
72.71654000000002
 30
0.0
 11
126.164363
 21
40.71684
 31
0.0
  0
LINE
  5
9858
330
9768
100
AcDbEntity
  8
1
  6
Continuous
100
AcDbLine
 10
130.764363
 20
72.71654000000002
 30
0.0
 11
130.764363
 21
40.71684
 31
0.0
  0
LINE
  5
9859
330
9768
100
AcDbEntity
  8
1
  6
Continuous
100
AcDbLine
 10
141.1643629999999
 20
66.21654000000001
 30
0.0
 11
141.1643629999999
 21
47.71683999999999
 31
0.0
  0
LINE
  5
985A
330
9768
100
AcDbEntity
  8
1
  6
Continuous
100
AcDbLine
 10
154.364363
 20
53.71684000000001
 30
0.0
 11
154.364363
 21
59.71654
 31
0.0
  0
LINE
  5
985B
330
9768
100
AcDbEntity
  8
1
  6
Continuous
100
AcDbLine
 10
153.364363
 20
52.71684
 30
0.0
 11
154.364363
 21
53.71684000000001
 31
0.0
  0
LINE
  5
985C
330
9768
100
AcDbEntity
  8
1
  6
Continuous
100
AcDbLine
 10
154.364363
 20
59.71654
 30
0.0
 11
153.364363
 21
60.71654
 31
0.0
  0
LINE
  5
985D
330
9768
100
AcDbEntity
  8
1
  6
Continuous
100
AcDbLine
 10
123.8643629999998
 20
72.71654000000002
 30
0.0
 11
123.8643629999998
 21
40.71684
 31
0.0
  0
LINE
  5
985E
330
9768
100
AcDbEntity
  8
1
  6
Continuous
100
AcDbLine
 10
125.8643629999999
 20
72.71654000000002
 30
0.0
 11
123.8643629999998
 21
72.71654000000002
 31
0.0
  0
LINE
  5
985F
330
9768
100
AcDbEntity
  8
1
  6
Continuous
100
AcDbLine
 10
123.8643629999998
 20
40.71684
 30
0.0
 11
125.8643629999999
 21
40.71684
 31
0.0
  0
LINE
  5
9860
330
9768
100
AcDbEntity
  8
1
  6
Continuous
100
AcDbLine
 10
123.3643629999999
 20
71.21654000000003
 30
0.0
 11
123.8643629999998
 21
71.21654000000003
 31
0.0
  0
LINE
  5
9861
330
9768
100
AcDbEntity
  8
1
  6
Continuous
100
AcDbLine
 10
123.3643629999999
 20
67.21654
 30
0.0
 11
123.3643629999999
 21
71.21654000000003
 31
0.0
  0
LINE
  5
9862
330
9768
100
AcDbEntity
  8
1
  6
Continuous
100
AcDbLine
 10
123.3643629999999
 20
67.21654
 30
0.0
 11
123.8643629999998
 21
67.21654
 31
0.0
  0
LINE
  5
9863
330
9768
100
AcDbEntity
  8
4
  6
CENTER
100
AcDbLine
 10
123.8643629999998
 20
69.21654000000001
 30
0.0
 11
121.1643629999999
 21
69.21654000000001
 31
0.0
  0
LINE
  5
9864
330
9768
100
AcDbEntity
  8
4
  6
CENTER
100
AcDbLine
 10
119.664363
 20
56.71683999999999
 30
0.0
 11
157.8253629999998
 21
56.71683999999999
 31
0.0
  0
LINE
  5
9865
330
9768
100
AcDbEntity
  8
1
  6
Continuous
100
AcDbLine
 10
131.8643629999999
 20
47.71683999999999
 30
0.0
 11
141.1643629999999
 21
47.71683999999999
 31
0.0
  0
LINE
  5
9866
330
9768
100
AcDbEntity
  8
1
  6
Continuous
100
AcDbLine
 10
131.8643629999999
 20
66.21654000000001
 30
0.0
 11
141.1643629999999
 21
66.21654000000001
 31
0.0
  0
LINE
  5
9867
330
9768
100
AcDbEntity
  8
1
  6
Continuous
100
AcDbLine
 10
131.8643629999999
 20
72.71654000000002
 30
0.0
 11
131.8643629999999
 21
40.71684
 31
0.0
  0
LINE
  5
9868
330
9768
100
AcDbEntity
  8
1
  6
Continuous
100
AcDbLine
 10
130.8643629999999
 20
40.71684
 30
0.0
 11
131.8643629999999
 21
40.71684
 31
0.0
  0
LINE
  5
9869
330
9768
100
AcDbEntity
  8
1
  6
Continuous
100
AcDbLine
 10
130.8643629999999
 20
72.71654000000002
 30
0.0
 11
131.8643629999999
 21
72.71654000000002
 31
0.0
  0
LINE
  5
986A
330
9768
100
AcDbEntity
  8
1
  6
Continuous
100
AcDbLine
 10
141.1643629999999
 20
51.21684000000001
 30
0.0
 11
141.3643629999999
 21
51.21684000000001
 31
0.0
  0
LINE
  5
986B
330
9768
100
AcDbEntity
  8
1
  6
Continuous
100
AcDbLine
 10
141.1643629999999
 20
62.21654
 30
0.0
 11
141.3643629999999
 21
62.21654
 31
0.0
  0
LINE
  5
986C
330
9768
100
AcDbEntity
  8
1
  6
Continuous
100
AcDbLine
 10
141.3643629999999
 20
65.37753999999999
 30
0.0
 11
141.3643629999999
 21
61.71654
 31
0.0
  0
LINE
  5
986D
330
9768
100
AcDbEntity
  8
1
  6
Continuous
100
AcDbLine
 10
143.3643629999999
 20
65.37753999999999
 30
0.0
 11
143.3643629999999
 21
47.21683999999998
 31
0.0
  0
LINE
  5
986E
330
9768
100
AcDbEntity
  8
1
  6
Continuous
100
AcDbLine
 10
143.3643629999999
 20
51.21684000000001
 30
0.0
 11
144.864363
 21
51.21684000000001
 31
0.0
  0
LINE
  5
986F
330
9768
100
AcDbEntity
  8
2
  6
Continuous
100
AcDbLine
 10
143.3643629999999
 20
53.50713999999999
 30
0.0
 11
144.864363
 21
51.21914
 31
0.0
  0
LINE
  5
9870
330
9768
100
AcDbEntity
  8
2
  6
Continuous
100
AcDbLine
 10
143.3643629999999
 20
54.26974000000001
 30
0.0
 11
144.864363
 21
56.55774
 31
0.0
  0
LINE
  5
9871
330
9768
100
AcDbEntity
  8
1
  6
Continuous
100
AcDbLine
 10
144.864363
 20
56.55774
 30
0.0
 11
143.3643629999999
 21
56.55774
 31
0.0
  0
LINE
  5
9872
330
9768
100
AcDbEntity
  8
1
  6
Continuous
100
AcDbLine
 10
144.864363
 20
56.87604
 30
0.0
 11
143.3643629999999
 21
56.87604
 31
0.0
  0
LINE
  5
9873
330
9768
100
AcDbEntity
  8
2
  6
Continuous
100
AcDbLine
 10
143.3643629999999
 20
59.16354000000001
 30
0.0
 11
144.864363
 21
56.87604
 31
0.0
  0
LINE
  5
9874
330
9768
100
AcDbEntity
  8
2
  6
Continuous
100
AcDbLine
 10
143.3643629999999
 20
59.92654
 30
0.0
 11
144.864363
 21
62.21454
 31
0.0
  0
LINE
  5
9875
330
9768
100
AcDbEntity
  8
1
  6
Continuous
100
AcDbLine
 10
144.864363
 20
62.21454
 30
0.0
 11
143.3643629999999
 21
62.21454
 31
0.0
  0
LINE
  5
9876
330
9768
100
AcDbEntity
  8
1
  6
Continuous
100
AcDbLine
 10
144.864363
 20
51.21914
 30
0.0
 11
143.3643629999999
 21
51.21914
 31
0.0
  0
LINE
  5
9877
330
9768
100
AcDbEntity
  8
1
  6
Continuous
100
AcDbLine
 10
143.3643629999999
 20
62.21654
 30
0.0
 11
144.864363
 21
62.21654
 31
0.0
  0
LINE
  5
9878
330
9768
100
AcDbEntity
  8
1
  6
Continuous
100
AcDbLine
 10
144.864363
 20
52.71684
 30
0.0
 11
153.364363
 21
52.71684
 31
0.0
  0
LINE
  5
9879
330
9768
100
AcDbEntity
  8
1
  6
Continuous
100
AcDbLine
 10
144.864363
 20
60.71654
 30
0.0
 11
153.364363
 21
60.71654
 31
0.0
  0
LINE
  5
987A
330
9768
100
AcDbEntity
  8
2
  6
Continuous
100
AcDbLine
 10
144.864363
 20
53.21684000000001
 30
0.0
 11
153.8643629999999
 21
53.21684000000001
 31
0.0
  0
LINE
  5
987B
330
9768
100
AcDbEntity
  8
2
  6
Continuous
100
AcDbLine
 10
144.864363
 20
60.21654
 30
0.0
 11
153.8643629999999
 21
60.21654
 31
0.0
  0
LINE
  5
987C
330
9768
100
AcDbEntity
  8
1
  6
Continuous
100
AcDbLine
 10
144.864363
 20
62.21654
 30
0.0
 11
144.864363
 21
51.21914
 31
0.0
  0
LINE
  5
987D
330
9768
100
AcDbEntity
  8
1
  6
Continuous
100
AcDbLine
 10
153.364363
 20
60.71654
 30
0.0
 11
153.364363
 21
52.71684
 31
0.0
  0
LINE
  5
987E
330
9768
100
AcDbEntity
  8
1
  6
Continuous
100
AcDbLine
 10
133.1643629999998
 20
66.21654000000001
 30
0.0
 11
133.1643629999998
 21
47.71683999999999
 31
0.0
  0
LINE
  5
987F
330
9768
100
AcDbEntity
  8
1
  6
Continuous
100
AcDbLine
 10
143.1643629999999
 20
51.71683999999999
 30
0.0
 11
143.1643629999999
 21
61.71654
 31
0.0
  0
LINE
  5
9880
330
9768
100
AcDbEntity
  8
1
  6
Continuous
100
AcDbLine
 10
141.1643629999999
 20
61.71654
 30
0.0
 11
143.3643629999999
 21
61.71654
 31
0.0
  0
LINE
  5
9881
330
9768
100
AcDbEntity
  8
1
  6
Continuous
100
AcDbLine
 10
141.1643629999999
 20
51.71683999999999
 30
0.0
 11
143.3643629999999
 21
51.71683999999999
 31
0.0
  0
LINE
  5
9882
330
9768
100
AcDbEntity
  8
1
  6
Continuous
100
AcDbLine
 10
141.3643629999999
 20
51.71683999999999
 30
0.0
 11
141.3643629999999
 21
47.21683999999998
 31
0.0
  0
LINE
  5
9883
330
9768
100
AcDbEntity
  8
1
  6
Continuous
100
AcDbLine
 10
141.3643629999999
 20
65.37753999999999
 30
0.0
 11
143.3643629999999
 21
65.37753999999999
 31
0.0
  0
LINE
  5
9884
330
9768
100
AcDbEntity
  8
1
  6
Continuous
100
AcDbLine
 10
141.3643629999999
 20
47.21683999999998
 30
0.0
 11
143.3643629999999
 21
47.21683999999998
 31
0.0
  0
CIRCLE
  5
9885
330
9768
100
AcDbEntity
  8
1
  6
Continuous
100
AcDbCircle
 10
30.78436299999999
 20
131.1915399999997
 30
0.0
 40
16.0
  0
ARC
  5
9886
330
9768
100
AcDbEntity
  8
1
  6
Continuous
100
AcDbCircle
 10
30.78436299999999
 20
131.1915399999997
 30
0.0
 40
4.75
100
AcDbArc
 50
301.757
 51
58.2431
  0
ARC
  5
9887
330
9768
100
AcDbEntity
  8
1
  6
Continuous
100
AcDbCircle
 10
30.78436299999999
 20
131.1915399999997
 30
0.0
 40
4.75
100
AcDbArc
 50
121.757
 51
238.2429999999998
  0
ARC
  5
9888
330
9768
100
AcDbEntity
  8
1
  6
Continuous
100
AcDbCircle
 10
30.78436299999999
 20
131.1915399999997
 30
0.0
 40
14.5
100
AcDbArc
 50
72.0
 51
108.0
  0
ARC
  5
9889
330
9768
100
AcDbEntity
  8
1
  6
Continuous
100
AcDbCircle
 10
30.78436299999999
 20
131.1915399999997
 30
0.0
 40
9.5
100
AcDbArc
 50
72.0
 51
108.0
  0
CIRCLE
  5
988A
330
9768
100
AcDbEntity
  8
1
  6
Continuous
100
AcDbCircle
 10
30.78436299999999
 20
117.6915399999999
 30
0.0
 40
1.75
  0
ARC
  5
988B
330
9768
100
AcDbEntity
  8
1
  6
Continuous
100
AcDbCircle
 10
43.28436299999999
 20
131.1915399999997
 30
0.0
 40
6.5
100
AcDbArc
 50
85.0
 51
270.0
  0
CIRCLE
  5
988C
330
9768
100
AcDbEntity
  8
1
  6
Continuous
100
AcDbCircle
 10
30.78436299999999
 20
131.1915399999997
 30
0.0
 40
15.7
  0
ARC
  5
988D
330
9768
100
AcDbEntity
  8
1
  6
Continuous
100
AcDbCircle
 10
272.5843629999999
 20
131.1915399999997
 30
0.0
 40
11.0
100
AcDbArc
 50
35.0968
 51
149.727
  0
ARC
  5
988E
330
9768
100
AcDbEntity
  8
1
  6
Continuous
100
AcDbCircle
 10
277.1713629999998
 20
139.73854
 30
0.0
 40
0.3
100
AcDbArc
 50
330.0
 51
61.77229999999998
  0
ARC
  5
988F
330
9768
100
AcDbEntity
  8
1
  6
Continuous
100
AcDbCircle
 10
267.9963629999999
 20
139.73854
 30
0.0
 40
0.3
100
AcDbArc
 50
118.228
 51
210.0
  0
ARC
  5
9890
330
9768
100
AcDbEntity
  8
1
  6
Continuous
100
AcDbCircle
 10
30.78436299999999
 20
131.1915399999997
 30
0.0
 40
8.5
100
AcDbArc
 50
128.0
 51
232.0
  0
ARC
  5
9891
330
9768
100
AcDbEntity
  8
1
  6
Continuous
100
AcDbCircle
 10
30.78436299999999
 20
131.1915399999997
 30
0.0
 40
5.5
100
AcDbArc
 50
128.0
 51
232.0
  0
ARC
  5
9892
330
9768
100
AcDbEntity
  8
1
  6
Continuous
100
AcDbCircle
 10
30.78436299999999
 20
131.1915399999997
 30
0.0
 40
14.5
100
AcDbArc
 50
128.0
 51
232.0
  0
ARC
  5
9893
330
9768
100
AcDbEntity
  8
1
  6
Continuous
100
AcDbCircle
 10
30.78436299999999
 20
131.1915399999997
 30
0.0
 40
9.5
100
AcDbArc
 50
128.0
 51
232.0
  0
CIRCLE
  5
9894
330
9768
100
AcDbEntity
  8
1
  6
Continuous
100
AcDbCircle
 10
30.78436299999999
 20
131.1915399999997
 30
0.0
 40
2.049999999999998
  0
CIRCLE
  5
9895
330
9768
100
AcDbEntity
  8
1
  6
Continuous
100
AcDbCircle
 10
30.78436299999999
 20
131.1915399999997
 30
0.0
 40
1.85
  0
CIRCLE
  5
9896
330
9768
100
AcDbEntity
  8
1
  6
Continuous
100
AcDbCircle
 10
272.5843629999999
 20
131.1915399999997
 30
0.0
 40
4.0
  0
CIRCLE
  5
9897
330
9768
100
AcDbEntity
  8
1
  6
Continuous
100
AcDbCircle
 10
272.5843629999999
 20
131.1915399999997
 30
0.0
 40
3.0
  0
ARC
  5
9898
330
9768
100
AcDbEntity
  8
1
  6
Continuous
100
AcDbCircle
 10
272.5843629999999
 20
131.1915399999997
 30
0.0
 40
7.9
100
AcDbArc
 50
60.0
 51
210.0
  0
ARC
  5
9899
330
9768
100
AcDbEntity
  8
1
  6
Continuous
100
AcDbCircle
 10
125.8713629999999
 20
131.1915399999997
 30
0.0
 40
3.2071
100
AcDbArc
 50
141.4199999999999
 51
218.5799999999999
  0
ARC
  5
989A
330
9768
100
AcDbEntity
  8
1
  6
Continuous
100
AcDbCircle
 10
272.5843629999999
 20
131.1915399999997
 30
0.0
 40
8.099999999999997
100
AcDbArc
 50
60.0
 51
210.0
  0
ARC
  5
989B
330
9768
100
AcDbEntity
  8
1
  6
Continuous
100
AcDbCircle
 10
272.5843629999999
 20
131.1915399999997
 30
0.0
 40
8.5
100
AcDbArc
 50
119.9999999999999
 51
210.0
  0
ARC
  5
989C
330
9768
100
AcDbEntity
  8
1
  6
Continuous
100
AcDbCircle
 10
276.521363
 20
138.6115399999999
 30
0.0
 40
0.3
100
AcDbArc
 50
242.0469999999999
 51
330.0
  0
ARC
  5
989D
330
9768
100
AcDbEntity
  8
1
  6
Continuous
100
AcDbCircle
 10
268.6463629999999
 20
138.6115399999999
 30
0.0
 40
0.3
100
AcDbArc
 50
210.0
 51
297.953
  0
ARC
  5
989E
330
9768
100
AcDbEntity
  8
1
  6
Continuous
100
AcDbCircle
 10
30.78436299999999
 20
131.1915399999997
 30
0.0
 40
8.099999999999997
100
AcDbArc
 50
72.02259999999998
 51
107.977
  0
ARC
  5
989F
330
9768
100
AcDbEntity
  8
1
  6
Continuous
100
AcDbCircle
 10
30.78436299999999
 20
131.1915399999997
 30
0.0
 40
8.099999999999997
100
AcDbArc
 50
252.023
 51
287.9769999999999
  0
ARC
  5
98A0
330
9768
100
AcDbEntity
  8
1
  6
Continuous
100
AcDbCircle
 10
30.78436299999999
 20
131.1915399999997
 30
0.0
 40
8.0
100
AcDbArc
 50
251.79
 51
288.2099999999999
  0
ARC
  5
98A1
330
9768
100
AcDbEntity
  8
1
  6
Continuous
100
AcDbCircle
 10
30.78436299999999
 20
131.1915399999997
 30
0.0
 40
8.0
100
AcDbArc
 50
71.79000000000002
 51
108.2099999999998
  0
CIRCLE
  5
98A2
330
9768
100
AcDbEntity
  8
5
  6
PHANTOM
100
AcDbCircle
 10
55.78436299999999
 20
131.1915399999997
 30
0.0
 40
16.0
  0
ARC
  5
98A3
330
9768
100
AcDbEntity
  8
1
  6
Continuous
100
AcDbCircle
 10
272.5843629999999
 20
131.1915399999997
 30
0.0
 40
5.5
100
AcDbArc
 50
178.3409999999999
 51
181.6579999999999
  0
ARC
  5
98A4
330
9768
100
AcDbEntity
  8
1
  6
Continuous
100
AcDbCircle
 10
272.5843629999999
 20
131.1915399999997
 30
0.0
 40
5.5
100
AcDbArc
 50
268.341
 51
271.6579999999999
  0
ARC
  5
98A5
330
9768
100
AcDbEntity
  8
1
  6
Continuous
100
AcDbCircle
 10
272.5843629999999
 20
131.1915399999997
 30
0.0
 40
5.5
100
AcDbArc
 50
88.34229999999998
 51
91.6589
  0
ARC
  5
98A6
330
9768
100
AcDbEntity
  8
1
  6
Continuous
100
AcDbCircle
 10
272.5843629999999
 20
131.1915399999997
 30
0.0
 40
5.5
100
AcDbArc
 50
358.3419999999999
 51
1.658749999999999
  0
ARC
  5
98A7
330
9768
100
AcDbEntity
  8
1
  6
Continuous
100
AcDbCircle
 10
211.5743629999998
 20
124.69154
 30
0.0
 40
6.790199999999998
100
AcDbArc
 50
0.000022
 51
23.865
  0
ARC
  5
98A8
330
9768
100
AcDbEntity
  8
1
  6
Continuous
100
AcDbCircle
 10
205.9453629999999
 20
131.1915399999997
 30
0.0
 40
12.4194
100
AcDbArc
 50
342.4119999999998
 51
17.588
  0
ARC
  5
98A9
330
9768
100
AcDbEntity
  8
1
  6
Continuous
100
AcDbCircle
 10
211.5743629999998
 20
137.69154
 30
0.0
 40
6.790199999999998
100
AcDbArc
 50
336.1349999999998
 51
0.000022
  0
CIRCLE
  5
98AA
330
9768
100
AcDbEntity
  8
1
  6
Continuous
100
AcDbCircle
 10
272.5843629999999
 20
131.1915399999997
 30
0.0
 40
10.0
  0
ARC
  5
98AB
330
9768
100
AcDbEntity
  8
1
  6
Continuous
100
AcDbCircle
 10
272.5843629999999
 20
131.1915399999997
 30
0.0
 40
11.0
100
AcDbArc
 50
324.903
 51
35.0968
  0
ARC
  5
98AC
330
9768
100
AcDbEntity
  8
1
  6
Continuous
100
AcDbCircle
 10
272.5843629999999
 20
131.1915399999997
 30
0.0
 40
11.0
100
AcDbArc
 50
210.273
 51
324.903
  0
ARC
  5
98AD
330
9768
100
AcDbEntity
  8
1
  6
Continuous
100
AcDbCircle
 10
272.5843629999999
 20
131.1915399999997
 30
0.0
 40
11.0
100
AcDbArc
 50
149.727
 51
210.273
  0
ARC
  5
98AE
330
9768
100
AcDbEntity
  8
1
  6
Continuous
100
AcDbCircle
 10
137.7293629999998
 20
134.31454
 30
0.0
 40
3.434899999999998
100
AcDbArc
 50
0.000022
 51
44.8566
  0
ARC
  5
98AF
330
9768
100
AcDbEntity
  8
1
  6
Continuous
100
AcDbCircle
 10
137.7293629999998
 20
128.0695399999999
 30
0.0
 40
3.434899999999998
100
AcDbArc
 50
315.1429999999999
 51
0.000022
  0
ARC
  5
98B0
330
9768
100
AcDbEntity
  8
1
  6
Continuous
100
AcDbCircle
 10
125.8713629999999
 20
193.1675399999998
 30
0.0
 40
3.2071
100
AcDbArc
 50
141.4199999999999
 51
218.5799999999999
  0
ARC
  5
98B1
330
9768
100
AcDbEntity
  8
1
  6
Continuous
100
AcDbCircle
 10
208.9773629999998
 20
202.4175399999998
 30
0.0
 40
9.387199999999998
100
AcDbArc
 50
339.744
 51
20.25619999999999
  0
ARC
  5
98B2
330
9768
100
AcDbEntity
  8
1
  6
Continuous
100
AcDbCircle
 10
208.9773629999998
 20
208.91754
 30
0.0
 40
9.387199999999998
100
AcDbArc
 50
339.744
 51
20.25619999999999
  0
ARC
  5
98B3
330
9768
100
AcDbEntity
  8
1
  6
Continuous
100
AcDbCircle
 10
189.8713629999998
 20
193.26854
 30
0.0
 40
0.8992
100
AcDbArc
 50
180.0
 51
0.0
  0
ARC
  5
98B4
330
9768
100
AcDbEntity
  8
1
  6
Continuous
100
AcDbCircle
 10
189.8713629999998
 20
218.0675399999998
 30
0.0
 40
0.8992
100
AcDbArc
 50
0.0
 51
180.0
  0
ARC
  5
98B5
330
9768
100
AcDbEntity
  8
1
  6
Continuous
100
AcDbCircle
 10
189.8713629999998
 20
143.59054
 30
0.0
 40
0.8992
100
AcDbArc
 50
0.0
 51
180.0
  0
ARC
  5
98B6
330
9768
100
AcDbEntity
  8
1
  6
Continuous
100
AcDbCircle
 10
189.8713629999998
 20
118.79154
 30
0.0
 40
0.8992
100
AcDbArc
 50
180.0
 51
0.0
  0
CIRCLE
  5
98B7
330
9768
100
AcDbEntity
  8
1
  6
Continuous
100
AcDbCircle
 10
272.5843629999999
 20
184.53554
 30
0.0
 40
6.5
  0
CIRCLE
  5
98B8
330
9768
100
AcDbEntity
  8
1
  6
Continuous
100
AcDbCircle
 10
272.5843629999999
 20
184.53554
 30
0.0
 40
7.7
  0
ARC
  5
98B9
330
9768
100
AcDbEntity
  8
1
  6
Continuous
100
AcDbCircle
 10
43.28436299999999
 20
131.1915399999997
 30
0.0
 40
3.5
100
AcDbArc
 50
85.0
 51
270.0
  0
CIRCLE
  5
98BA
330
9768
100
AcDbEntity
  8
1
  6
Continuous
100
AcDbCircle
 10
43.28436299999999
 20
131.1915399999997
 30
0.0
 40
2.0
  0
ARC
  5
98BB
330
9768
100
AcDbEntity
  8
1
  6
Continuous
100
AcDbCircle
 10
43.719363
 20
136.17254
 30
0.0
 40
1.5
100
AcDbArc
 50
265.0
 51
85.0
  0
ARC
  5
98BC
330
9768
100
AcDbEntity
  8
1
  6
Continuous
100
AcDbCircle
 10
43.28436299999999
 20
126.1915399999999
 30
0.0
 40
1.5
100
AcDbArc
 50
270.0
 51
90.0
  0
CIRCLE
  5
98BD
330
9768
100
AcDbEntity
  8
2
  6
Continuous
100
AcDbCircle
 10
272.5843629999999
 20
131.1915399999997
 30
0.0
 40
3.3235
  0
ARC
  5
98BE
330
9768
100
AcDbEntity
  8
1
  6
Continuous
100
AcDbCircle
 10
125.8713629999999
 20
69.21654000000001
 30
0.0
 40
3.2071
100
AcDbArc
 50
141.4199999999999
 51
218.5799999999999
  0
LINE
  5
98BF
330
9768
100
AcDbEntity
  8
1
  6
Continuous
100
AcDbLine
 10
19.94702099999998
 20
130.8023049999999
 30
0.0
 11
17.447451
 21
130.7177649999998
 31
0.0
  0
LINE
  5
98C0
330
9768
100
AcDbEntity
  8
1
  6
Continuous
100
AcDbLine
 10
19.900678
 20
131.896648
 30
0.0
 11
17.441028
 21
132.3495499999999
 31
0.0
  0
LINE
  5
98C1
330
9768
100
AcDbEntity
  8
1
  6
Continuous
100
AcDbLine
 10
19.69090499999998
 20
134.0101559999999
 30
0.0
 11
19.79117099999999
 21
133.9844999999999
 31
0.0
  0
LINE
  5
98C2
330
9768
100
AcDbEntity
  8
1
  6
Continuous
100
AcDbLine
 10
19.79117099999999
 20
133.9844999999999
 30
0.0
 11
19.894424
 21
133.9766849999997
 31
0.0
  0
LINE
  5
98C3
330
9768
100
AcDbEntity
  8
1
  6
Continuous
100
AcDbLine
 10
19.894424
 20
133.9766849999997
 30
0.0
 11
19.99746599999999
 21
133.986975
 31
0.0
  0
LINE
  5
98C4
330
9768
100
AcDbEntity
  8
1
  6
Continuous
100
AcDbLine
 10
19.99746599999999
 20
133.986975
 30
0.0
 11
20.097236
 21
134.015074
 31
0.0
  0
LINE
  5
98C5
330
9768
100
AcDbEntity
  8
1
  6
Continuous
100
AcDbLine
 10
20.097236
 20
134.015074
 30
0.0
 11
20.19066
 21
134.060106
 31
0.0
  0
LINE
  5
98C6
330
9768
100
AcDbEntity
  8
1
  6
Continuous
100
AcDbLine
 10
20.19066
 20
134.060106
 30
0.0
 11
20.274874
 21
134.1207079999997
 31
0.0
  0
LINE
  5
98C7
330
9768
100
AcDbEntity
  8
1
  6
Continuous
100
AcDbLine
 10
20.274874
 20
134.1207079999997
 30
0.0
 11
20.34741799999998
 21
134.1950329999999
 31
0.0
  0
LINE
  5
98C8
330
9768
100
AcDbEntity
  8
1
  6
Continuous
100
AcDbLine
 10
20.34741799999998
 20
134.1950329999999
 30
0.0
 11
20.405975
 21
134.2808379999999
 31
0.0
  0
LINE
  5
98C9
330
9768
100
AcDbEntity
  8
1
  6
Continuous
100
AcDbLine
 10
20.405975
 20
134.2808379999999
 30
0.0
 11
20.448857
 21
134.3754899999999
 31
0.0
  0
LINE
  5
98CA
330
9768
100
AcDbEntity
  8
1
  6
Continuous
100
AcDbLine
 10
20.446707
 20
134.3693769999999
 30
0.0
 11
20.469142
 21
134.487913
 31
0.0
  0
LINE
  5
98CB
330
9768
100
AcDbEntity
  8
1
  6
Continuous
100
AcDbLine
 10
20.469142
 20
134.487913
 30
0.0
 11
20.45660799999998
 21
134.6149389999999
 31
0.0
  0
LINE
  5
98CC
330
9768
100
AcDbEntity
  8
1
  6
Continuous
100
AcDbLine
 10
20.45660799999998
 20
134.6149389999999
 30
0.0
 11
20.409448
 21
134.746556
 31
0.0
  0
LINE
  5
98CD
330
9768
100
AcDbEntity
  8
1
  6
Continuous
100
AcDbLine
 10
20.409448
 20
134.746556
 30
0.0
 11
20.329165
 21
134.878765
 31
0.0
  0
LINE
  5
98CE
330
9768
100
AcDbEntity
  8
1
  6
Continuous
100
AcDbLine
 10
20.329165
 20
134.878765
 30
0.0
 11
20.218166
 21
135.007561
 31
0.0
  0
LINE
  5
98CF
330
9768
100
AcDbEntity
  8
1
  6
Continuous
100
AcDbLine
 10
20.218166
 20
135.007561
 30
0.0
 11
20.079757
 21
135.1290659999999
 31
0.0
  0
LINE
  5
98D0
330
9768
100
AcDbEntity
  8
1
  6
Continuous
100
AcDbLine
 10
20.079757
 20
135.1290659999999
 30
0.0
 11
19.91823799999998
 21
135.2395009999999
 31
0.0
  0
LINE
  5
98D1
330
9768
100
AcDbEntity
  8
1
  6
Continuous
100
AcDbLine
 10
19.91823799999998
 20
135.2395009999999
 30
0.0
 11
19.738471
 21
135.335611
 31
0.0
  0
LINE
  5
98D2
330
9768
100
AcDbEntity
  8
1
  6
Continuous
100
AcDbLine
 10
19.738471
 20
135.335611
 30
0.0
 11
19.54593599999998
 21
135.414403
 31
0.0
  0
LINE
  5
98D3
330
9768
100
AcDbEntity
  8
1
  6
Continuous
100
AcDbLine
 10
18.55036399999999
 20
134.4045179999999
 30
0.0
 11
18.456119
 21
134.4472889999998
 31
0.0
  0
LINE
  5
98D4
330
9768
100
AcDbEntity
  8
1
  6
Continuous
100
AcDbLine
 10
18.456119
 20
134.4472889999998
 30
0.0
 11
18.370715
 21
134.505841
 31
0.0
  0
LINE
  5
98D5
330
9768
100
AcDbEntity
  8
1
  6
Continuous
100
AcDbLine
 10
18.370715
 20
134.505841
 30
0.0
 11
18.29681099999999
 21
134.578379
 31
0.0
  0
LINE
  5
98D6
330
9768
100
AcDbEntity
  8
1
  6
Continuous
100
AcDbLine
 10
18.29681099999999
 20
134.578379
 30
0.0
 11
18.236609
 21
134.662755
 31
0.0
  0
LINE
  5
98D7
330
9768
100
AcDbEntity
  8
1
  6
Continuous
100
AcDbLine
 10
18.236609
 20
134.662755
 30
0.0
 11
18.191956
 21
134.7563609999999
 31
0.0
  0
LINE
  5
98D8
330
9768
100
AcDbEntity
  8
1
  6
Continuous
100
AcDbLine
 10
18.191956
 20
134.7563609999999
 30
0.0
 11
18.164233
 21
134.8563419999998
 31
0.0
  0
LINE
  5
98D9
330
9768
100
AcDbEntity
  8
1
  6
Continuous
100
AcDbLine
 10
18.164233
 20
134.8563419999998
 30
0.0
 11
18.15420199999999
 21
134.9597149999999
 31
0.0
  0
LINE
  5
98DA
330
9768
100
AcDbEntity
  8
1
  6
Continuous
100
AcDbLine
 10
18.15420199999999
 20
134.9597149999999
 30
0.0
 11
18.16226499999999
 21
135.063284
 31
0.0
  0
LINE
  5
98DB
330
9768
100
AcDbEntity
  8
1
  6
Continuous
100
AcDbLine
 10
18.16226499999999
 20
135.063284
 30
0.0
 11
18.188088
 21
135.163936
 31
0.0
  0
LINE
  5
98DC
330
9768
100
AcDbEntity
  8
1
  6
Continuous
100
AcDbLine
 10
18.188088
 20
135.163936
 30
0.0
 11
18.24481
 21
135.270411
 31
0.0
  0
LINE
  5
98DD
330
9768
100
AcDbEntity
  8
1
  6
Continuous
100
AcDbLine
 10
18.24481
 20
135.270411
 30
0.0
 11
18.334114
 21
135.361612
 31
0.0
  0
LINE
  5
98DE
330
9768
100
AcDbEntity
  8
1
  6
Continuous
100
AcDbLine
 10
18.334114
 20
135.361612
 30
0.0
 11
18.453291
 21
135.4347119999999
 31
0.0
  0
LINE
  5
98DF
330
9768
100
AcDbEntity
  8
1
  6
Continuous
100
AcDbLine
 10
18.453291
 20
135.4347119999999
 30
0.0
 11
18.59866699999999
 21
135.487537
 31
0.0
  0
LINE
  5
98E0
330
9768
100
AcDbEntity
  8
1
  6
Continuous
100
AcDbLine
 10
18.59866699999999
 20
135.487537
 30
0.0
 11
18.765857
 21
135.5184679999998
 31
0.0
  0
LINE
  5
98E1
330
9768
100
AcDbEntity
  8
1
  6
Continuous
100
AcDbLine
 10
18.765857
 20
135.5184679999998
 30
0.0
 11
18.94985399999999
 21
135.5265539999997
 31
0.0
  0
LINE
  5
98E2
330
9768
100
AcDbEntity
  8
1
  6
Continuous
100
AcDbLine
 10
18.94985399999999
 20
135.5265539999997
 30
0.0
 11
19.14494099999998
 21
135.5115389999999
 31
0.0
  0
LINE
  5
98E3
330
9768
100
AcDbEntity
  8
1
  6
Continuous
100
AcDbLine
 10
19.14494099999998
 20
135.5115389999999
 30
0.0
 11
19.345288
 21
135.4739289999999
 31
0.0
  0
LINE
  5
98E4
330
9768
100
AcDbEntity
  8
1
  6
Continuous
100
AcDbLine
 10
19.345288
 20
135.4739289999999
 30
0.0
 11
19.54474799999999
 21
135.4148209999999
 31
0.0
  0
LINE
  5
98E5
330
9768
100
AcDbEntity
  8
1
  6
Continuous
100
AcDbLine
 10
20.11072599999998
 20
133.0373909999998
 30
0.0
 11
17.651076
 21
133.4902929999998
 31
0.0
  0
LINE
  5
98E6
330
9768
100
AcDbEntity
  8
1
  6
Continuous
100
AcDbLine
 10
22.96229899999999
 20
138.5673129999998
 30
0.0
 11
22.01455499999999
 21
137.4593659999999
 31
0.0
  0
LINE
  5
98E7
330
9768
100
AcDbEntity
  8
1
  6
Continuous
100
AcDbLine
 10
22.49053299999999
 20
138.015801
 30
0.0
 11
20.603676
 21
139.6298309999999
 31
0.0
  0
LINE
  5
98E8
330
9768
100
AcDbEntity
  8
1
  6
Continuous
100
AcDbLine
 10
19.307907
 20
137.6049049999998
 30
0.0
 11
19.386488
 21
137.7060879999999
 31
0.0
  0
LINE
  5
98E9
330
9768
100
AcDbEntity
  8
1
  6
Continuous
100
AcDbLine
 10
19.386488
 20
137.7060879999999
 30
0.0
 11
19.49262
 21
137.787079
 31
0.0
  0
LINE
  5
98EA
330
9768
100
AcDbEntity
  8
1
  6
Continuous
100
AcDbLine
 10
19.49262
 20
137.787079
 30
0.0
 11
19.623342
 21
137.845548
 31
0.0
  0
LINE
  5
98EB
330
9768
100
AcDbEntity
  8
1
  6
Continuous
100
AcDbLine
 10
19.623342
 20
137.845548
 30
0.0
 11
19.774808
 21
137.879793
 31
0.0
  0
LINE
  5
98EC
330
9768
100
AcDbEntity
  8
1
  6
Continuous
100
AcDbLine
 10
19.774808
 20
137.879793
 30
0.0
 11
19.942738
 21
137.8888849999999
 31
0.0
  0
LINE
  5
98ED
330
9768
100
AcDbEntity
  8
1
  6
Continuous
100
AcDbLine
 10
19.942738
 20
137.8888849999999
 30
0.0
 11
20.122264
 21
137.8724999999998
 31
0.0
  0
LINE
  5
98EE
330
9768
100
AcDbEntity
  8
1
  6
Continuous
100
AcDbLine
 10
20.122264
 20
137.8724999999998
 30
0.0
 11
20.30826699999998
 21
137.8311319999999
 31
0.0
  0
LINE
  5
98EF
330
9768
100
AcDbEntity
  8
1
  6
Continuous
100
AcDbLine
 10
20.30826699999998
 20
137.8311319999999
 30
0.0
 11
20.49540299999998
 21
137.7659659999999
 31
0.0
  0
LINE
  5
98F0
330
9768
100
AcDbEntity
  8
1
  6
Continuous
100
AcDbLine
 10
20.49540299999998
 20
137.7659659999999
 30
0.0
 11
20.678271
 21
137.678896
 31
0.0
  0
LINE
  5
98F1
330
9768
100
AcDbEntity
  8
1
  6
Continuous
100
AcDbLine
 10
20.678271
 20
137.678896
 30
0.0
 11
20.851607
 21
137.5724109999999
 31
0.0
  0
LINE
  5
98F2
330
9768
100
AcDbEntity
  8
1
  6
Continuous
100
AcDbLine
 10
20.851607
 20
137.5724109999999
 30
0.0
 11
21.01047
 21
137.4495599999999
 31
0.0
  0
LINE
  5
98F3
330
9768
100
AcDbEntity
  8
1
  6
Continuous
100
AcDbLine
 10
21.01047
 20
137.4495599999999
 30
0.0
 11
21.150253
 21
137.3138729999998
 31
0.0
  0
LINE
  5
98F4
330
9768
100
AcDbEntity
  8
1
  6
Continuous
100
AcDbLine
 10
21.150253
 20
137.3138729999998
 30
0.0
 11
21.266983
 21
137.169262
 31
0.0
  0
LINE
  5
98F5
330
9768
100
AcDbEntity
  8
1
  6
Continuous
100
AcDbLine
 10
21.266983
 20
137.169262
 30
0.0
 11
21.357297
 21
137.019884
 31
0.0
  0
LINE
  5
98F6
330
9768
100
AcDbEntity
  8
1
  6
Continuous
100
AcDbLine
 10
21.357297
 20
137.019884
 30
0.0
 11
21.418607
 21
136.8699719999999
 31
0.0
  0
LINE
  5
98F7
330
9768
100
AcDbEntity
  8
1
  6
Continuous
100
AcDbLine
 10
21.418607
 20
136.8699719999999
 30
0.0
 11
21.449127
 21
136.723894
 31
0.0
  0
LINE
  5
98F8
330
9768
100
AcDbEntity
  8
1
  6
Continuous
100
AcDbLine
 10
21.449127
 20
136.723894
 30
0.0
 11
21.44797399999999
 21
136.585868
 31
0.0
  0
LINE
  5
98F9
330
9768
100
AcDbEntity
  8
1
  6
Continuous
100
AcDbLine
 10
21.44797399999999
 20
136.585868
 30
0.0
 11
21.415218
 21
136.459784
 31
0.0
  0
LINE
  5
98FA
330
9768
100
AcDbEntity
  8
1
  6
Continuous
100
AcDbLine
 10
21.415218
 20
136.459784
 30
0.0
 11
21.351784
 21
136.3493019999999
 31
0.0
  0
LINE
  5
98FB
330
9768
100
AcDbEntity
  8
1
  6
Continuous
100
AcDbLine
 10
21.351784
 20
136.3493019999999
 30
0.0
 11
21.259507
 21
136.257589
 31
0.0
  0
LINE
  5
98FC
330
9768
100
AcDbEntity
  8
1
  6
Continuous
100
AcDbLine
 10
21.259507
 20
136.257589
 30
0.0
 11
21.14100699999999
 21
136.1872839999997
 31
0.0
  0
LINE
  5
98FD
330
9768
100
AcDbEntity
  8
1
  6
Continuous
100
AcDbLine
 10
21.14100699999999
 20
136.1872839999997
 30
0.0
 11
20.99969499999999
 21
136.1404169999999
 31
0.0
  0
LINE
  5
98FE
330
9768
100
AcDbEntity
  8
1
  6
Continuous
100
AcDbLine
 10
20.99969499999999
 20
136.1404169999999
 30
0.0
 11
20.839671
 21
136.1183189999999
 31
0.0
  0
LINE
  5
98FF
330
9768
100
AcDbEntity
  8
1
  6
Continuous
100
AcDbLine
 10
20.839671
 20
136.1183189999999
 30
0.0
 11
20.66546
 21
136.1216269999999
 31
0.0
  0
LINE
  5
9900
330
9768
100
AcDbEntity
  8
1
  6
Continuous
100
AcDbLine
 10
20.66546
 20
136.1216269999999
 30
0.0
 11
20.482152
 21
136.150238
 31
0.0
  0
LINE
  5
9901
330
9768
100
AcDbEntity
  8
1
  6
Continuous
100
AcDbLine
 10
20.482152
 20
136.150238
 30
0.0
 11
20.294891
 21
136.2033439999999
 31
0.0
  0
LINE
  5
9902
330
9768
100
AcDbEntity
  8
1
  6
Continuous
100
AcDbLine
 10
20.294891
 20
136.2033439999999
 30
0.0
 11
20.10917999999999
 21
136.2794049999999
 31
0.0
  0
LINE
  5
9903
330
9768
100
AcDbEntity
  8
1
  6
Continuous
100
AcDbLine
 10
20.10917999999999
 20
136.2794049999999
 30
0.0
 11
19.930313
 21
136.3762509999999
 31
0.0
  0
LINE
  5
9904
330
9768
100
AcDbEntity
  8
1
  6
Continuous
100
AcDbLine
 10
19.930313
 20
136.3762509999999
 30
0.0
 11
19.76339099999998
 21
136.4911149999997
 31
0.0
  0
LINE
  5
9905
330
9768
100
AcDbEntity
  8
1
  6
Continuous
100
AcDbLine
 10
19.76339099999998
 20
136.4911149999997
 30
0.0
 11
19.613247
 21
136.6206719999998
 31
0.0
  0
LINE
  5
9906
330
9768
100
AcDbEntity
  8
1
  6
Continuous
100
AcDbLine
 10
19.613247
 20
136.6206719999998
 30
0.0
 11
19.484211
 21
136.7611799999999
 31
0.0
  0
LINE
  5
9907
330
9768
100
AcDbEntity
  8
1
  6
Continuous
100
AcDbLine
 10
19.484211
 20
136.7611799999999
 30
0.0
 11
19.379907
 21
136.9086649999998
 31
0.0
  0
LINE
  5
9908
330
9768
100
AcDbEntity
  8
1
  6
Continuous
100
AcDbLine
 10
19.379907
 20
136.9086649999998
 30
0.0
 11
19.30341199999999
 21
137.058836
 31
0.0
  0
LINE
  5
9909
330
9768
100
AcDbEntity
  8
1
  6
Continuous
100
AcDbLine
 10
19.30341199999999
 20
137.058836
 30
0.0
 11
19.256913
 21
137.2073939999999
 31
0.0
  0
LINE
  5
990A
330
9768
100
AcDbEntity
  8
1
  6
Continuous
100
AcDbLine
 10
19.256913
 20
137.2073939999999
 30
0.0
 11
19.241703
 21
137.350107
 31
0.0
  0
LINE
  5
990B
330
9768
100
AcDbEntity
  8
1
  6
Continuous
100
AcDbLine
 10
19.241703
 20
137.350107
 30
0.0
 11
19.258272
 21
137.482797
 31
0.0
  0
LINE
  5
990C
330
9768
100
AcDbEntity
  8
1
  6
Continuous
100
AcDbLine
 10
19.258272
 20
137.482797
 30
0.0
 11
19.307907
 21
137.6049049999998
 31
0.0
  0
LINE
  5
990D
330
9768
100
AcDbEntity
  8
1
  6
Continuous
100
AcDbLine
 10
18.93398699999998
 20
133.2540669999999
 30
0.0
 11
18.723939
 21
132.1133239999997
 31
0.0
  0
LINE
  5
990E
330
9768
100
AcDbEntity
  8
1
  6
Continuous
100
AcDbLine
 10
20.29528699999999
 20
125.054448
 30
0.0
 11
21.20159699999998
 21
126.168937
 31
0.0
  0
LINE
  5
990F
330
9768
100
AcDbEntity
  8
1
  6
Continuous
100
AcDbLine
 10
20.291329
 20
125.052311
 30
0.0
 11
21.726
 21
125.1976269999999
 31
0.0
  0
LINE
  5
9910
330
9768
100
AcDbEntity
  8
1
  6
Continuous
100
AcDbLine
 10
20.677505
 20
127.2941
 30
0.0
 11
18.35193
 21
126.373939
 31
0.0
  0
LINE
  5
9911
330
9768
100
AcDbEntity
  8
1
  6
Continuous
100
AcDbLine
 10
19.0057
 20
128.0785459999999
 30
0.0
 11
17.87031499999998
 21
127.838249
 31
0.0
  0
LINE
  5
9912
330
9768
100
AcDbEntity
  8
1
  6
Continuous
100
AcDbLine
 10
20.291329
 20
125.052311
 30
0.0
 11
19.26220499999999
 21
124.496695
 31
0.0
  0
LINE
  5
9913
330
9768
100
AcDbEntity
  8
1
  6
Continuous
100
AcDbLine
 10
22.393197
 20
124.413155
 30
0.0
 11
19.99295599999999
 21
123.3275169999999
 31
0.0
  0
LINE
  5
9914
330
9768
100
AcDbEntity
  8
1
  6
Continuous
100
AcDbLine
 10
19.704819
 20
128.3285129999998
 30
0.0
 11
19.803805
 21
128.358736
 31
0.0
  0
LINE
  5
9915
330
9768
100
AcDbEntity
  8
1
  6
Continuous
100
AcDbLine
 10
19.803805
 20
128.358736
 30
0.0
 11
19.896065
 21
128.40575
 31
0.0
  0
LINE
  5
9916
330
9768
100
AcDbEntity
  8
1
  6
Continuous
100
AcDbLine
 10
19.896065
 20
128.40575
 30
0.0
 11
19.97873
 21
128.46812
 31
0.0
  0
LINE
  5
9917
330
9768
100
AcDbEntity
  8
1
  6
Continuous
100
AcDbLine
 10
19.97873
 20
128.46812
 30
0.0
 11
20.049339
 21
128.544001
 31
0.0
  0
LINE
  5
9918
330
9768
100
AcDbEntity
  8
1
  6
Continuous
100
AcDbLine
 10
20.049339
 20
128.544001
 30
0.0
 11
20.105724
 21
128.631045
 31
0.0
  0
LINE
  5
9919
330
9768
100
AcDbEntity
  8
1
  6
Continuous
100
AcDbLine
 10
20.105724
 20
128.631045
 30
0.0
 11
20.14614599999999
 21
128.7266
 31
0.0
  0
LINE
  5
991A
330
9768
100
AcDbEntity
  8
1
  6
Continuous
100
AcDbLine
 10
20.14614599999999
 20
128.7266
 30
0.0
 11
20.169462
 21
128.8278079999997
 31
0.0
  0
LINE
  5
991B
330
9768
100
AcDbEntity
  8
1
  6
Continuous
100
AcDbLine
 10
20.169462
 20
128.8278079999997
 30
0.0
 11
20.17486299999999
 21
128.9315499999998
 31
0.0
  0
LINE
  5
991C
330
9768
100
AcDbEntity
  8
1
  6
Continuous
100
AcDbLine
 10
20.17486299999999
 20
128.9315499999998
 30
0.0
 11
20.162274
 21
129.0346969999999
 31
0.0
  0
LINE
  5
991D
330
9768
100
AcDbEntity
  8
1
  6
Continuous
100
AcDbLine
 10
20.163616
 20
129.0283569999998
 30
0.0
 11
20.12114299999999
 21
129.141274
 31
0.0
  0
LINE
  5
991E
330
9768
100
AcDbEntity
  8
1
  6
Continuous
100
AcDbLine
 10
20.12114299999999
 20
129.141274
 30
0.0
 11
20.044384
 21
129.2432589999999
 31
0.0
  0
LINE
  5
991F
330
9768
100
AcDbEntity
  8
1
  6
Continuous
100
AcDbLine
 10
20.044384
 20
129.2432589999999
 30
0.0
 11
19.935663
 21
129.33116
 31
0.0
  0
LINE
  5
9920
330
9768
100
AcDbEntity
  8
1
  6
Continuous
100
AcDbLine
 10
19.935663
 20
129.33116
 30
0.0
 11
19.798341
 21
129.4023439999999
 31
0.0
  0
LINE
  5
9921
330
9768
100
AcDbEntity
  8
1
  6
Continuous
100
AcDbLine
 10
19.798341
 20
129.4023439999999
 30
0.0
 11
19.63655499999999
 21
129.4546389999998
 31
0.0
  0
LINE
  5
9922
330
9768
100
AcDbEntity
  8
1
  6
Continuous
100
AcDbLine
 10
19.63655499999999
 20
129.4546389999998
 30
0.0
 11
19.45515
 21
129.4864549999998
 31
0.0
  0
LINE
  5
9923
330
9768
100
AcDbEntity
  8
1
  6
Continuous
100
AcDbLine
 10
19.45515
 20
129.4864549999998
 30
0.0
 11
19.259759
 21
129.496799
 31
0.0
  0
LINE
  5
9924
330
9768
100
AcDbEntity
  8
1
  6
Continuous
100
AcDbLine
 10
19.259759
 20
129.496799
 30
0.0
 11
19.056231
 21
129.4854169999998
 31
0.0
  0
LINE
  5
9925
330
9768
100
AcDbEntity
  8
1
  6
Continuous
100
AcDbLine
 10
19.056231
 20
129.4854169999998
 30
0.0
 11
18.850801
 21
129.452603
 31
0.0
  0
LINE
  5
9926
330
9768
100
AcDbEntity
  8
1
  6
Continuous
100
AcDbLine
 10
17.821202
 20
128.532599
 30
0.0
 11
17.81428599999999
 21
128.653041
 31
0.0
  0
LINE
  5
9927
330
9768
100
AcDbEntity
  8
1
  6
Continuous
100
AcDbLine
 10
17.81428599999999
 20
128.653041
 30
0.0
 11
17.84314499999998
 21
128.7773789999999
 31
0.0
  0
LINE
  5
9928
330
9768
100
AcDbEntity
  8
1
  6
Continuous
100
AcDbLine
 10
17.84314499999998
 20
128.7773789999999
 30
0.0
 11
17.906932
 21
128.901791
 31
0.0
  0
LINE
  5
9929
330
9768
100
AcDbEntity
  8
1
  6
Continuous
100
AcDbLine
 10
17.906932
 20
128.901791
 30
0.0
 11
18.00364
 21
129.022506
 31
0.0
  0
LINE
  5
992A
330
9768
100
AcDbEntity
  8
1
  6
Continuous
100
AcDbLine
 10
18.00364
 20
129.022506
 30
0.0
 11
18.130365
 21
129.1358629999998
 31
0.0
  0
LINE
  5
992B
330
9768
100
AcDbEntity
  8
1
  6
Continuous
100
AcDbLine
 10
18.130365
 20
129.1358629999998
 30
0.0
 11
18.28332599999999
 21
129.238446
 31
0.0
  0
LINE
  5
992C
330
9768
100
AcDbEntity
  8
1
  6
Continuous
100
AcDbLine
 10
18.28332599999999
 20
129.238446
 30
0.0
 11
18.45777199999998
 21
129.3270629999998
 31
0.0
  0
LINE
  5
992D
330
9768
100
AcDbEntity
  8
1
  6
Continuous
100
AcDbLine
 10
18.45777199999998
 20
129.3270629999998
 30
0.0
 11
18.64846
 21
129.3991149999999
 31
0.0
  0
LINE
  5
992E
330
9768
100
AcDbEntity
  8
1
  6
Continuous
100
AcDbLine
 10
18.64846
 20
129.3991149999999
 30
0.0
 11
18.84956899999998
 21
129.4523419999999
 31
0.0
  0
LINE
  5
992F
330
9768
100
AcDbEntity
  8
1
  6
Continuous
100
AcDbLine
 10
18.81952799999998
 20
128.0457679999998
 30
0.0
 11
18.66859299999999
 21
128.024421
 31
0.0
  0
LINE
  5
9930
330
9768
100
AcDbEntity
  8
1
  6
Continuous
100
AcDbLine
 10
18.66859299999999
 20
128.024421
 30
0.0
 11
18.517914
 21
128.024025
 31
0.0
  0
LINE
  5
9931
330
9768
100
AcDbEntity
  8
1
  6
Continuous
100
AcDbLine
 10
18.517914
 20
128.024025
 30
0.0
 11
18.372129
 21
128.044603
 31
0.0
  0
LINE
  5
9932
330
9768
100
AcDbEntity
  8
1
  6
Continuous
100
AcDbLine
 10
18.372129
 20
128.044603
 30
0.0
 11
18.235647
 21
128.085529
 31
0.0
  0
LINE
  5
9933
330
9768
100
AcDbEntity
  8
1
  6
Continuous
100
AcDbLine
 10
18.235647
 20
128.085529
 30
0.0
 11
18.112601
 21
128.1455269999999
 31
0.0
  0
LINE
  5
9934
330
9768
100
AcDbEntity
  8
1
  6
Continuous
100
AcDbLine
 10
18.112601
 20
128.1455269999999
 30
0.0
 11
18.006726
 21
128.2228029999999
 31
0.0
  0
LINE
  5
9935
330
9768
100
AcDbEntity
  8
1
  6
Continuous
100
AcDbLine
 10
18.006726
 20
128.2228029999999
 30
0.0
 11
17.92123599999999
 21
128.3149919999999
 31
0.0
  0
LINE
  5
9936
330
9768
100
AcDbEntity
  8
1
  6
Continuous
100
AcDbLine
 10
17.92123599999999
 20
128.3149919999999
 30
0.0
 11
17.858788
 21
128.4193099999999
 31
0.0
  0
LINE
  5
9937
330
9768
100
AcDbEntity
  8
1
  6
Continuous
100
AcDbLine
 10
17.858788
 20
128.4193099999999
 30
0.0
 11
17.821202
 21
128.532599
 31
0.0
  0
LINE
  5
9938
330
9768
100
AcDbEntity
  8
1
  6
Continuous
100
AcDbLine
 10
18.87555199999998
 20
128.693485
 30
0.0
 11
19.0057
 21
128.0785459999999
 31
0.0
  0
LINE
  5
9939
330
9768
100
AcDbEntity
  8
1
  6
Continuous
100
AcDbLine
 10
20.70262
 20
123.6432179999999
 30
0.0
 11
21.329009
 21
122.895736
 31
0.0
  0
LINE
  5
993A
330
9768
100
AcDbEntity
  8
1
  6
Continuous
100
AcDbLine
 10
22.393197
 20
124.413155
 30
0.0
 11
20.889508
 21
122.2448419999999
 31
0.0
  0
LINE
  5
993B
330
9768
100
AcDbEntity
  8
1
  6
Continuous
100
AcDbLine
 10
25.757963
 20
134.3392729999999
 30
0.0
 11
23.99480399999999
 21
135.2833439999998
 31
0.0
  0
LINE
  5
993C
330
9768
100
AcDbEntity
  8
1
  6
Continuous
100
AcDbLine
 10
25.240434
 20
133.3727309999999
 30
0.0
 11
23.477276
 21
134.3168029999999
 31
0.0
  0
LINE
  5
993D
330
9768
100
AcDbEntity
  8
1
  6
Continuous
100
AcDbLine
 10
25.003003
 20
132.7953759999997
 30
0.0
 11
23.260909
 21
133.983339
 31
0.0
  0
LINE
  5
993E
330
9768
100
AcDbEntity
  8
1
  6
Continuous
100
AcDbLine
 10
25.00637499999999
 20
132.7944389999998
 30
0.0
 11
22.90608
 21
132.706031
 31
0.0
  0
LINE
  5
993F
330
9768
100
AcDbEntity
  8
1
  6
Continuous
100
AcDbLine
 10
26.279238
 20
134.9748559999999
 30
0.0
 11
24.834429
 21
136.357796
 31
0.0
  0
LINE
  5
9940
330
9768
100
AcDbEntity
  8
1
  6
Continuous
100
AcDbLine
 10
23.78624299999999
 20
133.6196909999999
 30
0.0
 11
23.539512
 21
132.731512
 31
0.0
  0
LINE
  5
9941
330
9768
100
AcDbEntity
  8
1
  6
Continuous
100
AcDbLine
 10
24.86316
 20
134.818389
 30
0.0
 11
24.345631
 21
133.8518479999999
 31
0.0
  0
LINE
  5
9942
330
9768
100
AcDbEntity
  8
1
  6
Continuous
100
AcDbLine
 10
26.753587
 20
135.470425
 30
0.0
 11
25.800654
 21
134.474861
 31
0.0
  0
LINE
  5
9943
330
9768
100
AcDbEntity
  8
1
  6
Continuous
100
AcDbLine
 10
25.777947
 20
128.0153639999997
 30
0.0
 11
24.47605499999999
 21
127.1215239999998
 31
0.0
  0
POLYLINE
  5
9944
330
9768
100
AcDbEntity
  8
1
  6
Continuous
100
AcDb2dPolyline
 66
     1
 10
0.0
 20
0.0
 30
0.0
 70
   128
210
0.0
220
0.0
230
-1.0
  0
VERTEX
  5
9945
330
9944
100
AcDbEntity
  8
1
  6
Continuous
100
AcDbVertex
100
AcDb2dVertex
 10
-24.474173
 20
127.1202659999999
 30
0.0
1001
ACAD
1000
R13OBJECT
1002
{
1005
91DD
1002
}
  0
VERTEX
  5
9946
330
9944
100
AcDbEntity
  8
1
  6
Continuous
100
AcDbVertex
100
AcDb2dVertex
 10
-24.266532
 20
127.037632
 30
0.0
1001
ACAD
1000
R13OBJECT
1002
{
1005
91DD
1002
}
  0
VERTEX
  5
9947
330
9944
100
AcDbEntity
  8
1
  6
Continuous
100
AcDbVertex
100
AcDb2dVertex
 10
-24.056418
 20
127.062275
 30
0.0
1001
ACAD
1000
R13OBJECT
1002
{
1005
91DD
1002
}
  0
VERTEX
  5
9948
330
9944
100
AcDbEntity
  8
1
  6
Continuous
100
AcDbVertex
100
AcDb2dVertex
 10
-23.9018
 20
127.187395
 30
0.0
1001
ACAD
1000
R13OBJECT
1002
{
1005
91DD
1002
}
  0
VERTEX
  5
9949
330
9944
100
AcDbEntity
  8
1
  6
Continuous
100
AcDbVertex
100
AcDb2dVertex
 10
-23.845336
 20
127.3784739999999
 30
0.0
1001
ACAD
1000
R13OBJECT
1002
{
1005
91DD
1002
}
  0
VERTEX
  5
994A
330
9944
100
AcDbEntity
  8
1
  6
Continuous
100
AcDbVertex
100
AcDb2dVertex
 10
-23.902604
 20
127.5827929999999
 30
0.0
1001
ACAD
1000
R13OBJECT
1002
{
1005
91DD
1002
}
  0
VERTEX
  5
994B
330
9944
100
AcDbEntity
  8
1
  6
Continuous
100
AcDbVertex
100
AcDb2dVertex
 10
-24.057804
 20
127.743984
 30
0.0
1001
ACAD
1000
R13OBJECT
1002
{
1005
91DD
1002
}
  0
SEQEND
  5
994C
330
9944
100
AcDbEntity
  8
1
  6
Continuous
  0
LINE
  5
994D
330
9768
100
AcDbEntity
  8
1
  6
Continuous
100
AcDbLine
 10
25.591731
 20
128.2865909999999
 30
0.0
 11
25.964164
 21
127.744136
 31
0.0
  0
LINE
  5
994E
330
9768
100
AcDbEntity
  8
1
  6
Continuous
100
AcDbLine
 10
24.325858
 20
130.6570539999999
 30
0.0
 11
24.252634
 21
130.6617719999999
 31
0.0
  0
LINE
  5
994F
330
9768
100
AcDbEntity
  8
1
  6
Continuous
100
AcDbLine
 10
24.252634
 20
130.6617719999999
 30
0.0
 11
24.181421
 21
130.6783709999999
 31
0.0
  0
LINE
  5
9950
330
9768
100
AcDbEntity
  8
1
  6
Continuous
100
AcDbLine
 10
24.181421
 20
130.6783709999999
 30
0.0
 11
24.114412
 21
130.706296
 31
0.0
  0
LINE
  5
9951
330
9768
100
AcDbEntity
  8
1
  6
Continuous
100
AcDbLine
 10
24.114412
 20
130.706296
 30
0.0
 11
24.053615
 21
130.7446939999999
 31
0.0
  0
LINE
  5
9952
330
9768
100
AcDbEntity
  8
1
  6
Continuous
100
AcDbLine
 10
24.053615
 20
130.7446939999999
 30
0.0
 11
24.00085199999999
 21
130.792478
 31
0.0
  0
LINE
  5
9953
330
9768
100
AcDbEntity
  8
1
  6
Continuous
100
AcDbLine
 10
24.00085199999999
 20
130.792478
 30
0.0
 11
23.957806
 21
130.8480969999999
 31
0.0
  0
LINE
  5
9954
330
9768
100
AcDbEntity
  8
1
  6
Continuous
100
AcDbLine
 10
23.957806
 20
130.8480969999999
 30
0.0
 11
23.92567099999999
 21
130.909927
 31
0.0
  0
LINE
  5
9955
330
9768
100
AcDbEntity
  8
1
  6
Continuous
100
AcDbLine
 10
23.92567099999999
 20
130.909927
 30
0.0
 11
23.905533
 21
130.9760459999999
 31
0.0
  0
LINE
  5
9956
330
9768
100
AcDbEntity
  8
1
  6
Continuous
100
AcDbLine
 10
23.905533
 20
130.9760459999999
 30
0.0
 11
23.897952
 21
131.044488
 31
0.0
  0
LINE
  5
9957
330
9768
100
AcDbEntity
  8
1
  6
Continuous
100
AcDbLine
 10
23.898066
 20
131.037909
 30
0.0
 11
23.895212
 21
131.2023839999999
 31
0.0
  0
LINE
  5
9958
330
9768
100
AcDbEntity
  8
1
  6
Continuous
100
AcDbLine
 10
22.79985499999999
 20
131.045177
 30
0.0
 11
22.806044
 21
131.1241249999999
 31
0.0
  0
LINE
  5
9959
330
9768
100
AcDbEntity
  8
1
  6
Continuous
100
AcDbLine
 10
22.806044
 20
131.1241249999999
 30
0.0
 11
22.82708599999998
 21
131.200961
 31
0.0
  0
LINE
  5
995A
330
9768
100
AcDbEntity
  8
1
  6
Continuous
100
AcDbLine
 10
22.82708599999998
 20
131.200961
 30
0.0
 11
22.86238299999999
 21
131.273306
 31
0.0
  0
LINE
  5
995B
330
9768
100
AcDbEntity
  8
1
  6
Continuous
100
AcDbLine
 10
22.86238299999999
 20
131.273306
 30
0.0
 11
22.91088299999999
 21
131.3389699999998
 31
0.0
  0
LINE
  5
995C
330
9768
100
AcDbEntity
  8
1
  6
Continuous
100
AcDbLine
 10
22.91088299999999
 20
131.3389699999998
 30
0.0
 11
22.971078
 21
131.3959859999999
 31
0.0
  0
LINE
  5
995D
330
9768
100
AcDbEntity
  8
1
  6
Continuous
100
AcDbLine
 10
22.971078
 20
131.3959859999999
 30
0.0
 11
23.041156
 21
131.442611
 31
0.0
  0
LINE
  5
995E
330
9768
100
AcDbEntity
  8
1
  6
Continuous
100
AcDbLine
 10
23.041156
 20
131.442611
 30
0.0
 11
23.11896
 21
131.477425
 31
0.0
  0
LINE
  5
995F
330
9768
100
AcDbEntity
  8
1
  6
Continuous
100
AcDbLine
 10
23.11896
 20
131.477425
 30
0.0
 11
23.202177
 21
131.499336
 31
0.0
  0
LINE
  5
9960
330
9768
100
AcDbEntity
  8
1
  6
Continuous
100
AcDbLine
 10
23.202177
 20
131.499336
 30
0.0
 11
23.288223
 21
131.5077389999999
 31
0.0
  0
LINE
  5
9961
330
9768
100
AcDbEntity
  8
1
  6
Continuous
100
AcDbLine
 10
23.296116
 20
130.6194429999999
 30
0.0
 11
23.211151
 21
130.624582
 31
0.0
  0
LINE
  5
9962
330
9768
100
AcDbEntity
  8
1
  6
Continuous
100
AcDbLine
 10
23.211151
 20
130.624582
 30
0.0
 11
23.12851699999999
 21
130.642727
 31
0.0
  0
LINE
  5
9963
330
9768
100
AcDbEntity
  8
1
  6
Continuous
100
AcDbLine
 10
23.12851699999999
 20
130.642727
 30
0.0
 11
23.050744
 21
130.6733609999998
 31
0.0
  0
LINE
  5
9964
330
9768
100
AcDbEntity
  8
1
  6
Continuous
100
AcDbLine
 10
23.050744
 20
130.6733609999998
 30
0.0
 11
22.980215
 21
130.715572
 31
0.0
  0
LINE
  5
9965
330
9768
100
AcDbEntity
  8
1
  6
Continuous
100
AcDbLine
 10
22.980215
 20
130.715572
 30
0.0
 11
22.91902299999999
 21
130.768046
 31
0.0
  0
LINE
  5
9966
330
9768
100
AcDbEntity
  8
1
  6
Continuous
100
AcDbLine
 10
22.91902299999999
 20
130.768046
 30
0.0
 11
22.869112
 21
130.829206
 31
0.0
  0
LINE
  5
9967
330
9768
100
AcDbEntity
  8
1
  6
Continuous
100
AcDbLine
 10
22.869112
 20
130.829206
 30
0.0
 11
22.831906
 21
130.897167
 31
0.0
  0
LINE
  5
9968
330
9768
100
AcDbEntity
  8
1
  6
Continuous
100
AcDbLine
 10
22.831906
 20
130.897167
 30
0.0
 11
22.80860699999999
 21
130.9699109999999
 31
0.0
  0
LINE
  5
9969
330
9768
100
AcDbEntity
  8
1
  6
Continuous
100
AcDbLine
 10
22.80860699999999
 20
130.9699109999999
 30
0.0
 11
22.79985499999999
 21
131.045177
 31
0.0
  0
LINE
  5
996A
330
9768
100
AcDbEntity
  8
1
  6
Continuous
100
AcDbLine
 10
23.897952
 20
131.044488
 30
0.0
 11
23.88995299999999
 21
130.972353
 31
0.0
  0
LINE
  5
996B
330
9768
100
AcDbEntity
  8
1
  6
Continuous
100
AcDbLine
 10
23.88995299999999
 20
130.972353
 30
0.0
 11
23.863682
 21
130.902106
 31
0.0
  0
LINE
  5
996C
330
9768
100
AcDbEntity
  8
1
  6
Continuous
100
AcDbLine
 10
23.863682
 20
130.902106
 30
0.0
 11
23.819969
 21
130.835834
 31
0.0
  0
LINE
  5
996D
330
9768
100
AcDbEntity
  8
1
  6
Continuous
100
AcDbLine
 10
23.819969
 20
130.835834
 30
0.0
 11
23.76009299999999
 21
130.7755989999998
 31
0.0
  0
LINE
  5
996E
330
9768
100
AcDbEntity
  8
1
  6
Continuous
100
AcDbLine
 10
23.76009299999999
 20
130.7755989999998
 30
0.0
 11
23.685903
 21
130.72321
 31
0.0
  0
LINE
  5
996F
330
9768
100
AcDbEntity
  8
1
  6
Continuous
100
AcDbLine
 10
23.685903
 20
130.72321
 30
0.0
 11
23.599667
 21
130.6802529999999
 31
0.0
  0
LINE
  5
9970
330
9768
100
AcDbEntity
  8
1
  6
Continuous
100
AcDbLine
 10
23.599667
 20
130.6802529999999
 30
0.0
 11
23.503992
 21
130.6480569999999
 31
0.0
  0
LINE
  5
9971
330
9768
100
AcDbEntity
  8
1
  6
Continuous
100
AcDbLine
 10
23.503992
 20
130.6480569999999
 30
0.0
 11
23.40176
 21
130.6275609999999
 31
0.0
  0
LINE
  5
9972
330
9768
100
AcDbEntity
  8
1
  6
Continuous
100
AcDbLine
 10
23.40176
 20
130.6275609999999
 30
0.0
 11
23.296116
 21
130.6194429999999
 31
0.0
  0
LINE
  5
9973
330
9768
100
AcDbEntity
  8
1
  6
Continuous
100
AcDbLine
 10
24.80762099999999
 20
131.0668539999997
 30
0.0
 11
24.801424
 21
130.9970529999999
 31
0.0
  0
LINE
  5
9974
330
9768
100
AcDbEntity
  8
1
  6
Continuous
100
AcDbLine
 10
24.801424
 20
130.9970529999999
 30
0.0
 11
24.780529
 21
130.9290709999999
 31
0.0
  0
LINE
  5
9975
330
9768
100
AcDbEntity
  8
1
  6
Continuous
100
AcDbLine
 10
24.780529
 20
130.9290709999999
 30
0.0
 11
24.745614
 21
130.865058
 31
0.0
  0
LINE
  5
9976
330
9768
100
AcDbEntity
  8
1
  6
Continuous
100
AcDbLine
 10
24.745614
 20
130.865058
 30
0.0
 11
24.697773
 21
130.8069069999999
 31
0.0
  0
LINE
  5
9977
330
9768
100
AcDbEntity
  8
1
  6
Continuous
100
AcDbLine
 10
24.697773
 20
130.8069069999999
 30
0.0
 11
24.638368
 21
130.7563869999999
 31
0.0
  0
LINE
  5
9978
330
9768
100
AcDbEntity
  8
1
  6
Continuous
100
AcDbLine
 10
24.638368
 20
130.7563869999999
 30
0.0
 11
24.569288
 21
130.715077
 31
0.0
  0
LINE
  5
9979
330
9768
100
AcDbEntity
  8
1
  6
Continuous
100
AcDbLine
 10
24.569288
 20
130.715077
 30
0.0
 11
24.492583
 21
130.6841649999997
 31
0.0
  0
LINE
  5
997A
330
9768
100
AcDbEntity
  8
1
  6
Continuous
100
AcDbLine
 10
24.492583
 20
130.6841649999997
 30
0.0
 11
24.410603
 21
130.664612
 31
0.0
  0
LINE
  5
997B
330
9768
100
AcDbEntity
  8
1
  6
Continuous
100
AcDbLine
 10
24.410603
 20
130.664612
 30
0.0
 11
24.325858
 21
130.6570539999999
 31
0.0
  0
LINE
  5
997C
330
9768
100
AcDbEntity
  8
1
  6
Continuous
100
AcDbLine
 10
24.265676
 20
131.5247
 30
0.0
 11
24.359785
 21
131.519226
 31
0.0
  0
LINE
  5
997D
330
9768
100
AcDbEntity
  8
1
  6
Continuous
100
AcDbLine
 10
24.359785
 20
131.519226
 30
0.0
 11
24.451317
 21
131.4997549999999
 31
0.0
  0
LINE
  5
997E
330
9768
100
AcDbEntity
  8
1
  6
Continuous
100
AcDbLine
 10
24.451317
 20
131.4997549999999
 30
0.0
 11
24.537441
 21
131.466831
 31
0.0
  0
LINE
  5
997F
330
9768
100
AcDbEntity
  8
1
  6
Continuous
100
AcDbLine
 10
24.537441
 20
131.466831
 30
0.0
 11
24.61554599999999
 21
131.421461
 31
0.0
  0
LINE
  5
9980
330
9768
100
AcDbEntity
  8
1
  6
Continuous
100
AcDbLine
 10
24.61554599999999
 20
131.421461
 30
0.0
 11
24.683274
 21
131.3650519999999
 31
0.0
  0
LINE
  5
9981
330
9768
100
AcDbEntity
  8
1
  6
Continuous
100
AcDbLine
 10
24.683274
 20
131.3650519999999
 30
0.0
 11
24.738568
 21
131.299281
 31
0.0
  0
LINE
  5
9982
330
9768
100
AcDbEntity
  8
1
  6
Continuous
100
AcDbLine
 10
24.738568
 20
131.299281
 30
0.0
 11
24.779698
 21
131.2261889999998
 31
0.0
  0
LINE
  5
9983
330
9768
100
AcDbEntity
  8
1
  6
Continuous
100
AcDbLine
 10
24.779698
 20
131.2261889999998
 30
0.0
 11
24.80549899999999
 21
131.147961
 31
0.0
  0
LINE
  5
9984
330
9768
100
AcDbEntity
  8
1
  6
Continuous
100
AcDbLine
 10
24.80549899999999
 20
131.147961
 30
0.0
 11
24.81514
 21
131.0669839999999
 31
0.0
  0
LINE
  5
9985
330
9768
100
AcDbEntity
  8
1
  6
Continuous
100
AcDbLine
 10
24.94043299999999
 20
130.0315789999999
 30
0.0
 11
24.947986
 21
129.94038
 31
0.0
  0
LINE
  5
9986
330
9768
100
AcDbEntity
  8
1
  6
Continuous
100
AcDbLine
 10
24.947986
 20
129.94038
 30
0.0
 11
24.93672099999999
 21
129.8484769999998
 31
0.0
  0
LINE
  5
9987
330
9768
100
AcDbEntity
  8
1
  6
Continuous
100
AcDbLine
 10
24.93672099999999
 20
129.8484769999998
 30
0.0
 11
24.90702000000001
 21
129.758608
 31
0.0
  0
LINE
  5
9988
330
9768
100
AcDbEntity
  8
1
  6
Continuous
100
AcDbLine
 10
24.90702000000001
 20
129.758608
 30
0.0
 11
24.85973299999999
 21
129.673532
 31
0.0
  0
LINE
  5
9989
330
9768
100
AcDbEntity
  8
1
  6
Continuous
100
AcDbLine
 10
24.85973299999999
 20
129.673532
 30
0.0
 11
24.796317
 21
129.5958829999999
 31
0.0
  0
LINE
  5
998A
330
9768
100
AcDbEntity
  8
1
  6
Continuous
100
AcDbLine
 10
24.796317
 20
129.5958829999999
 30
0.0
 11
24.718726
 21
129.5279419999999
 31
0.0
  0
LINE
  5
998B
330
9768
100
AcDbEntity
  8
1
  6
Continuous
100
AcDbLine
 10
24.718726
 20
129.5279419999999
 30
0.0
 11
24.629297
 21
129.471826
 31
0.0
  0
LINE
  5
998C
330
9768
100
AcDbEntity
  8
1
  6
Continuous
100
AcDbLine
 10
24.629297
 20
129.471826
 30
0.0
 11
24.530725
 21
129.429203
 31
0.0
  0
LINE
  5
998D
330
9768
100
AcDbEntity
  8
1
  6
Continuous
100
AcDbLine
 10
24.530725
 20
129.429203
 30
0.0
 11
24.426043
 21
129.401396
 31
0.0
  0
LINE
  5
998E
330
9768
100
AcDbEntity
  8
1
  6
Continuous
100
AcDbLine
 10
24.232043
 20
130.3905819999999
 30
0.0
 11
24.34088
 21
130.403579
 31
0.0
  0
LINE
  5
998F
330
9768
100
AcDbEntity
  8
1
  6
Continuous
100
AcDbLine
 10
24.34088
 20
130.403579
 30
0.0
 11
24.449107
 21
130.4017599999999
 31
0.0
  0
LINE
  5
9990
330
9768
100
AcDbEntity
  8
1
  6
Continuous
100
AcDbLine
 10
24.449107
 20
130.4017599999999
 30
0.0
 11
24.553478
 21
130.38513
 31
0.0
  0
LINE
  5
9991
330
9768
100
AcDbEntity
  8
1
  6
Continuous
100
AcDbLine
 10
24.553478
 20
130.38513
 30
0.0
 11
24.650809
 21
130.3542159999998
 31
0.0
  0
LINE
  5
9992
330
9768
100
AcDbEntity
  8
1
  6
Continuous
100
AcDbLine
 10
24.650809
 20
130.3542159999998
 30
0.0
 11
24.738108
 21
130.3099599999999
 31
0.0
  0
LINE
  5
9993
330
9768
100
AcDbEntity
  8
1
  6
Continuous
100
AcDbLine
 10
24.738108
 20
130.3099599999999
 30
0.0
 11
24.812775
 21
130.253719
 31
0.0
  0
LINE
  5
9994
330
9768
100
AcDbEntity
  8
1
  6
Continuous
100
AcDbLine
 10
24.812775
 20
130.253719
 30
0.0
 11
24.872501
 21
130.1871789999999
 31
0.0
  0
LINE
  5
9995
330
9768
100
AcDbEntity
  8
1
  6
Continuous
100
AcDbLine
 10
24.872501
 20
130.1871789999999
 30
0.0
 11
24.915492
 21
130.1123939999999
 31
0.0
  0
LINE
  5
9996
330
9768
100
AcDbEntity
  8
1
  6
Continuous
100
AcDbLine
 10
24.915492
 20
130.1123939999999
 30
0.0
 11
24.94043299999999
 21
130.0315789999999
 31
0.0
  0
LINE
  5
9997
330
9768
100
AcDbEntity
  8
1
  6
Continuous
100
AcDbLine
 10
24.43359
 20
129.402817
 30
0.0
 11
23.67129599999999
 21
129.2593379999999
 31
0.0
  0
LINE
  5
9998
330
9768
100
AcDbEntity
  8
1
  6
Continuous
100
AcDbLine
 10
23.515033
 20
130.255626
 30
0.0
 11
23.408919
 21
130.2281649999999
 31
0.0
  0
LINE
  5
9999
330
9768
100
AcDbEntity
  8
1
  6
Continuous
100
AcDbLine
 10
23.408919
 20
130.2281649999999
 30
0.0
 11
23.308759
 21
130.187124
 31
0.0
  0
LINE
  5
999A
330
9768
100
AcDbEntity
  8
1
  6
Continuous
100
AcDbLine
 10
23.308759
 20
130.187124
 30
0.0
 11
23.217576
 21
130.133686
 31
0.0
  0
LINE
  5
999B
330
9768
100
AcDbEntity
  8
1
  6
Continuous
100
AcDbLine
 10
23.217576
 20
130.133686
 30
0.0
 11
23.138145
 21
130.069501
 31
0.0
  0
LINE
  5
999C
330
9768
100
AcDbEntity
  8
1
  6
Continuous
100
AcDbLine
 10
23.138145
 20
130.069501
 30
0.0
 11
23.07290899999999
 21
129.9965359999999
 31
0.0
  0
LINE
  5
999D
330
9768
100
AcDbEntity
  8
1
  6
Continuous
100
AcDbLine
 10
23.07290899999999
 20
129.9965359999999
 30
0.0
 11
23.023798
 21
129.916997
 31
0.0
  0
LINE
  5
999E
330
9768
100
AcDbEntity
  8
1
  6
Continuous
100
AcDbLine
 10
23.023798
 20
129.916997
 30
0.0
 11
22.992351
 21
129.8332959999999
 31
0.0
  0
LINE
  5
999F
330
9768
100
AcDbEntity
  8
1
  6
Continuous
100
AcDbLine
 10
22.992351
 20
129.8332959999999
 30
0.0
 11
22.97949
 21
129.747999
 31
0.0
  0
LINE
  5
99A0
330
9768
100
AcDbEntity
  8
1
  6
Continuous
100
AcDbLine
 10
22.97949
 20
129.747999
 30
0.0
 11
22.985638
 21
129.6636469999999
 31
0.0
  0
LINE
  5
99A1
330
9768
100
AcDbEntity
  8
1
  6
Continuous
100
AcDbLine
 10
24.232043
 20
130.3905819999999
 30
0.0
 11
23.48484399999999
 21
130.249943
 31
0.0
  0
LINE
  5
99A2
330
9768
100
AcDbEntity
  8
1
  6
Continuous
100
AcDbLine
 10
22.985638
 20
129.6636469999999
 30
0.0
 11
23.011758
 21
129.5759419999999
 31
0.0
  0
LINE
  5
99A3
330
9768
100
AcDbEntity
  8
1
  6
Continuous
100
AcDbLine
 10
23.011758
 20
129.5759419999999
 30
0.0
 11
23.055665
 21
129.494424
 31
0.0
  0
LINE
  5
99A4
330
9768
100
AcDbEntity
  8
1
  6
Continuous
100
AcDbLine
 10
23.055665
 20
129.494424
 30
0.0
 11
23.11600499999999
 21
129.4215029999998
 31
0.0
  0
LINE
  5
99A5
330
9768
100
AcDbEntity
  8
1
  6
Continuous
100
AcDbLine
 10
23.11600499999999
 20
129.4215029999998
 30
0.0
 11
23.190987
 21
129.3594399999998
 31
0.0
  0
LINE
  5
99A6
330
9768
100
AcDbEntity
  8
1
  6
Continuous
100
AcDbLine
 10
23.190987
 20
129.3594399999998
 30
0.0
 11
23.278294
 21
129.3101599999999
 31
0.0
  0
LINE
  5
99A7
330
9768
100
AcDbEntity
  8
1
  6
Continuous
100
AcDbLine
 10
23.278294
 20
129.3101599999999
 30
0.0
 11
23.375276
 21
129.275078
 31
0.0
  0
LINE
  5
99A8
330
9768
100
AcDbEntity
  8
1
  6
Continuous
100
AcDbLine
 10
23.375276
 20
129.275078
 30
0.0
 11
23.478987
 21
129.255314
 31
0.0
  0
LINE
  5
99A9
330
9768
100
AcDbEntity
  8
1
  6
Continuous
100
AcDbLine
 10
23.478987
 20
129.255314
 30
0.0
 11
23.58631
 21
129.2514449999998
 31
0.0
  0
LINE
  5
99AA
330
9768
100
AcDbEntity
  8
1
  6
Continuous
100
AcDbLine
 10
23.58631
 20
129.2514449999998
 30
0.0
 11
23.693938
 21
129.2635989999999
 31
0.0
  0
LINE
  5
99AB
330
9768
100
AcDbEntity
  8
1
  6
Continuous
100
AcDbLine
 10
23.921585
 20
132.351706
 30
0.0
 11
23.863248
 21
131.7284139999999
 31
0.0
  0
LINE
  5
99AC
330
9768
100
AcDbEntity
  8
1
  6
Continuous
100
AcDbLine
 10
25.691432
 20
125.966978
 30
0.0
 11
25.618174
 21
125.890429
 31
0.0
  0
LINE
  5
99AD
330
9768
100
AcDbEntity
  8
1
  6
Continuous
100
AcDbLine
 10
25.753889
 20
126.0504689999998
 30
0.0
 11
25.691432
 21
125.966978
 31
0.0
  0
LINE
  5
99AE
330
9768
100
AcDbEntity
  8
1
  6
Continuous
100
AcDbLine
 10
25.803654
 20
126.1382959999999
 30
0.0
 11
25.753889
 21
126.0504689999998
 31
0.0
  0
LINE
  5
99AF
330
9768
100
AcDbEntity
  8
1
  6
Continuous
100
AcDbLine
 10
25.839209
 20
126.2278379999999
 30
0.0
 11
25.803654
 21
126.1382959999999
 31
0.0
  0
LINE
  5
99B0
330
9768
100
AcDbEntity
  8
1
  6
Continuous
100
AcDbLine
 10
25.85949799999999
 20
126.3163649999999
 30
0.0
 11
25.839209
 21
126.2278379999999
 31
0.0
  0
LINE
  5
99B1
330
9768
100
AcDbEntity
  8
1
  6
Continuous
100
AcDbLine
 10
25.86389
 20
126.401183
 30
0.0
 11
25.85949799999999
 21
126.3163649999999
 31
0.0
  0
LINE
  5
99B2
330
9768
100
AcDbEntity
  8
1
  6
Continuous
100
AcDbLine
 10
25.85221699999999
 20
126.4797109999999
 30
0.0
 11
25.86389
 21
126.401183
 31
0.0
  0
LINE
  5
99B3
330
9768
100
AcDbEntity
  8
1
  6
Continuous
100
AcDbLine
 10
25.824901
 20
126.549559
 30
0.0
 11
25.85221699999999
 21
126.4797109999999
 31
0.0
  0
LINE
  5
99B4
330
9768
100
AcDbEntity
  8
1
  6
Continuous
100
AcDbLine
 10
25.785453
 20
126.6055659999999
 30
0.0
 11
25.824901
 21
126.549559
 31
0.0
  0
LINE
  5
99B5
330
9768
100
AcDbEntity
  8
1
  6
Continuous
100
AcDbLine
 10
25.021221
 20
125.826085
 30
0.0
 11
24.964473
 21
125.8762979999999
 31
0.0
  0
LINE
  5
99B6
330
9768
100
AcDbEntity
  8
1
  6
Continuous
100
AcDbLine
 10
25.087119
 20
125.78746
 30
0.0
 11
25.021221
 21
125.826085
 31
0.0
  0
LINE
  5
99B7
330
9768
100
AcDbEntity
  8
1
  6
Continuous
100
AcDbLine
 10
25.16018199999999
 20
125.761677
 30
0.0
 11
25.087119
 21
125.78746
 31
0.0
  0
LINE
  5
99B8
330
9768
100
AcDbEntity
  8
1
  6
Continuous
100
AcDbLine
 10
25.238168
 20
125.7494389999999
 30
0.0
 11
25.16018199999999
 21
125.761677
 31
0.0
  0
LINE
  5
99B9
330
9768
100
AcDbEntity
  8
1
  6
Continuous
100
AcDbLine
 10
25.31876
 20
125.7511969999999
 30
0.0
 11
25.238168
 21
125.7494389999999
 31
0.0
  0
LINE
  5
99BA
330
9768
100
AcDbEntity
  8
1
  6
Continuous
100
AcDbLine
 10
25.39945499999999
 20
125.7668299999999
 30
0.0
 11
25.31876
 21
125.7511969999999
 31
0.0
  0
LINE
  5
99BB
330
9768
100
AcDbEntity
  8
1
  6
Continuous
100
AcDbLine
 10
25.477819
 20
125.795919
 30
0.0
 11
25.39945499999999
 21
125.7668299999999
 31
0.0
  0
LINE
  5
99BC
330
9768
100
AcDbEntity
  8
1
  6
Continuous
100
AcDbLine
 10
25.551468
 20
125.837553
 30
0.0
 11
25.477819
 21
125.795919
 31
0.0
  0
LINE
  5
99BD
330
9768
100
AcDbEntity
  8
1
  6
Continuous
100
AcDbLine
 10
25.618174
 20
125.890429
 30
0.0
 11
25.551468
 21
125.837553
 31
0.0
  0
LINE
  5
99BE
330
9768
100
AcDbEntity
  8
1
  6
Continuous
100
AcDbLine
 10
24.961003
 20
126.48302
 30
0.0
 11
25.019477
 21
126.5467019999999
 31
0.0
  0
LINE
  5
99BF
330
9768
100
AcDbEntity
  8
1
  6
Continuous
100
AcDbLine
 10
24.913652
 20
126.4111659999998
 30
0.0
 11
24.961003
 21
126.48302
 31
0.0
  0
LINE
  5
99C0
330
9768
100
AcDbEntity
  8
1
  6
Continuous
100
AcDbLine
 10
24.878943
 20
126.3333149999999
 30
0.0
 11
24.913652
 21
126.4111659999998
 31
0.0
  0
LINE
  5
99C1
330
9768
100
AcDbEntity
  8
1
  6
Continuous
100
AcDbLine
 10
24.85787
 20
126.251825
 30
0.0
 11
24.878943
 21
126.3333149999999
 31
0.0
  0
LINE
  5
99C2
330
9768
100
AcDbEntity
  8
1
  6
Continuous
100
AcDbLine
 10
24.851091
 20
126.1691909999999
 30
0.0
 11
24.85787
 21
126.251825
 31
0.0
  0
LINE
  5
99C3
330
9768
100
AcDbEntity
  8
1
  6
Continuous
100
AcDbLine
 10
24.85879399999999
 20
126.0879219999999
 30
0.0
 11
24.851091
 21
126.1691909999999
 31
0.0
  0
LINE
  5
99C4
330
9768
100
AcDbEntity
  8
1
  6
Continuous
100
AcDbLine
 10
24.880788
 20
126.0104879999999
 30
0.0
 11
24.85879399999999
 21
126.0879219999999
 31
0.0
  0
LINE
  5
99C5
330
9768
100
AcDbEntity
  8
1
  6
Continuous
100
AcDbLine
 10
24.916395
 20
125.939223
 30
0.0
 11
24.880788
 21
126.0104879999999
 31
0.0
  0
LINE
  5
99C6
330
9768
100
AcDbEntity
  8
1
  6
Continuous
100
AcDbLine
 10
24.964473
 20
125.8762979999999
 30
0.0
 11
24.916395
 21
125.939223
 31
0.0
  0
LINE
  5
99C7
330
9768
100
AcDbEntity
  8
1
  6
Continuous
100
AcDbLine
 10
26.22865
 20
127.3811519999999
 30
0.0
 11
26.15421299999999
 21
127.392531
 31
0.0
  0
LINE
  5
99C8
330
9768
100
AcDbEntity
  8
1
  6
Continuous
100
AcDbLine
 10
26.462048
 20
127.210431
 30
0.0
 11
26.415187
 21
127.27717
 31
0.0
  0
LINE
  5
99C9
330
9768
100
AcDbEntity
  8
1
  6
Continuous
100
AcDbLine
 10
26.49504
 20
127.1349539999999
 30
0.0
 11
26.462048
 21
127.210431
 31
0.0
  0
LINE
  5
99CA
330
9768
100
AcDbEntity
  8
1
  6
Continuous
100
AcDbLine
 10
26.513188
 20
127.053071
 30
0.0
 11
26.49504
 21
127.1349539999999
 31
0.0
  0
LINE
  5
99CB
330
9768
100
AcDbEntity
  8
1
  6
Continuous
100
AcDbLine
 10
26.51590399999999
 20
126.9671879999998
 30
0.0
 11
26.513188
 21
127.053071
 31
0.0
  0
LINE
  5
99CC
330
9768
100
AcDbEntity
  8
1
  6
Continuous
100
AcDbLine
 10
26.503109
 20
126.879979
 30
0.0
 11
26.51590399999999
 21
126.9671879999998
 31
0.0
  0
LINE
  5
99CD
330
9768
100
AcDbEntity
  8
1
  6
Continuous
100
AcDbLine
 10
26.47522
 20
126.7940659999998
 30
0.0
 11
26.503109
 21
126.879979
 31
0.0
  0
LINE
  5
99CE
330
9768
100
AcDbEntity
  8
1
  6
Continuous
100
AcDbLine
 10
26.433054
 20
126.7120699999999
 30
0.0
 11
26.47522
 21
126.7940659999998
 31
0.0
  0
LINE
  5
99CF
330
9768
100
AcDbEntity
  8
1
  6
Continuous
100
AcDbLine
 10
26.377882
 20
126.636484
 30
0.0
 11
26.433054
 21
126.7120699999999
 31
0.0
  0
LINE
  5
99D0
330
9768
100
AcDbEntity
  8
1
  6
Continuous
100
AcDbLine
 10
26.311449
 20
126.569602
 30
0.0
 11
26.377882
 21
126.636484
 31
0.0
  0
LINE
  5
99D1
330
9768
100
AcDbEntity
  8
1
  6
Continuous
100
AcDbLine
 10
25.84538699999999
 20
127.306855
 30
0.0
 11
25.777231
 21
127.255928
 31
0.0
  0
LINE
  5
99D2
330
9768
100
AcDbEntity
  8
1
  6
Continuous
100
AcDbLine
 10
25.919488
 20
127.347004
 30
0.0
 11
25.84538699999999
 21
127.306855
 31
0.0
  0
LINE
  5
99D3
330
9768
100
AcDbEntity
  8
1
  6
Continuous
100
AcDbLine
 10
25.997243
 20
127.375173
 30
0.0
 11
25.919488
 21
127.347004
 31
0.0
  0
LINE
  5
99D4
330
9768
100
AcDbEntity
  8
1
  6
Continuous
100
AcDbLine
 10
26.07625699999999
 20
127.3905089999999
 30
0.0
 11
25.997243
 21
127.375173
 31
0.0
  0
LINE
  5
99D5
330
9768
100
AcDbEntity
  8
1
  6
Continuous
100
AcDbLine
 10
26.15421299999999
 20
127.392531
 30
0.0
 11
26.07625699999999
 21
127.3905089999999
 31
0.0
  0
LINE
  5
99D6
330
9768
100
AcDbEntity
  8
1
  6
Continuous
100
AcDbLine
 10
26.29737299999999
 20
127.35678
 30
0.0
 11
26.22865
 21
127.3811519999999
 31
0.0
  0
LINE
  5
99D7
330
9768
100
AcDbEntity
  8
1
  6
Continuous
100
AcDbLine
 10
26.358303
 20
127.320096
 30
0.0
 11
26.29737299999999
 21
127.35678
 31
0.0
  0
LINE
  5
99D8
330
9768
100
AcDbEntity
  8
1
  6
Continuous
100
AcDbLine
 10
26.4095
 20
127.2722499999999
 30
0.0
 11
26.358303
 21
127.320096
 31
0.0
  0
LINE
  5
99D9
330
9768
100
AcDbEntity
  8
1
  6
Continuous
100
AcDbLine
 10
25.677086
 20
126.7378539999999
 30
0.0
 11
25.785453
 21
126.6055659999999
 31
0.0
  0
LINE
  5
99DA
330
9768
100
AcDbEntity
  8
1
  6
Continuous
100
AcDbLine
 10
25.647959
 20
126.800534
 30
0.0
 11
25.677086
 21
126.7378539999999
 31
0.0
  0
LINE
  5
99DB
330
9768
100
AcDbEntity
  8
1
  6
Continuous
100
AcDbLine
 10
25.630627
 20
126.868026
 30
0.0
 11
25.647959
 21
126.800534
 31
0.0
  0
LINE
  5
99DC
330
9768
100
AcDbEntity
  8
1
  6
Continuous
100
AcDbLine
 10
25.625566
 20
126.9381749999999
 30
0.0
 11
25.630627
 21
126.868026
 31
0.0
  0
LINE
  5
99DD
330
9768
100
AcDbEntity
  8
1
  6
Continuous
100
AcDbLine
 10
25.63297099999999
 20
127.008973
 30
0.0
 11
25.625566
 21
126.9381749999999
 31
0.0
  0
LINE
  5
99DE
330
9768
100
AcDbEntity
  8
1
  6
Continuous
100
AcDbLine
 10
25.652623
 20
127.0781439999999
 30
0.0
 11
25.63297099999999
 21
127.008973
 31
0.0
  0
LINE
  5
99DF
330
9768
100
AcDbEntity
  8
1
  6
Continuous
100
AcDbLine
 10
25.68388999999999
 20
127.14366
 30
0.0
 11
25.652623
 21
127.0781439999999
 31
0.0
  0
LINE
  5
99E0
330
9768
100
AcDbEntity
  8
1
  6
Continuous
100
AcDbLine
 10
25.725847
 20
127.203546
 30
0.0
 11
25.68388999999999
 21
127.14366
 31
0.0
  0
LINE
  5
99E1
330
9768
100
AcDbEntity
  8
1
  6
Continuous
100
AcDbLine
 10
25.777231
 20
127.255928
 30
0.0
 11
25.725847
 21
127.203546
 31
0.0
  0
LINE
  5
99E2
330
9768
100
AcDbEntity
  8
1
  6
Continuous
100
AcDbLine
 10
24.558147
 20
129.24786
 30
0.0
 11
23.70623299999999
 21
128.901586
 31
0.0
  0
ARC
  5
99E3
330
9768
100
AcDbEntity
  8
1
  6
Continuous
100
AcDbCircle
 10
24.755609
 20
128.762057
 30
0.0
 40
0.5244
100
AcDbArc
 50
22.120036
 51
112.120036
  0
LINE
  5
99E4
330
9768
100
AcDbEntity
  8
1
  6
Continuous
100
AcDbLine
 10
25.241412
 20
128.959519
 30
0.0
 11
25.268196
 21
128.8749539999998
 31
0.0
  0
LINE
  5
99E5
330
9768
100
AcDbEntity
  8
1
  6
Continuous
100
AcDbLine
 10
25.268196
 20
128.8749539999998
 30
0.0
 11
25.28108
 21
128.787652
 31
0.0
  0
LINE
  5
99E6
330
9768
100
AcDbEntity
  8
1
  6
Continuous
100
AcDbLine
 10
25.28108
 20
128.787652
 30
0.0
 11
25.27972399999999
 21
128.7002629999998
 31
0.0
  0
LINE
  5
99E7
330
9768
100
AcDbEntity
  8
1
  6
Continuous
100
AcDbLine
 10
25.27972399999999
 20
128.7002629999998
 30
0.0
 11
25.264184
 21
128.615477
 31
0.0
  0
LINE
  5
99E8
330
9768
100
AcDbEntity
  8
1
  6
Continuous
100
AcDbLine
 10
25.264184
 20
128.615477
 30
0.0
 11
25.234877
 21
128.5358009999999
 31
0.0
  0
LINE
  5
99E9
330
9768
100
AcDbEntity
  8
1
  6
Continuous
100
AcDbLine
 10
25.234877
 20
128.5358009999999
 30
0.0
 11
25.192727
 21
128.463703
 31
0.0
  0
LINE
  5
99EA
330
9768
100
AcDbEntity
  8
1
  6
Continuous
100
AcDbLine
 10
25.192727
 20
128.463703
 30
0.0
 11
25.13901300000001
 21
128.401385
 31
0.0
  0
LINE
  5
99EB
330
9768
100
AcDbEntity
  8
1
  6
Continuous
100
AcDbLine
 10
25.13901300000001
 20
128.401385
 30
0.0
 11
25.07531399999999
 21
128.350717
 31
0.0
  0
LINE
  5
99EC
330
9768
100
AcDbEntity
  8
1
  6
Continuous
100
AcDbLine
 10
25.07531399999999
 20
128.350717
 30
0.0
 11
25.00367300000001
 21
128.31323
 31
0.0
  0
LINE
  5
99ED
330
9768
100
AcDbEntity
  8
1
  6
Continuous
100
AcDbLine
 10
23.39390799999998
 20
128.216777
 30
0.0
 11
23.36853899999999
 21
128.300686
 31
0.0
  0
LINE
  5
99EE
330
9768
100
AcDbEntity
  8
1
  6
Continuous
100
AcDbLine
 10
23.36853899999999
 20
128.300686
 30
0.0
 11
23.358829
 21
128.3882529999999
 31
0.0
  0
LINE
  5
99EF
330
9768
100
AcDbEntity
  8
1
  6
Continuous
100
AcDbLine
 10
23.358829
 20
128.3882529999999
 30
0.0
 11
23.365146
 21
128.4769599999999
 31
0.0
  0
LINE
  5
99F0
330
9768
100
AcDbEntity
  8
1
  6
Continuous
100
AcDbLine
 10
23.365146
 20
128.4769599999999
 30
0.0
 11
23.38720599999999
 21
128.564274
 31
0.0
  0
LINE
  5
99F1
330
9768
100
AcDbEntity
  8
1
  6
Continuous
100
AcDbLine
 10
23.38720599999999
 20
128.564274
 30
0.0
 11
23.42445899999999
 21
128.6477129999999
 31
0.0
  0
LINE
  5
99F2
330
9768
100
AcDbEntity
  8
1
  6
Continuous
100
AcDbLine
 10
23.42445899999999
 20
128.6477129999999
 30
0.0
 11
23.47576099999999
 21
128.7248429999999
 31
0.0
  0
LINE
  5
99F3
330
9768
100
AcDbEntity
  8
1
  6
Continuous
100
AcDbLine
 10
23.47576099999999
 20
128.7248429999999
 30
0.0
 11
23.53969999999999
 21
128.7934919999998
 31
0.0
  0
LINE
  5
99F4
330
9768
100
AcDbEntity
  8
1
  6
Continuous
100
AcDbLine
 10
23.53969999999999
 20
128.7934919999998
 30
0.0
 11
23.61442999999999
 21
128.851637
 31
0.0
  0
LINE
  5
99F5
330
9768
100
AcDbEntity
  8
1
  6
Continuous
100
AcDbLine
 10
23.61442999999999
 20
128.851637
 30
0.0
 11
23.697794
 21
128.8976219999999
 31
0.0
  0
LINE
  5
99F6
330
9768
100
AcDbEntity
  8
1
  6
Continuous
100
AcDbLine
 10
23.697794
 20
128.8976219999999
 30
0.0
 11
23.787372
 21
128.930136
 31
0.0
  0
LINE
  5
99F7
330
9768
100
AcDbEntity
  8
1
  6
Continuous
100
AcDbLine
 10
23.787372
 20
128.930136
 30
0.0
 11
23.88062199999999
 21
128.9482679999998
 31
0.0
  0
LINE
  5
99F8
330
9768
100
AcDbEntity
  8
1
  6
Continuous
100
AcDbLine
 10
23.88062199999999
 20
128.9482679999998
 30
0.0
 11
23.97483799999999
 21
128.95141
 31
0.0
  0
LINE
  5
99F9
330
9768
100
AcDbEntity
  8
1
  6
Continuous
100
AcDbLine
 10
23.97483799999999
 20
128.95141
 30
0.0
 11
24.06734399999999
 21
128.9395819999998
 31
0.0
  0
LINE
  5
99FA
330
9768
100
AcDbEntity
  8
1
  6
Continuous
100
AcDbLine
 10
24.06734399999999
 20
128.9395819999998
 30
0.0
 11
24.155486
 21
128.91306
 31
0.0
  0
LINE
  5
99FB
330
9768
100
AcDbEntity
  8
1
  6
Continuous
100
AcDbLine
 10
24.155486
 20
128.91306
 30
0.0
 11
24.23671999999999
 21
128.872655
 31
0.0
  0
LINE
  5
99FC
330
9768
100
AcDbEntity
  8
1
  6
Continuous
100
AcDbLine
 10
24.23671999999999
 20
128.872655
 30
0.0
 11
24.308675
 21
128.819453
 31
0.0
  0
LINE
  5
99FD
330
9768
100
AcDbEntity
  8
1
  6
Continuous
100
AcDbLine
 10
24.308675
 20
128.819453
 30
0.0
 11
24.36936
 21
128.7550259999999
 31
0.0
  0
LINE
  5
99FE
330
9768
100
AcDbEntity
  8
1
  6
Continuous
100
AcDbLine
 10
24.36936
 20
128.7550259999999
 30
0.0
 11
24.416992
 21
128.6812319999999
 31
0.0
  0
LINE
  5
99FF
330
9768
100
AcDbEntity
  8
1
  6
Continuous
100
AcDbLine
 10
24.416992
 20
128.6812319999999
 30
0.0
 11
24.450185
 21
128.600175
 31
0.0
  0
LINE
  5
9A00
330
9768
100
AcDbEntity
  8
1
  6
Continuous
100
AcDbLine
 10
24.450185
 20
128.600175
 30
0.0
 11
24.46797999999999
 21
128.5142129999998
 31
0.0
  0
LINE
  5
9A01
330
9768
100
AcDbEntity
  8
1
  6
Continuous
100
AcDbLine
 10
24.46797999999999
 20
128.5142129999998
 30
0.0
 11
24.46993299999999
 21
128.4257489999999
 31
0.0
  0
LINE
  5
9A02
330
9768
100
AcDbEntity
  8
1
  6
Continuous
100
AcDbLine
 10
24.46993299999999
 20
128.4257489999999
 30
0.0
 11
24.45592299999999
 21
128.3374009999998
 31
0.0
  0
LINE
  5
9A03
330
9768
100
AcDbEntity
  8
1
  6
Continuous
100
AcDbLine
 10
24.45592299999999
 20
128.3374009999998
 30
0.0
 11
24.42638099999999
 21
128.2516409999997
 31
0.0
  0
LINE
  5
9A04
330
9768
100
AcDbEntity
  8
1
  6
Continuous
100
AcDbLine
 10
24.42638099999999
 20
128.2516409999997
 30
0.0
 11
24.382134
 21
128.1709779999999
 31
0.0
  0
LINE
  5
9A05
330
9768
100
AcDbEntity
  8
1
  6
Continuous
100
AcDbLine
 10
24.382134
 20
128.1709779999999
 30
0.0
 11
24.324466
 21
128.0977
 31
0.0
  0
LINE
  5
9A06
330
9768
100
AcDbEntity
  8
1
  6
Continuous
100
AcDbLine
 10
24.324466
 20
128.0977
 30
0.0
 11
24.255046
 21
128.033961
 31
0.0
  0
LINE
  5
9A07
330
9768
100
AcDbEntity
  8
1
  6
Continuous
100
AcDbLine
 10
24.255046
 20
128.033961
 30
0.0
 11
24.175867
 21
127.9815139999999
 31
0.0
  0
LINE
  5
9A08
330
9768
100
AcDbEntity
  8
1
  6
Continuous
100
AcDbLine
 10
24.175867
 20
127.9815139999999
 30
0.0
 11
24.089164
 21
127.9419239999999
 31
0.0
  0
LINE
  5
9A09
330
9768
100
AcDbEntity
  8
1
  6
Continuous
100
AcDbLine
 10
24.089164
 20
127.9419239999999
 30
0.0
 11
23.99748
 21
127.916307
 31
0.0
  0
LINE
  5
9A0A
330
9768
100
AcDbEntity
  8
1
  6
Continuous
100
AcDbLine
 10
23.99748
 20
127.916307
 30
0.0
 11
23.903414
 21
127.9054319999999
 31
0.0
  0
LINE
  5
9A0B
330
9768
100
AcDbEntity
  8
1
  6
Continuous
100
AcDbLine
 10
23.903414
 20
127.9054319999999
 30
0.0
 11
23.809694
 21
127.909547
 31
0.0
  0
LINE
  5
9A0C
330
9768
100
AcDbEntity
  8
1
  6
Continuous
100
AcDbLine
 10
23.809694
 20
127.909547
 30
0.0
 11
23.718975
 21
127.928582
 31
0.0
  0
LINE
  5
9A0D
330
9768
100
AcDbEntity
  8
1
  6
Continuous
100
AcDbLine
 10
23.718975
 20
127.928582
 30
0.0
 11
23.633871
 21
127.961959
 31
0.0
  0
LINE
  5
9A0E
330
9768
100
AcDbEntity
  8
1
  6
Continuous
100
AcDbLine
 10
23.633871
 20
127.961959
 30
0.0
 11
23.55687099999999
 21
128.0088019999998
 31
0.0
  0
LINE
  5
9A0F
330
9768
100
AcDbEntity
  8
1
  6
Continuous
100
AcDbLine
 10
23.55687099999999
 20
128.0088019999998
 30
0.0
 11
23.490142
 21
128.0676149999999
 31
0.0
  0
LINE
  5
9A10
330
9768
100
AcDbEntity
  8
1
  6
Continuous
100
AcDbLine
 10
23.490142
 20
128.0676149999999
 30
0.0
 11
23.43562599999999
 21
128.1368459999999
 31
0.0
  0
LINE
  5
9A11
330
9768
100
AcDbEntity
  8
1
  6
Continuous
100
AcDbLine
 10
23.43562599999999
 20
128.1368459999999
 30
0.0
 11
23.39390799999998
 21
128.216777
 31
0.0
  0
LINE
  5
9A12
330
9768
100
AcDbEntity
  8
1
  6
Continuous
100
AcDbLine
 10
209.864363
 20
205.66754
 30
0.0
 11
211.864363
 21
207.66754
 31
0.0
  0
LINE
  5
9A13
330
9768
100
AcDbEntity
  8
1
  6
Continuous
100
AcDbLine
 10
209.864363
 20
203.66754
 30
0.0
 11
211.864363
 21
205.66754
 31
0.0
  0
LINE
  5
9A14
330
9768
100
AcDbEntity
  8
1
  6
Continuous
100
AcDbLine
 10
209.864363
 20
131.1915399999997
 30
0.0
 11
211.864363
 21
133.1915399999997
 31
0.0
  0
LINE
  5
9A15
330
9768
100
AcDbEntity
  8
1
  6
Continuous
100
AcDbLine
 10
209.864363
 20
129.19154
 30
0.0
 11
211.864363
 21
131.1915399999997
 31
0.0
  0
ENDSEC
  0
SECTION
  2
OBJECTS
  0
DICTIONARY
  5
9756
330
0
100
AcDbDictionary
281
     1
  3
ACAD_CIP_PREVIOUS_PRODUCT_INFO
350
9A7B
  3
ACAD_COLOR
350
9A5D
  3
ACAD_DETAILVIEWSTYLE
350
9A76
  3
ACAD_GROUP
350
9757
  3
ACAD_LAYOUT
350
9763
  3
ACAD_MATERIAL
350
9A2B
  3
ACAD_MLEADERSTYLE
350
9A72
  3
ACAD_MLINESTYLE
350
9760
  3
ACAD_PLOTSETTINGS
350
9762
  3
ACAD_PLOTSTYLENAME
350
9A29
  3
ACAD_SCALELIST
350
9A60
  3
ACAD_SECTIONVIEWSTYLE
350
9A74
  3
ACAD_TABLESTYLE
350
9A5E
  3
ACAD_VISUALSTYLE
350
9A44
  3
ACDB_RECOMPOSE_DATA
350
9A99
  3
AcDbVariableDictionary
350
9A8C
  3
DWGPROPS
350
9A9A
  0
DICTIONARY
  5
9A7C
330
975A
100
AcDbDictionary
280
     1
281
     1
  3
ADSK_XREC_LAYER_RECONCILED
360
9A7D
  0
DICTIONARY
  5
9A7E
330
9770
100
AcDbDictionary
280
     1
281
     1
  3
ADSK_XREC_LAYER_RECONCILED
360
9A7F
  0
DICTIONARY
  5
9A80
330
9771
100
AcDbDictionary
280
     1
281
     1
  3
ADSK_XREC_LAYER_RECONCILED
360
9A81
  0
DICTIONARY
  5
9A82
330
9772
100
AcDbDictionary
280
     1
281
     1
  3
ADSK_XREC_LAYER_RECONCILED
360
9A83
  0
DICTIONARY
  5
9A84
330
9773
100
AcDbDictionary
280
     1
281
     1
  3
ADSK_XREC_LAYER_RECONCILED
360
9A85
  0
DICTIONARY
  5
9A86
330
9774
100
AcDbDictionary
280
     1
281
     1
  3
ADSK_XREC_LAYER_RECONCILED
360
9A87
  0
DICTIONARY
  5
9A88
330
9775
100
AcDbDictionary
280
     1
281
     1
  3
ADSK_XREC_LAYER_RECONCILED
360
9A89
  0
DICTIONARY
  5
9A8A
330
9776
100
AcDbDictionary
280
     1
281
     1
  3
ADSK_XREC_LAYER_RECONCILED
360
9A8B
  0
DICTIONARY
  5
9A24
330
9768
100
AcDbDictionary
281
     1
  3
ACAD_LAYOUTSELFREF
350
9A25
  0
DICTIONARY
  5
9A22
330
9764
100
AcDbDictionary
281
     1
  3
ACAD_LAYOUTSELFREF
350
9A23
  0
XRECORD
  5
9A7B
102
{ACAD_REACTORS
330
9756
102
}
330
9756
100
AcDbXrecord
280
     1
300
ACDLT
300
2014
300
ACDLT_F_S
  0
DICTIONARY
  5
9A5D
102
{ACAD_REACTORS
330
9756
102
}
330
9756
100
AcDbDictionary
281
     1
  0
DICTIONARY
  5
9A76
102
{ACAD_REACTORS
330
9756
102
}
330
9756
100
AcDbDictionary
281
     1
  3
Imperial24
350
9A77
  0
DICTIONARY
  5
9757
102
{ACAD_REACTORS
330
9756
102
}
330
9756
100
AcDbDictionary
281
     1
  0
DICTIONARY
  5
9763
102
{ACAD_REACTORS
330
9756
102
}
330
9756
100
AcDbDictionary
281
     1
  3
Model
350
9A78
  3
レイアウト1
350
9A79
  0
DICTIONARY
  5
9A2B
102
{ACAD_REACTORS
330
9756
102
}
330
9756
100
AcDbDictionary
281
     1
  3
ByBlock
350
9A34
  3
ByLayer
350
9A2C
  3
Global
350
9A3C
  0
DICTIONARY
  5
9A72
102
{ACAD_REACTORS
330
9756
102
}
330
9756
100
AcDbDictionary
281
     1
  3
Standard
350
9A73
  0
DICTIONARY
  5
9760
102
{ACAD_REACTORS
330
9756
102
}
330
9756
100
AcDbDictionary
281
     1
  3
STANDARD
350
9761
  0
DICTIONARY
  5
9762
102
{ACAD_REACTORS
330
9756
102
}
330
9756
100
AcDbDictionary
281
     1
  0
ACDBDICTIONARYWDFLT
  5
9A29
102
{ACAD_REACTORS
330
9756
102
}
330
9756
100
AcDbDictionary
281
     1
  3
Normal
350
9A2A
100
AcDbDictionaryWithDefault
340
9A2A
  0
DICTIONARY
  5
9A60
102
{ACAD_REACTORS
330
9756
102
}
330
9756
100
AcDbDictionary
281
     1
  3
A0
350
9A61
  3
A1
350
9A62
  3
A2
350
9A63
  3
A3
350
9A64
  3
A4
350
9A65
  3
A5
350
9A66
  3
A6
350
9A67
  3
A7
350
9A68
  3
A8
350
9A69
  3
A9
350
9A6A
  3
B0
350
9A6B
  3
B1
350
9A6C
  3
B2
350
9A6D
  3
B3
350
9A6E
  3
B4
350
9A6F
  3
B5
350
9A70
  3
B6
350
9A71
  0
DICTIONARY
  5
9A74
102
{ACAD_REACTORS
330
9756
102
}
330
9756
100
AcDbDictionary
281
     1
  3
Imperial24
350
9A75
  0
DICTIONARY
  5
9A5E
102
{ACAD_REACTORS
330
9756
102
}
330
9756
100
AcDbDictionary
281
     1
  3
Standard
350
9A5F
  0
DICTIONARY
  5
9A44
102
{ACAD_REACTORS
330
9756
102
}
330
9756
100
AcDbDictionary
281
     1
  3
2dWireframe
350
9A4A
  3
Basic
350
9A49
  3
Brighten
350
9A50
  3
ColorChange
350
9A54
  3
Conceptual
350
9A4D
  3
Dim
350
9A4F
  3
EdgeColorOff
350
9A5C
  3
Facepattern
350
9A53
  3
Flat
350
9A45
  3
FlatWithEdges
350
9A46
  3
Gouraud
350
9A47
  3
GouraudWithEdges
350
9A48
  3
Hidden
350
9A4C
  3
JitterOff
350
9A5A
  3
Linepattern
350
9A52
  3
OverhangOff
350
9A5B
  3
Realistic
350
9A4E
  3
Shaded
350
9A59
  3
Shaded with edges
350
9A58
  3
Shades of Gray
350
9A55
  3
Sketchy
350
9A56
  3
Thicken
350
9A51
  3
Wireframe
350
9A4B
  3
X-Ray
350
9A57
  0
XRECORD
  5
9A99
102
{ACAD_REACTORS
330
9756
102
}
330
9756
100
AcDbXrecord
280
     1
 90
        1
330
9A5F
  0
DICTIONARY
  5
9A8C
102
{ACAD_REACTORS
330
9756
102
}
330
9756
100
AcDbDictionary
281
     1
  3
CANNOSCALE
350
9A91
  3
CMLEADERSTYLE
350
9A8E
  3
CTABLESTYLE
350
9A8D
  3
CVIEWDETAILSTYLE
350
9A8F
  3
CVIEWSECTIONSTYLE
350
9A90
  3
DIMASSOC
350
9A94
  3
INDEXCTL
350
9A93
  3
SORTENTS
350
9A92
  3
XCLIPFRAME
350
9A95
  0
XRECORD
  5
9A9A
102
{ACAD_REACTORS
330
9756
102
}
330
9756
100
AcDbXrecord
280
     1
  1
DWGPROPS COOKIE
  2

  3

  4

  6

  7

  8
Yoshitsune
  9

300
=
301
=
302
=
303
=
304
=
305
=
306
=
307
=
308
=
309
=
 40
0.000014849537037
 41
2450737.555404746
 42
2457192.640610729
  1

 90
        0
  0
XRECORD
  5
9A7D
102
{ACAD_REACTORS
330
9A7C
102
}
330
9A7C
100
AcDbXrecord
280
     1
290
     1
  0
XRECORD
  5
9A7F
102
{ACAD_REACTORS
330
9A7E
102
}
330
9A7E
100
AcDbXrecord
280
     1
290
     1
  0
XRECORD
  5
9A81
102
{ACAD_REACTORS
330
9A80
102
}
330
9A80
100
AcDbXrecord
280
     1
290
     1
  0
XRECORD
  5
9A83
102
{ACAD_REACTORS
330
9A82
102
}
330
9A82
100
AcDbXrecord
280
     1
290
     1
  0
XRECORD
  5
9A85
102
{ACAD_REACTORS
330
9A84
102
}
330
9A84
100
AcDbXrecord
280
     1
290
     1
  0
XRECORD
  5
9A87
102
{ACAD_REACTORS
330
9A86
102
}
330
9A86
100
AcDbXrecord
280
     1
290
     1
  0
XRECORD
  5
9A89
102
{ACAD_REACTORS
330
9A88
102
}
330
9A88
100
AcDbXrecord
280
     1
290
     1
  0
XRECORD
  5
9A8B
102
{ACAD_REACTORS
330
9A8A
102
}
330
9A8A
100
AcDbXrecord
280
     1
290
     1
  0
XRECORD
  5
9A25
102
{ACAD_REACTORS
330
9A24
102
}
330
9A24
100
AcDbXrecord
280
     1
340
9768
  0
XRECORD
  5
9A23
102
{ACAD_REACTORS
330
9A22
102
}
330
9A22
100
AcDbXrecord
280
     1
340
9764
  0
ACDBDETAILVIEWSTYLE
  5
9A77
102
{ACAD_XDICTIONARY
360
9AD2
102
}
102
{ACAD_REACTORS
330
9A76
102
}
330
9A76
100
AcDbModelDocViewStyle
 70
     0
  3
Imperial24
290
     0
100
AcDbDetailViewStyle
 70
     0
 71
     0
 90
        3
 71
     1
340
975B
 40
0.24
340
0
 40
0.24
300

 40
0.36
280
     3
 71
     2
340
975F
 90
       25
 71
     3
340
975B
 40
0.24
 90
        1
 40
0.75
 90
        1
300
%<\AcVar ViewType \f "%tc1">% %<\AcVar ViewDetailId>%\PSCALE %<\AcVar ViewScale \f "%sn">%
 71
     4
340
975F
 90
       25
340
975F
 90
       25
280
     0
  0
LAYOUT
  5
9A78
102
{ACAD_XDICTIONARY
360
9AD4
102
}
102
{ACAD_REACTORS
330
9763
102
}
330
9763
100
AcDbPlotSettings
  1

  2
Canon LBP9100C
  4

  6

 40
0.0
 41
0.0
 42
0.0
 43
0.0
 44
0.0
 45
0.0
 46
0.0
 47
0.0
 48
0.0
 49
0.0
140
0.0
141
0.0
142
1.0
143
1.0
 70
  1712
 72
     0
 73
     0
 74
     0
  7

 75
     0
147
1.0
148
0.0
149
0.0
100
AcDbLayout
  1
Model
 70
     1
 71
     0
 10
0.0
 20
0.0
 11
12.0
 21
9.0
 12
0.0
 22
0.0
 32
0.0
 14
0.0
 24
0.0
 34
0.0
 15
0.0
 25
0.0
 35
0.0
146
0.0
 13
0.0
 23
0.0
 33
0.0
 16
1.0
 26
0.0
 36
0.0
 17
0.0
 27
1.0
 37
0.0
 76
     0
330
9768
331
9A21
  0
LAYOUT
  5
9A79
102
{ACAD_XDICTIONARY
360
9AD6
102
}
102
{ACAD_REACTORS
330
9763
102
}
330
9763
100
AcDbPlotSettings
  1

  2
Canon LBP9100C
  4

  6

 40
0.0
 41
0.0
 42
0.0
 43
0.0
 44
0.0
 45
0.0
 46
0.0
 47
0.0
 48
0.0
 49
0.0
140
0.0
141
0.0
142
1.0
143
1.0
 70
   688
 72
     0
 73
     0
 74
     5
  7

 75
    16
147
1.0
148
0.0
149
0.0
100
AcDbLayout
  1
レイアウト1
 70
     0
 71
     1
 10
0.0
 20
0.0
 11
420.0
 21
297.0
 12
0.0
 22
0.0
 32
0.0
 14
1.000000000000000E+20
 24
1.000000000000000E+20
 34
1.000000000000000E+20
 15
-1.000000000000000E+20
 25
-1.000000000000000E+20
 35
-1.000000000000000E+20
146
0.0
 13
0.0
 23
0.0
 33
0.0
 16
1.0
 26
0.0
 36
0.0
 17
0.0
 27
1.0
 37
0.0
 76
     0
330
9764
  0
MATERIAL
  5
9A34
102
{ACAD_XDICTIONARY
360
9A35
102
}
102
{ACAD_REACTORS
330
9A2B
102
}
330
9A2B
100
AcDbMaterial
  1
ByBlock
 72
     0
 43
0.0208333333333333
 43
0.0
 43
0.0
 43
0.0
 43
0.0
 43
0.0208333333333333
 43
0.0
 43
0.0
 43
0.0
 43
0.0
 43
1.0
 43
0.0
 43
0.0
 43
0.0
 43
0.0
 43
1.0
 77
     0
 47
0.0208333333333333
 47
0.0
 47
0.0
 47
0.0
 47
0.0
 47
0.0208333333333333
 47
0.0
 47
0.0
 47
0.0
 47
0.0
 47
1.0
 47
0.0
 47
0.0
 47
0.0
 47
0.0
 47
1.0
171
     0
 49
0.0208333333333333
 49
0.0
 49
0.0
 49
0.0
 49
0.0
 49
0.0208333333333333
 49
0.0
 49
0.0
 49
0.0
 49
0.0
 49
1.0
 49
0.0
 49
0.0
 49
0.0
 49
0.0
 49
1.0
175
     0
142
0.0208333333333333
142
0.0
142
0.0
142
0.0
142
0.0
142
0.0208333333333333
142
0.0
142
0.0
142
0.0
142
0.0
142
1.0
142
0.0
142
0.0
142
0.0
142
0.0
142
1.0
179
     0
144
0.0208333333333333
144
0.0
144
0.0
144
0.0
144
0.0
144
0.0208333333333333
144
0.0
144
0.0
144
0.0
144
0.0
144
1.0
144
0.0
144
0.0
144
0.0
144
0.0
144
1.0
147
0.0208333333333333
147
0.0
147
0.0
147
0.0
147
0.0
147
0.0208333333333333
147
0.0
147
0.0
147
0.0
147
0.0
147
1.0
147
0.0
147
0.0
147
0.0
147
0.0
147
1.0
  0
MATERIAL
  5
9A2C
102
{ACAD_XDICTIONARY
360
9A2D
102
}
102
{ACAD_REACTORS
330
9A2B
102
}
330
9A2B
100
AcDbMaterial
  1
ByLayer
 72
     0
 43
0.0208333333333333
 43
0.0
 43
0.0
 43
0.0
 43
0.0
 43
0.0208333333333333
 43
0.0
 43
0.0
 43
0.0
 43
0.0
 43
1.0
 43
0.0
 43
0.0
 43
0.0
 43
0.0
 43
1.0
 77
     0
 47
0.0208333333333333
 47
0.0
 47
0.0
 47
0.0
 47
0.0
 47
0.0208333333333333
 47
0.0
 47
0.0
 47
0.0
 47
0.0
 47
1.0
 47
0.0
 47
0.0
 47
0.0
 47
0.0
 47
1.0
171
     0
 49
0.0208333333333333
 49
0.0
 49
0.0
 49
0.0
 49
0.0
 49
0.0208333333333333
 49
0.0
 49
0.0
 49
0.0
 49
0.0
 49
1.0
 49
0.0
 49
0.0
 49
0.0
 49
0.0
 49
1.0
175
     0
142
0.0208333333333333
142
0.0
142
0.0
142
0.0
142
0.0
142
0.0208333333333333
142
0.0
142
0.0
142
0.0
142
0.0
142
1.0
142
0.0
142
0.0
142
0.0
142
0.0
142
1.0
179
     0
144
0.0208333333333333
144
0.0
144
0.0
144
0.0
144
0.0
144
0.0208333333333333
144
0.0
144
0.0
144
0.0
144
0.0
144
1.0
144
0.0
144
0.0
144
0.0
144
0.0
144
1.0
147
0.0208333333333333
147
0.0
147
0.0
147
0.0
147
0.0
147
0.0208333333333333
147
0.0
147
0.0
147
0.0
147
0.0
147
1.0
147
0.0
147
0.0
147
0.0
147
0.0
147
1.0
  0
MATERIAL
  5
9A3C
102
{ACAD_XDICTIONARY
360
9A3D
102
}
102
{ACAD_REACTORS
330
9A2B
102
}
330
9A2B
100
AcDbMaterial
  1
Global
 72
     0
 43
0.0208333333333333
 43
0.0
 43
0.0
 43
0.0
 43
0.0
 43
0.0208333333333333
 43
0.0
 43
0.0
 43
0.0
 43
0.0
 43
1.0
 43
0.0
 43
0.0
 43
0.0
 43
0.0
 43
1.0
 77
     0
 47
0.0208333333333333
 47
0.0
 47
0.0
 47
0.0
 47
0.0
 47
0.0208333333333333
 47
0.0
 47
0.0
 47
0.0
 47
0.0
 47
1.0
 47
0.0
 47
0.0
 47
0.0
 47
0.0
 47
1.0
171
     0
 49
0.0208333333333333
 49
0.0
 49
0.0
 49
0.0
 49
0.0
 49
0.0208333333333333
 49
0.0
 49
0.0
 49
0.0
 49
0.0
 49
1.0
 49
0.0
 49
0.0
 49
0.0
 49
0.0
 49
1.0
175
     0
142
0.0208333333333333
142
0.0
142
0.0
142
0.0
142
0.0
142
0.0208333333333333
142
0.0
142
0.0
142
0.0
142
0.0
142
1.0
142
0.0
142
0.0
142
0.0
142
0.0
142
1.0
179
     0
144
0.0208333333333333
144
0.0
144
0.0
144
0.0
144
0.0
144
0.0208333333333333
144
0.0
144
0.0
144
0.0
144
0.0
144
1.0
144
0.0
144
0.0
144
0.0
144
0.0
144
1.0
147
0.0208333333333333
147
0.0
147
0.0
147
0.0
147
0.0
147
0.0208333333333333
147
0.0
147
0.0
147
0.0
147
0.0
147
1.0
147
0.0
147
0.0
147
0.0
147
0.0
147
1.0
  0
MLEADERSTYLE
  5
9A73
102
{ACAD_REACTORS
330
9A72
102
}
330
9A72
100
AcDbMLeaderStyle
170
     2
171
     1
172
     0
 90
        2
 40
0.0
 41
0.0
173
     1
 91
-1056964608
340
975D
 92
       -2
290
     1
 42
0.09
291
     1
 43
0.36
  3
Standard
 44
0.18
300

342
975B
174
     1
178
     6
175
     1
176
     0
 93
-1056964608
 45
0.18
292
     0
297
     0
 46
0.18
 94
-1056964608
 47
1.0
 49
1.0
140
1.0
293
     1
141
0.0
294
     1
177
     0
142
1.0
295
     0
296
     0
143
0.125
1001
ACAD_MLEADERVER
1070
     2
  0
MLINESTYLE
  5
9761
102
{ACAD_REACTORS
330
9760
102
}
330
9760
100
AcDbMlineStyle
  2
STANDARD
 70
     0
  3

 62
   256
 51
90.0
 52
90.0
 71
     2
 49
0.5
 62
   256
  6
BYLAYER
 49
-0.5
 62
   256
  6
BYLAYER
  0
ACDBPLACEHOLDER
  5
9A2A
102
{ACAD_REACTORS
330
9A29
102
}
330
9A29
  0
SCALE
  5
9A61
102
{ACAD_REACTORS
330
9A60
102
}
330
9A60
100
AcDbScale
 70
     0
300
1:1
140
1.0
141
1.0
290
     1
  0
SCALE
  5
9A62
102
{ACAD_REACTORS
330
9A60
102
}
330
9A60
100
AcDbScale
 70
     0
300
1/128" = 1'-0"
140
0.0078125
141
12.0
290
     0
  0
SCALE
  5
9A63
102
{ACAD_REACTORS
330
9A60
102
}
330
9A60
100
AcDbScale
 70
     0
300
1/64" = 1'-0"
140
0.015625
141
12.0
290
     0
  0
SCALE
  5
9A64
102
{ACAD_REACTORS
330
9A60
102
}
330
9A60
100
AcDbScale
 70
     0
300
1/32" = 1'-0"
140
0.03125
141
12.0
290
     0
  0
SCALE
  5
9A65
102
{ACAD_REACTORS
330
9A60
102
}
330
9A60
100
AcDbScale
 70
     0
300
1/16" = 1'-0"
140
0.0625
141
12.0
290
     0
  0
SCALE
  5
9A66
102
{ACAD_REACTORS
330
9A60
102
}
330
9A60
100
AcDbScale
 70
     0
300
3/32" = 1'-0"
140
0.09375
141
12.0
290
     0
  0
SCALE
  5
9A67
102
{ACAD_REACTORS
330
9A60
102
}
330
9A60
100
AcDbScale
 70
     0
300
1/8" = 1'-0"
140
0.125
141
12.0
290
     0
  0
SCALE
  5
9A68
102
{ACAD_REACTORS
330
9A60
102
}
330
9A60
100
AcDbScale
 70
     0
300
3/16" = 1'-0"
140
0.1875
141
12.0
290
     0
  0
SCALE
  5
9A69
102
{ACAD_REACTORS
330
9A60
102
}
330
9A60
100
AcDbScale
 70
     0
300
1/4" = 1'-0"
140
0.25
141
12.0
290
     0
  0
SCALE
  5
9A6A
102
{ACAD_REACTORS
330
9A60
102
}
330
9A60
100
AcDbScale
 70
     0
300
3/8" = 1'-0"
140
0.375
141
12.0
290
     0
  0
SCALE
  5
9A6B
102
{ACAD_REACTORS
330
9A60
102
}
330
9A60
100
AcDbScale
 70
     0
300
1/2" = 1'-0"
140
0.5
141
12.0
290
     0
  0
SCALE
  5
9A6C
102
{ACAD_REACTORS
330
9A60
102
}
330
9A60
100
AcDbScale
 70
     0
300
3/4" = 1'-0"
140
0.75
141
12.0
290
     0
  0
SCALE
  5
9A6D
102
{ACAD_REACTORS
330
9A60
102
}
330
9A60
100
AcDbScale
 70
     0
300
1" = 1'-0"
140
1.0
141
12.0
290
     0
  0
SCALE
  5
9A6E
102
{ACAD_REACTORS
330
9A60
102
}
330
9A60
100
AcDbScale
 70
     0
300
1-1/2" = 1'-0"
140
1.5
141
12.0
290
     0
  0
SCALE
  5
9A6F
102
{ACAD_REACTORS
330
9A60
102
}
330
9A60
100
AcDbScale
 70
     0
300
3" = 1'-0"
140
3.0
141
12.0
290
     0
  0
SCALE
  5
9A70
102
{ACAD_REACTORS
330
9A60
102
}
330
9A60
100
AcDbScale
 70
     0
300
6" = 1'-0"
140
6.0
141
12.0
290
     0
  0
SCALE
  5
9A71
102
{ACAD_REACTORS
330
9A60
102
}
330
9A60
100
AcDbScale
 70
     0
300
1'-0" = 1'-0"
140
12.0
141
12.0
290
     0
  0
ACDBSECTIONVIEWSTYLE
  5
9A75
102
{ACAD_XDICTIONARY
360
9AD0
102
}
102
{ACAD_REACTORS
330
9A74
102
}
330
9A74
100
AcDbModelDocViewStyle
 70
     0
  3
Imperial24
290
     0
100
AcDbSectionViewStyle
 70
     0
 71
     0
 90
       78
 71
     1
340
975B
 40
0.24
340
0
340
0
 40
0.24
300
I, O, Q, S, X, Z
 40
0.48
 90
        3
 40
0.18
 90
        1
 71
     2
340
975F
 90
       25
340
975F
 90
       50
 40
0.24
 40
0.0
 40
0.24
 71
     3
340
975B
 40
0.24
 90
        1
 40
0.75
 90
        1
300
%<\AcVar ViewType \f "%tc1">% %<\AcVar ViewSectionStartId>%-%<\AcVar ViewSectionEndId>%\PSCALE %<\AcVar ViewScale \f "%sn">%
 71
     4
300
ANSI31
 40
1.0
 90
        0
290
     0
290
     0
 90
        6
 40
0.0
 40
1.570796326794896
 40
0.2617993877991494
 40
1.308996938995747
 40
-0.2617993877991494
 40
1.832595714594046
  0
TABLESTYLE
  5
9A5F
102
{ACAD_XDICTIONARY
360
9A97
102
}
102
{ACAD_REACTORS
330
9A5E
102
}
330
9A5E
100
AcDbTableStyle
  3
Standard
 70
     0
 71
     0
 40
0.06
 41
0.06
280
     0
281
     0
  7
STANDARD
140
0.18
170
     2
 62
     0
 63
     7
283
     0
274
    -2
284
     1
 64
     0
275
    -2
285
     1
 65
     0
276
    -2
286
     1
 66
     0
277
    -2
287
     1
 67
     0
278
    -2
288
     1
 68
     0
279
    -2
289
     1
 69
     0
  7
STANDARD
140
0.25
170
     5
 62
     0
 63
     7
283
     0
274
    -2
284
     1
 64
     0
275
    -2
285
     1
 65
     0
276
    -2
286
     1
 66
     0
277
    -2
287
     1
 67
     0
278
    -2
288
     1
 68
     0
279
    -2
289
     1
 69
     0
  7
STANDARD
140
0.18
170
     5
 62
     0
 63
     7
283
     0
274
    -2
284
     1
 64
     0
275
    -2
285
     1
 65
     0
276
    -2
286
     1
 66
     0
277
    -2
287
     1
 67
     0
278
    -2
288
     1
 68
     0
279
    -2
289
     1
 69
     0
  0
VISUALSTYLE
  5
9A4A
102
{ACAD_XDICTIONARY
360
9AA8
102
}
102
{ACAD_REACTORS
330
9A44
102
}
330
9A44
100
AcDbVisualStyle
  2
2dWireframe
 70
     4
 71
     0
 72
     2
 73
     0
 90
        0
 40
-0.6
 41
-30.0
 62
     5
 63
     7
 74
     1
 91
        4
 64
     7
 65
   257
 75
     1
175
     1
 42
1.0
 92
        0
 66
   257
 43
1.0
 76
     1
 77
     6
 78
     2
 67
     7
 79
     5
170
     0
171
     0
290
     0
174
     0
 93
        1
 44
0.0
173
     0
291
     0
 45
0.0
1001
ACAD
1000
AcDbSavedByObjectVersion
1070
     0
  0
VISUALSTYLE
  5
9A49
102
{ACAD_XDICTIONARY
360
9AA6
102
}
102
{ACAD_REACTORS
330
9A44
102
}
330
9A44
100
AcDbVisualStyle
  2
Basic
 70
     7
 71
     1
 72
     0
 73
     1
 90
        0
 40
-0.6
 41
-30.0
 62
     5
 63
     7
 74
     0
 91
        4
 64
     7
 65
   257
 75
     1
175
     1
 42
1.0
 92
        8
 66
     7
 43
1.0
 76
     1
 77
     6
 78
     2
 67
     7
 79
     5
170
     0
171
     0
290
     0
174
     0
 93
        1
 44
0.0
173
     0
291
     1
 45
0.0
1001
ACAD
1000
AcDbSavedByObjectVersion
1070
     0
  0
VISUALSTYLE
  5
9A50
102
{ACAD_XDICTIONARY
360
9AB4
102
}
102
{ACAD_REACTORS
330
9A44
102
}
330
9A44
100
AcDbVisualStyle
  2
Brighten
 70
    12
 71
     2
 72
     2
 73
     0
 90
        0
 40
-0.6
 41
-30.0
 62
     5
 63
     7
 74
     1
 91
        4
 64
     7
 65
   257
 75
     1
175
     1
 42
1.0
 92
        8
 66
     7
 43
1.0
 76
     1
 77
     6
 78
     2
 67
     7
 79
     5
170
     0
171
     0
290
     0
174
     0
 93
        1
 44
50.0
173
     0
291
     1
 45
0.0
1001
ACAD
1000
AcDbSavedByObjectVersion
1070
     0
  0
VISUALSTYLE
  5
9A54
102
{ACAD_XDICTIONARY
360
9ABC
102
}
102
{ACAD_REACTORS
330
9A44
102
}
330
9A44
100
AcDbVisualStyle
  2
ColorChange
 70
    16
 71
     2
 72
     2
 73
     3
 90
        0
 40
-0.6
 41
-30.0
 62
     5
 63
     8
 74
     1
 91
        4
 64
     7
 65
   257
 75
     1
175
     1
 42
1.0
 92
        8
 66
     8
 43
1.0
 76
     1
 77
     6
 78
     2
 67
     7
 79
     5
170
     0
171
     0
290
     0
174
     0
 93
        1
 44
0.0
173
     0
291
     1
 45
0.0
1001
ACAD
1000
AcDbSavedByObjectVersion
1070
     0
  0
VISUALSTYLE
  5
9A4D
102
{ACAD_XDICTIONARY
360
9AAE
102
}
102
{ACAD_REACTORS
330
9A44
102
}
330
9A44
100
AcDbVisualStyle
  2
Conceptual
 70
     9
 71
     3
 72
     2
 73
     0
 90
        0
 40
-0.6
 41
-30.0
 62
     5
 63
     7
 74
     2
 91
        2
 64
     7
 65
   257
 75
     1
175
     1
 42
179.0
 92
        8
 66
     7
 43
1.0
 76
     1
 77
     6
 78
     2
 67
     7
 79
     3
170
     0
171
     0
290
     0
174
     0
 93
        1
 44
0.0
173
     0
291
     0
 45
0.0
1001
ACAD
1000
AcDbSavedByObjectVersion
1070
     0
  0
VISUALSTYLE
  5
9A4F
102
{ACAD_XDICTIONARY
360
9AB2
102
}
102
{ACAD_REACTORS
330
9A44
102
}
330
9A44
100
AcDbVisualStyle
  2
Dim
 70
    11
 71
     2
 72
     2
 73
     0
 90
        0
 40
-0.6
 41
-30.0
 62
     5
 63
     7
 74
     1
 91
        4
 64
     7
 65
   257
 75
     1
175
     1
 42
1.0
 92
        8
 66
     7
 43
1.0
 76
     1
 77
     6
 78
     2
 67
     7
 79
     5
170
     0
171
     0
290
     0
174
     0
 93
        1
 44
-50.0
173
     0
291
     1
 45
0.0
1001
ACAD
1000
AcDbSavedByObjectVersion
1070
     0
  0
VISUALSTYLE
  5
9A5C
102
{ACAD_XDICTIONARY
360
9ACC
102
}
102
{ACAD_REACTORS
330
9A44
102
}
330
9A44
100
AcDbVisualStyle
  2
EdgeColorOff
 70
    22
 71
     2
 72
     2
 73
     0
 90
        0
 40
-0.6
 41
-30.0
 62
     5
 63
     7
 74
     1
 91
        4
 64
     7
 65
   257
 75
     1
175
     1
 42
1.0
 92
        8
 66
     7
 43
1.0
 76
     1
 77
     6
 78
     2
 67
     7
 79
     5
170
     0
171
     0
290
     0
174
     0
 93
        1
 44
0.0
173
     0
291
     1
 45
0.0
1001
ACAD
1000
AcDbSavedByObjectVersion
1070
     0
  0
VISUALSTYLE
  5
9A53
102
{ACAD_XDICTIONARY
360
9ABA
102
}
102
{ACAD_REACTORS
330
9A44
102
}
330
9A44
100
AcDbVisualStyle
  2
Facepattern
 70
    15
 71
     2
 72
     2
 73
     0
 90
        0
 40
-0.6
 41
-30.0
 62
     5
 63
     7
 74
     1
 91
        4
 64
     7
 65
   257
 75
     1
175
     1
 42
1.0
 92
        8
 66
     7
 43
1.0
 76
     1
 77
     6
 78
     2
 67
     7
 79
     5
170
     0
171
     0
290
     0
174
     0
 93
        1
 44
0.0
173
     0
291
     1
 45
0.0
1001
ACAD
1000
AcDbSavedByObjectVersion
1070
     0
  0
VISUALSTYLE
  5
9A45
102
{ACAD_XDICTIONARY
360
9A9E
102
}
102
{ACAD_REACTORS
330
9A44
102
}
330
9A44
100
AcDbVisualStyle
  2
Flat
 70
     0
 71
     2
 72
     1
 73
     1
 90
        2
 40
-0.6
 41
30.0
 62
     5
 63
     7
 74
     0
 91
        0
 64
     7
 65
   257
 75
     1
175
     1
 42
1.0
 92
        8
 66
     7
 43
1.0
 76
     1
 77
     6
 78
     2
 67
     7
 79
     5
170
     0
171
     0
290
     0
174
     0
 93
       13
 44
0.0
173
     0
291
     1
 45
0.0
1001
ACAD
1000
AcDbSavedByObjectVersion
1070
     0
  0
VISUALSTYLE
  5
9A46
102
{ACAD_XDICTIONARY
360
9AA0
102
}
102
{ACAD_REACTORS
330
9A44
102
}
330
9A44
100
AcDbVisualStyle
  2
FlatWithEdges
 70
     1
 71
     2
 72
     1
 73
     1
 90
        2
 40
-0.6
 41
30.0
 62
     5
 63
     7
 74
     1
 91
        0
 64
     7
 65
   257
 75
     1
175
     1
 42
1.0
 92
        0
 66
   257
 43
1.0
 76
     1
 77
     6
 78
     2
 67
     7
 79
     5
170
     0
171
     0
290
     0
174
     0
 93
       13
 44
0.0
173
     0
291
     1
 45
0.0
1001
ACAD
1000
AcDbSavedByObjectVersion
1070
     0
  0
VISUALSTYLE
  5
9A47
102
{ACAD_XDICTIONARY
360
9AA2
102
}
102
{ACAD_REACTORS
330
9A44
102
}
330
9A44
100
AcDbVisualStyle
  2
Gouraud
 70
     2
 71
     2
 72
     2
 73
     1
 90
        2
 40
-0.6
 41
30.0
 62
     5
 63
     7
 74
     0
 91
        0
 64
     7
 65
   257
 75
     1
175
     1
 42
1.0
 92
        0
 66
     7
 43
1.0
 76
     1
 77
     6
 78
     2
 67
     7
 79
     5
170
     0
171
     0
290
     0
174
     0
 93
       13
 44
0.0
173
     0
291
     1
 45
0.0
1001
ACAD
1000
AcDbSavedByObjectVersion
1070
     0
  0
VISUALSTYLE
  5
9A48
102
{ACAD_XDICTIONARY
360
9AA4
102
}
102
{ACAD_REACTORS
330
9A44
102
}
330
9A44
100
AcDbVisualStyle
  2
GouraudWithEdges
 70
     3
 71
     2
 72
     2
 73
     1
 90
        2
 40
-0.6
 41
30.0
 62
     5
 63
     7
 74
     1
 91
        0
 64
     7
 65
   257
 75
     1
175
     1
 42
1.0
 92
        0
 66
   257
 43
1.0
 76
     1
 77
     6
 78
     2
 67
     7
 79
     5
170
     0
171
     0
290
     0
174
     0
 93
       13
 44
0.0
173
     0
291
     1
 45
0.0
1001
ACAD
1000
AcDbSavedByObjectVersion
1070
     0
  0
VISUALSTYLE
  5
9A4C
102
{ACAD_XDICTIONARY
360
9AAC
102
}
102
{ACAD_REACTORS
330
9A44
102
}
330
9A44
100
AcDbVisualStyle
  2
Hidden
 70
     6
 71
     1
 72
     2
 73
     2
 90
        0
 40
-0.6
 41
-30.0
 62
     5
 63
     7
 74
     2
 91
        2
 64
     7
 65
   257
 75
     2
175
     1
 42
40.0
 92
        0
 66
   257
 43
1.0
 76
     1
 77
     6
 78
     2
 67
     7
 79
     3
170
     0
171
     0
290
     0
174
     0
 93
        1
 44
0.0
173
     0
291
     0
 45
0.0
1001
ACAD
1000
AcDbSavedByObjectVersion
1070
     0
  0
VISUALSTYLE
  5
9A5A
102
{ACAD_XDICTIONARY
360
9AC8
102
}
102
{ACAD_REACTORS
330
9A44
102
}
330
9A44
100
AcDbVisualStyle
  2
JitterOff
 70
    20
 71
     2
 72
     2
 73
     0
 90
        0
 40
-0.6
 41
-30.0
 62
     5
 63
     7
 74
     1
 91
        4
 64
     7
 65
   257
 75
     1
175
     1
 42
1.0
 92
       10
 66
     7
 43
1.0
 76
     1
 77
     6
 78
     2
 67
     7
 79
     5
170
     0
171
     0
290
     0
174
     0
 93
        1
 44
0.0
173
     0
291
     1
 45
0.0
1001
ACAD
1000
AcDbSavedByObjectVersion
1070
     0
  0
VISUALSTYLE
  5
9A52
102
{ACAD_XDICTIONARY
360
9AB8
102
}
102
{ACAD_REACTORS
330
9A44
102
}
330
9A44
100
AcDbVisualStyle
  2
Linepattern
 70
    14
 71
     2
 72
     2
 73
     0
 90
        0
 40
-0.6
 41
-30.0
 62
     5
 63
     7
 74
     1
 91
        4
 64
     7
 65
   257
 75
     7
175
     7
 42
1.0
 92
        8
 66
     7
 43
1.0
 76
     1
 77
     6
 78
     2
 67
     7
 79
     5
170
     0
171
     0
290
     0
174
     0
 93
        1
 44
0.0
173
     0
291
     1
 45
0.0
1001
ACAD
1000
AcDbSavedByObjectVersion
1070
     0
  0
VISUALSTYLE
  5
9A5B
102
{ACAD_XDICTIONARY
360
9ACA
102
}
102
{ACAD_REACTORS
330
9A44
102
}
330
9A44
100
AcDbVisualStyle
  2
OverhangOff
 70
    21
 71
     2
 72
     2
 73
     0
 90
        0
 40
-0.6
 41
-30.0
 62
     5
 63
     7
 74
     1
 91
        4
 64
     7
 65
   257
 75
     1
175
     1
 42
1.0
 92
        9
 66
     7
 43
1.0
 76
     1
 77
     6
 78
     2
 67
     7
 79
     5
170
     0
171
     0
290
     0
174
     0
 93
        1
 44
0.0
173
     0
291
     1
 45
0.0
1001
ACAD
1000
AcDbSavedByObjectVersion
1070
     0
  0
VISUALSTYLE
  5
9A4E
102
{ACAD_XDICTIONARY
360
9AB0
102
}
102
{ACAD_REACTORS
330
9A44
102
}
330
9A44
100
AcDbVisualStyle
  2
Realistic
 70
     8
 71
     2
 72
     3
 73
     0
 90
        2
 40
-0.6
 41
30.0
 62
     5
 63
     7
 74
     0
 91
        0
 64
     7
 65
   257
 75
     1
175
     1
 42
1.0
 92
        8
 66
   257
 43
1.0
 76
     1
 77
     6
 78
     2
 67
     7
 79
     3
170
     0
171
     0
290
     0
174
     0
 93
       13
 44
0.0
173
     0
291
     0
 45
0.0
1001
ACAD
1000
AcDbSavedByObjectVersion
1070
     0
  0
VISUALSTYLE
  5
9A59
102
{ACAD_XDICTIONARY
360
9AC6
102
}
102
{ACAD_REACTORS
330
9A44
102
}
330
9A44
100
AcDbVisualStyle
  2
Shaded
 70
    27
 71
     2
 72
     2
 73
     1
 90
        2
 40
-0.6
 41
30.0
 62
     5
 63
     7
 74
     0
 91
        4
 64
     7
 65
   257
 75
     1
175
     1
 42
1.0
 92
        8
 66
   257
 43
1.0
 76
     1
 77
     6
 78
     2
 67
     8
 79
     3
170
     0
171
     0
290
     0
174
     0
 93
        5
 44
0.0
173
     0
291
     0
 45
0.0
1001
ACAD
1000
AcDbSavedByObjectVersion
1070
     0
  0
VISUALSTYLE
  5
9A58
102
{ACAD_XDICTIONARY
360
9AC4
102
}
102
{ACAD_REACTORS
330
9A44
102
}
330
9A44
100
AcDbVisualStyle
  2
Shaded with edges
 70
    26
 71
     2
 72
     2
 73
     1
 90
        2
 40
-0.6
 41
30.0
 62
     5
 63
     7
 74
     1
 91
       10
 64
     7
 65
   257
 75
     2
175
     1
 42
1.0
 92
        8
 66
   257
 43
1.0
 76
     1
 77
     6
 78
     2
 67
     7
 79
     3
170
     0
171
     0
290
     0
174
     0
 93
        5
 44
0.0
173
     0
291
     0
 45
0.0
1001
ACAD
1000
AcDbSavedByObjectVersion
1070
     0
  0
VISUALSTYLE
  5
9A55
102
{ACAD_XDICTIONARY
360
9ABE
102
}
102
{ACAD_REACTORS
330
9A44
102
}
330
9A44
100
AcDbVisualStyle
  2
Shades of Gray
 70
    23
 71
     2
 72
     2
 73
     3
 90
        0
 40
-0.6
 41
-30.0
 62
     5
 63
     7
 74
     2
 91
        2
 64
     7
 65
     7
 75
     1
175
     1
 42
40.0
 92
        8
 66
     7
 43
1.0
 76
     1
 77
     6
 78
     2
 67
     7
 79
     3
170
     0
171
     0
290
     0
174
     0
 93
        1
 44
0.0
173
     0
291
     0
 45
0.0
1001
ACAD
1000
AcDbSavedByObjectVersion
1070
     0
  0
VISUALSTYLE
  5
9A56
102
{ACAD_XDICTIONARY
360
9AC0
102
}
102
{ACAD_REACTORS
330
9A44
102
}
330
9A44
100
AcDbVisualStyle
  2
Sketchy
 70
    24
 71
     1
 72
     2
 73
     2
 90
        0
 40
-0.6
 41
-30.0
 62
     5
 63
     7
 74
     2
 91
        2
 64
     7
 65
     7
 75
     1
175
     1
 42
40.0
 92
       11
 66
     7
 43
1.0
 76
     1
 77
     6
 78
     2
 67
     7
 79
     6
170
     0
171
     0
290
     0
174
     0
 93
        1
 44
0.0
173
     0
291
     0
 45
0.0
1001
ACAD
1000
AcDbSavedByObjectVersion
1070
     0
  0
VISUALSTYLE
  5
9A51
102
{ACAD_XDICTIONARY
360
9AB6
102
}
102
{ACAD_REACTORS
330
9A44
102
}
330
9A44
100
AcDbVisualStyle
  2
Thicken
 70
    13
 71
     2
 72
     2
 73
     0
 90
        0
 40
-0.6
 41
-30.0
 62
     5
 63
     7
 74
     1
 91
        4
 64
     7
 65
   257
 75
     1
175
     1
 42
1.0
 92
       12
 66
     7
 43
1.0
 76
     1
 77
     6
 78
     2
 67
     7
 79
     5
170
     0
171
     0
290
     0
174
     0
 93
        1
 44
0.0
173
     0
291
     1
 45
0.0
1001
ACAD
1000
AcDbSavedByObjectVersion
1070
     0
  0
VISUALSTYLE
  5
9A4B
102
{ACAD_XDICTIONARY
360
9AAA
102
}
102
{ACAD_REACTORS
330
9A44
102
}
330
9A44
100
AcDbVisualStyle
  2
Wireframe
 70
     5
 71
     0
 72
     2
 73
     0
 90
        0
 40
-0.6
 41
-30.0
 62
     5
 63
     7
 74
     1
 91
        4
 64
     7
 65
   257
 75
     1
175
     1
 42
1.0
 92
        0
 66
   257
 43
1.0
 76
     1
 77
     6
 78
     2
 67
     7
 79
     3
170
     0
171
     0
290
     0
174
     0
 93
        1
 44
0.0
173
     0
291
     0
 45
0.0
1001
ACAD
1000
AcDbSavedByObjectVersion
1070
     0
  0
VISUALSTYLE
  5
9A57
102
{ACAD_XDICTIONARY
360
9AC2
102
}
102
{ACAD_REACTORS
330
9A44
102
}
330
9A44
100
AcDbVisualStyle
  2
X-Ray
 70
    25
 71
     2
 72
     2
 73
     1
 90
        1
 40
0.5
 41
-30.0
 62
     5
 63
     7
 74
     1
 91
        0
 64
     7
 65
   257
 75
     1
175
     1
 42
1.0
 92
        8
 66
     7
 43
1.0
 76
     1
 77
     6
 78
     2
 67
     7
 79
     3
170
     0
171
     0
290
     0
174
     0
 93
       13
 44
0.0
173
     0
291
     0
 45
0.0
1001
ACAD
1000
AcDbSavedByObjectVersion
1070
     0
  0
DICTIONARYVAR
  5
9A91
102
{ACAD_REACTORS
330
9A8C
102
}
330
9A8C
100
DictionaryVariables
280
     0
  1
1:1
  0
DICTIONARYVAR
  5
9A8E
102
{ACAD_REACTORS
330
9A8C
102
}
330
9A8C
100
DictionaryVariables
280
     0
  1
STANDARD
  0
DICTIONARYVAR
  5
9A8D
102
{ACAD_REACTORS
330
9A8C
102
}
330
9A8C
100
DictionaryVariables
280
     0
  1
STANDARD
  0
DICTIONARYVAR
  5
9A8F
102
{ACAD_REACTORS
330
9A8C
102
}
330
9A8C
100
DictionaryVariables
280
     0
  1
Imperial24
  0
DICTIONARYVAR
  5
9A90
102
{ACAD_REACTORS
330
9A8C
102
}
330
9A8C
100
DictionaryVariables
280
     0
  1
Imperial24
  0
DICTIONARYVAR
  5
9A94
102
{ACAD_REACTORS
330
9A8C
102
}
330
9A8C
100
DictionaryVariables
280
     0
  1
1
  0
DICTIONARYVAR
  5
9A93
102
{ACAD_REACTORS
330
9A8C
102
}
330
9A8C
100
DictionaryVariables
280
     0
  1
0
  0
DICTIONARYVAR
  5
9A92
102
{ACAD_REACTORS
330
9A8C
102
}
330
9A8C
100
DictionaryVariables
280
     0
  1
127
  0
DICTIONARYVAR
  5
9A95
102
{ACAD_REACTORS
330
9A8C
102
}
330
9A8C
100
DictionaryVariables
280
     0
  1
2
  0
DICTIONARY
  5
9AD2
330
9A77
100
AcDbDictionary
280
     1
281
     1
  3
ACAD_XREC_ROUNDTRIP
360
9AD3
  0
DICTIONARY
  5
9AD4
330
9A78
100
AcDbDictionary
280
     1
281
     1
  3
ACAD_XREC_ROUNDTRIP
360
9AD5
  0
DICTIONARY
  5
9AD6
330
9A79
100
AcDbDictionary
280
     1
281
     1
  3
ACAD_XREC_ROUNDTRIP
360
9AD7
  0
DICTIONARY
  5
9A35
330
9A34
100
AcDbDictionary
280
     1
281
     1
  3
ACAD_XREC_ROUNDTRIP
360
9A9C
  3
BUMPTILE
360
9A37
  3
DIFFUSETILE
360
9A36
  3
OPACITYTILE
360
9A3A
  3
REFLECTIONTILE
360
9A39
  3
REFRACTIONTILE
360
9A3B
  3
SPECULARTILE
360
9A38
  0
DICTIONARY
  5
9A2D
330
9A2C
100
AcDbDictionary
280
     1
281
     1
  3
ACAD_XREC_ROUNDTRIP
360
9A9B
  3
BUMPTILE
360
9A2F
  3
DIFFUSETILE
360
9A2E
  3
OPACITYTILE
360
9A32
  3
REFLECTIONTILE
360
9A31
  3
REFRACTIONTILE
360
9A33
  3
SPECULARTILE
360
9A30
  0
DICTIONARY
  5
9A3D
330
9A3C
100
AcDbDictionary
280
     1
281
     1
  3
ACAD_XREC_ROUNDTRIP
360
9A9D
  3
BUMPTILE
360
9A3F
  3
DIFFUSETILE
360
9A3E
  3
OPACITYTILE
360
9A42
  3
REFLECTIONTILE
360
9A41
  3
REFRACTIONTILE
360
9A43
  3
SPECULARTILE
360
9A40
  0
DICTIONARY
  5
9AD0
330
9A75
100
AcDbDictionary
280
     1
281
     1
  3
ACAD_XREC_ROUNDTRIP
360
9AD1
  0
DICTIONARY
  5
9A97
330
9A5F
100
AcDbDictionary
280
     1
281
     1
  3
ACAD_ROUNDTRIP_2008_TABLESTYLE_CELLSTYLEMAP
360
9A98
  3
ACAD_XREC_ROUNDTRIP
360
9ACE
  0
DICTIONARY
  5
9AA8
330
9A4A
100
AcDbDictionary
280
     1
281
     1
  3
ACAD_XREC_ROUNDTRIP
360
9AA9
  0
DICTIONARY
  5
9AA6
330
9A49
100
AcDbDictionary
280
     1
281
     1
  3
ACAD_XREC_ROUNDTRIP
360
9AA7
  0
DICTIONARY
  5
9AB4
330
9A50
100
AcDbDictionary
280
     1
281
     1
  3
ACAD_XREC_ROUNDTRIP
360
9AB5
  0
DICTIONARY
  5
9ABC
330
9A54
100
AcDbDictionary
280
     1
281
     1
  3
ACAD_XREC_ROUNDTRIP
360
9ABD
  0
DICTIONARY
  5
9AAE
330
9A4D
100
AcDbDictionary
280
     1
281
     1
  3
ACAD_XREC_ROUNDTRIP
360
9AAF
  0
DICTIONARY
  5
9AB2
330
9A4F
100
AcDbDictionary
280
     1
281
     1
  3
ACAD_XREC_ROUNDTRIP
360
9AB3
  0
DICTIONARY
  5
9ACC
330
9A5C
100
AcDbDictionary
280
     1
281
     1
  3
ACAD_XREC_ROUNDTRIP
360
9ACD
  0
DICTIONARY
  5
9ABA
330
9A53
100
AcDbDictionary
280
     1
281
     1
  3
ACAD_XREC_ROUNDTRIP
360
9ABB
  0
DICTIONARY
  5
9A9E
330
9A45
100
AcDbDictionary
280
     1
281
     1
  3
ACAD_XREC_ROUNDTRIP
360
9A9F
  0
DICTIONARY
  5
9AA0
330
9A46
100
AcDbDictionary
280
     1
281
     1
  3
ACAD_XREC_ROUNDTRIP
360
9AA1
  0
DICTIONARY
  5
9AA2
330
9A47
100
AcDbDictionary
280
     1
281
     1
  3
ACAD_XREC_ROUNDTRIP
360
9AA3
  0
DICTIONARY
  5
9AA4
330
9A48
100
AcDbDictionary
280
     1
281
     1
  3
ACAD_XREC_ROUNDTRIP
360
9AA5
  0
DICTIONARY
  5
9AAC
330
9A4C
100
AcDbDictionary
280
     1
281
     1
  3
ACAD_XREC_ROUNDTRIP
360
9AAD
  0
DICTIONARY
  5
9AC8
330
9A5A
100
AcDbDictionary
280
     1
281
     1
  3
ACAD_XREC_ROUNDTRIP
360
9AC9
  0
DICTIONARY
  5
9AB8
330
9A52
100
AcDbDictionary
280
     1
281
     1
  3
ACAD_XREC_ROUNDTRIP
360
9AB9
  0
DICTIONARY
  5
9ACA
330
9A5B
100
AcDbDictionary
280
     1
281
     1
  3
ACAD_XREC_ROUNDTRIP
360
9ACB
  0
DICTIONARY
  5
9AB0
330
9A4E
100
AcDbDictionary
280
     1
281
     1
  3
ACAD_XREC_ROUNDTRIP
360
9AB1
  0
DICTIONARY
  5
9AC6
330
9A59
100
AcDbDictionary
280
     1
281
     1
  3
ACAD_XREC_ROUNDTRIP
360
9AC7
  0
DICTIONARY
  5
9AC4
330
9A58
100
AcDbDictionary
280
     1
281
     1
  3
ACAD_XREC_ROUNDTRIP
360
9AC5
  0
DICTIONARY
  5
9ABE
330
9A55
100
AcDbDictionary
280
     1
281
     1
  3
ACAD_XREC_ROUNDTRIP
360
9ABF
  0
DICTIONARY
  5
9AC0
330
9A56
100
AcDbDictionary
280
     1
281
     1
  3
ACAD_XREC_ROUNDTRIP
360
9AC1
  0
DICTIONARY
  5
9AB6
330
9A51
100
AcDbDictionary
280
     1
281
     1
  3
ACAD_XREC_ROUNDTRIP
360
9AB7
  0
DICTIONARY
  5
9AAA
330
9A4B
100
AcDbDictionary
280
     1
281
     1
  3
ACAD_XREC_ROUNDTRIP
360
9AAB
  0
DICTIONARY
  5
9AC2
330
9A57
100
AcDbDictionary
280
     1
281
     1
  3
ACAD_XREC_ROUNDTRIP
360
9AC3
  0
XRECORD
  5
9AD3
102
{ACAD_REACTORS
330
9AD2
102
}
330
9AD2
100
AcDbXrecord
280
     1
102
DISPLAYNAME
  1
Imperial24
102
FLAGS
 90
        0
  0
XRECORD
  5
9AD5
102
{ACAD_REACTORS
330
9AD4
102
}
330
9AD4
100
AcDbXrecord
280
     1
102
SHADEPLOT
 70
     0
102
SHADEPLOTRESLEVEL
 70
     2
102
SHADEPLOTCUSTOMDPI
 70
   300
  0
XRECORD
  5
9AD7
102
{ACAD_REACTORS
330
9AD6
102
}
330
9AD6
100
AcDbXrecord
280
     1
102
SHADEPLOT
 70
     0
102
SHADEPLOTRESLEVEL
 70
     2
102
SHADEPLOTCUSTOMDPI
 70
   300
  0
XRECORD
  5
9A9C
102
{ACAD_REACTORS
330
9A35
102
}
330
9A35
100
AcDbXrecord
280
     1
102
MATERIAL
148
0.0
149
0.0
149
0.0
 93
        0
 94
      127
282
     0
 72
     0
 77
     0
171
     0
175
     0
179
     0
273
     0
  0
XRECORD
  5
9A37
102
{ACAD_REACTORS
330
9A35
102
}
330
9A35
100
AcDbXrecord
280
     1
270
     1
271
     1
  0
XRECORD
  5
9A36
102
{ACAD_REACTORS
330
9A35
102
}
330
9A35
100
AcDbXrecord
280
     1
270
     1
271
     1
  0
XRECORD
  5
9A3A
102
{ACAD_REACTORS
330
9A35
102
}
330
9A35
100
AcDbXrecord
280
     1
270
     1
271
     1
  0
XRECORD
  5
9A39
102
{ACAD_REACTORS
330
9A35
102
}
330
9A35
100
AcDbXrecord
280
     1
270
     1
271
     1
  0
XRECORD
  5
9A3B
102
{ACAD_REACTORS
330
9A35
102
}
330
9A35
100
AcDbXrecord
280
     1
270
     1
271
     1
  0
XRECORD
  5
9A38
102
{ACAD_REACTORS
330
9A35
102
}
330
9A35
100
AcDbXrecord
280
     1
270
     1
271
     1
  0
XRECORD
  5
9A9B
102
{ACAD_REACTORS
330
9A2D
102
}
330
9A2D
100
AcDbXrecord
280
     1
102
MATERIAL
148
0.0
149
0.0
149
0.0
 93
        0
 94
      127
282
     0
 72
     0
 77
     0
171
     0
175
     0
179
     0
273
     0
  0
XRECORD
  5
9A2F
102
{ACAD_REACTORS
330
9A2D
102
}
330
9A2D
100
AcDbXrecord
280
     1
270
     1
271
     1
  0
XRECORD
  5
9A2E
102
{ACAD_REACTORS
330
9A2D
102
}
330
9A2D
100
AcDbXrecord
280
     1
270
     1
271
     1
  0
XRECORD
  5
9A32
102
{ACAD_REACTORS
330
9A2D
102
}
330
9A2D
100
AcDbXrecord
280
     1
270
     1
271
     1
  0
XRECORD
  5
9A31
102
{ACAD_REACTORS
330
9A2D
102
}
330
9A2D
100
AcDbXrecord
280
     1
270
     1
271
     1
  0
XRECORD
  5
9A33
102
{ACAD_REACTORS
330
9A2D
102
}
330
9A2D
100
AcDbXrecord
280
     1
270
     1
271
     1
  0
XRECORD
  5
9A30
102
{ACAD_REACTORS
330
9A2D
102
}
330
9A2D
100
AcDbXrecord
280
     1
270
     1
271
     1
  0
XRECORD
  5
9A9D
102
{ACAD_REACTORS
330
9A3D
102
}
330
9A3D
100
AcDbXrecord
280
     1
102
MATERIAL
148
0.0
149
0.0
149
0.0
 93
        0
 94
      127
282
     0
 72
     0
 77
     0
171
     0
175
     0
179
     0
273
     0
  0
XRECORD
  5
9A3F
102
{ACAD_REACTORS
330
9A3D
102
}
330
9A3D
100
AcDbXrecord
280
     1
270
     1
271
     1
  0
XRECORD
  5
9A3E
102
{ACAD_REACTORS
330
9A3D
102
}
330
9A3D
100
AcDbXrecord
280
     1
270
     1
271
     1
  0
XRECORD
  5
9A42
102
{ACAD_REACTORS
330
9A3D
102
}
330
9A3D
100
AcDbXrecord
280
     1
270
     1
271
     1
  0
XRECORD
  5
9A41
102
{ACAD_REACTORS
330
9A3D
102
}
330
9A3D
100
AcDbXrecord
280
     1
270
     1
271
     1
  0
XRECORD
  5
9A43
102
{ACAD_REACTORS
330
9A3D
102
}
330
9A3D
100
AcDbXrecord
280
     1
270
     1
271
     1
  0
XRECORD
  5
9A40
102
{ACAD_REACTORS
330
9A3D
102
}
330
9A3D
100
AcDbXrecord
280
     1
270
     1
271
     1
  0
XRECORD
  5
9AD1
102
{ACAD_REACTORS
330
9AD0
102
}
330
9AD0
100
AcDbXrecord
280
     1
102
DISPLAYNAME
  1
Imperial24
102
FLAGS
 90
        0
  0
CELLSTYLEMAP
  5
9A98
102
{ACAD_REACTORS
330
9A97
102
}
330
9A97
100
AcDbCellStyleMap
 90
        3
300
CELLSTYLE
  1
TABLEFORMAT_BEGIN
 90
        5
170
     1
 91
        0
 92
    32768
 62
   257
 93
        1
300
CONTENTFORMAT
  1
CONTENTFORMAT_BEGIN
 90
        0
 91
        0
 92
      512
 93
        0
300

 40
0.0
140
1.0
 94
        5
 62
     0
340
975B
144
0.25
309
CONTENTFORMAT_END
171
     0
 94
        0
309
TABLEFORMAT_END
  1
CELLSTYLE_BEGIN
 90
        1
 91
        1
300
_TITLE
309
CELLSTYLE_END
300
CELLSTYLE
  1
TABLEFORMAT_BEGIN
 90
        5
170
     1
 91
        0
 92
        0
 62
   257
 93
        1
300
CONTENTFORMAT
  1
CONTENTFORMAT_BEGIN
 90
        0
 91
        0
 92
      512
 93
        0
300

 40
0.0
140
1.0
 94
        5
 62
     0
340
975B
144
0.18
309
CONTENTFORMAT_END
171
     0
 94
        0
309
TABLEFORMAT_END
  1
CELLSTYLE_BEGIN
 90
        2
 91
        1
300
_HEADER
309
CELLSTYLE_END
300
CELLSTYLE
  1
TABLEFORMAT_BEGIN
 90
        5
170
     1
 91
        0
 92
        0
 62
   257
 93
        1
300
CONTENTFORMAT
  1
CONTENTFORMAT_BEGIN
 90
        0
 91
        0
 92
      512
 93
        0
300

 40
0.0
140
1.0
 94
        2
 62
     0
340
975B
144
0.18
309
CONTENTFORMAT_END
171
     0
 94
        0
309
TABLEFORMAT_END
  1
CELLSTYLE_BEGIN
 90
        3
 91
        2
300
_DATA
309
CELLSTYLE_END
  0
XRECORD
  5
9ACE
102
{ACAD_REACTORS
330
9A97
102
}
330
9A97
100
AcDbXrecord
280
     1
102
ACAD_ROUNDTRIP_PRE2007_TABLESTYLE
 90
      512
 91
        0
  1

 92
      512
 93
        0
  2

 94
      512
 95
        0
  3

  0
XRECORD
  5
9AA9
102
{ACAD_REACTORS
330
9AA8
102
}
330
9AA8
100
AcDbXrecord
280
     1
102
RTVSPost2010Prop28
280
     1
102
RTVSPost2010PropOp28
 70
     1
102
RTVSPost2010Prop29
280
     1
102
RTVSPost2010PropOp29
 70
     1
102
RTVSPost2010Prop30
280
     0
102
RTVSPost2010PropOp30
 70
     1
102
RTVSPost2010Prop31
280
     0
102
RTVSPost2010PropOp31
 70
     1
102
RTVSPost2010Prop32
280
     0
102
RTVSPost2010PropOp32
 70
     1
102
RTVSPost2010Prop33
280
     0
102
RTVSPost2010PropOp33
 70
     1
102
RTVSPost2010Prop34
280
     0
102
RTVSPost2010PropOp34
 70
     1
102
RTVSPost2010Prop35
280
     0
102
RTVSPost2010PropOp35
 70
     1
102
RTVSPost2010Prop36
280
     0
102
RTVSPost2010PropOp36
 70
     1
102
RTVSPost2010Prop37
 90
       50
102
RTVSPost2010PropOp37
 70
     1
102
RTVSPost2010Prop38
140
0.0
102
RTVSPost2010PropOp38
 70
     1
102
RTVSPost2010Prop39
140
1.0
102
RTVSPost2010PropOp39
 70
     1
102
RTVSPost2010Prop40
 90
        0
102
RTVSPost2010PropOp40
 70
     1
102
RTVSPost2010Prop41ColorIndex
 90
       18
102
RTVSPost2010Prop41ColorRGB
 90
        0
102
RTVSPost2010PropOp41
 70
     1
102
RTVSPost2010Prop42
 90
       50
102
RTVSPost2010PropOp42
 70
     1
102
RTVSPost2010Prop43
 90
        3
102
RTVSPost2010PropOp43
 70
     1
102
RTVSPost2010Prop44ColorIndex
 90
        5
102
RTVSPost2010Prop44ColorRGB
 90
      255
102
RTVSPost2010PropOp44
 70
     1
102
RTVSPost2010Prop45
280
     0
102
RTVSPost2010PropOp45
 70
     1
102
RTVSPost2010Prop46
 90
       50
102
RTVSPost2010PropOp46
 70
     1
102
RTVSPost2010Prop47
 90
       50
102
RTVSPost2010PropOp47
 70
     1
102
RTVSPost2010Prop48
 90
       50
102
RTVSPost2010PropOp48
 70
     1
102
RTVSPost2010Prop49
280
     0
102
RTVSPost2010PropOp49
 70
     1
102
RTVSPost2010Prop50
 90
       50
102
RTVSPost2010PropOp50
 70
     1
102
RTVSPost2010Prop51ColorIndex
 90
      256
102
RTVSPost2010Prop51ColorRGB
 90
-16777216
102
RTVSPost2010PropOp51
 70
     0
102
RTVSPost2010Prop52
140
1.0
102
RTVSPost2010PropOp52
 70
     0
102
RTVSPost2010Prop53
 90
        2
102
RTVSPost2010PropOp53
 70
     1
102
RTVSPost2010Prop54
  1
strokes_ogs.tif
102
RTVSPost2010PropOp54
 70
     1
102
RTVSPost2010Prop55
280
     0
102
RTVSPost2010PropOp55
 70
     1
102
RTVSPost2010Prop56
140
1.0
102
RTVSPost2010PropOp56
 70
     1
102
RTVSPost2010Prop57
140
1.0
102
RTVSPost2010PropOp57
 70
     1
102
RTVSPropertyOp0
 70
     1
102
RTVSPropertyOp1
 70
     1
102
RTVSPropertyOp2
 70
     1
102
RTVSPropertyOp3
 70
     1
102
RTVSPropertyOp4
 70
     1
102
RTVSPropertyOp5
 70
     1
102
RTVSPropertyOp6
 70
     1
102
RTVSPropertyOp7
 70
     1
102
RTVSPropertyOp8
 70
     1
102
RTVSPropertyOp9
 70
     1
102
RTVSPropertyOp10
 70
     1
102
RTVSPropertyOp11
 70
     1
102
RTVSPropertyOp12
 70
     1
102
RTVSPropertyOp13
 70
     1
102
RTVSPropertyOp14
 70
     1
102
RTVSPropertyOp15
 70
     1
102
RTVSPropertyOp16
 70
     1
102
RTVSPropertyOp17
 70
     1
102
RTVSPropertyOp18
 70
     1
102
RTVSPropertyOp19
 70
     1
102
RTVSPropertyOp20
 70
     1
102
RTVSPropertyOp21
 70
     1
102
RTVSPropertyOp22
 70
     1
102
RTVSPropertyOp23
 70
     1
102
RTVSPropertyOp24
 70
     1
102
RTVSPropertyOp25
 70
     1
102
RTVSPropertyOp26
 70
     1
102
RTVSPropertyOp27
 70
     1
102
RTVSPropertyOp28
 70
     1
102
RTVSPropertyOp29
 70
     1
102
RTVSPropertyOp30
 70
     1
102
RTVSPropertyOp31
 70
     1
102
RTVSPropertyOp32
 70
     1
102
RTVSPropertyOp33
 70
     1
102
RTVSPropertyOp34
 70
     1
102
RTVSPropertyOp35
 70
     1
102
RTVSPropertyOp36
 70
     1
102
RTVSPropertyOp37
 70
     1
102
RTVSPropertyOp38
 70
     1
102
RTVSPropertyOp39
 70
     1
102
RTVSPropertyOp40
 70
     1
102
RTVSPropertyOp41
 70
     1
102
RTVSPropertyOp42
 70
     1
102
RTVSPropertyOp43
 70
     1
102
RTVSPropertyOp44
 70
     1
102
RTVSPropertyOp45
 70
     1
102
RTVSPropertyOp46
 70
     1
102
RTVSPropertyOp47
 70
     1
102
RTVSPropertyOp48
 70
     1
102
RTVSPropertyOp49
 70
     1
102
RTVSPropertyOp50
 70
     1
102
RTVSPropertyOp51
 70
     0
102
RTVSPropertyOp52
 70
     0
102
RTVSPropertyOp53
 70
     1
102
RTVSPropertyOp54
 70
     1
102
RTVSPropertyOp55
 70
     1
102
RTVSPropertyOp56
 70
     1
102
RTVSPropertyOp57
 70
     1
102
RTVSPropertyOp58
 70
     1
102
RTVSPropertyOp59
 70
     1
102
RTVSPropertyOp60
 70
     1
102
RTVSPropertyOp61
 70
     1
102
RTVSPropertyOp62
 70
     1
  0
XRECORD
  5
9AA7
102
{ACAD_REACTORS
330
9AA6
102
}
330
9AA6
100
AcDbXrecord
280
     1
102
RTVSPost2010Prop28
280
     0
102
RTVSPost2010PropOp28
 70
     1
102
RTVSPost2010Prop29
280
     1
102
RTVSPost2010PropOp29
 70
     1
102
RTVSPost2010Prop30
280
     1
102
RTVSPost2010PropOp30
 70
     1
102
RTVSPost2010Prop31
280
     0
102
RTVSPost2010PropOp31
 70
     1
102
RTVSPost2010Prop32
280
     0
102
RTVSPost2010PropOp32
 70
     1
102
RTVSPost2010Prop33
280
     0
102
RTVSPost2010PropOp33
 70
     1
102
RTVSPost2010Prop34
280
     0
102
RTVSPost2010PropOp34
 70
     1
102
RTVSPost2010Prop35
280
     0
102
RTVSPost2010PropOp35
 70
     1
102
RTVSPost2010Prop36
280
     0
102
RTVSPost2010PropOp36
 70
     1
102
RTVSPost2010Prop37
 90
       50
102
RTVSPost2010PropOp37
 70
     1
102
RTVSPost2010Prop38
140
0.0
102
RTVSPost2010PropOp38
 70
     1
102
RTVSPost2010Prop39
140
1.0
102
RTVSPost2010PropOp39
 70
     1
102
RTVSPost2010Prop40
 90
        0
102
RTVSPost2010PropOp40
 70
     1
102
RTVSPost2010Prop41ColorIndex
 90
       18
102
RTVSPost2010Prop41ColorRGB
 90
        0
102
RTVSPost2010PropOp41
 70
     1
102
RTVSPost2010Prop42
 90
       50
102
RTVSPost2010PropOp42
 70
     1
102
RTVSPost2010Prop43
 90
        3
102
RTVSPost2010PropOp43
 70
     1
102
RTVSPost2010Prop44ColorIndex
 90
        5
102
RTVSPost2010Prop44ColorRGB
 90
      255
102
RTVSPost2010PropOp44
 70
     1
102
RTVSPost2010Prop45
280
     0
102
RTVSPost2010PropOp45
 70
     1
102
RTVSPost2010Prop46
 90
       50
102
RTVSPost2010PropOp46
 70
     1
102
RTVSPost2010Prop47
 90
       50
102
RTVSPost2010PropOp47
 70
     1
102
RTVSPost2010Prop48
 90
       50
102
RTVSPost2010PropOp48
 70
     1
102
RTVSPost2010Prop49
280
     0
102
RTVSPost2010PropOp49
 70
     1
102
RTVSPost2010Prop50
 90
       50
102
RTVSPost2010PropOp50
 70
     1
102
RTVSPost2010Prop51ColorIndex
 90
      256
102
RTVSPost2010Prop51ColorRGB
 90
-16777216
102
RTVSPost2010PropOp51
 70
     0
102
RTVSPost2010Prop52
140
1.0
102
RTVSPost2010PropOp52
 70
     0
102
RTVSPost2010Prop53
 90
        2
102
RTVSPost2010PropOp53
 70
     1
102
RTVSPost2010Prop54
  1
strokes_ogs.tif
102
RTVSPost2010PropOp54
 70
     1
102
RTVSPost2010Prop55
280
     0
102
RTVSPost2010PropOp55
 70
     1
102
RTVSPost2010Prop56
140
1.0
102
RTVSPost2010PropOp56
 70
     1
102
RTVSPost2010Prop57
140
1.0
102
RTVSPost2010PropOp57
 70
     1
102
RTVSPropertyOp0
 70
     1
102
RTVSPropertyOp1
 70
     1
102
RTVSPropertyOp2
 70
     1
102
RTVSPropertyOp3
 70
     1
102
RTVSPropertyOp4
 70
     1
102
RTVSPropertyOp5
 70
     1
102
RTVSPropertyOp6
 70
     1
102
RTVSPropertyOp7
 70
     1
102
RTVSPropertyOp8
 70
     1
102
RTVSPropertyOp9
 70
     1
102
RTVSPropertyOp10
 70
     1
102
RTVSPropertyOp11
 70
     1
102
RTVSPropertyOp12
 70
     1
102
RTVSPropertyOp13
 70
     1
102
RTVSPropertyOp14
 70
     1
102
RTVSPropertyOp15
 70
     1
102
RTVSPropertyOp16
 70
     1
102
RTVSPropertyOp17
 70
     1
102
RTVSPropertyOp18
 70
     1
102
RTVSPropertyOp19
 70
     1
102
RTVSPropertyOp20
 70
     1
102
RTVSPropertyOp21
 70
     1
102
RTVSPropertyOp22
 70
     1
102
RTVSPropertyOp23
 70
     1
102
RTVSPropertyOp24
 70
     1
102
RTVSPropertyOp25
 70
     1
102
RTVSPropertyOp26
 70
     1
102
RTVSPropertyOp27
 70
     1
102
RTVSPropertyOp28
 70
     1
102
RTVSPropertyOp29
 70
     1
102
RTVSPropertyOp30
 70
     1
102
RTVSPropertyOp31
 70
     1
102
RTVSPropertyOp32
 70
     1
102
RTVSPropertyOp33
 70
     1
102
RTVSPropertyOp34
 70
     1
102
RTVSPropertyOp35
 70
     1
102
RTVSPropertyOp36
 70
     1
102
RTVSPropertyOp37
 70
     1
102
RTVSPropertyOp38
 70
     1
102
RTVSPropertyOp39
 70
     1
102
RTVSPropertyOp40
 70
     1
102
RTVSPropertyOp41
 70
     1
102
RTVSPropertyOp42
 70
     1
102
RTVSPropertyOp43
 70
     1
102
RTVSPropertyOp44
 70
     1
102
RTVSPropertyOp45
 70
     1
102
RTVSPropertyOp46
 70
     1
102
RTVSPropertyOp47
 70
     1
102
RTVSPropertyOp48
 70
     1
102
RTVSPropertyOp49
 70
     1
102
RTVSPropertyOp50
 70
     1
102
RTVSPropertyOp51
 70
     0
102
RTVSPropertyOp52
 70
     0
102
RTVSPropertyOp53
 70
     1
102
RTVSPropertyOp54
 70
     1
102
RTVSPropertyOp55
 70
     1
102
RTVSPropertyOp56
 70
     1
102
RTVSPropertyOp57
 70
     1
102
RTVSPropertyOp58
 70
     1
102
RTVSPropertyOp59
 70
     1
102
RTVSPropertyOp60
 70
     1
102
RTVSPropertyOp61
 70
     1
102
RTVSPropertyOp62
 70
     1
  0
XRECORD
  5
9AB5
102
{ACAD_REACTORS
330
9AB4
102
}
330
9AB4
100
AcDbXrecord
280
     1
102
RTVSPost2010Prop28
280
     0
102
RTVSPost2010PropOp28
 70
     1
102
RTVSPost2010Prop29
280
     1
102
RTVSPost2010PropOp29
 70
     1
102
RTVSPost2010Prop30
280
     1
102
RTVSPost2010PropOp30
 70
     1
102
RTVSPost2010Prop31
280
     0
102
RTVSPost2010PropOp31
 70
     1
102
RTVSPost2010Prop32
280
     0
102
RTVSPost2010PropOp32
 70
     1
102
RTVSPost2010Prop33
280
     0
102
RTVSPost2010PropOp33
 70
     1
102
RTVSPost2010Prop34
280
     0
102
RTVSPost2010PropOp34
 70
     1
102
RTVSPost2010Prop35
280
     0
102
RTVSPost2010PropOp35
 70
     1
102
RTVSPost2010Prop36
280
     0
102
RTVSPost2010PropOp36
 70
     1
102
RTVSPost2010Prop37
 90
       50
102
RTVSPost2010PropOp37
 70
     1
102
RTVSPost2010Prop38
140
0.0
102
RTVSPost2010PropOp38
 70
     1
102
RTVSPost2010Prop39
140
1.0
102
RTVSPost2010PropOp39
 70
     1
102
RTVSPost2010Prop40
 90
        0
102
RTVSPost2010PropOp40
 70
     1
102
RTVSPost2010Prop41ColorIndex
 90
       18
102
RTVSPost2010Prop41ColorRGB
 90
        0
102
RTVSPost2010PropOp41
 70
     1
102
RTVSPost2010Prop42
 90
       50
102
RTVSPost2010PropOp42
 70
     1
102
RTVSPost2010Prop43
 90
        3
102
RTVSPost2010PropOp43
 70
     1
102
RTVSPost2010Prop44ColorIndex
 90
        5
102
RTVSPost2010Prop44ColorRGB
 90
      255
102
RTVSPost2010PropOp44
 70
     1
102
RTVSPost2010Prop45
280
     0
102
RTVSPost2010PropOp45
 70
     1
102
RTVSPost2010Prop46
 90
       50
102
RTVSPost2010PropOp46
 70
     1
102
RTVSPost2010Prop47
 90
       50
102
RTVSPost2010PropOp47
 70
     1
102
RTVSPost2010Prop48
 90
       50
102
RTVSPost2010PropOp48
 70
     1
102
RTVSPost2010Prop49
280
     0
102
RTVSPost2010PropOp49
 70
     1
102
RTVSPost2010Prop50
 90
       50
102
RTVSPost2010PropOp50
 70
     1
102
RTVSPost2010Prop51ColorIndex
 90
      256
102
RTVSPost2010Prop51ColorRGB
 90
-16777216
102
RTVSPost2010PropOp51
 70
     0
102
RTVSPost2010Prop52
140
1.0
102
RTVSPost2010PropOp52
 70
     0
102
RTVSPost2010Prop53
 90
        2
102
RTVSPost2010PropOp53
 70
     1
102
RTVSPost2010Prop54
  1
strokes_ogs.tif
102
RTVSPost2010PropOp54
 70
     1
102
RTVSPost2010Prop55
280
     0
102
RTVSPost2010PropOp55
 70
     1
102
RTVSPost2010Prop56
140
1.0
102
RTVSPost2010PropOp56
 70
     1
102
RTVSPost2010Prop57
140
1.0
102
RTVSPost2010PropOp57
 70
     1
102
RTVSPropertyOp0
 70
     1
102
RTVSPropertyOp1
 70
     1
102
RTVSPropertyOp2
 70
     1
102
RTVSPropertyOp3
 70
     1
102
RTVSPropertyOp4
 70
     1
102
RTVSPropertyOp5
 70
     1
102
RTVSPropertyOp6
 70
     1
102
RTVSPropertyOp7
 70
     1
102
RTVSPropertyOp8
 70
     1
102
RTVSPropertyOp9
 70
     1
102
RTVSPropertyOp10
 70
     1
102
RTVSPropertyOp11
 70
     1
102
RTVSPropertyOp12
 70
     1
102
RTVSPropertyOp13
 70
     1
102
RTVSPropertyOp14
 70
     1
102
RTVSPropertyOp15
 70
     1
102
RTVSPropertyOp16
 70
     1
102
RTVSPropertyOp17
 70
     1
102
RTVSPropertyOp18
 70
     1
102
RTVSPropertyOp19
 70
     1
102
RTVSPropertyOp20
 70
     1
102
RTVSPropertyOp21
 70
     1
102
RTVSPropertyOp22
 70
     1
102
RTVSPropertyOp23
 70
     1
102
RTVSPropertyOp24
 70
     1
102
RTVSPropertyOp25
 70
     1
102
RTVSPropertyOp26
 70
     1
102
RTVSPropertyOp27
 70
     1
102
RTVSPropertyOp28
 70
     1
102
RTVSPropertyOp29
 70
     1
102
RTVSPropertyOp30
 70
     1
102
RTVSPropertyOp31
 70
     1
102
RTVSPropertyOp32
 70
     1
102
RTVSPropertyOp33
 70
     1
102
RTVSPropertyOp34
 70
     1
102
RTVSPropertyOp35
 70
     1
102
RTVSPropertyOp36
 70
     1
102
RTVSPropertyOp37
 70
     1
102
RTVSPropertyOp38
 70
     1
102
RTVSPropertyOp39
 70
     1
102
RTVSPropertyOp40
 70
     1
102
RTVSPropertyOp41
 70
     1
102
RTVSPropertyOp42
 70
     1
102
RTVSPropertyOp43
 70
     1
102
RTVSPropertyOp44
 70
     1
102
RTVSPropertyOp45
 70
     1
102
RTVSPropertyOp46
 70
     1
102
RTVSPropertyOp47
 70
     1
102
RTVSPropertyOp48
 70
     1
102
RTVSPropertyOp49
 70
     1
102
RTVSPropertyOp50
 70
     1
102
RTVSPropertyOp51
 70
     0
102
RTVSPropertyOp52
 70
     0
102
RTVSPropertyOp53
 70
     1
102
RTVSPropertyOp54
 70
     1
102
RTVSPropertyOp55
 70
     1
102
RTVSPropertyOp56
 70
     1
102
RTVSPropertyOp57
 70
     1
102
RTVSPropertyOp58
 70
     1
102
RTVSPropertyOp59
 70
     1
102
RTVSPropertyOp60
 70
     1
102
RTVSPropertyOp61
 70
     1
102
RTVSPropertyOp62
 70
     1
  0
XRECORD
  5
9ABD
102
{ACAD_REACTORS
330
9ABC
102
}
330
9ABC
100
AcDbXrecord
280
     1
102
RTVSPost2010Prop28
280
     0
102
RTVSPost2010PropOp28
 70
     1
102
RTVSPost2010Prop29
280
     1
102
RTVSPost2010PropOp29
 70
     1
102
RTVSPost2010Prop30
280
     1
102
RTVSPost2010PropOp30
 70
     1
102
RTVSPost2010Prop31
280
     0
102
RTVSPost2010PropOp31
 70
     1
102
RTVSPost2010Prop32
280
     0
102
RTVSPost2010PropOp32
 70
     1
102
RTVSPost2010Prop33
280
     0
102
RTVSPost2010PropOp33
 70
     1
102
RTVSPost2010Prop34
280
     0
102
RTVSPost2010PropOp34
 70
     1
102
RTVSPost2010Prop35
280
     0
102
RTVSPost2010PropOp35
 70
     1
102
RTVSPost2010Prop36
280
     0
102
RTVSPost2010PropOp36
 70
     1
102
RTVSPost2010Prop37
 90
       50
102
RTVSPost2010PropOp37
 70
     1
102
RTVSPost2010Prop38
140
0.0
102
RTVSPost2010PropOp38
 70
     1
102
RTVSPost2010Prop39
140
1.0
102
RTVSPost2010PropOp39
 70
     1
102
RTVSPost2010Prop40
 90
        0
102
RTVSPost2010PropOp40
 70
     1
102
RTVSPost2010Prop41ColorIndex
 90
       18
102
RTVSPost2010Prop41ColorRGB
 90
        0
102
RTVSPost2010PropOp41
 70
     1
102
RTVSPost2010Prop42
 90
       50
102
RTVSPost2010PropOp42
 70
     1
102
RTVSPost2010Prop43
 90
        3
102
RTVSPost2010PropOp43
 70
     1
102
RTVSPost2010Prop44ColorIndex
 90
        5
102
RTVSPost2010Prop44ColorRGB
 90
      255
102
RTVSPost2010PropOp44
 70
     1
102
RTVSPost2010Prop45
280
     0
102
RTVSPost2010PropOp45
 70
     1
102
RTVSPost2010Prop46
 90
       50
102
RTVSPost2010PropOp46
 70
     1
102
RTVSPost2010Prop47
 90
       50
102
RTVSPost2010PropOp47
 70
     1
102
RTVSPost2010Prop48
 90
       50
102
RTVSPost2010PropOp48
 70
     1
102
RTVSPost2010Prop49
280
     0
102
RTVSPost2010PropOp49
 70
     1
102
RTVSPost2010Prop50
 90
       50
102
RTVSPost2010PropOp50
 70
     1
102
RTVSPost2010Prop51ColorIndex
 90
      256
102
RTVSPost2010Prop51ColorRGB
 90
-16777216
102
RTVSPost2010PropOp51
 70
     0
102
RTVSPost2010Prop52
140
1.0
102
RTVSPost2010PropOp52
 70
     0
102
RTVSPost2010Prop53
 90
        2
102
RTVSPost2010PropOp53
 70
     1
102
RTVSPost2010Prop54
  1
strokes_ogs.tif
102
RTVSPost2010PropOp54
 70
     1
102
RTVSPost2010Prop55
280
     0
102
RTVSPost2010PropOp55
 70
     1
102
RTVSPost2010Prop56
140
1.0
102
RTVSPost2010PropOp56
 70
     1
102
RTVSPost2010Prop57
140
1.0
102
RTVSPost2010PropOp57
 70
     1
102
RTVSPropertyOp0
 70
     1
102
RTVSPropertyOp1
 70
     1
102
RTVSPropertyOp2
 70
     1
102
RTVSPropertyOp3
 70
     1
102
RTVSPropertyOp4
 70
     1
102
RTVSPropertyOp5
 70
     1
102
RTVSPropertyOp6
 70
     1
102
RTVSPropertyOp7
 70
     1
102
RTVSPropertyOp8
 70
     1
102
RTVSPropertyOp9
 70
     1
102
RTVSPropertyOp10
 70
     1
102
RTVSPropertyOp11
 70
     1
102
RTVSPropertyOp12
 70
     1
102
RTVSPropertyOp13
 70
     1
102
RTVSPropertyOp14
 70
     1
102
RTVSPropertyOp15
 70
     1
102
RTVSPropertyOp16
 70
     1
102
RTVSPropertyOp17
 70
     1
102
RTVSPropertyOp18
 70
     1
102
RTVSPropertyOp19
 70
     1
102
RTVSPropertyOp20
 70
     1
102
RTVSPropertyOp21
 70
     1
102
RTVSPropertyOp22
 70
     1
102
RTVSPropertyOp23
 70
     1
102
RTVSPropertyOp24
 70
     1
102
RTVSPropertyOp25
 70
     1
102
RTVSPropertyOp26
 70
     1
102
RTVSPropertyOp27
 70
     1
102
RTVSPropertyOp28
 70
     1
102
RTVSPropertyOp29
 70
     1
102
RTVSPropertyOp30
 70
     1
102
RTVSPropertyOp31
 70
     1
102
RTVSPropertyOp32
 70
     1
102
RTVSPropertyOp33
 70
     1
102
RTVSPropertyOp34
 70
     1
102
RTVSPropertyOp35
 70
     1
102
RTVSPropertyOp36
 70
     1
102
RTVSPropertyOp37
 70
     1
102
RTVSPropertyOp38
 70
     1
102
RTVSPropertyOp39
 70
     1
102
RTVSPropertyOp40
 70
     1
102
RTVSPropertyOp41
 70
     1
102
RTVSPropertyOp42
 70
     1
102
RTVSPropertyOp43
 70
     1
102
RTVSPropertyOp44
 70
     1
102
RTVSPropertyOp45
 70
     1
102
RTVSPropertyOp46
 70
     1
102
RTVSPropertyOp47
 70
     1
102
RTVSPropertyOp48
 70
     1
102
RTVSPropertyOp49
 70
     1
102
RTVSPropertyOp50
 70
     1
102
RTVSPropertyOp51
 70
     0
102
RTVSPropertyOp52
 70
     0
102
RTVSPropertyOp53
 70
     1
102
RTVSPropertyOp54
 70
     1
102
RTVSPropertyOp55
 70
     1
102
RTVSPropertyOp56
 70
     1
102
RTVSPropertyOp57
 70
     1
102
RTVSPropertyOp58
 70
     1
102
RTVSPropertyOp59
 70
     1
102
RTVSPropertyOp60
 70
     1
102
RTVSPropertyOp61
 70
     1
102
RTVSPropertyOp62
 70
     1
  0
XRECORD
  5
9AAF
102
{ACAD_REACTORS
330
9AAE
102
}
330
9AAE
100
AcDbXrecord
280
     1
102
RTVSPost2010Prop28
280
     0
102
RTVSPost2010PropOp28
 70
     1
102
RTVSPost2010Prop29
280
     1
102
RTVSPost2010PropOp29
 70
     1
102
RTVSPost2010Prop30
280
     1
102
RTVSPost2010PropOp30
 70
     1
102
RTVSPost2010Prop31
280
     0
102
RTVSPost2010PropOp31
 70
     1
102
RTVSPost2010Prop32
280
     0
102
RTVSPost2010PropOp32
 70
     1
102
RTVSPost2010Prop33
280
     0
102
RTVSPost2010PropOp33
 70
     1
102
RTVSPost2010Prop34
280
     0
102
RTVSPost2010PropOp34
 70
     1
102
RTVSPost2010Prop35
280
     0
102
RTVSPost2010PropOp35
 70
     1
102
RTVSPost2010Prop36
280
     0
102
RTVSPost2010PropOp36
 70
     1
102
RTVSPost2010Prop37
 90
       50
102
RTVSPost2010PropOp37
 70
     1
102
RTVSPost2010Prop38
140
0.0
102
RTVSPost2010PropOp38
 70
     1
102
RTVSPost2010Prop39
140
1.0
102
RTVSPost2010PropOp39
 70
     1
102
RTVSPost2010Prop40
 90
        0
102
RTVSPost2010PropOp40
 70
     1
102
RTVSPost2010Prop41ColorIndex
 90
       18
102
RTVSPost2010Prop41ColorRGB
 90
        0
102
RTVSPost2010PropOp41
 70
     1
102
RTVSPost2010Prop42
 90
       50
102
RTVSPost2010PropOp42
 70
     1
102
RTVSPost2010Prop43
 90
        3
102
RTVSPost2010PropOp43
 70
     1
102
RTVSPost2010Prop44ColorIndex
 90
        5
102
RTVSPost2010Prop44ColorRGB
 90
      255
102
RTVSPost2010PropOp44
 70
     1
102
RTVSPost2010Prop45
280
     0
102
RTVSPost2010PropOp45
 70
     1
102
RTVSPost2010Prop46
 90
       50
102
RTVSPost2010PropOp46
 70
     1
102
RTVSPost2010Prop47
 90
       50
102
RTVSPost2010PropOp47
 70
     1
102
RTVSPost2010Prop48
 90
       50
102
RTVSPost2010PropOp48
 70
     1
102
RTVSPost2010Prop49
280
     0
102
RTVSPost2010PropOp49
 70
     1
102
RTVSPost2010Prop50
 90
       50
102
RTVSPost2010PropOp50
 70
     1
102
RTVSPost2010Prop51ColorIndex
 90
      256
102
RTVSPost2010Prop51ColorRGB
 90
-16777216
102
RTVSPost2010PropOp51
 70
     0
102
RTVSPost2010Prop52
140
1.0
102
RTVSPost2010PropOp52
 70
     0
102
RTVSPost2010Prop53
 90
        2
102
RTVSPost2010PropOp53
 70
     1
102
RTVSPost2010Prop54
  1
strokes_ogs.tif
102
RTVSPost2010PropOp54
 70
     1
102
RTVSPost2010Prop55
280
     0
102
RTVSPost2010PropOp55
 70
     1
102
RTVSPost2010Prop56
140
1.0
102
RTVSPost2010PropOp56
 70
     1
102
RTVSPost2010Prop57
140
1.0
102
RTVSPost2010PropOp57
 70
     1
102
RTVSPropertyOp0
 70
     1
102
RTVSPropertyOp1
 70
     1
102
RTVSPropertyOp2
 70
     1
102
RTVSPropertyOp3
 70
     1
102
RTVSPropertyOp4
 70
     1
102
RTVSPropertyOp5
 70
     1
102
RTVSPropertyOp6
 70
     1
102
RTVSPropertyOp7
 70
     1
102
RTVSPropertyOp8
 70
     1
102
RTVSPropertyOp9
 70
     1
102
RTVSPropertyOp10
 70
     1
102
RTVSPropertyOp11
 70
     1
102
RTVSPropertyOp12
 70
     1
102
RTVSPropertyOp13
 70
     1
102
RTVSPropertyOp14
 70
     1
102
RTVSPropertyOp15
 70
     1
102
RTVSPropertyOp16
 70
     1
102
RTVSPropertyOp17
 70
     1
102
RTVSPropertyOp18
 70
     1
102
RTVSPropertyOp19
 70
     1
102
RTVSPropertyOp20
 70
     1
102
RTVSPropertyOp21
 70
     1
102
RTVSPropertyOp22
 70
     1
102
RTVSPropertyOp23
 70
     1
102
RTVSPropertyOp24
 70
     1
102
RTVSPropertyOp25
 70
     1
102
RTVSPropertyOp26
 70
     1
102
RTVSPropertyOp27
 70
     1
102
RTVSPropertyOp28
 70
     1
102
RTVSPropertyOp29
 70
     1
102
RTVSPropertyOp30
 70
     1
102
RTVSPropertyOp31
 70
     1
102
RTVSPropertyOp32
 70
     1
102
RTVSPropertyOp33
 70
     1
102
RTVSPropertyOp34
 70
     1
102
RTVSPropertyOp35
 70
     1
102
RTVSPropertyOp36
 70
     1
102
RTVSPropertyOp37
 70
     1
102
RTVSPropertyOp38
 70
     1
102
RTVSPropertyOp39
 70
     1
102
RTVSPropertyOp40
 70
     1
102
RTVSPropertyOp41
 70
     1
102
RTVSPropertyOp42
 70
     1
102
RTVSPropertyOp43
 70
     1
102
RTVSPropertyOp44
 70
     1
102
RTVSPropertyOp45
 70
     1
102
RTVSPropertyOp46
 70
     1
102
RTVSPropertyOp47
 70
     1
102
RTVSPropertyOp48
 70
     1
102
RTVSPropertyOp49
 70
     1
102
RTVSPropertyOp50
 70
     1
102
RTVSPropertyOp51
 70
     0
102
RTVSPropertyOp52
 70
     0
102
RTVSPropertyOp53
 70
     1
102
RTVSPropertyOp54
 70
     1
102
RTVSPropertyOp55
 70
     1
102
RTVSPropertyOp56
 70
     1
102
RTVSPropertyOp57
 70
     1
102
RTVSPropertyOp58
 70
     1
102
RTVSPropertyOp59
 70
     1
102
RTVSPropertyOp60
 70
     1
102
RTVSPropertyOp61
 70
     1
102
RTVSPropertyOp62
 70
     1
  0
XRECORD
  5
9AB3
102
{ACAD_REACTORS
330
9AB2
102
}
330
9AB2
100
AcDbXrecord
280
     1
102
RTVSPost2010Prop28
280
     0
102
RTVSPost2010PropOp28
 70
     1
102
RTVSPost2010Prop29
280
     1
102
RTVSPost2010PropOp29
 70
     1
102
RTVSPost2010Prop30
280
     1
102
RTVSPost2010PropOp30
 70
     1
102
RTVSPost2010Prop31
280
     0
102
RTVSPost2010PropOp31
 70
     1
102
RTVSPost2010Prop32
280
     0
102
RTVSPost2010PropOp32
 70
     1
102
RTVSPost2010Prop33
280
     0
102
RTVSPost2010PropOp33
 70
     1
102
RTVSPost2010Prop34
280
     0
102
RTVSPost2010PropOp34
 70
     1
102
RTVSPost2010Prop35
280
     0
102
RTVSPost2010PropOp35
 70
     1
102
RTVSPost2010Prop36
280
     0
102
RTVSPost2010PropOp36
 70
     1
102
RTVSPost2010Prop37
 90
       50
102
RTVSPost2010PropOp37
 70
     1
102
RTVSPost2010Prop38
140
0.0
102
RTVSPost2010PropOp38
 70
     1
102
RTVSPost2010Prop39
140
1.0
102
RTVSPost2010PropOp39
 70
     1
102
RTVSPost2010Prop40
 90
        0
102
RTVSPost2010PropOp40
 70
     1
102
RTVSPost2010Prop41ColorIndex
 90
       18
102
RTVSPost2010Prop41ColorRGB
 90
        0
102
RTVSPost2010PropOp41
 70
     1
102
RTVSPost2010Prop42
 90
       50
102
RTVSPost2010PropOp42
 70
     1
102
RTVSPost2010Prop43
 90
        3
102
RTVSPost2010PropOp43
 70
     1
102
RTVSPost2010Prop44ColorIndex
 90
        5
102
RTVSPost2010Prop44ColorRGB
 90
      255
102
RTVSPost2010PropOp44
 70
     1
102
RTVSPost2010Prop45
280
     0
102
RTVSPost2010PropOp45
 70
     1
102
RTVSPost2010Prop46
 90
       50
102
RTVSPost2010PropOp46
 70
     1
102
RTVSPost2010Prop47
 90
       50
102
RTVSPost2010PropOp47
 70
     1
102
RTVSPost2010Prop48
 90
       50
102
RTVSPost2010PropOp48
 70
     1
102
RTVSPost2010Prop49
280
     0
102
RTVSPost2010PropOp49
 70
     1
102
RTVSPost2010Prop50
 90
       50
102
RTVSPost2010PropOp50
 70
     1
102
RTVSPost2010Prop51ColorIndex
 90
      256
102
RTVSPost2010Prop51ColorRGB
 90
-16777216
102
RTVSPost2010PropOp51
 70
     0
102
RTVSPost2010Prop52
140
1.0
102
RTVSPost2010PropOp52
 70
     0
102
RTVSPost2010Prop53
 90
        2
102
RTVSPost2010PropOp53
 70
     1
102
RTVSPost2010Prop54
  1
strokes_ogs.tif
102
RTVSPost2010PropOp54
 70
     1
102
RTVSPost2010Prop55
280
     0
102
RTVSPost2010PropOp55
 70
     1
102
RTVSPost2010Prop56
140
1.0
102
RTVSPost2010PropOp56
 70
     1
102
RTVSPost2010Prop57
140
1.0
102
RTVSPost2010PropOp57
 70
     1
102
RTVSPropertyOp0
 70
     1
102
RTVSPropertyOp1
 70
     1
102
RTVSPropertyOp2
 70
     1
102
RTVSPropertyOp3
 70
     1
102
RTVSPropertyOp4
 70
     1
102
RTVSPropertyOp5
 70
     1
102
RTVSPropertyOp6
 70
     1
102
RTVSPropertyOp7
 70
     1
102
RTVSPropertyOp8
 70
     1
102
RTVSPropertyOp9
 70
     1
102
RTVSPropertyOp10
 70
     1
102
RTVSPropertyOp11
 70
     1
102
RTVSPropertyOp12
 70
     1
102
RTVSPropertyOp13
 70
     1
102
RTVSPropertyOp14
 70
     1
102
RTVSPropertyOp15
 70
     1
102
RTVSPropertyOp16
 70
     1
102
RTVSPropertyOp17
 70
     1
102
RTVSPropertyOp18
 70
     1
102
RTVSPropertyOp19
 70
     1
102
RTVSPropertyOp20
 70
     1
102
RTVSPropertyOp21
 70
     1
102
RTVSPropertyOp22
 70
     1
102
RTVSPropertyOp23
 70
     1
102
RTVSPropertyOp24
 70
     1
102
RTVSPropertyOp25
 70
     1
102
RTVSPropertyOp26
 70
     1
102
RTVSPropertyOp27
 70
     1
102
RTVSPropertyOp28
 70
     1
102
RTVSPropertyOp29
 70
     1
102
RTVSPropertyOp30
 70
     1
102
RTVSPropertyOp31
 70
     1
102
RTVSPropertyOp32
 70
     1
102
RTVSPropertyOp33
 70
     1
102
RTVSPropertyOp34
 70
     1
102
RTVSPropertyOp35
 70
     1
102
RTVSPropertyOp36
 70
     1
102
RTVSPropertyOp37
 70
     1
102
RTVSPropertyOp38
 70
     1
102
RTVSPropertyOp39
 70
     1
102
RTVSPropertyOp40
 70
     1
102
RTVSPropertyOp41
 70
     1
102
RTVSPropertyOp42
 70
     1
102
RTVSPropertyOp43
 70
     1
102
RTVSPropertyOp44
 70
     1
102
RTVSPropertyOp45
 70
     1
102
RTVSPropertyOp46
 70
     1
102
RTVSPropertyOp47
 70
     1
102
RTVSPropertyOp48
 70
     1
102
RTVSPropertyOp49
 70
     1
102
RTVSPropertyOp50
 70
     1
102
RTVSPropertyOp51
 70
     0
102
RTVSPropertyOp52
 70
     0
102
RTVSPropertyOp53
 70
     1
102
RTVSPropertyOp54
 70
     1
102
RTVSPropertyOp55
 70
     1
102
RTVSPropertyOp56
 70
     1
102
RTVSPropertyOp57
 70
     1
102
RTVSPropertyOp58
 70
     1
102
RTVSPropertyOp59
 70
     1
102
RTVSPropertyOp60
 70
     1
102
RTVSPropertyOp61
 70
     1
102
RTVSPropertyOp62
 70
     1
  0
XRECORD
  5
9ACD
102
{ACAD_REACTORS
330
9ACC
102
}
330
9ACC
100
AcDbXrecord
280
     1
102
RTVSPost2010Prop28
280
     0
102
RTVSPost2010PropOp28
 70
     1
102
RTVSPost2010Prop29
280
     1
102
RTVSPost2010PropOp29
 70
     1
102
RTVSPost2010Prop30
280
     1
102
RTVSPost2010PropOp30
 70
     1
102
RTVSPost2010Prop31
280
     0
102
RTVSPost2010PropOp31
 70
     1
102
RTVSPost2010Prop32
280
     0
102
RTVSPost2010PropOp32
 70
     1
102
RTVSPost2010Prop33
280
     0
102
RTVSPost2010PropOp33
 70
     1
102
RTVSPost2010Prop34
280
     0
102
RTVSPost2010PropOp34
 70
     1
102
RTVSPost2010Prop35
280
     0
102
RTVSPost2010PropOp35
 70
     1
102
RTVSPost2010Prop36
280
     0
102
RTVSPost2010PropOp36
 70
     1
102
RTVSPost2010Prop37
 90
       50
102
RTVSPost2010PropOp37
 70
     0
102
RTVSPost2010Prop38
140
0.0
102
RTVSPost2010PropOp38
 70
     0
102
RTVSPost2010Prop39
140
1.0
102
RTVSPost2010PropOp39
 70
     0
102
RTVSPost2010Prop40
 90
        0
102
RTVSPost2010PropOp40
 70
     0
102
RTVSPost2010Prop41ColorIndex
 90
       18
102
RTVSPost2010Prop41ColorRGB
 90
        0
102
RTVSPost2010PropOp41
 70
     0
102
RTVSPost2010Prop42
 90
       50
102
RTVSPost2010PropOp42
 70
     0
102
RTVSPost2010Prop43
 90
        3
102
RTVSPost2010PropOp43
 70
     0
102
RTVSPost2010Prop44ColorIndex
 90
        5
102
RTVSPost2010Prop44ColorRGB
 90
      255
102
RTVSPost2010PropOp44
 70
     0
102
RTVSPost2010Prop45
280
     0
102
RTVSPost2010PropOp45
 70
     1
102
RTVSPost2010Prop46
 90
       50
102
RTVSPost2010PropOp46
 70
     0
102
RTVSPost2010Prop47
 90
       50
102
RTVSPost2010PropOp47
 70
     0
102
RTVSPost2010Prop48
 90
       50
102
RTVSPost2010PropOp48
 70
     0
102
RTVSPost2010Prop49
280
     0
102
RTVSPost2010PropOp49
 70
     1
102
RTVSPost2010Prop50
 90
       50
102
RTVSPost2010PropOp50
 70
     0
102
RTVSPost2010Prop51ColorIndex
 90
      256
102
RTVSPost2010Prop51ColorRGB
 90
-16777216
102
RTVSPost2010PropOp51
 70
     0
102
RTVSPost2010Prop52
140
1.0
102
RTVSPost2010PropOp52
 70
     0
102
RTVSPost2010Prop53
 90
        2
102
RTVSPost2010PropOp53
 70
     0
102
RTVSPost2010Prop54
  1
strokes_ogs.tif
102
RTVSPost2010PropOp54
 70
     0
102
RTVSPost2010Prop55
280
     0
102
RTVSPost2010PropOp55
 70
     1
102
RTVSPost2010Prop56
140
1.0
102
RTVSPost2010PropOp56
 70
     0
102
RTVSPost2010Prop57
140
1.0
102
RTVSPost2010PropOp57
 70
     0
102
RTVSPropertyOp0
 70
     0
102
RTVSPropertyOp1
 70
     0
102
RTVSPropertyOp2
 70
     0
102
RTVSPropertyOp3
 70
     0
102
RTVSPropertyOp4
 70
     0
102
RTVSPropertyOp5
 70
     0
102
RTVSPropertyOp6
 70
     0
102
RTVSPropertyOp7
 70
     0
102
RTVSPropertyOp8
 70
     0
102
RTVSPropertyOp9
 70
     0
102
RTVSPropertyOp10
 70
     0
102
RTVSPropertyOp11
 70
     0
102
RTVSPropertyOp12
 70
     0
102
RTVSPropertyOp13
 70
     0
102
RTVSPropertyOp14
 70
     2
102
RTVSPropertyOp15
 70
     0
102
RTVSPropertyOp16
 70
     0
102
RTVSPropertyOp17
 70
     0
102
RTVSPropertyOp18
 70
     0
102
RTVSPropertyOp19
 70
     0
102
RTVSPropertyOp20
 70
     0
102
RTVSPropertyOp21
 70
     0
102
RTVSPropertyOp22
 70
     0
102
RTVSPropertyOp23
 70
     0
102
RTVSPropertyOp24
 70
     0
102
RTVSPropertyOp25
 70
     0
102
RTVSPropertyOp26
 70
     0
102
RTVSPropertyOp27
 70
     0
102
RTVSPropertyOp28
 70
     1
102
RTVSPropertyOp29
 70
     1
102
RTVSPropertyOp30
 70
     1
102
RTVSPropertyOp31
 70
     1
102
RTVSPropertyOp32
 70
     1
102
RTVSPropertyOp33
 70
     1
102
RTVSPropertyOp34
 70
     1
102
RTVSPropertyOp35
 70
     1
102
RTVSPropertyOp36
 70
     1
102
RTVSPropertyOp37
 70
     0
102
RTVSPropertyOp38
 70
     0
102
RTVSPropertyOp39
 70
     0
102
RTVSPropertyOp40
 70
     0
102
RTVSPropertyOp41
 70
     0
102
RTVSPropertyOp42
 70
     0
102
RTVSPropertyOp43
 70
     0
102
RTVSPropertyOp44
 70
     0
102
RTVSPropertyOp45
 70
     1
102
RTVSPropertyOp46
 70
     0
102
RTVSPropertyOp47
 70
     0
102
RTVSPropertyOp48
 70
     0
102
RTVSPropertyOp49
 70
     1
102
RTVSPropertyOp50
 70
     0
102
RTVSPropertyOp51
 70
     0
102
RTVSPropertyOp52
 70
     0
102
RTVSPropertyOp53
 70
     0
102
RTVSPropertyOp54
 70
     0
102
RTVSPropertyOp55
 70
     1
102
RTVSPropertyOp56
 70
     0
102
RTVSPropertyOp57
 70
     0
102
RTVSPropertyOp58
 70
     0
102
RTVSPropertyOp59
 70
     0
102
RTVSPropertyOp60
 70
     0
102
RTVSPropertyOp61
 70
     0
102
RTVSPropertyOp62
 70
     0
  0
XRECORD
  5
9ABB
102
{ACAD_REACTORS
330
9ABA
102
}
330
9ABA
100
AcDbXrecord
280
     1
102
RTVSPost2010Prop28
280
     0
102
RTVSPost2010PropOp28
 70
     1
102
RTVSPost2010Prop29
280
     1
102
RTVSPost2010PropOp29
 70
     1
102
RTVSPost2010Prop30
280
     1
102
RTVSPost2010PropOp30
 70
     1
102
RTVSPost2010Prop31
280
     0
102
RTVSPost2010PropOp31
 70
     1
102
RTVSPost2010Prop32
280
     0
102
RTVSPost2010PropOp32
 70
     1
102
RTVSPost2010Prop33
280
     0
102
RTVSPost2010PropOp33
 70
     1
102
RTVSPost2010Prop34
280
     0
102
RTVSPost2010PropOp34
 70
     1
102
RTVSPost2010Prop35
280
     0
102
RTVSPost2010PropOp35
 70
     1
102
RTVSPost2010Prop36
280
     0
102
RTVSPost2010PropOp36
 70
     1
102
RTVSPost2010Prop37
 90
       50
102
RTVSPost2010PropOp37
 70
     1
102
RTVSPost2010Prop38
140
0.0
102
RTVSPost2010PropOp38
 70
     1
102
RTVSPost2010Prop39
140
1.0
102
RTVSPost2010PropOp39
 70
     1
102
RTVSPost2010Prop40
 90
        0
102
RTVSPost2010PropOp40
 70
     1
102
RTVSPost2010Prop41ColorIndex
 90
       18
102
RTVSPost2010Prop41ColorRGB
 90
        0
102
RTVSPost2010PropOp41
 70
     1
102
RTVSPost2010Prop42
 90
       50
102
RTVSPost2010PropOp42
 70
     1
102
RTVSPost2010Prop43
 90
        3
102
RTVSPost2010PropOp43
 70
     1
102
RTVSPost2010Prop44ColorIndex
 90
        5
102
RTVSPost2010Prop44ColorRGB
 90
      255
102
RTVSPost2010PropOp44
 70
     1
102
RTVSPost2010Prop45
280
     0
102
RTVSPost2010PropOp45
 70
     1
102
RTVSPost2010Prop46
 90
       50
102
RTVSPost2010PropOp46
 70
     1
102
RTVSPost2010Prop47
 90
       50
102
RTVSPost2010PropOp47
 70
     1
102
RTVSPost2010Prop48
 90
       50
102
RTVSPost2010PropOp48
 70
     1
102
RTVSPost2010Prop49
280
     0
102
RTVSPost2010PropOp49
 70
     1
102
RTVSPost2010Prop50
 90
       50
102
RTVSPost2010PropOp50
 70
     1
102
RTVSPost2010Prop51ColorIndex
 90
      256
102
RTVSPost2010Prop51ColorRGB
 90
-16777216
102
RTVSPost2010PropOp51
 70
     0
102
RTVSPost2010Prop52
140
1.0
102
RTVSPost2010PropOp52
 70
     0
102
RTVSPost2010Prop53
 90
        2
102
RTVSPost2010PropOp53
 70
     1
102
RTVSPost2010Prop54
  1
strokes_ogs.tif
102
RTVSPost2010PropOp54
 70
     1
102
RTVSPost2010Prop55
280
     0
102
RTVSPost2010PropOp55
 70
     1
102
RTVSPost2010Prop56
140
1.0
102
RTVSPost2010PropOp56
 70
     1
102
RTVSPost2010Prop57
140
1.0
102
RTVSPost2010PropOp57
 70
     1
102
RTVSPropertyOp0
 70
     1
102
RTVSPropertyOp1
 70
     1
102
RTVSPropertyOp2
 70
     1
102
RTVSPropertyOp3
 70
     1
102
RTVSPropertyOp4
 70
     1
102
RTVSPropertyOp5
 70
     1
102
RTVSPropertyOp6
 70
     1
102
RTVSPropertyOp7
 70
     1
102
RTVSPropertyOp8
 70
     1
102
RTVSPropertyOp9
 70
     1
102
RTVSPropertyOp10
 70
     1
102
RTVSPropertyOp11
 70
     1
102
RTVSPropertyOp12
 70
     1
102
RTVSPropertyOp13
 70
     1
102
RTVSPropertyOp14
 70
     1
102
RTVSPropertyOp15
 70
     1
102
RTVSPropertyOp16
 70
     1
102
RTVSPropertyOp17
 70
     1
102
RTVSPropertyOp18
 70
     1
102
RTVSPropertyOp19
 70
     1
102
RTVSPropertyOp20
 70
     1
102
RTVSPropertyOp21
 70
     1
102
RTVSPropertyOp22
 70
     1
102
RTVSPropertyOp23
 70
     1
102
RTVSPropertyOp24
 70
     1
102
RTVSPropertyOp25
 70
     1
102
RTVSPropertyOp26
 70
     1
102
RTVSPropertyOp27
 70
     1
102
RTVSPropertyOp28
 70
     1
102
RTVSPropertyOp29
 70
     1
102
RTVSPropertyOp30
 70
     1
102
RTVSPropertyOp31
 70
     1
102
RTVSPropertyOp32
 70
     1
102
RTVSPropertyOp33
 70
     1
102
RTVSPropertyOp34
 70
     1
102
RTVSPropertyOp35
 70
     1
102
RTVSPropertyOp36
 70
     1
102
RTVSPropertyOp37
 70
     1
102
RTVSPropertyOp38
 70
     1
102
RTVSPropertyOp39
 70
     1
102
RTVSPropertyOp40
 70
     1
102
RTVSPropertyOp41
 70
     1
102
RTVSPropertyOp42
 70
     1
102
RTVSPropertyOp43
 70
     1
102
RTVSPropertyOp44
 70
     1
102
RTVSPropertyOp45
 70
     1
102
RTVSPropertyOp46
 70
     1
102
RTVSPropertyOp47
 70
     1
102
RTVSPropertyOp48
 70
     1
102
RTVSPropertyOp49
 70
     1
102
RTVSPropertyOp50
 70
     1
102
RTVSPropertyOp51
 70
     0
102
RTVSPropertyOp52
 70
     0
102
RTVSPropertyOp53
 70
     1
102
RTVSPropertyOp54
 70
     1
102
RTVSPropertyOp55
 70
     1
102
RTVSPropertyOp56
 70
     1
102
RTVSPropertyOp57
 70
     1
102
RTVSPropertyOp58
 70
     1
102
RTVSPropertyOp59
 70
     1
102
RTVSPropertyOp60
 70
     1
102
RTVSPropertyOp61
 70
     1
102
RTVSPropertyOp62
 70
     1
  0
XRECORD
  5
9A9F
102
{ACAD_REACTORS
330
9A9E
102
}
330
9A9E
100
AcDbXrecord
280
     1
102
RTVSPost2010Prop28
280
     0
102
RTVSPost2010PropOp28
 70
     1
102
RTVSPost2010Prop29
280
     1
102
RTVSPost2010PropOp29
 70
     1
102
RTVSPost2010Prop30
280
     1
102
RTVSPost2010PropOp30
 70
     1
102
RTVSPost2010Prop31
280
     0
102
RTVSPost2010PropOp31
 70
     1
102
RTVSPost2010Prop32
280
     0
102
RTVSPost2010PropOp32
 70
     1
102
RTVSPost2010Prop33
280
     0
102
RTVSPost2010PropOp33
 70
     1
102
RTVSPost2010Prop34
280
     0
102
RTVSPost2010PropOp34
 70
     1
102
RTVSPost2010Prop35
280
     0
102
RTVSPost2010PropOp35
 70
     1
102
RTVSPost2010Prop36
280
     0
102
RTVSPost2010PropOp36
 70
     1
102
RTVSPost2010Prop37
 90
       50
102
RTVSPost2010PropOp37
 70
     1
102
RTVSPost2010Prop38
140
0.0
102
RTVSPost2010PropOp38
 70
     1
102
RTVSPost2010Prop39
140
1.0
102
RTVSPost2010PropOp39
 70
     1
102
RTVSPost2010Prop40
 90
        0
102
RTVSPost2010PropOp40
 70
     1
102
RTVSPost2010Prop41ColorIndex
 90
       18
102
RTVSPost2010Prop41ColorRGB
 90
        0
102
RTVSPost2010PropOp41
 70
     1
102
RTVSPost2010Prop42
 90
       50
102
RTVSPost2010PropOp42
 70
     1
102
RTVSPost2010Prop43
 90
        3
102
RTVSPost2010PropOp43
 70
     1
102
RTVSPost2010Prop44ColorIndex
 90
        5
102
RTVSPost2010Prop44ColorRGB
 90
      255
102
RTVSPost2010PropOp44
 70
     1
102
RTVSPost2010Prop45
280
     0
102
RTVSPost2010PropOp45
 70
     1
102
RTVSPost2010Prop46
 90
       50
102
RTVSPost2010PropOp46
 70
     1
102
RTVSPost2010Prop47
 90
       50
102
RTVSPost2010PropOp47
 70
     1
102
RTVSPost2010Prop48
 90
       50
102
RTVSPost2010PropOp48
 70
     1
102
RTVSPost2010Prop49
280
     0
102
RTVSPost2010PropOp49
 70
     1
102
RTVSPost2010Prop50
 90
       50
102
RTVSPost2010PropOp50
 70
     1
102
RTVSPost2010Prop51ColorIndex
 90
      256
102
RTVSPost2010Prop51ColorRGB
 90
-16777216
102
RTVSPost2010PropOp51
 70
     0
102
RTVSPost2010Prop52
140
1.0
102
RTVSPost2010PropOp52
 70
     0
102
RTVSPost2010Prop53
 90
        2
102
RTVSPost2010PropOp53
 70
     1
102
RTVSPost2010Prop54
  1
strokes_ogs.tif
102
RTVSPost2010PropOp54
 70
     1
102
RTVSPost2010Prop55
280
     0
102
RTVSPost2010PropOp55
 70
     1
102
RTVSPost2010Prop56
140
1.0
102
RTVSPost2010PropOp56
 70
     1
102
RTVSPost2010Prop57
140
1.0
102
RTVSPost2010PropOp57
 70
     1
102
RTVSPropertyOp0
 70
     1
102
RTVSPropertyOp1
 70
     1
102
RTVSPropertyOp2
 70
     1
102
RTVSPropertyOp3
 70
     1
102
RTVSPropertyOp4
 70
     1
102
RTVSPropertyOp5
 70
     1
102
RTVSPropertyOp6
 70
     1
102
RTVSPropertyOp7
 70
     1
102
RTVSPropertyOp8
 70
     1
102
RTVSPropertyOp9
 70
     1
102
RTVSPropertyOp10
 70
     1
102
RTVSPropertyOp11
 70
     1
102
RTVSPropertyOp12
 70
     1
102
RTVSPropertyOp13
 70
     1
102
RTVSPropertyOp14
 70
     1
102
RTVSPropertyOp15
 70
     1
102
RTVSPropertyOp16
 70
     1
102
RTVSPropertyOp17
 70
     1
102
RTVSPropertyOp18
 70
     1
102
RTVSPropertyOp19
 70
     1
102
RTVSPropertyOp20
 70
     1
102
RTVSPropertyOp21
 70
     1
102
RTVSPropertyOp22
 70
     1
102
RTVSPropertyOp23
 70
     1
102
RTVSPropertyOp24
 70
     1
102
RTVSPropertyOp25
 70
     1
102
RTVSPropertyOp26
 70
     1
102
RTVSPropertyOp27
 70
     1
102
RTVSPropertyOp28
 70
     1
102
RTVSPropertyOp29
 70
     1
102
RTVSPropertyOp30
 70
     1
102
RTVSPropertyOp31
 70
     1
102
RTVSPropertyOp32
 70
     1
102
RTVSPropertyOp33
 70
     1
102
RTVSPropertyOp34
 70
     1
102
RTVSPropertyOp35
 70
     1
102
RTVSPropertyOp36
 70
     1
102
RTVSPropertyOp37
 70
     1
102
RTVSPropertyOp38
 70
     1
102
RTVSPropertyOp39
 70
     1
102
RTVSPropertyOp40
 70
     1
102
RTVSPropertyOp41
 70
     1
102
RTVSPropertyOp42
 70
     1
102
RTVSPropertyOp43
 70
     1
102
RTVSPropertyOp44
 70
     1
102
RTVSPropertyOp45
 70
     1
102
RTVSPropertyOp46
 70
     1
102
RTVSPropertyOp47
 70
     1
102
RTVSPropertyOp48
 70
     1
102
RTVSPropertyOp49
 70
     1
102
RTVSPropertyOp50
 70
     1
102
RTVSPropertyOp51
 70
     0
102
RTVSPropertyOp52
 70
     0
102
RTVSPropertyOp53
 70
     1
102
RTVSPropertyOp54
 70
     1
102
RTVSPropertyOp55
 70
     1
102
RTVSPropertyOp56
 70
     1
102
RTVSPropertyOp57
 70
     1
102
RTVSPropertyOp58
 70
     1
102
RTVSPropertyOp59
 70
     1
102
RTVSPropertyOp60
 70
     1
102
RTVSPropertyOp61
 70
     1
102
RTVSPropertyOp62
 70
     1
  0
XRECORD
  5
9AA1
102
{ACAD_REACTORS
330
9AA0
102
}
330
9AA0
100
AcDbXrecord
280
     1
102
RTVSPost2010Prop28
280
     0
102
RTVSPost2010PropOp28
 70
     1
102
RTVSPost2010Prop29
280
     1
102
RTVSPost2010PropOp29
 70
     1
102
RTVSPost2010Prop30
280
     1
102
RTVSPost2010PropOp30
 70
     1
102
RTVSPost2010Prop31
280
     0
102
RTVSPost2010PropOp31
 70
     1
102
RTVSPost2010Prop32
280
     0
102
RTVSPost2010PropOp32
 70
     1
102
RTVSPost2010Prop33
280
     0
102
RTVSPost2010PropOp33
 70
     1
102
RTVSPost2010Prop34
280
     0
102
RTVSPost2010PropOp34
 70
     1
102
RTVSPost2010Prop35
280
     0
102
RTVSPost2010PropOp35
 70
     1
102
RTVSPost2010Prop36
280
     0
102
RTVSPost2010PropOp36
 70
     1
102
RTVSPost2010Prop37
 90
       50
102
RTVSPost2010PropOp37
 70
     1
102
RTVSPost2010Prop38
140
0.0
102
RTVSPost2010PropOp38
 70
     1
102
RTVSPost2010Prop39
140
1.0
102
RTVSPost2010PropOp39
 70
     1
102
RTVSPost2010Prop40
 90
        0
102
RTVSPost2010PropOp40
 70
     1
102
RTVSPost2010Prop41ColorIndex
 90
       18
102
RTVSPost2010Prop41ColorRGB
 90
        0
102
RTVSPost2010PropOp41
 70
     1
102
RTVSPost2010Prop42
 90
       50
102
RTVSPost2010PropOp42
 70
     1
102
RTVSPost2010Prop43
 90
        3
102
RTVSPost2010PropOp43
 70
     1
102
RTVSPost2010Prop44ColorIndex
 90
        5
102
RTVSPost2010Prop44ColorRGB
 90
      255
102
RTVSPost2010PropOp44
 70
     1
102
RTVSPost2010Prop45
280
     0
102
RTVSPost2010PropOp45
 70
     1
102
RTVSPost2010Prop46
 90
       50
102
RTVSPost2010PropOp46
 70
     1
102
RTVSPost2010Prop47
 90
       50
102
RTVSPost2010PropOp47
 70
     1
102
RTVSPost2010Prop48
 90
       50
102
RTVSPost2010PropOp48
 70
     1
102
RTVSPost2010Prop49
280
     0
102
RTVSPost2010PropOp49
 70
     1
102
RTVSPost2010Prop50
 90
       50
102
RTVSPost2010PropOp50
 70
     1
102
RTVSPost2010Prop51ColorIndex
 90
      256
102
RTVSPost2010Prop51ColorRGB
 90
-16777216
102
RTVSPost2010PropOp51
 70
     0
102
RTVSPost2010Prop52
140
1.0
102
RTVSPost2010PropOp52
 70
     0
102
RTVSPost2010Prop53
 90
        2
102
RTVSPost2010PropOp53
 70
     1
102
RTVSPost2010Prop54
  1
strokes_ogs.tif
102
RTVSPost2010PropOp54
 70
     1
102
RTVSPost2010Prop55
280
     0
102
RTVSPost2010PropOp55
 70
     1
102
RTVSPost2010Prop56
140
1.0
102
RTVSPost2010PropOp56
 70
     1
102
RTVSPost2010Prop57
140
1.0
102
RTVSPost2010PropOp57
 70
     1
102
RTVSPropertyOp0
 70
     1
102
RTVSPropertyOp1
 70
     1
102
RTVSPropertyOp2
 70
     1
102
RTVSPropertyOp3
 70
     1
102
RTVSPropertyOp4
 70
     1
102
RTVSPropertyOp5
 70
     1
102
RTVSPropertyOp6
 70
     1
102
RTVSPropertyOp7
 70
     1
102
RTVSPropertyOp8
 70
     1
102
RTVSPropertyOp9
 70
     1
102
RTVSPropertyOp10
 70
     1
102
RTVSPropertyOp11
 70
     1
102
RTVSPropertyOp12
 70
     1
102
RTVSPropertyOp13
 70
     1
102
RTVSPropertyOp14
 70
     1
102
RTVSPropertyOp15
 70
     1
102
RTVSPropertyOp16
 70
     1
102
RTVSPropertyOp17
 70
     1
102
RTVSPropertyOp18
 70
     1
102
RTVSPropertyOp19
 70
     1
102
RTVSPropertyOp20
 70
     1
102
RTVSPropertyOp21
 70
     1
102
RTVSPropertyOp22
 70
     1
102
RTVSPropertyOp23
 70
     1
102
RTVSPropertyOp24
 70
     1
102
RTVSPropertyOp25
 70
     1
102
RTVSPropertyOp26
 70
     1
102
RTVSPropertyOp27
 70
     1
102
RTVSPropertyOp28
 70
     1
102
RTVSPropertyOp29
 70
     1
102
RTVSPropertyOp30
 70
     1
102
RTVSPropertyOp31
 70
     1
102
RTVSPropertyOp32
 70
     1
102
RTVSPropertyOp33
 70
     1
102
RTVSPropertyOp34
 70
     1
102
RTVSPropertyOp35
 70
     1
102
RTVSPropertyOp36
 70
     1
102
RTVSPropertyOp37
 70
     1
102
RTVSPropertyOp38
 70
     1
102
RTVSPropertyOp39
 70
     1
102
RTVSPropertyOp40
 70
     1
102
RTVSPropertyOp41
 70
     1
102
RTVSPropertyOp42
 70
     1
102
RTVSPropertyOp43
 70
     1
102
RTVSPropertyOp44
 70
     1
102
RTVSPropertyOp45
 70
     1
102
RTVSPropertyOp46
 70
     1
102
RTVSPropertyOp47
 70
     1
102
RTVSPropertyOp48
 70
     1
102
RTVSPropertyOp49
 70
     1
102
RTVSPropertyOp50
 70
     1
102
RTVSPropertyOp51
 70
     0
102
RTVSPropertyOp52
 70
     0
102
RTVSPropertyOp53
 70
     1
102
RTVSPropertyOp54
 70
     1
102
RTVSPropertyOp55
 70
     1
102
RTVSPropertyOp56
 70
     1
102
RTVSPropertyOp57
 70
     1
102
RTVSPropertyOp58
 70
     1
102
RTVSPropertyOp59
 70
     1
102
RTVSPropertyOp60
 70
     1
102
RTVSPropertyOp61
 70
     1
102
RTVSPropertyOp62
 70
     1
  0
XRECORD
  5
9AA3
102
{ACAD_REACTORS
330
9AA2
102
}
330
9AA2
100
AcDbXrecord
280
     1
102
RTVSPost2010Prop28
280
     0
102
RTVSPost2010PropOp28
 70
     1
102
RTVSPost2010Prop29
280
     1
102
RTVSPost2010PropOp29
 70
     1
102
RTVSPost2010Prop30
280
     1
102
RTVSPost2010PropOp30
 70
     1
102
RTVSPost2010Prop31
280
     0
102
RTVSPost2010PropOp31
 70
     1
102
RTVSPost2010Prop32
280
     0
102
RTVSPost2010PropOp32
 70
     1
102
RTVSPost2010Prop33
280
     0
102
RTVSPost2010PropOp33
 70
     1
102
RTVSPost2010Prop34
280
     0
102
RTVSPost2010PropOp34
 70
     1
102
RTVSPost2010Prop35
280
     0
102
RTVSPost2010PropOp35
 70
     1
102
RTVSPost2010Prop36
280
     0
102
RTVSPost2010PropOp36
 70
     1
102
RTVSPost2010Prop37
 90
       50
102
RTVSPost2010PropOp37
 70
     1
102
RTVSPost2010Prop38
140
0.0
102
RTVSPost2010PropOp38
 70
     1
102
RTVSPost2010Prop39
140
1.0
102
RTVSPost2010PropOp39
 70
     1
102
RTVSPost2010Prop40
 90
        0
102
RTVSPost2010PropOp40
 70
     1
102
RTVSPost2010Prop41ColorIndex
 90
       18
102
RTVSPost2010Prop41ColorRGB
 90
        0
102
RTVSPost2010PropOp41
 70
     1
102
RTVSPost2010Prop42
 90
       50
102
RTVSPost2010PropOp42
 70
     1
102
RTVSPost2010Prop43
 90
        3
102
RTVSPost2010PropOp43
 70
     1
102
RTVSPost2010Prop44ColorIndex
 90
        5
102
RTVSPost2010Prop44ColorRGB
 90
      255
102
RTVSPost2010PropOp44
 70
     1
102
RTVSPost2010Prop45
280
     0
102
RTVSPost2010PropOp45
 70
     1
102
RTVSPost2010Prop46
 90
       50
102
RTVSPost2010PropOp46
 70
     1
102
RTVSPost2010Prop47
 90
       50
102
RTVSPost2010PropOp47
 70
     1
102
RTVSPost2010Prop48
 90
       50
102
RTVSPost2010PropOp48
 70
     1
102
RTVSPost2010Prop49
280
     0
102
RTVSPost2010PropOp49
 70
     1
102
RTVSPost2010Prop50
 90
       50
102
RTVSPost2010PropOp50
 70
     1
102
RTVSPost2010Prop51ColorIndex
 90
      256
102
RTVSPost2010Prop51ColorRGB
 90
-16777216
102
RTVSPost2010PropOp51
 70
     0
102
RTVSPost2010Prop52
140
1.0
102
RTVSPost2010PropOp52
 70
     0
102
RTVSPost2010Prop53
 90
        2
102
RTVSPost2010PropOp53
 70
     1
102
RTVSPost2010Prop54
  1
strokes_ogs.tif
102
RTVSPost2010PropOp54
 70
     1
102
RTVSPost2010Prop55
280
     0
102
RTVSPost2010PropOp55
 70
     1
102
RTVSPost2010Prop56
140
1.0
102
RTVSPost2010PropOp56
 70
     1
102
RTVSPost2010Prop57
140
1.0
102
RTVSPost2010PropOp57
 70
     1
102
RTVSPropertyOp0
 70
     1
102
RTVSPropertyOp1
 70
     1
102
RTVSPropertyOp2
 70
     1
102
RTVSPropertyOp3
 70
     1
102
RTVSPropertyOp4
 70
     1
102
RTVSPropertyOp5
 70
     1
102
RTVSPropertyOp6
 70
     1
102
RTVSPropertyOp7
 70
     1
102
RTVSPropertyOp8
 70
     1
102
RTVSPropertyOp9
 70
     1
102
RTVSPropertyOp10
 70
     1
102
RTVSPropertyOp11
 70
     1
102
RTVSPropertyOp12
 70
     1
102
RTVSPropertyOp13
 70
     1
102
RTVSPropertyOp14
 70
     1
102
RTVSPropertyOp15
 70
     1
102
RTVSPropertyOp16
 70
     1
102
RTVSPropertyOp17
 70
     1
102
RTVSPropertyOp18
 70
     1
102
RTVSPropertyOp19
 70
     1
102
RTVSPropertyOp20
 70
     1
102
RTVSPropertyOp21
 70
     1
102
RTVSPropertyOp22
 70
     1
102
RTVSPropertyOp23
 70
     1
102
RTVSPropertyOp24
 70
     1
102
RTVSPropertyOp25
 70
     1
102
RTVSPropertyOp26
 70
     1
102
RTVSPropertyOp27
 70
     1
102
RTVSPropertyOp28
 70
     1
102
RTVSPropertyOp29
 70
     1
102
RTVSPropertyOp30
 70
     1
102
RTVSPropertyOp31
 70
     1
102
RTVSPropertyOp32
 70
     1
102
RTVSPropertyOp33
 70
     1
102
RTVSPropertyOp34
 70
     1
102
RTVSPropertyOp35
 70
     1
102
RTVSPropertyOp36
 70
     1
102
RTVSPropertyOp37
 70
     1
102
RTVSPropertyOp38
 70
     1
102
RTVSPropertyOp39
 70
     1
102
RTVSPropertyOp40
 70
     1
102
RTVSPropertyOp41
 70
     1
102
RTVSPropertyOp42
 70
     1
102
RTVSPropertyOp43
 70
     1
102
RTVSPropertyOp44
 70
     1
102
RTVSPropertyOp45
 70
     1
102
RTVSPropertyOp46
 70
     1
102
RTVSPropertyOp47
 70
     1
102
RTVSPropertyOp48
 70
     1
102
RTVSPropertyOp49
 70
     1
102
RTVSPropertyOp50
 70
     1
102
RTVSPropertyOp51
 70
     0
102
RTVSPropertyOp52
 70
     0
102
RTVSPropertyOp53
 70
     1
102
RTVSPropertyOp54
 70
     1
102
RTVSPropertyOp55
 70
     1
102
RTVSPropertyOp56
 70
     1
102
RTVSPropertyOp57
 70
     1
102
RTVSPropertyOp58
 70
     1
102
RTVSPropertyOp59
 70
     1
102
RTVSPropertyOp60
 70
     1
102
RTVSPropertyOp61
 70
     1
102
RTVSPropertyOp62
 70
     1
  0
XRECORD
  5
9AA5
102
{ACAD_REACTORS
330
9AA4
102
}
330
9AA4
100
AcDbXrecord
280
     1
102
RTVSPost2010Prop28
280
     0
102
RTVSPost2010PropOp28
 70
     1
102
RTVSPost2010Prop29
280
     1
102
RTVSPost2010PropOp29
 70
     1
102
RTVSPost2010Prop30
280
     1
102
RTVSPost2010PropOp30
 70
     1
102
RTVSPost2010Prop31
280
     0
102
RTVSPost2010PropOp31
 70
     1
102
RTVSPost2010Prop32
280
     0
102
RTVSPost2010PropOp32
 70
     1
102
RTVSPost2010Prop33
280
     0
102
RTVSPost2010PropOp33
 70
     1
102
RTVSPost2010Prop34
280
     0
102
RTVSPost2010PropOp34
 70
     1
102
RTVSPost2010Prop35
280
     0
102
RTVSPost2010PropOp35
 70
     1
102
RTVSPost2010Prop36
280
     0
102
RTVSPost2010PropOp36
 70
     1
102
RTVSPost2010Prop37
 90
       50
102
RTVSPost2010PropOp37
 70
     1
102
RTVSPost2010Prop38
140
0.0
102
RTVSPost2010PropOp38
 70
     1
102
RTVSPost2010Prop39
140
1.0
102
RTVSPost2010PropOp39
 70
     1
102
RTVSPost2010Prop40
 90
        0
102
RTVSPost2010PropOp40
 70
     1
102
RTVSPost2010Prop41ColorIndex
 90
       18
102
RTVSPost2010Prop41ColorRGB
 90
        0
102
RTVSPost2010PropOp41
 70
     1
102
RTVSPost2010Prop42
 90
       50
102
RTVSPost2010PropOp42
 70
     1
102
RTVSPost2010Prop43
 90
        3
102
RTVSPost2010PropOp43
 70
     1
102
RTVSPost2010Prop44ColorIndex
 90
        5
102
RTVSPost2010Prop44ColorRGB
 90
      255
102
RTVSPost2010PropOp44
 70
     1
102
RTVSPost2010Prop45
280
     0
102
RTVSPost2010PropOp45
 70
     1
102
RTVSPost2010Prop46
 90
       50
102
RTVSPost2010PropOp46
 70
     1
102
RTVSPost2010Prop47
 90
       50
102
RTVSPost2010PropOp47
 70
     1
102
RTVSPost2010Prop48
 90
       50
102
RTVSPost2010PropOp48
 70
     1
102
RTVSPost2010Prop49
280
     0
102
RTVSPost2010PropOp49
 70
     1
102
RTVSPost2010Prop50
 90
       50
102
RTVSPost2010PropOp50
 70
     1
102
RTVSPost2010Prop51ColorIndex
 90
      256
102
RTVSPost2010Prop51ColorRGB
 90
-16777216
102
RTVSPost2010PropOp51
 70
     0
102
RTVSPost2010Prop52
140
1.0
102
RTVSPost2010PropOp52
 70
     0
102
RTVSPost2010Prop53
 90
        2
102
RTVSPost2010PropOp53
 70
     1
102
RTVSPost2010Prop54
  1
strokes_ogs.tif
102
RTVSPost2010PropOp54
 70
     1
102
RTVSPost2010Prop55
280
     0
102
RTVSPost2010PropOp55
 70
     1
102
RTVSPost2010Prop56
140
1.0
102
RTVSPost2010PropOp56
 70
     1
102
RTVSPost2010Prop57
140
1.0
102
RTVSPost2010PropOp57
 70
     1
102
RTVSPropertyOp0
 70
     1
102
RTVSPropertyOp1
 70
     1
102
RTVSPropertyOp2
 70
     1
102
RTVSPropertyOp3
 70
     1
102
RTVSPropertyOp4
 70
     1
102
RTVSPropertyOp5
 70
     1
102
RTVSPropertyOp6
 70
     1
102
RTVSPropertyOp7
 70
     1
102
RTVSPropertyOp8
 70
     1
102
RTVSPropertyOp9
 70
     1
102
RTVSPropertyOp10
 70
     1
102
RTVSPropertyOp11
 70
     1
102
RTVSPropertyOp12
 70
     1
102
RTVSPropertyOp13
 70
     1
102
RTVSPropertyOp14
 70
     1
102
RTVSPropertyOp15
 70
     1
102
RTVSPropertyOp16
 70
     1
102
RTVSPropertyOp17
 70
     1
102
RTVSPropertyOp18
 70
     1
102
RTVSPropertyOp19
 70
     1
102
RTVSPropertyOp20
 70
     1
102
RTVSPropertyOp21
 70
     1
102
RTVSPropertyOp22
 70
     1
102
RTVSPropertyOp23
 70
     1
102
RTVSPropertyOp24
 70
     1
102
RTVSPropertyOp25
 70
     1
102
RTVSPropertyOp26
 70
     1
102
RTVSPropertyOp27
 70
     1
102
RTVSPropertyOp28
 70
     1
102
RTVSPropertyOp29
 70
     1
102
RTVSPropertyOp30
 70
     1
102
RTVSPropertyOp31
 70
     1
102
RTVSPropertyOp32
 70
     1
102
RTVSPropertyOp33
 70
     1
102
RTVSPropertyOp34
 70
     1
102
RTVSPropertyOp35
 70
     1
102
RTVSPropertyOp36
 70
     1
102
RTVSPropertyOp37
 70
     1
102
RTVSPropertyOp38
 70
     1
102
RTVSPropertyOp39
 70
     1
102
RTVSPropertyOp40
 70
     1
102
RTVSPropertyOp41
 70
     1
102
RTVSPropertyOp42
 70
     1
102
RTVSPropertyOp43
 70
     1
102
RTVSPropertyOp44
 70
     1
102
RTVSPropertyOp45
 70
     1
102
RTVSPropertyOp46
 70
     1
102
RTVSPropertyOp47
 70
     1
102
RTVSPropertyOp48
 70
     1
102
RTVSPropertyOp49
 70
     1
102
RTVSPropertyOp50
 70
     1
102
RTVSPropertyOp51
 70
     0
102
RTVSPropertyOp52
 70
     0
102
RTVSPropertyOp53
 70
     1
102
RTVSPropertyOp54
 70
     1
102
RTVSPropertyOp55
 70
     1
102
RTVSPropertyOp56
 70
     1
102
RTVSPropertyOp57
 70
     1
102
RTVSPropertyOp58
 70
     1
102
RTVSPropertyOp59
 70
     1
102
RTVSPropertyOp60
 70
     1
102
RTVSPropertyOp61
 70
     1
102
RTVSPropertyOp62
 70
     1
  0
XRECORD
  5
9AAD
102
{ACAD_REACTORS
330
9AAC
102
}
330
9AAC
100
AcDbXrecord
280
     1
102
RTVSPost2010Prop28
280
     0
102
RTVSPost2010PropOp28
 70
     1
102
RTVSPost2010Prop29
280
     1
102
RTVSPost2010PropOp29
 70
     1
102
RTVSPost2010Prop30
280
     1
102
RTVSPost2010PropOp30
 70
     1
102
RTVSPost2010Prop31
280
     0
102
RTVSPost2010PropOp31
 70
     1
102
RTVSPost2010Prop32
280
     0
102
RTVSPost2010PropOp32
 70
     1
102
RTVSPost2010Prop33
280
     0
102
RTVSPost2010PropOp33
 70
     1
102
RTVSPost2010Prop34
280
     0
102
RTVSPost2010PropOp34
 70
     1
102
RTVSPost2010Prop35
280
     0
102
RTVSPost2010PropOp35
 70
     1
102
RTVSPost2010Prop36
280
     0
102
RTVSPost2010PropOp36
 70
     1
102
RTVSPost2010Prop37
 90
       50
102
RTVSPost2010PropOp37
 70
     1
102
RTVSPost2010Prop38
140
0.0
102
RTVSPost2010PropOp38
 70
     1
102
RTVSPost2010Prop39
140
1.0
102
RTVSPost2010PropOp39
 70
     1
102
RTVSPost2010Prop40
 90
        0
102
RTVSPost2010PropOp40
 70
     1
102
RTVSPost2010Prop41ColorIndex
 90
       18
102
RTVSPost2010Prop41ColorRGB
 90
        0
102
RTVSPost2010PropOp41
 70
     1
102
RTVSPost2010Prop42
 90
       50
102
RTVSPost2010PropOp42
 70
     1
102
RTVSPost2010Prop43
 90
        3
102
RTVSPost2010PropOp43
 70
     1
102
RTVSPost2010Prop44ColorIndex
 90
        5
102
RTVSPost2010Prop44ColorRGB
 90
      255
102
RTVSPost2010PropOp44
 70
     1
102
RTVSPost2010Prop45
280
     0
102
RTVSPost2010PropOp45
 70
     1
102
RTVSPost2010Prop46
 90
       50
102
RTVSPost2010PropOp46
 70
     1
102
RTVSPost2010Prop47
 90
       50
102
RTVSPost2010PropOp47
 70
     1
102
RTVSPost2010Prop48
 90
       50
102
RTVSPost2010PropOp48
 70
     1
102
RTVSPost2010Prop49
280
     0
102
RTVSPost2010PropOp49
 70
     1
102
RTVSPost2010Prop50
 90
       50
102
RTVSPost2010PropOp50
 70
     1
102
RTVSPost2010Prop51ColorIndex
 90
      256
102
RTVSPost2010Prop51ColorRGB
 90
-16777216
102
RTVSPost2010PropOp51
 70
     0
102
RTVSPost2010Prop52
140
1.0
102
RTVSPost2010PropOp52
 70
     0
102
RTVSPost2010Prop53
 90
        2
102
RTVSPost2010PropOp53
 70
     1
102
RTVSPost2010Prop54
  1
strokes_ogs.tif
102
RTVSPost2010PropOp54
 70
     1
102
RTVSPost2010Prop55
280
     0
102
RTVSPost2010PropOp55
 70
     1
102
RTVSPost2010Prop56
140
1.0
102
RTVSPost2010PropOp56
 70
     1
102
RTVSPost2010Prop57
140
1.0
102
RTVSPost2010PropOp57
 70
     1
102
RTVSPropertyOp0
 70
     1
102
RTVSPropertyOp1
 70
     1
102
RTVSPropertyOp2
 70
     1
102
RTVSPropertyOp3
 70
     1
102
RTVSPropertyOp4
 70
     1
102
RTVSPropertyOp5
 70
     1
102
RTVSPropertyOp6
 70
     1
102
RTVSPropertyOp7
 70
     1
102
RTVSPropertyOp8
 70
     1
102
RTVSPropertyOp9
 70
     1
102
RTVSPropertyOp10
 70
     1
102
RTVSPropertyOp11
 70
     1
102
RTVSPropertyOp12
 70
     1
102
RTVSPropertyOp13
 70
     1
102
RTVSPropertyOp14
 70
     1
102
RTVSPropertyOp15
 70
     1
102
RTVSPropertyOp16
 70
     1
102
RTVSPropertyOp17
 70
     1
102
RTVSPropertyOp18
 70
     1
102
RTVSPropertyOp19
 70
     1
102
RTVSPropertyOp20
 70
     1
102
RTVSPropertyOp21
 70
     1
102
RTVSPropertyOp22
 70
     1
102
RTVSPropertyOp23
 70
     1
102
RTVSPropertyOp24
 70
     1
102
RTVSPropertyOp25
 70
     1
102
RTVSPropertyOp26
 70
     1
102
RTVSPropertyOp27
 70
     1
102
RTVSPropertyOp28
 70
     1
102
RTVSPropertyOp29
 70
     1
102
RTVSPropertyOp30
 70
     1
102
RTVSPropertyOp31
 70
     1
102
RTVSPropertyOp32
 70
     1
102
RTVSPropertyOp33
 70
     1
102
RTVSPropertyOp34
 70
     1
102
RTVSPropertyOp35
 70
     1
102
RTVSPropertyOp36
 70
     1
102
RTVSPropertyOp37
 70
     1
102
RTVSPropertyOp38
 70
     1
102
RTVSPropertyOp39
 70
     1
102
RTVSPropertyOp40
 70
     1
102
RTVSPropertyOp41
 70
     1
102
RTVSPropertyOp42
 70
     1
102
RTVSPropertyOp43
 70
     1
102
RTVSPropertyOp44
 70
     1
102
RTVSPropertyOp45
 70
     1
102
RTVSPropertyOp46
 70
     1
102
RTVSPropertyOp47
 70
     1
102
RTVSPropertyOp48
 70
     1
102
RTVSPropertyOp49
 70
     1
102
RTVSPropertyOp50
 70
     1
102
RTVSPropertyOp51
 70
     0
102
RTVSPropertyOp52
 70
     0
102
RTVSPropertyOp53
 70
     1
102
RTVSPropertyOp54
 70
     1
102
RTVSPropertyOp55
 70
     1
102
RTVSPropertyOp56
 70
     1
102
RTVSPropertyOp57
 70
     1
102
RTVSPropertyOp58
 70
     1
102
RTVSPropertyOp59
 70
     1
102
RTVSPropertyOp60
 70
     1
102
RTVSPropertyOp61
 70
     1
102
RTVSPropertyOp62
 70
     1
  0
XRECORD
  5
9AC9
102
{ACAD_REACTORS
330
9AC8
102
}
330
9AC8
100
AcDbXrecord
280
     1
102
RTVSPost2010Prop28
280
     0
102
RTVSPost2010PropOp28
 70
     1
102
RTVSPost2010Prop29
280
     1
102
RTVSPost2010PropOp29
 70
     1
102
RTVSPost2010Prop30
280
     1
102
RTVSPost2010PropOp30
 70
     1
102
RTVSPost2010Prop31
280
     0
102
RTVSPost2010PropOp31
 70
     1
102
RTVSPost2010Prop32
280
     0
102
RTVSPost2010PropOp32
 70
     1
102
RTVSPost2010Prop33
280
     0
102
RTVSPost2010PropOp33
 70
     1
102
RTVSPost2010Prop34
280
     0
102
RTVSPost2010PropOp34
 70
     1
102
RTVSPost2010Prop35
280
     0
102
RTVSPost2010PropOp35
 70
     1
102
RTVSPost2010Prop36
280
     0
102
RTVSPost2010PropOp36
 70
     1
102
RTVSPost2010Prop37
 90
       50
102
RTVSPost2010PropOp37
 70
     0
102
RTVSPost2010Prop38
140
0.0
102
RTVSPost2010PropOp38
 70
     0
102
RTVSPost2010Prop39
140
1.0
102
RTVSPost2010PropOp39
 70
     0
102
RTVSPost2010Prop40
 90
        0
102
RTVSPost2010PropOp40
 70
     0
102
RTVSPost2010Prop41ColorIndex
 90
       18
102
RTVSPost2010Prop41ColorRGB
 90
        0
102
RTVSPost2010PropOp41
 70
     0
102
RTVSPost2010Prop42
 90
       50
102
RTVSPost2010PropOp42
 70
     0
102
RTVSPost2010Prop43
 90
        3
102
RTVSPost2010PropOp43
 70
     0
102
RTVSPost2010Prop44ColorIndex
 90
        5
102
RTVSPost2010Prop44ColorRGB
 90
      255
102
RTVSPost2010PropOp44
 70
     0
102
RTVSPost2010Prop45
280
     0
102
RTVSPost2010PropOp45
 70
     1
102
RTVSPost2010Prop46
 90
       50
102
RTVSPost2010PropOp46
 70
     0
102
RTVSPost2010Prop47
 90
       50
102
RTVSPost2010PropOp47
 70
     0
102
RTVSPost2010Prop48
 90
       50
102
RTVSPost2010PropOp48
 70
     0
102
RTVSPost2010Prop49
280
     0
102
RTVSPost2010PropOp49
 70
     1
102
RTVSPost2010Prop50
 90
       50
102
RTVSPost2010PropOp50
 70
     0
102
RTVSPost2010Prop51ColorIndex
 90
      256
102
RTVSPost2010Prop51ColorRGB
 90
-16777216
102
RTVSPost2010PropOp51
 70
     0
102
RTVSPost2010Prop52
140
1.0
102
RTVSPost2010PropOp52
 70
     0
102
RTVSPost2010Prop53
 90
        2
102
RTVSPost2010PropOp53
 70
     0
102
RTVSPost2010Prop54
  1
strokes_ogs.tif
102
RTVSPost2010PropOp54
 70
     0
102
RTVSPost2010Prop55
280
     0
102
RTVSPost2010PropOp55
 70
     1
102
RTVSPost2010Prop56
140
1.0
102
RTVSPost2010PropOp56
 70
     0
102
RTVSPost2010Prop57
140
1.0
102
RTVSPost2010PropOp57
 70
     0
102
RTVSPropertyOp0
 70
     0
102
RTVSPropertyOp1
 70
     0
102
RTVSPropertyOp2
 70
     0
102
RTVSPropertyOp3
 70
     0
102
RTVSPropertyOp4
 70
     0
102
RTVSPropertyOp5
 70
     0
102
RTVSPropertyOp6
 70
     0
102
RTVSPropertyOp7
 70
     0
102
RTVSPropertyOp8
 70
     0
102
RTVSPropertyOp9
 70
     0
102
RTVSPropertyOp10
 70
     0
102
RTVSPropertyOp11
 70
     0
102
RTVSPropertyOp12
 70
     0
102
RTVSPropertyOp13
 70
     0
102
RTVSPropertyOp14
 70
     2
102
RTVSPropertyOp15
 70
     0
102
RTVSPropertyOp16
 70
     0
102
RTVSPropertyOp17
 70
     0
102
RTVSPropertyOp18
 70
     0
102
RTVSPropertyOp19
 70
     0
102
RTVSPropertyOp20
 70
     0
102
RTVSPropertyOp21
 70
     0
102
RTVSPropertyOp22
 70
     0
102
RTVSPropertyOp23
 70
     0
102
RTVSPropertyOp24
 70
     0
102
RTVSPropertyOp25
 70
     0
102
RTVSPropertyOp26
 70
     0
102
RTVSPropertyOp27
 70
     0
102
RTVSPropertyOp28
 70
     1
102
RTVSPropertyOp29
 70
     1
102
RTVSPropertyOp30
 70
     1
102
RTVSPropertyOp31
 70
     1
102
RTVSPropertyOp32
 70
     1
102
RTVSPropertyOp33
 70
     1
102
RTVSPropertyOp34
 70
     1
102
RTVSPropertyOp35
 70
     1
102
RTVSPropertyOp36
 70
     1
102
RTVSPropertyOp37
 70
     0
102
RTVSPropertyOp38
 70
     0
102
RTVSPropertyOp39
 70
     0
102
RTVSPropertyOp40
 70
     0
102
RTVSPropertyOp41
 70
     0
102
RTVSPropertyOp42
 70
     0
102
RTVSPropertyOp43
 70
     0
102
RTVSPropertyOp44
 70
     0
102
RTVSPropertyOp45
 70
     1
102
RTVSPropertyOp46
 70
     0
102
RTVSPropertyOp47
 70
     0
102
RTVSPropertyOp48
 70
     0
102
RTVSPropertyOp49
 70
     1
102
RTVSPropertyOp50
 70
     0
102
RTVSPropertyOp51
 70
     0
102
RTVSPropertyOp52
 70
     0
102
RTVSPropertyOp53
 70
     0
102
RTVSPropertyOp54
 70
     0
102
RTVSPropertyOp55
 70
     1
102
RTVSPropertyOp56
 70
     0
102
RTVSPropertyOp57
 70
     0
102
RTVSPropertyOp58
 70
     0
102
RTVSPropertyOp59
 70
     0
102
RTVSPropertyOp60
 70
     0
102
RTVSPropertyOp61
 70
     0
102
RTVSPropertyOp62
 70
     0
  0
XRECORD
  5
9AB9
102
{ACAD_REACTORS
330
9AB8
102
}
330
9AB8
100
AcDbXrecord
280
     1
102
RTVSPost2010Prop28
280
     0
102
RTVSPost2010PropOp28
 70
     1
102
RTVSPost2010Prop29
280
     1
102
RTVSPost2010PropOp29
 70
     1
102
RTVSPost2010Prop30
280
     1
102
RTVSPost2010PropOp30
 70
     1
102
RTVSPost2010Prop31
280
     0
102
RTVSPost2010PropOp31
 70
     1
102
RTVSPost2010Prop32
280
     0
102
RTVSPost2010PropOp32
 70
     1
102
RTVSPost2010Prop33
280
     0
102
RTVSPost2010PropOp33
 70
     1
102
RTVSPost2010Prop34
280
     0
102
RTVSPost2010PropOp34
 70
     1
102
RTVSPost2010Prop35
280
     0
102
RTVSPost2010PropOp35
 70
     1
102
RTVSPost2010Prop36
280
     0
102
RTVSPost2010PropOp36
 70
     1
102
RTVSPost2010Prop37
 90
       50
102
RTVSPost2010PropOp37
 70
     1
102
RTVSPost2010Prop38
140
0.0
102
RTVSPost2010PropOp38
 70
     1
102
RTVSPost2010Prop39
140
1.0
102
RTVSPost2010PropOp39
 70
     1
102
RTVSPost2010Prop40
 90
        0
102
RTVSPost2010PropOp40
 70
     1
102
RTVSPost2010Prop41ColorIndex
 90
       18
102
RTVSPost2010Prop41ColorRGB
 90
        0
102
RTVSPost2010PropOp41
 70
     1
102
RTVSPost2010Prop42
 90
       50
102
RTVSPost2010PropOp42
 70
     1
102
RTVSPost2010Prop43
 90
        3
102
RTVSPost2010PropOp43
 70
     1
102
RTVSPost2010Prop44ColorIndex
 90
        5
102
RTVSPost2010Prop44ColorRGB
 90
      255
102
RTVSPost2010PropOp44
 70
     1
102
RTVSPost2010Prop45
280
     0
102
RTVSPost2010PropOp45
 70
     1
102
RTVSPost2010Prop46
 90
       50
102
RTVSPost2010PropOp46
 70
     1
102
RTVSPost2010Prop47
 90
       50
102
RTVSPost2010PropOp47
 70
     1
102
RTVSPost2010Prop48
 90
       50
102
RTVSPost2010PropOp48
 70
     1
102
RTVSPost2010Prop49
280
     0
102
RTVSPost2010PropOp49
 70
     1
102
RTVSPost2010Prop50
 90
       50
102
RTVSPost2010PropOp50
 70
     1
102
RTVSPost2010Prop51ColorIndex
 90
      256
102
RTVSPost2010Prop51ColorRGB
 90
-16777216
102
RTVSPost2010PropOp51
 70
     0
102
RTVSPost2010Prop52
140
1.0
102
RTVSPost2010PropOp52
 70
     0
102
RTVSPost2010Prop53
 90
        2
102
RTVSPost2010PropOp53
 70
     1
102
RTVSPost2010Prop54
  1
strokes_ogs.tif
102
RTVSPost2010PropOp54
 70
     1
102
RTVSPost2010Prop55
280
     0
102
RTVSPost2010PropOp55
 70
     1
102
RTVSPost2010Prop56
140
1.0
102
RTVSPost2010PropOp56
 70
     1
102
RTVSPost2010Prop57
140
1.0
102
RTVSPost2010PropOp57
 70
     1
102
RTVSPropertyOp0
 70
     1
102
RTVSPropertyOp1
 70
     1
102
RTVSPropertyOp2
 70
     1
102
RTVSPropertyOp3
 70
     1
102
RTVSPropertyOp4
 70
     1
102
RTVSPropertyOp5
 70
     1
102
RTVSPropertyOp6
 70
     1
102
RTVSPropertyOp7
 70
     1
102
RTVSPropertyOp8
 70
     1
102
RTVSPropertyOp9
 70
     1
102
RTVSPropertyOp10
 70
     1
102
RTVSPropertyOp11
 70
     1
102
RTVSPropertyOp12
 70
     1
102
RTVSPropertyOp13
 70
     1
102
RTVSPropertyOp14
 70
     1
102
RTVSPropertyOp15
 70
     1
102
RTVSPropertyOp16
 70
     1
102
RTVSPropertyOp17
 70
     1
102
RTVSPropertyOp18
 70
     1
102
RTVSPropertyOp19
 70
     1
102
RTVSPropertyOp20
 70
     1
102
RTVSPropertyOp21
 70
     1
102
RTVSPropertyOp22
 70
     1
102
RTVSPropertyOp23
 70
     1
102
RTVSPropertyOp24
 70
     1
102
RTVSPropertyOp25
 70
     1
102
RTVSPropertyOp26
 70
     1
102
RTVSPropertyOp27
 70
     1
102
RTVSPropertyOp28
 70
     1
102
RTVSPropertyOp29
 70
     1
102
RTVSPropertyOp30
 70
     1
102
RTVSPropertyOp31
 70
     1
102
RTVSPropertyOp32
 70
     1
102
RTVSPropertyOp33
 70
     1
102
RTVSPropertyOp34
 70
     1
102
RTVSPropertyOp35
 70
     1
102
RTVSPropertyOp36
 70
     1
102
RTVSPropertyOp37
 70
     1
102
RTVSPropertyOp38
 70
     1
102
RTVSPropertyOp39
 70
     1
102
RTVSPropertyOp40
 70
     1
102
RTVSPropertyOp41
 70
     1
102
RTVSPropertyOp42
 70
     1
102
RTVSPropertyOp43
 70
     1
102
RTVSPropertyOp44
 70
     1
102
RTVSPropertyOp45
 70
     1
102
RTVSPropertyOp46
 70
     1
102
RTVSPropertyOp47
 70
     1
102
RTVSPropertyOp48
 70
     1
102
RTVSPropertyOp49
 70
     1
102
RTVSPropertyOp50
 70
     1
102
RTVSPropertyOp51
 70
     0
102
RTVSPropertyOp52
 70
     0
102
RTVSPropertyOp53
 70
     1
102
RTVSPropertyOp54
 70
     1
102
RTVSPropertyOp55
 70
     1
102
RTVSPropertyOp56
 70
     1
102
RTVSPropertyOp57
 70
     1
102
RTVSPropertyOp58
 70
     1
102
RTVSPropertyOp59
 70
     1
102
RTVSPropertyOp60
 70
     1
102
RTVSPropertyOp61
 70
     1
102
RTVSPropertyOp62
 70
     1
  0
XRECORD
  5
9ACB
102
{ACAD_REACTORS
330
9ACA
102
}
330
9ACA
100
AcDbXrecord
280
     1
102
RTVSPost2010Prop28
280
     0
102
RTVSPost2010PropOp28
 70
     1
102
RTVSPost2010Prop29
280
     1
102
RTVSPost2010PropOp29
 70
     1
102
RTVSPost2010Prop30
280
     1
102
RTVSPost2010PropOp30
 70
     1
102
RTVSPost2010Prop31
280
     0
102
RTVSPost2010PropOp31
 70
     1
102
RTVSPost2010Prop32
280
     0
102
RTVSPost2010PropOp32
 70
     1
102
RTVSPost2010Prop33
280
     0
102
RTVSPost2010PropOp33
 70
     1
102
RTVSPost2010Prop34
280
     0
102
RTVSPost2010PropOp34
 70
     1
102
RTVSPost2010Prop35
280
     0
102
RTVSPost2010PropOp35
 70
     1
102
RTVSPost2010Prop36
280
     0
102
RTVSPost2010PropOp36
 70
     1
102
RTVSPost2010Prop37
 90
       50
102
RTVSPost2010PropOp37
 70
     0
102
RTVSPost2010Prop38
140
0.0
102
RTVSPost2010PropOp38
 70
     0
102
RTVSPost2010Prop39
140
1.0
102
RTVSPost2010PropOp39
 70
     0
102
RTVSPost2010Prop40
 90
        0
102
RTVSPost2010PropOp40
 70
     0
102
RTVSPost2010Prop41ColorIndex
 90
       18
102
RTVSPost2010Prop41ColorRGB
 90
        0
102
RTVSPost2010PropOp41
 70
     0
102
RTVSPost2010Prop42
 90
       50
102
RTVSPost2010PropOp42
 70
     0
102
RTVSPost2010Prop43
 90
        3
102
RTVSPost2010PropOp43
 70
     0
102
RTVSPost2010Prop44ColorIndex
 90
        5
102
RTVSPost2010Prop44ColorRGB
 90
      255
102
RTVSPost2010PropOp44
 70
     0
102
RTVSPost2010Prop45
280
     0
102
RTVSPost2010PropOp45
 70
     1
102
RTVSPost2010Prop46
 90
       50
102
RTVSPost2010PropOp46
 70
     0
102
RTVSPost2010Prop47
 90
       50
102
RTVSPost2010PropOp47
 70
     0
102
RTVSPost2010Prop48
 90
       50
102
RTVSPost2010PropOp48
 70
     0
102
RTVSPost2010Prop49
280
     0
102
RTVSPost2010PropOp49
 70
     1
102
RTVSPost2010Prop50
 90
       50
102
RTVSPost2010PropOp50
 70
     0
102
RTVSPost2010Prop51ColorIndex
 90
      256
102
RTVSPost2010Prop51ColorRGB
 90
-16777216
102
RTVSPost2010PropOp51
 70
     0
102
RTVSPost2010Prop52
140
1.0
102
RTVSPost2010PropOp52
 70
     0
102
RTVSPost2010Prop53
 90
        2
102
RTVSPost2010PropOp53
 70
     0
102
RTVSPost2010Prop54
  1
strokes_ogs.tif
102
RTVSPost2010PropOp54
 70
     0
102
RTVSPost2010Prop55
280
     0
102
RTVSPost2010PropOp55
 70
     1
102
RTVSPost2010Prop56
140
1.0
102
RTVSPost2010PropOp56
 70
     0
102
RTVSPost2010Prop57
140
1.0
102
RTVSPost2010PropOp57
 70
     0
102
RTVSPropertyOp0
 70
     0
102
RTVSPropertyOp1
 70
     0
102
RTVSPropertyOp2
 70
     0
102
RTVSPropertyOp3
 70
     0
102
RTVSPropertyOp4
 70
     0
102
RTVSPropertyOp5
 70
     0
102
RTVSPropertyOp6
 70
     0
102
RTVSPropertyOp7
 70
     0
102
RTVSPropertyOp8
 70
     0
102
RTVSPropertyOp9
 70
     0
102
RTVSPropertyOp10
 70
     0
102
RTVSPropertyOp11
 70
     0
102
RTVSPropertyOp12
 70
     0
102
RTVSPropertyOp13
 70
     0
102
RTVSPropertyOp14
 70
     2
102
RTVSPropertyOp15
 70
     0
102
RTVSPropertyOp16
 70
     0
102
RTVSPropertyOp17
 70
     0
102
RTVSPropertyOp18
 70
     0
102
RTVSPropertyOp19
 70
     0
102
RTVSPropertyOp20
 70
     0
102
RTVSPropertyOp21
 70
     0
102
RTVSPropertyOp22
 70
     0
102
RTVSPropertyOp23
 70
     0
102
RTVSPropertyOp24
 70
     0
102
RTVSPropertyOp25
 70
     0
102
RTVSPropertyOp26
 70
     0
102
RTVSPropertyOp27
 70
     0
102
RTVSPropertyOp28
 70
     1
102
RTVSPropertyOp29
 70
     1
102
RTVSPropertyOp30
 70
     1
102
RTVSPropertyOp31
 70
     1
102
RTVSPropertyOp32
 70
     1
102
RTVSPropertyOp33
 70
     1
102
RTVSPropertyOp34
 70
     1
102
RTVSPropertyOp35
 70
     1
102
RTVSPropertyOp36
 70
     1
102
RTVSPropertyOp37
 70
     0
102
RTVSPropertyOp38
 70
     0
102
RTVSPropertyOp39
 70
     0
102
RTVSPropertyOp40
 70
     0
102
RTVSPropertyOp41
 70
     0
102
RTVSPropertyOp42
 70
     0
102
RTVSPropertyOp43
 70
     0
102
RTVSPropertyOp44
 70
     0
102
RTVSPropertyOp45
 70
     1
102
RTVSPropertyOp46
 70
     0
102
RTVSPropertyOp47
 70
     0
102
RTVSPropertyOp48
 70
     0
102
RTVSPropertyOp49
 70
     1
102
RTVSPropertyOp50
 70
     0
102
RTVSPropertyOp51
 70
     0
102
RTVSPropertyOp52
 70
     0
102
RTVSPropertyOp53
 70
     0
102
RTVSPropertyOp54
 70
     0
102
RTVSPropertyOp55
 70
     1
102
RTVSPropertyOp56
 70
     0
102
RTVSPropertyOp57
 70
     0
102
RTVSPropertyOp58
 70
     0
102
RTVSPropertyOp59
 70
     0
102
RTVSPropertyOp60
 70
     0
102
RTVSPropertyOp61
 70
     0
102
RTVSPropertyOp62
 70
     0
  0
XRECORD
  5
9AB1
102
{ACAD_REACTORS
330
9AB0
102
}
330
9AB0
100
AcDbXrecord
280
     1
102
RTVSPost2010Prop28
280
     0
102
RTVSPost2010PropOp28
 70
     1
102
RTVSPost2010Prop29
280
     1
102
RTVSPost2010PropOp29
 70
     1
102
RTVSPost2010Prop30
280
     1
102
RTVSPost2010PropOp30
 70
     1
102
RTVSPost2010Prop31
280
     0
102
RTVSPost2010PropOp31
 70
     1
102
RTVSPost2010Prop32
280
     0
102
RTVSPost2010PropOp32
 70
     1
102
RTVSPost2010Prop33
280
     0
102
RTVSPost2010PropOp33
 70
     1
102
RTVSPost2010Prop34
280
     0
102
RTVSPost2010PropOp34
 70
     1
102
RTVSPost2010Prop35
280
     0
102
RTVSPost2010PropOp35
 70
     1
102
RTVSPost2010Prop36
280
     0
102
RTVSPost2010PropOp36
 70
     1
102
RTVSPost2010Prop37
 90
       50
102
RTVSPost2010PropOp37
 70
     1
102
RTVSPost2010Prop38
140
0.0
102
RTVSPost2010PropOp38
 70
     1
102
RTVSPost2010Prop39
140
1.0
102
RTVSPost2010PropOp39
 70
     1
102
RTVSPost2010Prop40
 90
        0
102
RTVSPost2010PropOp40
 70
     1
102
RTVSPost2010Prop41ColorIndex
 90
       18
102
RTVSPost2010Prop41ColorRGB
 90
        0
102
RTVSPost2010PropOp41
 70
     1
102
RTVSPost2010Prop42
 90
       50
102
RTVSPost2010PropOp42
 70
     1
102
RTVSPost2010Prop43
 90
        3
102
RTVSPost2010PropOp43
 70
     1
102
RTVSPost2010Prop44ColorIndex
 90
        5
102
RTVSPost2010Prop44ColorRGB
 90
      255
102
RTVSPost2010PropOp44
 70
     1
102
RTVSPost2010Prop45
280
     0
102
RTVSPost2010PropOp45
 70
     1
102
RTVSPost2010Prop46
 90
       50
102
RTVSPost2010PropOp46
 70
     1
102
RTVSPost2010Prop47
 90
       50
102
RTVSPost2010PropOp47
 70
     1
102
RTVSPost2010Prop48
 90
       50
102
RTVSPost2010PropOp48
 70
     1
102
RTVSPost2010Prop49
280
     0
102
RTVSPost2010PropOp49
 70
     1
102
RTVSPost2010Prop50
 90
       50
102
RTVSPost2010PropOp50
 70
     1
102
RTVSPost2010Prop51ColorIndex
 90
      256
102
RTVSPost2010Prop51ColorRGB
 90
-16777216
102
RTVSPost2010PropOp51
 70
     0
102
RTVSPost2010Prop52
140
1.0
102
RTVSPost2010PropOp52
 70
     0
102
RTVSPost2010Prop53
 90
        2
102
RTVSPost2010PropOp53
 70
     1
102
RTVSPost2010Prop54
  1
strokes_ogs.tif
102
RTVSPost2010PropOp54
 70
     1
102
RTVSPost2010Prop55
280
     0
102
RTVSPost2010PropOp55
 70
     1
102
RTVSPost2010Prop56
140
1.0
102
RTVSPost2010PropOp56
 70
     1
102
RTVSPost2010Prop57
140
1.0
102
RTVSPost2010PropOp57
 70
     1
102
RTVSPropertyOp0
 70
     1
102
RTVSPropertyOp1
 70
     1
102
RTVSPropertyOp2
 70
     1
102
RTVSPropertyOp3
 70
     1
102
RTVSPropertyOp4
 70
     1
102
RTVSPropertyOp5
 70
     1
102
RTVSPropertyOp6
 70
     1
102
RTVSPropertyOp7
 70
     1
102
RTVSPropertyOp8
 70
     1
102
RTVSPropertyOp9
 70
     1
102
RTVSPropertyOp10
 70
     1
102
RTVSPropertyOp11
 70
     1
102
RTVSPropertyOp12
 70
     1
102
RTVSPropertyOp13
 70
     1
102
RTVSPropertyOp14
 70
     1
102
RTVSPropertyOp15
 70
     1
102
RTVSPropertyOp16
 70
     1
102
RTVSPropertyOp17
 70
     1
102
RTVSPropertyOp18
 70
     1
102
RTVSPropertyOp19
 70
     1
102
RTVSPropertyOp20
 70
     1
102
RTVSPropertyOp21
 70
     1
102
RTVSPropertyOp22
 70
     1
102
RTVSPropertyOp23
 70
     1
102
RTVSPropertyOp24
 70
     1
102
RTVSPropertyOp25
 70
     1
102
RTVSPropertyOp26
 70
     1
102
RTVSPropertyOp27
 70
     1
102
RTVSPropertyOp28
 70
     1
102
RTVSPropertyOp29
 70
     1
102
RTVSPropertyOp30
 70
     1
102
RTVSPropertyOp31
 70
     1
102
RTVSPropertyOp32
 70
     1
102
RTVSPropertyOp33
 70
     1
102
RTVSPropertyOp34
 70
     1
102
RTVSPropertyOp35
 70
     1
102
RTVSPropertyOp36
 70
     1
102
RTVSPropertyOp37
 70
     1
102
RTVSPropertyOp38
 70
     1
102
RTVSPropertyOp39
 70
     1
102
RTVSPropertyOp40
 70
     1
102
RTVSPropertyOp41
 70
     1
102
RTVSPropertyOp42
 70
     1
102
RTVSPropertyOp43
 70
     1
102
RTVSPropertyOp44
 70
     1
102
RTVSPropertyOp45
 70
     1
102
RTVSPropertyOp46
 70
     1
102
RTVSPropertyOp47
 70
     1
102
RTVSPropertyOp48
 70
     1
102
RTVSPropertyOp49
 70
     1
102
RTVSPropertyOp50
 70
     1
102
RTVSPropertyOp51
 70
     0
102
RTVSPropertyOp52
 70
     0
102
RTVSPropertyOp53
 70
     1
102
RTVSPropertyOp54
 70
     1
102
RTVSPropertyOp55
 70
     1
102
RTVSPropertyOp56
 70
     1
102
RTVSPropertyOp57
 70
     1
102
RTVSPropertyOp58
 70
     1
102
RTVSPropertyOp59
 70
     1
102
RTVSPropertyOp60
 70
     1
102
RTVSPropertyOp61
 70
     1
102
RTVSPropertyOp62
 70
     1
  0
XRECORD
  5
9AC7
102
{ACAD_REACTORS
330
9AC6
102
}
330
9AC6
100
AcDbXrecord
280
     1
102
RTVSPost2010Prop28
280
     0
102
RTVSPost2010PropOp28
 70
     1
102
RTVSPost2010Prop29
280
     1
102
RTVSPost2010PropOp29
 70
     1
102
RTVSPost2010Prop30
280
     1
102
RTVSPost2010PropOp30
 70
     1
102
RTVSPost2010Prop31
280
     0
102
RTVSPost2010PropOp31
 70
     1
102
RTVSPost2010Prop32
280
     0
102
RTVSPost2010PropOp32
 70
     1
102
RTVSPost2010Prop33
280
     0
102
RTVSPost2010PropOp33
 70
     1
102
RTVSPost2010Prop34
280
     0
102
RTVSPost2010PropOp34
 70
     1
102
RTVSPost2010Prop35
280
     0
102
RTVSPost2010PropOp35
 70
     1
102
RTVSPost2010Prop36
280
     0
102
RTVSPost2010PropOp36
 70
     1
102
RTVSPost2010Prop37
 90
       50
102
RTVSPost2010PropOp37
 70
     1
102
RTVSPost2010Prop38
140
0.0
102
RTVSPost2010PropOp38
 70
     1
102
RTVSPost2010Prop39
140
1.0
102
RTVSPost2010PropOp39
 70
     1
102
RTVSPost2010Prop40
 90
        0
102
RTVSPost2010PropOp40
 70
     1
102
RTVSPost2010Prop41ColorIndex
 90
       18
102
RTVSPost2010Prop41ColorRGB
 90
        0
102
RTVSPost2010PropOp41
 70
     1
102
RTVSPost2010Prop42
 90
       50
102
RTVSPost2010PropOp42
 70
     1
102
RTVSPost2010Prop43
 90
        3
102
RTVSPost2010PropOp43
 70
     1
102
RTVSPost2010Prop44ColorIndex
 90
        5
102
RTVSPost2010Prop44ColorRGB
 90
      255
102
RTVSPost2010PropOp44
 70
     1
102
RTVSPost2010Prop45
280
     0
102
RTVSPost2010PropOp45
 70
     1
102
RTVSPost2010Prop46
 90
       50
102
RTVSPost2010PropOp46
 70
     1
102
RTVSPost2010Prop47
 90
       50
102
RTVSPost2010PropOp47
 70
     1
102
RTVSPost2010Prop48
 90
       50
102
RTVSPost2010PropOp48
 70
     1
102
RTVSPost2010Prop49
280
     0
102
RTVSPost2010PropOp49
 70
     1
102
RTVSPost2010Prop50
 90
       50
102
RTVSPost2010PropOp50
 70
     1
102
RTVSPost2010Prop51ColorIndex
 90
      256
102
RTVSPost2010Prop51ColorRGB
 90
-16777216
102
RTVSPost2010PropOp51
 70
     0
102
RTVSPost2010Prop52
140
1.0
102
RTVSPost2010PropOp52
 70
     0
102
RTVSPost2010Prop53
 90
        2
102
RTVSPost2010PropOp53
 70
     1
102
RTVSPost2010Prop54
  1
strokes_ogs.tif
102
RTVSPost2010PropOp54
 70
     1
102
RTVSPost2010Prop55
280
     0
102
RTVSPost2010PropOp55
 70
     1
102
RTVSPost2010Prop56
140
1.0
102
RTVSPost2010PropOp56
 70
     1
102
RTVSPost2010Prop57
140
1.0
102
RTVSPost2010PropOp57
 70
     1
102
RTVSPropertyOp0
 70
     1
102
RTVSPropertyOp1
 70
     1
102
RTVSPropertyOp2
 70
     1
102
RTVSPropertyOp3
 70
     1
102
RTVSPropertyOp4
 70
     1
102
RTVSPropertyOp5
 70
     1
102
RTVSPropertyOp6
 70
     1
102
RTVSPropertyOp7
 70
     1
102
RTVSPropertyOp8
 70
     1
102
RTVSPropertyOp9
 70
     1
102
RTVSPropertyOp10
 70
     1
102
RTVSPropertyOp11
 70
     1
102
RTVSPropertyOp12
 70
     1
102
RTVSPropertyOp13
 70
     1
102
RTVSPropertyOp14
 70
     1
102
RTVSPropertyOp15
 70
     1
102
RTVSPropertyOp16
 70
     1
102
RTVSPropertyOp17
 70
     1
102
RTVSPropertyOp18
 70
     1
102
RTVSPropertyOp19
 70
     1
102
RTVSPropertyOp20
 70
     1
102
RTVSPropertyOp21
 70
     1
102
RTVSPropertyOp22
 70
     1
102
RTVSPropertyOp23
 70
     1
102
RTVSPropertyOp24
 70
     1
102
RTVSPropertyOp25
 70
     1
102
RTVSPropertyOp26
 70
     1
102
RTVSPropertyOp27
 70
     1
102
RTVSPropertyOp28
 70
     1
102
RTVSPropertyOp29
 70
     1
102
RTVSPropertyOp30
 70
     1
102
RTVSPropertyOp31
 70
     1
102
RTVSPropertyOp32
 70
     1
102
RTVSPropertyOp33
 70
     1
102
RTVSPropertyOp34
 70
     1
102
RTVSPropertyOp35
 70
     1
102
RTVSPropertyOp36
 70
     1
102
RTVSPropertyOp37
 70
     1
102
RTVSPropertyOp38
 70
     1
102
RTVSPropertyOp39
 70
     1
102
RTVSPropertyOp40
 70
     1
102
RTVSPropertyOp41
 70
     1
102
RTVSPropertyOp42
 70
     1
102
RTVSPropertyOp43
 70
     1
102
RTVSPropertyOp44
 70
     1
102
RTVSPropertyOp45
 70
     1
102
RTVSPropertyOp46
 70
     1
102
RTVSPropertyOp47
 70
     1
102
RTVSPropertyOp48
 70
     1
102
RTVSPropertyOp49
 70
     1
102
RTVSPropertyOp50
 70
     1
102
RTVSPropertyOp51
 70
     0
102
RTVSPropertyOp52
 70
     0
102
RTVSPropertyOp53
 70
     1
102
RTVSPropertyOp54
 70
     1
102
RTVSPropertyOp55
 70
     1
102
RTVSPropertyOp56
 70
     1
102
RTVSPropertyOp57
 70
     1
102
RTVSPropertyOp58
 70
     1
102
RTVSPropertyOp59
 70
     1
102
RTVSPropertyOp60
 70
     1
102
RTVSPropertyOp61
 70
     1
102
RTVSPropertyOp62
 70
     1
  0
XRECORD
  5
9AC5
102
{ACAD_REACTORS
330
9AC4
102
}
330
9AC4
100
AcDbXrecord
280
     1
102
RTVSPost2010Prop28
280
     0
102
RTVSPost2010PropOp28
 70
     1
102
RTVSPost2010Prop29
280
     1
102
RTVSPost2010PropOp29
 70
     1
102
RTVSPost2010Prop30
280
     1
102
RTVSPost2010PropOp30
 70
     1
102
RTVSPost2010Prop31
280
     0
102
RTVSPost2010PropOp31
 70
     1
102
RTVSPost2010Prop32
280
     0
102
RTVSPost2010PropOp32
 70
     1
102
RTVSPost2010Prop33
280
     0
102
RTVSPost2010PropOp33
 70
     1
102
RTVSPost2010Prop34
280
     0
102
RTVSPost2010PropOp34
 70
     1
102
RTVSPost2010Prop35
280
     0
102
RTVSPost2010PropOp35
 70
     1
102
RTVSPost2010Prop36
280
     0
102
RTVSPost2010PropOp36
 70
     1
102
RTVSPost2010Prop37
 90
       50
102
RTVSPost2010PropOp37
 70
     1
102
RTVSPost2010Prop38
140
0.0
102
RTVSPost2010PropOp38
 70
     1
102
RTVSPost2010Prop39
140
1.0
102
RTVSPost2010PropOp39
 70
     1
102
RTVSPost2010Prop40
 90
        0
102
RTVSPost2010PropOp40
 70
     1
102
RTVSPost2010Prop41ColorIndex
 90
       18
102
RTVSPost2010Prop41ColorRGB
 90
        0
102
RTVSPost2010PropOp41
 70
     1
102
RTVSPost2010Prop42
 90
       50
102
RTVSPost2010PropOp42
 70
     1
102
RTVSPost2010Prop43
 90
        3
102
RTVSPost2010PropOp43
 70
     1
102
RTVSPost2010Prop44ColorIndex
 90
        5
102
RTVSPost2010Prop44ColorRGB
 90
      255
102
RTVSPost2010PropOp44
 70
     1
102
RTVSPost2010Prop45
280
     0
102
RTVSPost2010PropOp45
 70
     1
102
RTVSPost2010Prop46
 90
       50
102
RTVSPost2010PropOp46
 70
     1
102
RTVSPost2010Prop47
 90
       50
102
RTVSPost2010PropOp47
 70
     1
102
RTVSPost2010Prop48
 90
       50
102
RTVSPost2010PropOp48
 70
     1
102
RTVSPost2010Prop49
280
     0
102
RTVSPost2010PropOp49
 70
     1
102
RTVSPost2010Prop50
 90
       50
102
RTVSPost2010PropOp50
 70
     1
102
RTVSPost2010Prop51ColorIndex
 90
      256
102
RTVSPost2010Prop51ColorRGB
 90
-16777216
102
RTVSPost2010PropOp51
 70
     0
102
RTVSPost2010Prop52
140
1.0
102
RTVSPost2010PropOp52
 70
     0
102
RTVSPost2010Prop53
 90
        2
102
RTVSPost2010PropOp53
 70
     1
102
RTVSPost2010Prop54
  1
strokes_ogs.tif
102
RTVSPost2010PropOp54
 70
     1
102
RTVSPost2010Prop55
280
     0
102
RTVSPost2010PropOp55
 70
     1
102
RTVSPost2010Prop56
140
1.0
102
RTVSPost2010PropOp56
 70
     1
102
RTVSPost2010Prop57
140
1.0
102
RTVSPost2010PropOp57
 70
     1
102
RTVSPropertyOp0
 70
     1
102
RTVSPropertyOp1
 70
     1
102
RTVSPropertyOp2
 70
     1
102
RTVSPropertyOp3
 70
     1
102
RTVSPropertyOp4
 70
     1
102
RTVSPropertyOp5
 70
     1
102
RTVSPropertyOp6
 70
     1
102
RTVSPropertyOp7
 70
     1
102
RTVSPropertyOp8
 70
     1
102
RTVSPropertyOp9
 70
     1
102
RTVSPropertyOp10
 70
     1
102
RTVSPropertyOp11
 70
     1
102
RTVSPropertyOp12
 70
     1
102
RTVSPropertyOp13
 70
     1
102
RTVSPropertyOp14
 70
     1
102
RTVSPropertyOp15
 70
     1
102
RTVSPropertyOp16
 70
     1
102
RTVSPropertyOp17
 70
     1
102
RTVSPropertyOp18
 70
     1
102
RTVSPropertyOp19
 70
     1
102
RTVSPropertyOp20
 70
     1
102
RTVSPropertyOp21
 70
     1
102
RTVSPropertyOp22
 70
     1
102
RTVSPropertyOp23
 70
     1
102
RTVSPropertyOp24
 70
     1
102
RTVSPropertyOp25
 70
     1
102
RTVSPropertyOp26
 70
     1
102
RTVSPropertyOp27
 70
     1
102
RTVSPropertyOp28
 70
     1
102
RTVSPropertyOp29
 70
     1
102
RTVSPropertyOp30
 70
     1
102
RTVSPropertyOp31
 70
     1
102
RTVSPropertyOp32
 70
     1
102
RTVSPropertyOp33
 70
     1
102
RTVSPropertyOp34
 70
     1
102
RTVSPropertyOp35
 70
     1
102
RTVSPropertyOp36
 70
     1
102
RTVSPropertyOp37
 70
     1
102
RTVSPropertyOp38
 70
     1
102
RTVSPropertyOp39
 70
     1
102
RTVSPropertyOp40
 70
     1
102
RTVSPropertyOp41
 70
     1
102
RTVSPropertyOp42
 70
     1
102
RTVSPropertyOp43
 70
     1
102
RTVSPropertyOp44
 70
     1
102
RTVSPropertyOp45
 70
     1
102
RTVSPropertyOp46
 70
     1
102
RTVSPropertyOp47
 70
     1
102
RTVSPropertyOp48
 70
     1
102
RTVSPropertyOp49
 70
     1
102
RTVSPropertyOp50
 70
     1
102
RTVSPropertyOp51
 70
     0
102
RTVSPropertyOp52
 70
     0
102
RTVSPropertyOp53
 70
     1
102
RTVSPropertyOp54
 70
     1
102
RTVSPropertyOp55
 70
     1
102
RTVSPropertyOp56
 70
     1
102
RTVSPropertyOp57
 70
     1
102
RTVSPropertyOp58
 70
     1
102
RTVSPropertyOp59
 70
     1
102
RTVSPropertyOp60
 70
     1
102
RTVSPropertyOp61
 70
     1
102
RTVSPropertyOp62
 70
     1
  0
XRECORD
  5
9ABF
102
{ACAD_REACTORS
330
9ABE
102
}
330
9ABE
100
AcDbXrecord
280
     1
102
RTVSPost2010Prop28
280
     0
102
RTVSPost2010PropOp28
 70
     1
102
RTVSPost2010Prop29
280
     1
102
RTVSPost2010PropOp29
 70
     1
102
RTVSPost2010Prop30
280
     1
102
RTVSPost2010PropOp30
 70
     1
102
RTVSPost2010Prop31
280
     0
102
RTVSPost2010PropOp31
 70
     1
102
RTVSPost2010Prop32
280
     0
102
RTVSPost2010PropOp32
 70
     1
102
RTVSPost2010Prop33
280
     0
102
RTVSPost2010PropOp33
 70
     1
102
RTVSPost2010Prop34
280
     0
102
RTVSPost2010PropOp34
 70
     1
102
RTVSPost2010Prop35
280
     0
102
RTVSPost2010PropOp35
 70
     1
102
RTVSPost2010Prop36
280
     0
102
RTVSPost2010PropOp36
 70
     1
102
RTVSPost2010Prop37
 90
       50
102
RTVSPost2010PropOp37
 70
     1
102
RTVSPost2010Prop38
140
0.0
102
RTVSPost2010PropOp38
 70
     1
102
RTVSPost2010Prop39
140
1.0
102
RTVSPost2010PropOp39
 70
     1
102
RTVSPost2010Prop40
 90
        0
102
RTVSPost2010PropOp40
 70
     1
102
RTVSPost2010Prop41ColorIndex
 90
       18
102
RTVSPost2010Prop41ColorRGB
 90
        0
102
RTVSPost2010PropOp41
 70
     1
102
RTVSPost2010Prop42
 90
       50
102
RTVSPost2010PropOp42
 70
     1
102
RTVSPost2010Prop43
 90
        3
102
RTVSPost2010PropOp43
 70
     1
102
RTVSPost2010Prop44ColorIndex
 90
        5
102
RTVSPost2010Prop44ColorRGB
 90
      255
102
RTVSPost2010PropOp44
 70
     1
102
RTVSPost2010Prop45
280
     0
102
RTVSPost2010PropOp45
 70
     1
102
RTVSPost2010Prop46
 90
       50
102
RTVSPost2010PropOp46
 70
     1
102
RTVSPost2010Prop47
 90
       50
102
RTVSPost2010PropOp47
 70
     1
102
RTVSPost2010Prop48
 90
       50
102
RTVSPost2010PropOp48
 70
     1
102
RTVSPost2010Prop49
280
     0
102
RTVSPost2010PropOp49
 70
     1
102
RTVSPost2010Prop50
 90
       50
102
RTVSPost2010PropOp50
 70
     1
102
RTVSPost2010Prop51ColorIndex
 90
      256
102
RTVSPost2010Prop51ColorRGB
 90
-16777216
102
RTVSPost2010PropOp51
 70
     0
102
RTVSPost2010Prop52
140
1.0
102
RTVSPost2010PropOp52
 70
     0
102
RTVSPost2010Prop53
 90
        2
102
RTVSPost2010PropOp53
 70
     1
102
RTVSPost2010Prop54
  1
strokes_ogs.tif
102
RTVSPost2010PropOp54
 70
     1
102
RTVSPost2010Prop55
280
     0
102
RTVSPost2010PropOp55
 70
     1
102
RTVSPost2010Prop56
140
1.0
102
RTVSPost2010PropOp56
 70
     1
102
RTVSPost2010Prop57
140
1.0
102
RTVSPost2010PropOp57
 70
     1
102
RTVSPropertyOp0
 70
     1
102
RTVSPropertyOp1
 70
     1
102
RTVSPropertyOp2
 70
     1
102
RTVSPropertyOp3
 70
     1
102
RTVSPropertyOp4
 70
     1
102
RTVSPropertyOp5
 70
     1
102
RTVSPropertyOp6
 70
     1
102
RTVSPropertyOp7
 70
     1
102
RTVSPropertyOp8
 70
     1
102
RTVSPropertyOp9
 70
     1
102
RTVSPropertyOp10
 70
     1
102
RTVSPropertyOp11
 70
     1
102
RTVSPropertyOp12
 70
     1
102
RTVSPropertyOp13
 70
     1
102
RTVSPropertyOp14
 70
     1
102
RTVSPropertyOp15
 70
     1
102
RTVSPropertyOp16
 70
     1
102
RTVSPropertyOp17
 70
     1
102
RTVSPropertyOp18
 70
     1
102
RTVSPropertyOp19
 70
     1
102
RTVSPropertyOp20
 70
     1
102
RTVSPropertyOp21
 70
     1
102
RTVSPropertyOp22
 70
     1
102
RTVSPropertyOp23
 70
     1
102
RTVSPropertyOp24
 70
     1
102
RTVSPropertyOp25
 70
     1
102
RTVSPropertyOp26
 70
     1
102
RTVSPropertyOp27
 70
     1
102
RTVSPropertyOp28
 70
     1
102
RTVSPropertyOp29
 70
     1
102
RTVSPropertyOp30
 70
     1
102
RTVSPropertyOp31
 70
     1
102
RTVSPropertyOp32
 70
     1
102
RTVSPropertyOp33
 70
     1
102
RTVSPropertyOp34
 70
     1
102
RTVSPropertyOp35
 70
     1
102
RTVSPropertyOp36
 70
     1
102
RTVSPropertyOp37
 70
     1
102
RTVSPropertyOp38
 70
     1
102
RTVSPropertyOp39
 70
     1
102
RTVSPropertyOp40
 70
     1
102
RTVSPropertyOp41
 70
     1
102
RTVSPropertyOp42
 70
     1
102
RTVSPropertyOp43
 70
     1
102
RTVSPropertyOp44
 70
     1
102
RTVSPropertyOp45
 70
     1
102
RTVSPropertyOp46
 70
     1
102
RTVSPropertyOp47
 70
     1
102
RTVSPropertyOp48
 70
     1
102
RTVSPropertyOp49
 70
     1
102
RTVSPropertyOp50
 70
     1
102
RTVSPropertyOp51
 70
     0
102
RTVSPropertyOp52
 70
     0
102
RTVSPropertyOp53
 70
     1
102
RTVSPropertyOp54
 70
     1
102
RTVSPropertyOp55
 70
     1
102
RTVSPropertyOp56
 70
     1
102
RTVSPropertyOp57
 70
     1
102
RTVSPropertyOp58
 70
     1
102
RTVSPropertyOp59
 70
     1
102
RTVSPropertyOp60
 70
     1
102
RTVSPropertyOp61
 70
     1
102
RTVSPropertyOp62
 70
     1
  0
XRECORD
  5
9AC1
102
{ACAD_REACTORS
330
9AC0
102
}
330
9AC0
100
AcDbXrecord
280
     1
102
RTVSPost2010Prop28
280
     0
102
RTVSPost2010PropOp28
 70
     1
102
RTVSPost2010Prop29
280
     1
102
RTVSPost2010PropOp29
 70
     1
102
RTVSPost2010Prop30
280
     1
102
RTVSPost2010PropOp30
 70
     1
102
RTVSPost2010Prop31
280
     0
102
RTVSPost2010PropOp31
 70
     1
102
RTVSPost2010Prop32
280
     0
102
RTVSPost2010PropOp32
 70
     1
102
RTVSPost2010Prop33
280
     0
102
RTVSPost2010PropOp33
 70
     1
102
RTVSPost2010Prop34
280
     0
102
RTVSPost2010PropOp34
 70
     1
102
RTVSPost2010Prop35
280
     0
102
RTVSPost2010PropOp35
 70
     1
102
RTVSPost2010Prop36
280
     0
102
RTVSPost2010PropOp36
 70
     1
102
RTVSPost2010Prop37
 90
       50
102
RTVSPost2010PropOp37
 70
     1
102
RTVSPost2010Prop38
140
0.0
102
RTVSPost2010PropOp38
 70
     1
102
RTVSPost2010Prop39
140
1.0
102
RTVSPost2010PropOp39
 70
     1
102
RTVSPost2010Prop40
 90
        0
102
RTVSPost2010PropOp40
 70
     1
102
RTVSPost2010Prop41ColorIndex
 90
       18
102
RTVSPost2010Prop41ColorRGB
 90
        0
102
RTVSPost2010PropOp41
 70
     1
102
RTVSPost2010Prop42
 90
       50
102
RTVSPost2010PropOp42
 70
     1
102
RTVSPost2010Prop43
 90
        3
102
RTVSPost2010PropOp43
 70
     1
102
RTVSPost2010Prop44ColorIndex
 90
        5
102
RTVSPost2010Prop44ColorRGB
 90
      255
102
RTVSPost2010PropOp44
 70
     1
102
RTVSPost2010Prop45
280
     0
102
RTVSPost2010PropOp45
 70
     1
102
RTVSPost2010Prop46
 90
       50
102
RTVSPost2010PropOp46
 70
     1
102
RTVSPost2010Prop47
 90
       50
102
RTVSPost2010PropOp47
 70
     1
102
RTVSPost2010Prop48
 90
       50
102
RTVSPost2010PropOp48
 70
     1
102
RTVSPost2010Prop49
280
     0
102
RTVSPost2010PropOp49
 70
     1
102
RTVSPost2010Prop50
 90
       50
102
RTVSPost2010PropOp50
 70
     1
102
RTVSPost2010Prop51ColorIndex
 90
      256
102
RTVSPost2010Prop51ColorRGB
 90
-16777216
102
RTVSPost2010PropOp51
 70
     0
102
RTVSPost2010Prop52
140
1.0
102
RTVSPost2010PropOp52
 70
     0
102
RTVSPost2010Prop53
 90
        2
102
RTVSPost2010PropOp53
 70
     1
102
RTVSPost2010Prop54
  1
strokes_ogs.tif
102
RTVSPost2010PropOp54
 70
     1
102
RTVSPost2010Prop55
280
     0
102
RTVSPost2010PropOp55
 70
     1
102
RTVSPost2010Prop56
140
1.0
102
RTVSPost2010PropOp56
 70
     1
102
RTVSPost2010Prop57
140
1.0
102
RTVSPost2010PropOp57
 70
     1
102
RTVSPropertyOp0
 70
     1
102
RTVSPropertyOp1
 70
     1
102
RTVSPropertyOp2
 70
     1
102
RTVSPropertyOp3
 70
     1
102
RTVSPropertyOp4
 70
     1
102
RTVSPropertyOp5
 70
     1
102
RTVSPropertyOp6
 70
     1
102
RTVSPropertyOp7
 70
     1
102
RTVSPropertyOp8
 70
     1
102
RTVSPropertyOp9
 70
     1
102
RTVSPropertyOp10
 70
     1
102
RTVSPropertyOp11
 70
     1
102
RTVSPropertyOp12
 70
     1
102
RTVSPropertyOp13
 70
     1
102
RTVSPropertyOp14
 70
     1
102
RTVSPropertyOp15
 70
     1
102
RTVSPropertyOp16
 70
     1
102
RTVSPropertyOp17
 70
     1
102
RTVSPropertyOp18
 70
     1
102
RTVSPropertyOp19
 70
     1
102
RTVSPropertyOp20
 70
     1
102
RTVSPropertyOp21
 70
     1
102
RTVSPropertyOp22
 70
     1
102
RTVSPropertyOp23
 70
     1
102
RTVSPropertyOp24
 70
     1
102
RTVSPropertyOp25
 70
     1
102
RTVSPropertyOp26
 70
     1
102
RTVSPropertyOp27
 70
     1
102
RTVSPropertyOp28
 70
     1
102
RTVSPropertyOp29
 70
     1
102
RTVSPropertyOp30
 70
     1
102
RTVSPropertyOp31
 70
     1
102
RTVSPropertyOp32
 70
     1
102
RTVSPropertyOp33
 70
     1
102
RTVSPropertyOp34
 70
     1
102
RTVSPropertyOp35
 70
     1
102
RTVSPropertyOp36
 70
     1
102
RTVSPropertyOp37
 70
     1
102
RTVSPropertyOp38
 70
     1
102
RTVSPropertyOp39
 70
     1
102
RTVSPropertyOp40
 70
     1
102
RTVSPropertyOp41
 70
     1
102
RTVSPropertyOp42
 70
     1
102
RTVSPropertyOp43
 70
     1
102
RTVSPropertyOp44
 70
     1
102
RTVSPropertyOp45
 70
     1
102
RTVSPropertyOp46
 70
     1
102
RTVSPropertyOp47
 70
     1
102
RTVSPropertyOp48
 70
     1
102
RTVSPropertyOp49
 70
     1
102
RTVSPropertyOp50
 70
     1
102
RTVSPropertyOp51
 70
     0
102
RTVSPropertyOp52
 70
     0
102
RTVSPropertyOp53
 70
     1
102
RTVSPropertyOp54
 70
     1
102
RTVSPropertyOp55
 70
     1
102
RTVSPropertyOp56
 70
     1
102
RTVSPropertyOp57
 70
     1
102
RTVSPropertyOp58
 70
     1
102
RTVSPropertyOp59
 70
     1
102
RTVSPropertyOp60
 70
     1
102
RTVSPropertyOp61
 70
     1
102
RTVSPropertyOp62
 70
     1
  0
XRECORD
  5
9AB7
102
{ACAD_REACTORS
330
9AB6
102
}
330
9AB6
100
AcDbXrecord
280
     1
102
RTVSPost2010Prop28
280
     0
102
RTVSPost2010PropOp28
 70
     1
102
RTVSPost2010Prop29
280
     1
102
RTVSPost2010PropOp29
 70
     1
102
RTVSPost2010Prop30
280
     1
102
RTVSPost2010PropOp30
 70
     1
102
RTVSPost2010Prop31
280
     0
102
RTVSPost2010PropOp31
 70
     1
102
RTVSPost2010Prop32
280
     0
102
RTVSPost2010PropOp32
 70
     1
102
RTVSPost2010Prop33
280
     0
102
RTVSPost2010PropOp33
 70
     1
102
RTVSPost2010Prop34
280
     0
102
RTVSPost2010PropOp34
 70
     1
102
RTVSPost2010Prop35
280
     0
102
RTVSPost2010PropOp35
 70
     1
102
RTVSPost2010Prop36
280
     0
102
RTVSPost2010PropOp36
 70
     1
102
RTVSPost2010Prop37
 90
       50
102
RTVSPost2010PropOp37
 70
     1
102
RTVSPost2010Prop38
140
0.0
102
RTVSPost2010PropOp38
 70
     1
102
RTVSPost2010Prop39
140
1.0
102
RTVSPost2010PropOp39
 70
     1
102
RTVSPost2010Prop40
 90
        0
102
RTVSPost2010PropOp40
 70
     1
102
RTVSPost2010Prop41ColorIndex
 90
       18
102
RTVSPost2010Prop41ColorRGB
 90
        0
102
RTVSPost2010PropOp41
 70
     1
102
RTVSPost2010Prop42
 90
       50
102
RTVSPost2010PropOp42
 70
     1
102
RTVSPost2010Prop43
 90
        3
102
RTVSPost2010PropOp43
 70
     1
102
RTVSPost2010Prop44ColorIndex
 90
        5
102
RTVSPost2010Prop44ColorRGB
 90
      255
102
RTVSPost2010PropOp44
 70
     1
102
RTVSPost2010Prop45
280
     0
102
RTVSPost2010PropOp45
 70
     1
102
RTVSPost2010Prop46
 90
       50
102
RTVSPost2010PropOp46
 70
     1
102
RTVSPost2010Prop47
 90
       50
102
RTVSPost2010PropOp47
 70
     1
102
RTVSPost2010Prop48
 90
       50
102
RTVSPost2010PropOp48
 70
     1
102
RTVSPost2010Prop49
280
     0
102
RTVSPost2010PropOp49
 70
     1
102
RTVSPost2010Prop50
 90
       50
102
RTVSPost2010PropOp50
 70
     1
102
RTVSPost2010Prop51ColorIndex
 90
      256
102
RTVSPost2010Prop51ColorRGB
 90
-16777216
102
RTVSPost2010PropOp51
 70
     0
102
RTVSPost2010Prop52
140
1.0
102
RTVSPost2010PropOp52
 70
     0
102
RTVSPost2010Prop53
 90
        2
102
RTVSPost2010PropOp53
 70
     1
102
RTVSPost2010Prop54
  1
strokes_ogs.tif
102
RTVSPost2010PropOp54
 70
     1
102
RTVSPost2010Prop55
280
     0
102
RTVSPost2010PropOp55
 70
     1
102
RTVSPost2010Prop56
140
1.0
102
RTVSPost2010PropOp56
 70
     1
102
RTVSPost2010Prop57
140
1.0
102
RTVSPost2010PropOp57
 70
     1
102
RTVSPropertyOp0
 70
     1
102
RTVSPropertyOp1
 70
     1
102
RTVSPropertyOp2
 70
     1
102
RTVSPropertyOp3
 70
     1
102
RTVSPropertyOp4
 70
     1
102
RTVSPropertyOp5
 70
     1
102
RTVSPropertyOp6
 70
     1
102
RTVSPropertyOp7
 70
     1
102
RTVSPropertyOp8
 70
     1
102
RTVSPropertyOp9
 70
     1
102
RTVSPropertyOp10
 70
     1
102
RTVSPropertyOp11
 70
     1
102
RTVSPropertyOp12
 70
     1
102
RTVSPropertyOp13
 70
     1
102
RTVSPropertyOp14
 70
     1
102
RTVSPropertyOp15
 70
     1
102
RTVSPropertyOp16
 70
     1
102
RTVSPropertyOp17
 70
     1
102
RTVSPropertyOp18
 70
     1
102
RTVSPropertyOp19
 70
     1
102
RTVSPropertyOp20
 70
     1
102
RTVSPropertyOp21
 70
     1
102
RTVSPropertyOp22
 70
     1
102
RTVSPropertyOp23
 70
     1
102
RTVSPropertyOp24
 70
     1
102
RTVSPropertyOp25
 70
     1
102
RTVSPropertyOp26
 70
     1
102
RTVSPropertyOp27
 70
     1
102
RTVSPropertyOp28
 70
     1
102
RTVSPropertyOp29
 70
     1
102
RTVSPropertyOp30
 70
     1
102
RTVSPropertyOp31
 70
     1
102
RTVSPropertyOp32
 70
     1
102
RTVSPropertyOp33
 70
     1
102
RTVSPropertyOp34
 70
     1
102
RTVSPropertyOp35
 70
     1
102
RTVSPropertyOp36
 70
     1
102
RTVSPropertyOp37
 70
     1
102
RTVSPropertyOp38
 70
     1
102
RTVSPropertyOp39
 70
     1
102
RTVSPropertyOp40
 70
     1
102
RTVSPropertyOp41
 70
     1
102
RTVSPropertyOp42
 70
     1
102
RTVSPropertyOp43
 70
     1
102
RTVSPropertyOp44
 70
     1
102
RTVSPropertyOp45
 70
     1
102
RTVSPropertyOp46
 70
     1
102
RTVSPropertyOp47
 70
     1
102
RTVSPropertyOp48
 70
     1
102
RTVSPropertyOp49
 70
     1
102
RTVSPropertyOp50
 70
     1
102
RTVSPropertyOp51
 70
     0
102
RTVSPropertyOp52
 70
     0
102
RTVSPropertyOp53
 70
     1
102
RTVSPropertyOp54
 70
     1
102
RTVSPropertyOp55
 70
     1
102
RTVSPropertyOp56
 70
     1
102
RTVSPropertyOp57
 70
     1
102
RTVSPropertyOp58
 70
     1
102
RTVSPropertyOp59
 70
     1
102
RTVSPropertyOp60
 70
     1
102
RTVSPropertyOp61
 70
     1
102
RTVSPropertyOp62
 70
     1
  0
XRECORD
  5
9AAB
102
{ACAD_REACTORS
330
9AAA
102
}
330
9AAA
100
AcDbXrecord
280
     1
102
RTVSPost2010Prop28
280
     0
102
RTVSPost2010PropOp28
 70
     1
102
RTVSPost2010Prop29
280
     1
102
RTVSPost2010PropOp29
 70
     1
102
RTVSPost2010Prop30
280
     1
102
RTVSPost2010PropOp30
 70
     1
102
RTVSPost2010Prop31
280
     0
102
RTVSPost2010PropOp31
 70
     1
102
RTVSPost2010Prop32
280
     0
102
RTVSPost2010PropOp32
 70
     1
102
RTVSPost2010Prop33
280
     0
102
RTVSPost2010PropOp33
 70
     1
102
RTVSPost2010Prop34
280
     0
102
RTVSPost2010PropOp34
 70
     1
102
RTVSPost2010Prop35
280
     0
102
RTVSPost2010PropOp35
 70
     1
102
RTVSPost2010Prop36
280
     0
102
RTVSPost2010PropOp36
 70
     1
102
RTVSPost2010Prop37
 90
       50
102
RTVSPost2010PropOp37
 70
     1
102
RTVSPost2010Prop38
140
0.0
102
RTVSPost2010PropOp38
 70
     1
102
RTVSPost2010Prop39
140
1.0
102
RTVSPost2010PropOp39
 70
     1
102
RTVSPost2010Prop40
 90
        0
102
RTVSPost2010PropOp40
 70
     1
102
RTVSPost2010Prop41ColorIndex
 90
       18
102
RTVSPost2010Prop41ColorRGB
 90
        0
102
RTVSPost2010PropOp41
 70
     1
102
RTVSPost2010Prop42
 90
       50
102
RTVSPost2010PropOp42
 70
     1
102
RTVSPost2010Prop43
 90
        3
102
RTVSPost2010PropOp43
 70
     1
102
RTVSPost2010Prop44ColorIndex
 90
        5
102
RTVSPost2010Prop44ColorRGB
 90
      255
102
RTVSPost2010PropOp44
 70
     1
102
RTVSPost2010Prop45
280
     0
102
RTVSPost2010PropOp45
 70
     1
102
RTVSPost2010Prop46
 90
       50
102
RTVSPost2010PropOp46
 70
     1
102
RTVSPost2010Prop47
 90
       50
102
RTVSPost2010PropOp47
 70
     1
102
RTVSPost2010Prop48
 90
       50
102
RTVSPost2010PropOp48
 70
     1
102
RTVSPost2010Prop49
280
     0
102
RTVSPost2010PropOp49
 70
     1
102
RTVSPost2010Prop50
 90
       50
102
RTVSPost2010PropOp50
 70
     1
102
RTVSPost2010Prop51ColorIndex
 90
      256
102
RTVSPost2010Prop51ColorRGB
 90
-16777216
102
RTVSPost2010PropOp51
 70
     0
102
RTVSPost2010Prop52
140
1.0
102
RTVSPost2010PropOp52
 70
     0
102
RTVSPost2010Prop53
 90
        2
102
RTVSPost2010PropOp53
 70
     1
102
RTVSPost2010Prop54
  1
strokes_ogs.tif
102
RTVSPost2010PropOp54
 70
     1
102
RTVSPost2010Prop55
280
     0
102
RTVSPost2010PropOp55
 70
     1
102
RTVSPost2010Prop56
140
1.0
102
RTVSPost2010PropOp56
 70
     1
102
RTVSPost2010Prop57
140
1.0
102
RTVSPost2010PropOp57
 70
     1
102
RTVSPropertyOp0
 70
     1
102
RTVSPropertyOp1
 70
     1
102
RTVSPropertyOp2
 70
     1
102
RTVSPropertyOp3
 70
     1
102
RTVSPropertyOp4
 70
     1
102
RTVSPropertyOp5
 70
     1
102
RTVSPropertyOp6
 70
     1
102
RTVSPropertyOp7
 70
     1
102
RTVSPropertyOp8
 70
     1
102
RTVSPropertyOp9
 70
     1
102
RTVSPropertyOp10
 70
     1
102
RTVSPropertyOp11
 70
     1
102
RTVSPropertyOp12
 70
     1
102
RTVSPropertyOp13
 70
     1
102
RTVSPropertyOp14
 70
     1
102
RTVSPropertyOp15
 70
     1
102
RTVSPropertyOp16
 70
     1
102
RTVSPropertyOp17
 70
     1
102
RTVSPropertyOp18
 70
     1
102
RTVSPropertyOp19
 70
     1
102
RTVSPropertyOp20
 70
     1
102
RTVSPropertyOp21
 70
     1
102
RTVSPropertyOp22
 70
     1
102
RTVSPropertyOp23
 70
     1
102
RTVSPropertyOp24
 70
     1
102
RTVSPropertyOp25
 70
     1
102
RTVSPropertyOp26
 70
     1
102
RTVSPropertyOp27
 70
     1
102
RTVSPropertyOp28
 70
     1
102
RTVSPropertyOp29
 70
     1
102
RTVSPropertyOp30
 70
     1
102
RTVSPropertyOp31
 70
     1
102
RTVSPropertyOp32
 70
     1
102
RTVSPropertyOp33
 70
     1
102
RTVSPropertyOp34
 70
     1
102
RTVSPropertyOp35
 70
     1
102
RTVSPropertyOp36
 70
     1
102
RTVSPropertyOp37
 70
     1
102
RTVSPropertyOp38
 70
     1
102
RTVSPropertyOp39
 70
     1
102
RTVSPropertyOp40
 70
     1
102
RTVSPropertyOp41
 70
     1
102
RTVSPropertyOp42
 70
     1
102
RTVSPropertyOp43
 70
     1
102
RTVSPropertyOp44
 70
     1
102
RTVSPropertyOp45
 70
     1
102
RTVSPropertyOp46
 70
     1
102
RTVSPropertyOp47
 70
     1
102
RTVSPropertyOp48
 70
     1
102
RTVSPropertyOp49
 70
     1
102
RTVSPropertyOp50
 70
     1
102
RTVSPropertyOp51
 70
     0
102
RTVSPropertyOp52
 70
     0
102
RTVSPropertyOp53
 70
     1
102
RTVSPropertyOp54
 70
     1
102
RTVSPropertyOp55
 70
     1
102
RTVSPropertyOp56
 70
     1
102
RTVSPropertyOp57
 70
     1
102
RTVSPropertyOp58
 70
     1
102
RTVSPropertyOp59
 70
     1
102
RTVSPropertyOp60
 70
     1
102
RTVSPropertyOp61
 70
     1
102
RTVSPropertyOp62
 70
     1
  0
XRECORD
  5
9AC3
102
{ACAD_REACTORS
330
9AC2
102
}
330
9AC2
100
AcDbXrecord
280
     1
102
RTVSPost2010Prop28
280
     0
102
RTVSPost2010PropOp28
 70
     1
102
RTVSPost2010Prop29
280
     1
102
RTVSPost2010PropOp29
 70
     1
102
RTVSPost2010Prop30
280
     1
102
RTVSPost2010PropOp30
 70
     1
102
RTVSPost2010Prop31
280
     0
102
RTVSPost2010PropOp31
 70
     1
102
RTVSPost2010Prop32
280
     0
102
RTVSPost2010PropOp32
 70
     1
102
RTVSPost2010Prop33
280
     0
102
RTVSPost2010PropOp33
 70
     1
102
RTVSPost2010Prop34
280
     0
102
RTVSPost2010PropOp34
 70
     1
102
RTVSPost2010Prop35
280
     0
102
RTVSPost2010PropOp35
 70
     1
102
RTVSPost2010Prop36
280
     0
102
RTVSPost2010PropOp36
 70
     1
102
RTVSPost2010Prop37
 90
       50
102
RTVSPost2010PropOp37
 70
     1
102
RTVSPost2010Prop38
140
0.0
102
RTVSPost2010PropOp38
 70
     1
102
RTVSPost2010Prop39
140
1.0
102
RTVSPost2010PropOp39
 70
     1
102
RTVSPost2010Prop40
 90
        0
102
RTVSPost2010PropOp40
 70
     1
102
RTVSPost2010Prop41ColorIndex
 90
       18
102
RTVSPost2010Prop41ColorRGB
 90
        0
102
RTVSPost2010PropOp41
 70
     1
102
RTVSPost2010Prop42
 90
       50
102
RTVSPost2010PropOp42
 70
     1
102
RTVSPost2010Prop43
 90
        3
102
RTVSPost2010PropOp43
 70
     1
102
RTVSPost2010Prop44ColorIndex
 90
        5
102
RTVSPost2010Prop44ColorRGB
 90
      255
102
RTVSPost2010PropOp44
 70
     1
102
RTVSPost2010Prop45
280
     0
102
RTVSPost2010PropOp45
 70
     1
102
RTVSPost2010Prop46
 90
       50
102
RTVSPost2010PropOp46
 70
     1
102
RTVSPost2010Prop47
 90
       50
102
RTVSPost2010PropOp47
 70
     1
102
RTVSPost2010Prop48
 90
       50
102
RTVSPost2010PropOp48
 70
     1
102
RTVSPost2010Prop49
280
     0
102
RTVSPost2010PropOp49
 70
     1
102
RTVSPost2010Prop50
 90
       50
102
RTVSPost2010PropOp50
 70
     1
102
RTVSPost2010Prop51ColorIndex
 90
      256
102
RTVSPost2010Prop51ColorRGB
 90
-16777216
102
RTVSPost2010PropOp51
 70
     0
102
RTVSPost2010Prop52
140
1.0
102
RTVSPost2010PropOp52
 70
     0
102
RTVSPost2010Prop53
 90
        2
102
RTVSPost2010PropOp53
 70
     1
102
RTVSPost2010Prop54
  1
strokes_ogs.tif
102
RTVSPost2010PropOp54
 70
     1
102
RTVSPost2010Prop55
280
     0
102
RTVSPost2010PropOp55
 70
     1
102
RTVSPost2010Prop56
140
1.0
102
RTVSPost2010PropOp56
 70
     1
102
RTVSPost2010Prop57
140
1.0
102
RTVSPost2010PropOp57
 70
     1
102
RTVSPropertyOp0
 70
     1
102
RTVSPropertyOp1
 70
     1
102
RTVSPropertyOp2
 70
     1
102
RTVSPropertyOp3
 70
     1
102
RTVSPropertyOp4
 70
     1
102
RTVSPropertyOp5
 70
     1
102
RTVSPropertyOp6
 70
     1
102
RTVSPropertyOp7
 70
     1
102
RTVSPropertyOp8
 70
     1
102
RTVSPropertyOp9
 70
     1
102
RTVSPropertyOp10
 70
     1
102
RTVSPropertyOp11
 70
     1
102
RTVSPropertyOp12
 70
     1
102
RTVSPropertyOp13
 70
     1
102
RTVSPropertyOp14
 70
     1
102
RTVSPropertyOp15
 70
     1
102
RTVSPropertyOp16
 70
     1
102
RTVSPropertyOp17
 70
     1
102
RTVSPropertyOp18
 70
     1
102
RTVSPropertyOp19
 70
     1
102
RTVSPropertyOp20
 70
     1
102
RTVSPropertyOp21
 70
     1
102
RTVSPropertyOp22
 70
     1
102
RTVSPropertyOp23
 70
     1
102
RTVSPropertyOp24
 70
     1
102
RTVSPropertyOp25
 70
     1
102
RTVSPropertyOp26
 70
     1
102
RTVSPropertyOp27
 70
     1
102
RTVSPropertyOp28
 70
     1
102
RTVSPropertyOp29
 70
     1
102
RTVSPropertyOp30
 70
     1
102
RTVSPropertyOp31
 70
     1
102
RTVSPropertyOp32
 70
     1
102
RTVSPropertyOp33
 70
     1
102
RTVSPropertyOp34
 70
     1
102
RTVSPropertyOp35
 70
     1
102
RTVSPropertyOp36
 70
     1
102
RTVSPropertyOp37
 70
     1
102
RTVSPropertyOp38
 70
     1
102
RTVSPropertyOp39
 70
     1
102
RTVSPropertyOp40
 70
     1
102
RTVSPropertyOp41
 70
     1
102
RTVSPropertyOp42
 70
     1
102
RTVSPropertyOp43
 70
     1
102
RTVSPropertyOp44
 70
     1
102
RTVSPropertyOp45
 70
     1
102
RTVSPropertyOp46
 70
     1
102
RTVSPropertyOp47
 70
     1
102
RTVSPropertyOp48
 70
     1
102
RTVSPropertyOp49
 70
     1
102
RTVSPropertyOp50
 70
     1
102
RTVSPropertyOp51
 70
     0
102
RTVSPropertyOp52
 70
     0
102
RTVSPropertyOp53
 70
     1
102
RTVSPropertyOp54
 70
     1
102
RTVSPropertyOp55
 70
     1
102
RTVSPropertyOp56
 70
     1
102
RTVSPropertyOp57
 70
     1
102
RTVSPropertyOp58
 70
     1
102
RTVSPropertyOp59
 70
     1
102
RTVSPropertyOp60
 70
     1
102
RTVSPropertyOp61
 70
     1
102
RTVSPropertyOp62
 70
     1
  0
ENDSEC
  0
EOF
