  0
SECTION
  2
HEADER
  9
$ACADVER
  1
AC1015
  9
$ACADMAINTVER
 70
    20
  9
$DWGCODEPAGE
  3
ANSI_932
  9
$INSBASE
 10
0.0
 20
0.0
 30
0.0
  9
$EXTMIN
 10
9.999997999999999
 20
10.000001
 30
0.0
  9
$EXTMAX
 10
423.150662
 20
246.752744
 30
0.0
  9
$LIMMIN
 10
0.000002
 20
0.0
  9
$LIMMAX
 10
495.0000019999998
 20
341.25
  9
$ORTHOMODE
 70
     1
  9
$REGENMODE
 70
     1
  9
$FILLMODE
 70
     1
  9
$QTEXTMODE
 70
     0
  9
$MIRRTEXT
 70
     1
  9
$LTSCALE
 40
1.0
  9
$ATTMODE
 70
     1
  9
$TEXTSIZE
 40
2.5
  9
$TRACEWID
 40
1.0
  9
$TEXTSTYLE
  7
STANDARD
  9
$CLAYER
  8
0
  9
$CELTYPE
  6
BYLAYER
  9
$CECOLOR
 62
   256
  9
$CELTSCALE
 40
1.0
  9
$DISPSILH
 70
     0
  9
$DIMSCALE
 40
1.0
  9
$DIMASZ
 40
3.0
  9
$DIMEXO
 40
1.0
  9
$DIMDLI
 40
10.0
  9
$DIMRND
 40
0.0
  9
$DIMDLE
 40
0.0
  9
$DIMEXE
 40
1.0
  9
$DIMTP
 40
0.0
  9
$DIMTM
 40
0.0
  9
$DIMTXT
 40
3.2
  9
$DIMCEN
 40
0.0
  9
$DIMTSZ
 40
0.0
  9
$DIMTOL
 70
     0
  9
$DIMLIM
 70
     0
  9
$DIMTIH
 70
     0
  9
$DIMTOH
 70
     0
  9
$DIMSE1
 70
     0
  9
$DIMSE2
 70
     0
  9
$DIMTAD
 70
     3
  9
$DIMZIN
 70
     8
  9
$DIMBLK
  1

  9
$DIMASO
 70
     1
  9
$DIMSHO
 70
     1
  9
$DIMPOST
  1

  9
$DIMAPOST
  1

  9
$DIMALT
 70
     0
  9
$DIMALTD
 70
     2
  9
$DIMALTF
 40
25.4
  9
$DIMLFAC
 40
1.0
  9
$DIMTOFL
 70
     1
  9
$DIMTVP
 40
0.0
  9
$DIMTIX
 70
     0
  9
$DIMSOXD
 70
     0
  9
$DIMSAH
 70
     1
  9
$DIMBLK1
  1
OPEN
  9
$DIMBLK2
  1
OPEN
  9
$DIMSTYLE
  2
STANDARD
  9
$DIMCLRD
 70
     0
  9
$DIMCLRE
 70
     0
  9
$DIMCLRT
 70
     0
  9
$DIMTFAC
 40
1.0
  9
$DIMGAP
 40
1.0
  9
$DIMJUST
 70
     0
  9
$DIMSD1
 70
     0
  9
$DIMSD2
 70
     0
  9
$DIMTOLJ
 70
     1
  9
$DIMTZIN
 70
     0
  9
$DIMALTZ
 70
     0
  9
$DIMALTTZ
 70
     0
  9
$DIMUPT
 70
     0
  9
$DIMDEC
 70
     4
  9
$DIMTDEC
 70
     4
  9
$DIMALTU
 70
     2
  9
$DIMALTTD
 70
     2
  9
$DIMTXSTY
  7
STANDARD
  9
$DIMAUNIT
 70
     0
  9
$DIMADEC
 70
     0
  9
$DIMALTRND
 40
0.0
  9
$DIMAZIN
 70
     0
  9
$DIMDSEP
 70
    46
  9
$DIMATFIT
 70
     3
  9
$DIMFRAC
 70
     0
  9
$DIMLDRBLK
  1
OPEN
  9
$DIMLUNIT
 70
     2
  9
$DIMLWD
 70
    -2
  9
$DIMLWE
 70
    -2
  9
$DIMTMOVE
 70
     0
  9
$LUNITS
 70
     2
  9
$LUPREC
 70
     4
  9
$SKETCHINC
 40
1.0
  9
$FILLETRAD
 40
0.0
  9
$AUNITS
 70
     0
  9
$AUPREC
 70
     0
  9
$MENU
  1
.
  9
$ELEVATION
 40
0.0
  9
$PELEVATION
 40
0.0
  9
$THICKNESS
 40
0.0
  9
$LIMCHECK
 70
     0
  9
$CHAMFERA
 40
10.0
  9
$CHAMFERB
 40
10.0
  9
$CHAMFERC
 40
0.0
  9
$CHAMFERD
 40
0.0
  9
$SKPOLY
 70
     0
  9
$TDCREATE
 40
2451648.670614005
  9
$TDUCREATE
 40
2451648.295614005
  9
$TDUPDATE
 40
2457192.640681910
  9
$TDUUPDATE
 40
2457192.265681910
  9
$TDINDWG
 40
0.0464614352
  9
$TDUSRTIMER
 40
0.0464611227
  9
$USRTIMER
 70
     1
  9
$ANGBASE
 50
0.0
  9
$ANGDIR
 70
     0
  9
$PDMODE
 70
     0
  9
$PDSIZE
 40
0.0
  9
$PLINEWID
 40
0.0
  9
$SPLFRAME
 70
     0
  9
$SPLINETYPE
 70
     6
  9
$SPLINESEGS
 70
     8
  9
$HANDSEED
  5
1941
  9
$SURFTAB1
 70
     6
  9
$SURFTAB2
 70
     6
  9
$SURFTYPE
 70
     6
  9
$SURFU
 70
     6
  9
$SURFV
 70
     6
  9
$UCSBASE
  2

  9
$UCSNAME
  2

  9
$UCSORG
 10
0.0
 20
0.0
 30
0.0
  9
$UCSXDIR
 10
1.0
 20
0.0
 30
0.0
  9
$UCSYDIR
 10
0.0
 20
1.0
 30
0.0
  9
$UCSORTHOREF
  2

  9
$UCSORTHOVIEW
 70
     0
  9
$UCSORGTOP
 10
0.0
 20
0.0
 30
0.0
  9
$UCSORGBOTTOM
 10
0.0
 20
0.0
 30
0.0
  9
$UCSORGLEFT
 10
0.0
 20
0.0
 30
0.0
  9
$UCSORGRIGHT
 10
0.0
 20
0.0
 30
0.0
  9
$UCSORGFRONT
 10
0.0
 20
0.0
 30
0.0
  9
$UCSORGBACK
 10
0.0
 20
0.0
 30
0.0
  9
$PUCSBASE
  2

  9
$PUCSNAME
  2

  9
$PUCSORG
 10
0.0
 20
0.0
 30
0.0
  9
$PUCSXDIR
 10
1.0
 20
0.0
 30
0.0
  9
$PUCSYDIR
 10
0.0
 20
1.0
 30
0.0
  9
$PUCSORTHOREF
  2

  9
$PUCSORTHOVIEW
 70
     0
  9
$PUCSORGTOP
 10
0.0
 20
0.0
 30
0.0
  9
$PUCSORGBOTTOM
 10
0.0
 20
0.0
 30
0.0
  9
$PUCSORGLEFT
 10
0.0
 20
0.0
 30
0.0
  9
$PUCSORGRIGHT
 10
0.0
 20
0.0
 30
0.0
  9
$PUCSORGFRONT
 10
0.0
 20
0.0
 30
0.0
  9
$PUCSORGBACK
 10
0.0
 20
0.0
 30
0.0
  9
$USERI1
 70
     0
  9
$USERI2
 70
     0
  9
$USERI3
 70
     0
  9
$USERI4
 70
     0
  9
$USERI5
 70
     0
  9
$USERR1
 40
0.0
  9
$USERR2
 40
0.0
  9
$USERR3
 40
0.0
  9
$USERR4
 40
0.0
  9
$USERR5
 40
0.0
  9
$WORLDVIEW
 70
     1
  9
$SHADEDGE
 70
     3
  9
$SHADEDIF
 70
    70
  9
$TILEMODE
 70
     1
  9
$MAXACTVP
 70
    48
  9
$PINSBASE
 10
0.0
 20
0.0
 30
0.0
  9
$PLIMCHECK
 70
     0
  9
$PEXTMIN
 10
1.000000000000000E+20
 20
1.000000000000000E+20
 30
1.000000000000000E+20
  9
$PEXTMAX
 10
-1.000000000000000E+20
 20
-1.000000000000000E+20
 30
-1.000000000000000E+20
  9
$PLIMMIN
 10
0.0
 20
0.0
  9
$PLIMMAX
 10
420.0
 20
297.0
  9
$UNITMODE
 70
     0
  9
$VISRETAIN
 70
     1
  9
$PLINEGEN
 70
     0
  9
$PSLTSCALE
 70
     1
  9
$TREEDEPTH
 70
  3020
  9
$CMLSTYLE
  2
STANDARD
  9
$CMLJUST
 70
     0
  9
$CMLSCALE
 40
1.0
  9
$PROXYGRAPHICS
 70
     1
  9
$MEASUREMENT
 70
     0
  9
$CELWEIGHT
370
    -1
  9
$ENDCAPS
280
     0
  9
$JOINSTYLE
280
     0
  9
$LWDISPLAY
290
     0
  9
$INSUNITS
 70
     0
  9
$HYPERLINKBASE
  1

  9
$STYLESHEET
  1

  9
$XEDIT
290
     1
  9
$CEPSNTYPE
380
     0
  9
$PSTYLEMODE
290
     1
  9
$FINGERPRINTGUID
  2
{0ECC9ED7-DDAB-47E3-9A7C-FA1AC90E3D0E}
  9
$VERSIONGUID
  2
{75033AEB-C639-4C10-83E4-AEB10DB5C536}
  9
$EXTNAMES
290
     1
  9
$PSVPSCALE
 40
0.0
  9
$OLESTARTUP
290
     0
  0
ENDSEC
  0
SECTION
  2
CLASSES
  0
CLASS
  1
ACDBDICTIONARYWDFLT
  2
AcDbDictionaryWithDefault
  3
ObjectDBX Classes
 90
        0
280
     0
281
     0
  0
CLASS
  1
ACDBPLACEHOLDER
  2
AcDbPlaceHolder
  3
ObjectDBX Classes
 90
        0
280
     0
281
     0
  0
CLASS
  1
LAYOUT
  2
AcDbLayout
  3
ObjectDBX Classes
 90
        0
280
     0
281
     0
  0
CLASS
  1
DICTIONARYVAR
  2
AcDbDictionaryVar
  3
ObjectDBX Classes
 90
        0
280
     0
281
     0
  0
CLASS
  1
MATERIAL
  2
AcDbMaterial
  3
ObjectDBX Classes
 90
     1153
280
     0
281
     0
  0
CLASS
  1
VISUALSTYLE
  2
AcDbVisualStyle
  3
ObjectDBX Classes
 90
     4095
280
     0
281
     0
  0
CLASS
  1
TABLESTYLE
  2
AcDbTableStyle
  3
ObjectDBX Classes
 90
     4095
280
     0
281
     0
  0
CLASS
  1
SCALE
  2
AcDbScale
  3
ObjectDBX Classes
 90
     1153
280
     0
281
     0
  0
CLASS
  1
MLEADERSTYLE
  2
AcDbMLeaderStyle
  3
ACDB_MLEADERSTYLE_CLASS
 90
     4095
280
     0
281
     0
  0
CLASS
  1
ACDBSECTIONVIEWSTYLE
  2
AcDbSectionViewStyle
  3
ObjectDBX Classes
 90
     1025
280
     0
281
     0
  0
CLASS
  1
ACDBDETAILVIEWSTYLE
  2
AcDbDetailViewStyle
  3
ObjectDBX Classes
 90
     1025
280
     0
281
     0
  0
CLASS
  1
CELLSTYLEMAP
  2
AcDbCellStyleMap
  3
ObjectDBX Classes
 90
     1152
280
     0
281
     0
  0
ENDSEC
  0
SECTION
  2
TABLES
  0
TABLE
  2
VPORT
  5
1664
330
0
100
AcDbSymbolTable
 70
     1
  0
VPORT
  5
188A
330
1664
100
AcDbSymbolTableRecord
100
AcDbViewportTableRecord
  2
*ACTIVE
 70
     0
 10
0.0
 20
0.0
 11
1.0
 21
1.0
 12
288.3087006766041
 22
128.3827121558804
 13
0.0
 23
0.0
 14
10.0
 24
10.0
 15
10.0
 25
10.0
 16
0.0
 26
0.0
 36
1.0
 17
0.0
 27
0.0
 37
0.0
 40
239.4395047021212
 41
1.899603698811096
 42
50.0
 43
0.0
 44
0.0
 50
0.0
 51
0.0
 71
     0
 72
   100
 73
     1
 74
     0
 75
     0
 76
     0
 77
     0
 78
     0
281
     0
 65
     1
110
0.0
120
0.0
130
0.0
111
1.0
121
0.0
131
0.0
112
0.0
122
1.0
132
0.0
 79
     0
146
0.0
1001
ACAD_NAV_VCDISPLAY
1070
     3
  0
ENDTAB
  0
TABLE
  2
LTYPE
  5
1661
330
0
100
AcDbSymbolTable
 70
     4
  0
LTYPE
  5
166F
330
1661
100
AcDbSymbolTableRecord
100
AcDbLinetypeTableRecord
  2
BYBLOCK
 70
     0
  3

 72
    65
 73
     0
 40
0.0
  0
LTYPE
  5
1670
330
1661
100
AcDbSymbolTableRecord
100
AcDbLinetypeTableRecord
  2
BYLAYER
 70
     0
  3

 72
    65
 73
     0
 40
0.0
  0
LTYPE
  5
1671
330
1661
100
AcDbSymbolTableRecord
100
AcDbLinetypeTableRecord
  2
CONTINUOUS
 70
     0
  3
Solid line
 72
    65
 73
     0
 40
0.0
  0
LTYPE
  5
167F
330
1661
100
AcDbSymbolTableRecord
100
AcDbLinetypeTableRecord
  2
DASHED
 70
     0
  3
Dashed __ __ __ __ __ __ __ __ __ __ __ __ __ _
 72
    65
 73
     2
 40
19.05
 49
12.7
 74
     0
 49
-6.349999999999997
 74
     0
  0
LTYPE
  5
1680
330
1661
100
AcDbSymbolTableRecord
100
AcDbLinetypeTableRecord
  2
CENTER
 70
     0
  3
Center ____ _ ____ _ ____ _ ____ _ ____ _ ____
 72
    65
 73
     4
 40
50.8
 49
31.75
 74
     0
 49
-6.349999999999997
 74
     0
 49
6.349999999999997
 74
     0
 49
-6.349999999999997
 74
     0
  0
LTYPE
  5
1681
330
1661
100
AcDbSymbolTableRecord
100
AcDbLinetypeTableRecord
  2
PHANTOM
 70
     0
  3
Phantom ______  __  __  ______  __  __  ______
 72
    65
 73
     6
 40
63.5
 49
31.75
 74
     0
 49
-6.349999999999997
 74
     0
 49
6.349999999999997
 74
     0
 49
-6.349999999999997
 74
     0
 49
6.349999999999997
 74
     0
 49
-6.349999999999997
 74
     0
  0
ENDTAB
  0
TABLE
  2
LAYER
  5
165E
330
0
100
AcDbSymbolTable
 70
     8
  0
LAYER
  5
166C
102
{ACAD_XDICTIONARY
360
18E5
102
}
330
165E
100
AcDbSymbolTableRecord
100
AcDbLayerTableRecord
  2
0
 70
     0
 62
     7
  6
CONTINUOUS
370
    -3
390
1893
  0
LAYER
  5
1682
102
{ACAD_XDICTIONARY
360
18E7
102
}
330
165E
100
AcDbSymbolTableRecord
100
AcDbLayerTableRecord
  2
4
 70
     0
 62
     1
  6
CENTER
370
    -3
390
1893
  0
LAYER
  5
1683
102
{ACAD_XDICTIONARY
360
18E9
102
}
330
165E
100
AcDbSymbolTableRecord
100
AcDbLayerTableRecord
  2
5
 70
     0
 62
     6
  6
PHANTOM
370
    -3
390
1893
  0
LAYER
  5
1684
102
{ACAD_XDICTIONARY
360
18EB
102
}
330
165E
100
AcDbSymbolTableRecord
100
AcDbLayerTableRecord
  2
1
 70
     0
 62
     7
  6
CONTINUOUS
370
    -3
390
1893
  0
LAYER
  5
1685
102
{ACAD_XDICTIONARY
360
18ED
102
}
330
165E
100
AcDbSymbolTableRecord
100
AcDbLayerTableRecord
  2
2
 70
     0
 62
     4
  6
CONTINUOUS
370
    -3
390
1893
  0
LAYER
  5
1686
102
{ACAD_XDICTIONARY
360
18EF
102
}
330
165E
100
AcDbSymbolTableRecord
100
AcDbLayerTableRecord
  2
3
 70
     0
 62
     2
  6
DASHED
370
    -3
390
1893
  0
LAYER
  5
1687
102
{ACAD_XDICTIONARY
360
18F1
102
}
330
165E
100
AcDbSymbolTableRecord
100
AcDbLayerTableRecord
  2
6
 70
     0
 62
     5
  6
CONTINUOUS
370
    -3
390
1893
  0
LAYER
  5
1688
102
{ACAD_XDICTIONARY
360
18F3
102
}
330
165E
100
AcDbSymbolTableRecord
100
AcDbLayerTableRecord
  2
7
 70
     0
 62
     3
  6
CONTINUOUS
370
    -3
390
1893
  0
ENDTAB
  0
TABLE
  2
STYLE
  5
165F
330
0
100
AcDbSymbolTable
 70
     1
  0
STYLE
  5
166D
330
165F
100
AcDbSymbolTableRecord
100
AcDbTextStyleTableRecord
  2
STANDARD
 70
     0
 40
0.0
 41
1.0
 50
0.0
 71
     0
 42
2.5
  3
txt
  4

  0
ENDTAB
  0
TABLE
  2
VIEW
  5
1662
330
0
100
AcDbSymbolTable
 70
     0
  0
ENDTAB
  0
TABLE
  2
UCS
  5
1663
330
0
100
AcDbSymbolTable
 70
     0
  0
ENDTAB
  0
TABLE
  2
APPID
  5
1665
330
0
100
AcDbSymbolTable
 70
     7
  0
APPID
  5
166E
330
1665
100
AcDbSymbolTableRecord
100
AcDbRegAppTableRecord
  2
ACAD
 70
     0
  0
APPID
  5
1689
330
1665
100
AcDbSymbolTableRecord
100
AcDbRegAppTableRecord
  2
CONTENTTABDATA
 70
     0
  0
APPID
  5
168A
330
1665
100
AcDbSymbolTableRecord
100
AcDbRegAppTableRecord
  2
CONTENTCURRENTTAB
 70
     0
  0
APPID
  5
168B
330
1665
100
AcDbSymbolTableRecord
100
AcDbRegAppTableRecord
  2
CONTENTBLOCKDESCRIPTION
 70
     0
  0
APPID
  5
168C
330
1665
100
AcDbSymbolTableRecord
100
AcDbRegAppTableRecord
  2
CONTENTBLOCKICON
 70
     0
  0
APPID
  5
18FF
330
1665
100
AcDbSymbolTableRecord
100
AcDbRegAppTableRecord
  2
ACAD_NAV_VCDISPLAY
 70
     0
  0
APPID
  5
1938
330
1665
100
AcDbSymbolTableRecord
100
AcDbRegAppTableRecord
  2
ACAD_MLEADERVER
 70
     0
  0
ENDTAB
  0
TABLE
  2
DIMSTYLE
  5
1666
330
0
100
AcDbSymbolTable
 70
     1
100
AcDbDimStyleTable
 71
     0
  0
DIMSTYLE
105
168D
330
1666
100
AcDbSymbolTableRecord
100
AcDbDimStyleTableRecord
  2
STANDARD
 70
     0
 41
3.0
 42
1.0
 43
10.0
 44
1.0
 73
     0
 74
     0
 77
     3
 78
     8
140
3.2
141
0.0
147
1.0
172
     1
173
     1
284
     8
285
     8
286
     8
340
166D
  0
ENDTAB
  0
TABLE
  2
BLOCK_RECORD
  5
165D
330
0
100
AcDbSymbolTable
 70
     1
  0
BLOCK_RECORD
  5
167A
102
{ACAD_XDICTIONARY
360
188D
102
}
330
165D
100
AcDbSymbolTableRecord
100
AcDbBlockTableRecord
  2
*MODEL_SPACE
340
18E1
  0
BLOCK_RECORD
  5
1676
102
{ACAD_XDICTIONARY
360
188B
102
}
330
165D
100
AcDbSymbolTableRecord
100
AcDbBlockTableRecord
  2
*PAPER_SPACE
340
18E2
  0
BLOCK_RECORD
  5
1695
330
165D
100
AcDbSymbolTableRecord
100
AcDbBlockTableRecord
  2
_OPEN
340
0
  0
ENDTAB
  0
ENDSEC
  0
SECTION
  2
BLOCKS
  0
BLOCK
  5
167B
330
167A
100
AcDbEntity
  8
0
100
AcDbBlockBegin
  2
*MODEL_SPACE
 70
     0
 10
0.0
 20
0.0
 30
0.0
  3
*MODEL_SPACE
  1

  0
ENDBLK
  5
167C
330
167A
100
AcDbEntity
  8
0
100
AcDbBlockEnd
  0
BLOCK
  5
1677
330
1676
100
AcDbEntity
 67
     1
  8
0
100
AcDbBlockBegin
  2
*PAPER_SPACE
 70
     0
 10
0.0
 20
0.0
 30
0.0
  3
*PAPER_SPACE
  1

  0
ENDBLK
  5
1678
330
1676
100
AcDbEntity
 67
     1
  8
0
100
AcDbBlockEnd
  0
BLOCK
  5
1696
330
1695
100
AcDbEntity
  8
0
100
AcDbBlockBegin
  2
_OPEN
 70
     0
 10
0.0
 20
0.0
 30
0.0
  3
_OPEN
  1

  0
LINE
  5
1697
330
1695
100
AcDbEntity
  8
0
  6
ByBlock
 62
     0
100
AcDbLine
 10
-1.0
 20
0.166667
 30
0.0
 11
0.0
 21
0.0
 31
0.0
  0
LINE
  5
1698
330
1695
100
AcDbEntity
  8
0
  6
ByBlock
 62
     0
100
AcDbLine
 10
0.0
 20
0.0
 30
0.0
 11
-1.0
 21
-0.166667
 31
0.0
  0
LINE
  5
1699
330
1695
100
AcDbEntity
  8
0
  6
ByBlock
 62
     0
100
AcDbLine
 10
0.0
 20
0.0
 30
0.0
 11
-1.0
 21
0.0
 31
0.0
  0
ENDBLK
  5
169A
330
1695
100
AcDbEntity
  8
0
100
AcDbBlockEnd
  0
ENDSEC
  0
SECTION
  2
ENTITIES
  0
TEXT
  5
169B
330
167A
100
AcDbEntity
  8
4
  6
CENTER
100
AcDbText
 10
23.979509
 20
10.048738
 30
0.0
 40
1.399999999999999
  1
4
100
AcDbText
  0
TEXT
  5
169C
330
167A
100
AcDbEntity
  8
7
  6
Continuous
100
AcDbText
 10
9.999997999999999
 20
26.000001
 30
0.0
 40
3.0
  1
CODE No.13137
100
AcDbText
  0
TEXT
  5
169D
330
167A
100
AcDbEntity
  8
7
  6
Continuous
100
AcDbText
 10
9.999997999999999
 20
18.000001
 30
0.0
 40
3.0
  1
TYPE No.THA-315
100
AcDbText
  0
TEXT
  5
169E
330
167A
100
AcDbEntity
  8
1
  6
Continuous
100
AcDbText
 10
9.999997999999999
 20
10.000001
 30
0.0
 40
1.399999999999999
  1
LAYER
100
AcDbText
  0
TEXT
  5
169F
330
167A
100
AcDbEntity
  8
2
  6
Continuous
100
AcDbText
 10
19.979509
 20
10.048738
 30
0.0
 40
1.399999999999999
  1
2
100
AcDbText
  0
TEXT
  5
16A0
330
167A
100
AcDbEntity
  8
3
  6
DASHED
100
AcDbText
 10
21.97950899999999
 20
10.048738
 30
0.0
 40
1.399999999999999
  1
3
100
AcDbText
  0
TEXT
  5
16A1
330
167A
100
AcDbEntity
  8
1
  6
Continuous
100
AcDbText
 10
17.979509
 20
10.048738
 30
0.0
 40
1.399999999999999
  1
1
100
AcDbText
  0
TEXT
  5
16A2
330
167A
100
AcDbEntity
  8
5
  6
PHANTOM
100
AcDbText
 10
25.979509
 20
10.048738
 30
0.0
 40
1.399999999999999
  1
5
100
AcDbText
  0
TEXT
  5
16A3
330
167A
100
AcDbEntity
  8
6
  6
Continuous
100
AcDbText
 10
27.979509
 20
10.048738
 30
0.0
 40
1.399999999999999
  1
6
100
AcDbText
  0
TEXT
  5
16A4
330
167A
100
AcDbEntity
  8
7
  6
Continuous
100
AcDbText
 10
29.97950900000001
 20
10.048738
 30
0.0
 40
1.399999999999999
  1
7
100
AcDbText
  0
LINE
  5
16A5
330
167A
100
AcDbEntity
  8
1
  6
Continuous
100
AcDbLine
 10
272.107795
 20
162.067628
 30
0.0
 11
272.107795
 21
122.0676279999999
 31
0.0
  0
LINE
  5
16A6
330
167A
100
AcDbEntity
  8
1
  6
Continuous
100
AcDbLine
 10
257.307795
 20
160.067628
 30
0.0
 11
257.307795
 21
124.0676279999999
 31
0.0
  0
LINE
  5
16A7
330
167A
100
AcDbEntity
  8
1
  6
Continuous
100
AcDbLine
 10
259.307795
 20
162.067628
 30
0.0
 11
272.107795
 21
162.067628
 31
0.0
  0
LINE
  5
16A8
330
167A
100
AcDbEntity
  8
1
  6
Continuous
100
AcDbLine
 10
259.307795
 20
122.0676279999999
 30
0.0
 11
272.107795
 21
122.0676279999999
 31
0.0
  0
LINE
  5
16A9
330
167A
100
AcDbEntity
  8
1
  6
Continuous
100
AcDbLine
 10
257.307795
 20
155.167628
 30
0.0
 11
259.607795
 21
155.167628
 31
0.0
  0
LINE
  5
16AA
330
167A
100
AcDbEntity
  8
1
  6
Continuous
100
AcDbLine
 10
257.307795
 20
128.9676279999999
 30
0.0
 11
259.607795
 21
128.9676279999999
 31
0.0
  0
ARC
  5
16AB
330
167A
100
AcDbEntity
  8
1
  6
Continuous
100
AcDbCircle
 10
261.607795
 20
124.0676279999999
 30
0.0
 40
2.0
100
AcDbArc
 50
180.0
 51
270.0
  0
ARC
  5
16AC
330
167A
100
AcDbEntity
  8
1
  6
Continuous
100
AcDbCircle
 10
261.607795
 20
160.067628
 30
0.0
 40
2.0
100
AcDbArc
 50
90.0
 51
180.0
  0
ARC
  5
16AD
330
167A
100
AcDbEntity
  8
1
  6
Continuous
100
AcDbCircle
 10
259.307795
 20
160.067628
 30
0.0
 40
2.0
100
AcDbArc
 50
90.0
 51
180.0
  0
ARC
  5
16AE
330
167A
100
AcDbEntity
  8
1
  6
Continuous
100
AcDbCircle
 10
259.307795
 20
124.0676279999999
 30
0.0
 40
2.0
100
AcDbArc
 50
180.0
 51
270.0
  0
LINE
  5
16AF
330
167A
100
AcDbEntity
  8
4
  6
CENTER
100
AcDbLine
 10
264.607795
 20
132.317628
 30
0.0
 11
264.607795
 21
123.817628
 31
0.0
  0
LINE
  5
16B0
330
167A
100
AcDbEntity
  8
4
  6
CENTER
100
AcDbLine
 10
268.8577949999999
 20
128.067628
 30
0.0
 11
260.357795
 21
128.067628
 31
0.0
  0
CIRCLE
  5
16B1
330
167A
100
AcDbEntity
  8
1
  6
Continuous
100
AcDbCircle
 10
264.607795
 20
128.067628
 30
0.0
 40
2.75
  0
CIRCLE
  5
16B2
330
167A
100
AcDbEntity
  8
1
  6
Continuous
100
AcDbCircle
 10
264.607795
 20
156.067628
 30
0.0
 40
2.75
  0
LINE
  5
16B3
330
167A
100
AcDbEntity
  8
4
  6
CENTER
100
AcDbLine
 10
264.607795
 20
151.817628
 30
0.0
 11
264.607795
 21
160.317628
 31
0.0
  0
LINE
  5
16B4
330
167A
100
AcDbEntity
  8
4
  6
CENTER
100
AcDbLine
 10
268.8577949999999
 20
156.067628
 30
0.0
 11
260.357795
 21
156.067628
 31
0.0
  0
LINE
  5
16B5
330
167A
100
AcDbEntity
  8
1
  6
Continuous
100
AcDbLine
 10
269.807795
 20
149.167628
 30
0.0
 11
269.807795
 21
134.9676279999999
 31
0.0
  0
LINE
  5
16B6
330
167A
100
AcDbEntity
  8
1
  6
Continuous
100
AcDbLine
 10
260.807795
 20
135.067628
 30
0.0
 11
268.8077949999998
 21
135.067628
 31
0.0
  0
LINE
  5
16B7
330
167A
100
AcDbEntity
  8
1
  6
Continuous
100
AcDbLine
 10
260.807795
 20
149.067628
 30
0.0
 11
268.8077949999998
 21
149.067628
 31
0.0
  0
LINE
  5
16B8
330
167A
100
AcDbEntity
  8
1
  6
Continuous
100
AcDbLine
 10
259.8077949999999
 20
148.067628
 30
0.0
 11
259.8077949999999
 21
136.067628
 31
0.0
  0
ARC
  5
16B9
330
167A
100
AcDbEntity
  8
1
  6
Continuous
100
AcDbCircle
 10
260.807795
 20
148.067628
 30
0.0
 40
1.0
100
AcDbArc
 50
90.0
 51
180.0
  0
ARC
  5
16BA
330
167A
100
AcDbEntity
  8
1
  6
Continuous
100
AcDbCircle
 10
260.807795
 20
136.067628
 30
0.0
 40
1.0
100
AcDbArc
 50
180.0
 51
270.0
  0
ARC
  5
16BB
330
167A
100
AcDbEntity
  8
1
  6
Continuous
100
AcDbCircle
 10
268.8077949999998
 20
136.067628
 30
0.0
 40
1.0
100
AcDbArc
 50
270.0
 51
0.0
  0
ARC
  5
16BC
330
167A
100
AcDbEntity
  8
1
  6
Continuous
100
AcDbCircle
 10
268.8077949999998
 20
148.067628
 30
0.0
 40
1.0
100
AcDbArc
 50
0.0
 51
90.0
  0
LINE
  5
16BD
330
167A
100
AcDbEntity
  8
4
  6
CENTER
100
AcDbLine
 10
275.1077949999999
 20
142.067628
 30
0.0
 11
254.307795
 21
142.067628
 31
0.0
  0
LINE
  5
16BE
330
167A
100
AcDbEntity
  8
1
  6
Continuous
100
AcDbLine
 10
272.107795
 20
134.9676279999999
 30
0.0
 11
257.307795
 21
134.9676279999999
 31
0.0
  0
LINE
  5
16BF
330
167A
100
AcDbEntity
  8
1
  6
Continuous
100
AcDbLine
 10
272.107795
 20
149.167628
 30
0.0
 11
257.307795
 21
149.167628
 31
0.0
  0
LINE
  5
16C0
330
167A
100
AcDbEntity
  8
1
  6
Continuous
100
AcDbLine
 10
259.607795
 20
128.9676279999999
 30
0.0
 11
259.607795
 21
124.0676279999999
 31
0.0
  0
LINE
  5
16C1
330
167A
100
AcDbEntity
  8
1
  6
Continuous
100
AcDbLine
 10
259.607795
 20
149.167628
 30
0.0
 11
259.607795
 21
134.9676279999999
 31
0.0
  0
LINE
  5
16C2
330
167A
100
AcDbEntity
  8
1
  6
Continuous
100
AcDbLine
 10
259.607795
 20
160.067628
 30
0.0
 11
259.607795
 21
155.167628
 31
0.0
  0
ARC
  5
16C3
330
167A
100
AcDbEntity
  8
1
  6
Continuous
100
AcDbCircle
 10
160.914928
 20
157.067628
 30
0.0
 40
5.0
100
AcDbArc
 50
202.333683
 51
337.666317
  0
ARC
  5
16C4
330
167A
100
AcDbEntity
  8
1
  6
Continuous
100
AcDbCircle
 10
160.914928
 20
127.0676279999999
 30
0.0
 40
5.0
100
AcDbArc
 50
22.33368299999999
 51
157.6663169999999
  0
ARC
  5
16C5
330
167A
100
AcDbEntity
  8
1
  6
Continuous
100
AcDbCircle
 10
134.914928
 20
157.067628
 30
0.0
 40
5.0
100
AcDbArc
 50
202.333683
 51
337.666317
  0
ARC
  5
16C6
330
167A
100
AcDbEntity
  8
1
  6
Continuous
100
AcDbCircle
 10
134.914928
 20
127.0676279999999
 30
0.0
 40
5.0
100
AcDbArc
 50
22.33368299999999
 51
157.6663169999999
  0
LINE
  5
16C7
330
167A
100
AcDbEntity
  8
1
  6
Continuous
100
AcDbLine
 10
130.2899959999998
 20
53.5
 30
0.0
 11
130.2899959999998
 21
55.8
 31
0.0
  0
LINE
  5
16C8
330
167A
100
AcDbEntity
  8
1
  6
Continuous
100
AcDbLine
 10
139.53986
 20
53.5
 30
0.0
 11
139.53986
 21
55.8
 31
0.0
  0
LINE
  5
16C9
330
167A
100
AcDbEntity
  8
1
  6
Continuous
100
AcDbLine
 10
156.289996
 20
53.5
 30
0.0
 11
156.289996
 21
55.8
 31
0.0
  0
LINE
  5
16CA
330
167A
100
AcDbEntity
  8
1
  6
Continuous
100
AcDbLine
 10
165.53986
 20
53.5
 30
0.0
 11
165.53986
 21
55.8
 31
0.0
  0
LINE
  5
16CB
330
167A
100
AcDbEntity
  8
1
  6
Continuous
100
AcDbLine
 10
167.4649279999999
 20
149.167628
 30
0.0
 11
167.4649279999999
 21
134.9676279999999
 31
0.0
  0
LINE
  5
16CC
330
167A
100
AcDbEntity
  8
1
  6
Continuous
100
AcDbLine
 10
169.764928
 20
134.9676279999999
 30
0.0
 11
167.4649279999999
 21
134.9676279999999
 31
0.0
  0
LINE
  5
16CD
330
167A
100
AcDbEntity
  8
1
  6
Continuous
100
AcDbLine
 10
169.764928
 20
149.167628
 30
0.0
 11
167.4649279999999
 21
149.167628
 31
0.0
  0
LINE
  5
16CE
330
167A
100
AcDbEntity
  8
1
  6
Continuous
100
AcDbLine
 10
127.4649279999999
 20
154.6676279999998
 30
0.0
 11
127.4649279999999
 21
129.467628
 31
0.0
  0
LINE
  5
16CF
330
167A
100
AcDbEntity
  8
1
  6
Continuous
100
AcDbLine
 10
25.0
 20
162.067628
 30
0.0
 11
25.0
 21
122.0676279999999
 31
0.0
  0
LINE
  5
16D0
330
167A
100
AcDbEntity
  8
1
  6
Continuous
100
AcDbLine
 10
37.79999999999999
 20
162.067628
 30
0.0
 11
25.0
 21
162.067628
 31
0.0
  0
ARC
  5
16D1
330
167A
100
AcDbEntity
  8
1
  6
Continuous
100
AcDbCircle
 10
37.79999999999999
 20
160.067628
 30
0.0
 40
2.0
100
AcDbArc
 50
0.0
 51
90.0
  0
LINE
  5
16D2
330
167A
100
AcDbEntity
  8
1
  6
Continuous
100
AcDbLine
 10
39.8
 20
160.067628
 30
0.0
 11
39.8
 21
124.0676279999999
 31
0.0
  0
ARC
  5
16D3
330
167A
100
AcDbEntity
  8
1
  6
Continuous
100
AcDbCircle
 10
37.79999999999999
 20
124.0676279999999
 30
0.0
 40
2.0
100
AcDbArc
 50
270.0
 51
0.0
  0
LINE
  5
16D4
330
167A
100
AcDbEntity
  8
1
  6
Continuous
100
AcDbLine
 10
37.79999999999999
 20
122.0676279999999
 30
0.0
 11
25.0
 21
122.0676279999999
 31
0.0
  0
LINE
  5
16D5
330
167A
100
AcDbEntity
  8
4
  6
CENTER
100
AcDbLine
 10
22.0
 20
142.067628
 30
0.0
 11
42.8
 21
142.067628
 31
0.0
  0
CIRCLE
  5
16D6
330
167A
100
AcDbEntity
  8
1
  6
Continuous
100
AcDbCircle
 10
32.29999999999999
 20
142.067628
 30
0.0
 40
4.0
  0
LINE
  5
16D7
330
167A
100
AcDbEntity
  8
4
  6
CENTER
100
AcDbLine
 10
32.29999999999999
 20
149.567628
 30
0.0
 11
32.29999999999999
 21
134.567628
 31
0.0
  0
LINE
  5
16D8
330
167A
100
AcDbEntity
  8
1
  6
Continuous
100
AcDbLine
 10
37.5
 20
155.167628
 30
0.0
 11
37.5
 21
128.9676279999999
 31
0.0
  0
LINE
  5
16D9
330
167A
100
AcDbEntity
  8
1
  6
Continuous
100
AcDbLine
 10
37.5
 20
128.9676279999999
 30
0.0
 11
39.8
 21
128.9676279999999
 31
0.0
  0
LINE
  5
16DA
330
167A
100
AcDbEntity
  8
1
  6
Continuous
100
AcDbLine
 10
37.5
 20
155.167628
 30
0.0
 11
39.8
 21
155.167628
 31
0.0
  0
CIRCLE
  5
16DB
330
167A
100
AcDbEntity
  8
1
  6
Continuous
100
AcDbCircle
 10
32.29999999999999
 20
142.067628
 30
0.0
 40
3.066999999999998
  0
LINE
  5
16DC
330
167A
100
AcDbEntity
  8
1
  6
Continuous
100
AcDbLine
 10
126.2649279999999
 20
146.067628
 30
0.0
 11
109.7649279999999
 21
146.067628
 31
0.0
  0
LINE
  5
16DD
330
167A
100
AcDbEntity
  8
1
  6
Continuous
100
AcDbLine
 10
126.2649279999999
 20
138.067628
 30
0.0
 11
109.7649279999999
 21
138.067628
 31
0.0
  0
LINE
  5
16DE
330
167A
100
AcDbEntity
  8
1
  6
Continuous
100
AcDbLine
 10
109.264928
 20
145.567628
 30
0.0
 11
109.264928
 21
138.567628
 31
0.0
  0
LINE
  5
16DF
330
167A
100
AcDbEntity
  8
1
  6
Continuous
100
AcDbLine
 10
109.7649279999999
 20
146.067628
 30
0.0
 11
109.264928
 21
145.567628
 31
0.0
  0
LINE
  5
16E0
330
167A
100
AcDbEntity
  8
1
  6
Continuous
100
AcDbLine
 10
109.264928
 20
138.567628
 30
0.0
 11
109.7649279999999
 21
138.067628
 31
0.0
  0
LINE
  5
16E1
330
167A
100
AcDbEntity
  8
1
  6
Continuous
100
AcDbLine
 10
109.7649279999999
 20
146.067628
 30
0.0
 11
109.7649279999999
 21
138.067628
 31
0.0
  0
LINE
  5
16E2
330
167A
100
AcDbEntity
  8
1
  6
Continuous
100
AcDbLine
 10
178.3184389999999
 20
148.067628
 30
0.0
 11
178.3184389999999
 21
136.067628
 31
0.0
  0
ARC
  5
16E3
330
167A
100
AcDbEntity
  8
5
  6
PHANTOM
100
AcDbCircle
 10
144.2630639999999
 20
30.129055
 30
0.0
 40
30.0
100
AcDbArc
 50
29.252105
 51
50.566727
  0
ARC
  5
16E4
330
167A
100
AcDbEntity
  8
5
  6
PHANTOM
100
AcDbCircle
 10
169.564928
 20
44.29999999999998
 30
0.0
 40
1.0
100
AcDbArc
 50
270.0
 51
29.252105
  0
LINE
  5
16E5
330
167A
100
AcDbEntity
  8
5
  6
PHANTOM
100
AcDbLine
 10
94.264928
 20
51.79999999999999
 30
0.0
 11
94.264928
 21
44.79999999999999
 31
0.0
  0
LINE
  5
16E6
330
167A
100
AcDbEntity
  8
5
  6
PHANTOM
100
AcDbLine
 10
109.264928
 20
52.3
 30
0.0
 11
94.764928
 21
52.3
 31
0.0
  0
LINE
  5
16E7
330
167A
100
AcDbEntity
  8
5
  6
PHANTOM
100
AcDbLine
 10
94.764928
 20
52.3
 30
0.0
 11
94.764928
 21
44.29999999999998
 31
0.0
  0
LINE
  5
16E8
330
167A
100
AcDbEntity
  8
5
  6
PHANTOM
100
AcDbLine
 10
94.764928
 20
52.3
 30
0.0
 11
94.264928
 21
51.79999999999999
 31
0.0
  0
LINE
  5
16E9
330
167A
100
AcDbEntity
  8
5
  6
PHANTOM
100
AcDbLine
 10
94.264928
 20
44.79999999999999
 30
0.0
 11
94.764928
 21
44.29999999999998
 31
0.0
  0
LINE
  5
16EA
330
167A
100
AcDbEntity
  8
5
  6
PHANTOM
100
AcDbLine
 10
109.264928
 20
44.29999999999998
 30
0.0
 11
94.764928
 21
44.29999999999998
 31
0.0
  0
ARC
  5
16EB
330
167A
100
AcDbEntity
  8
1
  6
Continuous
100
AcDbCircle
 10
155.9149279999998
 20
48.3
 30
0.0
 40
1.399999999999999
100
AcDbArc
 50
90.0
 51
270.0
  0
ARC
  5
16EC
330
167A
100
AcDbEntity
  8
1
  6
Continuous
100
AcDbCircle
 10
170.764928
 20
48.3
 30
0.0
 40
1.399999999999999
100
AcDbArc
 50
270.0
 51
90.0
  0
LINE
  5
16ED
330
167A
100
AcDbEntity
  8
1
  6
Continuous
100
AcDbLine
 10
167.4649279999999
 20
49.7
 30
0.0
 11
155.9149279999998
 21
49.7
 31
0.0
  0
LINE
  5
16EE
330
167A
100
AcDbEntity
  8
1
  6
Continuous
100
AcDbLine
 10
170.764928
 20
49.7
 30
0.0
 11
169.764928
 21
49.7
 31
0.0
  0
LINE
  5
16EF
330
167A
100
AcDbEntity
  8
1
  6
Continuous
100
AcDbLine
 10
167.4649279999999
 20
46.9
 30
0.0
 11
155.9149279999998
 21
46.9
 31
0.0
  0
LINE
  5
16F0
330
167A
100
AcDbEntity
  8
1
  6
Continuous
100
AcDbLine
 10
170.764928
 20
46.9
 30
0.0
 11
169.764928
 21
46.9
 31
0.0
  0
CIRCLE
  5
16F1
330
167A
100
AcDbEntity
  8
1
  6
Continuous
100
AcDbCircle
 10
155.7649279999999
 20
48.3
 30
0.0
 40
1.25
  0
LINE
  5
16F2
330
167A
100
AcDbEntity
  8
1
  6
Continuous
100
AcDbLine
 10
151.764928
 20
45.3
 30
0.0
 11
151.65951
 21
45.3
 31
0.0
  0
LINE
  5
16F3
330
167A
100
AcDbEntity
  8
1
  6
Continuous
100
AcDbLine
 10
150.855712
 20
45.3
 30
0.0
 11
148.716653
 21
45.3
 31
0.0
  0
LINE
  5
16F4
330
167A
100
AcDbEntity
  8
1
  6
Continuous
100
AcDbLine
 10
147.912855
 20
45.3
 30
0.0
 11
145.773796
 21
45.3
 31
0.0
  0
LINE
  5
16F5
330
167A
100
AcDbEntity
  8
1
  6
Continuous
100
AcDbLine
 10
144.969998
 20
45.3
 30
0.0
 11
142.830939
 21
45.3
 31
0.0
  0
LINE
  5
16F6
330
167A
100
AcDbEntity
  8
1
  6
Continuous
100
AcDbLine
 10
142.02714
 20
45.3
 30
0.0
 11
139.888082
 21
45.3
 31
0.0
  0
LINE
  5
16F7
330
167A
100
AcDbEntity
  8
1
  6
Continuous
100
AcDbLine
 10
139.0842829999999
 20
45.3
 30
0.0
 11
136.9452239999999
 21
45.3
 31
0.0
  0
LINE
  5
16F8
330
167A
100
AcDbEntity
  8
1
  6
Continuous
100
AcDbLine
 10
136.1414259999999
 20
45.3
 30
0.0
 11
134.0023669999999
 21
45.3
 31
0.0
  0
LINE
  5
16F9
330
167A
100
AcDbEntity
  8
1
  6
Continuous
100
AcDbLine
 10
130.055712
 20
45.3
 30
0.0
 11
129.3649279999999
 21
45.3
 31
0.0
  0
LINE
  5
16FA
330
167A
100
AcDbEntity
  8
1
  6
Continuous
100
AcDbLine
 10
133.1985689999999
 20
45.3
 30
0.0
 11
130.85951
 21
45.3
 31
0.0
  0
LINE
  5
16FB
330
167A
100
AcDbEntity
  8
1
  6
Continuous
100
AcDbLine
 10
151.764928
 20
51.29999999999999
 30
0.0
 11
151.0741439999998
 21
51.29999999999999
 31
0.0
  0
LINE
  5
16FC
330
167A
100
AcDbEntity
  8
1
  6
Continuous
100
AcDbLine
 10
150.270346
 20
51.29999999999999
 30
0.0
 11
148.1312869999999
 21
51.29999999999999
 31
0.0
  0
LINE
  5
16FD
330
167A
100
AcDbEntity
  8
1
  6
Continuous
100
AcDbLine
 10
147.3274889999999
 20
51.29999999999999
 30
0.0
 11
145.18843
 21
51.29999999999999
 31
0.0
  0
LINE
  5
16FE
330
167A
100
AcDbEntity
  8
1
  6
Continuous
100
AcDbLine
 10
144.384632
 20
51.29999999999999
 30
0.0
 11
142.245573
 21
51.29999999999999
 31
0.0
  0
LINE
  5
16FF
330
167A
100
AcDbEntity
  8
1
  6
Continuous
100
AcDbLine
 10
141.441775
 20
51.29999999999999
 30
0.0
 11
139.302716
 21
51.29999999999999
 31
0.0
  0
LINE
  5
1700
330
167A
100
AcDbEntity
  8
1
  6
Continuous
100
AcDbLine
 10
138.498917
 20
51.29999999999999
 30
0.0
 11
136.359859
 21
51.29999999999999
 31
0.0
  0
LINE
  5
1701
330
167A
100
AcDbEntity
  8
1
  6
Continuous
100
AcDbLine
 10
135.55606
 20
51.29999999999999
 30
0.0
 11
133.417001
 21
51.29999999999999
 31
0.0
  0
LINE
  5
1702
330
167A
100
AcDbEntity
  8
1
  6
Continuous
100
AcDbLine
 10
129.470346
 20
51.29999999999999
 30
0.0
 11
129.3649279999999
 21
51.29999999999999
 31
0.0
  0
LINE
  5
1703
330
167A
100
AcDbEntity
  8
1
  6
Continuous
100
AcDbLine
 10
132.6132029999999
 20
51.29999999999999
 30
0.0
 11
130.274144
 21
51.29999999999999
 31
0.0
  0
LINE
  5
1704
330
167A
100
AcDbEntity
  8
1
  6
Continuous
100
AcDbLine
 10
169.764928
 20
53.5
 30
0.0
 11
169.764928
 21
43.3
 31
0.0
  0
LINE
  5
1705
330
167A
100
AcDbEntity
  8
1
  6
Continuous
100
AcDbLine
 10
167.4649279999999
 20
53.5
 30
0.0
 11
167.4649279999999
 21
43.3
 31
0.0
  0
LINE
  5
1706
330
167A
100
AcDbEntity
  8
1
  6
Continuous
100
AcDbLine
 10
169.764928
 20
53.5
 30
0.0
 11
128.7649279999999
 21
53.5
 31
0.0
  0
LINE
  5
1707
330
167A
100
AcDbEntity
  8
1
  6
Continuous
100
AcDbLine
 10
167.4649279999999
 20
43.3
 30
0.0
 11
128.564928
 21
43.3
 31
0.0
  0
LINE
  5
1708
330
167A
100
AcDbEntity
  8
1
  6
Continuous
100
AcDbLine
 10
167.4649279999999
 20
41.0
 30
0.0
 11
128.564928
 21
41.0
 31
0.0
  0
LINE
  5
1709
330
167A
100
AcDbEntity
  8
1
  6
Continuous
100
AcDbLine
 10
126.2649279999999
 20
43.3
 30
0.0
 11
126.2649279999999
 21
55.8
 31
0.0
  0
LINE
  5
170A
330
167A
100
AcDbEntity
  8
1
  6
Continuous
100
AcDbLine
 10
128.564928
 20
43.3
 30
0.0
 11
128.564928
 21
55.8
 31
0.0
  0
LINE
  5
170B
330
167A
100
AcDbEntity
  8
1
  6
Continuous
100
AcDbLine
 10
167.4649279999999
 20
55.8
 30
0.0
 11
126.2649279999999
 21
55.8
 31
0.0
  0
ARC
  5
170C
330
167A
100
AcDbEntity
  8
1
  6
Continuous
100
AcDbCircle
 10
167.4649279999999
 20
53.5
 30
0.0
 40
2.299999999999998
100
AcDbArc
 50
0.0
 51
90.0
  0
ARC
  5
170D
330
167A
100
AcDbEntity
  8
1
  6
Continuous
100
AcDbCircle
 10
167.4649279999999
 20
43.3
 30
0.0
 40
2.299999999999998
100
AcDbArc
 50
270.0
 51
0.0
  0
ARC
  5
170E
330
167A
100
AcDbEntity
  8
1
  6
Continuous
100
AcDbCircle
 10
128.564928
 20
43.3
 30
0.0
 40
2.299999999999998
100
AcDbArc
 50
180.0
 51
270.0
  0
LINE
  5
170F
330
167A
100
AcDbEntity
  8
1
  6
Continuous
100
AcDbLine
 10
169.764928
 20
162.067628
 30
0.0
 11
126.2649279999999
 21
162.067628
 31
0.0
  0
CIRCLE
  5
1710
330
167A
100
AcDbEntity
  8
1
  6
Continuous
100
AcDbCircle
 10
160.914928
 20
157.067628
 30
0.0
 40
2.75
  0
LINE
  5
1711
330
167A
100
AcDbEntity
  8
1
  6
Continuous
100
AcDbLine
 10
126.2649279999999
 20
162.067628
 30
0.0
 11
126.2649279999999
 21
122.0676279999999
 31
0.0
  0
CIRCLE
  5
1712
330
167A
100
AcDbEntity
  8
1
  6
Continuous
100
AcDbCircle
 10
160.914928
 20
127.0676279999999
 30
0.0
 40
2.75
  0
LINE
  5
1713
330
167A
100
AcDbEntity
  8
1
  6
Continuous
100
AcDbLine
 10
169.764928
 20
122.0676279999999
 30
0.0
 11
126.2649279999999
 21
122.0676279999999
 31
0.0
  0
LINE
  5
1714
330
167A
100
AcDbEntity
  8
1
  6
Continuous
100
AcDbLine
 10
167.4649279999999
 20
162.067628
 30
0.0
 11
167.4649279999999
 21
155.167628
 31
0.0
  0
LINE
  5
1715
330
167A
100
AcDbEntity
  8
1
  6
Continuous
100
AcDbLine
 10
167.4649279999999
 20
128.9676279999999
 30
0.0
 11
167.4649279999999
 21
122.0676279999999
 31
0.0
  0
LINE
  5
1716
330
167A
100
AcDbEntity
  8
1
  6
Continuous
100
AcDbLine
 10
128.564928
 20
162.067628
 30
0.0
 11
128.564928
 21
155.167628
 31
0.0
  0
LINE
  5
1717
330
167A
100
AcDbEntity
  8
1
  6
Continuous
100
AcDbLine
 10
128.564928
 20
128.9676279999999
 30
0.0
 11
128.564928
 21
122.0676279999999
 31
0.0
  0
LINE
  5
1718
330
167A
100
AcDbEntity
  8
4
  6
CENTER
100
AcDbLine
 10
130.664928
 20
157.067628
 30
0.0
 11
139.1649279999998
 21
157.067628
 31
0.0
  0
CIRCLE
  5
1719
330
167A
100
AcDbEntity
  8
1
  6
Continuous
100
AcDbCircle
 10
134.914928
 20
157.067628
 30
0.0
 40
2.75
  0
LINE
  5
171A
330
167A
100
AcDbEntity
  8
4
  6
CENTER
100
AcDbLine
 10
134.914928
 20
152.817628
 30
0.0
 11
134.914928
 21
161.317628
 31
0.0
  0
CIRCLE
  5
171B
330
167A
100
AcDbEntity
  8
1
  6
Continuous
100
AcDbCircle
 10
134.914928
 20
127.0676279999999
 30
0.0
 40
2.75
  0
LINE
  5
171C
330
167A
100
AcDbEntity
  8
1
  6
Continuous
100
AcDbLine
 10
130.2899959999998
 20
155.167628
 30
0.0
 11
126.2649279999999
 21
155.167628
 31
0.0
  0
LINE
  5
171D
330
167A
100
AcDbEntity
  8
1
  6
Continuous
100
AcDbLine
 10
156.289996
 20
155.167628
 30
0.0
 11
139.53986
 21
155.167628
 31
0.0
  0
LINE
  5
171E
330
167A
100
AcDbEntity
  8
1
  6
Continuous
100
AcDbLine
 10
169.764928
 20
155.167628
 30
0.0
 11
165.53986
 21
155.167628
 31
0.0
  0
LINE
  5
171F
330
167A
100
AcDbEntity
  8
1
  6
Continuous
100
AcDbLine
 10
169.764928
 20
128.9676279999999
 30
0.0
 11
165.53986
 21
128.9676279999999
 31
0.0
  0
LINE
  5
1720
330
167A
100
AcDbEntity
  8
1
  6
Continuous
100
AcDbLine
 10
130.2899959999998
 20
128.9676279999999
 30
0.0
 11
126.2649279999999
 21
128.9676279999999
 31
0.0
  0
LINE
  5
1721
330
167A
100
AcDbEntity
  8
1
  6
Continuous
100
AcDbLine
 10
156.289996
 20
128.9676279999999
 30
0.0
 11
139.53986
 21
128.9676279999999
 31
0.0
  0
ARC
  5
1722
330
167A
100
AcDbEntity
  8
1
  6
Continuous
100
AcDbCircle
 10
127.964928
 20
129.467628
 30
0.0
 40
0.5
100
AcDbArc
 50
180.0
 51
270.0
  0
ARC
  5
1723
330
167A
100
AcDbEntity
  8
1
  6
Continuous
100
AcDbCircle
 10
127.964928
 20
154.6676279999998
 30
0.0
 40
0.5
100
AcDbArc
 50
90.0
 51
180.0
  0
LINE
  5
1724
330
167A
100
AcDbEntity
  8
1
  6
Continuous
100
AcDbLine
 10
169.764928
 20
135.067628
 30
0.0
 11
169.764928
 21
122.0676279999999
 31
0.0
  0
LINE
  5
1725
330
167A
100
AcDbEntity
  8
1
  6
Continuous
100
AcDbLine
 10
169.764928
 20
162.067628
 30
0.0
 11
169.764928
 21
149.067628
 31
0.0
  0
LINE
  5
1726
330
167A
100
AcDbEntity
  8
4
  6
CENTER
100
AcDbLine
 10
188.564928
 20
142.067628
 30
0.0
 11
106.264928
 21
142.067628
 31
0.0
  0
LINE
  5
1727
330
167A
100
AcDbEntity
  8
1
  6
Continuous
100
AcDbLine
 10
184.564928
 20
135.067628
 30
0.0
 11
167.4649279999999
 21
135.067628
 31
0.0
  0
LINE
  5
1728
330
167A
100
AcDbEntity
  8
1
  6
Continuous
100
AcDbLine
 10
184.564928
 20
149.067628
 30
0.0
 11
167.4649279999999
 21
149.067628
 31
0.0
  0
LINE
  5
1729
330
167A
100
AcDbEntity
  8
1
  6
Continuous
100
AcDbLine
 10
185.564928
 20
136.067628
 30
0.0
 11
185.564928
 21
148.067628
 31
0.0
  0
ARC
  5
172A
330
167A
100
AcDbEntity
  8
1
  6
Continuous
100
AcDbCircle
 10
184.564928
 20
148.067628
 30
0.0
 40
1.0
100
AcDbArc
 50
0.0
 51
90.0
  0
ARC
  5
172B
330
167A
100
AcDbEntity
  8
1
  6
Continuous
100
AcDbCircle
 10
184.564928
 20
136.067628
 30
0.0
 40
1.0
100
AcDbArc
 50
270.0
 51
0.0
  0
CIRCLE
  5
172C
330
167A
100
AcDbEntity
  8
1
  6
Continuous
100
AcDbCircle
 10
32.29999999999999
 20
142.067628
 30
0.0
 40
2.066999999999997
  0
CIRCLE
  5
172D
330
167A
100
AcDbEntity
  8
2
  6
Continuous
100
AcDbCircle
 10
32.29999999999999
 20
142.067628
 30
0.0
 40
2.5
  0
LINE
  5
172E
330
167A
100
AcDbEntity
  8
1
  6
Continuous
100
AcDbLine
 10
184.564928
 20
43.3
 30
0.0
 11
169.764928
 21
43.3
 31
0.0
  0
ARC
  5
172F
330
167A
100
AcDbEntity
  8
1
  6
Continuous
100
AcDbCircle
 10
152.764928
 20
44.29999999999998
 30
0.0
 40
1.0
100
AcDbArc
 50
180.0
 51
270.0
  0
ARC
  5
1730
330
167A
100
AcDbEntity
  8
1
  6
Continuous
100
AcDbCircle
 10
152.764928
 20
52.3
 30
0.0
 40
1.0
100
AcDbArc
 50
90.0
 51
180.0
  0
LINE
  5
1731
330
167A
100
AcDbEntity
  8
1
  6
Continuous
100
AcDbLine
 10
151.764928
 20
44.29999999999998
 30
0.0
 11
151.764928
 21
52.3
 31
0.0
  0
ARC
  5
1732
330
167A
100
AcDbEntity
  8
1
  6
Continuous
100
AcDbCircle
 10
184.564928
 20
44.29999999999998
 30
0.0
 40
1.0
100
AcDbArc
 50
270.0
 51
29.252105
  0
ARC
  5
1733
330
167A
100
AcDbEntity
  8
1
  6
Continuous
100
AcDbCircle
 10
159.2630639999998
 20
30.129055
 30
0.0
 40
30.0
100
AcDbArc
 50
29.252105
 51
50.566727
  0
LINE
  5
1734
330
167A
100
AcDbEntity
  8
1
  6
Continuous
100
AcDbLine
 10
167.4649279999999
 20
53.3
 30
0.0
 11
152.764928
 21
53.3
 31
0.0
  0
LINE
  5
1735
330
167A
100
AcDbEntity
  8
1
  6
Continuous
100
AcDbLine
 10
178.3184389999999
 20
53.3
 30
0.0
 11
169.764928
 21
53.3
 31
0.0
  0
LINE
  5
1736
330
167A
100
AcDbEntity
  8
1
  6
Continuous
100
AcDbLine
 10
126.2649279999999
 20
52.3
 30
0.0
 11
109.7649279999999
 21
52.3
 31
0.0
  0
LINE
  5
1737
330
167A
100
AcDbEntity
  8
1
  6
Continuous
100
AcDbLine
 10
126.2649279999999
 20
44.29999999999998
 30
0.0
 11
109.7649279999999
 21
44.29999999999998
 31
0.0
  0
LINE
  5
1738
330
167A
100
AcDbEntity
  8
1
  6
Continuous
100
AcDbLine
 10
109.264928
 20
51.79999999999999
 30
0.0
 11
109.264928
 21
44.79999999999999
 31
0.0
  0
LINE
  5
1739
330
167A
100
AcDbEntity
  8
1
  6
Continuous
100
AcDbLine
 10
109.7649279999999
 20
52.3
 30
0.0
 11
109.264928
 21
51.79999999999999
 31
0.0
  0
LINE
  5
173A
330
167A
100
AcDbEntity
  8
1
  6
Continuous
100
AcDbLine
 10
109.264928
 20
44.79999999999999
 30
0.0
 11
109.7649279999999
 21
44.29999999999998
 31
0.0
  0
LINE
  5
173B
330
167A
100
AcDbEntity
  8
4
  6
CENTER
100
AcDbLine
 10
186.1338989999999
 20
48.3
 30
0.0
 11
91.26492799999999
 21
48.3
 31
0.0
  0
LINE
  5
173C
330
167A
100
AcDbEntity
  8
1
  6
Continuous
100
AcDbLine
 10
109.7649279999999
 20
52.3
 30
0.0
 11
109.7649279999999
 21
44.29999999999998
 31
0.0
  0
LINE
  5
173D
330
167A
100
AcDbEntity
  8
1
  6
Continuous
100
AcDbLine
 10
128.564928
 20
52.4
 30
0.0
 11
128.564928
 21
44.2
 31
0.0
  0
LINE
  5
173E
330
167A
100
AcDbEntity
  8
1
  6
Continuous
100
AcDbLine
 10
151.764928
 20
52.4
 30
0.0
 11
151.764928
 21
44.2
 31
0.0
  0
ARC
  5
173F
330
167A
100
AcDbEntity
  8
1
  6
Continuous
100
AcDbCircle
 10
128.9649279999999
 20
52.4
 30
0.0
 40
0.4
100
AcDbArc
 50
0.0
 51
180.0
  0
CIRCLE
  5
1740
330
167A
100
AcDbEntity
  8
1
  6
Continuous
100
AcDbCircle
 10
151.3649279999999
 20
52.4
 30
0.0
 40
0.4
  0
ARC
  5
1741
330
167A
100
AcDbEntity
  8
1
  6
Continuous
100
AcDbCircle
 10
150.564928
 20
52.4
 30
0.0
 40
0.4
100
AcDbArc
 50
5.572198
 51
185.572198
  0
ARC
  5
1742
330
167A
100
AcDbEntity
  8
1
  6
Continuous
100
AcDbCircle
 10
151.3649279999999
 20
44.2
 30
0.0
 40
0.4
100
AcDbArc
 50
185.572198
 51
5.572198
  0
ARC
  5
1743
330
167A
100
AcDbEntity
  8
1
  6
Continuous
100
AcDbCircle
 10
128.9649279999999
 20
44.2
 30
0.0
 40
0.4
100
AcDbArc
 50
180.0
 51
0.0
  0
LINE
  5
1744
330
167A
100
AcDbEntity
  8
1
  6
Continuous
100
AcDbLine
 10
150.9630379999999
 20
52.43884
 30
0.0
 11
151.7630379999999
 21
44.23884
 31
0.0
  0
LINE
  5
1745
330
167A
100
AcDbEntity
  8
1
  6
Continuous
100
AcDbLine
 10
150.966818
 20
44.16115999999997
 30
0.0
 11
150.166818
 21
52.36115999999999
 31
0.0
  0
ARC
  5
1746
330
167A
100
AcDbEntity
  8
1
  6
Continuous
100
AcDbCircle
 10
147.6220709999998
 20
52.4
 30
0.0
 40
0.4
100
AcDbArc
 50
5.572198
 51
185.572198
  0
LINE
  5
1747
330
167A
100
AcDbEntity
  8
1
  6
Continuous
100
AcDbLine
 10
148.023961
 20
44.16115999999997
 30
0.0
 11
147.223961
 21
52.36115999999999
 31
0.0
  0
LINE
  5
1748
330
167A
100
AcDbEntity
  8
1
  6
Continuous
100
AcDbLine
 10
148.020181
 20
52.43884
 30
0.0
 11
148.8201809999999
 21
44.23884
 31
0.0
  0
ARC
  5
1749
330
167A
100
AcDbEntity
  8
1
  6
Continuous
100
AcDbCircle
 10
148.4220709999999
 20
44.2
 30
0.0
 40
0.4
100
AcDbArc
 50
185.572198
 51
5.572198
  0
LINE
  5
174A
330
167A
100
AcDbEntity
  8
1
  6
Continuous
100
AcDbLine
 10
150.1779239999999
 20
52.501134
 30
0.0
 11
149.864039
 21
51.29999999999999
 31
0.0
  0
LINE
  5
174B
330
167A
100
AcDbEntity
  8
1
  6
Continuous
100
AcDbLine
 10
148.809075
 20
44.098867
 30
0.0
 11
149.12296
 21
45.3
 31
0.0
  0
ARC
  5
174C
330
167A
100
AcDbEntity
  8
1
  6
Continuous
100
AcDbCircle
 10
144.679214
 20
52.4
 30
0.0
 40
0.4
100
AcDbArc
 50
5.572198
 51
185.572198
  0
LINE
  5
174D
330
167A
100
AcDbEntity
  8
1
  6
Continuous
100
AcDbLine
 10
145.081104
 20
44.16115999999997
 30
0.0
 11
144.281104
 21
52.36115999999999
 31
0.0
  0
LINE
  5
174E
330
167A
100
AcDbEntity
  8
1
  6
Continuous
100
AcDbLine
 10
145.077324
 20
52.43884
 30
0.0
 11
145.877324
 21
44.23884
 31
0.0
  0
ARC
  5
174F
330
167A
100
AcDbEntity
  8
1
  6
Continuous
100
AcDbCircle
 10
145.4792139999999
 20
44.2
 30
0.0
 40
0.4
100
AcDbArc
 50
185.572198
 51
5.572198
  0
LINE
  5
1750
330
167A
100
AcDbEntity
  8
1
  6
Continuous
100
AcDbLine
 10
145.866218
 20
44.098867
 30
0.0
 11
146.1801029999998
 21
45.3
 31
0.0
  0
LINE
  5
1751
330
167A
100
AcDbEntity
  8
1
  6
Continuous
100
AcDbLine
 10
147.2350669999999
 20
52.501134
 30
0.0
 11
146.9211819999999
 21
51.29999999999999
 31
0.0
  0
ARC
  5
1752
330
167A
100
AcDbEntity
  8
1
  6
Continuous
100
AcDbCircle
 10
141.736357
 20
52.4
 30
0.0
 40
0.4
100
AcDbArc
 50
5.572198
 51
185.572198
  0
LINE
  5
1753
330
167A
100
AcDbEntity
  8
1
  6
Continuous
100
AcDbLine
 10
142.138247
 20
44.16115999999997
 30
0.0
 11
141.3382469999999
 21
52.36115999999999
 31
0.0
  0
LINE
  5
1754
330
167A
100
AcDbEntity
  8
1
  6
Continuous
100
AcDbLine
 10
142.134466
 20
52.43884
 30
0.0
 11
142.9344659999999
 21
44.23884
 31
0.0
  0
ARC
  5
1755
330
167A
100
AcDbEntity
  8
1
  6
Continuous
100
AcDbCircle
 10
142.536357
 20
44.2
 30
0.0
 40
0.4
100
AcDbArc
 50
185.572198
 51
5.572198
  0
LINE
  5
1756
330
167A
100
AcDbEntity
  8
1
  6
Continuous
100
AcDbLine
 10
142.9233609999998
 20
44.098867
 30
0.0
 11
143.237246
 21
45.3
 31
0.0
  0
LINE
  5
1757
330
167A
100
AcDbEntity
  8
1
  6
Continuous
100
AcDbLine
 10
144.29221
 20
52.501134
 30
0.0
 11
143.978325
 21
51.29999999999999
 31
0.0
  0
ARC
  5
1758
330
167A
100
AcDbEntity
  8
1
  6
Continuous
100
AcDbCircle
 10
138.7934989999999
 20
52.4
 30
0.0
 40
0.4
100
AcDbArc
 50
5.572198
 51
185.572198
  0
LINE
  5
1759
330
167A
100
AcDbEntity
  8
1
  6
Continuous
100
AcDbLine
 10
139.19539
 20
44.16115999999997
 30
0.0
 11
138.3953899999999
 21
52.36115999999999
 31
0.0
  0
LINE
  5
175A
330
167A
100
AcDbEntity
  8
1
  6
Continuous
100
AcDbLine
 10
139.191609
 20
52.43884
 30
0.0
 11
139.991609
 21
44.23884
 31
0.0
  0
ARC
  5
175B
330
167A
100
AcDbEntity
  8
1
  6
Continuous
100
AcDbCircle
 10
139.593499
 20
44.2
 30
0.0
 40
0.4
100
AcDbArc
 50
185.572198
 51
5.572198
  0
LINE
  5
175C
330
167A
100
AcDbEntity
  8
1
  6
Continuous
100
AcDbLine
 10
139.980503
 20
44.098867
 30
0.0
 11
140.294388
 21
45.3
 31
0.0
  0
LINE
  5
175D
330
167A
100
AcDbEntity
  8
1
  6
Continuous
100
AcDbLine
 10
141.349353
 20
52.501134
 30
0.0
 11
141.0354679999999
 21
51.29999999999999
 31
0.0
  0
ARC
  5
175E
330
167A
100
AcDbEntity
  8
1
  6
Continuous
100
AcDbCircle
 10
135.8506419999999
 20
52.4
 30
0.0
 40
0.4
100
AcDbArc
 50
5.572198
 51
185.572198
  0
LINE
  5
175F
330
167A
100
AcDbEntity
  8
1
  6
Continuous
100
AcDbLine
 10
136.252532
 20
44.16115999999997
 30
0.0
 11
135.452532
 21
52.36115999999999
 31
0.0
  0
LINE
  5
1760
330
167A
100
AcDbEntity
  8
1
  6
Continuous
100
AcDbLine
 10
136.2487519999999
 20
52.43884
 30
0.0
 11
137.048752
 21
44.23884
 31
0.0
  0
ARC
  5
1761
330
167A
100
AcDbEntity
  8
1
  6
Continuous
100
AcDbCircle
 10
136.650642
 20
44.2
 30
0.0
 40
0.4
100
AcDbArc
 50
185.572198
 51
5.572198
  0
LINE
  5
1762
330
167A
100
AcDbEntity
  8
1
  6
Continuous
100
AcDbLine
 10
137.0376459999999
 20
44.098867
 30
0.0
 11
137.3515309999999
 21
45.3
 31
0.0
  0
LINE
  5
1763
330
167A
100
AcDbEntity
  8
1
  6
Continuous
100
AcDbLine
 10
138.406496
 20
52.501134
 30
0.0
 11
138.092611
 21
51.29999999999999
 31
0.0
  0
ARC
  5
1764
330
167A
100
AcDbEntity
  8
1
  6
Continuous
100
AcDbCircle
 10
132.907785
 20
52.4
 30
0.0
 40
0.4
100
AcDbArc
 50
5.572198
 51
185.572198
  0
LINE
  5
1765
330
167A
100
AcDbEntity
  8
1
  6
Continuous
100
AcDbLine
 10
133.3096749999999
 20
44.16115999999997
 30
0.0
 11
132.5096749999999
 21
52.36115999999999
 31
0.0
  0
LINE
  5
1766
330
167A
100
AcDbEntity
  8
1
  6
Continuous
100
AcDbLine
 10
133.3058949999999
 20
52.43884
 30
0.0
 11
134.105895
 21
44.23884
 31
0.0
  0
ARC
  5
1767
330
167A
100
AcDbEntity
  8
1
  6
Continuous
100
AcDbCircle
 10
133.707785
 20
44.2
 30
0.0
 40
0.4
100
AcDbArc
 50
185.572198
 51
5.572198
  0
LINE
  5
1768
330
167A
100
AcDbEntity
  8
1
  6
Continuous
100
AcDbLine
 10
134.094789
 20
44.098867
 30
0.0
 11
134.4086739999999
 21
45.3
 31
0.0
  0
LINE
  5
1769
330
167A
100
AcDbEntity
  8
1
  6
Continuous
100
AcDbLine
 10
135.4636379999998
 20
52.501134
 30
0.0
 11
135.149753
 21
51.29999999999999
 31
0.0
  0
ARC
  5
176A
330
167A
100
AcDbEntity
  8
1
  6
Continuous
100
AcDbCircle
 10
129.7649279999999
 20
52.4
 30
0.0
 40
0.4
100
AcDbArc
 50
5.572198
 51
185.572198
  0
LINE
  5
176B
330
167A
100
AcDbEntity
  8
1
  6
Continuous
100
AcDbLine
 10
130.166818
 20
44.16115999999997
 30
0.0
 11
129.366818
 21
52.36115999999999
 31
0.0
  0
LINE
  5
176C
330
167A
100
AcDbEntity
  8
1
  6
Continuous
100
AcDbLine
 10
130.1630379999998
 20
52.43884
 30
0.0
 11
130.9630379999999
 21
44.23884
 31
0.0
  0
ARC
  5
176D
330
167A
100
AcDbEntity
  8
1
  6
Continuous
100
AcDbCircle
 10
130.564928
 20
44.2
 30
0.0
 40
0.4
100
AcDbArc
 50
185.572198
 51
5.572198
  0
LINE
  5
176E
330
167A
100
AcDbEntity
  8
1
  6
Continuous
100
AcDbLine
 10
130.9519319999999
 20
44.098867
 30
0.0
 11
131.2658169999999
 21
45.3
 31
0.0
  0
LINE
  5
176F
330
167A
100
AcDbEntity
  8
1
  6
Continuous
100
AcDbLine
 10
132.5207809999998
 20
52.501134
 30
0.0
 11
132.2068959999998
 21
51.29999999999999
 31
0.0
  0
LINE
  5
1770
330
167A
100
AcDbEntity
  8
1
  6
Continuous
100
AcDbLine
 10
129.7649279999999
 20
48.280534
 30
0.0
 11
129.3630379999999
 21
44.16115999999997
 31
0.0
  0
LINE
  5
1771
330
167A
100
AcDbEntity
  8
1
  6
Continuous
100
AcDbLine
 10
129.3649279999999
 20
44.2
 30
0.0
 11
129.3649279999999
 21
52.4
 31
0.0
  0
LINE
  5
1772
330
167A
100
AcDbEntity
  8
4
  6
CENTER
100
AcDbLine
 10
160.914928
 20
152.817628
 30
0.0
 11
160.914928
 21
161.317628
 31
0.0
  0
LINE
  5
1773
330
167A
100
AcDbEntity
  8
4
  6
CENTER
100
AcDbLine
 10
156.664928
 20
157.067628
 30
0.0
 11
165.1649279999998
 21
157.067628
 31
0.0
  0
LINE
  5
1774
330
167A
100
AcDbEntity
  8
4
  6
CENTER
100
AcDbLine
 10
160.914928
 20
122.817628
 30
0.0
 11
160.914928
 21
131.317628
 31
0.0
  0
LINE
  5
1775
330
167A
100
AcDbEntity
  8
4
  6
CENTER
100
AcDbLine
 10
156.664928
 20
127.0676279999999
 30
0.0
 11
165.1649279999998
 21
127.0676279999999
 31
0.0
  0
LINE
  5
1776
330
167A
100
AcDbEntity
  8
4
  6
CENTER
100
AcDbLine
 10
134.914928
 20
122.817628
 30
0.0
 11
134.914928
 21
131.317628
 31
0.0
  0
LINE
  5
1777
330
167A
100
AcDbEntity
  8
4
  6
CENTER
100
AcDbLine
 10
130.664928
 20
127.0676279999999
 30
0.0
 11
139.1649279999998
 21
127.0676279999999
 31
0.0
  0
ARC
  5
1778
330
167A
100
AcDbEntity
  8
1
  6
Continuous
100
AcDbCircle
 10
133.471381
 20
143.79481
 30
0.0
 40
0.055565
100
AcDbArc
 50
0.0
 51
102.7288999999999
  0
ARC
  5
1779
330
167A
100
AcDbEntity
  8
1
  6
Continuous
100
AcDbCircle
 10
133.471381
 20
140.3404459999999
 30
0.0
 40
0.055565
100
AcDbArc
 50
257.2709999999998
 51
0.0
  0
ARC
  5
177A
330
167A
100
AcDbEntity
  8
1
  6
Continuous
100
AcDbCircle
 10
134.914928
 20
137.401474
 30
0.0
 40
7.166163
100
AcDbArc
 50
54.46200000000001
 51
125.5376999999999
  0
ARC
  5
177B
330
167A
100
AcDbEntity
  8
1
  6
Continuous
100
AcDbCircle
 10
134.914928
 20
146.733782
 30
0.0
 40
7.166163
100
AcDbArc
 50
234.4619999999999
 51
305.5379999999999
  0
LINE
  5
177C
330
167A
100
AcDbEntity
  8
1
  6
Continuous
100
AcDbLine
 10
132.97065
 20
143.510611
 30
0.0
 11
132.97065
 21
140.6246449999999
 31
0.0
  0
LINE
  5
177D
330
167A
100
AcDbEntity
  8
1
  6
Continuous
100
AcDbLine
 10
132.415787
 20
143.438434
 30
0.0
 11
132.415787
 21
140.69795
 31
0.0
  0
LINE
  5
177E
330
167A
100
AcDbEntity
  8
1
  6
Continuous
100
AcDbLine
 10
131.8597959999999
 20
141.043048
 30
0.0
 11
131.8597959999999
 21
143.092208
 31
0.0
  0
LINE
  5
177F
330
167A
100
AcDbEntity
  8
1
  6
Continuous
100
AcDbLine
 10
131.304932
 20
143.591811
 30
0.0
 11
131.304932
 21
141.196425
 31
0.0
  0
ARC
  5
1780
330
167A
100
AcDbEntity
  8
1
  6
Continuous
100
AcDbCircle
 10
132.3605259999999
 20
140.69795
 30
0.0
 40
0.055565
100
AcDbArc
 50
247.0559999999999
 51
0.0
  0
ARC
  5
1781
330
167A
100
AcDbEntity
  8
1
  6
Continuous
100
AcDbCircle
 10
134.914928
 20
146.733782
 30
0.0
 40
6.610656999999998
100
AcDbArc
 50
254.794
 51
257.2709999999998
  0
ARC
  5
1782
330
167A
100
AcDbEntity
  8
1
  6
Continuous
100
AcDbCircle
 10
134.914928
 20
146.733782
 30
0.0
 40
6.610656999999998
100
AcDbArc
 50
254.742
 51
254.794
  0
ARC
  5
1783
330
167A
100
AcDbEntity
  8
1
  6
Continuous
100
AcDbCircle
 10
133.24921
 20
140.6246449999999
 30
0.0
 40
0.277826
100
AcDbArc
 50
180.0
 51
254.742
  0
ARC
  5
1784
330
167A
100
AcDbEntity
  8
1
  6
Continuous
100
AcDbCircle
 10
132.1383549999999
 20
141.043048
 30
0.0
 40
0.277826
100
AcDbArc
 50
180.0
 51
243.9859999999999
  0
ARC
  5
1785
330
167A
100
AcDbEntity
  8
1
  6
Continuous
100
AcDbCircle
 10
134.914928
 20
146.733782
 30
0.0
 40
6.610656999999998
100
AcDbArc
 50
243.9859999999999
 51
247.0559999999999
  0
ARC
  5
1786
330
167A
100
AcDbEntity
  8
1
  6
Continuous
100
AcDbCircle
 10
131.5823639999998
 20
142.0681919999998
 30
0.0
 40
1.431648999999999
100
AcDbArc
 50
180.0
 51
234.4619999999999
  0
ARC
  5
1787
330
167A
100
AcDbEntity
  8
1
  6
Continuous
100
AcDbCircle
 10
133.24921
 20
143.510611
 30
0.0
 40
0.277826
100
AcDbArc
 50
105.2575
 51
180.0
  0
ARC
  5
1788
330
167A
100
AcDbEntity
  8
1
  6
Continuous
100
AcDbCircle
 10
134.914928
 20
137.401474
 30
0.0
 40
6.610656999999998
100
AcDbArc
 50
103.2680999999999
 51
105.2575
  0
ARC
  5
1789
330
167A
100
AcDbEntity
  8
1
  6
Continuous
100
AcDbCircle
 10
134.914928
 20
137.401474
 30
0.0
 40
6.610656999999998
100
AcDbArc
 50
102.7288999999999
 51
103.2680999999999
  0
ARC
  5
178A
330
167A
100
AcDbEntity
  8
1
  6
Continuous
100
AcDbCircle
 10
132.3605259999999
 20
143.438434
 30
0.0
 40
0.055565
100
AcDbArc
 50
0.0
 51
112.9439999999999
  0
ARC
  5
178B
330
167A
100
AcDbEntity
  8
1
  6
Continuous
100
AcDbCircle
 10
132.1383549999999
 20
143.092208
 30
0.0
 40
0.277826
100
AcDbArc
 50
116.0144
 51
180.0
  0
ARC
  5
178C
330
167A
100
AcDbEntity
  8
1
  6
Continuous
100
AcDbCircle
 10
131.5823639999998
 20
142.0681919999998
 30
0.0
 40
1.431648999999999
100
AcDbArc
 50
125.5376999999999
 51
166.5373999999999
  0
ARC
  5
178D
330
167A
100
AcDbEntity
  8
1
  6
Continuous
100
AcDbCircle
 10
134.914928
 20
137.401474
 30
0.0
 40
6.610656999999998
100
AcDbArc
 50
112.9439999999999
 51
116.0144
  0
ARC
  5
178E
330
167A
100
AcDbEntity
  8
1
  6
Continuous
100
AcDbCircle
 10
137.692629
 20
142.3456239999999
 30
0.0
 40
0.277826
100
AcDbArc
 50
180.0
 51
0.0
  0
LINE
  5
178F
330
167A
100
AcDbEntity
  8
1
  6
Continuous
100
AcDbLine
 10
136.859206
 20
143.894054
 30
0.0
 11
136.859206
 21
140.416007
 31
0.0
  0
LINE
  5
1790
330
167A
100
AcDbEntity
  8
1
  6
Continuous
100
AcDbLine
 10
135.748351
 20
143.896309
 30
0.0
 11
135.748351
 21
140.2389469999999
 31
0.0
  0
ARC
  5
1791
330
167A
100
AcDbEntity
  8
1
  6
Continuous
100
AcDbCircle
 10
138.2486199999999
 20
142.0681919999998
 30
0.0
 40
1.431648999999999
100
AcDbArc
 50
332.25
 51
54.46200000000001
  0
LINE
  5
1792
330
167A
100
AcDbEntity
  8
1
  6
Continuous
100
AcDbLine
 10
138.253131
 20
141.028387
 30
0.0
 11
138.881299
 21
143.36964
 31
0.0
  0
LINE
  5
1793
330
167A
100
AcDbEntity
  8
1
  6
Continuous
100
AcDbLine
 10
134.637496
 20
144.005703
 30
0.0
 11
134.637496
 21
140.1295529999999
 31
0.0
  0
LINE
  5
1794
330
167A
100
AcDbEntity
  8
1
  6
Continuous
100
AcDbLine
 10
134.0826329999999
 20
143.9594639999999
 30
0.0
 11
134.0826329999999
 21
140.175792
 31
0.0
  0
LINE
  5
1795
330
167A
100
AcDbEntity
  8
1
  6
Continuous
100
AcDbLine
 10
135.193487
 20
144.005703
 30
0.0
 11
135.193487
 21
140.1295529999999
 31
0.0
  0
LINE
  5
1796
330
167A
100
AcDbEntity
  8
1
  6
Continuous
100
AcDbLine
 10
136.3043419999999
 20
142.0681919999998
 30
0.0
 11
136.0269099999999
 21
142.0681919999998
 31
0.0
  0
ARC
  5
1797
330
167A
100
AcDbEntity
  8
1
  6
Continuous
100
AcDbCircle
 10
134.914928
 20
146.733782
 30
0.0
 40
6.610656999999998
100
AcDbArc
 50
277.793
 51
280.104
  0
ARC
  5
1798
330
167A
100
AcDbEntity
  8
1
  6
Continuous
100
AcDbCircle
 10
135.8047399999998
 20
140.2389469999999
 30
0.0
 40
0.055565
100
AcDbArc
 50
180.0
 51
277.793
  0
ARC
  5
1799
330
167A
100
AcDbEntity
  8
1
  6
Continuous
100
AcDbCircle
 10
136.0269099999999
 20
140.4994619999999
 30
0.0
 40
0.277826
100
AcDbArc
 50
280.104
 51
0.0
  0
LINE
  5
179A
330
167A
100
AcDbEntity
  8
1
  6
Continuous
100
AcDbLine
 10
136.3043419999999
 20
140.4994619999999
 30
0.0
 11
136.3043419999999
 21
142.0681919999998
 31
0.0
  0
LINE
  5
179B
330
167A
100
AcDbEntity
  8
1
  6
Continuous
100
AcDbLine
 10
134.637496
 20
142.0681919999998
 30
0.0
 11
134.0826329999999
 21
142.0681919999998
 31
0.0
  0
LINE
  5
179C
330
167A
100
AcDbEntity
  8
1
  6
Continuous
100
AcDbLine
 10
133.5266419999999
 20
140.3404459999999
 30
0.0
 11
133.5266419999999
 21
141.4016789999998
 31
0.0
  0
LINE
  5
179D
330
167A
100
AcDbEntity
  8
1
  6
Continuous
100
AcDbLine
 10
139.679762
 20
142.0681919999998
 30
0.0
 11
138.53169
 21
142.0681919999998
 31
0.0
  0
ARC
  5
179E
330
167A
100
AcDbEntity
  8
1
  6
Continuous
100
AcDbCircle
 10
138.2486199999999
 20
142.0681919999998
 30
0.0
 40
1.431648999999999
100
AcDbArc
 50
305.5379999999999
 51
315.699
  0
LINE
  5
179F
330
167A
100
AcDbEntity
  8
1
  6
Continuous
100
AcDbLine
 10
137.692629
 20
142.0681919999998
 30
0.0
 11
137.692629
 21
140.7351659999999
 31
0.0
  0
ARC
  5
17A0
330
167A
100
AcDbEntity
  8
1
  6
Continuous
100
AcDbCircle
 10
135.8047399999998
 20
143.896309
 30
0.0
 40
0.055565
100
AcDbArc
 50
82.20699999999999
 51
180.0
  0
ARC
  5
17A1
330
167A
100
AcDbEntity
  8
1
  6
Continuous
100
AcDbCircle
 10
134.914928
 20
137.401474
 30
0.0
 40
6.610656999999998
100
AcDbArc
 50
79.896
 51
82.20699999999999
  0
ARC
  5
17A2
330
167A
100
AcDbEntity
  8
1
  6
Continuous
100
AcDbCircle
 10
136.0269099999999
 20
143.635794
 30
0.0
 40
0.277826
100
AcDbArc
 50
0.0
 51
79.896
  0
LINE
  5
17A3
330
167A
100
AcDbEntity
  8
1
  6
Continuous
100
AcDbLine
 10
136.3043419999999
 20
142.7347049999999
 30
0.0
 11
136.3043419999999
 21
143.635794
 31
0.0
  0
LINE
  5
17A4
330
167A
100
AcDbEntity
  8
1
  6
Continuous
100
AcDbLine
 10
133.5266419999999
 20
142.7347049999999
 30
0.0
 11
133.5266419999999
 21
143.79481
 31
0.0
  0
LINE
  5
17A5
330
167A
100
AcDbEntity
  8
1
  6
Continuous
100
AcDbLine
 10
137.9711879999999
 20
142.3456239999999
 30
0.0
 11
137.9711879999999
 21
143.532039
 31
0.0
  0
LINE
  5
17A6
330
167A
100
AcDbEntity
  8
1
  6
Continuous
100
AcDbLine
 10
137.415197
 20
143.6324109999999
 30
0.0
 11
137.415197
 21
142.3456239999999
 31
0.0
  0
LINE
  5
17A7
330
167A
100
AcDbEntity
  8
1
  6
Continuous
100
AcDbLine
 10
143.626887
 20
138.317628
 30
0.0
 11
145.193112
 21
138.317628
 31
0.0
  0
LINE
  5
17A8
330
167A
100
AcDbEntity
  8
1
  6
Continuous
100
AcDbLine
 10
149.018425
 20
138.317628
 30
0.0
 11
149.801612
 21
138.317628
 31
0.0
  0
LINE
  5
17A9
330
167A
100
AcDbEntity
  8
1
  6
Continuous
100
AcDbLine
 10
146.2406119999999
 20
137.824128
 30
0.0
 11
147.557487
 21
137.824128
 31
0.0
  0
LINE
  5
17AA
330
167A
100
AcDbEntity
  8
1
  6
Continuous
100
AcDbLine
 10
146.9099869999998
 20
139.5698219999998
 30
0.0
 11
147.8347999999998
 21
137.069816
 31
0.0
  0
LINE
  5
17AB
330
167A
100
AcDbEntity
  8
1
  6
Continuous
100
AcDbLine
 10
145.193112
 20
139.586322
 30
0.0
 11
145.193112
 21
137.0863159999998
 31
0.0
  0
LINE
  5
17AC
330
167A
100
AcDbEntity
  8
1
  6
Continuous
100
AcDbLine
 10
146.9099869999998
 20
139.565428
 30
0.0
 11
145.940862
 21
137.069816
 31
0.0
  0
LINE
  5
17AD
330
167A
100
AcDbEntity
  8
1
  6
Continuous
100
AcDbLine
 10
140.929987
 20
139.567628
 30
0.0
 11
142.898706
 21
139.567628
 31
0.0
  0
LINE
  5
17AE
330
167A
100
AcDbEntity
  8
1
  6
Continuous
100
AcDbLine
 10
141.9099929999999
 20
139.567628
 30
0.0
 11
141.9099929999999
 21
137.067628
 31
0.0
  0
LINE
  5
17AF
330
167A
100
AcDbEntity
  8
1
  6
Continuous
100
AcDbLine
 10
143.626887
 20
139.586322
 30
0.0
 11
143.626887
 21
137.0863159999998
 31
0.0
  0
LINE
  5
17B0
330
167A
100
AcDbEntity
  8
1
  6
Continuous
100
AcDbLine
 10
158.3666179999999
 20
141.5603219999999
 30
0.0
 11
159.7298059999999
 21
141.5603219999999
 31
0.0
  0
LINE
  5
17B1
330
167A
100
AcDbEntity
  8
1
  6
Continuous
100
AcDbLine
 10
159.0594929999998
 20
143.3674279999999
 30
0.0
 11
160.0061179999999
 21
140.8085279999999
 31
0.0
  0
LINE
  5
17B2
330
167A
100
AcDbEntity
  8
1
  6
Continuous
100
AcDbLine
 10
148.828618
 20
142.112934
 30
0.0
 11
150.4498679999999
 21
142.112934
 31
0.0
  0
LINE
  5
17B3
330
167A
100
AcDbEntity
  8
1
  6
Continuous
100
AcDbLine
 10
141.9445119999998
 20
143.317628
 30
0.0
 11
141.9445119999998
 21
140.817628
 31
0.0
  0
LINE
  5
17B4
330
167A
100
AcDbEntity
  8
1
  6
Continuous
100
AcDbLine
 10
140.929987
 20
143.317628
 30
0.0
 11
142.9680119999999
 21
143.317628
 31
0.0
  0
LINE
  5
17B5
330
167A
100
AcDbEntity
  8
1
  6
Continuous
100
AcDbLine
 10
148.828618
 20
143.426334
 30
0.0
 11
148.828618
 21
140.799534
 31
0.0
  0
LINE
  5
17B6
330
167A
100
AcDbEntity
  8
1
  6
Continuous
100
AcDbLine
 10
153.3756809999999
 20
141.9861339999999
 30
0.0
 11
154.254306
 21
141.9861339999999
 31
0.0
  0
LINE
  5
17B7
330
167A
100
AcDbEntity
  8
1
  6
Continuous
100
AcDbLine
 10
150.4498679999999
 20
143.426334
 30
0.0
 11
150.4498679999999
 21
140.799534
 31
0.0
  0
LINE
  5
17B8
330
167A
100
AcDbEntity
  8
1
  6
Continuous
100
AcDbLine
 10
151.328618
 20
143.426334
 30
0.0
 11
151.328618
 21
140.799534
 31
0.0
  0
LINE
  5
17B9
330
167A
100
AcDbEntity
  8
1
  6
Continuous
100
AcDbLine
 10
159.0594929999998
 20
143.3629339999999
 30
0.0
 11
158.0676809999999
 21
140.808534
 31
0.0
  0
LINE
  5
17BA
330
167A
100
AcDbEntity
  8
1
  6
Continuous
100
AcDbLine
 10
156.7271179999998
 20
141.977022
 30
0.0
 11
156.7271179999998
 21
140.799534
 31
0.0
  0
LINE
  5
17BB
330
167A
100
AcDbEntity
  8
1
  6
Continuous
100
AcDbLine
 10
154.254306
 20
141.613541
 30
0.0
 11
154.254306
 21
140.817628
 31
0.0
  0
LINE
  5
17BC
330
167A
100
AcDbEntity
  8
1
  6
Continuous
100
AcDbLine
 10
154.9789309999999
 20
143.426334
 30
0.0
 11
154.9789309999999
 21
140.799534
 31
0.0
  0
LINE
  5
17BD
330
167A
100
AcDbEntity
  8
1
  6
Continuous
100
AcDbLine
 10
156.7271179999998
 20
141.9770159999998
 30
0.0
 11
157.575368
 21
143.4462029999999
 31
0.0
  0
LINE
  5
17BE
330
167A
100
AcDbEntity
  8
1
  6
Continuous
100
AcDbLine
 10
156.7271179999998
 20
141.9815279999999
 30
0.0
 11
155.8849929999998
 21
143.4446279999999
 31
0.0
  0
LINE
  5
17BF
330
167A
100
AcDbEntity
  8
1
  6
Continuous
100
AcDbLine
 10
155.119536
 20
139.567628
 30
0.0
 11
155.119536
 21
137.067628
 31
0.0
  0
LINE
  5
17C0
330
167A
100
AcDbEntity
  8
1
  6
Continuous
100
AcDbLine
 10
154.570682
 20
137.067628
 30
0.0
 11
155.6683909999998
 21
137.067628
 31
0.0
  0
LINE
  5
17C1
330
167A
100
AcDbEntity
  8
1
  6
Continuous
100
AcDbLine
 10
154.428384
 20
138.8392839999999
 30
0.0
 11
155.119536
 21
139.567628
 31
0.0
  0
LINE
  5
17C2
330
167A
100
AcDbEntity
  8
1
  6
Continuous
100
AcDbLine
 10
157.11507
 20
139.5675029999999
 30
0.0
 11
158.5976949999999
 21
139.5675029999999
 31
0.0
  0
LINE
  5
17C3
330
167A
100
AcDbEntity
  8
1
  6
Continuous
100
AcDbLine
 10
157.11507
 20
139.5675029999999
 30
0.0
 11
157.11507
 21
138.1391589999998
 31
0.0
  0
LINE
  5
17C4
330
167A
100
AcDbEntity
  8
1
  6
Continuous
100
AcDbLine
 10
152.229459
 20
138.317628
 30
0.0
 11
152.595347
 21
138.317628
 31
0.0
  0
ARC
  5
17C5
330
167A
100
AcDbEntity
  8
1
  6
Continuous
100
AcDbCircle
 10
147.340181
 20
142.1543279999999
 30
0.0
 40
1.334412999999998
100
AcDbArc
 50
138.9319999999999
 51
221.0679999999999
  0
ARC
  5
17C6
330
167A
100
AcDbEntity
  8
1
  6
Continuous
100
AcDbCircle
 10
147.055743
 20
141.9065029999999
 30
0.0
 40
0.9571749999999999
100
AcDbArc
 50
221.0679999999999
 51
289.1929999999998
  0
ARC
  5
17C7
330
167A
100
AcDbEntity
  8
1
  6
Continuous
100
AcDbCircle
 10
147.055743
 20
142.402153
 30
0.0
 40
0.9571749999999999
100
AcDbArc
 50
70.80719999999998
 51
138.9319999999999
  0
ARC
  5
17C8
330
167A
100
AcDbEntity
  8
1
  6
Continuous
100
AcDbCircle
 10
147.159556
 20
142.700347
 30
0.0
 40
0.6414310000000001
100
AcDbArc
 50
5.659239999999998
 51
70.80719999999998
  0
ARC
  5
17C9
330
167A
100
AcDbEntity
  8
1
  6
Continuous
100
AcDbCircle
 10
147.159556
 20
141.6083089999999
 30
0.0
 40
0.6414310000000001
100
AcDbArc
 50
289.1929999999998
 51
354.341
  0
ARC
  5
17CA
330
167A
100
AcDbEntity
  8
1
  6
Continuous
100
AcDbCircle
 10
153.4701179999998
 20
142.6549719999998
 30
0.0
 40
0.6414310000000001
100
AcDbArc
 50
5.659239999999998
 51
70.80719999999998
  0
ARC
  5
17CB
330
167A
100
AcDbEntity
  8
1
  6
Continuous
100
AcDbCircle
 10
153.366306
 20
142.3567779999999
 30
0.0
 40
0.9571749999999999
100
AcDbArc
 50
70.80719999999998
 51
138.9319999999999
  0
ARC
  5
17CC
330
167A
100
AcDbEntity
  8
1
  6
Continuous
100
AcDbCircle
 10
153.6506809999998
 20
142.108953
 30
0.0
 40
1.334412999999998
100
AcDbArc
 50
138.9319999999999
 51
221.0679999999999
  0
ARC
  5
17CD
330
167A
100
AcDbEntity
  8
1
  6
Continuous
100
AcDbCircle
 10
153.366306
 20
141.861122
 30
0.0
 40
0.9571749999999999
100
AcDbArc
 50
221.0679999999999
 51
276.591
  0
ARC
  5
17CE
330
167A
100
AcDbEntity
  8
1
  6
Continuous
100
AcDbCircle
 10
153.3728679999998
 20
141.804328
 30
0.0
 40
0.9
100
AcDbArc
 50
269.5819999999998
 51
11.6541
  0
ARC
  5
17CF
330
167A
100
AcDbEntity
  8
1
  6
Continuous
100
AcDbCircle
 10
144.716868
 20
142.1410779999999
 30
0.0
 40
1.334412999999998
100
AcDbArc
 50
138.9319999999999
 51
221.0679999999999
  0
ARC
  5
17D0
330
167A
100
AcDbEntity
  8
1
  6
Continuous
100
AcDbCircle
 10
144.14805
 20
142.1410779999999
 30
0.0
 40
1.334412999999998
100
AcDbArc
 50
318.932
 51
41.0679
  0
ARC
  5
17D1
330
167A
100
AcDbEntity
  8
1
  6
Continuous
100
AcDbCircle
 10
144.4324619999999
 20
141.893253
 30
0.0
 40
0.9571749999999999
100
AcDbArc
 50
221.0679999999999
 51
318.932
  0
ARC
  5
17D2
330
167A
100
AcDbEntity
  8
1
  6
Continuous
100
AcDbCircle
 10
144.4324619999999
 20
142.3889029999999
 30
0.0
 40
0.9571749999999999
100
AcDbArc
 50
41.0679
 51
138.9319999999999
  0
ARC
  5
17D3
330
167A
100
AcDbEntity
  8
1
  6
Continuous
100
AcDbCircle
 10
152.171309
 20
138.9743469999999
 30
0.0
 40
0.781719
100
AcDbArc
 50
302.85
 51
312.87
  0
ARC
  5
17D4
330
167A
100
AcDbEntity
  8
1
  6
Continuous
100
AcDbCircle
 10
152.171309
 20
138.785909
 30
0.0
 40
0.781719
100
AcDbArc
 50
47.1304
 51
132.8699999999997
  0
ARC
  5
17D5
330
167A
100
AcDbEntity
  8
1
  6
Continuous
100
AcDbCircle
 10
152.2587719999999
 20
138.880128
 30
0.0
 40
0.6531630000000001
100
AcDbArc
 50
312.87
 51
47.1304
  0
ARC
  5
17D6
330
167A
100
AcDbEntity
  8
1
  6
Continuous
100
AcDbCircle
 10
152.0838469999999
 20
138.880128
 30
0.0
 40
0.6531630000000001
100
AcDbArc
 50
132.8699999999997
 51
198.208
  0
ARC
  5
17D7
330
167A
100
AcDbEntity
  8
1
  6
Continuous
100
AcDbCircle
 10
152.171309
 20
137.8493469999999
 30
0.0
 40
0.781719
100
AcDbArc
 50
227.13
 51
312.87
  0
ARC
  5
17D8
330
167A
100
AcDbEntity
  8
1
  6
Continuous
100
AcDbCircle
 10
152.171309
 20
137.660907
 30
0.0
 40
0.781719
100
AcDbArc
 50
47.1304
 51
57.1503
  0
ARC
  5
17D9
330
167A
100
AcDbEntity
  8
1
  6
Continuous
100
AcDbCircle
 10
152.2587719999999
 20
137.755128
 30
0.0
 40
0.6531630000000001
100
AcDbArc
 50
312.87
 51
47.1304
  0
ARC
  5
17DA
330
167A
100
AcDbEntity
  8
1
  6
Continuous
100
AcDbCircle
 10
152.0838469999999
 20
137.755128
 30
0.0
 40
0.6531630000000001
100
AcDbArc
 50
193.0139999999999
 51
227.13
  0
ARC
  5
17DB
330
167A
100
AcDbEntity
  8
1
  6
Continuous
100
AcDbCircle
 10
157.835508
 20
137.832628
 30
0.0
 40
0.782925
100
AcDbArc
 50
135.928
 51
156.951
  0
ARC
  5
17DC
330
167A
100
AcDbEntity
  8
1
  6
Continuous
100
AcDbCircle
 10
157.7509449999998
 20
137.832628
 30
0.0
 40
0.782925
100
AcDbArc
 50
315.927
 51
44.0725
  0
ARC
  5
17DD
330
167A
100
AcDbEntity
  8
1
  6
Continuous
100
AcDbCircle
 10
157.7931949999999
 20
137.7916779999999
 30
0.0
 40
0.72405
100
AcDbArc
 50
205.597
 51
315.927
  0
ARC
  5
17DE
330
167A
100
AcDbEntity
  8
1
  6
Continuous
100
AcDbCircle
 10
157.7931949999999
 20
137.873578
 30
0.0
 40
0.72405
100
AcDbArc
 50
44.0725
 51
135.928
  0
LINE
  5
17DF
330
167A
100
AcDbEntity
  8
4
  6
CENTER
100
AcDbLine
 10
160.914928
 20
37.382512
 30
0.0
 11
160.914928
 21
45.882512
 31
0.0
  0
LINE
  5
17E0
330
167A
100
AcDbEntity
  8
4
  6
CENTER
100
AcDbLine
 10
134.914928
 20
37.382512
 30
0.0
 11
134.914928
 21
45.882512
 31
0.0
  0
LINE
  5
17E1
330
167A
100
AcDbEntity
  8
4
  6
CENTER
100
AcDbLine
 10
172.809969
 20
156.067628
 30
0.0
 11
164.3099689999999
 21
156.067628
 31
0.0
  0
LINE
  5
17E2
330
167A
100
AcDbEntity
  8
4
  6
CENTER
100
AcDbLine
 10
172.809969
 20
128.067628
 30
0.0
 11
164.3099689999999
 21
128.067628
 31
0.0
  0
LINE
  5
17E3
330
167A
100
AcDbEntity
  8
4
  6
CENTER
100
AcDbLine
 10
267.5077949999999
 20
157.067628
 30
0.0
 11
274.8077949999998
 21
157.067628
 31
0.0
  0
LINE
  5
17E4
330
167A
100
AcDbEntity
  8
4
  6
CENTER
100
AcDbLine
 10
267.5077949999999
 20
127.0676279999999
 30
0.0
 11
274.8077949999998
 21
127.0676279999999
 31
0.0
  0
LINE
  5
17E5
330
167A
100
AcDbEntity
  8
4
  6
CENTER
100
AcDbLine
 10
29.6
 20
157.067628
 30
0.0
 11
22.29999999999999
 21
157.067628
 31
0.0
  0
LINE
  5
17E6
330
167A
100
AcDbEntity
  8
4
  6
CENTER
100
AcDbLine
 10
29.6
 20
127.0676279999999
 30
0.0
 11
22.29999999999999
 21
127.0676279999999
 31
0.0
  0
LINE
  5
17E7
330
167A
100
AcDbEntity
  8
5
  6
PHANTOM
100
AcDbLine
 10
109.264928
 20
239.8352559999999
 30
0.0
 11
94.764928
 21
239.8352559999999
 31
0.0
  0
LINE
  5
17E8
330
167A
100
AcDbEntity
  8
5
  6
PHANTOM
100
AcDbLine
 10
109.264928
 20
231.835256
 30
0.0
 11
94.764928
 21
231.835256
 31
0.0
  0
LINE
  5
17E9
330
167A
100
AcDbEntity
  8
4
  6
CENTER
100
AcDbLine
 10
186.1338989999999
 20
235.8352559999999
 30
0.0
 11
91.26492799999999
 21
235.8352559999999
 31
0.0
  0
LINE
  5
17EA
330
167A
100
AcDbEntity
  8
5
  6
PHANTOM
100
AcDbLine
 10
94.264928
 20
232.335256
 30
0.0
 11
94.264928
 21
239.3352559999999
 31
0.0
  0
LINE
  5
17EB
330
167A
100
AcDbEntity
  8
5
  6
PHANTOM
100
AcDbLine
 10
94.764928
 20
231.835256
 30
0.0
 11
94.764928
 21
239.8352559999999
 31
0.0
  0
LINE
  5
17EC
330
167A
100
AcDbEntity
  8
5
  6
PHANTOM
100
AcDbLine
 10
94.264928
 20
239.3352559999999
 30
0.0
 11
94.764928
 21
239.8352559999999
 31
0.0
  0
LINE
  5
17ED
330
167A
100
AcDbEntity
  8
5
  6
PHANTOM
100
AcDbLine
 10
94.764928
 20
231.835256
 30
0.0
 11
94.264928
 21
232.335256
 31
0.0
  0
ARC
  5
17EE
330
167A
100
AcDbEntity
  8
5
  6
PHANTOM
100
AcDbCircle
 10
144.2630639999999
 20
254.0062009999998
 30
0.0
 40
30.0
100
AcDbArc
 50
309.433273
 51
330.7478950000001
  0
LINE
  5
17EF
330
167A
100
AcDbEntity
  8
1
  6
Continuous
100
AcDbLine
 10
167.4649279999999
 20
234.435256
 30
0.0
 11
155.9149279999998
 21
234.435256
 31
0.0
  0
LINE
  5
17F0
330
167A
100
AcDbEntity
  8
1
  6
Continuous
100
AcDbLine
 10
167.4649279999999
 20
237.2352559999999
 30
0.0
 11
155.9149279999998
 21
237.2352559999999
 31
0.0
  0
LINE
  5
17F1
330
167A
100
AcDbEntity
  8
1
  6
Continuous
100
AcDbLine
 10
167.4649279999999
 20
230.8352559999999
 30
0.0
 11
152.764928
 21
230.8352559999999
 31
0.0
  0
LINE
  5
17F2
330
167A
100
AcDbEntity
  8
1
  6
Continuous
100
AcDbLine
 10
169.764928
 20
230.635256
 30
0.0
 11
128.7649279999999
 21
230.635256
 31
0.0
  0
LINE
  5
17F3
330
167A
100
AcDbEntity
  8
1
  6
Continuous
100
AcDbLine
 10
167.4649279999999
 20
240.8352559999999
 30
0.0
 11
128.564928
 21
240.8352559999999
 31
0.0
  0
LINE
  5
17F4
330
167A
100
AcDbEntity
  8
1
  6
Continuous
100
AcDbLine
 10
167.4649279999999
 20
243.135256
 30
0.0
 11
128.564928
 21
243.135256
 31
0.0
  0
LINE
  5
17F5
330
167A
100
AcDbEntity
  8
1
  6
Continuous
100
AcDbLine
 10
167.4649279999999
 20
228.3352559999999
 30
0.0
 11
126.2649279999999
 21
228.3352559999999
 31
0.0
  0
LINE
  5
17F6
330
167A
100
AcDbEntity
  8
4
  6
CENTER
100
AcDbLine
 10
134.914928
 20
246.752744
 30
0.0
 11
134.914928
 21
238.252744
 31
0.0
  0
LINE
  5
17F7
330
167A
100
AcDbEntity
  8
4
  6
CENTER
100
AcDbLine
 10
160.914928
 20
246.752744
 30
0.0
 11
160.914928
 21
238.252744
 31
0.0
  0
ARC
  5
17F8
330
167A
100
AcDbEntity
  8
1
  6
Continuous
100
AcDbCircle
 10
136.650642
 20
239.935256
 30
0.0
 40
0.4
100
AcDbArc
 50
354.427802
 51
174.427802
  0
LINE
  5
17F9
330
167A
100
AcDbEntity
  8
1
  6
Continuous
100
AcDbLine
 10
136.2487519999999
 20
231.696416
 30
0.0
 11
137.048752
 21
239.8964159999999
 31
0.0
  0
LINE
  5
17FA
330
167A
100
AcDbEntity
  8
1
  6
Continuous
100
AcDbLine
 10
126.2649279999999
 20
231.835256
 30
0.0
 11
109.7649279999999
 21
231.835256
 31
0.0
  0
LINE
  5
17FB
330
167A
100
AcDbEntity
  8
1
  6
Continuous
100
AcDbLine
 10
126.2649279999999
 20
239.8352559999999
 30
0.0
 11
109.7649279999999
 21
239.8352559999999
 31
0.0
  0
LINE
  5
17FC
330
167A
100
AcDbEntity
  8
1
  6
Continuous
100
AcDbLine
 10
109.264928
 20
232.335256
 30
0.0
 11
109.264928
 21
239.3352559999999
 31
0.0
  0
LINE
  5
17FD
330
167A
100
AcDbEntity
  8
1
  6
Continuous
100
AcDbLine
 10
109.7649279999999
 20
231.835256
 30
0.0
 11
109.7649279999999
 21
239.8352559999999
 31
0.0
  0
LINE
  5
17FE
330
167A
100
AcDbEntity
  8
1
  6
Continuous
100
AcDbLine
 10
109.264928
 20
239.3352559999999
 30
0.0
 11
109.7649279999999
 21
239.8352559999999
 31
0.0
  0
LINE
  5
17FF
330
167A
100
AcDbEntity
  8
1
  6
Continuous
100
AcDbLine
 10
109.7649279999999
 20
231.835256
 30
0.0
 11
109.264928
 21
232.335256
 31
0.0
  0
LINE
  5
1800
330
167A
100
AcDbEntity
  8
1
  6
Continuous
100
AcDbLine
 10
136.252532
 20
239.9740959999999
 30
0.0
 11
135.452532
 21
231.774096
 31
0.0
  0
LINE
  5
1801
330
167A
100
AcDbEntity
  8
1
  6
Continuous
100
AcDbLine
 10
133.3096749999999
 20
239.9740959999999
 30
0.0
 11
132.5096749999999
 21
231.774096
 31
0.0
  0
LINE
  5
1802
330
167A
100
AcDbEntity
  8
1
  6
Continuous
100
AcDbLine
 10
133.3058949999999
 20
231.696416
 30
0.0
 11
134.105895
 21
239.8964159999999
 31
0.0
  0
LINE
  5
1803
330
167A
100
AcDbEntity
  8
1
  6
Continuous
100
AcDbLine
 10
126.2649279999999
 20
240.8352559999999
 30
0.0
 11
126.2649279999999
 21
228.3352559999999
 31
0.0
  0
LINE
  5
1804
330
167A
100
AcDbEntity
  8
1
  6
Continuous
100
AcDbLine
 10
128.564928
 20
240.8352559999999
 30
0.0
 11
128.564928
 21
228.3352559999999
 31
0.0
  0
LINE
  5
1805
330
167A
100
AcDbEntity
  8
1
  6
Continuous
100
AcDbLine
 10
128.564928
 20
231.7352559999999
 30
0.0
 11
128.564928
 21
239.935256
 31
0.0
  0
LINE
  5
1806
330
167A
100
AcDbEntity
  8
1
  6
Continuous
100
AcDbLine
 10
130.166818
 20
239.9740959999999
 30
0.0
 11
129.366818
 21
231.774096
 31
0.0
  0
LINE
  5
1807
330
167A
100
AcDbEntity
  8
1
  6
Continuous
100
AcDbLine
 10
129.3649279999999
 20
239.935256
 30
0.0
 11
129.3649279999999
 21
231.7352559999999
 31
0.0
  0
LINE
  5
1808
330
167A
100
AcDbEntity
  8
1
  6
Continuous
100
AcDbLine
 10
130.1630379999998
 20
231.696416
 30
0.0
 11
130.9630379999999
 21
239.8964159999999
 31
0.0
  0
ARC
  5
1809
330
167A
100
AcDbEntity
  8
1
  6
Continuous
100
AcDbCircle
 10
128.564928
 20
240.8352559999999
 30
0.0
 40
2.299999999999998
100
AcDbArc
 50
90.0
 51
180.0
  0
LINE
  5
180A
330
167A
100
AcDbEntity
  8
1
  6
Continuous
100
AcDbLine
 10
133.1985689999999
 20
238.8352559999999
 30
0.0
 11
130.85951
 21
238.8352559999999
 31
0.0
  0
LINE
  5
180B
330
167A
100
AcDbEntity
  8
1
  6
Continuous
100
AcDbLine
 10
130.9519319999999
 20
240.036389
 30
0.0
 11
131.2658169999999
 21
238.8352559999999
 31
0.0
  0
LINE
  5
180C
330
167A
100
AcDbEntity
  8
1
  6
Continuous
100
AcDbLine
 10
136.1414259999999
 20
238.8352559999999
 30
0.0
 11
134.0023669999999
 21
238.8352559999999
 31
0.0
  0
ARC
  5
180D
330
167A
100
AcDbEntity
  8
1
  6
Continuous
100
AcDbCircle
 10
133.707785
 20
239.935256
 30
0.0
 40
0.4
100
AcDbArc
 50
354.427802
 51
174.427802
  0
LINE
  5
180E
330
167A
100
AcDbEntity
  8
1
  6
Continuous
100
AcDbLine
 10
134.094789
 20
240.036389
 30
0.0
 11
134.4086739999999
 21
238.8352559999999
 31
0.0
  0
LINE
  5
180F
330
167A
100
AcDbEntity
  8
1
  6
Continuous
100
AcDbLine
 10
130.055712
 20
238.8352559999999
 30
0.0
 11
129.3649279999999
 21
238.8352559999999
 31
0.0
  0
ARC
  5
1810
330
167A
100
AcDbEntity
  8
1
  6
Continuous
100
AcDbCircle
 10
128.9649279999999
 20
239.935256
 30
0.0
 40
0.4
100
AcDbArc
 50
0.0
 51
180.0
  0
LINE
  5
1811
330
167A
100
AcDbEntity
  8
1
  6
Continuous
100
AcDbLine
 10
129.7649279999999
 20
235.854722
 30
0.0
 11
129.3630379999999
 21
239.9740959999999
 31
0.0
  0
ARC
  5
1812
330
167A
100
AcDbEntity
  8
1
  6
Continuous
100
AcDbCircle
 10
130.564928
 20
239.935256
 30
0.0
 40
0.4
100
AcDbArc
 50
354.427802
 51
174.427802
  0
ARC
  5
1813
330
167A
100
AcDbEntity
  8
1
  6
Continuous
100
AcDbCircle
 10
132.907785
 20
231.7352559999999
 30
0.0
 40
0.4
100
AcDbArc
 50
174.427802
 51
354.427802
  0
LINE
  5
1814
330
167A
100
AcDbEntity
  8
1
  6
Continuous
100
AcDbLine
 10
132.5207809999998
 20
231.6341219999999
 30
0.0
 11
132.2068959999998
 21
232.8352559999999
 31
0.0
  0
LINE
  5
1815
330
167A
100
AcDbEntity
  8
1
  6
Continuous
100
AcDbLine
 10
135.55606
 20
232.8352559999999
 30
0.0
 11
133.417001
 21
232.8352559999999
 31
0.0
  0
ARC
  5
1816
330
167A
100
AcDbEntity
  8
1
  6
Continuous
100
AcDbCircle
 10
135.8506419999999
 20
231.7352559999999
 30
0.0
 40
0.4
100
AcDbArc
 50
174.427802
 51
354.427802
  0
LINE
  5
1817
330
167A
100
AcDbEntity
  8
1
  6
Continuous
100
AcDbLine
 10
135.4636379999998
 20
231.6341219999999
 30
0.0
 11
135.149753
 21
232.8352559999999
 31
0.0
  0
LINE
  5
1818
330
167A
100
AcDbEntity
  8
1
  6
Continuous
100
AcDbLine
 10
130.2899959999998
 20
230.635256
 30
0.0
 11
130.2899959999998
 21
228.3352559999999
 31
0.0
  0
LINE
  5
1819
330
167A
100
AcDbEntity
  8
1
  6
Continuous
100
AcDbLine
 10
129.470346
 20
232.8352559999999
 30
0.0
 11
129.3649279999999
 21
232.8352559999999
 31
0.0
  0
ARC
  5
181A
330
167A
100
AcDbEntity
  8
1
  6
Continuous
100
AcDbCircle
 10
128.9649279999999
 20
231.7352559999999
 30
0.0
 40
0.4
100
AcDbArc
 50
180.0
 51
0.0
  0
ARC
  5
181B
330
167A
100
AcDbEntity
  8
1
  6
Continuous
100
AcDbCircle
 10
129.7649279999999
 20
231.7352559999999
 30
0.0
 40
0.4
100
AcDbArc
 50
174.427802
 51
354.427802
  0
LINE
  5
181C
330
167A
100
AcDbEntity
  8
1
  6
Continuous
100
AcDbLine
 10
132.6132029999999
 20
232.8352559999999
 30
0.0
 11
130.274144
 21
232.8352559999999
 31
0.0
  0
LINE
  5
181D
330
167A
100
AcDbEntity
  8
1
  6
Continuous
100
AcDbLine
 10
151.764928
 20
232.8352559999999
 30
0.0
 11
151.0741439999998
 21
232.8352559999999
 31
0.0
  0
ARC
  5
181E
330
167A
100
AcDbEntity
  8
1
  6
Continuous
100
AcDbCircle
 10
152.764928
 20
231.835256
 30
0.0
 40
1.0
100
AcDbArc
 50
180.0
 51
270.0
  0
CIRCLE
  5
181F
330
167A
100
AcDbEntity
  8
1
  6
Continuous
100
AcDbCircle
 10
151.3649279999999
 20
231.7352559999999
 30
0.0
 40
0.4
  0
LINE
  5
1820
330
167A
100
AcDbEntity
  8
1
  6
Continuous
100
AcDbLine
 10
151.764928
 20
238.8352559999999
 30
0.0
 11
151.65951
 21
238.8352559999999
 31
0.0
  0
ARC
  5
1821
330
167A
100
AcDbEntity
  8
1
  6
Continuous
100
AcDbCircle
 10
152.764928
 20
239.8352559999999
 30
0.0
 40
1.0
100
AcDbArc
 50
90.0
 51
180.0
  0
ARC
  5
1822
330
167A
100
AcDbEntity
  8
1
  6
Continuous
100
AcDbCircle
 10
151.3649279999999
 20
239.935256
 30
0.0
 40
0.4
100
AcDbArc
 50
354.427802
 51
174.427802
  0
LINE
  5
1823
330
167A
100
AcDbEntity
  8
1
  6
Continuous
100
AcDbLine
 10
150.9630379999999
 20
231.696416
 30
0.0
 11
151.7630379999999
 21
239.8964159999999
 31
0.0
  0
LINE
  5
1824
330
167A
100
AcDbEntity
  8
1
  6
Continuous
100
AcDbLine
 10
150.966818
 20
239.9740959999999
 30
0.0
 11
150.166818
 21
231.774096
 31
0.0
  0
LINE
  5
1825
330
167A
100
AcDbEntity
  8
1
  6
Continuous
100
AcDbLine
 10
148.023961
 20
239.9740959999999
 30
0.0
 11
147.223961
 21
231.774096
 31
0.0
  0
LINE
  5
1826
330
167A
100
AcDbEntity
  8
1
  6
Continuous
100
AcDbLine
 10
148.020181
 20
231.696416
 30
0.0
 11
148.8201809999999
 21
239.8964159999999
 31
0.0
  0
LINE
  5
1827
330
167A
100
AcDbEntity
  8
1
  6
Continuous
100
AcDbLine
 10
139.19539
 20
239.9740959999999
 30
0.0
 11
138.3953899999999
 21
231.774096
 31
0.0
  0
LINE
  5
1828
330
167A
100
AcDbEntity
  8
1
  6
Continuous
100
AcDbLine
 10
139.191609
 20
231.696416
 30
0.0
 11
139.991609
 21
239.8964159999999
 31
0.0
  0
LINE
  5
1829
330
167A
100
AcDbEntity
  8
1
  6
Continuous
100
AcDbLine
 10
145.081104
 20
239.9740959999999
 30
0.0
 11
144.281104
 21
231.774096
 31
0.0
  0
LINE
  5
182A
330
167A
100
AcDbEntity
  8
1
  6
Continuous
100
AcDbLine
 10
145.077324
 20
231.696416
 30
0.0
 11
145.877324
 21
239.8964159999999
 31
0.0
  0
LINE
  5
182B
330
167A
100
AcDbEntity
  8
1
  6
Continuous
100
AcDbLine
 10
142.138247
 20
239.9740959999999
 30
0.0
 11
141.3382469999999
 21
231.774096
 31
0.0
  0
LINE
  5
182C
330
167A
100
AcDbEntity
  8
1
  6
Continuous
100
AcDbLine
 10
142.134466
 20
231.696416
 30
0.0
 11
142.9344659999999
 21
239.8964159999999
 31
0.0
  0
LINE
  5
182D
330
167A
100
AcDbEntity
  8
1
  6
Continuous
100
AcDbLine
 10
144.969998
 20
238.8352559999999
 30
0.0
 11
142.830939
 21
238.8352559999999
 31
0.0
  0
LINE
  5
182E
330
167A
100
AcDbEntity
  8
1
  6
Continuous
100
AcDbLine
 10
142.02714
 20
238.8352559999999
 30
0.0
 11
139.888082
 21
238.8352559999999
 31
0.0
  0
ARC
  5
182F
330
167A
100
AcDbEntity
  8
1
  6
Continuous
100
AcDbCircle
 10
139.593499
 20
239.935256
 30
0.0
 40
0.4
100
AcDbArc
 50
354.427802
 51
174.427802
  0
LINE
  5
1830
330
167A
100
AcDbEntity
  8
1
  6
Continuous
100
AcDbLine
 10
139.980503
 20
240.036389
 30
0.0
 11
140.294388
 21
238.8352559999999
 31
0.0
  0
ARC
  5
1831
330
167A
100
AcDbEntity
  8
1
  6
Continuous
100
AcDbCircle
 10
142.536357
 20
239.935256
 30
0.0
 40
0.4
100
AcDbArc
 50
354.427802
 51
174.427802
  0
LINE
  5
1832
330
167A
100
AcDbEntity
  8
1
  6
Continuous
100
AcDbLine
 10
142.9233609999998
 20
240.036389
 30
0.0
 11
143.237246
 21
238.8352559999999
 31
0.0
  0
LINE
  5
1833
330
167A
100
AcDbEntity
  8
1
  6
Continuous
100
AcDbLine
 10
137.0376459999999
 20
240.036389
 30
0.0
 11
137.3515309999999
 21
238.8352559999999
 31
0.0
  0
LINE
  5
1834
330
167A
100
AcDbEntity
  8
1
  6
Continuous
100
AcDbLine
 10
139.0842829999999
 20
238.8352559999999
 30
0.0
 11
136.9452239999999
 21
238.8352559999999
 31
0.0
  0
ARC
  5
1835
330
167A
100
AcDbEntity
  8
1
  6
Continuous
100
AcDbCircle
 10
148.4220709999999
 20
239.935256
 30
0.0
 40
0.4
100
AcDbArc
 50
354.427802
 51
174.427802
  0
LINE
  5
1836
330
167A
100
AcDbEntity
  8
1
  6
Continuous
100
AcDbLine
 10
150.855712
 20
238.8352559999999
 30
0.0
 11
148.716653
 21
238.8352559999999
 31
0.0
  0
LINE
  5
1837
330
167A
100
AcDbEntity
  8
1
  6
Continuous
100
AcDbLine
 10
148.809075
 20
240.036389
 30
0.0
 11
149.12296
 21
238.8352559999999
 31
0.0
  0
ARC
  5
1838
330
167A
100
AcDbEntity
  8
1
  6
Continuous
100
AcDbCircle
 10
145.4792139999999
 20
239.935256
 30
0.0
 40
0.4
100
AcDbArc
 50
354.427802
 51
174.427802
  0
LINE
  5
1839
330
167A
100
AcDbEntity
  8
1
  6
Continuous
100
AcDbLine
 10
145.866218
 20
240.036389
 30
0.0
 11
146.1801029999998
 21
238.8352559999999
 31
0.0
  0
LINE
  5
183A
330
167A
100
AcDbEntity
  8
1
  6
Continuous
100
AcDbLine
 10
147.912855
 20
238.8352559999999
 30
0.0
 11
145.773796
 21
238.8352559999999
 31
0.0
  0
LINE
  5
183B
330
167A
100
AcDbEntity
  8
1
  6
Continuous
100
AcDbLine
 10
144.384632
 20
232.8352559999999
 30
0.0
 11
142.245573
 21
232.8352559999999
 31
0.0
  0
LINE
  5
183C
330
167A
100
AcDbEntity
  8
1
  6
Continuous
100
AcDbLine
 10
144.29221
 20
231.6341219999999
 30
0.0
 11
143.978325
 21
232.8352559999999
 31
0.0
  0
LINE
  5
183D
330
167A
100
AcDbEntity
  8
1
  6
Continuous
100
AcDbLine
 10
141.441775
 20
232.8352559999999
 30
0.0
 11
139.302716
 21
232.8352559999999
 31
0.0
  0
LINE
  5
183E
330
167A
100
AcDbEntity
  8
1
  6
Continuous
100
AcDbLine
 10
139.53986
 20
230.635256
 30
0.0
 11
139.53986
 21
228.3352559999999
 31
0.0
  0
ARC
  5
183F
330
167A
100
AcDbEntity
  8
1
  6
Continuous
100
AcDbCircle
 10
141.736357
 20
231.7352559999999
 30
0.0
 40
0.4
100
AcDbArc
 50
174.427802
 51
354.427802
  0
LINE
  5
1840
330
167A
100
AcDbEntity
  8
1
  6
Continuous
100
AcDbLine
 10
141.349353
 20
231.6341219999999
 30
0.0
 11
141.0354679999999
 21
232.8352559999999
 31
0.0
  0
LINE
  5
1841
330
167A
100
AcDbEntity
  8
1
  6
Continuous
100
AcDbLine
 10
138.498917
 20
232.8352559999999
 30
0.0
 11
136.359859
 21
232.8352559999999
 31
0.0
  0
LINE
  5
1842
330
167A
100
AcDbEntity
  8
1
  6
Continuous
100
AcDbLine
 10
138.406496
 20
231.6341219999999
 30
0.0
 11
138.092611
 21
232.8352559999999
 31
0.0
  0
ARC
  5
1843
330
167A
100
AcDbEntity
  8
1
  6
Continuous
100
AcDbCircle
 10
138.7934989999999
 20
231.7352559999999
 30
0.0
 40
0.4
100
AcDbArc
 50
174.427802
 51
354.427802
  0
LINE
  5
1844
330
167A
100
AcDbEntity
  8
1
  6
Continuous
100
AcDbLine
 10
150.270346
 20
232.8352559999999
 30
0.0
 11
148.1312869999999
 21
232.8352559999999
 31
0.0
  0
ARC
  5
1845
330
167A
100
AcDbEntity
  8
1
  6
Continuous
100
AcDbCircle
 10
147.6220709999998
 20
231.7352559999999
 30
0.0
 40
0.4
100
AcDbArc
 50
174.427802
 51
354.427802
  0
LINE
  5
1846
330
167A
100
AcDbEntity
  8
1
  6
Continuous
100
AcDbLine
 10
147.2350669999999
 20
231.6341219999999
 30
0.0
 11
146.9211819999999
 21
232.8352559999999
 31
0.0
  0
ARC
  5
1847
330
167A
100
AcDbEntity
  8
1
  6
Continuous
100
AcDbCircle
 10
150.564928
 20
231.7352559999999
 30
0.0
 40
0.4
100
AcDbArc
 50
174.427802
 51
354.427802
  0
LINE
  5
1848
330
167A
100
AcDbEntity
  8
1
  6
Continuous
100
AcDbLine
 10
150.1779239999999
 20
231.6341219999999
 30
0.0
 11
149.864039
 21
232.8352559999999
 31
0.0
  0
ARC
  5
1849
330
167A
100
AcDbEntity
  8
1
  6
Continuous
100
AcDbCircle
 10
144.679214
 20
231.7352559999999
 30
0.0
 40
0.4
100
AcDbArc
 50
174.427802
 51
354.427802
  0
LINE
  5
184A
330
167A
100
AcDbEntity
  8
1
  6
Continuous
100
AcDbLine
 10
147.3274889999999
 20
232.8352559999999
 30
0.0
 11
145.18843
 21
232.8352559999999
 31
0.0
  0
CIRCLE
  5
184B
330
167A
100
AcDbEntity
  8
1
  6
Continuous
100
AcDbCircle
 10
155.7649279999999
 20
235.8352559999999
 30
0.0
 40
1.25
  0
ARC
  5
184C
330
167A
100
AcDbEntity
  8
1
  6
Continuous
100
AcDbCircle
 10
155.9149279999998
 20
235.8352559999999
 30
0.0
 40
1.399999999999999
100
AcDbArc
 50
90.0
 51
270.0
  0
LINE
  5
184D
330
167A
100
AcDbEntity
  8
1
  6
Continuous
100
AcDbLine
 10
151.764928
 20
239.8352559999999
 30
0.0
 11
151.764928
 21
231.835256
 31
0.0
  0
LINE
  5
184E
330
167A
100
AcDbEntity
  8
1
  6
Continuous
100
AcDbLine
 10
151.764928
 20
231.7352559999999
 30
0.0
 11
151.764928
 21
239.935256
 31
0.0
  0
LINE
  5
184F
330
167A
100
AcDbEntity
  8
1
  6
Continuous
100
AcDbLine
 10
156.289996
 20
230.635256
 30
0.0
 11
156.289996
 21
228.3352559999999
 31
0.0
  0
LINE
  5
1850
330
167A
100
AcDbEntity
  8
1
  6
Continuous
100
AcDbLine
 10
165.53986
 20
230.635256
 30
0.0
 11
165.53986
 21
228.3352559999999
 31
0.0
  0
ARC
  5
1851
330
167A
100
AcDbEntity
  8
1
  6
Continuous
100
AcDbCircle
 10
159.2630639999998
 20
254.0062009999998
 30
0.0
 40
30.0
100
AcDbArc
 50
309.433273
 51
330.7478950000001
  0
LINE
  5
1852
330
167A
100
AcDbEntity
  8
1
  6
Continuous
100
AcDbLine
 10
184.564928
 20
240.8352559999999
 30
0.0
 11
169.764928
 21
240.8352559999999
 31
0.0
  0
ARC
  5
1853
330
167A
100
AcDbEntity
  8
1
  6
Continuous
100
AcDbCircle
 10
170.764928
 20
235.8352559999999
 30
0.0
 40
1.399999999999999
100
AcDbArc
 50
270.0
 51
90.0
  0
LINE
  5
1854
330
167A
100
AcDbEntity
  8
1
  6
Continuous
100
AcDbLine
 10
169.764928
 20
230.635256
 30
0.0
 11
169.764928
 21
240.8352559999999
 31
0.0
  0
LINE
  5
1855
330
167A
100
AcDbEntity
  8
1
  6
Continuous
100
AcDbLine
 10
167.4649279999999
 20
230.635256
 30
0.0
 11
167.4649279999999
 21
240.8352559999999
 31
0.0
  0
LINE
  5
1856
330
167A
100
AcDbEntity
  8
1
  6
Continuous
100
AcDbLine
 10
170.764928
 20
237.2352559999999
 30
0.0
 11
169.764928
 21
237.2352559999999
 31
0.0
  0
ARC
  5
1857
330
167A
100
AcDbEntity
  8
5
  6
PHANTOM
100
AcDbCircle
 10
169.564928
 20
239.8352559999999
 30
0.0
 40
1.0
100
AcDbArc
 50
330.7478950000001
 51
90.0
  0
ARC
  5
1858
330
167A
100
AcDbEntity
  8
1
  6
Continuous
100
AcDbCircle
 10
167.4649279999999
 20
240.8352559999999
 30
0.0
 40
2.299999999999998
100
AcDbArc
 50
0.0
 51
90.0
  0
LINE
  5
1859
330
167A
100
AcDbEntity
  8
1
  6
Continuous
100
AcDbLine
 10
178.3184389999999
 20
230.8352559999999
 30
0.0
 11
169.764928
 21
230.8352559999999
 31
0.0
  0
LINE
  5
185A
330
167A
100
AcDbEntity
  8
1
  6
Continuous
100
AcDbLine
 10
170.764928
 20
234.435256
 30
0.0
 11
169.764928
 21
234.435256
 31
0.0
  0
ARC
  5
185B
330
167A
100
AcDbEntity
  8
1
  6
Continuous
100
AcDbCircle
 10
167.4649279999999
 20
230.635256
 30
0.0
 40
2.299999999999998
100
AcDbArc
 50
270.0
 51
0.0
  0
ARC
  5
185C
330
167A
100
AcDbEntity
  8
1
  6
Continuous
100
AcDbCircle
 10
184.564928
 20
239.8352559999999
 30
0.0
 40
1.0
100
AcDbArc
 50
330.7478950000001
 51
90.0
  0
LINE
  5
185D
330
167A
100
AcDbEntity
  8
4
  6
CENTER
100
AcDbLine
 10
356.6056209999999
 20
128.067628
 30
0.0
 11
365.105621
 21
128.067628
 31
0.0
  0
LINE
  5
185E
330
167A
100
AcDbEntity
  8
4
  6
CENTER
100
AcDbLine
 10
356.6056209999999
 20
156.067628
 30
0.0
 11
365.105621
 21
156.067628
 31
0.0
  0
LINE
  5
185F
330
167A
100
AcDbEntity
  8
1
  6
Continuous
100
AcDbLine
 10
359.6506619999999
 20
162.067628
 30
0.0
 11
403.150662
 21
162.067628
 31
0.0
  0
LINE
  5
1860
330
167A
100
AcDbEntity
  8
1
  6
Continuous
100
AcDbLine
 10
359.6506619999999
 20
122.0676279999999
 30
0.0
 11
403.150662
 21
122.0676279999999
 31
0.0
  0
LINE
  5
1861
330
167A
100
AcDbEntity
  8
4
  6
CENTER
100
AcDbLine
 10
340.850662
 20
142.067628
 30
0.0
 11
423.150662
 21
142.067628
 31
0.0
  0
LINE
  5
1862
330
167A
100
AcDbEntity
  8
4
  6
CENTER
100
AcDbLine
 10
394.500662
 20
122.817628
 30
0.0
 11
394.500662
 21
131.317628
 31
0.0
  0
LINE
  5
1863
330
167A
100
AcDbEntity
  8
4
  6
CENTER
100
AcDbLine
 10
368.5006619999999
 20
122.817628
 30
0.0
 11
368.5006619999999
 21
131.317628
 31
0.0
  0
LINE
  5
1864
330
167A
100
AcDbEntity
  8
1
  6
Continuous
100
AcDbLine
 10
403.150662
 20
162.067628
 30
0.0
 11
403.150662
 21
122.0676279999999
 31
0.0
  0
CIRCLE
  5
1865
330
167A
100
AcDbEntity
  8
1
  6
Continuous
100
AcDbCircle
 10
394.500662
 20
157.067628
 30
0.0
 40
2.75
  0
LINE
  5
1866
330
167A
100
AcDbEntity
  8
4
  6
CENTER
100
AcDbLine
 10
398.7506619999999
 20
157.067628
 30
0.0
 11
390.250662
 21
157.067628
 31
0.0
  0
CIRCLE
  5
1867
330
167A
100
AcDbEntity
  8
1
  6
Continuous
100
AcDbCircle
 10
394.500662
 20
127.0676279999999
 30
0.0
 40
2.75
  0
LINE
  5
1868
330
167A
100
AcDbEntity
  8
4
  6
CENTER
100
AcDbLine
 10
398.7506619999999
 20
127.0676279999999
 30
0.0
 11
390.250662
 21
127.0676279999999
 31
0.0
  0
LINE
  5
1869
330
167A
100
AcDbEntity
  8
1
  6
Continuous
100
AcDbLine
 10
420.1506619999998
 20
145.567628
 30
0.0
 11
420.1506619999998
 21
138.567628
 31
0.0
  0
LINE
  5
186A
330
167A
100
AcDbEntity
  8
1
  6
Continuous
100
AcDbLine
 10
419.650662
 20
146.067628
 30
0.0
 11
419.650662
 21
138.067628
 31
0.0
  0
LINE
  5
186B
330
167A
100
AcDbEntity
  8
1
  6
Continuous
100
AcDbLine
 10
403.150662
 20
138.067628
 30
0.0
 11
419.650662
 21
138.067628
 31
0.0
  0
LINE
  5
186C
330
167A
100
AcDbEntity
  8
1
  6
Continuous
100
AcDbLine
 10
420.1506619999998
 20
138.567628
 30
0.0
 11
419.650662
 21
138.067628
 31
0.0
  0
LINE
  5
186D
330
167A
100
AcDbEntity
  8
1
  6
Continuous
100
AcDbLine
 10
403.150662
 20
146.067628
 30
0.0
 11
419.650662
 21
146.067628
 31
0.0
  0
LINE
  5
186E
330
167A
100
AcDbEntity
  8
1
  6
Continuous
100
AcDbLine
 10
419.650662
 20
146.067628
 30
0.0
 11
420.1506619999998
 21
145.567628
 31
0.0
  0
LINE
  5
186F
330
167A
100
AcDbEntity
  8
4
  6
CENTER
100
AcDbLine
 10
394.500662
 20
152.817628
 30
0.0
 11
394.500662
 21
161.317628
 31
0.0
  0
LINE
  5
1870
330
167A
100
AcDbEntity
  8
4
  6
CENTER
100
AcDbLine
 10
372.7506619999999
 20
127.0676279999999
 30
0.0
 11
364.2506619999999
 21
127.0676279999999
 31
0.0
  0
CIRCLE
  5
1871
330
167A
100
AcDbEntity
  8
1
  6
Continuous
100
AcDbCircle
 10
368.5006619999999
 20
127.0676279999999
 30
0.0
 40
2.75
  0
LINE
  5
1872
330
167A
100
AcDbEntity
  8
4
  6
CENTER
100
AcDbLine
 10
368.5006619999999
 20
152.817628
 30
0.0
 11
368.5006619999999
 21
161.317628
 31
0.0
  0
CIRCLE
  5
1873
330
167A
100
AcDbEntity
  8
1
  6
Continuous
100
AcDbCircle
 10
368.5006619999999
 20
157.067628
 30
0.0
 40
2.75
  0
LINE
  5
1874
330
167A
100
AcDbEntity
  8
4
  6
CENTER
100
AcDbLine
 10
372.7506619999999
 20
157.067628
 30
0.0
 11
364.2506619999999
 21
157.067628
 31
0.0
  0
LINE
  5
1875
330
167A
100
AcDbEntity
  8
1
  6
Continuous
100
AcDbLine
 10
359.6506619999999
 20
135.067628
 30
0.0
 11
359.6506619999999
 21
122.0676279999999
 31
0.0
  0
LINE
  5
1876
330
167A
100
AcDbEntity
  8
1
  6
Continuous
100
AcDbLine
 10
343.850662
 20
136.067628
 30
0.0
 11
343.850662
 21
148.067628
 31
0.0
  0
LINE
  5
1877
330
167A
100
AcDbEntity
  8
1
  6
Continuous
100
AcDbLine
 10
361.950662
 20
149.167628
 30
0.0
 11
361.950662
 21
134.9676279999999
 31
0.0
  0
LINE
  5
1878
330
167A
100
AcDbEntity
  8
1
  6
Continuous
100
AcDbLine
 10
344.8506619999998
 20
135.067628
 30
0.0
 11
361.950662
 21
135.067628
 31
0.0
  0
LINE
  5
1879
330
167A
100
AcDbEntity
  8
1
  6
Continuous
100
AcDbLine
 10
359.6506619999999
 20
134.9676279999999
 30
0.0
 11
361.950662
 21
134.9676279999999
 31
0.0
  0
ARC
  5
187A
330
167A
100
AcDbEntity
  8
1
  6
Continuous
100
AcDbCircle
 10
344.8506619999998
 20
136.067628
 30
0.0
 40
1.0
100
AcDbArc
 50
180.0
 51
270.0
  0
LINE
  5
187B
330
167A
100
AcDbEntity
  8
1
  6
Continuous
100
AcDbLine
 10
344.8506619999998
 20
149.067628
 30
0.0
 11
361.950662
 21
149.067628
 31
0.0
  0
LINE
  5
187C
330
167A
100
AcDbEntity
  8
1
  6
Continuous
100
AcDbLine
 10
359.6506619999999
 20
162.067628
 30
0.0
 11
359.6506619999999
 21
149.067628
 31
0.0
  0
LINE
  5
187D
330
167A
100
AcDbEntity
  8
1
  6
Continuous
100
AcDbLine
 10
359.6506619999999
 20
149.167628
 30
0.0
 11
361.950662
 21
149.167628
 31
0.0
  0
ARC
  5
187E
330
167A
100
AcDbEntity
  8
1
  6
Continuous
100
AcDbCircle
 10
344.8506619999998
 20
148.067628
 30
0.0
 40
1.0
100
AcDbArc
 50
90.0
 51
180.0
  0
ENDSEC
  0
SECTION
  2
OBJECTS
  0
DICTIONARY
  5
1668
330
0
100
AcDbDictionary
281
     1
  3
ACAD_CIP_PREVIOUS_PRODUCT_INFO
350
18E4
  3
ACAD_COLOR
350
18C6
  3
ACAD_DETAILVIEWSTYLE
350
18DF
  3
ACAD_GROUP
350
1669
  3
ACAD_LAYOUT
350
1675
  3
ACAD_MATERIAL
350
1894
  3
ACAD_MLEADERSTYLE
350
18DB
  3
ACAD_MLINESTYLE
350
1672
  3
ACAD_PLOTSETTINGS
350
1674
  3
ACAD_PLOTSTYLENAME
350
1892
  3
ACAD_SCALELIST
350
18C9
  3
ACAD_SECTIONVIEWSTYLE
350
18DD
  3
ACAD_TABLESTYLE
350
18C7
  3
ACAD_VISUALSTYLE
350
18AD
  3
ACDB_RECOMPOSE_DATA
350
1902
  3
AcDbVariableDictionary
350
18F5
  3
DWGPROPS
350
1903
  0
DICTIONARY
  5
18E5
330
166C
100
AcDbDictionary
280
     1
281
     1
  3
ADSK_XREC_LAYER_RECONCILED
360
18E6
  0
DICTIONARY
  5
18E7
330
1682
100
AcDbDictionary
280
     1
281
     1
  3
ADSK_XREC_LAYER_RECONCILED
360
18E8
  0
DICTIONARY
  5
18E9
330
1683
100
AcDbDictionary
280
     1
281
     1
  3
ADSK_XREC_LAYER_RECONCILED
360
18EA
  0
DICTIONARY
  5
18EB
330
1684
100
AcDbDictionary
280
     1
281
     1
  3
ADSK_XREC_LAYER_RECONCILED
360
18EC
  0
DICTIONARY
  5
18ED
330
1685
100
AcDbDictionary
280
     1
281
     1
  3
ADSK_XREC_LAYER_RECONCILED
360
18EE
  0
DICTIONARY
  5
18EF
330
1686
100
AcDbDictionary
280
     1
281
     1
  3
ADSK_XREC_LAYER_RECONCILED
360
18F0
  0
DICTIONARY
  5
18F1
330
1687
100
AcDbDictionary
280
     1
281
     1
  3
ADSK_XREC_LAYER_RECONCILED
360
18F2
  0
DICTIONARY
  5
18F3
330
1688
100
AcDbDictionary
280
     1
281
     1
  3
ADSK_XREC_LAYER_RECONCILED
360
18F4
  0
DICTIONARY
  5
188D
330
167A
100
AcDbDictionary
281
     1
  3
ACAD_LAYOUTSELFREF
350
188E
  0
DICTIONARY
  5
188B
330
1676
100
AcDbDictionary
281
     1
  3
ACAD_LAYOUTSELFREF
350
188C
  0
XRECORD
  5
18E4
102
{ACAD_REACTORS
330
1668
102
}
330
1668
100
AcDbXrecord
280
     1
300
ACDLT
300
2014
300
ACDLT_F_S
  0
DICTIONARY
  5
18C6
102
{ACAD_REACTORS
330
1668
102
}
330
1668
100
AcDbDictionary
281
     1
  0
DICTIONARY
  5
18DF
102
{ACAD_REACTORS
330
1668
102
}
330
1668
100
AcDbDictionary
281
     1
  3
Imperial24
350
18E0
  0
DICTIONARY
  5
1669
102
{ACAD_REACTORS
330
1668
102
}
330
1668
100
AcDbDictionary
281
     1
  0
DICTIONARY
  5
1675
102
{ACAD_REACTORS
330
1668
102
}
330
1668
100
AcDbDictionary
281
     1
  3
Model
350
18E1
  3
レイアウト1
350
18E2
  0
DICTIONARY
  5
1894
102
{ACAD_REACTORS
330
1668
102
}
330
1668
100
AcDbDictionary
281
     1
  3
ByBlock
350
189D
  3
ByLayer
350
1895
  3
Global
350
18A5
  0
DICTIONARY
  5
18DB
102
{ACAD_REACTORS
330
1668
102
}
330
1668
100
AcDbDictionary
281
     1
  3
Standard
350
18DC
  0
DICTIONARY
  5
1672
102
{ACAD_REACTORS
330
1668
102
}
330
1668
100
AcDbDictionary
281
     1
  3
STANDARD
350
1673
  0
DICTIONARY
  5
1674
102
{ACAD_REACTORS
330
1668
102
}
330
1668
100
AcDbDictionary
281
     1
  0
ACDBDICTIONARYWDFLT
  5
1892
102
{ACAD_REACTORS
330
1668
102
}
330
1668
100
AcDbDictionary
281
     1
  3
Normal
350
1893
100
AcDbDictionaryWithDefault
340
1893
  0
DICTIONARY
  5
18C9
102
{ACAD_REACTORS
330
1668
102
}
330
1668
100
AcDbDictionary
281
     1
  3
A0
350
18CA
  3
A1
350
18CB
  3
A2
350
18CC
  3
A3
350
18CD
  3
A4
350
18CE
  3
A5
350
18CF
  3
A6
350
18D0
  3
A7
350
18D1
  3
A8
350
18D2
  3
A9
350
18D3
  3
B0
350
18D4
  3
B1
350
18D5
  3
B2
350
18D6
  3
B3
350
18D7
  3
B4
350
18D8
  3
B5
350
18D9
  3
B6
350
18DA
  0
DICTIONARY
  5
18DD
102
{ACAD_REACTORS
330
1668
102
}
330
1668
100
AcDbDictionary
281
     1
  3
Imperial24
350
18DE
  0
DICTIONARY
  5
18C7
102
{ACAD_REACTORS
330
1668
102
}
330
1668
100
AcDbDictionary
281
     1
  3
Standard
350
18C8
  0
DICTIONARY
  5
18AD
102
{ACAD_REACTORS
330
1668
102
}
330
1668
100
AcDbDictionary
281
     1
  3
2dWireframe
350
18B3
  3
Basic
350
18B2
  3
Brighten
350
18B9
  3
ColorChange
350
18BD
  3
Conceptual
350
18B6
  3
Dim
350
18B8
  3
EdgeColorOff
350
18C5
  3
Facepattern
350
18BC
  3
Flat
350
18AE
  3
FlatWithEdges
350
18AF
  3
Gouraud
350
18B0
  3
GouraudWithEdges
350
18B1
  3
Hidden
350
18B5
  3
JitterOff
350
18C3
  3
Linepattern
350
18BB
  3
OverhangOff
350
18C4
  3
Realistic
350
18B7
  3
Shaded
350
18C2
  3
Shaded with edges
350
18C1
  3
Shades of Gray
350
18BE
  3
Sketchy
350
18BF
  3
Thicken
350
18BA
  3
Wireframe
350
18B4
  3
X-Ray
350
18C0
  0
XRECORD
  5
1902
102
{ACAD_REACTORS
330
1668
102
}
330
1668
100
AcDbXrecord
280
     1
 90
        1
330
18C8
  0
DICTIONARY
  5
18F5
102
{ACAD_REACTORS
330
1668
102
}
330
1668
100
AcDbDictionary
281
     1
  3
CANNOSCALE
350
18FA
  3
CMLEADERSTYLE
350
18F7
  3
CTABLESTYLE
350
18F6
  3
CVIEWDETAILSTYLE
350
18F8
  3
CVIEWSECTIONSTYLE
350
18F9
  3
DIMASSOC
350
18FD
  3
INDEXCTL
350
18FC
  3
SORTENTS
350
18FB
  3
XCLIPFRAME
350
18FE
  0
XRECORD
  5
1903
102
{ACAD_REACTORS
330
1668
102
}
330
1668
100
AcDbXrecord
280
     1
  1
DWGPROPS COOKIE
  2

  3

  4

  6

  7

  8
Yoshitsune
  9

300
=
301
=
302
=
303
=
304
=
305
=
306
=
307
=
308
=
309
=
 40
0.0464607407407408
 41
2451648.670614005
 42
2457192.64068191
  1

 90
        0
  0
XRECORD
  5
18E6
102
{ACAD_REACTORS
330
18E5
102
}
330
18E5
100
AcDbXrecord
280
     1
290
     1
  0
XRECORD
  5
18E8
102
{ACAD_REACTORS
330
18E7
102
}
330
18E7
100
AcDbXrecord
280
     1
290
     1
  0
XRECORD
  5
18EA
102
{ACAD_REACTORS
330
18E9
102
}
330
18E9
100
AcDbXrecord
280
     1
290
     1
  0
XRECORD
  5
18EC
102
{ACAD_REACTORS
330
18EB
102
}
330
18EB
100
AcDbXrecord
280
     1
290
     1
  0
XRECORD
  5
18EE
102
{ACAD_REACTORS
330
18ED
102
}
330
18ED
100
AcDbXrecord
280
     1
290
     1
  0
XRECORD
  5
18F0
102
{ACAD_REACTORS
330
18EF
102
}
330
18EF
100
AcDbXrecord
280
     1
290
     1
  0
XRECORD
  5
18F2
102
{ACAD_REACTORS
330
18F1
102
}
330
18F1
100
AcDbXrecord
280
     1
290
     1
  0
XRECORD
  5
18F4
102
{ACAD_REACTORS
330
18F3
102
}
330
18F3
100
AcDbXrecord
280
     1
290
     1
  0
XRECORD
  5
188E
102
{ACAD_REACTORS
330
188D
102
}
330
188D
100
AcDbXrecord
280
     1
340
167A
  0
XRECORD
  5
188C
102
{ACAD_REACTORS
330
188B
102
}
330
188B
100
AcDbXrecord
280
     1
340
1676
  0
ACDBDETAILVIEWSTYLE
  5
18E0
102
{ACAD_XDICTIONARY
360
193B
102
}
102
{ACAD_REACTORS
330
18DF
102
}
330
18DF
100
AcDbModelDocViewStyle
 70
     0
  3
Imperial24
290
     0
100
AcDbDetailViewStyle
 70
     0
 71
     0
 90
        3
 71
     1
340
166D
 40
0.24
340
0
 40
0.24
300

 40
0.36
280
     3
 71
     2
340
1671
 90
       25
 71
     3
340
166D
 40
0.24
 90
        1
 40
0.75
 90
        1
300
%<\AcVar ViewType \f "%tc1">% %<\AcVar ViewDetailId>%\PSCALE %<\AcVar ViewScale \f "%sn">%
 71
     4
340
1671
 90
       25
340
1671
 90
       25
280
     0
  0
LAYOUT
  5
18E1
102
{ACAD_XDICTIONARY
360
193D
102
}
102
{ACAD_REACTORS
330
1675
102
}
330
1675
100
AcDbPlotSettings
  1

  2
Canon LBP9100C
  4

  6

 40
0.0
 41
0.0
 42
0.0
 43
0.0
 44
0.0
 45
0.0
 46
0.0
 47
0.0
 48
0.0
 49
0.0
140
0.0
141
0.0
142
1.0
143
1.0
 70
  1712
 72
     0
 73
     0
 74
     0
  7

 75
     0
147
1.0
148
0.0
149
0.0
100
AcDbLayout
  1
Model
 70
     1
 71
     0
 10
0.0
 20
0.0
 11
12.0
 21
9.0
 12
0.0
 22
0.0
 32
0.0
 14
0.0
 24
0.0
 34
0.0
 15
0.0
 25
0.0
 35
0.0
146
0.0
 13
0.0
 23
0.0
 33
0.0
 16
1.0
 26
0.0
 36
0.0
 17
0.0
 27
1.0
 37
0.0
 76
     0
330
167A
331
188A
  0
LAYOUT
  5
18E2
102
{ACAD_XDICTIONARY
360
193F
102
}
102
{ACAD_REACTORS
330
1675
102
}
330
1675
100
AcDbPlotSettings
  1

  2
Canon LBP9100C
  4

  6

 40
0.0
 41
0.0
 42
0.0
 43
0.0
 44
0.0
 45
0.0
 46
0.0
 47
0.0
 48
0.0
 49
0.0
140
0.0
141
0.0
142
1.0
143
1.0
 70
   688
 72
     0
 73
     0
 74
     5
  7

 75
    16
147
1.0
148
0.0
149
0.0
100
AcDbLayout
  1
レイアウト1
 70
     1
 71
     1
 10
0.0
 20
0.0
 11
420.0
 21
297.0
 12
0.0
 22
0.0
 32
0.0
 14
1.000000000000000E+20
 24
1.000000000000000E+20
 34
1.000000000000000E+20
 15
-1.000000000000000E+20
 25
-1.000000000000000E+20
 35
-1.000000000000000E+20
146
0.0
 13
0.0
 23
0.0
 33
0.0
 16
1.0
 26
0.0
 36
0.0
 17
0.0
 27
1.0
 37
0.0
 76
     0
330
1676
  0
MATERIAL
  5
189D
102
{ACAD_XDICTIONARY
360
189E
102
}
102
{ACAD_REACTORS
330
1894
102
}
330
1894
100
AcDbMaterial
  1
ByBlock
 72
     0
 43
0.0208333333333333
 43
0.0
 43
0.0
 43
0.0
 43
0.0
 43
0.0208333333333333
 43
0.0
 43
0.0
 43
0.0
 43
0.0
 43
1.0
 43
0.0
 43
0.0
 43
0.0
 43
0.0
 43
1.0
 77
     0
 47
0.0208333333333333
 47
0.0
 47
0.0
 47
0.0
 47
0.0
 47
0.0208333333333333
 47
0.0
 47
0.0
 47
0.0
 47
0.0
 47
1.0
 47
0.0
 47
0.0
 47
0.0
 47
0.0
 47
1.0
171
     0
 49
0.0208333333333333
 49
0.0
 49
0.0
 49
0.0
 49
0.0
 49
0.0208333333333333
 49
0.0
 49
0.0
 49
0.0
 49
0.0
 49
1.0
 49
0.0
 49
0.0
 49
0.0
 49
0.0
 49
1.0
175
     0
142
0.0208333333333333
142
0.0
142
0.0
142
0.0
142
0.0
142
0.0208333333333333
142
0.0
142
0.0
142
0.0
142
0.0
142
1.0
142
0.0
142
0.0
142
0.0
142
0.0
142
1.0
179
     0
144
0.0208333333333333
144
0.0
144
0.0
144
0.0
144
0.0
144
0.0208333333333333
144
0.0
144
0.0
144
0.0
144
0.0
144
1.0
144
0.0
144
0.0
144
0.0
144
0.0
144
1.0
147
0.0208333333333333
147
0.0
147
0.0
147
0.0
147
0.0
147
0.0208333333333333
147
0.0
147
0.0
147
0.0
147
0.0
147
1.0
147
0.0
147
0.0
147
0.0
147
0.0
147
1.0
  0
MATERIAL
  5
1895
102
{ACAD_XDICTIONARY
360
1896
102
}
102
{ACAD_REACTORS
330
1894
102
}
330
1894
100
AcDbMaterial
  1
ByLayer
 72
     0
 43
0.0208333333333333
 43
0.0
 43
0.0
 43
0.0
 43
0.0
 43
0.0208333333333333
 43
0.0
 43
0.0
 43
0.0
 43
0.0
 43
1.0
 43
0.0
 43
0.0
 43
0.0
 43
0.0
 43
1.0
 77
     0
 47
0.0208333333333333
 47
0.0
 47
0.0
 47
0.0
 47
0.0
 47
0.0208333333333333
 47
0.0
 47
0.0
 47
0.0
 47
0.0
 47
1.0
 47
0.0
 47
0.0
 47
0.0
 47
0.0
 47
1.0
171
     0
 49
0.0208333333333333
 49
0.0
 49
0.0
 49
0.0
 49
0.0
 49
0.0208333333333333
 49
0.0
 49
0.0
 49
0.0
 49
0.0
 49
1.0
 49
0.0
 49
0.0
 49
0.0
 49
0.0
 49
1.0
175
     0
142
0.0208333333333333
142
0.0
142
0.0
142
0.0
142
0.0
142
0.0208333333333333
142
0.0
142
0.0
142
0.0
142
0.0
142
1.0
142
0.0
142
0.0
142
0.0
142
0.0
142
1.0
179
     0
144
0.0208333333333333
144
0.0
144
0.0
144
0.0
144
0.0
144
0.0208333333333333
144
0.0
144
0.0
144
0.0
144
0.0
144
1.0
144
0.0
144
0.0
144
0.0
144
0.0
144
1.0
147
0.0208333333333333
147
0.0
147
0.0
147
0.0
147
0.0
147
0.0208333333333333
147
0.0
147
0.0
147
0.0
147
0.0
147
1.0
147
0.0
147
0.0
147
0.0
147
0.0
147
1.0
  0
MATERIAL
  5
18A5
102
{ACAD_XDICTIONARY
360
18A6
102
}
102
{ACAD_REACTORS
330
1894
102
}
330
1894
100
AcDbMaterial
  1
Global
 72
     0
 43
0.0208333333333333
 43
0.0
 43
0.0
 43
0.0
 43
0.0
 43
0.0208333333333333
 43
0.0
 43
0.0
 43
0.0
 43
0.0
 43
1.0
 43
0.0
 43
0.0
 43
0.0
 43
0.0
 43
1.0
 77
     0
 47
0.0208333333333333
 47
0.0
 47
0.0
 47
0.0
 47
0.0
 47
0.0208333333333333
 47
0.0
 47
0.0
 47
0.0
 47
0.0
 47
1.0
 47
0.0
 47
0.0
 47
0.0
 47
0.0
 47
1.0
171
     0
 49
0.0208333333333333
 49
0.0
 49
0.0
 49
0.0
 49
0.0
 49
0.0208333333333333
 49
0.0
 49
0.0
 49
0.0
 49
0.0
 49
1.0
 49
0.0
 49
0.0
 49
0.0
 49
0.0
 49
1.0
175
     0
142
0.0208333333333333
142
0.0
142
0.0
142
0.0
142
0.0
142
0.0208333333333333
142
0.0
142
0.0
142
0.0
142
0.0
142
1.0
142
0.0
142
0.0
142
0.0
142
0.0
142
1.0
179
     0
144
0.0208333333333333
144
0.0
144
0.0
144
0.0
144
0.0
144
0.0208333333333333
144
0.0
144
0.0
144
0.0
144
0.0
144
1.0
144
0.0
144
0.0
144
0.0
144
0.0
144
1.0
147
0.0208333333333333
147
0.0
147
0.0
147
0.0
147
0.0
147
0.0208333333333333
147
0.0
147
0.0
147
0.0
147
0.0
147
1.0
147
0.0
147
0.0
147
0.0
147
0.0
147
1.0
  0
MLEADERSTYLE
  5
18DC
102
{ACAD_REACTORS
330
18DB
102
}
330
18DB
100
AcDbMLeaderStyle
170
     2
171
     1
172
     0
 90
        2
 40
0.0
 41
0.0
173
     1
 91
-1056964608
340
166F
 92
       -2
290
     1
 42
0.09
291
     1
 43
0.36
  3
Standard
 44
0.18
300

342
166D
174
     1
178
     6
175
     1
176
     0
 93
-1056964608
 45
0.18
292
     0
297
     0
 46
0.18
 94
-1056964608
 47
1.0
 49
1.0
140
1.0
293
     1
141
0.0
294
     1
177
     0
142
1.0
295
     0
296
     0
143
0.125
1001
ACAD_MLEADERVER
1070
     2
  0
MLINESTYLE
  5
1673
102
{ACAD_REACTORS
330
1672
102
}
330
1672
100
AcDbMlineStyle
  2
STANDARD
 70
     0
  3

 62
   256
 51
90.0
 52
90.0
 71
     2
 49
0.5
 62
   256
  6
BYLAYER
 49
-0.5
 62
   256
  6
BYLAYER
  0
ACDBPLACEHOLDER
  5
1893
102
{ACAD_REACTORS
330
1892
102
}
330
1892
  0
SCALE
  5
18CA
102
{ACAD_REACTORS
330
18C9
102
}
330
18C9
100
AcDbScale
 70
     0
300
1:1
140
1.0
141
1.0
290
     1
  0
SCALE
  5
18CB
102
{ACAD_REACTORS
330
18C9
102
}
330
18C9
100
AcDbScale
 70
     0
300
1/128" = 1'-0"
140
0.0078125
141
12.0
290
     0
  0
SCALE
  5
18CC
102
{ACAD_REACTORS
330
18C9
102
}
330
18C9
100
AcDbScale
 70
     0
300
1/64" = 1'-0"
140
0.015625
141
12.0
290
     0
  0
SCALE
  5
18CD
102
{ACAD_REACTORS
330
18C9
102
}
330
18C9
100
AcDbScale
 70
     0
300
1/32" = 1'-0"
140
0.03125
141
12.0
290
     0
  0
SCALE
  5
18CE
102
{ACAD_REACTORS
330
18C9
102
}
330
18C9
100
AcDbScale
 70
     0
300
1/16" = 1'-0"
140
0.0625
141
12.0
290
     0
  0
SCALE
  5
18CF
102
{ACAD_REACTORS
330
18C9
102
}
330
18C9
100
AcDbScale
 70
     0
300
3/32" = 1'-0"
140
0.09375
141
12.0
290
     0
  0
SCALE
  5
18D0
102
{ACAD_REACTORS
330
18C9
102
}
330
18C9
100
AcDbScale
 70
     0
300
1/8" = 1'-0"
140
0.125
141
12.0
290
     0
  0
SCALE
  5
18D1
102
{ACAD_REACTORS
330
18C9
102
}
330
18C9
100
AcDbScale
 70
     0
300
3/16" = 1'-0"
140
0.1875
141
12.0
290
     0
  0
SCALE
  5
18D2
102
{ACAD_REACTORS
330
18C9
102
}
330
18C9
100
AcDbScale
 70
     0
300
1/4" = 1'-0"
140
0.25
141
12.0
290
     0
  0
SCALE
  5
18D3
102
{ACAD_REACTORS
330
18C9
102
}
330
18C9
100
AcDbScale
 70
     0
300
3/8" = 1'-0"
140
0.375
141
12.0
290
     0
  0
SCALE
  5
18D4
102
{ACAD_REACTORS
330
18C9
102
}
330
18C9
100
AcDbScale
 70
     0
300
1/2" = 1'-0"
140
0.5
141
12.0
290
     0
  0
SCALE
  5
18D5
102
{ACAD_REACTORS
330
18C9
102
}
330
18C9
100
AcDbScale
 70
     0
300
3/4" = 1'-0"
140
0.75
141
12.0
290
     0
  0
SCALE
  5
18D6
102
{ACAD_REACTORS
330
18C9
102
}
330
18C9
100
AcDbScale
 70
     0
300
1" = 1'-0"
140
1.0
141
12.0
290
     0
  0
SCALE
  5
18D7
102
{ACAD_REACTORS
330
18C9
102
}
330
18C9
100
AcDbScale
 70
     0
300
1-1/2" = 1'-0"
140
1.5
141
12.0
290
     0
  0
SCALE
  5
18D8
102
{ACAD_REACTORS
330
18C9
102
}
330
18C9
100
AcDbScale
 70
     0
300
3" = 1'-0"
140
3.0
141
12.0
290
     0
  0
SCALE
  5
18D9
102
{ACAD_REACTORS
330
18C9
102
}
330
18C9
100
AcDbScale
 70
     0
300
6" = 1'-0"
140
6.0
141
12.0
290
     0
  0
SCALE
  5
18DA
102
{ACAD_REACTORS
330
18C9
102
}
330
18C9
100
AcDbScale
 70
     0
300
1'-0" = 1'-0"
140
12.0
141
12.0
290
     0
  0
ACDBSECTIONVIEWSTYLE
  5
18DE
102
{ACAD_XDICTIONARY
360
1939
102
}
102
{ACAD_REACTORS
330
18DD
102
}
330
18DD
100
AcDbModelDocViewStyle
 70
     0
  3
Imperial24
290
     0
100
AcDbSectionViewStyle
 70
     0
 71
     0
 90
       78
 71
     1
340
166D
 40
0.24
340
0
340
0
 40
0.24
300
I, O, Q, S, X, Z
 40
0.48
 90
        3
 40
0.18
 90
        1
 71
     2
340
1671
 90
       25
340
1671
 90
       50
 40
0.24
 40
0.0
 40
0.24
 71
     3
340
166D
 40
0.24
 90
        1
 40
0.75
 90
        1
300
%<\AcVar ViewType \f "%tc1">% %<\AcVar ViewSectionStartId>%-%<\AcVar ViewSectionEndId>%\PSCALE %<\AcVar ViewScale \f "%sn">%
 71
     4
300
ANSI31
 40
1.0
 90
        0
290
     0
290
     0
 90
        6
 40
0.0
 40
1.570796326794896
 40
0.2617993877991494
 40
1.308996938995747
 40
-0.2617993877991494
 40
1.832595714594046
  0
TABLESTYLE
  5
18C8
102
{ACAD_XDICTIONARY
360
1900
102
}
102
{ACAD_REACTORS
330
18C7
102
}
330
18C7
100
AcDbTableStyle
  3
Standard
 70
     0
 71
     0
 40
0.06
 41
0.06
280
     0
281
     0
  7
STANDARD
140
0.18
170
     2
 62
     0
 63
     7
283
     0
274
    -2
284
     1
 64
     0
275
    -2
285
     1
 65
     0
276
    -2
286
     1
 66
     0
277
    -2
287
     1
 67
     0
278
    -2
288
     1
 68
     0
279
    -2
289
     1
 69
     0
  7
STANDARD
140
0.25
170
     5
 62
     0
 63
     7
283
     0
274
    -2
284
     1
 64
     0
275
    -2
285
     1
 65
     0
276
    -2
286
     1
 66
     0
277
    -2
287
     1
 67
     0
278
    -2
288
     1
 68
     0
279
    -2
289
     1
 69
     0
  7
STANDARD
140
0.18
170
     5
 62
     0
 63
     7
283
     0
274
    -2
284
     1
 64
     0
275
    -2
285
     1
 65
     0
276
    -2
286
     1
 66
     0
277
    -2
287
     1
 67
     0
278
    -2
288
     1
 68
     0
279
    -2
289
     1
 69
     0
  0
VISUALSTYLE
  5
18B3
102
{ACAD_XDICTIONARY
360
1911
102
}
102
{ACAD_REACTORS
330
18AD
102
}
330
18AD
100
AcDbVisualStyle
  2
2dWireframe
 70
     4
 71
     0
 72
     2
 73
     0
 90
        0
 40
-0.6
 41
-30.0
 62
     5
 63
     7
 74
     1
 91
        4
 64
     7
 65
   257
 75
     1
175
     1
 42
1.0
 92
        0
 66
   257
 43
1.0
 76
     1
 77
     6
 78
     2
 67
     7
 79
     5
170
     0
171
     0
290
     0
174
     0
 93
        1
 44
0.0
173
     0
291
     0
 45
0.0
1001
ACAD
1000
AcDbSavedByObjectVersion
1070
     0
  0
VISUALSTYLE
  5
18B2
102
{ACAD_XDICTIONARY
360
190F
102
}
102
{ACAD_REACTORS
330
18AD
102
}
330
18AD
100
AcDbVisualStyle
  2
Basic
 70
     7
 71
     1
 72
     0
 73
     1
 90
        0
 40
-0.6
 41
-30.0
 62
     5
 63
     7
 74
     0
 91
        4
 64
     7
 65
   257
 75
     1
175
     1
 42
1.0
 92
        8
 66
     7
 43
1.0
 76
     1
 77
     6
 78
     2
 67
     7
 79
     5
170
     0
171
     0
290
     0
174
     0
 93
        1
 44
0.0
173
     0
291
     1
 45
0.0
1001
ACAD
1000
AcDbSavedByObjectVersion
1070
     0
  0
VISUALSTYLE
  5
18B9
102
{ACAD_XDICTIONARY
360
191D
102
}
102
{ACAD_REACTORS
330
18AD
102
}
330
18AD
100
AcDbVisualStyle
  2
Brighten
 70
    12
 71
     2
 72
     2
 73
     0
 90
        0
 40
-0.6
 41
-30.0
 62
     5
 63
     7
 74
     1
 91
        4
 64
     7
 65
   257
 75
     1
175
     1
 42
1.0
 92
        8
 66
     7
 43
1.0
 76
     1
 77
     6
 78
     2
 67
     7
 79
     5
170
     0
171
     0
290
     0
174
     0
 93
        1
 44
50.0
173
     0
291
     1
 45
0.0
1001
ACAD
1000
AcDbSavedByObjectVersion
1070
     0
  0
VISUALSTYLE
  5
18BD
102
{ACAD_XDICTIONARY
360
1925
102
}
102
{ACAD_REACTORS
330
18AD
102
}
330
18AD
100
AcDbVisualStyle
  2
ColorChange
 70
    16
 71
     2
 72
     2
 73
     3
 90
        0
 40
-0.6
 41
-30.0
 62
     5
 63
     8
 74
     1
 91
        4
 64
     7
 65
   257
 75
     1
175
     1
 42
1.0
 92
        8
 66
     8
 43
1.0
 76
     1
 77
     6
 78
     2
 67
     7
 79
     5
170
     0
171
     0
290
     0
174
     0
 93
        1
 44
0.0
173
     0
291
     1
 45
0.0
1001
ACAD
1000
AcDbSavedByObjectVersion
1070
     0
  0
VISUALSTYLE
  5
18B6
102
{ACAD_XDICTIONARY
360
1917
102
}
102
{ACAD_REACTORS
330
18AD
102
}
330
18AD
100
AcDbVisualStyle
  2
Conceptual
 70
     9
 71
     3
 72
     2
 73
     0
 90
        0
 40
-0.6
 41
-30.0
 62
     5
 63
     7
 74
     2
 91
        2
 64
     7
 65
   257
 75
     1
175
     1
 42
179.0
 92
        8
 66
     7
 43
1.0
 76
     1
 77
     6
 78
     2
 67
     7
 79
     3
170
     0
171
     0
290
     0
174
     0
 93
        1
 44
0.0
173
     0
291
     0
 45
0.0
1001
ACAD
1000
AcDbSavedByObjectVersion
1070
     0
  0
VISUALSTYLE
  5
18B8
102
{ACAD_XDICTIONARY
360
191B
102
}
102
{ACAD_REACTORS
330
18AD
102
}
330
18AD
100
AcDbVisualStyle
  2
Dim
 70
    11
 71
     2
 72
     2
 73
     0
 90
        0
 40
-0.6
 41
-30.0
 62
     5
 63
     7
 74
     1
 91
        4
 64
     7
 65
   257
 75
     1
175
     1
 42
1.0
 92
        8
 66
     7
 43
1.0
 76
     1
 77
     6
 78
     2
 67
     7
 79
     5
170
     0
171
     0
290
     0
174
     0
 93
        1
 44
-50.0
173
     0
291
     1
 45
0.0
1001
ACAD
1000
AcDbSavedByObjectVersion
1070
     0
  0
VISUALSTYLE
  5
18C5
102
{ACAD_XDICTIONARY
360
1935
102
}
102
{ACAD_REACTORS
330
18AD
102
}
330
18AD
100
AcDbVisualStyle
  2
EdgeColorOff
 70
    22
 71
     2
 72
     2
 73
     0
 90
        0
 40
-0.6
 41
-30.0
 62
     5
 63
     7
 74
     1
 91
        4
 64
     7
 65
   257
 75
     1
175
     1
 42
1.0
 92
        8
 66
     7
 43
1.0
 76
     1
 77
     6
 78
     2
 67
     7
 79
     5
170
     0
171
     0
290
     0
174
     0
 93
        1
 44
0.0
173
     0
291
     1
 45
0.0
1001
ACAD
1000
AcDbSavedByObjectVersion
1070
     0
  0
VISUALSTYLE
  5
18BC
102
{ACAD_XDICTIONARY
360
1923
102
}
102
{ACAD_REACTORS
330
18AD
102
}
330
18AD
100
AcDbVisualStyle
  2
Facepattern
 70
    15
 71
     2
 72
     2
 73
     0
 90
        0
 40
-0.6
 41
-30.0
 62
     5
 63
     7
 74
     1
 91
        4
 64
     7
 65
   257
 75
     1
175
     1
 42
1.0
 92
        8
 66
     7
 43
1.0
 76
     1
 77
     6
 78
     2
 67
     7
 79
     5
170
     0
171
     0
290
     0
174
     0
 93
        1
 44
0.0
173
     0
291
     1
 45
0.0
1001
ACAD
1000
AcDbSavedByObjectVersion
1070
     0
  0
VISUALSTYLE
  5
18AE
102
{ACAD_XDICTIONARY
360
1907
102
}
102
{ACAD_REACTORS
330
18AD
102
}
330
18AD
100
AcDbVisualStyle
  2
Flat
 70
     0
 71
     2
 72
     1
 73
     1
 90
        2
 40
-0.6
 41
30.0
 62
     5
 63
     7
 74
     0
 91
        0
 64
     7
 65
   257
 75
     1
175
     1
 42
1.0
 92
        8
 66
     7
 43
1.0
 76
     1
 77
     6
 78
     2
 67
     7
 79
     5
170
     0
171
     0
290
     0
174
     0
 93
       13
 44
0.0
173
     0
291
     1
 45
0.0
1001
ACAD
1000
AcDbSavedByObjectVersion
1070
     0
  0
VISUALSTYLE
  5
18AF
102
{ACAD_XDICTIONARY
360
1909
102
}
102
{ACAD_REACTORS
330
18AD
102
}
330
18AD
100
AcDbVisualStyle
  2
FlatWithEdges
 70
     1
 71
     2
 72
     1
 73
     1
 90
        2
 40
-0.6
 41
30.0
 62
     5
 63
     7
 74
     1
 91
        0
 64
     7
 65
   257
 75
     1
175
     1
 42
1.0
 92
        0
 66
   257
 43
1.0
 76
     1
 77
     6
 78
     2
 67
     7
 79
     5
170
     0
171
     0
290
     0
174
     0
 93
       13
 44
0.0
173
     0
291
     1
 45
0.0
1001
ACAD
1000
AcDbSavedByObjectVersion
1070
     0
  0
VISUALSTYLE
  5
18B0
102
{ACAD_XDICTIONARY
360
190B
102
}
102
{ACAD_REACTORS
330
18AD
102
}
330
18AD
100
AcDbVisualStyle
  2
Gouraud
 70
     2
 71
     2
 72
     2
 73
     1
 90
        2
 40
-0.6
 41
30.0
 62
     5
 63
     7
 74
     0
 91
        0
 64
     7
 65
   257
 75
     1
175
     1
 42
1.0
 92
        0
 66
     7
 43
1.0
 76
     1
 77
     6
 78
     2
 67
     7
 79
     5
170
     0
171
     0
290
     0
174
     0
 93
       13
 44
0.0
173
     0
291
     1
 45
0.0
1001
ACAD
1000
AcDbSavedByObjectVersion
1070
     0
  0
VISUALSTYLE
  5
18B1
102
{ACAD_XDICTIONARY
360
190D
102
}
102
{ACAD_REACTORS
330
18AD
102
}
330
18AD
100
AcDbVisualStyle
  2
GouraudWithEdges
 70
     3
 71
     2
 72
     2
 73
     1
 90
        2
 40
-0.6
 41
30.0
 62
     5
 63
     7
 74
     1
 91
        0
 64
     7
 65
   257
 75
     1
175
     1
 42
1.0
 92
        0
 66
   257
 43
1.0
 76
     1
 77
     6
 78
     2
 67
     7
 79
     5
170
     0
171
     0
290
     0
174
     0
 93
       13
 44
0.0
173
     0
291
     1
 45
0.0
1001
ACAD
1000
AcDbSavedByObjectVersion
1070
     0
  0
VISUALSTYLE
  5
18B5
102
{ACAD_XDICTIONARY
360
1915
102
}
102
{ACAD_REACTORS
330
18AD
102
}
330
18AD
100
AcDbVisualStyle
  2
Hidden
 70
     6
 71
     1
 72
     2
 73
     2
 90
        0
 40
-0.6
 41
-30.0
 62
     5
 63
     7
 74
     2
 91
        2
 64
     7
 65
   257
 75
     2
175
     1
 42
40.0
 92
        0
 66
   257
 43
1.0
 76
     1
 77
     6
 78
     2
 67
     7
 79
     3
170
     0
171
     0
290
     0
174
     0
 93
        1
 44
0.0
173
     0
291
     0
 45
0.0
1001
ACAD
1000
AcDbSavedByObjectVersion
1070
     0
  0
VISUALSTYLE
  5
18C3
102
{ACAD_XDICTIONARY
360
1931
102
}
102
{ACAD_REACTORS
330
18AD
102
}
330
18AD
100
AcDbVisualStyle
  2
JitterOff
 70
    20
 71
     2
 72
     2
 73
     0
 90
        0
 40
-0.6
 41
-30.0
 62
     5
 63
     7
 74
     1
 91
        4
 64
     7
 65
   257
 75
     1
175
     1
 42
1.0
 92
       10
 66
     7
 43
1.0
 76
     1
 77
     6
 78
     2
 67
     7
 79
     5
170
     0
171
     0
290
     0
174
     0
 93
        1
 44
0.0
173
     0
291
     1
 45
0.0
1001
ACAD
1000
AcDbSavedByObjectVersion
1070
     0
  0
VISUALSTYLE
  5
18BB
102
{ACAD_XDICTIONARY
360
1921
102
}
102
{ACAD_REACTORS
330
18AD
102
}
330
18AD
100
AcDbVisualStyle
  2
Linepattern
 70
    14
 71
     2
 72
     2
 73
     0
 90
        0
 40
-0.6
 41
-30.0
 62
     5
 63
     7
 74
     1
 91
        4
 64
     7
 65
   257
 75
     7
175
     7
 42
1.0
 92
        8
 66
     7
 43
1.0
 76
     1
 77
     6
 78
     2
 67
     7
 79
     5
170
     0
171
     0
290
     0
174
     0
 93
        1
 44
0.0
173
     0
291
     1
 45
0.0
1001
ACAD
1000
AcDbSavedByObjectVersion
1070
     0
  0
VISUALSTYLE
  5
18C4
102
{ACAD_XDICTIONARY
360
1933
102
}
102
{ACAD_REACTORS
330
18AD
102
}
330
18AD
100
AcDbVisualStyle
  2
OverhangOff
 70
    21
 71
     2
 72
     2
 73
     0
 90
        0
 40
-0.6
 41
-30.0
 62
     5
 63
     7
 74
     1
 91
        4
 64
     7
 65
   257
 75
     1
175
     1
 42
1.0
 92
        9
 66
     7
 43
1.0
 76
     1
 77
     6
 78
     2
 67
     7
 79
     5
170
     0
171
     0
290
     0
174
     0
 93
        1
 44
0.0
173
     0
291
     1
 45
0.0
1001
ACAD
1000
AcDbSavedByObjectVersion
1070
     0
  0
VISUALSTYLE
  5
18B7
102
{ACAD_XDICTIONARY
360
1919
102
}
102
{ACAD_REACTORS
330
18AD
102
}
330
18AD
100
AcDbVisualStyle
  2
Realistic
 70
     8
 71
     2
 72
     3
 73
     0
 90
        2
 40
-0.6
 41
30.0
 62
     5
 63
     7
 74
     0
 91
        0
 64
     7
 65
   257
 75
     1
175
     1
 42
1.0
 92
        8
 66
   257
 43
1.0
 76
     1
 77
     6
 78
     2
 67
     7
 79
     3
170
     0
171
     0
290
     0
174
     0
 93
       13
 44
0.0
173
     0
291
     0
 45
0.0
1001
ACAD
1000
AcDbSavedByObjectVersion
1070
     0
  0
VISUALSTYLE
  5
18C2
102
{ACAD_XDICTIONARY
360
192F
102
}
102
{ACAD_REACTORS
330
18AD
102
}
330
18AD
100
AcDbVisualStyle
  2
Shaded
 70
    27
 71
     2
 72
     2
 73
     1
 90
        2
 40
-0.6
 41
30.0
 62
     5
 63
     7
 74
     0
 91
        4
 64
     7
 65
   257
 75
     1
175
     1
 42
1.0
 92
        8
 66
   257
 43
1.0
 76
     1
 77
     6
 78
     2
 67
     8
 79
     3
170
     0
171
     0
290
     0
174
     0
 93
        5
 44
0.0
173
     0
291
     0
 45
0.0
1001
ACAD
1000
AcDbSavedByObjectVersion
1070
     0
  0
VISUALSTYLE
  5
18C1
102
{ACAD_XDICTIONARY
360
192D
102
}
102
{ACAD_REACTORS
330
18AD
102
}
330
18AD
100
AcDbVisualStyle
  2
Shaded with edges
 70
    26
 71
     2
 72
     2
 73
     1
 90
        2
 40
-0.6
 41
30.0
 62
     5
 63
     7
 74
     1
 91
       10
 64
     7
 65
   257
 75
     2
175
     1
 42
1.0
 92
        8
 66
   257
 43
1.0
 76
     1
 77
     6
 78
     2
 67
     7
 79
     3
170
     0
171
     0
290
     0
174
     0
 93
        5
 44
0.0
173
     0
291
     0
 45
0.0
1001
ACAD
1000
AcDbSavedByObjectVersion
1070
     0
  0
VISUALSTYLE
  5
18BE
102
{ACAD_XDICTIONARY
360
1927
102
}
102
{ACAD_REACTORS
330
18AD
102
}
330
18AD
100
AcDbVisualStyle
  2
Shades of Gray
 70
    23
 71
     2
 72
     2
 73
     3
 90
        0
 40
-0.6
 41
-30.0
 62
     5
 63
     7
 74
     2
 91
        2
 64
     7
 65
     7
 75
     1
175
     1
 42
40.0
 92
        8
 66
     7
 43
1.0
 76
     1
 77
     6
 78
     2
 67
     7
 79
     3
170
     0
171
     0
290
     0
174
     0
 93
        1
 44
0.0
173
     0
291
     0
 45
0.0
1001
ACAD
1000
AcDbSavedByObjectVersion
1070
     0
  0
VISUALSTYLE
  5
18BF
102
{ACAD_XDICTIONARY
360
1929
102
}
102
{ACAD_REACTORS
330
18AD
102
}
330
18AD
100
AcDbVisualStyle
  2
Sketchy
 70
    24
 71
     1
 72
     2
 73
     2
 90
        0
 40
-0.6
 41
-30.0
 62
     5
 63
     7
 74
     2
 91
        2
 64
     7
 65
     7
 75
     1
175
     1
 42
40.0
 92
       11
 66
     7
 43
1.0
 76
     1
 77
     6
 78
     2
 67
     7
 79
     6
170
     0
171
     0
290
     0
174
     0
 93
        1
 44
0.0
173
     0
291
     0
 45
0.0
1001
ACAD
1000
AcDbSavedByObjectVersion
1070
     0
  0
VISUALSTYLE
  5
18BA
102
{ACAD_XDICTIONARY
360
191F
102
}
102
{ACAD_REACTORS
330
18AD
102
}
330
18AD
100
AcDbVisualStyle
  2
Thicken
 70
    13
 71
     2
 72
     2
 73
     0
 90
        0
 40
-0.6
 41
-30.0
 62
     5
 63
     7
 74
     1
 91
        4
 64
     7
 65
   257
 75
     1
175
     1
 42
1.0
 92
       12
 66
     7
 43
1.0
 76
     1
 77
     6
 78
     2
 67
     7
 79
     5
170
     0
171
     0
290
     0
174
     0
 93
        1
 44
0.0
173
     0
291
     1
 45
0.0
1001
ACAD
1000
AcDbSavedByObjectVersion
1070
     0
  0
VISUALSTYLE
  5
18B4
102
{ACAD_XDICTIONARY
360
1913
102
}
102
{ACAD_REACTORS
330
18AD
102
}
330
18AD
100
AcDbVisualStyle
  2
Wireframe
 70
     5
 71
     0
 72
     2
 73
     0
 90
        0
 40
-0.6
 41
-30.0
 62
     5
 63
     7
 74
     1
 91
        4
 64
     7
 65
   257
 75
     1
175
     1
 42
1.0
 92
        0
 66
   257
 43
1.0
 76
     1
 77
     6
 78
     2
 67
     7
 79
     3
170
     0
171
     0
290
     0
174
     0
 93
        1
 44
0.0
173
     0
291
     0
 45
0.0
1001
ACAD
1000
AcDbSavedByObjectVersion
1070
     0
  0
VISUALSTYLE
  5
18C0
102
{ACAD_XDICTIONARY
360
192B
102
}
102
{ACAD_REACTORS
330
18AD
102
}
330
18AD
100
AcDbVisualStyle
  2
X-Ray
 70
    25
 71
     2
 72
     2
 73
     1
 90
        1
 40
0.5
 41
-30.0
 62
     5
 63
     7
 74
     1
 91
        0
 64
     7
 65
   257
 75
     1
175
     1
 42
1.0
 92
        8
 66
     7
 43
1.0
 76
     1
 77
     6
 78
     2
 67
     7
 79
     3
170
     0
171
     0
290
     0
174
     0
 93
       13
 44
0.0
173
     0
291
     0
 45
0.0
1001
ACAD
1000
AcDbSavedByObjectVersion
1070
     0
  0
DICTIONARYVAR
  5
18FA
102
{ACAD_REACTORS
330
18F5
102
}
330
18F5
100
DictionaryVariables
280
     0
  1
1:1
  0
DICTIONARYVAR
  5
18F7
102
{ACAD_REACTORS
330
18F5
102
}
330
18F5
100
DictionaryVariables
280
     0
  1
STANDARD
  0
DICTIONARYVAR
  5
18F6
102
{ACAD_REACTORS
330
18F5
102
}
330
18F5
100
DictionaryVariables
280
     0
  1
STANDARD
  0
DICTIONARYVAR
  5
18F8
102
{ACAD_REACTORS
330
18F5
102
}
330
18F5
100
DictionaryVariables
280
     0
  1
Imperial24
  0
DICTIONARYVAR
  5
18F9
102
{ACAD_REACTORS
330
18F5
102
}
330
18F5
100
DictionaryVariables
280
     0
  1
Imperial24
  0
DICTIONARYVAR
  5
18FD
102
{ACAD_REACTORS
330
18F5
102
}
330
18F5
100
DictionaryVariables
280
     0
  1
1
  0
DICTIONARYVAR
  5
18FC
102
{ACAD_REACTORS
330
18F5
102
}
330
18F5
100
DictionaryVariables
280
     0
  1
0
  0
DICTIONARYVAR
  5
18FB
102
{ACAD_REACTORS
330
18F5
102
}
330
18F5
100
DictionaryVariables
280
     0
  1
127
  0
DICTIONARYVAR
  5
18FE
102
{ACAD_REACTORS
330
18F5
102
}
330
18F5
100
DictionaryVariables
280
     0
  1
2
  0
DICTIONARY
  5
193B
330
18E0
100
AcDbDictionary
280
     1
281
     1
  3
ACAD_XREC_ROUNDTRIP
360
193C
  0
DICTIONARY
  5
193D
330
18E1
100
AcDbDictionary
280
     1
281
     1
  3
ACAD_XREC_ROUNDTRIP
360
193E
  0
DICTIONARY
  5
193F
330
18E2
100
AcDbDictionary
280
     1
281
     1
  3
ACAD_XREC_ROUNDTRIP
360
1940
  0
DICTIONARY
  5
189E
330
189D
100
AcDbDictionary
280
     1
281
     1
  3
ACAD_XREC_ROUNDTRIP
360
1905
  3
BUMPTILE
360
18A0
  3
DIFFUSETILE
360
189F
  3
OPACITYTILE
360
18A3
  3
REFLECTIONTILE
360
18A2
  3
REFRACTIONTILE
360
18A4
  3
SPECULARTILE
360
18A1
  0
DICTIONARY
  5
1896
330
1895
100
AcDbDictionary
280
     1
281
     1
  3
ACAD_XREC_ROUNDTRIP
360
1904
  3
BUMPTILE
360
1898
  3
DIFFUSETILE
360
1897
  3
OPACITYTILE
360
189B
  3
REFLECTIONTILE
360
189A
  3
REFRACTIONTILE
360
189C
  3
SPECULARTILE
360
1899
  0
DICTIONARY
  5
18A6
330
18A5
100
AcDbDictionary
280
     1
281
     1
  3
ACAD_XREC_ROUNDTRIP
360
1906
  3
BUMPTILE
360
18A8
  3
DIFFUSETILE
360
18A7
  3
OPACITYTILE
360
18AB
  3
REFLECTIONTILE
360
18AA
  3
REFRACTIONTILE
360
18AC
  3
SPECULARTILE
360
18A9
  0
DICTIONARY
  5
1939
330
18DE
100
AcDbDictionary
280
     1
281
     1
  3
ACAD_XREC_ROUNDTRIP
360
193A
  0
DICTIONARY
  5
1900
330
18C8
100
AcDbDictionary
280
     1
281
     1
  3
ACAD_ROUNDTRIP_2008_TABLESTYLE_CELLSTYLEMAP
360
1901
  3
ACAD_XREC_ROUNDTRIP
360
1937
  0
DICTIONARY
  5
1911
330
18B3
100
AcDbDictionary
280
     1
281
     1
  3
ACAD_XREC_ROUNDTRIP
360
1912
  0
DICTIONARY
  5
190F
330
18B2
100
AcDbDictionary
280
     1
281
     1
  3
ACAD_XREC_ROUNDTRIP
360
1910
  0
DICTIONARY
  5
191D
330
18B9
100
AcDbDictionary
280
     1
281
     1
  3
ACAD_XREC_ROUNDTRIP
360
191E
  0
DICTIONARY
  5
1925
330
18BD
100
AcDbDictionary
280
     1
281
     1
  3
ACAD_XREC_ROUNDTRIP
360
1926
  0
DICTIONARY
  5
1917
330
18B6
100
AcDbDictionary
280
     1
281
     1
  3
ACAD_XREC_ROUNDTRIP
360
1918
  0
DICTIONARY
  5
191B
330
18B8
100
AcDbDictionary
280
     1
281
     1
  3
ACAD_XREC_ROUNDTRIP
360
191C
  0
DICTIONARY
  5
1935
330
18C5
100
AcDbDictionary
280
     1
281
     1
  3
ACAD_XREC_ROUNDTRIP
360
1936
  0
DICTIONARY
  5
1923
330
18BC
100
AcDbDictionary
280
     1
281
     1
  3
ACAD_XREC_ROUNDTRIP
360
1924
  0
DICTIONARY
  5
1907
330
18AE
100
AcDbDictionary
280
     1
281
     1
  3
ACAD_XREC_ROUNDTRIP
360
1908
  0
DICTIONARY
  5
1909
330
18AF
100
AcDbDictionary
280
     1
281
     1
  3
ACAD_XREC_ROUNDTRIP
360
190A
  0
DICTIONARY
  5
190B
330
18B0
100
AcDbDictionary
280
     1
281
     1
  3
ACAD_XREC_ROUNDTRIP
360
190C
  0
DICTIONARY
  5
190D
330
18B1
100
AcDbDictionary
280
     1
281
     1
  3
ACAD_XREC_ROUNDTRIP
360
190E
  0
DICTIONARY
  5
1915
330
18B5
100
AcDbDictionary
280
     1
281
     1
  3
ACAD_XREC_ROUNDTRIP
360
1916
  0
DICTIONARY
  5
1931
330
18C3
100
AcDbDictionary
280
     1
281
     1
  3
ACAD_XREC_ROUNDTRIP
360
1932
  0
DICTIONARY
  5
1921
330
18BB
100
AcDbDictionary
280
     1
281
     1
  3
ACAD_XREC_ROUNDTRIP
360
1922
  0
DICTIONARY
  5
1933
330
18C4
100
AcDbDictionary
280
     1
281
     1
  3
ACAD_XREC_ROUNDTRIP
360
1934
  0
DICTIONARY
  5
1919
330
18B7
100
AcDbDictionary
280
     1
281
     1
  3
ACAD_XREC_ROUNDTRIP
360
191A
  0
DICTIONARY
  5
192F
330
18C2
100
AcDbDictionary
280
     1
281
     1
  3
ACAD_XREC_ROUNDTRIP
360
1930
  0
DICTIONARY
  5
192D
330
18C1
100
AcDbDictionary
280
     1
281
     1
  3
ACAD_XREC_ROUNDTRIP
360
192E
  0
DICTIONARY
  5
1927
330
18BE
100
AcDbDictionary
280
     1
281
     1
  3
ACAD_XREC_ROUNDTRIP
360
1928
  0
DICTIONARY
  5
1929
330
18BF
100
AcDbDictionary
280
     1
281
     1
  3
ACAD_XREC_ROUNDTRIP
360
192A
  0
DICTIONARY
  5
191F
330
18BA
100
AcDbDictionary
280
     1
281
     1
  3
ACAD_XREC_ROUNDTRIP
360
1920
  0
DICTIONARY
  5
1913
330
18B4
100
AcDbDictionary
280
     1
281
     1
  3
ACAD_XREC_ROUNDTRIP
360
1914
  0
DICTIONARY
  5
192B
330
18C0
100
AcDbDictionary
280
     1
281
     1
  3
ACAD_XREC_ROUNDTRIP
360
192C
  0
XRECORD
  5
193C
102
{ACAD_REACTORS
330
193B
102
}
330
193B
100
AcDbXrecord
280
     1
102
DISPLAYNAME
  1
Imperial24
102
FLAGS
 90
        0
  0
XRECORD
  5
193E
102
{ACAD_REACTORS
330
193D
102
}
330
193D
100
AcDbXrecord
280
     1
102
SHADEPLOT
 70
     0
102
SHADEPLOTRESLEVEL
 70
     2
102
SHADEPLOTCUSTOMDPI
 70
   300
  0
XRECORD
  5
1940
102
{ACAD_REACTORS
330
193F
102
}
330
193F
100
AcDbXrecord
280
     1
102
SHADEPLOT
 70
     0
102
SHADEPLOTRESLEVEL
 70
     2
102
SHADEPLOTCUSTOMDPI
 70
   300
  0
XRECORD
  5
1905
102
{ACAD_REACTORS
330
189E
102
}
330
189E
100
AcDbXrecord
280
     1
102
MATERIAL
148
0.0
149
0.0
149
0.0
 93
        0
 94
      127
282
     0
 72
     0
 77
     0
171
     0
175
     0
179
     0
273
     0
  0
XRECORD
  5
18A0
102
{ACAD_REACTORS
330
189E
102
}
330
189E
100
AcDbXrecord
280
     1
270
     1
271
     1
  0
XRECORD
  5
189F
102
{ACAD_REACTORS
330
189E
102
}
330
189E
100
AcDbXrecord
280
     1
270
     1
271
     1
  0
XRECORD
  5
18A3
102
{ACAD_REACTORS
330
189E
102
}
330
189E
100
AcDbXrecord
280
     1
270
     1
271
     1
  0
XRECORD
  5
18A2
102
{ACAD_REACTORS
330
189E
102
}
330
189E
100
AcDbXrecord
280
     1
270
     1
271
     1
  0
XRECORD
  5
18A4
102
{ACAD_REACTORS
330
189E
102
}
330
189E
100
AcDbXrecord
280
     1
270
     1
271
     1
  0
XRECORD
  5
18A1
102
{ACAD_REACTORS
330
189E
102
}
330
189E
100
AcDbXrecord
280
     1
270
     1
271
     1
  0
XRECORD
  5
1904
102
{ACAD_REACTORS
330
1896
102
}
330
1896
100
AcDbXrecord
280
     1
102
MATERIAL
148
0.0
149
0.0
149
0.0
 93
        0
 94
      127
282
     0
 72
     0
 77
     0
171
     0
175
     0
179
     0
273
     0
  0
XRECORD
  5
1898
102
{ACAD_REACTORS
330
1896
102
}
330
1896
100
AcDbXrecord
280
     1
270
     1
271
     1
  0
XRECORD
  5
1897
102
{ACAD_REACTORS
330
1896
102
}
330
1896
100
AcDbXrecord
280
     1
270
     1
271
     1
  0
XRECORD
  5
189B
102
{ACAD_REACTORS
330
1896
102
}
330
1896
100
AcDbXrecord
280
     1
270
     1
271
     1
  0
XRECORD
  5
189A
102
{ACAD_REACTORS
330
1896
102
}
330
1896
100
AcDbXrecord
280
     1
270
     1
271
     1
  0
XRECORD
  5
189C
102
{ACAD_REACTORS
330
1896
102
}
330
1896
100
AcDbXrecord
280
     1
270
     1
271
     1
  0
XRECORD
  5
1899
102
{ACAD_REACTORS
330
1896
102
}
330
1896
100
AcDbXrecord
280
     1
270
     1
271
     1
  0
XRECORD
  5
1906
102
{ACAD_REACTORS
330
18A6
102
}
330
18A6
100
AcDbXrecord
280
     1
102
MATERIAL
148
0.0
149
0.0
149
0.0
 93
        0
 94
      127
282
     0
 72
     0
 77
     0
171
     0
175
     0
179
     0
273
     0
  0
XRECORD
  5
18A8
102
{ACAD_REACTORS
330
18A6
102
}
330
18A6
100
AcDbXrecord
280
     1
270
     1
271
     1
  0
XRECORD
  5
18A7
102
{ACAD_REACTORS
330
18A6
102
}
330
18A6
100
AcDbXrecord
280
     1
270
     1
271
     1
  0
XRECORD
  5
18AB
102
{ACAD_REACTORS
330
18A6
102
}
330
18A6
100
AcDbXrecord
280
     1
270
     1
271
     1
  0
XRECORD
  5
18AA
102
{ACAD_REACTORS
330
18A6
102
}
330
18A6
100
AcDbXrecord
280
     1
270
     1
271
     1
  0
XRECORD
  5
18AC
102
{ACAD_REACTORS
330
18A6
102
}
330
18A6
100
AcDbXrecord
280
     1
270
     1
271
     1
  0
XRECORD
  5
18A9
102
{ACAD_REACTORS
330
18A6
102
}
330
18A6
100
AcDbXrecord
280
     1
270
     1
271
     1
  0
XRECORD
  5
193A
102
{ACAD_REACTORS
330
1939
102
}
330
1939
100
AcDbXrecord
280
     1
102
DISPLAYNAME
  1
Imperial24
102
FLAGS
 90
        0
  0
CELLSTYLEMAP
  5
1901
102
{ACAD_REACTORS
330
1900
102
}
330
1900
100
AcDbCellStyleMap
 90
        3
300
CELLSTYLE
  1
TABLEFORMAT_BEGIN
 90
        5
170
     1
 91
        0
 92
    32768
 62
   257
 93
        1
300
CONTENTFORMAT
  1
CONTENTFORMAT_BEGIN
 90
        0
 91
        0
 92
      512
 93
        0
300

 40
0.0
140
1.0
 94
        5
 62
     0
340
166D
144
0.25
309
CONTENTFORMAT_END
171
     0
 94
        0
309
TABLEFORMAT_END
  1
CELLSTYLE_BEGIN
 90
        1
 91
        1
300
_TITLE
309
CELLSTYLE_END
300
CELLSTYLE
  1
TABLEFORMAT_BEGIN
 90
        5
170
     1
 91
        0
 92
        0
 62
   257
 93
        1
300
CONTENTFORMAT
  1
CONTENTFORMAT_BEGIN
 90
        0
 91
        0
 92
      512
 93
        0
300

 40
0.0
140
1.0
 94
        5
 62
     0
340
166D
144
0.18
309
CONTENTFORMAT_END
171
     0
 94
        0
309
TABLEFORMAT_END
  1
CELLSTYLE_BEGIN
 90
        2
 91
        1
300
_HEADER
309
CELLSTYLE_END
300
CELLSTYLE
  1
TABLEFORMAT_BEGIN
 90
        5
170
     1
 91
        0
 92
        0
 62
   257
 93
        1
300
CONTENTFORMAT
  1
CONTENTFORMAT_BEGIN
 90
        0
 91
        0
 92
      512
 93
        0
300

 40
0.0
140
1.0
 94
        2
 62
     0
340
166D
144
0.18
309
CONTENTFORMAT_END
171
     0
 94
        0
309
TABLEFORMAT_END
  1
CELLSTYLE_BEGIN
 90
        3
 91
        2
300
_DATA
309
CELLSTYLE_END
  0
XRECORD
  5
1937
102
{ACAD_REACTORS
330
1900
102
}
330
1900
100
AcDbXrecord
280
     1
102
ACAD_ROUNDTRIP_PRE2007_TABLESTYLE
 90
      512
 91
        0
  1

 92
      512
 93
        0
  2

 94
      512
 95
        0
  3

  0
XRECORD
  5
1912
102
{ACAD_REACTORS
330
1911
102
}
330
1911
100
AcDbXrecord
280
     1
102
RTVSPost2010Prop28
280
     1
102
RTVSPost2010PropOp28
 70
     1
102
RTVSPost2010Prop29
280
     1
102
RTVSPost2010PropOp29
 70
     1
102
RTVSPost2010Prop30
280
     0
102
RTVSPost2010PropOp30
 70
     1
102
RTVSPost2010Prop31
280
     0
102
RTVSPost2010PropOp31
 70
     1
102
RTVSPost2010Prop32
280
     0
102
RTVSPost2010PropOp32
 70
     1
102
RTVSPost2010Prop33
280
     0
102
RTVSPost2010PropOp33
 70
     1
102
RTVSPost2010Prop34
280
     0
102
RTVSPost2010PropOp34
 70
     1
102
RTVSPost2010Prop35
280
     0
102
RTVSPost2010PropOp35
 70
     1
102
RTVSPost2010Prop36
280
     0
102
RTVSPost2010PropOp36
 70
     1
102
RTVSPost2010Prop37
 90
       50
102
RTVSPost2010PropOp37
 70
     1
102
RTVSPost2010Prop38
140
0.0
102
RTVSPost2010PropOp38
 70
     1
102
RTVSPost2010Prop39
140
1.0
102
RTVSPost2010PropOp39
 70
     1
102
RTVSPost2010Prop40
 90
        0
102
RTVSPost2010PropOp40
 70
     1
102
RTVSPost2010Prop41ColorIndex
 90
       18
102
RTVSPost2010Prop41ColorRGB
 90
        0
102
RTVSPost2010PropOp41
 70
     1
102
RTVSPost2010Prop42
 90
       50
102
RTVSPost2010PropOp42
 70
     1
102
RTVSPost2010Prop43
 90
        3
102
RTVSPost2010PropOp43
 70
     1
102
RTVSPost2010Prop44ColorIndex
 90
        5
102
RTVSPost2010Prop44ColorRGB
 90
      255
102
RTVSPost2010PropOp44
 70
     1
102
RTVSPost2010Prop45
280
     0
102
RTVSPost2010PropOp45
 70
     1
102
RTVSPost2010Prop46
 90
       50
102
RTVSPost2010PropOp46
 70
     1
102
RTVSPost2010Prop47
 90
       50
102
RTVSPost2010PropOp47
 70
     1
102
RTVSPost2010Prop48
 90
       50
102
RTVSPost2010PropOp48
 70
     1
102
RTVSPost2010Prop49
280
     0
102
RTVSPost2010PropOp49
 70
     1
102
RTVSPost2010Prop50
 90
       50
102
RTVSPost2010PropOp50
 70
     1
102
RTVSPost2010Prop51ColorIndex
 90
      256
102
RTVSPost2010Prop51ColorRGB
 90
-16777216
102
RTVSPost2010PropOp51
 70
     0
102
RTVSPost2010Prop52
140
1.0
102
RTVSPost2010PropOp52
 70
     0
102
RTVSPost2010Prop53
 90
        2
102
RTVSPost2010PropOp53
 70
     1
102
RTVSPost2010Prop54
  1
strokes_ogs.tif
102
RTVSPost2010PropOp54
 70
     1
102
RTVSPost2010Prop55
280
     0
102
RTVSPost2010PropOp55
 70
     1
102
RTVSPost2010Prop56
140
1.0
102
RTVSPost2010PropOp56
 70
     1
102
RTVSPost2010Prop57
140
1.0
102
RTVSPost2010PropOp57
 70
     1
102
RTVSPropertyOp0
 70
     1
102
RTVSPropertyOp1
 70
     1
102
RTVSPropertyOp2
 70
     1
102
RTVSPropertyOp3
 70
     1
102
RTVSPropertyOp4
 70
     1
102
RTVSPropertyOp5
 70
     1
102
RTVSPropertyOp6
 70
     1
102
RTVSPropertyOp7
 70
     1
102
RTVSPropertyOp8
 70
     1
102
RTVSPropertyOp9
 70
     1
102
RTVSPropertyOp10
 70
     1
102
RTVSPropertyOp11
 70
     1
102
RTVSPropertyOp12
 70
     1
102
RTVSPropertyOp13
 70
     1
102
RTVSPropertyOp14
 70
     1
102
RTVSPropertyOp15
 70
     1
102
RTVSPropertyOp16
 70
     1
102
RTVSPropertyOp17
 70
     1
102
RTVSPropertyOp18
 70
     1
102
RTVSPropertyOp19
 70
     1
102
RTVSPropertyOp20
 70
     1
102
RTVSPropertyOp21
 70
     1
102
RTVSPropertyOp22
 70
     1
102
RTVSPropertyOp23
 70
     1
102
RTVSPropertyOp24
 70
     1
102
RTVSPropertyOp25
 70
     1
102
RTVSPropertyOp26
 70
     1
102
RTVSPropertyOp27
 70
     1
102
RTVSPropertyOp28
 70
     1
102
RTVSPropertyOp29
 70
     1
102
RTVSPropertyOp30
 70
     1
102
RTVSPropertyOp31
 70
     1
102
RTVSPropertyOp32
 70
     1
102
RTVSPropertyOp33
 70
     1
102
RTVSPropertyOp34
 70
     1
102
RTVSPropertyOp35
 70
     1
102
RTVSPropertyOp36
 70
     1
102
RTVSPropertyOp37
 70
     1
102
RTVSPropertyOp38
 70
     1
102
RTVSPropertyOp39
 70
     1
102
RTVSPropertyOp40
 70
     1
102
RTVSPropertyOp41
 70
     1
102
RTVSPropertyOp42
 70
     1
102
RTVSPropertyOp43
 70
     1
102
RTVSPropertyOp44
 70
     1
102
RTVSPropertyOp45
 70
     1
102
RTVSPropertyOp46
 70
     1
102
RTVSPropertyOp47
 70
     1
102
RTVSPropertyOp48
 70
     1
102
RTVSPropertyOp49
 70
     1
102
RTVSPropertyOp50
 70
     1
102
RTVSPropertyOp51
 70
     0
102
RTVSPropertyOp52
 70
     0
102
RTVSPropertyOp53
 70
     1
102
RTVSPropertyOp54
 70
     1
102
RTVSPropertyOp55
 70
     1
102
RTVSPropertyOp56
 70
     1
102
RTVSPropertyOp57
 70
     1
102
RTVSPropertyOp58
 70
     1
102
RTVSPropertyOp59
 70
     1
102
RTVSPropertyOp60
 70
     1
102
RTVSPropertyOp61
 70
     1
102
RTVSPropertyOp62
 70
     1
  0
XRECORD
  5
1910
102
{ACAD_REACTORS
330
190F
102
}
330
190F
100
AcDbXrecord
280
     1
102
RTVSPost2010Prop28
280
     0
102
RTVSPost2010PropOp28
 70
     1
102
RTVSPost2010Prop29
280
     1
102
RTVSPost2010PropOp29
 70
     1
102
RTVSPost2010Prop30
280
     1
102
RTVSPost2010PropOp30
 70
     1
102
RTVSPost2010Prop31
280
     0
102
RTVSPost2010PropOp31
 70
     1
102
RTVSPost2010Prop32
280
     0
102
RTVSPost2010PropOp32
 70
     1
102
RTVSPost2010Prop33
280
     0
102
RTVSPost2010PropOp33
 70
     1
102
RTVSPost2010Prop34
280
     0
102
RTVSPost2010PropOp34
 70
     1
102
RTVSPost2010Prop35
280
     0
102
RTVSPost2010PropOp35
 70
     1
102
RTVSPost2010Prop36
280
     0
102
RTVSPost2010PropOp36
 70
     1
102
RTVSPost2010Prop37
 90
       50
102
RTVSPost2010PropOp37
 70
     1
102
RTVSPost2010Prop38
140
0.0
102
RTVSPost2010PropOp38
 70
     1
102
RTVSPost2010Prop39
140
1.0
102
RTVSPost2010PropOp39
 70
     1
102
RTVSPost2010Prop40
 90
        0
102
RTVSPost2010PropOp40
 70
     1
102
RTVSPost2010Prop41ColorIndex
 90
       18
102
RTVSPost2010Prop41ColorRGB
 90
        0
102
RTVSPost2010PropOp41
 70
     1
102
RTVSPost2010Prop42
 90
       50
102
RTVSPost2010PropOp42
 70
     1
102
RTVSPost2010Prop43
 90
        3
102
RTVSPost2010PropOp43
 70
     1
102
RTVSPost2010Prop44ColorIndex
 90
        5
102
RTVSPost2010Prop44ColorRGB
 90
      255
102
RTVSPost2010PropOp44
 70
     1
102
RTVSPost2010Prop45
280
     0
102
RTVSPost2010PropOp45
 70
     1
102
RTVSPost2010Prop46
 90
       50
102
RTVSPost2010PropOp46
 70
     1
102
RTVSPost2010Prop47
 90
       50
102
RTVSPost2010PropOp47
 70
     1
102
RTVSPost2010Prop48
 90
       50
102
RTVSPost2010PropOp48
 70
     1
102
RTVSPost2010Prop49
280
     0
102
RTVSPost2010PropOp49
 70
     1
102
RTVSPost2010Prop50
 90
       50
102
RTVSPost2010PropOp50
 70
     1
102
RTVSPost2010Prop51ColorIndex
 90
      256
102
RTVSPost2010Prop51ColorRGB
 90
-16777216
102
RTVSPost2010PropOp51
 70
     0
102
RTVSPost2010Prop52
140
1.0
102
RTVSPost2010PropOp52
 70
     0
102
RTVSPost2010Prop53
 90
        2
102
RTVSPost2010PropOp53
 70
     1
102
RTVSPost2010Prop54
  1
strokes_ogs.tif
102
RTVSPost2010PropOp54
 70
     1
102
RTVSPost2010Prop55
280
     0
102
RTVSPost2010PropOp55
 70
     1
102
RTVSPost2010Prop56
140
1.0
102
RTVSPost2010PropOp56
 70
     1
102
RTVSPost2010Prop57
140
1.0
102
RTVSPost2010PropOp57
 70
     1
102
RTVSPropertyOp0
 70
     1
102
RTVSPropertyOp1
 70
     1
102
RTVSPropertyOp2
 70
     1
102
RTVSPropertyOp3
 70
     1
102
RTVSPropertyOp4
 70
     1
102
RTVSPropertyOp5
 70
     1
102
RTVSPropertyOp6
 70
     1
102
RTVSPropertyOp7
 70
     1
102
RTVSPropertyOp8
 70
     1
102
RTVSPropertyOp9
 70
     1
102
RTVSPropertyOp10
 70
     1
102
RTVSPropertyOp11
 70
     1
102
RTVSPropertyOp12
 70
     1
102
RTVSPropertyOp13
 70
     1
102
RTVSPropertyOp14
 70
     1
102
RTVSPropertyOp15
 70
     1
102
RTVSPropertyOp16
 70
     1
102
RTVSPropertyOp17
 70
     1
102
RTVSPropertyOp18
 70
     1
102
RTVSPropertyOp19
 70
     1
102
RTVSPropertyOp20
 70
     1
102
RTVSPropertyOp21
 70
     1
102
RTVSPropertyOp22
 70
     1
102
RTVSPropertyOp23
 70
     1
102
RTVSPropertyOp24
 70
     1
102
RTVSPropertyOp25
 70
     1
102
RTVSPropertyOp26
 70
     1
102
RTVSPropertyOp27
 70
     1
102
RTVSPropertyOp28
 70
     1
102
RTVSPropertyOp29
 70
     1
102
RTVSPropertyOp30
 70
     1
102
RTVSPropertyOp31
 70
     1
102
RTVSPropertyOp32
 70
     1
102
RTVSPropertyOp33
 70
     1
102
RTVSPropertyOp34
 70
     1
102
RTVSPropertyOp35
 70
     1
102
RTVSPropertyOp36
 70
     1
102
RTVSPropertyOp37
 70
     1
102
RTVSPropertyOp38
 70
     1
102
RTVSPropertyOp39
 70
     1
102
RTVSPropertyOp40
 70
     1
102
RTVSPropertyOp41
 70
     1
102
RTVSPropertyOp42
 70
     1
102
RTVSPropertyOp43
 70
     1
102
RTVSPropertyOp44
 70
     1
102
RTVSPropertyOp45
 70
     1
102
RTVSPropertyOp46
 70
     1
102
RTVSPropertyOp47
 70
     1
102
RTVSPropertyOp48
 70
     1
102
RTVSPropertyOp49
 70
     1
102
RTVSPropertyOp50
 70
     1
102
RTVSPropertyOp51
 70
     0
102
RTVSPropertyOp52
 70
     0
102
RTVSPropertyOp53
 70
     1
102
RTVSPropertyOp54
 70
     1
102
RTVSPropertyOp55
 70
     1
102
RTVSPropertyOp56
 70
     1
102
RTVSPropertyOp57
 70
     1
102
RTVSPropertyOp58
 70
     1
102
RTVSPropertyOp59
 70
     1
102
RTVSPropertyOp60
 70
     1
102
RTVSPropertyOp61
 70
     1
102
RTVSPropertyOp62
 70
     1
  0
XRECORD
  5
191E
102
{ACAD_REACTORS
330
191D
102
}
330
191D
100
AcDbXrecord
280
     1
102
RTVSPost2010Prop28
280
     0
102
RTVSPost2010PropOp28
 70
     1
102
RTVSPost2010Prop29
280
     1
102
RTVSPost2010PropOp29
 70
     1
102
RTVSPost2010Prop30
280
     1
102
RTVSPost2010PropOp30
 70
     1
102
RTVSPost2010Prop31
280
     0
102
RTVSPost2010PropOp31
 70
     1
102
RTVSPost2010Prop32
280
     0
102
RTVSPost2010PropOp32
 70
     1
102
RTVSPost2010Prop33
280
     0
102
RTVSPost2010PropOp33
 70
     1
102
RTVSPost2010Prop34
280
     0
102
RTVSPost2010PropOp34
 70
     1
102
RTVSPost2010Prop35
280
     0
102
RTVSPost2010PropOp35
 70
     1
102
RTVSPost2010Prop36
280
     0
102
RTVSPost2010PropOp36
 70
     1
102
RTVSPost2010Prop37
 90
       50
102
RTVSPost2010PropOp37
 70
     1
102
RTVSPost2010Prop38
140
0.0
102
RTVSPost2010PropOp38
 70
     1
102
RTVSPost2010Prop39
140
1.0
102
RTVSPost2010PropOp39
 70
     1
102
RTVSPost2010Prop40
 90
        0
102
RTVSPost2010PropOp40
 70
     1
102
RTVSPost2010Prop41ColorIndex
 90
       18
102
RTVSPost2010Prop41ColorRGB
 90
        0
102
RTVSPost2010PropOp41
 70
     1
102
RTVSPost2010Prop42
 90
       50
102
RTVSPost2010PropOp42
 70
     1
102
RTVSPost2010Prop43
 90
        3
102
RTVSPost2010PropOp43
 70
     1
102
RTVSPost2010Prop44ColorIndex
 90
        5
102
RTVSPost2010Prop44ColorRGB
 90
      255
102
RTVSPost2010PropOp44
 70
     1
102
RTVSPost2010Prop45
280
     0
102
RTVSPost2010PropOp45
 70
     1
102
RTVSPost2010Prop46
 90
       50
102
RTVSPost2010PropOp46
 70
     1
102
RTVSPost2010Prop47
 90
       50
102
RTVSPost2010PropOp47
 70
     1
102
RTVSPost2010Prop48
 90
       50
102
RTVSPost2010PropOp48
 70
     1
102
RTVSPost2010Prop49
280
     0
102
RTVSPost2010PropOp49
 70
     1
102
RTVSPost2010Prop50
 90
       50
102
RTVSPost2010PropOp50
 70
     1
102
RTVSPost2010Prop51ColorIndex
 90
      256
102
RTVSPost2010Prop51ColorRGB
 90
-16777216
102
RTVSPost2010PropOp51
 70
     0
102
RTVSPost2010Prop52
140
1.0
102
RTVSPost2010PropOp52
 70
     0
102
RTVSPost2010Prop53
 90
        2
102
RTVSPost2010PropOp53
 70
     1
102
RTVSPost2010Prop54
  1
strokes_ogs.tif
102
RTVSPost2010PropOp54
 70
     1
102
RTVSPost2010Prop55
280
     0
102
RTVSPost2010PropOp55
 70
     1
102
RTVSPost2010Prop56
140
1.0
102
RTVSPost2010PropOp56
 70
     1
102
RTVSPost2010Prop57
140
1.0
102
RTVSPost2010PropOp57
 70
     1
102
RTVSPropertyOp0
 70
     1
102
RTVSPropertyOp1
 70
     1
102
RTVSPropertyOp2
 70
     1
102
RTVSPropertyOp3
 70
     1
102
RTVSPropertyOp4
 70
     1
102
RTVSPropertyOp5
 70
     1
102
RTVSPropertyOp6
 70
     1
102
RTVSPropertyOp7
 70
     1
102
RTVSPropertyOp8
 70
     1
102
RTVSPropertyOp9
 70
     1
102
RTVSPropertyOp10
 70
     1
102
RTVSPropertyOp11
 70
     1
102
RTVSPropertyOp12
 70
     1
102
RTVSPropertyOp13
 70
     1
102
RTVSPropertyOp14
 70
     1
102
RTVSPropertyOp15
 70
     1
102
RTVSPropertyOp16
 70
     1
102
RTVSPropertyOp17
 70
     1
102
RTVSPropertyOp18
 70
     1
102
RTVSPropertyOp19
 70
     1
102
RTVSPropertyOp20
 70
     1
102
RTVSPropertyOp21
 70
     1
102
RTVSPropertyOp22
 70
     1
102
RTVSPropertyOp23
 70
     1
102
RTVSPropertyOp24
 70
     1
102
RTVSPropertyOp25
 70
     1
102
RTVSPropertyOp26
 70
     1
102
RTVSPropertyOp27
 70
     1
102
RTVSPropertyOp28
 70
     1
102
RTVSPropertyOp29
 70
     1
102
RTVSPropertyOp30
 70
     1
102
RTVSPropertyOp31
 70
     1
102
RTVSPropertyOp32
 70
     1
102
RTVSPropertyOp33
 70
     1
102
RTVSPropertyOp34
 70
     1
102
RTVSPropertyOp35
 70
     1
102
RTVSPropertyOp36
 70
     1
102
RTVSPropertyOp37
 70
     1
102
RTVSPropertyOp38
 70
     1
102
RTVSPropertyOp39
 70
     1
102
RTVSPropertyOp40
 70
     1
102
RTVSPropertyOp41
 70
     1
102
RTVSPropertyOp42
 70
     1
102
RTVSPropertyOp43
 70
     1
102
RTVSPropertyOp44
 70
     1
102
RTVSPropertyOp45
 70
     1
102
RTVSPropertyOp46
 70
     1
102
RTVSPropertyOp47
 70
     1
102
RTVSPropertyOp48
 70
     1
102
RTVSPropertyOp49
 70
     1
102
RTVSPropertyOp50
 70
     1
102
RTVSPropertyOp51
 70
     0
102
RTVSPropertyOp52
 70
     0
102
RTVSPropertyOp53
 70
     1
102
RTVSPropertyOp54
 70
     1
102
RTVSPropertyOp55
 70
     1
102
RTVSPropertyOp56
 70
     1
102
RTVSPropertyOp57
 70
     1
102
RTVSPropertyOp58
 70
     1
102
RTVSPropertyOp59
 70
     1
102
RTVSPropertyOp60
 70
     1
102
RTVSPropertyOp61
 70
     1
102
RTVSPropertyOp62
 70
     1
  0
XRECORD
  5
1926
102
{ACAD_REACTORS
330
1925
102
}
330
1925
100
AcDbXrecord
280
     1
102
RTVSPost2010Prop28
280
     0
102
RTVSPost2010PropOp28
 70
     1
102
RTVSPost2010Prop29
280
     1
102
RTVSPost2010PropOp29
 70
     1
102
RTVSPost2010Prop30
280
     1
102
RTVSPost2010PropOp30
 70
     1
102
RTVSPost2010Prop31
280
     0
102
RTVSPost2010PropOp31
 70
     1
102
RTVSPost2010Prop32
280
     0
102
RTVSPost2010PropOp32
 70
     1
102
RTVSPost2010Prop33
280
     0
102
RTVSPost2010PropOp33
 70
     1
102
RTVSPost2010Prop34
280
     0
102
RTVSPost2010PropOp34
 70
     1
102
RTVSPost2010Prop35
280
     0
102
RTVSPost2010PropOp35
 70
     1
102
RTVSPost2010Prop36
280
     0
102
RTVSPost2010PropOp36
 70
     1
102
RTVSPost2010Prop37
 90
       50
102
RTVSPost2010PropOp37
 70
     1
102
RTVSPost2010Prop38
140
0.0
102
RTVSPost2010PropOp38
 70
     1
102
RTVSPost2010Prop39
140
1.0
102
RTVSPost2010PropOp39
 70
     1
102
RTVSPost2010Prop40
 90
        0
102
RTVSPost2010PropOp40
 70
     1
102
RTVSPost2010Prop41ColorIndex
 90
       18
102
RTVSPost2010Prop41ColorRGB
 90
        0
102
RTVSPost2010PropOp41
 70
     1
102
RTVSPost2010Prop42
 90
       50
102
RTVSPost2010PropOp42
 70
     1
102
RTVSPost2010Prop43
 90
        3
102
RTVSPost2010PropOp43
 70
     1
102
RTVSPost2010Prop44ColorIndex
 90
        5
102
RTVSPost2010Prop44ColorRGB
 90
      255
102
RTVSPost2010PropOp44
 70
     1
102
RTVSPost2010Prop45
280
     0
102
RTVSPost2010PropOp45
 70
     1
102
RTVSPost2010Prop46
 90
       50
102
RTVSPost2010PropOp46
 70
     1
102
RTVSPost2010Prop47
 90
       50
102
RTVSPost2010PropOp47
 70
     1
102
RTVSPost2010Prop48
 90
       50
102
RTVSPost2010PropOp48
 70
     1
102
RTVSPost2010Prop49
280
     0
102
RTVSPost2010PropOp49
 70
     1
102
RTVSPost2010Prop50
 90
       50
102
RTVSPost2010PropOp50
 70
     1
102
RTVSPost2010Prop51ColorIndex
 90
      256
102
RTVSPost2010Prop51ColorRGB
 90
-16777216
102
RTVSPost2010PropOp51
 70
     0
102
RTVSPost2010Prop52
140
1.0
102
RTVSPost2010PropOp52
 70
     0
102
RTVSPost2010Prop53
 90
        2
102
RTVSPost2010PropOp53
 70
     1
102
RTVSPost2010Prop54
  1
strokes_ogs.tif
102
RTVSPost2010PropOp54
 70
     1
102
RTVSPost2010Prop55
280
     0
102
RTVSPost2010PropOp55
 70
     1
102
RTVSPost2010Prop56
140
1.0
102
RTVSPost2010PropOp56
 70
     1
102
RTVSPost2010Prop57
140
1.0
102
RTVSPost2010PropOp57
 70
     1
102
RTVSPropertyOp0
 70
     1
102
RTVSPropertyOp1
 70
     1
102
RTVSPropertyOp2
 70
     1
102
RTVSPropertyOp3
 70
     1
102
RTVSPropertyOp4
 70
     1
102
RTVSPropertyOp5
 70
     1
102
RTVSPropertyOp6
 70
     1
102
RTVSPropertyOp7
 70
     1
102
RTVSPropertyOp8
 70
     1
102
RTVSPropertyOp9
 70
     1
102
RTVSPropertyOp10
 70
     1
102
RTVSPropertyOp11
 70
     1
102
RTVSPropertyOp12
 70
     1
102
RTVSPropertyOp13
 70
     1
102
RTVSPropertyOp14
 70
     1
102
RTVSPropertyOp15
 70
     1
102
RTVSPropertyOp16
 70
     1
102
RTVSPropertyOp17
 70
     1
102
RTVSPropertyOp18
 70
     1
102
RTVSPropertyOp19
 70
     1
102
RTVSPropertyOp20
 70
     1
102
RTVSPropertyOp21
 70
     1
102
RTVSPropertyOp22
 70
     1
102
RTVSPropertyOp23
 70
     1
102
RTVSPropertyOp24
 70
     1
102
RTVSPropertyOp25
 70
     1
102
RTVSPropertyOp26
 70
     1
102
RTVSPropertyOp27
 70
     1
102
RTVSPropertyOp28
 70
     1
102
RTVSPropertyOp29
 70
     1
102
RTVSPropertyOp30
 70
     1
102
RTVSPropertyOp31
 70
     1
102
RTVSPropertyOp32
 70
     1
102
RTVSPropertyOp33
 70
     1
102
RTVSPropertyOp34
 70
     1
102
RTVSPropertyOp35
 70
     1
102
RTVSPropertyOp36
 70
     1
102
RTVSPropertyOp37
 70
     1
102
RTVSPropertyOp38
 70
     1
102
RTVSPropertyOp39
 70
     1
102
RTVSPropertyOp40
 70
     1
102
RTVSPropertyOp41
 70
     1
102
RTVSPropertyOp42
 70
     1
102
RTVSPropertyOp43
 70
     1
102
RTVSPropertyOp44
 70
     1
102
RTVSPropertyOp45
 70
     1
102
RTVSPropertyOp46
 70
     1
102
RTVSPropertyOp47
 70
     1
102
RTVSPropertyOp48
 70
     1
102
RTVSPropertyOp49
 70
     1
102
RTVSPropertyOp50
 70
     1
102
RTVSPropertyOp51
 70
     0
102
RTVSPropertyOp52
 70
     0
102
RTVSPropertyOp53
 70
     1
102
RTVSPropertyOp54
 70
     1
102
RTVSPropertyOp55
 70
     1
102
RTVSPropertyOp56
 70
     1
102
RTVSPropertyOp57
 70
     1
102
RTVSPropertyOp58
 70
     1
102
RTVSPropertyOp59
 70
     1
102
RTVSPropertyOp60
 70
     1
102
RTVSPropertyOp61
 70
     1
102
RTVSPropertyOp62
 70
     1
  0
XRECORD
  5
1918
102
{ACAD_REACTORS
330
1917
102
}
330
1917
100
AcDbXrecord
280
     1
102
RTVSPost2010Prop28
280
     0
102
RTVSPost2010PropOp28
 70
     1
102
RTVSPost2010Prop29
280
     1
102
RTVSPost2010PropOp29
 70
     1
102
RTVSPost2010Prop30
280
     1
102
RTVSPost2010PropOp30
 70
     1
102
RTVSPost2010Prop31
280
     0
102
RTVSPost2010PropOp31
 70
     1
102
RTVSPost2010Prop32
280
     0
102
RTVSPost2010PropOp32
 70
     1
102
RTVSPost2010Prop33
280
     0
102
RTVSPost2010PropOp33
 70
     1
102
RTVSPost2010Prop34
280
     0
102
RTVSPost2010PropOp34
 70
     1
102
RTVSPost2010Prop35
280
     0
102
RTVSPost2010PropOp35
 70
     1
102
RTVSPost2010Prop36
280
     0
102
RTVSPost2010PropOp36
 70
     1
102
RTVSPost2010Prop37
 90
       50
102
RTVSPost2010PropOp37
 70
     1
102
RTVSPost2010Prop38
140
0.0
102
RTVSPost2010PropOp38
 70
     1
102
RTVSPost2010Prop39
140
1.0
102
RTVSPost2010PropOp39
 70
     1
102
RTVSPost2010Prop40
 90
        0
102
RTVSPost2010PropOp40
 70
     1
102
RTVSPost2010Prop41ColorIndex
 90
       18
102
RTVSPost2010Prop41ColorRGB
 90
        0
102
RTVSPost2010PropOp41
 70
     1
102
RTVSPost2010Prop42
 90
       50
102
RTVSPost2010PropOp42
 70
     1
102
RTVSPost2010Prop43
 90
        3
102
RTVSPost2010PropOp43
 70
     1
102
RTVSPost2010Prop44ColorIndex
 90
        5
102
RTVSPost2010Prop44ColorRGB
 90
      255
102
RTVSPost2010PropOp44
 70
     1
102
RTVSPost2010Prop45
280
     0
102
RTVSPost2010PropOp45
 70
     1
102
RTVSPost2010Prop46
 90
       50
102
RTVSPost2010PropOp46
 70
     1
102
RTVSPost2010Prop47
 90
       50
102
RTVSPost2010PropOp47
 70
     1
102
RTVSPost2010Prop48
 90
       50
102
RTVSPost2010PropOp48
 70
     1
102
RTVSPost2010Prop49
280
     0
102
RTVSPost2010PropOp49
 70
     1
102
RTVSPost2010Prop50
 90
       50
102
RTVSPost2010PropOp50
 70
     1
102
RTVSPost2010Prop51ColorIndex
 90
      256
102
RTVSPost2010Prop51ColorRGB
 90
-16777216
102
RTVSPost2010PropOp51
 70
     0
102
RTVSPost2010Prop52
140
1.0
102
RTVSPost2010PropOp52
 70
     0
102
RTVSPost2010Prop53
 90
        2
102
RTVSPost2010PropOp53
 70
     1
102
RTVSPost2010Prop54
  1
strokes_ogs.tif
102
RTVSPost2010PropOp54
 70
     1
102
RTVSPost2010Prop55
280
     0
102
RTVSPost2010PropOp55
 70
     1
102
RTVSPost2010Prop56
140
1.0
102
RTVSPost2010PropOp56
 70
     1
102
RTVSPost2010Prop57
140
1.0
102
RTVSPost2010PropOp57
 70
     1
102
RTVSPropertyOp0
 70
     1
102
RTVSPropertyOp1
 70
     1
102
RTVSPropertyOp2
 70
     1
102
RTVSPropertyOp3
 70
     1
102
RTVSPropertyOp4
 70
     1
102
RTVSPropertyOp5
 70
     1
102
RTVSPropertyOp6
 70
     1
102
RTVSPropertyOp7
 70
     1
102
RTVSPropertyOp8
 70
     1
102
RTVSPropertyOp9
 70
     1
102
RTVSPropertyOp10
 70
     1
102
RTVSPropertyOp11
 70
     1
102
RTVSPropertyOp12
 70
     1
102
RTVSPropertyOp13
 70
     1
102
RTVSPropertyOp14
 70
     1
102
RTVSPropertyOp15
 70
     1
102
RTVSPropertyOp16
 70
     1
102
RTVSPropertyOp17
 70
     1
102
RTVSPropertyOp18
 70
     1
102
RTVSPropertyOp19
 70
     1
102
RTVSPropertyOp20
 70
     1
102
RTVSPropertyOp21
 70
     1
102
RTVSPropertyOp22
 70
     1
102
RTVSPropertyOp23
 70
     1
102
RTVSPropertyOp24
 70
     1
102
RTVSPropertyOp25
 70
     1
102
RTVSPropertyOp26
 70
     1
102
RTVSPropertyOp27
 70
     1
102
RTVSPropertyOp28
 70
     1
102
RTVSPropertyOp29
 70
     1
102
RTVSPropertyOp30
 70
     1
102
RTVSPropertyOp31
 70
     1
102
RTVSPropertyOp32
 70
     1
102
RTVSPropertyOp33
 70
     1
102
RTVSPropertyOp34
 70
     1
102
RTVSPropertyOp35
 70
     1
102
RTVSPropertyOp36
 70
     1
102
RTVSPropertyOp37
 70
     1
102
RTVSPropertyOp38
 70
     1
102
RTVSPropertyOp39
 70
     1
102
RTVSPropertyOp40
 70
     1
102
RTVSPropertyOp41
 70
     1
102
RTVSPropertyOp42
 70
     1
102
RTVSPropertyOp43
 70
     1
102
RTVSPropertyOp44
 70
     1
102
RTVSPropertyOp45
 70
     1
102
RTVSPropertyOp46
 70
     1
102
RTVSPropertyOp47
 70
     1
102
RTVSPropertyOp48
 70
     1
102
RTVSPropertyOp49
 70
     1
102
RTVSPropertyOp50
 70
     1
102
RTVSPropertyOp51
 70
     0
102
RTVSPropertyOp52
 70
     0
102
RTVSPropertyOp53
 70
     1
102
RTVSPropertyOp54
 70
     1
102
RTVSPropertyOp55
 70
     1
102
RTVSPropertyOp56
 70
     1
102
RTVSPropertyOp57
 70
     1
102
RTVSPropertyOp58
 70
     1
102
RTVSPropertyOp59
 70
     1
102
RTVSPropertyOp60
 70
     1
102
RTVSPropertyOp61
 70
     1
102
RTVSPropertyOp62
 70
     1
  0
XRECORD
  5
191C
102
{ACAD_REACTORS
330
191B
102
}
330
191B
100
AcDbXrecord
280
     1
102
RTVSPost2010Prop28
280
     0
102
RTVSPost2010PropOp28
 70
     1
102
RTVSPost2010Prop29
280
     1
102
RTVSPost2010PropOp29
 70
     1
102
RTVSPost2010Prop30
280
     1
102
RTVSPost2010PropOp30
 70
     1
102
RTVSPost2010Prop31
280
     0
102
RTVSPost2010PropOp31
 70
     1
102
RTVSPost2010Prop32
280
     0
102
RTVSPost2010PropOp32
 70
     1
102
RTVSPost2010Prop33
280
     0
102
RTVSPost2010PropOp33
 70
     1
102
RTVSPost2010Prop34
280
     0
102
RTVSPost2010PropOp34
 70
     1
102
RTVSPost2010Prop35
280
     0
102
RTVSPost2010PropOp35
 70
     1
102
RTVSPost2010Prop36
280
     0
102
RTVSPost2010PropOp36
 70
     1
102
RTVSPost2010Prop37
 90
       50
102
RTVSPost2010PropOp37
 70
     1
102
RTVSPost2010Prop38
140
0.0
102
RTVSPost2010PropOp38
 70
     1
102
RTVSPost2010Prop39
140
1.0
102
RTVSPost2010PropOp39
 70
     1
102
RTVSPost2010Prop40
 90
        0
102
RTVSPost2010PropOp40
 70
     1
102
RTVSPost2010Prop41ColorIndex
 90
       18
102
RTVSPost2010Prop41ColorRGB
 90
        0
102
RTVSPost2010PropOp41
 70
     1
102
RTVSPost2010Prop42
 90
       50
102
RTVSPost2010PropOp42
 70
     1
102
RTVSPost2010Prop43
 90
        3
102
RTVSPost2010PropOp43
 70
     1
102
RTVSPost2010Prop44ColorIndex
 90
        5
102
RTVSPost2010Prop44ColorRGB
 90
      255
102
RTVSPost2010PropOp44
 70
     1
102
RTVSPost2010Prop45
280
     0
102
RTVSPost2010PropOp45
 70
     1
102
RTVSPost2010Prop46
 90
       50
102
RTVSPost2010PropOp46
 70
     1
102
RTVSPost2010Prop47
 90
       50
102
RTVSPost2010PropOp47
 70
     1
102
RTVSPost2010Prop48
 90
       50
102
RTVSPost2010PropOp48
 70
     1
102
RTVSPost2010Prop49
280
     0
102
RTVSPost2010PropOp49
 70
     1
102
RTVSPost2010Prop50
 90
       50
102
RTVSPost2010PropOp50
 70
     1
102
RTVSPost2010Prop51ColorIndex
 90
      256
102
RTVSPost2010Prop51ColorRGB
 90
-16777216
102
RTVSPost2010PropOp51
 70
     0
102
RTVSPost2010Prop52
140
1.0
102
RTVSPost2010PropOp52
 70
     0
102
RTVSPost2010Prop53
 90
        2
102
RTVSPost2010PropOp53
 70
     1
102
RTVSPost2010Prop54
  1
strokes_ogs.tif
102
RTVSPost2010PropOp54
 70
     1
102
RTVSPost2010Prop55
280
     0
102
RTVSPost2010PropOp55
 70
     1
102
RTVSPost2010Prop56
140
1.0
102
RTVSPost2010PropOp56
 70
     1
102
RTVSPost2010Prop57
140
1.0
102
RTVSPost2010PropOp57
 70
     1
102
RTVSPropertyOp0
 70
     1
102
RTVSPropertyOp1
 70
     1
102
RTVSPropertyOp2
 70
     1
102
RTVSPropertyOp3
 70
     1
102
RTVSPropertyOp4
 70
     1
102
RTVSPropertyOp5
 70
     1
102
RTVSPropertyOp6
 70
     1
102
RTVSPropertyOp7
 70
     1
102
RTVSPropertyOp8
 70
     1
102
RTVSPropertyOp9
 70
     1
102
RTVSPropertyOp10
 70
     1
102
RTVSPropertyOp11
 70
     1
102
RTVSPropertyOp12
 70
     1
102
RTVSPropertyOp13
 70
     1
102
RTVSPropertyOp14
 70
     1
102
RTVSPropertyOp15
 70
     1
102
RTVSPropertyOp16
 70
     1
102
RTVSPropertyOp17
 70
     1
102
RTVSPropertyOp18
 70
     1
102
RTVSPropertyOp19
 70
     1
102
RTVSPropertyOp20
 70
     1
102
RTVSPropertyOp21
 70
     1
102
RTVSPropertyOp22
 70
     1
102
RTVSPropertyOp23
 70
     1
102
RTVSPropertyOp24
 70
     1
102
RTVSPropertyOp25
 70
     1
102
RTVSPropertyOp26
 70
     1
102
RTVSPropertyOp27
 70
     1
102
RTVSPropertyOp28
 70
     1
102
RTVSPropertyOp29
 70
     1
102
RTVSPropertyOp30
 70
     1
102
RTVSPropertyOp31
 70
     1
102
RTVSPropertyOp32
 70
     1
102
RTVSPropertyOp33
 70
     1
102
RTVSPropertyOp34
 70
     1
102
RTVSPropertyOp35
 70
     1
102
RTVSPropertyOp36
 70
     1
102
RTVSPropertyOp37
 70
     1
102
RTVSPropertyOp38
 70
     1
102
RTVSPropertyOp39
 70
     1
102
RTVSPropertyOp40
 70
     1
102
RTVSPropertyOp41
 70
     1
102
RTVSPropertyOp42
 70
     1
102
RTVSPropertyOp43
 70
     1
102
RTVSPropertyOp44
 70
     1
102
RTVSPropertyOp45
 70
     1
102
RTVSPropertyOp46
 70
     1
102
RTVSPropertyOp47
 70
     1
102
RTVSPropertyOp48
 70
     1
102
RTVSPropertyOp49
 70
     1
102
RTVSPropertyOp50
 70
     1
102
RTVSPropertyOp51
 70
     0
102
RTVSPropertyOp52
 70
     0
102
RTVSPropertyOp53
 70
     1
102
RTVSPropertyOp54
 70
     1
102
RTVSPropertyOp55
 70
     1
102
RTVSPropertyOp56
 70
     1
102
RTVSPropertyOp57
 70
     1
102
RTVSPropertyOp58
 70
     1
102
RTVSPropertyOp59
 70
     1
102
RTVSPropertyOp60
 70
     1
102
RTVSPropertyOp61
 70
     1
102
RTVSPropertyOp62
 70
     1
  0
XRECORD
  5
1936
102
{ACAD_REACTORS
330
1935
102
}
330
1935
100
AcDbXrecord
280
     1
102
RTVSPost2010Prop28
280
     0
102
RTVSPost2010PropOp28
 70
     1
102
RTVSPost2010Prop29
280
     1
102
RTVSPost2010PropOp29
 70
     1
102
RTVSPost2010Prop30
280
     1
102
RTVSPost2010PropOp30
 70
     1
102
RTVSPost2010Prop31
280
     0
102
RTVSPost2010PropOp31
 70
     1
102
RTVSPost2010Prop32
280
     0
102
RTVSPost2010PropOp32
 70
     1
102
RTVSPost2010Prop33
280
     0
102
RTVSPost2010PropOp33
 70
     1
102
RTVSPost2010Prop34
280
     0
102
RTVSPost2010PropOp34
 70
     1
102
RTVSPost2010Prop35
280
     0
102
RTVSPost2010PropOp35
 70
     1
102
RTVSPost2010Prop36
280
     0
102
RTVSPost2010PropOp36
 70
     1
102
RTVSPost2010Prop37
 90
       50
102
RTVSPost2010PropOp37
 70
     0
102
RTVSPost2010Prop38
140
0.0
102
RTVSPost2010PropOp38
 70
     0
102
RTVSPost2010Prop39
140
1.0
102
RTVSPost2010PropOp39
 70
     0
102
RTVSPost2010Prop40
 90
        0
102
RTVSPost2010PropOp40
 70
     0
102
RTVSPost2010Prop41ColorIndex
 90
       18
102
RTVSPost2010Prop41ColorRGB
 90
        0
102
RTVSPost2010PropOp41
 70
     0
102
RTVSPost2010Prop42
 90
       50
102
RTVSPost2010PropOp42
 70
     0
102
RTVSPost2010Prop43
 90
        3
102
RTVSPost2010PropOp43
 70
     0
102
RTVSPost2010Prop44ColorIndex
 90
        5
102
RTVSPost2010Prop44ColorRGB
 90
      255
102
RTVSPost2010PropOp44
 70
     0
102
RTVSPost2010Prop45
280
     0
102
RTVSPost2010PropOp45
 70
     1
102
RTVSPost2010Prop46
 90
       50
102
RTVSPost2010PropOp46
 70
     0
102
RTVSPost2010Prop47
 90
       50
102
RTVSPost2010PropOp47
 70
     0
102
RTVSPost2010Prop48
 90
       50
102
RTVSPost2010PropOp48
 70
     0
102
RTVSPost2010Prop49
280
     0
102
RTVSPost2010PropOp49
 70
     1
102
RTVSPost2010Prop50
 90
       50
102
RTVSPost2010PropOp50
 70
     0
102
RTVSPost2010Prop51ColorIndex
 90
      256
102
RTVSPost2010Prop51ColorRGB
 90
-16777216
102
RTVSPost2010PropOp51
 70
     0
102
RTVSPost2010Prop52
140
1.0
102
RTVSPost2010PropOp52
 70
     0
102
RTVSPost2010Prop53
 90
        2
102
RTVSPost2010PropOp53
 70
     0
102
RTVSPost2010Prop54
  1
strokes_ogs.tif
102
RTVSPost2010PropOp54
 70
     0
102
RTVSPost2010Prop55
280
     0
102
RTVSPost2010PropOp55
 70
     1
102
RTVSPost2010Prop56
140
1.0
102
RTVSPost2010PropOp56
 70
     0
102
RTVSPost2010Prop57
140
1.0
102
RTVSPost2010PropOp57
 70
     0
102
RTVSPropertyOp0
 70
     0
102
RTVSPropertyOp1
 70
     0
102
RTVSPropertyOp2
 70
     0
102
RTVSPropertyOp3
 70
     0
102
RTVSPropertyOp4
 70
     0
102
RTVSPropertyOp5
 70
     0
102
RTVSPropertyOp6
 70
     0
102
RTVSPropertyOp7
 70
     0
102
RTVSPropertyOp8
 70
     0
102
RTVSPropertyOp9
 70
     0
102
RTVSPropertyOp10
 70
     0
102
RTVSPropertyOp11
 70
     0
102
RTVSPropertyOp12
 70
     0
102
RTVSPropertyOp13
 70
     0
102
RTVSPropertyOp14
 70
     2
102
RTVSPropertyOp15
 70
     0
102
RTVSPropertyOp16
 70
     0
102
RTVSPropertyOp17
 70
     0
102
RTVSPropertyOp18
 70
     0
102
RTVSPropertyOp19
 70
     0
102
RTVSPropertyOp20
 70
     0
102
RTVSPropertyOp21
 70
     0
102
RTVSPropertyOp22
 70
     0
102
RTVSPropertyOp23
 70
     0
102
RTVSPropertyOp24
 70
     0
102
RTVSPropertyOp25
 70
     0
102
RTVSPropertyOp26
 70
     0
102
RTVSPropertyOp27
 70
     0
102
RTVSPropertyOp28
 70
     1
102
RTVSPropertyOp29
 70
     1
102
RTVSPropertyOp30
 70
     1
102
RTVSPropertyOp31
 70
     1
102
RTVSPropertyOp32
 70
     1
102
RTVSPropertyOp33
 70
     1
102
RTVSPropertyOp34
 70
     1
102
RTVSPropertyOp35
 70
     1
102
RTVSPropertyOp36
 70
     1
102
RTVSPropertyOp37
 70
     0
102
RTVSPropertyOp38
 70
     0
102
RTVSPropertyOp39
 70
     0
102
RTVSPropertyOp40
 70
     0
102
RTVSPropertyOp41
 70
     0
102
RTVSPropertyOp42
 70
     0
102
RTVSPropertyOp43
 70
     0
102
RTVSPropertyOp44
 70
     0
102
RTVSPropertyOp45
 70
     1
102
RTVSPropertyOp46
 70
     0
102
RTVSPropertyOp47
 70
     0
102
RTVSPropertyOp48
 70
     0
102
RTVSPropertyOp49
 70
     1
102
RTVSPropertyOp50
 70
     0
102
RTVSPropertyOp51
 70
     0
102
RTVSPropertyOp52
 70
     0
102
RTVSPropertyOp53
 70
     0
102
RTVSPropertyOp54
 70
     0
102
RTVSPropertyOp55
 70
     1
102
RTVSPropertyOp56
 70
     0
102
RTVSPropertyOp57
 70
     0
102
RTVSPropertyOp58
 70
     0
102
RTVSPropertyOp59
 70
     0
102
RTVSPropertyOp60
 70
     0
102
RTVSPropertyOp61
 70
     0
102
RTVSPropertyOp62
 70
     0
  0
XRECORD
  5
1924
102
{ACAD_REACTORS
330
1923
102
}
330
1923
100
AcDbXrecord
280
     1
102
RTVSPost2010Prop28
280
     0
102
RTVSPost2010PropOp28
 70
     1
102
RTVSPost2010Prop29
280
     1
102
RTVSPost2010PropOp29
 70
     1
102
RTVSPost2010Prop30
280
     1
102
RTVSPost2010PropOp30
 70
     1
102
RTVSPost2010Prop31
280
     0
102
RTVSPost2010PropOp31
 70
     1
102
RTVSPost2010Prop32
280
     0
102
RTVSPost2010PropOp32
 70
     1
102
RTVSPost2010Prop33
280
     0
102
RTVSPost2010PropOp33
 70
     1
102
RTVSPost2010Prop34
280
     0
102
RTVSPost2010PropOp34
 70
     1
102
RTVSPost2010Prop35
280
     0
102
RTVSPost2010PropOp35
 70
     1
102
RTVSPost2010Prop36
280
     0
102
RTVSPost2010PropOp36
 70
     1
102
RTVSPost2010Prop37
 90
       50
102
RTVSPost2010PropOp37
 70
     1
102
RTVSPost2010Prop38
140
0.0
102
RTVSPost2010PropOp38
 70
     1
102
RTVSPost2010Prop39
140
1.0
102
RTVSPost2010PropOp39
 70
     1
102
RTVSPost2010Prop40
 90
        0
102
RTVSPost2010PropOp40
 70
     1
102
RTVSPost2010Prop41ColorIndex
 90
       18
102
RTVSPost2010Prop41ColorRGB
 90
        0
102
RTVSPost2010PropOp41
 70
     1
102
RTVSPost2010Prop42
 90
       50
102
RTVSPost2010PropOp42
 70
     1
102
RTVSPost2010Prop43
 90
        3
102
RTVSPost2010PropOp43
 70
     1
102
RTVSPost2010Prop44ColorIndex
 90
        5
102
RTVSPost2010Prop44ColorRGB
 90
      255
102
RTVSPost2010PropOp44
 70
     1
102
RTVSPost2010Prop45
280
     0
102
RTVSPost2010PropOp45
 70
     1
102
RTVSPost2010Prop46
 90
       50
102
RTVSPost2010PropOp46
 70
     1
102
RTVSPost2010Prop47
 90
       50
102
RTVSPost2010PropOp47
 70
     1
102
RTVSPost2010Prop48
 90
       50
102
RTVSPost2010PropOp48
 70
     1
102
RTVSPost2010Prop49
280
     0
102
RTVSPost2010PropOp49
 70
     1
102
RTVSPost2010Prop50
 90
       50
102
RTVSPost2010PropOp50
 70
     1
102
RTVSPost2010Prop51ColorIndex
 90
      256
102
RTVSPost2010Prop51ColorRGB
 90
-16777216
102
RTVSPost2010PropOp51
 70
     0
102
RTVSPost2010Prop52
140
1.0
102
RTVSPost2010PropOp52
 70
     0
102
RTVSPost2010Prop53
 90
        2
102
RTVSPost2010PropOp53
 70
     1
102
RTVSPost2010Prop54
  1
strokes_ogs.tif
102
RTVSPost2010PropOp54
 70
     1
102
RTVSPost2010Prop55
280
     0
102
RTVSPost2010PropOp55
 70
     1
102
RTVSPost2010Prop56
140
1.0
102
RTVSPost2010PropOp56
 70
     1
102
RTVSPost2010Prop57
140
1.0
102
RTVSPost2010PropOp57
 70
     1
102
RTVSPropertyOp0
 70
     1
102
RTVSPropertyOp1
 70
     1
102
RTVSPropertyOp2
 70
     1
102
RTVSPropertyOp3
 70
     1
102
RTVSPropertyOp4
 70
     1
102
RTVSPropertyOp5
 70
     1
102
RTVSPropertyOp6
 70
     1
102
RTVSPropertyOp7
 70
     1
102
RTVSPropertyOp8
 70
     1
102
RTVSPropertyOp9
 70
     1
102
RTVSPropertyOp10
 70
     1
102
RTVSPropertyOp11
 70
     1
102
RTVSPropertyOp12
 70
     1
102
RTVSPropertyOp13
 70
     1
102
RTVSPropertyOp14
 70
     1
102
RTVSPropertyOp15
 70
     1
102
RTVSPropertyOp16
 70
     1
102
RTVSPropertyOp17
 70
     1
102
RTVSPropertyOp18
 70
     1
102
RTVSPropertyOp19
 70
     1
102
RTVSPropertyOp20
 70
     1
102
RTVSPropertyOp21
 70
     1
102
RTVSPropertyOp22
 70
     1
102
RTVSPropertyOp23
 70
     1
102
RTVSPropertyOp24
 70
     1
102
RTVSPropertyOp25
 70
     1
102
RTVSPropertyOp26
 70
     1
102
RTVSPropertyOp27
 70
     1
102
RTVSPropertyOp28
 70
     1
102
RTVSPropertyOp29
 70
     1
102
RTVSPropertyOp30
 70
     1
102
RTVSPropertyOp31
 70
     1
102
RTVSPropertyOp32
 70
     1
102
RTVSPropertyOp33
 70
     1
102
RTVSPropertyOp34
 70
     1
102
RTVSPropertyOp35
 70
     1
102
RTVSPropertyOp36
 70
     1
102
RTVSPropertyOp37
 70
     1
102
RTVSPropertyOp38
 70
     1
102
RTVSPropertyOp39
 70
     1
102
RTVSPropertyOp40
 70
     1
102
RTVSPropertyOp41
 70
     1
102
RTVSPropertyOp42
 70
     1
102
RTVSPropertyOp43
 70
     1
102
RTVSPropertyOp44
 70
     1
102
RTVSPropertyOp45
 70
     1
102
RTVSPropertyOp46
 70
     1
102
RTVSPropertyOp47
 70
     1
102
RTVSPropertyOp48
 70
     1
102
RTVSPropertyOp49
 70
     1
102
RTVSPropertyOp50
 70
     1
102
RTVSPropertyOp51
 70
     0
102
RTVSPropertyOp52
 70
     0
102
RTVSPropertyOp53
 70
     1
102
RTVSPropertyOp54
 70
     1
102
RTVSPropertyOp55
 70
     1
102
RTVSPropertyOp56
 70
     1
102
RTVSPropertyOp57
 70
     1
102
RTVSPropertyOp58
 70
     1
102
RTVSPropertyOp59
 70
     1
102
RTVSPropertyOp60
 70
     1
102
RTVSPropertyOp61
 70
     1
102
RTVSPropertyOp62
 70
     1
  0
XRECORD
  5
1908
102
{ACAD_REACTORS
330
1907
102
}
330
1907
100
AcDbXrecord
280
     1
102
RTVSPost2010Prop28
280
     0
102
RTVSPost2010PropOp28
 70
     1
102
RTVSPost2010Prop29
280
     1
102
RTVSPost2010PropOp29
 70
     1
102
RTVSPost2010Prop30
280
     1
102
RTVSPost2010PropOp30
 70
     1
102
RTVSPost2010Prop31
280
     0
102
RTVSPost2010PropOp31
 70
     1
102
RTVSPost2010Prop32
280
     0
102
RTVSPost2010PropOp32
 70
     1
102
RTVSPost2010Prop33
280
     0
102
RTVSPost2010PropOp33
 70
     1
102
RTVSPost2010Prop34
280
     0
102
RTVSPost2010PropOp34
 70
     1
102
RTVSPost2010Prop35
280
     0
102
RTVSPost2010PropOp35
 70
     1
102
RTVSPost2010Prop36
280
     0
102
RTVSPost2010PropOp36
 70
     1
102
RTVSPost2010Prop37
 90
       50
102
RTVSPost2010PropOp37
 70
     1
102
RTVSPost2010Prop38
140
0.0
102
RTVSPost2010PropOp38
 70
     1
102
RTVSPost2010Prop39
140
1.0
102
RTVSPost2010PropOp39
 70
     1
102
RTVSPost2010Prop40
 90
        0
102
RTVSPost2010PropOp40
 70
     1
102
RTVSPost2010Prop41ColorIndex
 90
       18
102
RTVSPost2010Prop41ColorRGB
 90
        0
102
RTVSPost2010PropOp41
 70
     1
102
RTVSPost2010Prop42
 90
       50
102
RTVSPost2010PropOp42
 70
     1
102
RTVSPost2010Prop43
 90
        3
102
RTVSPost2010PropOp43
 70
     1
102
RTVSPost2010Prop44ColorIndex
 90
        5
102
RTVSPost2010Prop44ColorRGB
 90
      255
102
RTVSPost2010PropOp44
 70
     1
102
RTVSPost2010Prop45
280
     0
102
RTVSPost2010PropOp45
 70
     1
102
RTVSPost2010Prop46
 90
       50
102
RTVSPost2010PropOp46
 70
     1
102
RTVSPost2010Prop47
 90
       50
102
RTVSPost2010PropOp47
 70
     1
102
RTVSPost2010Prop48
 90
       50
102
RTVSPost2010PropOp48
 70
     1
102
RTVSPost2010Prop49
280
     0
102
RTVSPost2010PropOp49
 70
     1
102
RTVSPost2010Prop50
 90
       50
102
RTVSPost2010PropOp50
 70
     1
102
RTVSPost2010Prop51ColorIndex
 90
      256
102
RTVSPost2010Prop51ColorRGB
 90
-16777216
102
RTVSPost2010PropOp51
 70
     0
102
RTVSPost2010Prop52
140
1.0
102
RTVSPost2010PropOp52
 70
     0
102
RTVSPost2010Prop53
 90
        2
102
RTVSPost2010PropOp53
 70
     1
102
RTVSPost2010Prop54
  1
strokes_ogs.tif
102
RTVSPost2010PropOp54
 70
     1
102
RTVSPost2010Prop55
280
     0
102
RTVSPost2010PropOp55
 70
     1
102
RTVSPost2010Prop56
140
1.0
102
RTVSPost2010PropOp56
 70
     1
102
RTVSPost2010Prop57
140
1.0
102
RTVSPost2010PropOp57
 70
     1
102
RTVSPropertyOp0
 70
     1
102
RTVSPropertyOp1
 70
     1
102
RTVSPropertyOp2
 70
     1
102
RTVSPropertyOp3
 70
     1
102
RTVSPropertyOp4
 70
     1
102
RTVSPropertyOp5
 70
     1
102
RTVSPropertyOp6
 70
     1
102
RTVSPropertyOp7
 70
     1
102
RTVSPropertyOp8
 70
     1
102
RTVSPropertyOp9
 70
     1
102
RTVSPropertyOp10
 70
     1
102
RTVSPropertyOp11
 70
     1
102
RTVSPropertyOp12
 70
     1
102
RTVSPropertyOp13
 70
     1
102
RTVSPropertyOp14
 70
     1
102
RTVSPropertyOp15
 70
     1
102
RTVSPropertyOp16
 70
     1
102
RTVSPropertyOp17
 70
     1
102
RTVSPropertyOp18
 70
     1
102
RTVSPropertyOp19
 70
     1
102
RTVSPropertyOp20
 70
     1
102
RTVSPropertyOp21
 70
     1
102
RTVSPropertyOp22
 70
     1
102
RTVSPropertyOp23
 70
     1
102
RTVSPropertyOp24
 70
     1
102
RTVSPropertyOp25
 70
     1
102
RTVSPropertyOp26
 70
     1
102
RTVSPropertyOp27
 70
     1
102
RTVSPropertyOp28
 70
     1
102
RTVSPropertyOp29
 70
     1
102
RTVSPropertyOp30
 70
     1
102
RTVSPropertyOp31
 70
     1
102
RTVSPropertyOp32
 70
     1
102
RTVSPropertyOp33
 70
     1
102
RTVSPropertyOp34
 70
     1
102
RTVSPropertyOp35
 70
     1
102
RTVSPropertyOp36
 70
     1
102
RTVSPropertyOp37
 70
     1
102
RTVSPropertyOp38
 70
     1
102
RTVSPropertyOp39
 70
     1
102
RTVSPropertyOp40
 70
     1
102
RTVSPropertyOp41
 70
     1
102
RTVSPropertyOp42
 70
     1
102
RTVSPropertyOp43
 70
     1
102
RTVSPropertyOp44
 70
     1
102
RTVSPropertyOp45
 70
     1
102
RTVSPropertyOp46
 70
     1
102
RTVSPropertyOp47
 70
     1
102
RTVSPropertyOp48
 70
     1
102
RTVSPropertyOp49
 70
     1
102
RTVSPropertyOp50
 70
     1
102
RTVSPropertyOp51
 70
     0
102
RTVSPropertyOp52
 70
     0
102
RTVSPropertyOp53
 70
     1
102
RTVSPropertyOp54
 70
     1
102
RTVSPropertyOp55
 70
     1
102
RTVSPropertyOp56
 70
     1
102
RTVSPropertyOp57
 70
     1
102
RTVSPropertyOp58
 70
     1
102
RTVSPropertyOp59
 70
     1
102
RTVSPropertyOp60
 70
     1
102
RTVSPropertyOp61
 70
     1
102
RTVSPropertyOp62
 70
     1
  0
XRECORD
  5
190A
102
{ACAD_REACTORS
330
1909
102
}
330
1909
100
AcDbXrecord
280
     1
102
RTVSPost2010Prop28
280
     0
102
RTVSPost2010PropOp28
 70
     1
102
RTVSPost2010Prop29
280
     1
102
RTVSPost2010PropOp29
 70
     1
102
RTVSPost2010Prop30
280
     1
102
RTVSPost2010PropOp30
 70
     1
102
RTVSPost2010Prop31
280
     0
102
RTVSPost2010PropOp31
 70
     1
102
RTVSPost2010Prop32
280
     0
102
RTVSPost2010PropOp32
 70
     1
102
RTVSPost2010Prop33
280
     0
102
RTVSPost2010PropOp33
 70
     1
102
RTVSPost2010Prop34
280
     0
102
RTVSPost2010PropOp34
 70
     1
102
RTVSPost2010Prop35
280
     0
102
RTVSPost2010PropOp35
 70
     1
102
RTVSPost2010Prop36
280
     0
102
RTVSPost2010PropOp36
 70
     1
102
RTVSPost2010Prop37
 90
       50
102
RTVSPost2010PropOp37
 70
     1
102
RTVSPost2010Prop38
140
0.0
102
RTVSPost2010PropOp38
 70
     1
102
RTVSPost2010Prop39
140
1.0
102
RTVSPost2010PropOp39
 70
     1
102
RTVSPost2010Prop40
 90
        0
102
RTVSPost2010PropOp40
 70
     1
102
RTVSPost2010Prop41ColorIndex
 90
       18
102
RTVSPost2010Prop41ColorRGB
 90
        0
102
RTVSPost2010PropOp41
 70
     1
102
RTVSPost2010Prop42
 90
       50
102
RTVSPost2010PropOp42
 70
     1
102
RTVSPost2010Prop43
 90
        3
102
RTVSPost2010PropOp43
 70
     1
102
RTVSPost2010Prop44ColorIndex
 90
        5
102
RTVSPost2010Prop44ColorRGB
 90
      255
102
RTVSPost2010PropOp44
 70
     1
102
RTVSPost2010Prop45
280
     0
102
RTVSPost2010PropOp45
 70
     1
102
RTVSPost2010Prop46
 90
       50
102
RTVSPost2010PropOp46
 70
     1
102
RTVSPost2010Prop47
 90
       50
102
RTVSPost2010PropOp47
 70
     1
102
RTVSPost2010Prop48
 90
       50
102
RTVSPost2010PropOp48
 70
     1
102
RTVSPost2010Prop49
280
     0
102
RTVSPost2010PropOp49
 70
     1
102
RTVSPost2010Prop50
 90
       50
102
RTVSPost2010PropOp50
 70
     1
102
RTVSPost2010Prop51ColorIndex
 90
      256
102
RTVSPost2010Prop51ColorRGB
 90
-16777216
102
RTVSPost2010PropOp51
 70
     0
102
RTVSPost2010Prop52
140
1.0
102
RTVSPost2010PropOp52
 70
     0
102
RTVSPost2010Prop53
 90
        2
102
RTVSPost2010PropOp53
 70
     1
102
RTVSPost2010Prop54
  1
strokes_ogs.tif
102
RTVSPost2010PropOp54
 70
     1
102
RTVSPost2010Prop55
280
     0
102
RTVSPost2010PropOp55
 70
     1
102
RTVSPost2010Prop56
140
1.0
102
RTVSPost2010PropOp56
 70
     1
102
RTVSPost2010Prop57
140
1.0
102
RTVSPost2010PropOp57
 70
     1
102
RTVSPropertyOp0
 70
     1
102
RTVSPropertyOp1
 70
     1
102
RTVSPropertyOp2
 70
     1
102
RTVSPropertyOp3
 70
     1
102
RTVSPropertyOp4
 70
     1
102
RTVSPropertyOp5
 70
     1
102
RTVSPropertyOp6
 70
     1
102
RTVSPropertyOp7
 70
     1
102
RTVSPropertyOp8
 70
     1
102
RTVSPropertyOp9
 70
     1
102
RTVSPropertyOp10
 70
     1
102
RTVSPropertyOp11
 70
     1
102
RTVSPropertyOp12
 70
     1
102
RTVSPropertyOp13
 70
     1
102
RTVSPropertyOp14
 70
     1
102
RTVSPropertyOp15
 70
     1
102
RTVSPropertyOp16
 70
     1
102
RTVSPropertyOp17
 70
     1
102
RTVSPropertyOp18
 70
     1
102
RTVSPropertyOp19
 70
     1
102
RTVSPropertyOp20
 70
     1
102
RTVSPropertyOp21
 70
     1
102
RTVSPropertyOp22
 70
     1
102
RTVSPropertyOp23
 70
     1
102
RTVSPropertyOp24
 70
     1
102
RTVSPropertyOp25
 70
     1
102
RTVSPropertyOp26
 70
     1
102
RTVSPropertyOp27
 70
     1
102
RTVSPropertyOp28
 70
     1
102
RTVSPropertyOp29
 70
     1
102
RTVSPropertyOp30
 70
     1
102
RTVSPropertyOp31
 70
     1
102
RTVSPropertyOp32
 70
     1
102
RTVSPropertyOp33
 70
     1
102
RTVSPropertyOp34
 70
     1
102
RTVSPropertyOp35
 70
     1
102
RTVSPropertyOp36
 70
     1
102
RTVSPropertyOp37
 70
     1
102
RTVSPropertyOp38
 70
     1
102
RTVSPropertyOp39
 70
     1
102
RTVSPropertyOp40
 70
     1
102
RTVSPropertyOp41
 70
     1
102
RTVSPropertyOp42
 70
     1
102
RTVSPropertyOp43
 70
     1
102
RTVSPropertyOp44
 70
     1
102
RTVSPropertyOp45
 70
     1
102
RTVSPropertyOp46
 70
     1
102
RTVSPropertyOp47
 70
     1
102
RTVSPropertyOp48
 70
     1
102
RTVSPropertyOp49
 70
     1
102
RTVSPropertyOp50
 70
     1
102
RTVSPropertyOp51
 70
     0
102
RTVSPropertyOp52
 70
     0
102
RTVSPropertyOp53
 70
     1
102
RTVSPropertyOp54
 70
     1
102
RTVSPropertyOp55
 70
     1
102
RTVSPropertyOp56
 70
     1
102
RTVSPropertyOp57
 70
     1
102
RTVSPropertyOp58
 70
     1
102
RTVSPropertyOp59
 70
     1
102
RTVSPropertyOp60
 70
     1
102
RTVSPropertyOp61
 70
     1
102
RTVSPropertyOp62
 70
     1
  0
XRECORD
  5
190C
102
{ACAD_REACTORS
330
190B
102
}
330
190B
100
AcDbXrecord
280
     1
102
RTVSPost2010Prop28
280
     0
102
RTVSPost2010PropOp28
 70
     1
102
RTVSPost2010Prop29
280
     1
102
RTVSPost2010PropOp29
 70
     1
102
RTVSPost2010Prop30
280
     1
102
RTVSPost2010PropOp30
 70
     1
102
RTVSPost2010Prop31
280
     0
102
RTVSPost2010PropOp31
 70
     1
102
RTVSPost2010Prop32
280
     0
102
RTVSPost2010PropOp32
 70
     1
102
RTVSPost2010Prop33
280
     0
102
RTVSPost2010PropOp33
 70
     1
102
RTVSPost2010Prop34
280
     0
102
RTVSPost2010PropOp34
 70
     1
102
RTVSPost2010Prop35
280
     0
102
RTVSPost2010PropOp35
 70
     1
102
RTVSPost2010Prop36
280
     0
102
RTVSPost2010PropOp36
 70
     1
102
RTVSPost2010Prop37
 90
       50
102
RTVSPost2010PropOp37
 70
     1
102
RTVSPost2010Prop38
140
0.0
102
RTVSPost2010PropOp38
 70
     1
102
RTVSPost2010Prop39
140
1.0
102
RTVSPost2010PropOp39
 70
     1
102
RTVSPost2010Prop40
 90
        0
102
RTVSPost2010PropOp40
 70
     1
102
RTVSPost2010Prop41ColorIndex
 90
       18
102
RTVSPost2010Prop41ColorRGB
 90
        0
102
RTVSPost2010PropOp41
 70
     1
102
RTVSPost2010Prop42
 90
       50
102
RTVSPost2010PropOp42
 70
     1
102
RTVSPost2010Prop43
 90
        3
102
RTVSPost2010PropOp43
 70
     1
102
RTVSPost2010Prop44ColorIndex
 90
        5
102
RTVSPost2010Prop44ColorRGB
 90
      255
102
RTVSPost2010PropOp44
 70
     1
102
RTVSPost2010Prop45
280
     0
102
RTVSPost2010PropOp45
 70
     1
102
RTVSPost2010Prop46
 90
       50
102
RTVSPost2010PropOp46
 70
     1
102
RTVSPost2010Prop47
 90
       50
102
RTVSPost2010PropOp47
 70
     1
102
RTVSPost2010Prop48
 90
       50
102
RTVSPost2010PropOp48
 70
     1
102
RTVSPost2010Prop49
280
     0
102
RTVSPost2010PropOp49
 70
     1
102
RTVSPost2010Prop50
 90
       50
102
RTVSPost2010PropOp50
 70
     1
102
RTVSPost2010Prop51ColorIndex
 90
      256
102
RTVSPost2010Prop51ColorRGB
 90
-16777216
102
RTVSPost2010PropOp51
 70
     0
102
RTVSPost2010Prop52
140
1.0
102
RTVSPost2010PropOp52
 70
     0
102
RTVSPost2010Prop53
 90
        2
102
RTVSPost2010PropOp53
 70
     1
102
RTVSPost2010Prop54
  1
strokes_ogs.tif
102
RTVSPost2010PropOp54
 70
     1
102
RTVSPost2010Prop55
280
     0
102
RTVSPost2010PropOp55
 70
     1
102
RTVSPost2010Prop56
140
1.0
102
RTVSPost2010PropOp56
 70
     1
102
RTVSPost2010Prop57
140
1.0
102
RTVSPost2010PropOp57
 70
     1
102
RTVSPropertyOp0
 70
     1
102
RTVSPropertyOp1
 70
     1
102
RTVSPropertyOp2
 70
     1
102
RTVSPropertyOp3
 70
     1
102
RTVSPropertyOp4
 70
     1
102
RTVSPropertyOp5
 70
     1
102
RTVSPropertyOp6
 70
     1
102
RTVSPropertyOp7
 70
     1
102
RTVSPropertyOp8
 70
     1
102
RTVSPropertyOp9
 70
     1
102
RTVSPropertyOp10
 70
     1
102
RTVSPropertyOp11
 70
     1
102
RTVSPropertyOp12
 70
     1
102
RTVSPropertyOp13
 70
     1
102
RTVSPropertyOp14
 70
     1
102
RTVSPropertyOp15
 70
     1
102
RTVSPropertyOp16
 70
     1
102
RTVSPropertyOp17
 70
     1
102
RTVSPropertyOp18
 70
     1
102
RTVSPropertyOp19
 70
     1
102
RTVSPropertyOp20
 70
     1
102
RTVSPropertyOp21
 70
     1
102
RTVSPropertyOp22
 70
     1
102
RTVSPropertyOp23
 70
     1
102
RTVSPropertyOp24
 70
     1
102
RTVSPropertyOp25
 70
     1
102
RTVSPropertyOp26
 70
     1
102
RTVSPropertyOp27
 70
     1
102
RTVSPropertyOp28
 70
     1
102
RTVSPropertyOp29
 70
     1
102
RTVSPropertyOp30
 70
     1
102
RTVSPropertyOp31
 70
     1
102
RTVSPropertyOp32
 70
     1
102
RTVSPropertyOp33
 70
     1
102
RTVSPropertyOp34
 70
     1
102
RTVSPropertyOp35
 70
     1
102
RTVSPropertyOp36
 70
     1
102
RTVSPropertyOp37
 70
     1
102
RTVSPropertyOp38
 70
     1
102
RTVSPropertyOp39
 70
     1
102
RTVSPropertyOp40
 70
     1
102
RTVSPropertyOp41
 70
     1
102
RTVSPropertyOp42
 70
     1
102
RTVSPropertyOp43
 70
     1
102
RTVSPropertyOp44
 70
     1
102
RTVSPropertyOp45
 70
     1
102
RTVSPropertyOp46
 70
     1
102
RTVSPropertyOp47
 70
     1
102
RTVSPropertyOp48
 70
     1
102
RTVSPropertyOp49
 70
     1
102
RTVSPropertyOp50
 70
     1
102
RTVSPropertyOp51
 70
     0
102
RTVSPropertyOp52
 70
     0
102
RTVSPropertyOp53
 70
     1
102
RTVSPropertyOp54
 70
     1
102
RTVSPropertyOp55
 70
     1
102
RTVSPropertyOp56
 70
     1
102
RTVSPropertyOp57
 70
     1
102
RTVSPropertyOp58
 70
     1
102
RTVSPropertyOp59
 70
     1
102
RTVSPropertyOp60
 70
     1
102
RTVSPropertyOp61
 70
     1
102
RTVSPropertyOp62
 70
     1
  0
XRECORD
  5
190E
102
{ACAD_REACTORS
330
190D
102
}
330
190D
100
AcDbXrecord
280
     1
102
RTVSPost2010Prop28
280
     0
102
RTVSPost2010PropOp28
 70
     1
102
RTVSPost2010Prop29
280
     1
102
RTVSPost2010PropOp29
 70
     1
102
RTVSPost2010Prop30
280
     1
102
RTVSPost2010PropOp30
 70
     1
102
RTVSPost2010Prop31
280
     0
102
RTVSPost2010PropOp31
 70
     1
102
RTVSPost2010Prop32
280
     0
102
RTVSPost2010PropOp32
 70
     1
102
RTVSPost2010Prop33
280
     0
102
RTVSPost2010PropOp33
 70
     1
102
RTVSPost2010Prop34
280
     0
102
RTVSPost2010PropOp34
 70
     1
102
RTVSPost2010Prop35
280
     0
102
RTVSPost2010PropOp35
 70
     1
102
RTVSPost2010Prop36
280
     0
102
RTVSPost2010PropOp36
 70
     1
102
RTVSPost2010Prop37
 90
       50
102
RTVSPost2010PropOp37
 70
     1
102
RTVSPost2010Prop38
140
0.0
102
RTVSPost2010PropOp38
 70
     1
102
RTVSPost2010Prop39
140
1.0
102
RTVSPost2010PropOp39
 70
     1
102
RTVSPost2010Prop40
 90
        0
102
RTVSPost2010PropOp40
 70
     1
102
RTVSPost2010Prop41ColorIndex
 90
       18
102
RTVSPost2010Prop41ColorRGB
 90
        0
102
RTVSPost2010PropOp41
 70
     1
102
RTVSPost2010Prop42
 90
       50
102
RTVSPost2010PropOp42
 70
     1
102
RTVSPost2010Prop43
 90
        3
102
RTVSPost2010PropOp43
 70
     1
102
RTVSPost2010Prop44ColorIndex
 90
        5
102
RTVSPost2010Prop44ColorRGB
 90
      255
102
RTVSPost2010PropOp44
 70
     1
102
RTVSPost2010Prop45
280
     0
102
RTVSPost2010PropOp45
 70
     1
102
RTVSPost2010Prop46
 90
       50
102
RTVSPost2010PropOp46
 70
     1
102
RTVSPost2010Prop47
 90
       50
102
RTVSPost2010PropOp47
 70
     1
102
RTVSPost2010Prop48
 90
       50
102
RTVSPost2010PropOp48
 70
     1
102
RTVSPost2010Prop49
280
     0
102
RTVSPost2010PropOp49
 70
     1
102
RTVSPost2010Prop50
 90
       50
102
RTVSPost2010PropOp50
 70
     1
102
RTVSPost2010Prop51ColorIndex
 90
      256
102
RTVSPost2010Prop51ColorRGB
 90
-16777216
102
RTVSPost2010PropOp51
 70
     0
102
RTVSPost2010Prop52
140
1.0
102
RTVSPost2010PropOp52
 70
     0
102
RTVSPost2010Prop53
 90
        2
102
RTVSPost2010PropOp53
 70
     1
102
RTVSPost2010Prop54
  1
strokes_ogs.tif
102
RTVSPost2010PropOp54
 70
     1
102
RTVSPost2010Prop55
280
     0
102
RTVSPost2010PropOp55
 70
     1
102
RTVSPost2010Prop56
140
1.0
102
RTVSPost2010PropOp56
 70
     1
102
RTVSPost2010Prop57
140
1.0
102
RTVSPost2010PropOp57
 70
     1
102
RTVSPropertyOp0
 70
     1
102
RTVSPropertyOp1
 70
     1
102
RTVSPropertyOp2
 70
     1
102
RTVSPropertyOp3
 70
     1
102
RTVSPropertyOp4
 70
     1
102
RTVSPropertyOp5
 70
     1
102
RTVSPropertyOp6
 70
     1
102
RTVSPropertyOp7
 70
     1
102
RTVSPropertyOp8
 70
     1
102
RTVSPropertyOp9
 70
     1
102
RTVSPropertyOp10
 70
     1
102
RTVSPropertyOp11
 70
     1
102
RTVSPropertyOp12
 70
     1
102
RTVSPropertyOp13
 70
     1
102
RTVSPropertyOp14
 70
     1
102
RTVSPropertyOp15
 70
     1
102
RTVSPropertyOp16
 70
     1
102
RTVSPropertyOp17
 70
     1
102
RTVSPropertyOp18
 70
     1
102
RTVSPropertyOp19
 70
     1
102
RTVSPropertyOp20
 70
     1
102
RTVSPropertyOp21
 70
     1
102
RTVSPropertyOp22
 70
     1
102
RTVSPropertyOp23
 70
     1
102
RTVSPropertyOp24
 70
     1
102
RTVSPropertyOp25
 70
     1
102
RTVSPropertyOp26
 70
     1
102
RTVSPropertyOp27
 70
     1
102
RTVSPropertyOp28
 70
     1
102
RTVSPropertyOp29
 70
     1
102
RTVSPropertyOp30
 70
     1
102
RTVSPropertyOp31
 70
     1
102
RTVSPropertyOp32
 70
     1
102
RTVSPropertyOp33
 70
     1
102
RTVSPropertyOp34
 70
     1
102
RTVSPropertyOp35
 70
     1
102
RTVSPropertyOp36
 70
     1
102
RTVSPropertyOp37
 70
     1
102
RTVSPropertyOp38
 70
     1
102
RTVSPropertyOp39
 70
     1
102
RTVSPropertyOp40
 70
     1
102
RTVSPropertyOp41
 70
     1
102
RTVSPropertyOp42
 70
     1
102
RTVSPropertyOp43
 70
     1
102
RTVSPropertyOp44
 70
     1
102
RTVSPropertyOp45
 70
     1
102
RTVSPropertyOp46
 70
     1
102
RTVSPropertyOp47
 70
     1
102
RTVSPropertyOp48
 70
     1
102
RTVSPropertyOp49
 70
     1
102
RTVSPropertyOp50
 70
     1
102
RTVSPropertyOp51
 70
     0
102
RTVSPropertyOp52
 70
     0
102
RTVSPropertyOp53
 70
     1
102
RTVSPropertyOp54
 70
     1
102
RTVSPropertyOp55
 70
     1
102
RTVSPropertyOp56
 70
     1
102
RTVSPropertyOp57
 70
     1
102
RTVSPropertyOp58
 70
     1
102
RTVSPropertyOp59
 70
     1
102
RTVSPropertyOp60
 70
     1
102
RTVSPropertyOp61
 70
     1
102
RTVSPropertyOp62
 70
     1
  0
XRECORD
  5
1916
102
{ACAD_REACTORS
330
1915
102
}
330
1915
100
AcDbXrecord
280
     1
102
RTVSPost2010Prop28
280
     0
102
RTVSPost2010PropOp28
 70
     1
102
RTVSPost2010Prop29
280
     1
102
RTVSPost2010PropOp29
 70
     1
102
RTVSPost2010Prop30
280
     1
102
RTVSPost2010PropOp30
 70
     1
102
RTVSPost2010Prop31
280
     0
102
RTVSPost2010PropOp31
 70
     1
102
RTVSPost2010Prop32
280
     0
102
RTVSPost2010PropOp32
 70
     1
102
RTVSPost2010Prop33
280
     0
102
RTVSPost2010PropOp33
 70
     1
102
RTVSPost2010Prop34
280
     0
102
RTVSPost2010PropOp34
 70
     1
102
RTVSPost2010Prop35
280
     0
102
RTVSPost2010PropOp35
 70
     1
102
RTVSPost2010Prop36
280
     0
102
RTVSPost2010PropOp36
 70
     1
102
RTVSPost2010Prop37
 90
       50
102
RTVSPost2010PropOp37
 70
     1
102
RTVSPost2010Prop38
140
0.0
102
RTVSPost2010PropOp38
 70
     1
102
RTVSPost2010Prop39
140
1.0
102
RTVSPost2010PropOp39
 70
     1
102
RTVSPost2010Prop40
 90
        0
102
RTVSPost2010PropOp40
 70
     1
102
RTVSPost2010Prop41ColorIndex
 90
       18
102
RTVSPost2010Prop41ColorRGB
 90
        0
102
RTVSPost2010PropOp41
 70
     1
102
RTVSPost2010Prop42
 90
       50
102
RTVSPost2010PropOp42
 70
     1
102
RTVSPost2010Prop43
 90
        3
102
RTVSPost2010PropOp43
 70
     1
102
RTVSPost2010Prop44ColorIndex
 90
        5
102
RTVSPost2010Prop44ColorRGB
 90
      255
102
RTVSPost2010PropOp44
 70
     1
102
RTVSPost2010Prop45
280
     0
102
RTVSPost2010PropOp45
 70
     1
102
RTVSPost2010Prop46
 90
       50
102
RTVSPost2010PropOp46
 70
     1
102
RTVSPost2010Prop47
 90
       50
102
RTVSPost2010PropOp47
 70
     1
102
RTVSPost2010Prop48
 90
       50
102
RTVSPost2010PropOp48
 70
     1
102
RTVSPost2010Prop49
280
     0
102
RTVSPost2010PropOp49
 70
     1
102
RTVSPost2010Prop50
 90
       50
102
RTVSPost2010PropOp50
 70
     1
102
RTVSPost2010Prop51ColorIndex
 90
      256
102
RTVSPost2010Prop51ColorRGB
 90
-16777216
102
RTVSPost2010PropOp51
 70
     0
102
RTVSPost2010Prop52
140
1.0
102
RTVSPost2010PropOp52
 70
     0
102
RTVSPost2010Prop53
 90
        2
102
RTVSPost2010PropOp53
 70
     1
102
RTVSPost2010Prop54
  1
strokes_ogs.tif
102
RTVSPost2010PropOp54
 70
     1
102
RTVSPost2010Prop55
280
     0
102
RTVSPost2010PropOp55
 70
     1
102
RTVSPost2010Prop56
140
1.0
102
RTVSPost2010PropOp56
 70
     1
102
RTVSPost2010Prop57
140
1.0
102
RTVSPost2010PropOp57
 70
     1
102
RTVSPropertyOp0
 70
     1
102
RTVSPropertyOp1
 70
     1
102
RTVSPropertyOp2
 70
     1
102
RTVSPropertyOp3
 70
     1
102
RTVSPropertyOp4
 70
     1
102
RTVSPropertyOp5
 70
     1
102
RTVSPropertyOp6
 70
     1
102
RTVSPropertyOp7
 70
     1
102
RTVSPropertyOp8
 70
     1
102
RTVSPropertyOp9
 70
     1
102
RTVSPropertyOp10
 70
     1
102
RTVSPropertyOp11
 70
     1
102
RTVSPropertyOp12
 70
     1
102
RTVSPropertyOp13
 70
     1
102
RTVSPropertyOp14
 70
     1
102
RTVSPropertyOp15
 70
     1
102
RTVSPropertyOp16
 70
     1
102
RTVSPropertyOp17
 70
     1
102
RTVSPropertyOp18
 70
     1
102
RTVSPropertyOp19
 70
     1
102
RTVSPropertyOp20
 70
     1
102
RTVSPropertyOp21
 70
     1
102
RTVSPropertyOp22
 70
     1
102
RTVSPropertyOp23
 70
     1
102
RTVSPropertyOp24
 70
     1
102
RTVSPropertyOp25
 70
     1
102
RTVSPropertyOp26
 70
     1
102
RTVSPropertyOp27
 70
     1
102
RTVSPropertyOp28
 70
     1
102
RTVSPropertyOp29
 70
     1
102
RTVSPropertyOp30
 70
     1
102
RTVSPropertyOp31
 70
     1
102
RTVSPropertyOp32
 70
     1
102
RTVSPropertyOp33
 70
     1
102
RTVSPropertyOp34
 70
     1
102
RTVSPropertyOp35
 70
     1
102
RTVSPropertyOp36
 70
     1
102
RTVSPropertyOp37
 70
     1
102
RTVSPropertyOp38
 70
     1
102
RTVSPropertyOp39
 70
     1
102
RTVSPropertyOp40
 70
     1
102
RTVSPropertyOp41
 70
     1
102
RTVSPropertyOp42
 70
     1
102
RTVSPropertyOp43
 70
     1
102
RTVSPropertyOp44
 70
     1
102
RTVSPropertyOp45
 70
     1
102
RTVSPropertyOp46
 70
     1
102
RTVSPropertyOp47
 70
     1
102
RTVSPropertyOp48
 70
     1
102
RTVSPropertyOp49
 70
     1
102
RTVSPropertyOp50
 70
     1
102
RTVSPropertyOp51
 70
     0
102
RTVSPropertyOp52
 70
     0
102
RTVSPropertyOp53
 70
     1
102
RTVSPropertyOp54
 70
     1
102
RTVSPropertyOp55
 70
     1
102
RTVSPropertyOp56
 70
     1
102
RTVSPropertyOp57
 70
     1
102
RTVSPropertyOp58
 70
     1
102
RTVSPropertyOp59
 70
     1
102
RTVSPropertyOp60
 70
     1
102
RTVSPropertyOp61
 70
     1
102
RTVSPropertyOp62
 70
     1
  0
XRECORD
  5
1932
102
{ACAD_REACTORS
330
1931
102
}
330
1931
100
AcDbXrecord
280
     1
102
RTVSPost2010Prop28
280
     0
102
RTVSPost2010PropOp28
 70
     1
102
RTVSPost2010Prop29
280
     1
102
RTVSPost2010PropOp29
 70
     1
102
RTVSPost2010Prop30
280
     1
102
RTVSPost2010PropOp30
 70
     1
102
RTVSPost2010Prop31
280
     0
102
RTVSPost2010PropOp31
 70
     1
102
RTVSPost2010Prop32
280
     0
102
RTVSPost2010PropOp32
 70
     1
102
RTVSPost2010Prop33
280
     0
102
RTVSPost2010PropOp33
 70
     1
102
RTVSPost2010Prop34
280
     0
102
RTVSPost2010PropOp34
 70
     1
102
RTVSPost2010Prop35
280
     0
102
RTVSPost2010PropOp35
 70
     1
102
RTVSPost2010Prop36
280
     0
102
RTVSPost2010PropOp36
 70
     1
102
RTVSPost2010Prop37
 90
       50
102
RTVSPost2010PropOp37
 70
     0
102
RTVSPost2010Prop38
140
0.0
102
RTVSPost2010PropOp38
 70
     0
102
RTVSPost2010Prop39
140
1.0
102
RTVSPost2010PropOp39
 70
     0
102
RTVSPost2010Prop40
 90
        0
102
RTVSPost2010PropOp40
 70
     0
102
RTVSPost2010Prop41ColorIndex
 90
       18
102
RTVSPost2010Prop41ColorRGB
 90
        0
102
RTVSPost2010PropOp41
 70
     0
102
RTVSPost2010Prop42
 90
       50
102
RTVSPost2010PropOp42
 70
     0
102
RTVSPost2010Prop43
 90
        3
102
RTVSPost2010PropOp43
 70
     0
102
RTVSPost2010Prop44ColorIndex
 90
        5
102
RTVSPost2010Prop44ColorRGB
 90
      255
102
RTVSPost2010PropOp44
 70
     0
102
RTVSPost2010Prop45
280
     0
102
RTVSPost2010PropOp45
 70
     1
102
RTVSPost2010Prop46
 90
       50
102
RTVSPost2010PropOp46
 70
     0
102
RTVSPost2010Prop47
 90
       50
102
RTVSPost2010PropOp47
 70
     0
102
RTVSPost2010Prop48
 90
       50
102
RTVSPost2010PropOp48
 70
     0
102
RTVSPost2010Prop49
280
     0
102
RTVSPost2010PropOp49
 70
     1
102
RTVSPost2010Prop50
 90
       50
102
RTVSPost2010PropOp50
 70
     0
102
RTVSPost2010Prop51ColorIndex
 90
      256
102
RTVSPost2010Prop51ColorRGB
 90
-16777216
102
RTVSPost2010PropOp51
 70
     0
102
RTVSPost2010Prop52
140
1.0
102
RTVSPost2010PropOp52
 70
     0
102
RTVSPost2010Prop53
 90
        2
102
RTVSPost2010PropOp53
 70
     0
102
RTVSPost2010Prop54
  1
strokes_ogs.tif
102
RTVSPost2010PropOp54
 70
     0
102
RTVSPost2010Prop55
280
     0
102
RTVSPost2010PropOp55
 70
     1
102
RTVSPost2010Prop56
140
1.0
102
RTVSPost2010PropOp56
 70
     0
102
RTVSPost2010Prop57
140
1.0
102
RTVSPost2010PropOp57
 70
     0
102
RTVSPropertyOp0
 70
     0
102
RTVSPropertyOp1
 70
     0
102
RTVSPropertyOp2
 70
     0
102
RTVSPropertyOp3
 70
     0
102
RTVSPropertyOp4
 70
     0
102
RTVSPropertyOp5
 70
     0
102
RTVSPropertyOp6
 70
     0
102
RTVSPropertyOp7
 70
     0
102
RTVSPropertyOp8
 70
     0
102
RTVSPropertyOp9
 70
     0
102
RTVSPropertyOp10
 70
     0
102
RTVSPropertyOp11
 70
     0
102
RTVSPropertyOp12
 70
     0
102
RTVSPropertyOp13
 70
     0
102
RTVSPropertyOp14
 70
     2
102
RTVSPropertyOp15
 70
     0
102
RTVSPropertyOp16
 70
     0
102
RTVSPropertyOp17
 70
     0
102
RTVSPropertyOp18
 70
     0
102
RTVSPropertyOp19
 70
     0
102
RTVSPropertyOp20
 70
     0
102
RTVSPropertyOp21
 70
     0
102
RTVSPropertyOp22
 70
     0
102
RTVSPropertyOp23
 70
     0
102
RTVSPropertyOp24
 70
     0
102
RTVSPropertyOp25
 70
     0
102
RTVSPropertyOp26
 70
     0
102
RTVSPropertyOp27
 70
     0
102
RTVSPropertyOp28
 70
     1
102
RTVSPropertyOp29
 70
     1
102
RTVSPropertyOp30
 70
     1
102
RTVSPropertyOp31
 70
     1
102
RTVSPropertyOp32
 70
     1
102
RTVSPropertyOp33
 70
     1
102
RTVSPropertyOp34
 70
     1
102
RTVSPropertyOp35
 70
     1
102
RTVSPropertyOp36
 70
     1
102
RTVSPropertyOp37
 70
     0
102
RTVSPropertyOp38
 70
     0
102
RTVSPropertyOp39
 70
     0
102
RTVSPropertyOp40
 70
     0
102
RTVSPropertyOp41
 70
     0
102
RTVSPropertyOp42
 70
     0
102
RTVSPropertyOp43
 70
     0
102
RTVSPropertyOp44
 70
     0
102
RTVSPropertyOp45
 70
     1
102
RTVSPropertyOp46
 70
     0
102
RTVSPropertyOp47
 70
     0
102
RTVSPropertyOp48
 70
     0
102
RTVSPropertyOp49
 70
     1
102
RTVSPropertyOp50
 70
     0
102
RTVSPropertyOp51
 70
     0
102
RTVSPropertyOp52
 70
     0
102
RTVSPropertyOp53
 70
     0
102
RTVSPropertyOp54
 70
     0
102
RTVSPropertyOp55
 70
     1
102
RTVSPropertyOp56
 70
     0
102
RTVSPropertyOp57
 70
     0
102
RTVSPropertyOp58
 70
     0
102
RTVSPropertyOp59
 70
     0
102
RTVSPropertyOp60
 70
     0
102
RTVSPropertyOp61
 70
     0
102
RTVSPropertyOp62
 70
     0
  0
XRECORD
  5
1922
102
{ACAD_REACTORS
330
1921
102
}
330
1921
100
AcDbXrecord
280
     1
102
RTVSPost2010Prop28
280
     0
102
RTVSPost2010PropOp28
 70
     1
102
RTVSPost2010Prop29
280
     1
102
RTVSPost2010PropOp29
 70
     1
102
RTVSPost2010Prop30
280
     1
102
RTVSPost2010PropOp30
 70
     1
102
RTVSPost2010Prop31
280
     0
102
RTVSPost2010PropOp31
 70
     1
102
RTVSPost2010Prop32
280
     0
102
RTVSPost2010PropOp32
 70
     1
102
RTVSPost2010Prop33
280
     0
102
RTVSPost2010PropOp33
 70
     1
102
RTVSPost2010Prop34
280
     0
102
RTVSPost2010PropOp34
 70
     1
102
RTVSPost2010Prop35
280
     0
102
RTVSPost2010PropOp35
 70
     1
102
RTVSPost2010Prop36
280
     0
102
RTVSPost2010PropOp36
 70
     1
102
RTVSPost2010Prop37
 90
       50
102
RTVSPost2010PropOp37
 70
     1
102
RTVSPost2010Prop38
140
0.0
102
RTVSPost2010PropOp38
 70
     1
102
RTVSPost2010Prop39
140
1.0
102
RTVSPost2010PropOp39
 70
     1
102
RTVSPost2010Prop40
 90
        0
102
RTVSPost2010PropOp40
 70
     1
102
RTVSPost2010Prop41ColorIndex
 90
       18
102
RTVSPost2010Prop41ColorRGB
 90
        0
102
RTVSPost2010PropOp41
 70
     1
102
RTVSPost2010Prop42
 90
       50
102
RTVSPost2010PropOp42
 70
     1
102
RTVSPost2010Prop43
 90
        3
102
RTVSPost2010PropOp43
 70
     1
102
RTVSPost2010Prop44ColorIndex
 90
        5
102
RTVSPost2010Prop44ColorRGB
 90
      255
102
RTVSPost2010PropOp44
 70
     1
102
RTVSPost2010Prop45
280
     0
102
RTVSPost2010PropOp45
 70
     1
102
RTVSPost2010Prop46
 90
       50
102
RTVSPost2010PropOp46
 70
     1
102
RTVSPost2010Prop47
 90
       50
102
RTVSPost2010PropOp47
 70
     1
102
RTVSPost2010Prop48
 90
       50
102
RTVSPost2010PropOp48
 70
     1
102
RTVSPost2010Prop49
280
     0
102
RTVSPost2010PropOp49
 70
     1
102
RTVSPost2010Prop50
 90
       50
102
RTVSPost2010PropOp50
 70
     1
102
RTVSPost2010Prop51ColorIndex
 90
      256
102
RTVSPost2010Prop51ColorRGB
 90
-16777216
102
RTVSPost2010PropOp51
 70
     0
102
RTVSPost2010Prop52
140
1.0
102
RTVSPost2010PropOp52
 70
     0
102
RTVSPost2010Prop53
 90
        2
102
RTVSPost2010PropOp53
 70
     1
102
RTVSPost2010Prop54
  1
strokes_ogs.tif
102
RTVSPost2010PropOp54
 70
     1
102
RTVSPost2010Prop55
280
     0
102
RTVSPost2010PropOp55
 70
     1
102
RTVSPost2010Prop56
140
1.0
102
RTVSPost2010PropOp56
 70
     1
102
RTVSPost2010Prop57
140
1.0
102
RTVSPost2010PropOp57
 70
     1
102
RTVSPropertyOp0
 70
     1
102
RTVSPropertyOp1
 70
     1
102
RTVSPropertyOp2
 70
     1
102
RTVSPropertyOp3
 70
     1
102
RTVSPropertyOp4
 70
     1
102
RTVSPropertyOp5
 70
     1
102
RTVSPropertyOp6
 70
     1
102
RTVSPropertyOp7
 70
     1
102
RTVSPropertyOp8
 70
     1
102
RTVSPropertyOp9
 70
     1
102
RTVSPropertyOp10
 70
     1
102
RTVSPropertyOp11
 70
     1
102
RTVSPropertyOp12
 70
     1
102
RTVSPropertyOp13
 70
     1
102
RTVSPropertyOp14
 70
     1
102
RTVSPropertyOp15
 70
     1
102
RTVSPropertyOp16
 70
     1
102
RTVSPropertyOp17
 70
     1
102
RTVSPropertyOp18
 70
     1
102
RTVSPropertyOp19
 70
     1
102
RTVSPropertyOp20
 70
     1
102
RTVSPropertyOp21
 70
     1
102
RTVSPropertyOp22
 70
     1
102
RTVSPropertyOp23
 70
     1
102
RTVSPropertyOp24
 70
     1
102
RTVSPropertyOp25
 70
     1
102
RTVSPropertyOp26
 70
     1
102
RTVSPropertyOp27
 70
     1
102
RTVSPropertyOp28
 70
     1
102
RTVSPropertyOp29
 70
     1
102
RTVSPropertyOp30
 70
     1
102
RTVSPropertyOp31
 70
     1
102
RTVSPropertyOp32
 70
     1
102
RTVSPropertyOp33
 70
     1
102
RTVSPropertyOp34
 70
     1
102
RTVSPropertyOp35
 70
     1
102
RTVSPropertyOp36
 70
     1
102
RTVSPropertyOp37
 70
     1
102
RTVSPropertyOp38
 70
     1
102
RTVSPropertyOp39
 70
     1
102
RTVSPropertyOp40
 70
     1
102
RTVSPropertyOp41
 70
     1
102
RTVSPropertyOp42
 70
     1
102
RTVSPropertyOp43
 70
     1
102
RTVSPropertyOp44
 70
     1
102
RTVSPropertyOp45
 70
     1
102
RTVSPropertyOp46
 70
     1
102
RTVSPropertyOp47
 70
     1
102
RTVSPropertyOp48
 70
     1
102
RTVSPropertyOp49
 70
     1
102
RTVSPropertyOp50
 70
     1
102
RTVSPropertyOp51
 70
     0
102
RTVSPropertyOp52
 70
     0
102
RTVSPropertyOp53
 70
     1
102
RTVSPropertyOp54
 70
     1
102
RTVSPropertyOp55
 70
     1
102
RTVSPropertyOp56
 70
     1
102
RTVSPropertyOp57
 70
     1
102
RTVSPropertyOp58
 70
     1
102
RTVSPropertyOp59
 70
     1
102
RTVSPropertyOp60
 70
     1
102
RTVSPropertyOp61
 70
     1
102
RTVSPropertyOp62
 70
     1
  0
XRECORD
  5
1934
102
{ACAD_REACTORS
330
1933
102
}
330
1933
100
AcDbXrecord
280
     1
102
RTVSPost2010Prop28
280
     0
102
RTVSPost2010PropOp28
 70
     1
102
RTVSPost2010Prop29
280
     1
102
RTVSPost2010PropOp29
 70
     1
102
RTVSPost2010Prop30
280
     1
102
RTVSPost2010PropOp30
 70
     1
102
RTVSPost2010Prop31
280
     0
102
RTVSPost2010PropOp31
 70
     1
102
RTVSPost2010Prop32
280
     0
102
RTVSPost2010PropOp32
 70
     1
102
RTVSPost2010Prop33
280
     0
102
RTVSPost2010PropOp33
 70
     1
102
RTVSPost2010Prop34
280
     0
102
RTVSPost2010PropOp34
 70
     1
102
RTVSPost2010Prop35
280
     0
102
RTVSPost2010PropOp35
 70
     1
102
RTVSPost2010Prop36
280
     0
102
RTVSPost2010PropOp36
 70
     1
102
RTVSPost2010Prop37
 90
       50
102
RTVSPost2010PropOp37
 70
     0
102
RTVSPost2010Prop38
140
0.0
102
RTVSPost2010PropOp38
 70
     0
102
RTVSPost2010Prop39
140
1.0
102
RTVSPost2010PropOp39
 70
     0
102
RTVSPost2010Prop40
 90
        0
102
RTVSPost2010PropOp40
 70
     0
102
RTVSPost2010Prop41ColorIndex
 90
       18
102
RTVSPost2010Prop41ColorRGB
 90
        0
102
RTVSPost2010PropOp41
 70
     0
102
RTVSPost2010Prop42
 90
       50
102
RTVSPost2010PropOp42
 70
     0
102
RTVSPost2010Prop43
 90
        3
102
RTVSPost2010PropOp43
 70
     0
102
RTVSPost2010Prop44ColorIndex
 90
        5
102
RTVSPost2010Prop44ColorRGB
 90
      255
102
RTVSPost2010PropOp44
 70
     0
102
RTVSPost2010Prop45
280
     0
102
RTVSPost2010PropOp45
 70
     1
102
RTVSPost2010Prop46
 90
       50
102
RTVSPost2010PropOp46
 70
     0
102
RTVSPost2010Prop47
 90
       50
102
RTVSPost2010PropOp47
 70
     0
102
RTVSPost2010Prop48
 90
       50
102
RTVSPost2010PropOp48
 70
     0
102
RTVSPost2010Prop49
280
     0
102
RTVSPost2010PropOp49
 70
     1
102
RTVSPost2010Prop50
 90
       50
102
RTVSPost2010PropOp50
 70
     0
102
RTVSPost2010Prop51ColorIndex
 90
      256
102
RTVSPost2010Prop51ColorRGB
 90
-16777216
102
RTVSPost2010PropOp51
 70
     0
102
RTVSPost2010Prop52
140
1.0
102
RTVSPost2010PropOp52
 70
     0
102
RTVSPost2010Prop53
 90
        2
102
RTVSPost2010PropOp53
 70
     0
102
RTVSPost2010Prop54
  1
strokes_ogs.tif
102
RTVSPost2010PropOp54
 70
     0
102
RTVSPost2010Prop55
280
     0
102
RTVSPost2010PropOp55
 70
     1
102
RTVSPost2010Prop56
140
1.0
102
RTVSPost2010PropOp56
 70
     0
102
RTVSPost2010Prop57
140
1.0
102
RTVSPost2010PropOp57
 70
     0
102
RTVSPropertyOp0
 70
     0
102
RTVSPropertyOp1
 70
     0
102
RTVSPropertyOp2
 70
     0
102
RTVSPropertyOp3
 70
     0
102
RTVSPropertyOp4
 70
     0
102
RTVSPropertyOp5
 70
     0
102
RTVSPropertyOp6
 70
     0
102
RTVSPropertyOp7
 70
     0
102
RTVSPropertyOp8
 70
     0
102
RTVSPropertyOp9
 70
     0
102
RTVSPropertyOp10
 70
     0
102
RTVSPropertyOp11
 70
     0
102
RTVSPropertyOp12
 70
     0
102
RTVSPropertyOp13
 70
     0
102
RTVSPropertyOp14
 70
     2
102
RTVSPropertyOp15
 70
     0
102
RTVSPropertyOp16
 70
     0
102
RTVSPropertyOp17
 70
     0
102
RTVSPropertyOp18
 70
     0
102
RTVSPropertyOp19
 70
     0
102
RTVSPropertyOp20
 70
     0
102
RTVSPropertyOp21
 70
     0
102
RTVSPropertyOp22
 70
     0
102
RTVSPropertyOp23
 70
     0
102
RTVSPropertyOp24
 70
     0
102
RTVSPropertyOp25
 70
     0
102
RTVSPropertyOp26
 70
     0
102
RTVSPropertyOp27
 70
     0
102
RTVSPropertyOp28
 70
     1
102
RTVSPropertyOp29
 70
     1
102
RTVSPropertyOp30
 70
     1
102
RTVSPropertyOp31
 70
     1
102
RTVSPropertyOp32
 70
     1
102
RTVSPropertyOp33
 70
     1
102
RTVSPropertyOp34
 70
     1
102
RTVSPropertyOp35
 70
     1
102
RTVSPropertyOp36
 70
     1
102
RTVSPropertyOp37
 70
     0
102
RTVSPropertyOp38
 70
     0
102
RTVSPropertyOp39
 70
     0
102
RTVSPropertyOp40
 70
     0
102
RTVSPropertyOp41
 70
     0
102
RTVSPropertyOp42
 70
     0
102
RTVSPropertyOp43
 70
     0
102
RTVSPropertyOp44
 70
     0
102
RTVSPropertyOp45
 70
     1
102
RTVSPropertyOp46
 70
     0
102
RTVSPropertyOp47
 70
     0
102
RTVSPropertyOp48
 70
     0
102
RTVSPropertyOp49
 70
     1
102
RTVSPropertyOp50
 70
     0
102
RTVSPropertyOp51
 70
     0
102
RTVSPropertyOp52
 70
     0
102
RTVSPropertyOp53
 70
     0
102
RTVSPropertyOp54
 70
     0
102
RTVSPropertyOp55
 70
     1
102
RTVSPropertyOp56
 70
     0
102
RTVSPropertyOp57
 70
     0
102
RTVSPropertyOp58
 70
     0
102
RTVSPropertyOp59
 70
     0
102
RTVSPropertyOp60
 70
     0
102
RTVSPropertyOp61
 70
     0
102
RTVSPropertyOp62
 70
     0
  0
XRECORD
  5
191A
102
{ACAD_REACTORS
330
1919
102
}
330
1919
100
AcDbXrecord
280
     1
102
RTVSPost2010Prop28
280
     0
102
RTVSPost2010PropOp28
 70
     1
102
RTVSPost2010Prop29
280
     1
102
RTVSPost2010PropOp29
 70
     1
102
RTVSPost2010Prop30
280
     1
102
RTVSPost2010PropOp30
 70
     1
102
RTVSPost2010Prop31
280
     0
102
RTVSPost2010PropOp31
 70
     1
102
RTVSPost2010Prop32
280
     0
102
RTVSPost2010PropOp32
 70
     1
102
RTVSPost2010Prop33
280
     0
102
RTVSPost2010PropOp33
 70
     1
102
RTVSPost2010Prop34
280
     0
102
RTVSPost2010PropOp34
 70
     1
102
RTVSPost2010Prop35
280
     0
102
RTVSPost2010PropOp35
 70
     1
102
RTVSPost2010Prop36
280
     0
102
RTVSPost2010PropOp36
 70
     1
102
RTVSPost2010Prop37
 90
       50
102
RTVSPost2010PropOp37
 70
     1
102
RTVSPost2010Prop38
140
0.0
102
RTVSPost2010PropOp38
 70
     1
102
RTVSPost2010Prop39
140
1.0
102
RTVSPost2010PropOp39
 70
     1
102
RTVSPost2010Prop40
 90
        0
102
RTVSPost2010PropOp40
 70
     1
102
RTVSPost2010Prop41ColorIndex
 90
       18
102
RTVSPost2010Prop41ColorRGB
 90
        0
102
RTVSPost2010PropOp41
 70
     1
102
RTVSPost2010Prop42
 90
       50
102
RTVSPost2010PropOp42
 70
     1
102
RTVSPost2010Prop43
 90
        3
102
RTVSPost2010PropOp43
 70
     1
102
RTVSPost2010Prop44ColorIndex
 90
        5
102
RTVSPost2010Prop44ColorRGB
 90
      255
102
RTVSPost2010PropOp44
 70
     1
102
RTVSPost2010Prop45
280
     0
102
RTVSPost2010PropOp45
 70
     1
102
RTVSPost2010Prop46
 90
       50
102
RTVSPost2010PropOp46
 70
     1
102
RTVSPost2010Prop47
 90
       50
102
RTVSPost2010PropOp47
 70
     1
102
RTVSPost2010Prop48
 90
       50
102
RTVSPost2010PropOp48
 70
     1
102
RTVSPost2010Prop49
280
     0
102
RTVSPost2010PropOp49
 70
     1
102
RTVSPost2010Prop50
 90
       50
102
RTVSPost2010PropOp50
 70
     1
102
RTVSPost2010Prop51ColorIndex
 90
      256
102
RTVSPost2010Prop51ColorRGB
 90
-16777216
102
RTVSPost2010PropOp51
 70
     0
102
RTVSPost2010Prop52
140
1.0
102
RTVSPost2010PropOp52
 70
     0
102
RTVSPost2010Prop53
 90
        2
102
RTVSPost2010PropOp53
 70
     1
102
RTVSPost2010Prop54
  1
strokes_ogs.tif
102
RTVSPost2010PropOp54
 70
     1
102
RTVSPost2010Prop55
280
     0
102
RTVSPost2010PropOp55
 70
     1
102
RTVSPost2010Prop56
140
1.0
102
RTVSPost2010PropOp56
 70
     1
102
RTVSPost2010Prop57
140
1.0
102
RTVSPost2010PropOp57
 70
     1
102
RTVSPropertyOp0
 70
     1
102
RTVSPropertyOp1
 70
     1
102
RTVSPropertyOp2
 70
     1
102
RTVSPropertyOp3
 70
     1
102
RTVSPropertyOp4
 70
     1
102
RTVSPropertyOp5
 70
     1
102
RTVSPropertyOp6
 70
     1
102
RTVSPropertyOp7
 70
     1
102
RTVSPropertyOp8
 70
     1
102
RTVSPropertyOp9
 70
     1
102
RTVSPropertyOp10
 70
     1
102
RTVSPropertyOp11
 70
     1
102
RTVSPropertyOp12
 70
     1
102
RTVSPropertyOp13
 70
     1
102
RTVSPropertyOp14
 70
     1
102
RTVSPropertyOp15
 70
     1
102
RTVSPropertyOp16
 70
     1
102
RTVSPropertyOp17
 70
     1
102
RTVSPropertyOp18
 70
     1
102
RTVSPropertyOp19
 70
     1
102
RTVSPropertyOp20
 70
     1
102
RTVSPropertyOp21
 70
     1
102
RTVSPropertyOp22
 70
     1
102
RTVSPropertyOp23
 70
     1
102
RTVSPropertyOp24
 70
     1
102
RTVSPropertyOp25
 70
     1
102
RTVSPropertyOp26
 70
     1
102
RTVSPropertyOp27
 70
     1
102
RTVSPropertyOp28
 70
     1
102
RTVSPropertyOp29
 70
     1
102
RTVSPropertyOp30
 70
     1
102
RTVSPropertyOp31
 70
     1
102
RTVSPropertyOp32
 70
     1
102
RTVSPropertyOp33
 70
     1
102
RTVSPropertyOp34
 70
     1
102
RTVSPropertyOp35
 70
     1
102
RTVSPropertyOp36
 70
     1
102
RTVSPropertyOp37
 70
     1
102
RTVSPropertyOp38
 70
     1
102
RTVSPropertyOp39
 70
     1
102
RTVSPropertyOp40
 70
     1
102
RTVSPropertyOp41
 70
     1
102
RTVSPropertyOp42
 70
     1
102
RTVSPropertyOp43
 70
     1
102
RTVSPropertyOp44
 70
     1
102
RTVSPropertyOp45
 70
     1
102
RTVSPropertyOp46
 70
     1
102
RTVSPropertyOp47
 70
     1
102
RTVSPropertyOp48
 70
     1
102
RTVSPropertyOp49
 70
     1
102
RTVSPropertyOp50
 70
     1
102
RTVSPropertyOp51
 70
     0
102
RTVSPropertyOp52
 70
     0
102
RTVSPropertyOp53
 70
     1
102
RTVSPropertyOp54
 70
     1
102
RTVSPropertyOp55
 70
     1
102
RTVSPropertyOp56
 70
     1
102
RTVSPropertyOp57
 70
     1
102
RTVSPropertyOp58
 70
     1
102
RTVSPropertyOp59
 70
     1
102
RTVSPropertyOp60
 70
     1
102
RTVSPropertyOp61
 70
     1
102
RTVSPropertyOp62
 70
     1
  0
XRECORD
  5
1930
102
{ACAD_REACTORS
330
192F
102
}
330
192F
100
AcDbXrecord
280
     1
102
RTVSPost2010Prop28
280
     0
102
RTVSPost2010PropOp28
 70
     1
102
RTVSPost2010Prop29
280
     1
102
RTVSPost2010PropOp29
 70
     1
102
RTVSPost2010Prop30
280
     1
102
RTVSPost2010PropOp30
 70
     1
102
RTVSPost2010Prop31
280
     0
102
RTVSPost2010PropOp31
 70
     1
102
RTVSPost2010Prop32
280
     0
102
RTVSPost2010PropOp32
 70
     1
102
RTVSPost2010Prop33
280
     0
102
RTVSPost2010PropOp33
 70
     1
102
RTVSPost2010Prop34
280
     0
102
RTVSPost2010PropOp34
 70
     1
102
RTVSPost2010Prop35
280
     0
102
RTVSPost2010PropOp35
 70
     1
102
RTVSPost2010Prop36
280
     0
102
RTVSPost2010PropOp36
 70
     1
102
RTVSPost2010Prop37
 90
       50
102
RTVSPost2010PropOp37
 70
     1
102
RTVSPost2010Prop38
140
0.0
102
RTVSPost2010PropOp38
 70
     1
102
RTVSPost2010Prop39
140
1.0
102
RTVSPost2010PropOp39
 70
     1
102
RTVSPost2010Prop40
 90
        0
102
RTVSPost2010PropOp40
 70
     1
102
RTVSPost2010Prop41ColorIndex
 90
       18
102
RTVSPost2010Prop41ColorRGB
 90
        0
102
RTVSPost2010PropOp41
 70
     1
102
RTVSPost2010Prop42
 90
       50
102
RTVSPost2010PropOp42
 70
     1
102
RTVSPost2010Prop43
 90
        3
102
RTVSPost2010PropOp43
 70
     1
102
RTVSPost2010Prop44ColorIndex
 90
        5
102
RTVSPost2010Prop44ColorRGB
 90
      255
102
RTVSPost2010PropOp44
 70
     1
102
RTVSPost2010Prop45
280
     0
102
RTVSPost2010PropOp45
 70
     1
102
RTVSPost2010Prop46
 90
       50
102
RTVSPost2010PropOp46
 70
     1
102
RTVSPost2010Prop47
 90
       50
102
RTVSPost2010PropOp47
 70
     1
102
RTVSPost2010Prop48
 90
       50
102
RTVSPost2010PropOp48
 70
     1
102
RTVSPost2010Prop49
280
     0
102
RTVSPost2010PropOp49
 70
     1
102
RTVSPost2010Prop50
 90
       50
102
RTVSPost2010PropOp50
 70
     1
102
RTVSPost2010Prop51ColorIndex
 90
      256
102
RTVSPost2010Prop51ColorRGB
 90
-16777216
102
RTVSPost2010PropOp51
 70
     0
102
RTVSPost2010Prop52
140
1.0
102
RTVSPost2010PropOp52
 70
     0
102
RTVSPost2010Prop53
 90
        2
102
RTVSPost2010PropOp53
 70
     1
102
RTVSPost2010Prop54
  1
strokes_ogs.tif
102
RTVSPost2010PropOp54
 70
     1
102
RTVSPost2010Prop55
280
     0
102
RTVSPost2010PropOp55
 70
     1
102
RTVSPost2010Prop56
140
1.0
102
RTVSPost2010PropOp56
 70
     1
102
RTVSPost2010Prop57
140
1.0
102
RTVSPost2010PropOp57
 70
     1
102
RTVSPropertyOp0
 70
     1
102
RTVSPropertyOp1
 70
     1
102
RTVSPropertyOp2
 70
     1
102
RTVSPropertyOp3
 70
     1
102
RTVSPropertyOp4
 70
     1
102
RTVSPropertyOp5
 70
     1
102
RTVSPropertyOp6
 70
     1
102
RTVSPropertyOp7
 70
     1
102
RTVSPropertyOp8
 70
     1
102
RTVSPropertyOp9
 70
     1
102
RTVSPropertyOp10
 70
     1
102
RTVSPropertyOp11
 70
     1
102
RTVSPropertyOp12
 70
     1
102
RTVSPropertyOp13
 70
     1
102
RTVSPropertyOp14
 70
     1
102
RTVSPropertyOp15
 70
     1
102
RTVSPropertyOp16
 70
     1
102
RTVSPropertyOp17
 70
     1
102
RTVSPropertyOp18
 70
     1
102
RTVSPropertyOp19
 70
     1
102
RTVSPropertyOp20
 70
     1
102
RTVSPropertyOp21
 70
     1
102
RTVSPropertyOp22
 70
     1
102
RTVSPropertyOp23
 70
     1
102
RTVSPropertyOp24
 70
     1
102
RTVSPropertyOp25
 70
     1
102
RTVSPropertyOp26
 70
     1
102
RTVSPropertyOp27
 70
     1
102
RTVSPropertyOp28
 70
     1
102
RTVSPropertyOp29
 70
     1
102
RTVSPropertyOp30
 70
     1
102
RTVSPropertyOp31
 70
     1
102
RTVSPropertyOp32
 70
     1
102
RTVSPropertyOp33
 70
     1
102
RTVSPropertyOp34
 70
     1
102
RTVSPropertyOp35
 70
     1
102
RTVSPropertyOp36
 70
     1
102
RTVSPropertyOp37
 70
     1
102
RTVSPropertyOp38
 70
     1
102
RTVSPropertyOp39
 70
     1
102
RTVSPropertyOp40
 70
     1
102
RTVSPropertyOp41
 70
     1
102
RTVSPropertyOp42
 70
     1
102
RTVSPropertyOp43
 70
     1
102
RTVSPropertyOp44
 70
     1
102
RTVSPropertyOp45
 70
     1
102
RTVSPropertyOp46
 70
     1
102
RTVSPropertyOp47
 70
     1
102
RTVSPropertyOp48
 70
     1
102
RTVSPropertyOp49
 70
     1
102
RTVSPropertyOp50
 70
     1
102
RTVSPropertyOp51
 70
     0
102
RTVSPropertyOp52
 70
     0
102
RTVSPropertyOp53
 70
     1
102
RTVSPropertyOp54
 70
     1
102
RTVSPropertyOp55
 70
     1
102
RTVSPropertyOp56
 70
     1
102
RTVSPropertyOp57
 70
     1
102
RTVSPropertyOp58
 70
     1
102
RTVSPropertyOp59
 70
     1
102
RTVSPropertyOp60
 70
     1
102
RTVSPropertyOp61
 70
     1
102
RTVSPropertyOp62
 70
     1
  0
XRECORD
  5
192E
102
{ACAD_REACTORS
330
192D
102
}
330
192D
100
AcDbXrecord
280
     1
102
RTVSPost2010Prop28
280
     0
102
RTVSPost2010PropOp28
 70
     1
102
RTVSPost2010Prop29
280
     1
102
RTVSPost2010PropOp29
 70
     1
102
RTVSPost2010Prop30
280
     1
102
RTVSPost2010PropOp30
 70
     1
102
RTVSPost2010Prop31
280
     0
102
RTVSPost2010PropOp31
 70
     1
102
RTVSPost2010Prop32
280
     0
102
RTVSPost2010PropOp32
 70
     1
102
RTVSPost2010Prop33
280
     0
102
RTVSPost2010PropOp33
 70
     1
102
RTVSPost2010Prop34
280
     0
102
RTVSPost2010PropOp34
 70
     1
102
RTVSPost2010Prop35
280
     0
102
RTVSPost2010PropOp35
 70
     1
102
RTVSPost2010Prop36
280
     0
102
RTVSPost2010PropOp36
 70
     1
102
RTVSPost2010Prop37
 90
       50
102
RTVSPost2010PropOp37
 70
     1
102
RTVSPost2010Prop38
140
0.0
102
RTVSPost2010PropOp38
 70
     1
102
RTVSPost2010Prop39
140
1.0
102
RTVSPost2010PropOp39
 70
     1
102
RTVSPost2010Prop40
 90
        0
102
RTVSPost2010PropOp40
 70
     1
102
RTVSPost2010Prop41ColorIndex
 90
       18
102
RTVSPost2010Prop41ColorRGB
 90
        0
102
RTVSPost2010PropOp41
 70
     1
102
RTVSPost2010Prop42
 90
       50
102
RTVSPost2010PropOp42
 70
     1
102
RTVSPost2010Prop43
 90
        3
102
RTVSPost2010PropOp43
 70
     1
102
RTVSPost2010Prop44ColorIndex
 90
        5
102
RTVSPost2010Prop44ColorRGB
 90
      255
102
RTVSPost2010PropOp44
 70
     1
102
RTVSPost2010Prop45
280
     0
102
RTVSPost2010PropOp45
 70
     1
102
RTVSPost2010Prop46
 90
       50
102
RTVSPost2010PropOp46
 70
     1
102
RTVSPost2010Prop47
 90
       50
102
RTVSPost2010PropOp47
 70
     1
102
RTVSPost2010Prop48
 90
       50
102
RTVSPost2010PropOp48
 70
     1
102
RTVSPost2010Prop49
280
     0
102
RTVSPost2010PropOp49
 70
     1
102
RTVSPost2010Prop50
 90
       50
102
RTVSPost2010PropOp50
 70
     1
102
RTVSPost2010Prop51ColorIndex
 90
      256
102
RTVSPost2010Prop51ColorRGB
 90
-16777216
102
RTVSPost2010PropOp51
 70
     0
102
RTVSPost2010Prop52
140
1.0
102
RTVSPost2010PropOp52
 70
     0
102
RTVSPost2010Prop53
 90
        2
102
RTVSPost2010PropOp53
 70
     1
102
RTVSPost2010Prop54
  1
strokes_ogs.tif
102
RTVSPost2010PropOp54
 70
     1
102
RTVSPost2010Prop55
280
     0
102
RTVSPost2010PropOp55
 70
     1
102
RTVSPost2010Prop56
140
1.0
102
RTVSPost2010PropOp56
 70
     1
102
RTVSPost2010Prop57
140
1.0
102
RTVSPost2010PropOp57
 70
     1
102
RTVSPropertyOp0
 70
     1
102
RTVSPropertyOp1
 70
     1
102
RTVSPropertyOp2
 70
     1
102
RTVSPropertyOp3
 70
     1
102
RTVSPropertyOp4
 70
     1
102
RTVSPropertyOp5
 70
     1
102
RTVSPropertyOp6
 70
     1
102
RTVSPropertyOp7
 70
     1
102
RTVSPropertyOp8
 70
     1
102
RTVSPropertyOp9
 70
     1
102
RTVSPropertyOp10
 70
     1
102
RTVSPropertyOp11
 70
     1
102
RTVSPropertyOp12
 70
     1
102
RTVSPropertyOp13
 70
     1
102
RTVSPropertyOp14
 70
     1
102
RTVSPropertyOp15
 70
     1
102
RTVSPropertyOp16
 70
     1
102
RTVSPropertyOp17
 70
     1
102
RTVSPropertyOp18
 70
     1
102
RTVSPropertyOp19
 70
     1
102
RTVSPropertyOp20
 70
     1
102
RTVSPropertyOp21
 70
     1
102
RTVSPropertyOp22
 70
     1
102
RTVSPropertyOp23
 70
     1
102
RTVSPropertyOp24
 70
     1
102
RTVSPropertyOp25
 70
     1
102
RTVSPropertyOp26
 70
     1
102
RTVSPropertyOp27
 70
     1
102
RTVSPropertyOp28
 70
     1
102
RTVSPropertyOp29
 70
     1
102
RTVSPropertyOp30
 70
     1
102
RTVSPropertyOp31
 70
     1
102
RTVSPropertyOp32
 70
     1
102
RTVSPropertyOp33
 70
     1
102
RTVSPropertyOp34
 70
     1
102
RTVSPropertyOp35
 70
     1
102
RTVSPropertyOp36
 70
     1
102
RTVSPropertyOp37
 70
     1
102
RTVSPropertyOp38
 70
     1
102
RTVSPropertyOp39
 70
     1
102
RTVSPropertyOp40
 70
     1
102
RTVSPropertyOp41
 70
     1
102
RTVSPropertyOp42
 70
     1
102
RTVSPropertyOp43
 70
     1
102
RTVSPropertyOp44
 70
     1
102
RTVSPropertyOp45
 70
     1
102
RTVSPropertyOp46
 70
     1
102
RTVSPropertyOp47
 70
     1
102
RTVSPropertyOp48
 70
     1
102
RTVSPropertyOp49
 70
     1
102
RTVSPropertyOp50
 70
     1
102
RTVSPropertyOp51
 70
     0
102
RTVSPropertyOp52
 70
     0
102
RTVSPropertyOp53
 70
     1
102
RTVSPropertyOp54
 70
     1
102
RTVSPropertyOp55
 70
     1
102
RTVSPropertyOp56
 70
     1
102
RTVSPropertyOp57
 70
     1
102
RTVSPropertyOp58
 70
     1
102
RTVSPropertyOp59
 70
     1
102
RTVSPropertyOp60
 70
     1
102
RTVSPropertyOp61
 70
     1
102
RTVSPropertyOp62
 70
     1
  0
XRECORD
  5
1928
102
{ACAD_REACTORS
330
1927
102
}
330
1927
100
AcDbXrecord
280
     1
102
RTVSPost2010Prop28
280
     0
102
RTVSPost2010PropOp28
 70
     1
102
RTVSPost2010Prop29
280
     1
102
RTVSPost2010PropOp29
 70
     1
102
RTVSPost2010Prop30
280
     1
102
RTVSPost2010PropOp30
 70
     1
102
RTVSPost2010Prop31
280
     0
102
RTVSPost2010PropOp31
 70
     1
102
RTVSPost2010Prop32
280
     0
102
RTVSPost2010PropOp32
 70
     1
102
RTVSPost2010Prop33
280
     0
102
RTVSPost2010PropOp33
 70
     1
102
RTVSPost2010Prop34
280
     0
102
RTVSPost2010PropOp34
 70
     1
102
RTVSPost2010Prop35
280
     0
102
RTVSPost2010PropOp35
 70
     1
102
RTVSPost2010Prop36
280
     0
102
RTVSPost2010PropOp36
 70
     1
102
RTVSPost2010Prop37
 90
       50
102
RTVSPost2010PropOp37
 70
     1
102
RTVSPost2010Prop38
140
0.0
102
RTVSPost2010PropOp38
 70
     1
102
RTVSPost2010Prop39
140
1.0
102
RTVSPost2010PropOp39
 70
     1
102
RTVSPost2010Prop40
 90
        0
102
RTVSPost2010PropOp40
 70
     1
102
RTVSPost2010Prop41ColorIndex
 90
       18
102
RTVSPost2010Prop41ColorRGB
 90
        0
102
RTVSPost2010PropOp41
 70
     1
102
RTVSPost2010Prop42
 90
       50
102
RTVSPost2010PropOp42
 70
     1
102
RTVSPost2010Prop43
 90
        3
102
RTVSPost2010PropOp43
 70
     1
102
RTVSPost2010Prop44ColorIndex
 90
        5
102
RTVSPost2010Prop44ColorRGB
 90
      255
102
RTVSPost2010PropOp44
 70
     1
102
RTVSPost2010Prop45
280
     0
102
RTVSPost2010PropOp45
 70
     1
102
RTVSPost2010Prop46
 90
       50
102
RTVSPost2010PropOp46
 70
     1
102
RTVSPost2010Prop47
 90
       50
102
RTVSPost2010PropOp47
 70
     1
102
RTVSPost2010Prop48
 90
       50
102
RTVSPost2010PropOp48
 70
     1
102
RTVSPost2010Prop49
280
     0
102
RTVSPost2010PropOp49
 70
     1
102
RTVSPost2010Prop50
 90
       50
102
RTVSPost2010PropOp50
 70
     1
102
RTVSPost2010Prop51ColorIndex
 90
      256
102
RTVSPost2010Prop51ColorRGB
 90
-16777216
102
RTVSPost2010PropOp51
 70
     0
102
RTVSPost2010Prop52
140
1.0
102
RTVSPost2010PropOp52
 70
     0
102
RTVSPost2010Prop53
 90
        2
102
RTVSPost2010PropOp53
 70
     1
102
RTVSPost2010Prop54
  1
strokes_ogs.tif
102
RTVSPost2010PropOp54
 70
     1
102
RTVSPost2010Prop55
280
     0
102
RTVSPost2010PropOp55
 70
     1
102
RTVSPost2010Prop56
140
1.0
102
RTVSPost2010PropOp56
 70
     1
102
RTVSPost2010Prop57
140
1.0
102
RTVSPost2010PropOp57
 70
     1
102
RTVSPropertyOp0
 70
     1
102
RTVSPropertyOp1
 70
     1
102
RTVSPropertyOp2
 70
     1
102
RTVSPropertyOp3
 70
     1
102
RTVSPropertyOp4
 70
     1
102
RTVSPropertyOp5
 70
     1
102
RTVSPropertyOp6
 70
     1
102
RTVSPropertyOp7
 70
     1
102
RTVSPropertyOp8
 70
     1
102
RTVSPropertyOp9
 70
     1
102
RTVSPropertyOp10
 70
     1
102
RTVSPropertyOp11
 70
     1
102
RTVSPropertyOp12
 70
     1
102
RTVSPropertyOp13
 70
     1
102
RTVSPropertyOp14
 70
     1
102
RTVSPropertyOp15
 70
     1
102
RTVSPropertyOp16
 70
     1
102
RTVSPropertyOp17
 70
     1
102
RTVSPropertyOp18
 70
     1
102
RTVSPropertyOp19
 70
     1
102
RTVSPropertyOp20
 70
     1
102
RTVSPropertyOp21
 70
     1
102
RTVSPropertyOp22
 70
     1
102
RTVSPropertyOp23
 70
     1
102
RTVSPropertyOp24
 70
     1
102
RTVSPropertyOp25
 70
     1
102
RTVSPropertyOp26
 70
     1
102
RTVSPropertyOp27
 70
     1
102
RTVSPropertyOp28
 70
     1
102
RTVSPropertyOp29
 70
     1
102
RTVSPropertyOp30
 70
     1
102
RTVSPropertyOp31
 70
     1
102
RTVSPropertyOp32
 70
     1
102
RTVSPropertyOp33
 70
     1
102
RTVSPropertyOp34
 70
     1
102
RTVSPropertyOp35
 70
     1
102
RTVSPropertyOp36
 70
     1
102
RTVSPropertyOp37
 70
     1
102
RTVSPropertyOp38
 70
     1
102
RTVSPropertyOp39
 70
     1
102
RTVSPropertyOp40
 70
     1
102
RTVSPropertyOp41
 70
     1
102
RTVSPropertyOp42
 70
     1
102
RTVSPropertyOp43
 70
     1
102
RTVSPropertyOp44
 70
     1
102
RTVSPropertyOp45
 70
     1
102
RTVSPropertyOp46
 70
     1
102
RTVSPropertyOp47
 70
     1
102
RTVSPropertyOp48
 70
     1
102
RTVSPropertyOp49
 70
     1
102
RTVSPropertyOp50
 70
     1
102
RTVSPropertyOp51
 70
     0
102
RTVSPropertyOp52
 70
     0
102
RTVSPropertyOp53
 70
     1
102
RTVSPropertyOp54
 70
     1
102
RTVSPropertyOp55
 70
     1
102
RTVSPropertyOp56
 70
     1
102
RTVSPropertyOp57
 70
     1
102
RTVSPropertyOp58
 70
     1
102
RTVSPropertyOp59
 70
     1
102
RTVSPropertyOp60
 70
     1
102
RTVSPropertyOp61
 70
     1
102
RTVSPropertyOp62
 70
     1
  0
XRECORD
  5
192A
102
{ACAD_REACTORS
330
1929
102
}
330
1929
100
AcDbXrecord
280
     1
102
RTVSPost2010Prop28
280
     0
102
RTVSPost2010PropOp28
 70
     1
102
RTVSPost2010Prop29
280
     1
102
RTVSPost2010PropOp29
 70
     1
102
RTVSPost2010Prop30
280
     1
102
RTVSPost2010PropOp30
 70
     1
102
RTVSPost2010Prop31
280
     0
102
RTVSPost2010PropOp31
 70
     1
102
RTVSPost2010Prop32
280
     0
102
RTVSPost2010PropOp32
 70
     1
102
RTVSPost2010Prop33
280
     0
102
RTVSPost2010PropOp33
 70
     1
102
RTVSPost2010Prop34
280
     0
102
RTVSPost2010PropOp34
 70
     1
102
RTVSPost2010Prop35
280
     0
102
RTVSPost2010PropOp35
 70
     1
102
RTVSPost2010Prop36
280
     0
102
RTVSPost2010PropOp36
 70
     1
102
RTVSPost2010Prop37
 90
       50
102
RTVSPost2010PropOp37
 70
     1
102
RTVSPost2010Prop38
140
0.0
102
RTVSPost2010PropOp38
 70
     1
102
RTVSPost2010Prop39
140
1.0
102
RTVSPost2010PropOp39
 70
     1
102
RTVSPost2010Prop40
 90
        0
102
RTVSPost2010PropOp40
 70
     1
102
RTVSPost2010Prop41ColorIndex
 90
       18
102
RTVSPost2010Prop41ColorRGB
 90
        0
102
RTVSPost2010PropOp41
 70
     1
102
RTVSPost2010Prop42
 90
       50
102
RTVSPost2010PropOp42
 70
     1
102
RTVSPost2010Prop43
 90
        3
102
RTVSPost2010PropOp43
 70
     1
102
RTVSPost2010Prop44ColorIndex
 90
        5
102
RTVSPost2010Prop44ColorRGB
 90
      255
102
RTVSPost2010PropOp44
 70
     1
102
RTVSPost2010Prop45
280
     0
102
RTVSPost2010PropOp45
 70
     1
102
RTVSPost2010Prop46
 90
       50
102
RTVSPost2010PropOp46
 70
     1
102
RTVSPost2010Prop47
 90
       50
102
RTVSPost2010PropOp47
 70
     1
102
RTVSPost2010Prop48
 90
       50
102
RTVSPost2010PropOp48
 70
     1
102
RTVSPost2010Prop49
280
     0
102
RTVSPost2010PropOp49
 70
     1
102
RTVSPost2010Prop50
 90
       50
102
RTVSPost2010PropOp50
 70
     1
102
RTVSPost2010Prop51ColorIndex
 90
      256
102
RTVSPost2010Prop51ColorRGB
 90
-16777216
102
RTVSPost2010PropOp51
 70
     0
102
RTVSPost2010Prop52
140
1.0
102
RTVSPost2010PropOp52
 70
     0
102
RTVSPost2010Prop53
 90
        2
102
RTVSPost2010PropOp53
 70
     1
102
RTVSPost2010Prop54
  1
strokes_ogs.tif
102
RTVSPost2010PropOp54
 70
     1
102
RTVSPost2010Prop55
280
     0
102
RTVSPost2010PropOp55
 70
     1
102
RTVSPost2010Prop56
140
1.0
102
RTVSPost2010PropOp56
 70
     1
102
RTVSPost2010Prop57
140
1.0
102
RTVSPost2010PropOp57
 70
     1
102
RTVSPropertyOp0
 70
     1
102
RTVSPropertyOp1
 70
     1
102
RTVSPropertyOp2
 70
     1
102
RTVSPropertyOp3
 70
     1
102
RTVSPropertyOp4
 70
     1
102
RTVSPropertyOp5
 70
     1
102
RTVSPropertyOp6
 70
     1
102
RTVSPropertyOp7
 70
     1
102
RTVSPropertyOp8
 70
     1
102
RTVSPropertyOp9
 70
     1
102
RTVSPropertyOp10
 70
     1
102
RTVSPropertyOp11
 70
     1
102
RTVSPropertyOp12
 70
     1
102
RTVSPropertyOp13
 70
     1
102
RTVSPropertyOp14
 70
     1
102
RTVSPropertyOp15
 70
     1
102
RTVSPropertyOp16
 70
     1
102
RTVSPropertyOp17
 70
     1
102
RTVSPropertyOp18
 70
     1
102
RTVSPropertyOp19
 70
     1
102
RTVSPropertyOp20
 70
     1
102
RTVSPropertyOp21
 70
     1
102
RTVSPropertyOp22
 70
     1
102
RTVSPropertyOp23
 70
     1
102
RTVSPropertyOp24
 70
     1
102
RTVSPropertyOp25
 70
     1
102
RTVSPropertyOp26
 70
     1
102
RTVSPropertyOp27
 70
     1
102
RTVSPropertyOp28
 70
     1
102
RTVSPropertyOp29
 70
     1
102
RTVSPropertyOp30
 70
     1
102
RTVSPropertyOp31
 70
     1
102
RTVSPropertyOp32
 70
     1
102
RTVSPropertyOp33
 70
     1
102
RTVSPropertyOp34
 70
     1
102
RTVSPropertyOp35
 70
     1
102
RTVSPropertyOp36
 70
     1
102
RTVSPropertyOp37
 70
     1
102
RTVSPropertyOp38
 70
     1
102
RTVSPropertyOp39
 70
     1
102
RTVSPropertyOp40
 70
     1
102
RTVSPropertyOp41
 70
     1
102
RTVSPropertyOp42
 70
     1
102
RTVSPropertyOp43
 70
     1
102
RTVSPropertyOp44
 70
     1
102
RTVSPropertyOp45
 70
     1
102
RTVSPropertyOp46
 70
     1
102
RTVSPropertyOp47
 70
     1
102
RTVSPropertyOp48
 70
     1
102
RTVSPropertyOp49
 70
     1
102
RTVSPropertyOp50
 70
     1
102
RTVSPropertyOp51
 70
     0
102
RTVSPropertyOp52
 70
     0
102
RTVSPropertyOp53
 70
     1
102
RTVSPropertyOp54
 70
     1
102
RTVSPropertyOp55
 70
     1
102
RTVSPropertyOp56
 70
     1
102
RTVSPropertyOp57
 70
     1
102
RTVSPropertyOp58
 70
     1
102
RTVSPropertyOp59
 70
     1
102
RTVSPropertyOp60
 70
     1
102
RTVSPropertyOp61
 70
     1
102
RTVSPropertyOp62
 70
     1
  0
XRECORD
  5
1920
102
{ACAD_REACTORS
330
191F
102
}
330
191F
100
AcDbXrecord
280
     1
102
RTVSPost2010Prop28
280
     0
102
RTVSPost2010PropOp28
 70
     1
102
RTVSPost2010Prop29
280
     1
102
RTVSPost2010PropOp29
 70
     1
102
RTVSPost2010Prop30
280
     1
102
RTVSPost2010PropOp30
 70
     1
102
RTVSPost2010Prop31
280
     0
102
RTVSPost2010PropOp31
 70
     1
102
RTVSPost2010Prop32
280
     0
102
RTVSPost2010PropOp32
 70
     1
102
RTVSPost2010Prop33
280
     0
102
RTVSPost2010PropOp33
 70
     1
102
RTVSPost2010Prop34
280
     0
102
RTVSPost2010PropOp34
 70
     1
102
RTVSPost2010Prop35
280
     0
102
RTVSPost2010PropOp35
 70
     1
102
RTVSPost2010Prop36
280
     0
102
RTVSPost2010PropOp36
 70
     1
102
RTVSPost2010Prop37
 90
       50
102
RTVSPost2010PropOp37
 70
     1
102
RTVSPost2010Prop38
140
0.0
102
RTVSPost2010PropOp38
 70
     1
102
RTVSPost2010Prop39
140
1.0
102
RTVSPost2010PropOp39
 70
     1
102
RTVSPost2010Prop40
 90
        0
102
RTVSPost2010PropOp40
 70
     1
102
RTVSPost2010Prop41ColorIndex
 90
       18
102
RTVSPost2010Prop41ColorRGB
 90
        0
102
RTVSPost2010PropOp41
 70
     1
102
RTVSPost2010Prop42
 90
       50
102
RTVSPost2010PropOp42
 70
     1
102
RTVSPost2010Prop43
 90
        3
102
RTVSPost2010PropOp43
 70
     1
102
RTVSPost2010Prop44ColorIndex
 90
        5
102
RTVSPost2010Prop44ColorRGB
 90
      255
102
RTVSPost2010PropOp44
 70
     1
102
RTVSPost2010Prop45
280
     0
102
RTVSPost2010PropOp45
 70
     1
102
RTVSPost2010Prop46
 90
       50
102
RTVSPost2010PropOp46
 70
     1
102
RTVSPost2010Prop47
 90
       50
102
RTVSPost2010PropOp47
 70
     1
102
RTVSPost2010Prop48
 90
       50
102
RTVSPost2010PropOp48
 70
     1
102
RTVSPost2010Prop49
280
     0
102
RTVSPost2010PropOp49
 70
     1
102
RTVSPost2010Prop50
 90
       50
102
RTVSPost2010PropOp50
 70
     1
102
RTVSPost2010Prop51ColorIndex
 90
      256
102
RTVSPost2010Prop51ColorRGB
 90
-16777216
102
RTVSPost2010PropOp51
 70
     0
102
RTVSPost2010Prop52
140
1.0
102
RTVSPost2010PropOp52
 70
     0
102
RTVSPost2010Prop53
 90
        2
102
RTVSPost2010PropOp53
 70
     1
102
RTVSPost2010Prop54
  1
strokes_ogs.tif
102
RTVSPost2010PropOp54
 70
     1
102
RTVSPost2010Prop55
280
     0
102
RTVSPost2010PropOp55
 70
     1
102
RTVSPost2010Prop56
140
1.0
102
RTVSPost2010PropOp56
 70
     1
102
RTVSPost2010Prop57
140
1.0
102
RTVSPost2010PropOp57
 70
     1
102
RTVSPropertyOp0
 70
     1
102
RTVSPropertyOp1
 70
     1
102
RTVSPropertyOp2
 70
     1
102
RTVSPropertyOp3
 70
     1
102
RTVSPropertyOp4
 70
     1
102
RTVSPropertyOp5
 70
     1
102
RTVSPropertyOp6
 70
     1
102
RTVSPropertyOp7
 70
     1
102
RTVSPropertyOp8
 70
     1
102
RTVSPropertyOp9
 70
     1
102
RTVSPropertyOp10
 70
     1
102
RTVSPropertyOp11
 70
     1
102
RTVSPropertyOp12
 70
     1
102
RTVSPropertyOp13
 70
     1
102
RTVSPropertyOp14
 70
     1
102
RTVSPropertyOp15
 70
     1
102
RTVSPropertyOp16
 70
     1
102
RTVSPropertyOp17
 70
     1
102
RTVSPropertyOp18
 70
     1
102
RTVSPropertyOp19
 70
     1
102
RTVSPropertyOp20
 70
     1
102
RTVSPropertyOp21
 70
     1
102
RTVSPropertyOp22
 70
     1
102
RTVSPropertyOp23
 70
     1
102
RTVSPropertyOp24
 70
     1
102
RTVSPropertyOp25
 70
     1
102
RTVSPropertyOp26
 70
     1
102
RTVSPropertyOp27
 70
     1
102
RTVSPropertyOp28
 70
     1
102
RTVSPropertyOp29
 70
     1
102
RTVSPropertyOp30
 70
     1
102
RTVSPropertyOp31
 70
     1
102
RTVSPropertyOp32
 70
     1
102
RTVSPropertyOp33
 70
     1
102
RTVSPropertyOp34
 70
     1
102
RTVSPropertyOp35
 70
     1
102
RTVSPropertyOp36
 70
     1
102
RTVSPropertyOp37
 70
     1
102
RTVSPropertyOp38
 70
     1
102
RTVSPropertyOp39
 70
     1
102
RTVSPropertyOp40
 70
     1
102
RTVSPropertyOp41
 70
     1
102
RTVSPropertyOp42
 70
     1
102
RTVSPropertyOp43
 70
     1
102
RTVSPropertyOp44
 70
     1
102
RTVSPropertyOp45
 70
     1
102
RTVSPropertyOp46
 70
     1
102
RTVSPropertyOp47
 70
     1
102
RTVSPropertyOp48
 70
     1
102
RTVSPropertyOp49
 70
     1
102
RTVSPropertyOp50
 70
     1
102
RTVSPropertyOp51
 70
     0
102
RTVSPropertyOp52
 70
     0
102
RTVSPropertyOp53
 70
     1
102
RTVSPropertyOp54
 70
     1
102
RTVSPropertyOp55
 70
     1
102
RTVSPropertyOp56
 70
     1
102
RTVSPropertyOp57
 70
     1
102
RTVSPropertyOp58
 70
     1
102
RTVSPropertyOp59
 70
     1
102
RTVSPropertyOp60
 70
     1
102
RTVSPropertyOp61
 70
     1
102
RTVSPropertyOp62
 70
     1
  0
XRECORD
  5
1914
102
{ACAD_REACTORS
330
1913
102
}
330
1913
100
AcDbXrecord
280
     1
102
RTVSPost2010Prop28
280
     0
102
RTVSPost2010PropOp28
 70
     1
102
RTVSPost2010Prop29
280
     1
102
RTVSPost2010PropOp29
 70
     1
102
RTVSPost2010Prop30
280
     1
102
RTVSPost2010PropOp30
 70
     1
102
RTVSPost2010Prop31
280
     0
102
RTVSPost2010PropOp31
 70
     1
102
RTVSPost2010Prop32
280
     0
102
RTVSPost2010PropOp32
 70
     1
102
RTVSPost2010Prop33
280
     0
102
RTVSPost2010PropOp33
 70
     1
102
RTVSPost2010Prop34
280
     0
102
RTVSPost2010PropOp34
 70
     1
102
RTVSPost2010Prop35
280
     0
102
RTVSPost2010PropOp35
 70
     1
102
RTVSPost2010Prop36
280
     0
102
RTVSPost2010PropOp36
 70
     1
102
RTVSPost2010Prop37
 90
       50
102
RTVSPost2010PropOp37
 70
     1
102
RTVSPost2010Prop38
140
0.0
102
RTVSPost2010PropOp38
 70
     1
102
RTVSPost2010Prop39
140
1.0
102
RTVSPost2010PropOp39
 70
     1
102
RTVSPost2010Prop40
 90
        0
102
RTVSPost2010PropOp40
 70
     1
102
RTVSPost2010Prop41ColorIndex
 90
       18
102
RTVSPost2010Prop41ColorRGB
 90
        0
102
RTVSPost2010PropOp41
 70
     1
102
RTVSPost2010Prop42
 90
       50
102
RTVSPost2010PropOp42
 70
     1
102
RTVSPost2010Prop43
 90
        3
102
RTVSPost2010PropOp43
 70
     1
102
RTVSPost2010Prop44ColorIndex
 90
        5
102
RTVSPost2010Prop44ColorRGB
 90
      255
102
RTVSPost2010PropOp44
 70
     1
102
RTVSPost2010Prop45
280
     0
102
RTVSPost2010PropOp45
 70
     1
102
RTVSPost2010Prop46
 90
       50
102
RTVSPost2010PropOp46
 70
     1
102
RTVSPost2010Prop47
 90
       50
102
RTVSPost2010PropOp47
 70
     1
102
RTVSPost2010Prop48
 90
       50
102
RTVSPost2010PropOp48
 70
     1
102
RTVSPost2010Prop49
280
     0
102
RTVSPost2010PropOp49
 70
     1
102
RTVSPost2010Prop50
 90
       50
102
RTVSPost2010PropOp50
 70
     1
102
RTVSPost2010Prop51ColorIndex
 90
      256
102
RTVSPost2010Prop51ColorRGB
 90
-16777216
102
RTVSPost2010PropOp51
 70
     0
102
RTVSPost2010Prop52
140
1.0
102
RTVSPost2010PropOp52
 70
     0
102
RTVSPost2010Prop53
 90
        2
102
RTVSPost2010PropOp53
 70
     1
102
RTVSPost2010Prop54
  1
strokes_ogs.tif
102
RTVSPost2010PropOp54
 70
     1
102
RTVSPost2010Prop55
280
     0
102
RTVSPost2010PropOp55
 70
     1
102
RTVSPost2010Prop56
140
1.0
102
RTVSPost2010PropOp56
 70
     1
102
RTVSPost2010Prop57
140
1.0
102
RTVSPost2010PropOp57
 70
     1
102
RTVSPropertyOp0
 70
     1
102
RTVSPropertyOp1
 70
     1
102
RTVSPropertyOp2
 70
     1
102
RTVSPropertyOp3
 70
     1
102
RTVSPropertyOp4
 70
     1
102
RTVSPropertyOp5
 70
     1
102
RTVSPropertyOp6
 70
     1
102
RTVSPropertyOp7
 70
     1
102
RTVSPropertyOp8
 70
     1
102
RTVSPropertyOp9
 70
     1
102
RTVSPropertyOp10
 70
     1
102
RTVSPropertyOp11
 70
     1
102
RTVSPropertyOp12
 70
     1
102
RTVSPropertyOp13
 70
     1
102
RTVSPropertyOp14
 70
     1
102
RTVSPropertyOp15
 70
     1
102
RTVSPropertyOp16
 70
     1
102
RTVSPropertyOp17
 70
     1
102
RTVSPropertyOp18
 70
     1
102
RTVSPropertyOp19
 70
     1
102
RTVSPropertyOp20
 70
     1
102
RTVSPropertyOp21
 70
     1
102
RTVSPropertyOp22
 70
     1
102
RTVSPropertyOp23
 70
     1
102
RTVSPropertyOp24
 70
     1
102
RTVSPropertyOp25
 70
     1
102
RTVSPropertyOp26
 70
     1
102
RTVSPropertyOp27
 70
     1
102
RTVSPropertyOp28
 70
     1
102
RTVSPropertyOp29
 70
     1
102
RTVSPropertyOp30
 70
     1
102
RTVSPropertyOp31
 70
     1
102
RTVSPropertyOp32
 70
     1
102
RTVSPropertyOp33
 70
     1
102
RTVSPropertyOp34
 70
     1
102
RTVSPropertyOp35
 70
     1
102
RTVSPropertyOp36
 70
     1
102
RTVSPropertyOp37
 70
     1
102
RTVSPropertyOp38
 70
     1
102
RTVSPropertyOp39
 70
     1
102
RTVSPropertyOp40
 70
     1
102
RTVSPropertyOp41
 70
     1
102
RTVSPropertyOp42
 70
     1
102
RTVSPropertyOp43
 70
     1
102
RTVSPropertyOp44
 70
     1
102
RTVSPropertyOp45
 70
     1
102
RTVSPropertyOp46
 70
     1
102
RTVSPropertyOp47
 70
     1
102
RTVSPropertyOp48
 70
     1
102
RTVSPropertyOp49
 70
     1
102
RTVSPropertyOp50
 70
     1
102
RTVSPropertyOp51
 70
     0
102
RTVSPropertyOp52
 70
     0
102
RTVSPropertyOp53
 70
     1
102
RTVSPropertyOp54
 70
     1
102
RTVSPropertyOp55
 70
     1
102
RTVSPropertyOp56
 70
     1
102
RTVSPropertyOp57
 70
     1
102
RTVSPropertyOp58
 70
     1
102
RTVSPropertyOp59
 70
     1
102
RTVSPropertyOp60
 70
     1
102
RTVSPropertyOp61
 70
     1
102
RTVSPropertyOp62
 70
     1
  0
XRECORD
  5
192C
102
{ACAD_REACTORS
330
192B
102
}
330
192B
100
AcDbXrecord
280
     1
102
RTVSPost2010Prop28
280
     0
102
RTVSPost2010PropOp28
 70
     1
102
RTVSPost2010Prop29
280
     1
102
RTVSPost2010PropOp29
 70
     1
102
RTVSPost2010Prop30
280
     1
102
RTVSPost2010PropOp30
 70
     1
102
RTVSPost2010Prop31
280
     0
102
RTVSPost2010PropOp31
 70
     1
102
RTVSPost2010Prop32
280
     0
102
RTVSPost2010PropOp32
 70
     1
102
RTVSPost2010Prop33
280
     0
102
RTVSPost2010PropOp33
 70
     1
102
RTVSPost2010Prop34
280
     0
102
RTVSPost2010PropOp34
 70
     1
102
RTVSPost2010Prop35
280
     0
102
RTVSPost2010PropOp35
 70
     1
102
RTVSPost2010Prop36
280
     0
102
RTVSPost2010PropOp36
 70
     1
102
RTVSPost2010Prop37
 90
       50
102
RTVSPost2010PropOp37
 70
     1
102
RTVSPost2010Prop38
140
0.0
102
RTVSPost2010PropOp38
 70
     1
102
RTVSPost2010Prop39
140
1.0
102
RTVSPost2010PropOp39
 70
     1
102
RTVSPost2010Prop40
 90
        0
102
RTVSPost2010PropOp40
 70
     1
102
RTVSPost2010Prop41ColorIndex
 90
       18
102
RTVSPost2010Prop41ColorRGB
 90
        0
102
RTVSPost2010PropOp41
 70
     1
102
RTVSPost2010Prop42
 90
       50
102
RTVSPost2010PropOp42
 70
     1
102
RTVSPost2010Prop43
 90
        3
102
RTVSPost2010PropOp43
 70
     1
102
RTVSPost2010Prop44ColorIndex
 90
        5
102
RTVSPost2010Prop44ColorRGB
 90
      255
102
RTVSPost2010PropOp44
 70
     1
102
RTVSPost2010Prop45
280
     0
102
RTVSPost2010PropOp45
 70
     1
102
RTVSPost2010Prop46
 90
       50
102
RTVSPost2010PropOp46
 70
     1
102
RTVSPost2010Prop47
 90
       50
102
RTVSPost2010PropOp47
 70
     1
102
RTVSPost2010Prop48
 90
       50
102
RTVSPost2010PropOp48
 70
     1
102
RTVSPost2010Prop49
280
     0
102
RTVSPost2010PropOp49
 70
     1
102
RTVSPost2010Prop50
 90
       50
102
RTVSPost2010PropOp50
 70
     1
102
RTVSPost2010Prop51ColorIndex
 90
      256
102
RTVSPost2010Prop51ColorRGB
 90
-16777216
102
RTVSPost2010PropOp51
 70
     0
102
RTVSPost2010Prop52
140
1.0
102
RTVSPost2010PropOp52
 70
     0
102
RTVSPost2010Prop53
 90
        2
102
RTVSPost2010PropOp53
 70
     1
102
RTVSPost2010Prop54
  1
strokes_ogs.tif
102
RTVSPost2010PropOp54
 70
     1
102
RTVSPost2010Prop55
280
     0
102
RTVSPost2010PropOp55
 70
     1
102
RTVSPost2010Prop56
140
1.0
102
RTVSPost2010PropOp56
 70
     1
102
RTVSPost2010Prop57
140
1.0
102
RTVSPost2010PropOp57
 70
     1
102
RTVSPropertyOp0
 70
     1
102
RTVSPropertyOp1
 70
     1
102
RTVSPropertyOp2
 70
     1
102
RTVSPropertyOp3
 70
     1
102
RTVSPropertyOp4
 70
     1
102
RTVSPropertyOp5
 70
     1
102
RTVSPropertyOp6
 70
     1
102
RTVSPropertyOp7
 70
     1
102
RTVSPropertyOp8
 70
     1
102
RTVSPropertyOp9
 70
     1
102
RTVSPropertyOp10
 70
     1
102
RTVSPropertyOp11
 70
     1
102
RTVSPropertyOp12
 70
     1
102
RTVSPropertyOp13
 70
     1
102
RTVSPropertyOp14
 70
     1
102
RTVSPropertyOp15
 70
     1
102
RTVSPropertyOp16
 70
     1
102
RTVSPropertyOp17
 70
     1
102
RTVSPropertyOp18
 70
     1
102
RTVSPropertyOp19
 70
     1
102
RTVSPropertyOp20
 70
     1
102
RTVSPropertyOp21
 70
     1
102
RTVSPropertyOp22
 70
     1
102
RTVSPropertyOp23
 70
     1
102
RTVSPropertyOp24
 70
     1
102
RTVSPropertyOp25
 70
     1
102
RTVSPropertyOp26
 70
     1
102
RTVSPropertyOp27
 70
     1
102
RTVSPropertyOp28
 70
     1
102
RTVSPropertyOp29
 70
     1
102
RTVSPropertyOp30
 70
     1
102
RTVSPropertyOp31
 70
     1
102
RTVSPropertyOp32
 70
     1
102
RTVSPropertyOp33
 70
     1
102
RTVSPropertyOp34
 70
     1
102
RTVSPropertyOp35
 70
     1
102
RTVSPropertyOp36
 70
     1
102
RTVSPropertyOp37
 70
     1
102
RTVSPropertyOp38
 70
     1
102
RTVSPropertyOp39
 70
     1
102
RTVSPropertyOp40
 70
     1
102
RTVSPropertyOp41
 70
     1
102
RTVSPropertyOp42
 70
     1
102
RTVSPropertyOp43
 70
     1
102
RTVSPropertyOp44
 70
     1
102
RTVSPropertyOp45
 70
     1
102
RTVSPropertyOp46
 70
     1
102
RTVSPropertyOp47
 70
     1
102
RTVSPropertyOp48
 70
     1
102
RTVSPropertyOp49
 70
     1
102
RTVSPropertyOp50
 70
     1
102
RTVSPropertyOp51
 70
     0
102
RTVSPropertyOp52
 70
     0
102
RTVSPropertyOp53
 70
     1
102
RTVSPropertyOp54
 70
     1
102
RTVSPropertyOp55
 70
     1
102
RTVSPropertyOp56
 70
     1
102
RTVSPropertyOp57
 70
     1
102
RTVSPropertyOp58
 70
     1
102
RTVSPropertyOp59
 70
     1
102
RTVSPropertyOp60
 70
     1
102
RTVSPropertyOp61
 70
     1
102
RTVSPropertyOp62
 70
     1
  0
ENDSEC
  0
EOF
