  0
SECTION
  2
HEADER
  9
$ACADVER
  1
AC1015
  9
$DWGCODEPAGE
  3
ANSI_932
  9
$LTSCALE
 40
20.0
  9
$FILLMODE
 70
     1
  9
$CLAYER
  8
0
  9
$PDMODE
 70
     0
  9
$SPLFRAME
 70
     0
  9
$SPLINETYPE
 70
     6
  9
$SPLINESEGS
 70
     8
  9
$DIMASZ
 40
2.000000
  9
$DIMEXE
 40
1.500000
  9
$DIMEXO
 40
0.800000
  9
$DIMTAD
 70
     1
  9
$DIMTIH
 70
     0
  9
$DIMTOH
 70
     0
  9
$DIMTVP
 40
0.500000
  9
$DIMTXT
 40
3.100000
  9
$EXTMIN
 10
0.000000
 20
0.000000
 30
0.000000
  9
$EXTMAX
 10
297.000000
 20
420.000000
 30
0.000000
  9
$MEASUREMENT
 70
  1
  9
$LIMMIN
 10
0.000000
 20
0.000000
  9
$LIMMAX
 10
297.000000
 20
420.000000
  9
$HANDSEED
  5
C0
  9
$LWDISPLAY
290
     0
  9
$DIMBLK
  1
_OPEN
  9
$DIMDEC
 70
     2
  9
$DIMADEC
 70
     2
  9
$DIMAUNIT
 70
     0
  9
$DIMZIN
 70
     8
  9
$DIMAZIN
 70
     2
  9
$DIMTOFL
 70
     1
  0
ENDSEC
  0
SECTION
  2
CLASSES
  0
ENDSEC
  0
SECTION
  2
TABLES
  0
TABLE
  2
VPORT
  5
90
100
AcDbSymbolTable
 70
     1
  0
VPORT
  5
91
100
AcDbSymbolTableRecord
100
AcDbViewportTableRecord
  2
*ACTIVE
 70
     0
 12
171.068350
 22
148.500000
 40
432.537321
 41
1.151030
  0
ENDTAB
  0
TABLE
  2
LTYPE
  5
92
100
AcDbSymbolTable
 70
     2
  0
LTYPE
  5
93
100
AcDbSymbolTableRecord
100
AcDbLinetypeTableRecord
  2
BYBLOCK
 70
     0
  3

 72
    65
 73
     0
 40
0.0
  0
LTYPE
  5
94
100
AcDbSymbolTableRecord
100
AcDbLinetypeTableRecord
  2
BYLAYER
 70
     0
  3

 72
    65
 73
     0
 40
0.0
  0
LTYPE
  5
95
100
AcDbSymbolTableRecord
100
AcDbLinetypeTableRecord
  2
CONTINUOUS
 70
     0
  3
Solid line (NEC CAE2D for Win R16.0 : 2021.09.02)
 72
    65
 73
     0
 40
0.0
  0
LTYPE
  5
96
100
AcDbSymbolTableRecord
100
AcDbLinetypeTableRecord
  2
CENTER
 70
     0
  3
____ _ ____ _ ____ _ ____ _ ____ _ ____
 72
    65
 73
     4
 40
2.0
 49
1.25
 74
     0
 49
-0.25
 74
     0
 49
0.25
 74
     0
 49
-0.25
 74
     0
  0
ENDTAB
  0
TABLE
  2
LAYER
  5
97
100
AcDbSymbolTable
 70
    10
  0
LAYER
  5
98
100
AcDbSymbolTableRecord
100
AcDbLayerTableRecord
  2
0
 70
     0
 62
     7
  6
CONTINUOUS
370
    -3
390

  0
LAYER
  5
99
100
AcDbSymbolTableRecord
100
AcDbLayerTableRecord
  2
DXF0
 70
     0
 62
     7
  6
CONTINUOUS
370
    -3
390

  0
LAYER
  5
9A
100
AcDbSymbolTableRecord
100
AcDbLayerTableRecord
  2
4
 70
     0
 62
     1
  6
CONTINUOUS
370
    -3
390

  0
LAYER
  5
9B
100
AcDbSymbolTableRecord
100
AcDbLayerTableRecord
  2
5
 70
     0
 62
     6
  6
CONTINUOUS
370
    -3
390

  0
LAYER
  5
9C
100
AcDbSymbolTableRecord
100
AcDbLayerTableRecord
  2
1
 70
     0
 62
     7
  6
CONTINUOUS
370
    -3
390

  0
LAYER
  5
9D
100
AcDbSymbolTableRecord
100
AcDbLayerTableRecord
  2
2
 70
     0
 62
     4
  6
CONTINUOUS
370
    -3
390

  0
LAYER
  5
9E
100
AcDbSymbolTableRecord
100
AcDbLayerTableRecord
  2
3
 70
     0
 62
     2
  6
CONTINUOUS
370
    -3
390

  0
LAYER
  5
9F
100
AcDbSymbolTableRecord
100
AcDbLayerTableRecord
  2
6
 70
     0
 62
     5
  6
CONTINUOUS
370
    -3
390

  0
LAYER
  5
A0
100
AcDbSymbolTableRecord
100
AcDbLayerTableRecord
  2
7
 70
     0
 62
     7
  6
CONTINUOUS
370
    -3
390

  0
LAYER
  5
A1
100
AcDbSymbolTableRecord
100
AcDbLayerTableRecord
  2
DXF1023
 70
     0
 62
    16
  6
CONTINUOUS
370
    -3
390

  0
ENDTAB
  0
TABLE
  2
STYLE
  5
A2
100
AcDbSymbolTable
 70
     4
  0
STYLE
  5
A3
100
AcDbSymbolTableRecord
100
AcDbTextStyleTableRecord
  2
STANDARD
 70
    64
 40
0.0
 41
1.0
 50
0.0
 71
     0
 42
3.000000000000000
  3
TXT
  4

  0
STYLE
  5
A4
100
AcDbSymbolTableRecord
100
AcDbTextStyleTableRecord
  2
ANKTATE
 70
    68
 40
0.0
 41
1.0
 50
0.0
 71
     0
 42
3.000000000000000
  3
TXT
  4

  0
STYLE
  5
A5
100
AcDbSymbolTableRecord
100
AcDbTextStyleTableRecord
  2
KNJYOKO
 70
    64
 40
0.0
 41
1.0
 50
0.0
 71
     0
 42
3.000000000000000
  3
TXT
  4
BIGFONT
  0
STYLE
  5
A6
100
AcDbSymbolTableRecord
100
AcDbTextStyleTableRecord
  2
KNJTATE
 70
    68
 40
0.0
 41
1.0
 50
0.0
 71
     0
 42
3.000000000000000
  3
TXT
  4
BIGFONT
  0
ENDTAB
  0
TABLE
  2
VIEW
  5
A7
100
AcDbSymbolTable
 70
     0
  0
ENDTAB
  0
TABLE
  2
UCS
  5
A8
100
AcDbSymbolTable
 70
     0
  0
ENDTAB
  0
TABLE
  2
APPID
  5
A9
100
AcDbSymbolTable
 70
     1
  0
APPID
  5
AA
100
AcDbSymbolTableRecord
100
AcDbRegAppTableRecord
  2
ACAD
 70
     0
  0
ENDTAB
  0
TABLE
  2
DIMSTYLE
  5
AB
100
AcDbSymbolTable
 70
     2
100
AcDbDimStyleTable
  0
DIMSTYLE
105
AC
100
AcDbSymbolTableRecord
100
AcDbDimStyleTableRecord
  2
STANDARD
 70
     0
 41
2.000000
 44
1.500000
 42
0.800000
145
0.661290
140
3.100000
144
1.000000
146
0.645161
340
A3
  0
DIMSTYLE
105
AD
100
AcDbSymbolTableRecord
100
AcDbDimStyleTableRecord
  2
DXF001
 70
     0
 41
2.000000
 44
1.500000
 42
0.800000
145
0.661290
140
3.100000
144
1.000000
146
0.645161
 77
     1
 73
     0
 74
     0
271
     2
179
     2
275
     0
 78
     8
 79
     2
172
     1
340
A3
  0
ENDTAB
  0
TABLE
  2
BLOCK_RECORD
  5
AE
100
AcDbSymbolTable
 70
    12
  0
BLOCK_RECORD
  5
AF
100
AcDbSymbolTableRecord
100
AcDbBlockTableRecord
  2
*MODEL_SPACE
  0
BLOCK_RECORD
  5
B0
100
AcDbSymbolTableRecord
100
AcDbBlockTableRecord
  2
*PAPER_SPACE
  0
BLOCK_RECORD
  5
B1
100
AcDbSymbolTableRecord
100
AcDbBlockTableRecord
  2
*PAPER_SPACE0
  0
BLOCK_RECORD
  5
1
100
AcDbSymbolTableRecord
100
AcDbBlockTableRecord
  2
_NONE
  0
BLOCK_RECORD
  5
4
100
AcDbSymbolTableRecord
100
AcDbBlockTableRecord
  2
_CLOSED
  0
BLOCK_RECORD
  5
B
100
AcDbSymbolTableRecord
100
AcDbBlockTableRecord
  2
_DOT
  0
BLOCK_RECORD
  5
13
100
AcDbSymbolTableRecord
100
AcDbBlockTableRecord
  2
_OPEN
  0
BLOCK_RECORD
  5
19
100
AcDbSymbolTableRecord
100
AcDbBlockTableRecord
  2
_ORIGIN
  0
BLOCK_RECORD
  5
1E
100
AcDbSymbolTableRecord
100
AcDbBlockTableRecord
  2
_OPEN30
  0
BLOCK_RECORD
  5
24
100
AcDbSymbolTableRecord
100
AcDbBlockTableRecord
  2
_BOXFILLED
  0
BLOCK_RECORD
  5
29
100
AcDbSymbolTableRecord
100
AcDbBlockTableRecord
  2
_BOXBLANK
  0
BLOCK_RECORD
  5
31
100
AcDbSymbolTableRecord
100
AcDbBlockTableRecord
  2
_OBLIQUE
  0
BLOCK_RECORD
  5
35
100
AcDbSymbolTableRecord
100
AcDbBlockTableRecord
  2
_OPEN90
  0
BLOCK_RECORD
  5
3B
100
AcDbSymbolTableRecord
100
AcDbBlockTableRecord
  2
_CLOSEDBLANK
  0
BLOCK_RECORD
  5
41
100
AcDbSymbolTableRecord
100
AcDbBlockTableRecord
  2
_DOTBLANK
  0
ENDTAB
  0
ENDSEC
  0
SECTION
  2
BLOCKS
  0
BLOCK
  5
B2
100
AcDbEntity
  8
0
100
AcDbBlockBegin
  2
*MODEL_SPACE
 70
     0
 10
0.0
 20
0.0
 30
0.0
  3
*MODEL_SPACE
  1

  0
ENDBLK
  5
B3
100
AcDbEntity
  8
0
100
AcDbBlockEnd
  0
BLOCK
  5
B4
100
AcDbEntity
  8
0
100
AcDbBlockBegin
  2
*PAPER_SPACE
 70
     0
 10
0.0
 20
0.0
 30
0.0
  3
*PAPER_SPACE
  1

  0
ENDBLK
  5
B5
100
AcDbEntity
  8
0
100
AcDbBlockEnd
  0
BLOCK
  5
B6
100
AcDbEntity
  8
0
100
AcDbBlockBegin
  2
*PAPER_SPACE0
 70
     0
 10
0.0
 20
0.0
 30
0.0
  3
*PAPER_SPACE0
  1

  0
ENDBLK
  5
B7
100
AcDbEntity
  8
0
100
AcDbBlockEnd
  0
BLOCK
  5
2
330
1
100
AcDbEntity
  8
0
100
AcDbBlockBegin
  2
_NONE
 70
     0
 10
0.0
 20
0.0
 30
0.0
  3
_NONE
  1

  0
ENDBLK
  5
3
330
1
100
AcDbEntity
  8
0
100
AcDbBlockEnd
  0
BLOCK
  5
5
330
4
100
AcDbEntity
  8
0
100
AcDbBlockBegin
  2
_CLOSED
 70
     0
 10
0.0
 20
0.0
 30
0.0
  3
_CLOSED
  1

  0
LINE
  5
6
330
4
100
AcDbEntity
  8
0
  6
BYBLOCK
 62
     0
370
    -2
100
AcDbLine
 10
-1.0
 20
0.166667
 30
0.0
 11
0.0
 21
0.0
 31
0.0
  0
LINE
  5
7
330
4
100
AcDbEntity
  8
0
  6
BYBLOCK
 62
     0
370
    -2
100
AcDbLine
 10
0.0
 20
0.0
 30
0.0
 11
-1.0
 21
-0.166667
 31
0.0
  0
LINE
  5
8
330
4
100
AcDbEntity
  8
0
  6
BYBLOCK
 62
     0
370
    -2
100
AcDbLine
 10
-1.0
 20
0.166667
 30
0.0
 11
-1.0
 21
-0.166667
 31
0.0
  0
LINE
  5
9
330
4
100
AcDbEntity
  8
0
  6
BYBLOCK
 62
     0
370
    -2
100
AcDbLine
 10
0.0
 20
0.0
 30
0.0
 11
-1.0
 21
0.0
 31
0.0
  0
ENDBLK
  5
A
330
4
100
AcDbEntity
  8
0
100
AcDbBlockEnd
  0
BLOCK
  5
C
330
B
100
AcDbEntity
  8
0
100
AcDbBlockBegin
  2
_DOT
 70
     0
 10
0.0
 20
0.0
 30
0.0
  3
_DOT
  1

  0
POLYLINE
  5
D
330
B
100
AcDbEntity
  8
0
  6
BYBLOCK
 62
     0
370
    -2
100
AcDb2dPolyline
 66
     1
 10
0.0
 20
0.0
 30
0.0
 70
     1
 40
0.5
 41
0.5
  0
VERTEX
  5
E
330
B
100
AcDbEntity
  8
0
  6
BYBLOCK
 62
     0
370
    -2
100
AcDbVertex
100
AcDb2dVertex
 10
-0.25
 20
0.0
 30
0.0
 42
1.0
  0
VERTEX
  5
F
330
B
100
AcDbEntity
  8
0
  6
BYBLOCK
 62
     0
370
    -2
100
AcDbVertex
100
AcDb2dVertex
 10
0.25
 20
0.0
 30
0.0
 42
1.0
  0
SEQEND
  5
10
330
B
100
AcDbEntity
  8
0
  6
BYBLOCK
 62
     0
370
    -2
  0
LINE
  5
11
330
B
100
AcDbEntity
  8
0
  6
BYBLOCK
 62
     0
370
    -2
100
AcDbLine
 10
-0.5
 20
0.0
 30
0.0
 11
-1.0
 21
0.0
 31
0.0
  0
ENDBLK
  5
12
330
B
100
AcDbEntity
  8
0
100
AcDbBlockEnd
  0
BLOCK
  5
14
330
13
100
AcDbEntity
  8
0
100
AcDbBlockBegin
  2
_OPEN
 70
     0
 10
0.0
 20
0.0
 30
0.0
  3
_OPEN
  1

  0
LINE
  5
15
330
13
100
AcDbEntity
  8
0
  6
BYBLOCK
 62
     0
370
    -2
100
AcDbLine
 10
-1.0
 20
0.166667
 30
0.0
 11
0.0
 21
0.0
 31
0.0
  0
LINE
  5
16
330
13
100
AcDbEntity
  8
0
  6
BYBLOCK
 62
     0
370
    -2
100
AcDbLine
 10
0.0
 20
0.0
 30
0.0
 11
-1.0
 21
-0.166667
 31
0.0
  0
LINE
  5
17
330
13
100
AcDbEntity
  8
0
  6
BYBLOCK
 62
     0
370
    -2
100
AcDbLine
 10
0.0
 20
0.0
 30
0.0
 11
-1.0
 21
0.0
 31
0.0
  0
ENDBLK
  5
18
330
13
100
AcDbEntity
  8
0
100
AcDbBlockEnd
  0
BLOCK
  5
1A
330
19
100
AcDbEntity
  8
0
100
AcDbBlockBegin
  2
_ORIGIN
 70
     0
 10
0.0
 20
0.0
 30
0.0
  3
_ORIGIN
  1

  0
CIRCLE
  5
1B
330
19
100
AcDbEntity
  8
0
  6
BYBLOCK
 62
     0
370
    -2
100
AcDbCircle
 10
0.0
 20
0.0
 30
0.0
 40
0.5
  0
LINE
  5
1C
330
19
100
AcDbEntity
  8
0
  6
BYBLOCK
 62
     0
370
    -2
100
AcDbLine
 10
0.0
 20
0.0
 30
0.0
 11
-1.0
 21
0.0
 31
0.0
  0
ENDBLK
  5
1D
330
19
100
AcDbEntity
  8
0
100
AcDbBlockEnd
  0
BLOCK
  5
1F
330
1E
100
AcDbEntity
  8
0
100
AcDbBlockBegin
  2
_OPEN30
 70
     0
 10
0.0
 20
0.0
 30
0.0
  3
_OPEN30
  1

  0
LINE
  5
20
330
1E
100
AcDbEntity
  8
0
  6
BYBLOCK
 62
     0
370
    -2
100
AcDbLine
 10
-1.0
 20
0.267949
 30
0.0
 11
0.0
 21
0.0
 31
0.0
  0
LINE
  5
21
330
1E
100
AcDbEntity
  8
0
  6
BYBLOCK
 62
     0
370
    -2
100
AcDbLine
 10
0.0
 20
0.0
 30
0.0
 11
-1.0
 21
-0.267949
 31
0.0
  0
LINE
  5
22
330
1E
100
AcDbEntity
  8
0
  6
BYBLOCK
 62
     0
370
    -2
100
AcDbLine
 10
0.0
 20
0.0
 30
0.0
 11
-1.0
 21
0.0
 31
0.0
  0
ENDBLK
  5
23
330
1E
100
AcDbEntity
  8
0
100
AcDbBlockEnd
  0
BLOCK
  5
25
330
24
100
AcDbEntity
  8
0
100
AcDbBlockBegin
  2
_BOXFILLED
 70
     0
 10
0.0
 20
0.0
 30
0.0
  3
_BOXFILLED
  1

  0
SOLID
  5
26
330
24
100
AcDbEntity
  8
0
  6
BYBLOCK
 62
     0
370
    -2
100
AcDbTrace
 10
-0.5
 20
0.5
 30
0.0
 11
0.5
 21
0.5
 31
0.0
 12
-0.5
 22
-0.5
 32
0.0
 13
0.5
 23
-0.5
 33
0.0
  0
LINE
  5
27
330
24
100
AcDbEntity
  8
0
  6
BYBLOCK
 62
     0
370
    -2
100
AcDbLine
 10
-0.5
 20
0.0
 30
0.0
 11
-1.0
 21
0.0
 31
0.0
  0
ENDBLK
  5
28
330
24
100
AcDbEntity
  8
0
100
AcDbBlockEnd
  0
BLOCK
  5
2A
330
29
100
AcDbEntity
  8
0
100
AcDbBlockBegin
  2
_BOXBLANK
 70
     0
 10
0.0
 20
0.0
 30
0.0
  3
_BOXBLANK
  1

  0
LINE
  5
2B
330
29
100
AcDbEntity
  8
0
  6
BYBLOCK
 62
     0
370
    -2
100
AcDbLine
 10
-0.5
 20
-0.5
 30
0.0
 11
0.5
 21
-0.5
 31
0.0
  0
LINE
  5
2C
330
29
100
AcDbEntity
  8
0
  6
BYBLOCK
 62
     0
370
    -2
100
AcDbLine
 10
0.5
 20
-0.5
 30
0.0
 11
0.5
 21
0.5
 31
0.0
  0
LINE
  5
2D
330
29
100
AcDbEntity
  8
0
  6
BYBLOCK
 62
     0
370
    -2
100
AcDbLine
 10
0.5
 20
0.5
 30
0.0
 11
-0.5
 21
0.5
 31
0.0
  0
LINE
  5
2E
330
29
100
AcDbEntity
  8
0
  6
BYBLOCK
 62
     0
370
    -2
100
AcDbLine
 10
-0.5
 20
0.5
 30
0.0
 11
-0.5
 21
-0.5
 31
0.0
  0
LINE
  5
2F
330
29
100
AcDbEntity
  8
0
  6
BYBLOCK
 62
     0
370
    -2
100
AcDbLine
 10
-0.5
 20
0.0
 30
0.0
 11
-1.0
 21
0.0
 31
0.0
  0
ENDBLK
  5
30
330
29
100
AcDbEntity
  8
0
100
AcDbBlockEnd
  0
BLOCK
  5
32
330
31
100
AcDbEntity
  8
0
100
AcDbBlockBegin
  2
_OBLIQUE
 70
     0
 10
0.0
 20
0.0
 30
0.0
  3
_OBLIQUE
  1

  0
LINE
  5
33
330
31
100
AcDbEntity
  8
0
  6
BYBLOCK
 62
     0
370
    -2
100
AcDbLine
 10
-0.5
 20
-0.5
 30
0.0
 11
0.5
 21
0.5
 31
0.0
  0
ENDBLK
  5
34
330
31
100
AcDbEntity
  8
0
100
AcDbBlockEnd
  0
BLOCK
  5
36
330
35
100
AcDbEntity
  8
0
100
AcDbBlockBegin
  2
_OPEN90
 70
     0
 10
0.0
 20
0.0
 30
0.0
  3
_OPEN90
  1

  0
LINE
  5
37
330
35
100
AcDbEntity
  8
0
  6
BYBLOCK
 62
     0
370
    -2
100
AcDbLine
 10
-0.5
 20
0.5
 30
0.0
 11
0.0
 21
0.0
 31
0.0
  0
LINE
  5
38
330
35
100
AcDbEntity
  8
0
  6
BYBLOCK
 62
     0
370
    -2
100
AcDbLine
 10
0.0
 20
0.0
 30
0.0
 11
-0.5
 21
-0.5
 31
0.0
  0
LINE
  5
39
330
35
100
AcDbEntity
  8
0
  6
BYBLOCK
 62
     0
370
    -2
100
AcDbLine
 10
0.0
 20
0.0
 30
0.0
 11
-1.0
 21
0.0
 31
0.0
  0
ENDBLK
  5
3A
330
35
100
AcDbEntity
  8
0
100
AcDbBlockEnd
  0
BLOCK
  5
3C
330
3B
100
AcDbEntity
  8
0
100
AcDbBlockBegin
  2
_CLOSEDBLANK
 70
     0
 10
0.0
 20
0.0
 30
0.0
  3
_CLOSEDBLANK
  1

  0
LINE
  5
3D
330
3B
100
AcDbEntity
  8
0
  6
BYBLOCK
 62
     0
370
    -2
100
AcDbLine
 10
-1.0
 20
0.1666666666666666
 30
0.0
 11
0.0
 21
0.0
 31
0.0
  0
LINE
  5
3E
330
3B
100
AcDbEntity
  8
0
  6
BYBLOCK
 62
     0
370
    -2
100
AcDbLine
 10
0.0
 20
0.0
 30
0.0
 11
-1.0
 21
-0.1666666666666666
 31
0.0
  0
LINE
  5
3F
330
3B
100
AcDbEntity
  8
0
  6
BYBLOCK
 62
     0
370
    -2
100
AcDbLine
 10
-1.0
 20
0.1666666666666666
 30
0.0
 11
-1.0
 21
-0.1666666666666666
 31
0.0
  0
ENDBLK
  5
40
330
3B
100
AcDbEntity
  8
0
100
AcDbBlockEnd
  0
BLOCK
  5
42
330
41
100
AcDbEntity
  8
0
100
AcDbBlockBegin
  2
_DOTBLANK
 70
     0
 10
0.0
 20
0.0
 30
0.0
  3
_DOTBLANK
  1

  0
CIRCLE
  5
43
330
41
100
AcDbEntity
  8
0
  6
BYBLOCK
 62
     0
370
    -2
100
AcDbCircle
 10
0.0
 20
0.0
 30
0.0
 40
0.5
  0
LINE
  5
44
330
41
100
AcDbEntity
  8
0
  6
BYBLOCK
 62
     0
370
    -2
100
AcDbLine
 10
-0.5
 20
0.0
 30
0.0
 11
-1.0
 21
0.0
 31
0.0
  0
ENDBLK
  5
45
330
41
100
AcDbEntity
  8
0
100
AcDbBlockEnd
  0
ENDSEC
  0
SECTION
  2
ENTITIES
  0
MTEXT
  5
46
100
AcDbEntity
  8
7
  6
CONTINUOUS
 62
7
100
AcDbMText
 10
10.00000000000000
 20
18.00000000000000
 30
0.000000000000000
 40
3.000000000000000
 41
0.000000000000000
 44
0.6739999771118164
 71
     7
 72
     1
  1
{\H0.94x;{TYPE No.THA-31SUS-8-NEJI}}
 11
1.000000000000000
 21
0.000000000000000
 31
0.000000000000000
  7
STANDARD
  0
LINE
  5
47
100
AcDbEntity
  8
4
  6
CENTER
 62
1
100
AcDbLine
 10
144.0310000000000
 20
46.64850000000000
 30
0.000000000000000
 11
10.03090000000000
 21
46.64850000000000
 31
0.000000000000000
  0
LINE
  5
48
100
AcDbEntity
  8
4
  6
CENTER
 62
1
100
AcDbLine
 10
17.03089999999998
 20
53.64850000000000
 30
0.000000000000000
 11
17.03089999999998
 21
39.64850000000000
 31
0.000000000000000
  0
LINE
  5
49
100
AcDbEntity
  8
4
  6
CENTER
 62
1
100
AcDbLine
 10
137.0310000000000
 20
53.64850000000000
 30
0.000000000000000
 11
137.0310000000000
 21
39.64850000000000
 31
0.000000000000000
  0
LINE
  5
4A
100
AcDbEntity
  8
4
  6
CENTER
 62
1
100
AcDbLine
 10
10.03090000000000
 20
188.6479999999999
 30
0.000000000000000
 11
144.0310000000000
 21
188.6479999999999
 31
0.000000000000000
  0
LINE
  5
4B
100
AcDbEntity
  8
4
  6
CENTER
 62
1
100
AcDbLine
 10
17.03089999999998
 20
195.6479999999999
 30
0.000000000000000
 11
17.03089999999998
 21
181.6480000000000
 31
0.000000000000000
  0
LINE
  5
4C
100
AcDbEntity
  8
4
  6
CENTER
 62
1
100
AcDbLine
 10
137.0310000000000
 20
195.6479999999999
 30
0.000000000000000
 11
137.0310000000000
 21
181.6480000000000
 31
0.000000000000000
  0
LINE
  5
4D
100
AcDbEntity
  8
4
  6
CENTER
 62
1
100
AcDbLine
 10
192.0309999999999
 20
155.6480000000000
 30
0.000000000000000
 11
192.0309999999999
 21
100.6480000000000
 31
0.000000000000000
  0
LINE
  5
4E
100
AcDbEntity
  8
4
  6
CENTER
 62
1
100
AcDbLine
 10
17.03089999999998
 20
115.6479999999999
 30
0.000000000000000
 11
17.03089999999998
 21
100.6480000000000
 31
0.000000000000000
  0
LINE
  5
4F
100
AcDbEntity
  8
4
  6
CENTER
 62
1
100
AcDbLine
 10
137.0310000000000
 20
115.6479999999999
 30
0.000000000000000
 11
137.0310000000000
 21
100.6480000000000
 31
0.000000000000000
  0
LINE
  5
50
100
AcDbEntity
  8
4
  6
CENTER
 62
1
100
AcDbLine
 10
77.03090000000000
 20
155.6480000000000
 30
0.000000000000000
 11
77.03090000000000
 21
141.6479999999999
 31
0.000000000000000
  0
LINE
  5
51
100
AcDbEntity
  8
4
  6
CENTER
 62
1
100
AcDbLine
 10
77.03090000000000
 20
53.64850000000000
 30
0.000000000000000
 11
77.03090000000000
 21
39.64850000000000
 31
0.000000000000000
  0
LINE
  5
52
100
AcDbEntity
  8
4
  6
CENTER
 62
1
100
AcDbLine
 10
77.03090000000000
 20
195.6479999999999
 30
0.000000000000000
 11
77.03090000000000
 21
181.6480000000000
 31
0.000000000000000
  0
LINE
  5
53
100
AcDbEntity
  8
1
  6
CONTINUOUS
 62
7
100
AcDbLine
 10
12.03090000000000
 20
113.6479999999999
 30
0.000000000000000
 11
22.03089999999999
 21
113.6479999999999
 31
0.000000000000000
  0
LINE
  5
54
100
AcDbEntity
  8
1
  6
CONTINUOUS
 62
7
100
AcDbLine
 10
132.0310000000000
 20
113.6479999999999
 30
0.000000000000000
 11
142.0310000000000
 21
113.6479999999999
 31
0.000000000000000
  0
LINE
  5
55
100
AcDbEntity
  8
1
  6
CONTINUOUS
 62
7
100
AcDbLine
 10
187.0309999999999
 20
113.6479999999999
 30
0.000000000000000
 11
197.0309999999997
 21
113.6479999999999
 31
0.000000000000000
  0
LINE
  5
56
100
AcDbEntity
  8
1
  6
CONTINUOUS
 62
7
100
AcDbLine
 10
33.03090000000000
 20
153.6480000000000
 30
0.000000000000000
 11
121.0310000000000
 21
153.6480000000000
 31
0.000000000000000
  0
LINE
  5
57
100
AcDbEntity
  8
1
  6
CONTINUOUS
 62
7
100
AcDbLine
 10
33.03089999999999
 20
143.6479999999999
 30
0.000000000000000
 11
121.0310000000000
 21
143.6479999999999
 31
0.000000000000000
  0
LINE
  5
58
100
AcDbEntity
  8
1
  6
CONTINUOUS
 62
7
100
AcDbLine
 10
17.03089999999998
 20
193.6479999999999
 30
0.000000000000000
 11
137.0310000000000
 21
193.6479999999999
 31
0.000000000000000
  0
LINE
  5
59
100
AcDbEntity
  8
1
  6
CONTINUOUS
 62
7
100
AcDbLine
 10
17.03089999999998
 20
183.6479999999999
 30
0.000000000000000
 11
137.0310000000000
 21
183.6479999999999
 31
0.000000000000000
  0
LINE
  5
5A
100
AcDbEntity
  8
1
  6
CONTINUOUS
 62
7
100
AcDbLine
 10
17.03089999999998
 20
51.64850000000000
 30
0.000000000000000
 11
137.0310000000000
 21
51.64850000000000
 31
0.000000000000000
  0
LINE
  5
5B
100
AcDbEntity
  8
1
  6
CONTINUOUS
 62
7
100
AcDbLine
 10
137.0310000000000
 20
41.64850000000000
 30
0.000000000000000
 11
17.03089999999998
 21
41.64850000000000
 31
0.000000000000000
  0
LINE
  5
5C
100
AcDbEntity
  8
1
  6
CONTINUOUS
 62
7
100
AcDbLine
 10
22.03089999999999
 20
132.6479999999999
 30
0.000000000000000
 11
22.03089999999999
 21
113.6479999999999
 31
0.000000000000000
  0
LINE
  5
5D
100
AcDbEntity
  8
1
  6
CONTINUOUS
 62
7
100
AcDbLine
 10
12.03090000000000
 20
132.6480000000000
 30
0.000000000000000
 11
12.03090000000000
 21
113.6479999999999
 31
0.000000000000000
  0
LINE
  5
5E
100
AcDbEntity
  8
1
  6
CONTINUOUS
 62
7
100
AcDbLine
 10
132.0310000000000
 20
132.6479999999999
 30
0.000000000000000
 11
132.0310000000000
 21
113.6479999999999
 31
0.000000000000000
  0
LINE
  5
5F
100
AcDbEntity
  8
1
  6
CONTINUOUS
 62
7
100
AcDbLine
 10
142.0310000000000
 20
132.6480000000000
 30
0.000000000000000
 11
142.0310000000000
 21
113.6479999999999
 31
0.000000000000000
  0
LINE
  5
60
100
AcDbEntity
  8
1
  6
CONTINUOUS
 62
7
100
AcDbLine
 10
187.0309999999999
 20
148.6480000000000
 30
0.000000000000000
 11
187.0309999999999
 21
113.6479999999999
 31
0.000000000000000
  0
LINE
  5
61
100
AcDbEntity
  8
1
  6
CONTINUOUS
 62
7
100
AcDbLine
 10
197.0309999999997
 20
148.6480000000000
 30
0.000000000000000
 11
197.0309999999997
 21
113.6479999999999
 31
0.000000000000000
  0
LINE
  5
62
100
AcDbEntity
  8
1
  6
CONTINUOUS
 62
7
100
AcDbLine
 10
190.0309999999999
 20
102.6480000000000
 30
0.000000000000000
 11
194.0309999999998
 21
102.6480000000000
 31
0.000000000000000
  0
LINE
  5
63
100
AcDbEntity
  8
1
  6
CONTINUOUS
 62
7
100
AcDbLine
 10
195.0309999999998
 20
113.6479999999999
 30
0.000000000000000
 11
195.0309999999998
 21
103.6480000000000
 31
0.000000000000000
  0
LINE
  5
64
100
AcDbEntity
  8
1
  6
CONTINUOUS
 62
7
100
AcDbLine
 10
189.0309999999999
 20
113.6479999999999
 30
0.000000000000000
 11
189.0309999999999
 21
103.6480000000000
 31
0.000000000000000
  0
LINE
  5
65
100
AcDbEntity
  8
2
  6
CONTINUOUS
 62
4
100
AcDbLine
 10
194.4890000000000
 20
111.6479999999999
 30
0.000000000000000
 11
194.4890000000000
 21
103.1070000000000
 31
0.000000000000000
  0
LINE
  5
66
100
AcDbEntity
  8
2
  6
CONTINUOUS
 62
4
100
AcDbLine
 10
189.5720000000000
 20
111.6479999999999
 30
0.000000000000000
 11
189.5720000000000
 21
103.1070000000000
 31
0.000000000000000
  0
LINE
  5
67
100
AcDbEntity
  8
1
  6
CONTINUOUS
 62
7
100
AcDbLine
 10
189.0309999999999
 20
111.6479999999999
 30
0.000000000000000
 11
195.0309999999998
 21
111.6479999999999
 31
0.000000000000000
  0
LINE
  5
68
100
AcDbEntity
  8
1
  6
CONTINUOUS
 62
7
100
AcDbLine
 10
189.0309999999999
 20
103.6480000000000
 30
0.000000000000000
 11
190.0309999999999
 21
102.6480000000000
 31
0.000000000000000
  0
LINE
  5
69
100
AcDbEntity
  8
1
  6
CONTINUOUS
 62
7
100
AcDbLine
 10
194.0309999999998
 20
102.6480000000000
 30
0.000000000000000
 11
195.0309999999998
 21
103.6480000000000
 31
0.000000000000000
  0
LINE
  5
6A
100
AcDbEntity
  8
1
  6
CONTINUOUS
 62
7
100
AcDbLine
 10
189.0309999999999
 20
103.6480000000000
 30
0.000000000000000
 11
195.0309999999998
 21
103.6480000000000
 31
0.000000000000000
  0
LINE
  5
6B
100
AcDbEntity
  8
2
  6
CONTINUOUS
 62
4
100
AcDbLine
 10
189.0309999999999
 20
112.5860000000000
 30
0.000000000000000
 11
189.5720000000000
 21
111.6479999999999
 31
0.000000000000000
  0
LINE
  5
6C
100
AcDbEntity
  8
2
  6
CONTINUOUS
 62
4
100
AcDbLine
 10
194.4890000000000
 20
111.6479999999999
 30
0.000000000000000
 11
195.0309999999998
 21
112.5860000000000
 31
0.000000000000000
  0
LINE
  5
6D
100
AcDbEntity
  8
1
  6
CONTINUOUS
 62
7
100
AcDbLine
 10
15.03090000000000
 20
102.6480000000000
 30
0.000000000000000
 11
19.03089999999998
 21
102.6480000000000
 31
0.000000000000000
  0
LINE
  5
6E
100
AcDbEntity
  8
1
  6
CONTINUOUS
 62
7
100
AcDbLine
 10
20.03089999999998
 20
113.6479999999999
 30
0.000000000000000
 11
20.03089999999998
 21
103.6480000000000
 31
0.000000000000000
  0
LINE
  5
6F
100
AcDbEntity
  8
1
  6
CONTINUOUS
 62
7
100
AcDbLine
 10
14.03090000000000
 20
113.6479999999999
 30
0.000000000000000
 11
14.03090000000000
 21
103.6480000000000
 31
0.000000000000000
  0
LINE
  5
70
100
AcDbEntity
  8
2
  6
CONTINUOUS
 62
4
100
AcDbLine
 10
19.48940000000000
 20
111.6479999999999
 30
0.000000000000000
 11
19.48940000000000
 21
103.1070000000000
 31
0.000000000000000
  0
LINE
  5
71
100
AcDbEntity
  8
2
  6
CONTINUOUS
 62
4
100
AcDbLine
 10
14.57240000000000
 20
111.6479999999999
 30
0.000000000000000
 11
14.57240000000000
 21
103.1070000000000
 31
0.000000000000000
  0
LINE
  5
72
100
AcDbEntity
  8
1
  6
CONTINUOUS
 62
7
100
AcDbLine
 10
14.03090000000000
 20
111.6479999999999
 30
0.000000000000000
 11
20.03089999999998
 21
111.6479999999999
 31
0.000000000000000
  0
LINE
  5
73
100
AcDbEntity
  8
1
  6
CONTINUOUS
 62
7
100
AcDbLine
 10
14.03090000000000
 20
103.6480000000000
 30
0.000000000000000
 11
15.03090000000000
 21
102.6480000000000
 31
0.000000000000000
  0
LINE
  5
74
100
AcDbEntity
  8
1
  6
CONTINUOUS
 62
7
100
AcDbLine
 10
19.03089999999998
 20
102.6480000000000
 30
0.000000000000000
 11
20.03089999999999
 21
103.6480000000000
 31
0.000000000000000
  0
LINE
  5
75
100
AcDbEntity
  8
1
  6
CONTINUOUS
 62
7
100
AcDbLine
 10
14.03090000000000
 20
103.6480000000000
 30
0.000000000000000
 11
20.03089999999998
 21
103.6480000000000
 31
0.000000000000000
  0
LINE
  5
76
100
AcDbEntity
  8
2
  6
CONTINUOUS
 62
4
100
AcDbLine
 10
14.03090000000000
 20
112.5860000000000
 30
0.000000000000000
 11
14.57239999999999
 21
111.6479999999999
 31
0.000000000000000
  0
LINE
  5
77
100
AcDbEntity
  8
2
  6
CONTINUOUS
 62
4
100
AcDbLine
 10
19.48940000000000
 20
111.6479999999999
 30
0.000000000000000
 11
20.03089999999998
 21
112.5860000000000
 31
0.000000000000000
  0
LINE
  5
78
100
AcDbEntity
  8
1
  6
CONTINUOUS
 62
7
100
AcDbLine
 10
134.0310000000000
 20
111.6479999999999
 30
0.000000000000000
 11
140.0310000000000
 21
111.6479999999999
 31
0.000000000000000
  0
LINE
  5
79
100
AcDbEntity
  8
2
  6
CONTINUOUS
 62
4
100
AcDbLine
 10
134.5720000000000
 20
111.6479999999999
 30
0.000000000000000
 11
134.5720000000000
 21
103.1070000000000
 31
0.000000000000000
  0
LINE
  5
7A
100
AcDbEntity
  8
2
  6
CONTINUOUS
 62
4
100
AcDbLine
 10
134.0310000000000
 20
112.5860000000000
 30
0.000000000000000
 11
134.5720000000000
 21
111.6479999999999
 31
0.000000000000000
  0
LINE
  5
7B
100
AcDbEntity
  8
2
  6
CONTINUOUS
 62
4
100
AcDbLine
 10
139.4889999999997
 20
111.6479999999999
 30
0.000000000000000
 11
140.0309999999999
 21
112.5860000000000
 31
0.000000000000000
  0
LINE
  5
7C
100
AcDbEntity
  8
1
  6
CONTINUOUS
 62
7
100
AcDbLine
 10
134.0310000000000
 20
103.6480000000000
 30
0.000000000000000
 11
140.0310000000000
 21
103.6480000000000
 31
0.000000000000000
  0
LINE
  5
7D
100
AcDbEntity
  8
1
  6
CONTINUOUS
 62
7
100
AcDbLine
 10
135.0310000000000
 20
102.6480000000000
 30
0.000000000000000
 11
139.0310000000000
 21
102.6480000000000
 31
0.000000000000000
  0
LINE
  5
7E
100
AcDbEntity
  8
1
  6
CONTINUOUS
 62
7
100
AcDbLine
 10
140.0310000000000
 20
113.6479999999999
 30
0.000000000000000
 11
140.0310000000000
 21
103.6480000000000
 31
0.000000000000000
  0
LINE
  5
7F
100
AcDbEntity
  8
1
  6
CONTINUOUS
 62
7
100
AcDbLine
 10
134.0310000000000
 20
113.6479999999999
 30
0.000000000000000
 11
134.0310000000000
 21
103.6480000000000
 31
0.000000000000000
  0
LINE
  5
80
100
AcDbEntity
  8
2
  6
CONTINUOUS
 62
4
100
AcDbLine
 10
139.4889999999997
 20
111.6479999999999
 30
0.000000000000000
 11
139.4889999999997
 21
103.1070000000000
 31
0.000000000000000
  0
LINE
  5
81
100
AcDbEntity
  8
1
  6
CONTINUOUS
 62
7
100
AcDbLine
 10
134.0310000000000
 20
103.6480000000000
 30
0.000000000000000
 11
135.0310000000000
 21
102.6480000000000
 31
0.000000000000000
  0
LINE
  5
82
100
AcDbEntity
  8
1
  6
CONTINUOUS
 62
7
100
AcDbLine
 10
139.0310000000000
 20
102.6480000000000
 30
0.000000000000000
 11
140.0310000000000
 21
103.6480000000000
 31
0.000000000000000
  0
ARC
  5
83
100
AcDbEntity
  8
1
  6
CONTINUOUS
 62
7
100
AcDbCircle
 10
137.0310000000000
 20
188.6479999999999
 30
0.000000000000000
 40
5.000000000000000
100
AcDbArc
 50
270.0000000000000
 51
450.0000000000000
  0
ARC
  5
84
100
AcDbEntity
  8
1
  6
CONTINUOUS
 62
7
100
AcDbCircle
 10
17.03089999999998
 20
188.6479999999999
 30
0.000000000000000
 40
5.000000000000000
100
AcDbArc
 50
90.00000000000000
 51
270.0000000000000
  0
CIRCLE
  5
85
100
AcDbEntity
  8
1
  6
CONTINUOUS
 62
7
100
AcDbCircle
 10
17.03089999999998
 20
46.64850000000000
 30
0.000000000000000
 40
5.000000000000000
  0
CIRCLE
  5
86
100
AcDbEntity
  8
1
  6
CONTINUOUS
 62
7
100
AcDbCircle
 10
137.0310000000000
 20
46.64850000000000
 30
0.000000000000000
 40
5.000000000000000
  0
ARC
  5
87
100
AcDbEntity
  8
1
  6
CONTINUOUS
 62
7
100
AcDbCircle
 10
192.0309999999999
 20
148.6480000000000
 30
0.000000000000000
 40
5.000000000000000
100
AcDbArc
 50
0.000000000000000
 51
180.0000000000000
  0
CIRCLE
  5
88
100
AcDbEntity
  8
1
  6
CONTINUOUS
 62
7
100
AcDbCircle
 10
137.0310000000000
 20
46.64850000000000
 30
0.000000000000000
 40
3.000000000000000
  0
CIRCLE
  5
89
100
AcDbEntity
  8
2
  6
CONTINUOUS
 62
4
100
AcDbCircle
 10
137.0310000000000
 20
46.64850000000000
 30
0.000000000000000
 40
2.458499999999999
  0
CIRCLE
  5
8A
100
AcDbEntity
  8
1
  6
CONTINUOUS
 62
7
100
AcDbCircle
 10
17.03089999999998
 20
46.64850000000000
 30
0.000000000000000
 40
3.000000000000000
  0
CIRCLE
  5
8B
100
AcDbEntity
  8
2
  6
CONTINUOUS
 62
4
100
AcDbCircle
 10
17.03089999999998
 20
46.64850000000000
 30
0.000000000000000
 40
2.458499999999999
  0
ARC
  5
8C
100
AcDbEntity
  8
1
  6
CONTINUOUS
 62
7
100
AcDbCircle
 10
121.0310000000000
 20
132.6479999999999
 30
0.000000000000000
 40
11.00000000000000
100
AcDbArc
 50
0.000000000000000
 51
90.00000000000000
  0
ARC
  5
8D
100
AcDbEntity
  8
1
  6
CONTINUOUS
 62
7
100
AcDbCircle
 10
33.03089999999999
 20
132.6479999999999
 30
0.000000000000000
 40
11.00000000000000
100
AcDbArc
 50
90.00000000000000
 51
180.0000000000000
  0
ARC
  5
8E
100
AcDbEntity
  8
1
  6
CONTINUOUS
 62
7
100
AcDbCircle
 10
33.03090000000000
 20
132.6480000000000
 30
0.000000000000000
 40
21.00000000000000
100
AcDbArc
 50
90.00000000000000
 51
180.0000000000000
  0
ARC
  5
8F
100
AcDbEntity
  8
1
  6
CONTINUOUS
 62
7
100
AcDbCircle
 10
121.0310000000000
 20
132.6480000000000
 30
0.000000000000000
 40
21.00000000000000
100
AcDbArc
 50
0.000000000000000
 51
90.00000000000000
  0
ENDSEC
  0
SECTION
  2
OBJECTS
  0
DICTIONARY
  5
B8
100
AcDbDictionary
  3
ACAD_GROUP
350
B9
  3
ACAD_LAYOUT
350
BA
  3
ACAD_MLINESTYLE
350
BB
  0
DICTIONARY
  5
B9
102
{ACAD_REACTORS
330
B8
102
}
330
B8
100
AcDbDictionary
  0
DICTIONARY
  5
BA
102
{ACAD_REACTORS
330
B8
102
}
330
B8
100
AcDbDictionary
  3
Model
350
BC
  3
ﾚｲｱｳﾄ1
350
BD
  3
ﾚｲｱｳﾄ2
350
BE
  0
DICTIONARY
  5
BB
102
{ACAD_REACTORS
330
B8
102
}
330
B8
100
AcDbDictionary
  3
STANDARD
350
BF
  0
LAYOUT
  5
BC
102
{ACAD_REACTORS
330
BA
102
}
330
BA
100
AcDbPlotSettings
 70
11952
  4
A3
 44
297.000000
 45
420.000000
 73
  1
 72
  1
100
AcDbLayout
  1
Model
 71
0
330
AF
  0
LAYOUT
  5
BD
102
{ACAD_REACTORS
330
BA
102
}
330
BA
100
AcDbPlotSettings
100
AcDbLayout
  1
ﾚｲｱｳﾄ1
 71
1
330
B0
  0
LAYOUT
  5
BE
102
{ACAD_REACTORS
330
BA
102
}
330
BA
100
AcDbPlotSettings
100
AcDbLayout
  1
ﾚｲｱｳﾄ2
 71
2
330
B1
  0
MLINESTYLE
  5
BF
102
{ACAD_REACTORS
330
BB
102
}
330
BB
100
AcDbMlineStyle
  2
STANDARD
 70
     0
  3

 62
   256
 51
90.00
 52
90.00
 71
     2
 49
0.50
 62
   256
  6
BYLAYER
 49
-0.50
 62
   256
  6
BYLAYER
  0
ENDSEC
  0
EOF
