  0
SECTION
  2
HEADER
  9
$ACADVER
  1
AC1015
  9
$ACADMAINTVER
 70
    20
  9
$DWGCODEPAGE
  3
ANSI_932
  9
$INSBASE
 10
0.0
 20
0.0
 30
0.0
  9
$EXTMIN
 10
10.0
 20
9.999999999999998
 30
0.0
  9
$EXTMAX
 10
709.893552
 20
527.5585940000001
 30
0.0
  9
$LIMMIN
 10
0.0
 20
0.0
  9
$LIMMAX
 10
792.0
 20
546.0
  9
$ORTHOMODE
 70
     1
  9
$REGENMODE
 70
     1
  9
$FILLMODE
 70
     1
  9
$QTEXTMODE
 70
     0
  9
$MIRRTEXT
 70
     1
  9
$LTSCALE
 40
20.0
  9
$ATTMODE
 70
     1
  9
$TEXTSIZE
 40
5.0
  9
$TRACEWID
 40
1.0
  9
$TEXTSTYLE
  7
STANDARD
  9
$CLAYER
  8
0
  9
$CELTYPE
  6
BYLAYER
  9
$CECOLOR
 62
   256
  9
$CELTSCALE
 40
1.0
  9
$DISPSILH
 70
     0
  9
$DIMSCALE
 40
1.0
  9
$DIMASZ
 40
2.5
  9
$DIMEXO
 40
1.0
  9
$DIMDLI
 40
10.0
  9
$DIMRND
 40
0.0
  9
$DIMDLE
 40
0.0
  9
$DIMEXE
 40
1.0
  9
$DIMTP
 40
0.0
  9
$DIMTM
 40
0.0
  9
$DIMTXT
 40
3.2
  9
$DIMCEN
 40
0.0
  9
$DIMTSZ
 40
0.0
  9
$DIMTOL
 70
     0
  9
$DIMLIM
 70
     0
  9
$DIMTIH
 70
     0
  9
$DIMTOH
 70
     0
  9
$DIMSE1
 70
     0
  9
$DIMSE2
 70
     0
  9
$DIMTAD
 70
     3
  9
$DIMZIN
 70
     8
  9
$DIMBLK
  1

  9
$DIMASO
 70
     1
  9
$DIMSHO
 70
     1
  9
$DIMPOST
  1

  9
$DIMAPOST
  1

  9
$DIMALT
 70
     0
  9
$DIMALTD
 70
     2
  9
$DIMALTF
 40
25.4
  9
$DIMLFAC
 40
1.0
  9
$DIMTOFL
 70
     1
  9
$DIMTVP
 40
0.0
  9
$DIMTIX
 70
     0
  9
$DIMSOXD
 70
     0
  9
$DIMSAH
 70
     1
  9
$DIMBLK1
  1
OPEN
  9
$DIMBLK2
  1
OPEN
  9
$DIMSTYLE
  2
STANDARD
  9
$DIMCLRD
 70
     0
  9
$DIMCLRE
 70
     0
  9
$DIMCLRT
 70
     0
  9
$DIMTFAC
 40
1.0
  9
$DIMGAP
 40
1.0
  9
$DIMJUST
 70
     0
  9
$DIMSD1
 70
     0
  9
$DIMSD2
 70
     0
  9
$DIMTOLJ
 70
     1
  9
$DIMTZIN
 70
     0
  9
$DIMALTZ
 70
     0
  9
$DIMALTTZ
 70
     0
  9
$DIMUPT
 70
     0
  9
$DIMDEC
 70
     4
  9
$DIMTDEC
 70
     4
  9
$DIMALTU
 70
     2
  9
$DIMALTTD
 70
     2
  9
$DIMTXSTY
  7
STANDARD
  9
$DIMAUNIT
 70
     0
  9
$DIMADEC
 70
     0
  9
$DIMALTRND
 40
0.0
  9
$DIMAZIN
 70
     0
  9
$DIMDSEP
 70
    46
  9
$DIMATFIT
 70
     3
  9
$DIMFRAC
 70
     0
  9
$DIMLDRBLK
  1
OPEN
  9
$DIMLUNIT
 70
     2
  9
$DIMLWD
 70
    -2
  9
$DIMLWE
 70
    -2
  9
$DIMTMOVE
 70
     0
  9
$LUNITS
 70
     2
  9
$LUPREC
 70
     4
  9
$SKETCHINC
 40
1.0
  9
$FILLETRAD
 40
1.0
  9
$AUNITS
 70
     0
  9
$AUPREC
 70
     2
  9
$MENU
  1
.
  9
$ELEVATION
 40
0.0
  9
$PELEVATION
 40
0.0
  9
$THICKNESS
 40
0.0
  9
$LIMCHECK
 70
     0
  9
$CHAMFERA
 40
10.0
  9
$CHAMFERB
 40
10.0
  9
$CHAMFERC
 40
0.0
  9
$CHAMFERD
 40
0.0
  9
$SKPOLY
 70
     0
  9
$TDCREATE
 40
2451417.570668171
  9
$TDUCREATE
 40
2451417.195668171
  9
$TDUPDATE
 40
2457192.641339884
  9
$TDUUPDATE
 40
2457192.266339884
  9
$TDINDWG
 40
0.0021848958
  9
$TDUSRTIMER
 40
0.0021845833
  9
$USRTIMER
 70
     1
  9
$ANGBASE
 50
0.0
  9
$ANGDIR
 70
     0
  9
$PDMODE
 70
     0
  9
$PDSIZE
 40
0.0
  9
$PLINEWID
 40
0.0
  9
$SPLFRAME
 70
     0
  9
$SPLINETYPE
 70
     6
  9
$SPLINESEGS
 70
     8
  9
$HANDSEED
  5
BCF2
  9
$SURFTAB1
 70
     6
  9
$SURFTAB2
 70
     6
  9
$SURFTYPE
 70
     6
  9
$SURFU
 70
     6
  9
$SURFV
 70
     6
  9
$UCSBASE
  2

  9
$UCSNAME
  2

  9
$UCSORG
 10
0.0
 20
0.0
 30
0.0
  9
$UCSXDIR
 10
1.0
 20
0.0
 30
0.0
  9
$UCSYDIR
 10
0.0
 20
1.0
 30
0.0
  9
$UCSORTHOREF
  2

  9
$UCSORTHOVIEW
 70
     0
  9
$UCSORGTOP
 10
0.0
 20
0.0
 30
0.0
  9
$UCSORGBOTTOM
 10
0.0
 20
0.0
 30
0.0
  9
$UCSORGLEFT
 10
0.0
 20
0.0
 30
0.0
  9
$UCSORGRIGHT
 10
0.0
 20
0.0
 30
0.0
  9
$UCSORGFRONT
 10
0.0
 20
0.0
 30
0.0
  9
$UCSORGBACK
 10
0.0
 20
0.0
 30
0.0
  9
$PUCSBASE
  2

  9
$PUCSNAME
  2

  9
$PUCSORG
 10
0.0
 20
0.0
 30
0.0
  9
$PUCSXDIR
 10
1.0
 20
0.0
 30
0.0
  9
$PUCSYDIR
 10
0.0
 20
1.0
 30
0.0
  9
$PUCSORTHOREF
  2

  9
$PUCSORTHOVIEW
 70
     0
  9
$PUCSORGTOP
 10
0.0
 20
0.0
 30
0.0
  9
$PUCSORGBOTTOM
 10
0.0
 20
0.0
 30
0.0
  9
$PUCSORGLEFT
 10
0.0
 20
0.0
 30
0.0
  9
$PUCSORGRIGHT
 10
0.0
 20
0.0
 30
0.0
  9
$PUCSORGFRONT
 10
0.0
 20
0.0
 30
0.0
  9
$PUCSORGBACK
 10
0.0
 20
0.0
 30
0.0
  9
$USERI1
 70
     0
  9
$USERI2
 70
     0
  9
$USERI3
 70
     0
  9
$USERI4
 70
     0
  9
$USERI5
 70
     0
  9
$USERR1
 40
0.0
  9
$USERR2
 40
0.0
  9
$USERR3
 40
0.0
  9
$USERR4
 40
0.0
  9
$USERR5
 40
0.0
  9
$WORLDVIEW
 70
     1
  9
$SHADEDGE
 70
     3
  9
$SHADEDIF
 70
    70
  9
$TILEMODE
 70
     1
  9
$MAXACTVP
 70
    16
  9
$PINSBASE
 10
0.0
 20
0.0
 30
0.0
  9
$PLIMCHECK
 70
     0
  9
$PEXTMIN
 10
1.000000000000000E+20
 20
1.000000000000000E+20
 30
1.000000000000000E+20
  9
$PEXTMAX
 10
-1.000000000000000E+20
 20
-1.000000000000000E+20
 30
-1.000000000000000E+20
  9
$PLIMMIN
 10
0.0
 20
0.0
  9
$PLIMMAX
 10
420.0
 20
297.0
  9
$UNITMODE
 70
     0
  9
$VISRETAIN
 70
     0
  9
$PLINEGEN
 70
     0
  9
$PSLTSCALE
 70
     0
  9
$TREEDEPTH
 70
  3020
  9
$CMLSTYLE
  2
STANDARD
  9
$CMLJUST
 70
     0
  9
$CMLSCALE
 40
1.0
  9
$PROXYGRAPHICS
 70
     1
  9
$MEASUREMENT
 70
     0
  9
$CELWEIGHT
370
    -1
  9
$ENDCAPS
280
     0
  9
$JOINSTYLE
280
     0
  9
$LWDISPLAY
290
     0
  9
$INSUNITS
 70
     0
  9
$HYPERLINKBASE
  1

  9
$STYLESHEET
  1

  9
$XEDIT
290
     1
  9
$CEPSNTYPE
380
     0
  9
$PSTYLEMODE
290
     1
  9
$FINGERPRINTGUID
  2
{F6B7504F-1011-4CE7-85AB-BDE801EBE2C5}
  9
$VERSIONGUID
  2
{CD7929DF-D53D-4939-AC54-FE9CCAAFBE86}
  9
$EXTNAMES
290
     1
  9
$PSVPSCALE
 40
0.0
  9
$OLESTARTUP
290
     0
  0
ENDSEC
  0
SECTION
  2
CLASSES
  0
CLASS
  1
ACDBDICTIONARYWDFLT
  2
AcDbDictionaryWithDefault
  3
ObjectDBX Classes
 90
        0
280
     0
281
     0
  0
CLASS
  1
ACDBPLACEHOLDER
  2
AcDbPlaceHolder
  3
ObjectDBX Classes
 90
        0
280
     0
281
     0
  0
CLASS
  1
LAYOUT
  2
AcDbLayout
  3
ObjectDBX Classes
 90
        0
280
     0
281
     0
  0
CLASS
  1
DICTIONARYVAR
  2
AcDbDictionaryVar
  3
ObjectDBX Classes
 90
        0
280
     0
281
     0
  0
CLASS
  1
MATERIAL
  2
AcDbMaterial
  3
ObjectDBX Classes
 90
     1153
280
     0
281
     0
  0
CLASS
  1
VISUALSTYLE
  2
AcDbVisualStyle
  3
ObjectDBX Classes
 90
     4095
280
     0
281
     0
  0
CLASS
  1
TABLESTYLE
  2
AcDbTableStyle
  3
ObjectDBX Classes
 90
     4095
280
     0
281
     0
  0
CLASS
  1
SCALE
  2
AcDbScale
  3
ObjectDBX Classes
 90
     1153
280
     0
281
     0
  0
CLASS
  1
MLEADERSTYLE
  2
AcDbMLeaderStyle
  3
ACDB_MLEADERSTYLE_CLASS
 90
     4095
280
     0
281
     0
  0
CLASS
  1
ACDBSECTIONVIEWSTYLE
  2
AcDbSectionViewStyle
  3
ObjectDBX Classes
 90
     1025
280
     0
281
     0
  0
CLASS
  1
ACDBDETAILVIEWSTYLE
  2
AcDbDetailViewStyle
  3
ObjectDBX Classes
 90
     1025
280
     0
281
     0
  0
CLASS
  1
CELLSTYLEMAP
  2
AcDbCellStyleMap
  3
ObjectDBX Classes
 90
     1152
280
     0
281
     0
  0
ENDSEC
  0
SECTION
  2
TABLES
  0
TABLE
  2
VPORT
  5
B7EC
330
0
100
AcDbSymbolTable
 70
     1
  0
VPORT
  5
BC3B
330
B7EC
100
AcDbSymbolTableRecord
100
AcDbViewportTableRecord
  2
*ACTIVE
 70
     0
 10
0.0
 20
0.0
 11
1.0
 21
1.0
 12
516.6926235736434
 22
268.7718671110595
 13
0.0
 23
0.0
 14
10.0
 24
10.0
 15
10.0
 25
10.0
 16
0.0
 26
0.0
 36
1.0
 17
0.0
 27
0.0
 37
0.0
 40
523.3707922615153
 41
1.899603698811096
 42
50.0
 43
0.0
 44
0.0
 50
0.0
 51
0.0
 71
     0
 72
   100
 73
     1
 74
     0
 75
     0
 76
     0
 77
     0
 78
     0
281
     0
 65
     1
110
0.0
120
0.0
130
0.0
111
1.0
121
0.0
131
0.0
112
0.0
122
1.0
132
0.0
 79
     0
146
0.0
1001
ACAD_NAV_VCDISPLAY
1070
     3
  0
ENDTAB
  0
TABLE
  2
LTYPE
  5
B7E9
330
0
100
AcDbSymbolTable
 70
     4
  0
LTYPE
  5
B7F7
330
B7E9
100
AcDbSymbolTableRecord
100
AcDbLinetypeTableRecord
  2
BYBLOCK
 70
     0
  3

 72
    65
 73
     0
 40
0.0
  0
LTYPE
  5
B7F8
330
B7E9
100
AcDbSymbolTableRecord
100
AcDbLinetypeTableRecord
  2
BYLAYER
 70
     0
  3

 72
    65
 73
     0
 40
0.0
  0
LTYPE
  5
B7F9
330
B7E9
100
AcDbSymbolTableRecord
100
AcDbLinetypeTableRecord
  2
CONTINUOUS
 70
     0
  3
Solid line
 72
    65
 73
     0
 40
0.0
  0
LTYPE
  5
B807
330
B7E9
100
AcDbSymbolTableRecord
100
AcDbLinetypeTableRecord
  2
DASHED
 70
     0
  3
__ __ __ __ __ __ __ __ __ __ __ __ __ __ __ __
 72
    65
 73
     2
 40
0.75
 49
0.5
 74
     0
 49
-0.25
 74
     0
  0
LTYPE
  5
B808
330
B7E9
100
AcDbSymbolTableRecord
100
AcDbLinetypeTableRecord
  2
CENTER
 70
     0
  3
____ _ ____ _ ____ _ ____ _ ____ _ ____ _ ____ 
 72
    65
 73
     4
 40
2.0
 49
1.25
 74
     0
 49
-0.25
 74
     0
 49
0.25
 74
     0
 49
-0.25
 74
     0
  0
LTYPE
  5
B809
330
B7E9
100
AcDbSymbolTableRecord
100
AcDbLinetypeTableRecord
  2
PHANTOM
 70
     0
  3
______  __  __  ______  __  __  ______  __  __ 
 72
    65
 73
     6
 40
2.5
 49
1.25
 74
     0
 49
-0.25
 74
     0
 49
0.25
 74
     0
 49
-0.25
 74
     0
 49
0.25
 74
     0
 49
-0.25
 74
     0
  0
ENDTAB
  0
TABLE
  2
LAYER
  5
B7E6
330
0
100
AcDbSymbolTable
 70
     8
  0
LAYER
  5
B7F4
102
{ACAD_XDICTIONARY
360
BC96
102
}
330
B7E6
100
AcDbSymbolTableRecord
100
AcDbLayerTableRecord
  2
0
 70
     0
 62
     7
  6
CONTINUOUS
370
    -3
390
BC44
  0
LAYER
  5
B80A
102
{ACAD_XDICTIONARY
360
BC98
102
}
330
B7E6
100
AcDbSymbolTableRecord
100
AcDbLayerTableRecord
  2
4
 70
     0
 62
     1
  6
CENTER
370
    -3
390
BC44
  0
LAYER
  5
B80B
102
{ACAD_XDICTIONARY
360
BC9A
102
}
330
B7E6
100
AcDbSymbolTableRecord
100
AcDbLayerTableRecord
  2
5
 70
     0
 62
     6
  6
PHANTOM
370
    -3
390
BC44
  0
LAYER
  5
B80C
102
{ACAD_XDICTIONARY
360
BC9C
102
}
330
B7E6
100
AcDbSymbolTableRecord
100
AcDbLayerTableRecord
  2
1
 70
     0
 62
     7
  6
CONTINUOUS
370
    -3
390
BC44
  0
LAYER
  5
B80D
102
{ACAD_XDICTIONARY
360
BC9E
102
}
330
B7E6
100
AcDbSymbolTableRecord
100
AcDbLayerTableRecord
  2
2
 70
     0
 62
     4
  6
CONTINUOUS
370
    -3
390
BC44
  0
LAYER
  5
B80E
102
{ACAD_XDICTIONARY
360
BCA0
102
}
330
B7E6
100
AcDbSymbolTableRecord
100
AcDbLayerTableRecord
  2
3
 70
     0
 62
     2
  6
DASHED
370
    -3
390
BC44
  0
LAYER
  5
B80F
102
{ACAD_XDICTIONARY
360
BCA2
102
}
330
B7E6
100
AcDbSymbolTableRecord
100
AcDbLayerTableRecord
  2
6
 70
     0
 62
     5
  6
CONTINUOUS
370
    -3
390
BC44
  0
LAYER
  5
B810
102
{ACAD_XDICTIONARY
360
BCA4
102
}
330
B7E6
100
AcDbSymbolTableRecord
100
AcDbLayerTableRecord
  2
7
 70
     0
 62
     3
  6
CONTINUOUS
370
    -3
390
BC44
  0
ENDTAB
  0
TABLE
  2
STYLE
  5
B7E7
330
0
100
AcDbSymbolTable
 70
     1
  0
STYLE
  5
B7F5
330
B7E7
100
AcDbSymbolTableRecord
100
AcDbTextStyleTableRecord
  2
STANDARD
 70
     0
 40
0.0
 41
1.0
 50
0.0
 71
     0
 42
5.0
  3
txt
  4

  0
ENDTAB
  0
TABLE
  2
VIEW
  5
B7EA
330
0
100
AcDbSymbolTable
 70
     0
  0
ENDTAB
  0
TABLE
  2
UCS
  5
B7EB
330
0
100
AcDbSymbolTable
 70
     0
  0
ENDTAB
  0
TABLE
  2
APPID
  5
B7ED
330
0
100
AcDbSymbolTable
 70
     3
  0
APPID
  5
B7F6
330
B7ED
100
AcDbSymbolTableRecord
100
AcDbRegAppTableRecord
  2
ACAD
 70
     0
  0
APPID
  5
BCB0
330
B7ED
100
AcDbSymbolTableRecord
100
AcDbRegAppTableRecord
  2
ACAD_NAV_VCDISPLAY
 70
     0
  0
APPID
  5
BCE9
330
B7ED
100
AcDbSymbolTableRecord
100
AcDbRegAppTableRecord
  2
ACAD_MLEADERVER
 70
     0
  0
ENDTAB
  0
TABLE
  2
DIMSTYLE
  5
B7EE
330
0
100
AcDbSymbolTable
 70
     1
100
AcDbDimStyleTable
 71
     0
  0
DIMSTYLE
105
B812
330
B7EE
100
AcDbSymbolTableRecord
100
AcDbDimStyleTableRecord
  2
STANDARD
 70
     0
 41
2.5
 42
1.0
 43
10.0
 44
1.0
 73
     0
 74
     0
 77
     3
 78
     8
140
3.2
141
0.0
147
1.0
172
     1
173
     1
284
     8
285
     8
286
     8
340
B7F5
  0
ENDTAB
  0
TABLE
  2
BLOCK_RECORD
  5
B7E5
330
0
100
AcDbSymbolTable
 70
     1
  0
BLOCK_RECORD
  5
B802
102
{ACAD_XDICTIONARY
360
BC3E
102
}
330
B7E5
100
AcDbSymbolTableRecord
100
AcDbBlockTableRecord
  2
*MODEL_SPACE
340
BC92
  0
BLOCK_RECORD
  5
B7FE
102
{ACAD_XDICTIONARY
360
BC3C
102
}
330
B7E5
100
AcDbSymbolTableRecord
100
AcDbBlockTableRecord
  2
*PAPER_SPACE
340
BC93
  0
BLOCK_RECORD
  5
B81A
330
B7E5
100
AcDbSymbolTableRecord
100
AcDbBlockTableRecord
  2
_OPEN
340
0
  0
ENDTAB
  0
ENDSEC
  0
SECTION
  2
BLOCKS
  0
BLOCK
  5
B803
330
B802
100
AcDbEntity
  8
0
100
AcDbBlockBegin
  2
*MODEL_SPACE
 70
     0
 10
0.0
 20
0.0
 30
0.0
  3
*MODEL_SPACE
  1

  0
ENDBLK
  5
B804
330
B802
100
AcDbEntity
  8
0
100
AcDbBlockEnd
  0
BLOCK
  5
B7FF
330
B7FE
100
AcDbEntity
 67
     1
  8
0
100
AcDbBlockBegin
  2
*PAPER_SPACE
 70
     0
 10
0.0
 20
0.0
 30
0.0
  3
*PAPER_SPACE
  1

  0
ENDBLK
  5
B800
330
B7FE
100
AcDbEntity
 67
     1
  8
0
100
AcDbBlockEnd
  0
BLOCK
  5
B81B
330
B81A
100
AcDbEntity
  8
0
100
AcDbBlockBegin
  2
_OPEN
 70
     0
 10
0.0
 20
0.0
 30
0.0
  3
_OPEN
  1

  0
LINE
  5
B81C
330
B81A
100
AcDbEntity
  8
0
  6
ByBlock
 62
     0
100
AcDbLine
 10
-1.0
 20
0.166667
 30
0.0
 11
0.0
 21
0.0
 31
0.0
  0
LINE
  5
B81D
330
B81A
100
AcDbEntity
  8
0
  6
ByBlock
 62
     0
100
AcDbLine
 10
0.0
 20
0.0
 30
0.0
 11
-1.0
 21
-0.166667
 31
0.0
  0
LINE
  5
B81E
330
B81A
100
AcDbEntity
  8
0
  6
ByBlock
 62
     0
100
AcDbLine
 10
0.0
 20
0.0
 30
0.0
 11
-1.0
 21
0.0
 31
0.0
  0
ENDBLK
  5
B81F
330
B81A
100
AcDbEntity
  8
0
100
AcDbBlockEnd
  0
ENDSEC
  0
SECTION
  2
ENTITIES
  0
LINE
  5
B820
330
B802
100
AcDbEntity
  8
1
  6
Continuous
100
AcDbLine
 10
297.301569
 20
349.780829
 30
0.0
 11
295.7385319999999
 21
352.4880889999997
 31
0.0
  0
LINE
  5
B821
330
B802
100
AcDbEntity
  8
1
  6
Continuous
100
AcDbLine
 10
290.3015689999999
 20
349.780829
 30
0.0
 11
291.864606
 21
352.4880889999997
 31
0.0
  0
ARC
  5
B822
330
B802
100
AcDbEntity
  8
1
  6
Continuous
100
AcDbCircle
 10
447.0899619999998
 20
352.2808289999999
 30
0.0
 40
4.0
100
AcDbArc
 50
332.571902
 51
207.428098
  0
ARC
  5
B823
330
B802
100
AcDbEntity
  8
1
  6
Continuous
100
AcDbCircle
 10
447.0899619999998
 20
352.2808289999999
 30
0.0
 40
4.25
100
AcDbArc
 50
332.420521
 51
207.579479
  0
LINE
  5
B824
330
B802
100
AcDbEntity
  8
1
  6
Continuous
100
AcDbLine
 10
447.0899619999998
 20
352.4880889999997
 30
0.0
 11
464.589962
 21
342.3844589999998
 31
0.0
  0
LINE
  5
B825
330
B802
100
AcDbEntity
  8
1
  6
Continuous
100
AcDbLine
 10
429.589962
 20
342.3844589999998
 30
0.0
 11
447.0899619999998
 21
352.4880889999997
 31
0.0
  0
CIRCLE
  5
B826
330
B802
100
AcDbEntity
  8
1
  6
Continuous
100
AcDbCircle
 10
447.0899619999998
 20
332.2808289999999
 30
0.0
 40
30.0
  0
LINE
  5
B827
330
B802
100
AcDbEntity
  8
4
  6
CENTER
100
AcDbLine
 10
447.0899619999998
 20
367.2808289999999
 30
0.0
 11
447.0899619999998
 21
207.280829
 31
0.0
  0
LINE
  5
B828
330
B802
100
AcDbEntity
  8
1
  6
Continuous
100
AcDbLine
 10
240.8336659999999
 20
356.2808289999999
 30
0.0
 11
240.8336659999999
 21
349.780829
 31
0.0
  0
LINE
  5
B829
330
B802
100
AcDbEntity
  8
1
  6
Continuous
100
AcDbLine
 10
221.8447289999998
 20
346.3921389999999
 30
0.0
 11
230.7619419999999
 21
361.238612
 31
0.0
  0
LINE
  5
B82A
330
B802
100
AcDbEntity
  8
1
  6
Continuous
100
AcDbLine
 10
230.7642009999999
 20
355.9912569999998
 30
0.0
 11
221.7952939999999
 21
342.572971
 31
0.0
  0
LINE
  5
B82B
330
B802
100
AcDbEntity
  8
1
  6
Continuous
100
AcDbLine
 10
231.333666
 20
355.9912569999998
 30
0.0
 11
231.333666
 21
308.570401
 31
0.0
  0
LINE
  5
B82C
330
B802
100
AcDbEntity
  8
1
  6
Continuous
100
AcDbLine
 10
236.3336659999999
 20
362.280829
 30
0.0
 11
236.3336659999999
 21
302.2808289999999
 31
0.0
  0
LINE
  5
B82D
330
B802
100
AcDbEntity
  8
1
  6
Continuous
100
AcDbLine
 10
235.333666
 20
362.280829
 30
0.0
 11
235.333666
 21
302.2808289999999
 31
0.0
  0
ARC
  5
B82E
330
B802
100
AcDbEntity
  8
1
  6
Continuous
100
AcDbCircle
 10
56.499999
 20
332.2808289999999
 30
0.0
 40
30.0
100
AcDbArc
 50
296.2191329999999
 51
243.7808669999999
  0
LINE
  5
B82F
330
B802
100
AcDbEntity
  8
1
  6
Continuous
100
AcDbLine
 10
39.499999
 20
355.92401
 30
0.0
 11
39.499999
 21
308.637648
 31
0.0
  0
LINE
  5
B830
330
B802
100
AcDbEntity
  8
1
  6
Continuous
100
AcDbLine
 10
73.499999
 20
355.92401
 30
0.0
 11
73.499999
 21
308.637648
 31
0.0
  0
LINE
  5
B831
330
B802
100
AcDbEntity
  8
1
  6
Continuous
100
AcDbLine
 10
42.999999
 20
343.448668
 30
0.0
 11
39.760353
 21
355.9912569999998
 31
0.0
  0
LINE
  5
B832
330
B802
100
AcDbEntity
  8
1
  6
Continuous
100
AcDbLine
 10
69.999999
 20
343.448668
 30
0.0
 11
73.23964499999998
 21
355.9912569999998
 31
0.0
  0
LINE
  5
B833
330
B802
100
AcDbEntity
  8
5
  6
PHANTOM
100
AcDbLine
 10
42.999999
 20
332.880829
 30
0.0
 11
42.999999
 21
361.9462029999998
 31
0.0
  0
LINE
  5
B834
330
B802
100
AcDbEntity
  8
5
  6
PHANTOM
100
AcDbLine
 10
69.999999
 20
332.880829
 30
0.0
 11
69.999999
 21
361.9462029999998
 31
0.0
  0
LINE
  5
B835
330
B802
100
AcDbEntity
  8
5
  6
PHANTOM
100
AcDbLine
 10
44.999999
 20
364.1992769999998
 30
0.0
 11
44.999999
 21
332.880829
 31
0.0
  0
LINE
  5
B836
330
B802
100
AcDbEntity
  8
5
  6
PHANTOM
100
AcDbLine
 10
67.999999
 20
364.1992769999998
 30
0.0
 11
67.999999
 21
332.880829
 31
0.0
  0
LINE
  5
B837
330
B802
100
AcDbEntity
  8
4
  6
CENTER
100
AcDbLine
 10
56.499999
 20
366.880829
 30
0.0
 11
56.499999
 21
207.822677
 31
0.0
  0
LINE
  5
B838
330
B802
100
AcDbEntity
  8
2
  6
Continuous
100
AcDbLine
 10
257.133666
 20
82.945448
 30
0.0
 11
240.8336659999999
 21
74.85741
 31
0.0
  0
LINE
  5
B839
330
B802
100
AcDbEntity
  8
2
  6
Continuous
100
AcDbLine
 10
240.8336659999999
 20
80.84768599999998
 30
0.0
 11
257.133666
 21
72.759648
 31
0.0
  0
LINE
  5
B83A
330
B802
100
AcDbEntity
  8
1
  6
Continuous
100
AcDbLine
 10
257.133666
 20
72.759648
 30
0.0
 11
236.3336659999999
 21
72.759648
 31
0.0
  0
LINE
  5
B83B
330
B802
100
AcDbEntity
  8
1
  6
Continuous
100
AcDbLine
 10
257.133666
 20
82.945448
 30
0.0
 11
236.3336659999999
 21
82.945448
 31
0.0
  0
LINE
  5
B83C
330
B802
100
AcDbEntity
  8
2
  6
Continuous
100
AcDbLine
 10
257.945666
 20
67.66454799999999
 30
0.0
 11
240.740091
 21
67.66454799999999
 31
0.0
  0
LINE
  5
B83D
330
B802
100
AcDbEntity
  8
2
  6
Continuous
100
AcDbLine
 10
257.945666
 20
88.04054800000001
 30
0.0
 11
240.740091
 21
88.04054800000001
 31
0.0
  0
LINE
  5
B83E
330
B802
100
AcDbEntity
  8
1
  6
Continuous
100
AcDbLine
 10
257.133666
 20
66.852548
 30
0.0
 11
236.3336659999999
 21
66.852548
 31
0.0
  0
LINE
  5
B83F
330
B802
100
AcDbEntity
  8
1
  6
Continuous
100
AcDbLine
 10
257.133666
 20
88.852548
 30
0.0
 11
236.3336659999999
 21
88.852548
 31
0.0
  0
LINE
  5
B840
330
B802
100
AcDbEntity
  8
4
  6
CENTER
100
AcDbLine
 10
271.683666
 20
77.852548
 30
0.0
 11
182.633666
 21
77.852548
 31
0.0
  0
LINE
  5
B841
330
B802
100
AcDbEntity
  8
1
  6
Continuous
100
AcDbLine
 10
236.3336659999999
 20
342.0308289999999
 30
0.0
 11
258.383666
 21
342.0308289999999
 31
0.0
  0
LINE
  5
B842
330
B802
100
AcDbEntity
  8
1
  6
Continuous
100
AcDbLine
 10
236.3336659999999
 20
322.530829
 30
0.0
 11
258.383666
 21
322.530829
 31
0.0
  0
LINE
  5
B843
330
B802
100
AcDbEntity
  8
4
  6
CENTER
100
AcDbLine
 10
184.286372
 20
332.2808289999999
 30
0.0
 11
271.683666
 21
332.2808289999999
 31
0.0
  0
TEXT
  5
B844
330
B802
100
AcDbEntity
  8
7
  6
Continuous
100
AcDbText
 10
10.0
 20
26.0
 30
0.0
 40
3.0
  1
CODE No.13123
100
AcDbText
  0
TEXT
  5
B845
330
B802
100
AcDbEntity
  8
7
  6
Continuous
100
AcDbText
 10
10.0
 20
18.0
 30
0.0
 40
3.0
  1
TYPE No.THA-330B-1K(5Y7/1)
100
AcDbText
  0
TEXT
  5
B846
330
B802
100
AcDbEntity
  8
1
  6
Continuous
100
AcDbText
 10
10.0
 20
10.0
 30
0.0
 40
1.399999999999999
  1
LAYER
100
AcDbText
  0
TEXT
  5
B847
330
B802
100
AcDbEntity
  8
5
  6
PHANTOM
100
AcDbText
 10
25.97951099999999
 20
10.04873699999998
 30
0.0
 40
1.399999999999999
  1
5
100
AcDbText
  0
TEXT
  5
B848
330
B802
100
AcDbEntity
  8
6
  6
Continuous
100
AcDbText
 10
27.979511
 20
10.04873699999998
 30
0.0
 40
1.399999999999999
  1
6
100
AcDbText
  0
TEXT
  5
B849
330
B802
100
AcDbEntity
  8
2
  6
Continuous
100
AcDbText
 10
19.97951099999999
 20
10.04873699999998
 30
0.0
 40
1.399999999999999
  1
2
100
AcDbText
  0
TEXT
  5
B84A
330
B802
100
AcDbEntity
  8
3
  6
DASHED
100
AcDbText
 10
21.979511
 20
10.04873699999998
 30
0.0
 40
1.399999999999999
  1
3
100
AcDbText
  0
TEXT
  5
B84B
330
B802
100
AcDbEntity
  8
4
  6
CENTER
100
AcDbText
 10
23.97951099999999
 20
10.04873699999998
 30
0.0
 40
1.399999999999999
  1
4
100
AcDbText
  0
TEXT
  5
B84C
330
B802
100
AcDbEntity
  8
7
  6
Continuous
100
AcDbText
 10
29.97951099999999
 20
10.04873699999998
 30
0.0
 40
1.399999999999999
  1
7
100
AcDbText
  0
TEXT
  5
B84D
330
B802
100
AcDbEntity
  8
1
  6
Continuous
100
AcDbText
 10
17.97951099999998
 20
10.04873699999998
 30
0.0
 40
1.399999999999999
  1
1
100
AcDbText
  0
LINE
  5
B84E
330
B802
100
AcDbEntity
  8
1
  6
Continuous
100
AcDbLine
 10
240.740091
 20
88.852548
 30
0.0
 11
240.740091
 21
82.945448
 31
0.0
  0
LINE
  5
B84F
330
B802
100
AcDbEntity
  8
1
  6
Continuous
100
AcDbLine
 10
203.2336659999999
 20
91.352548
 30
0.0
 11
203.2336659999999
 21
85.95525100000001
 31
0.0
  0
LINE
  5
B850
330
B802
100
AcDbEntity
  8
1
  6
Continuous
100
AcDbLine
 10
221.783666
 20
64.352548
 30
0.0
 11
221.783666
 21
91.352548
 31
0.0
  0
LINE
  5
B851
330
B802
100
AcDbEntity
  8
1
  6
Continuous
100
AcDbLine
 10
235.333666
 20
47.85254799999999
 30
0.0
 11
235.333666
 21
107.8525479999999
 31
0.0
  0
LINE
  5
B852
330
B802
100
AcDbEntity
  8
1
  6
Continuous
100
AcDbLine
 10
236.3336659999999
 20
47.85254799999999
 30
0.0
 11
236.3336659999999
 21
107.8525479999999
 31
0.0
  0
LINE
  5
B853
330
B802
100
AcDbEntity
  8
1
  6
Continuous
100
AcDbLine
 10
231.333666
 20
49.85254799999999
 30
0.0
 11
231.333666
 21
105.8525479999999
 31
0.0
  0
LINE
  5
B854
330
B802
100
AcDbEntity
  8
1
  6
Continuous
100
AcDbLine
 10
221.733666
 20
64.352548
 30
0.0
 11
221.733666
 21
91.352548
 31
0.0
  0
LINE
  5
B855
330
B802
100
AcDbEntity
  8
1
  6
Continuous
100
AcDbLine
 10
221.733666
 20
64.352548
 30
0.0
 11
190.5730209999999
 21
64.352548
 31
0.0
  0
LINE
  5
B856
330
B802
100
AcDbEntity
  8
1
  6
Continuous
100
AcDbLine
 10
221.783666
 20
64.352548
 30
0.0
 11
231.333666
 21
60.852548
 31
0.0
  0
LINE
  5
B857
330
B802
100
AcDbEntity
  8
1
  6
Continuous
100
AcDbLine
 10
203.2336659999999
 20
69.749844
 30
0.0
 11
203.2336659999999
 21
64.352548
 31
0.0
  0
ARC
  5
B858
330
B802
100
AcDbEntity
  8
1
  6
Continuous
100
AcDbCircle
 10
202.233666
 20
79.02704799999998
 30
0.0
 40
7.0
100
AcDbArc
 50
0.0
 51
90.0
  0
ARC
  5
B859
330
B802
100
AcDbEntity
  8
1
  6
Continuous
100
AcDbCircle
 10
202.233666
 20
76.678048
 30
0.0
 40
7.0
100
AcDbArc
 50
270.0
 51
0.0
  0
LINE
  5
B85A
330
B802
100
AcDbEntity
  8
1
  6
Continuous
100
AcDbLine
 10
203.2336659999999
 20
82.852548
 30
0.0
 11
203.2336659999999
 21
72.852548
 31
0.0
  0
LINE
  5
B85B
330
B802
100
AcDbEntity
  8
1
  6
Continuous
100
AcDbLine
 10
202.233666
 20
86.02704799999996
 30
0.0
 11
197.671506
 21
86.02704799999996
 31
0.0
  0
LINE
  5
B85C
330
B802
100
AcDbEntity
  8
1
  6
Continuous
100
AcDbLine
 10
202.233666
 20
69.678048
 30
0.0
 11
197.671506
 21
69.678048
 31
0.0
  0
LINE
  5
B85D
330
B802
100
AcDbEntity
  8
1
  6
Continuous
100
AcDbLine
 10
209.2336659999999
 20
79.02704799999998
 30
0.0
 11
209.2336659999999
 21
76.678048
 31
0.0
  0
LINE
  5
B85E
330
B802
100
AcDbEntity
  8
1
  6
Continuous
100
AcDbLine
 10
236.3336659999999
 20
47.85254799999999
 30
0.0
 11
233.333666
 21
47.85254799999999
 31
0.0
  0
ARC
  5
B85F
330
B802
100
AcDbEntity
  8
1
  6
Continuous
100
AcDbCircle
 10
233.333666
 20
49.85254799999999
 30
0.0
 40
2.0
100
AcDbArc
 50
180.0
 51
270.0
  0
LINE
  5
B860
330
B802
100
AcDbEntity
  8
2
  6
Continuous
100
AcDbLine
 10
239.333666
 20
66.852548
 30
0.0
 11
240.740091
 21
67.66454799999999
 31
0.0
  0
LINE
  5
B861
330
B802
100
AcDbEntity
  8
1
  6
Continuous
100
AcDbLine
 10
236.3336659999999
 20
74.602548
 30
0.0
 11
240.8336659999999
 21
74.602548
 31
0.0
  0
LINE
  5
B862
330
B802
100
AcDbEntity
  8
1
  6
Continuous
100
AcDbLine
 10
236.3336659999999
 20
81.10254799999998
 30
0.0
 11
240.8336659999999
 21
81.10254799999998
 31
0.0
  0
LINE
  5
B863
330
B802
100
AcDbEntity
  8
1
  6
Continuous
100
AcDbLine
 10
240.740091
 20
72.759648
 30
0.0
 11
240.740091
 21
66.852548
 31
0.0
  0
LINE
  5
B864
330
B802
100
AcDbEntity
  8
1
  6
Continuous
100
AcDbLine
 10
240.8336659999999
 20
81.10254799999998
 30
0.0
 11
240.8336659999999
 21
74.602548
 31
0.0
  0
LINE
  5
B865
330
B802
100
AcDbEntity
  8
1
  6
Continuous
100
AcDbLine
 10
221.733666
 20
91.352548
 30
0.0
 11
190.5730209999999
 21
91.352548
 31
0.0
  0
LINE
  5
B866
330
B802
100
AcDbEntity
  8
1
  6
Continuous
100
AcDbLine
 10
221.783666
 20
91.352548
 30
0.0
 11
231.333666
 21
94.85254799999998
 31
0.0
  0
LINE
  5
B867
330
B802
100
AcDbEntity
  8
2
  6
Continuous
100
AcDbLine
 10
239.333666
 20
88.852548
 30
0.0
 11
240.740091
 21
88.04054800000001
 31
0.0
  0
LINE
  5
B868
330
B802
100
AcDbEntity
  8
1
  6
Continuous
100
AcDbLine
 10
236.3336659999999
 20
107.8525479999999
 30
0.0
 11
233.333666
 21
107.8525479999999
 31
0.0
  0
ARC
  5
B869
330
B802
100
AcDbEntity
  8
1
  6
Continuous
100
AcDbCircle
 10
233.333666
 20
105.8525479999999
 30
0.0
 40
2.0
100
AcDbArc
 50
90.0
 51
180.0
  0
LINE
  5
B86A
330
B802
100
AcDbEntity
  8
4
  6
CENTER
100
AcDbLine
 10
26.53552
 20
349.5808289999998
 30
0.0
 11
164.28392
 21
270.0517529999999
 31
0.0
  0
LINE
  5
B86B
330
B802
100
AcDbEntity
  8
5
  6
PHANTOM
100
AcDbLine
 10
161.8365629999999
 20
280.903737
 30
0.0
 11
87.58274099999999
 21
329.5560029999998
 31
0.0
  0
LINE
  5
B86C
330
B802
100
AcDbEntity
  8
5
  6
PHANTOM
100
AcDbLine
 10
153.6621479999998
 20
266.745235
 30
0.0
 11
74.401139
 21
306.724798
 31
0.0
  0
LINE
  5
B86D
330
B802
100
AcDbEntity
  8
1
  6
Continuous
100
AcDbLine
 10
64.674414
 20
215.368143
 30
0.0
 11
69.681601
 21
303.999971
 31
0.0
  0
LINE
  5
B86E
330
B802
100
AcDbEntity
  8
1
  6
Continuous
100
AcDbLine
 10
48.32558399999999
 20
215.368143
 30
0.0
 11
43.31839699999998
 21
303.999971
 31
0.0
  0
ARC
  5
B86F
330
B802
100
AcDbEntity
  8
1
  6
Continuous
100
AcDbCircle
 10
62.17839399999999
 20
215.5091539999999
 30
0.0
 40
2.5
100
AcDbArc
 50
284.6179859999999
 51
356.766556
  0
ARC
  5
B870
330
B802
100
AcDbEntity
  8
1
  6
Continuous
100
AcDbCircle
 10
50.821604
 20
215.5091539999999
 30
0.0
 40
2.5
100
AcDbArc
 50
183.233444
 51
255.382014
  0
ARC
  5
B871
330
B802
100
AcDbEntity
  8
1
  6
Continuous
100
AcDbCircle
 10
56.499999
 20
237.280829
 30
0.0
 40
25.0
100
AcDbArc
 50
255.382014
 51
284.6179859999999
  0
ARC
  5
B872
330
B802
100
AcDbEntity
  8
1
  6
Continuous
100
AcDbCircle
 10
56.499999
 20
314.280829
 30
0.0
 40
8.0
100
AcDbArc
 50
12.83958799999999
 51
167.160412
  0
ARC
  5
B873
330
B802
100
AcDbEntity
  8
5
  6
PHANTOM
100
AcDbCircle
 10
56.499999
 20
331.880829
 30
0.0
 40
8.0
100
AcDbArc
 50
12.83958799999999
 51
167.160412
  0
LINE
  5
B874
330
B802
100
AcDbEntity
  8
4
  6
CENTER
100
AcDbLine
 10
91.499999
 20
332.2808289999999
 30
0.0
 11
21.499999
 21
332.2808289999999
 31
0.0
  0
ARC
  5
B875
330
B802
100
AcDbEntity
  8
1
  6
Continuous
100
AcDbCircle
 10
56.499999
 20
323.2808289999999
 30
0.0
 40
26.0
100
AcDbArc
 50
61.36900999999999
 51
118.6309899999999
  0
ARC
  5
B876
330
B802
100
AcDbEntity
  8
1
  6
Continuous
100
AcDbCircle
 10
41.499999
 20
308.637648
 30
0.0
 40
2.0
100
AcDbArc
 50
180.0
 51
237.607635
  0
ARC
  5
B877
330
B802
100
AcDbEntity
  8
1
  6
Continuous
100
AcDbCircle
 10
242.999999
 20
315.2808289999999
 30
0.0
 40
200.0
100
AcDbArc
 50
180.0
 51
183.233444
  0
LINE
  5
B878
330
B802
100
AcDbEntity
  8
1
  6
Continuous
100
AcDbLine
 10
42.999999
 20
315.2808289999999
 30
0.0
 11
42.999999
 21
344.346203
 31
0.0
  0
LINE
  5
B879
330
B802
100
AcDbEntity
  8
1
  6
Continuous
100
AcDbLine
 10
44.999999
 20
346.5992769999999
 30
0.0
 11
44.999999
 21
315.2808289999999
 31
0.0
  0
LINE
  5
B87A
330
B802
100
AcDbEntity
  8
1
  6
Continuous
100
AcDbLine
 10
49.57179599999999
 20
318.280829
 30
0.0
 11
56.499999
 21
330.2808289999999
 31
0.0
  0
LINE
  5
B87B
330
B802
100
AcDbEntity
  8
1
  6
Continuous
100
AcDbLine
 10
56.499999
 20
330.2808289999999
 30
0.0
 11
63.428202
 21
318.280829
 31
0.0
  0
ARC
  5
B87C
330
B802
100
AcDbEntity
  8
1
  6
Continuous
100
AcDbCircle
 10
47.725035
 20
316.280829
 30
0.0
 40
1.0
100
AcDbArc
 50
270.0
 51
347.160412
  0
ARC
  5
B87D
330
B802
100
AcDbEntity
  8
1
  6
Continuous
100
AcDbCircle
 10
47.725035
 20
316.280829
 30
0.0
 40
1.0
100
AcDbArc
 50
270.0
 51
347.160412
  0
LINE
  5
B87E
330
B802
100
AcDbEntity
  8
1
  6
Continuous
100
AcDbLine
 10
42.999999
 20
321.1129899999999
 30
0.0
 11
39.760353
 21
308.570401
 31
0.0
  0
LINE
  5
B87F
330
B802
100
AcDbEntity
  8
1
  6
Continuous
100
AcDbLine
 10
42.999999
 20
315.2808289999999
 30
0.0
 11
47.725035
 21
315.2808289999999
 31
0.0
  0
ARC
  5
B880
330
B802
100
AcDbEntity
  8
5
  6
PHANTOM
100
AcDbCircle
 10
47.725035
 20
333.880829
 30
0.0
 40
1.0
100
AcDbArc
 50
270.0
 51
347.160412
  0
ARC
  5
B881
330
B802
100
AcDbEntity
  8
1
  6
Continuous
100
AcDbCircle
 10
44.999999
 20
344.346203
 30
0.0
 40
2.0
100
AcDbArc
 50
118.6309899999999
 51
180.0
  0
LINE
  5
B882
330
B802
100
AcDbEntity
  8
5
  6
PHANTOM
100
AcDbLine
 10
42.999999
 20
332.880829
 30
0.0
 11
47.725035
 21
332.880829
 31
0.0
  0
ARC
  5
B883
330
B802
100
AcDbEntity
  8
1
  6
Continuous
100
AcDbCircle
 10
71.499999
 20
308.637648
 30
0.0
 40
2.0
100
AcDbArc
 50
302.3923649999999
 51
0.0
  0
ARC
  5
B884
330
B802
100
AcDbEntity
  8
1
  6
Continuous
100
AcDbCircle
 10
-130.0000009999999
 20
315.2808289999999
 30
0.0
 40
200.0
100
AcDbArc
 50
356.766556
 51
0.0
  0
LINE
  5
B885
330
B802
100
AcDbEntity
  8
1
  6
Continuous
100
AcDbLine
 10
69.999999
 20
315.2808289999999
 30
0.0
 11
69.999999
 21
344.346203
 31
0.0
  0
LINE
  5
B886
330
B802
100
AcDbEntity
  8
1
  6
Continuous
100
AcDbLine
 10
67.999999
 20
346.5992769999999
 30
0.0
 11
67.999999
 21
315.2808289999999
 31
0.0
  0
LINE
  5
B887
330
B802
100
AcDbEntity
  8
1
  6
Continuous
100
AcDbLine
 10
69.999999
 20
321.1129899999999
 30
0.0
 11
73.23964499999998
 21
308.570401
 31
0.0
  0
ARC
  5
B888
330
B802
100
AcDbEntity
  8
1
  6
Continuous
100
AcDbCircle
 10
65.274963
 20
316.280829
 30
0.0
 40
1.0
100
AcDbArc
 50
192.839588
 51
270.0
  0
ARC
  5
B889
330
B802
100
AcDbEntity
  8
1
  6
Continuous
100
AcDbCircle
 10
65.274963
 20
316.280829
 30
0.0
 40
1.0
100
AcDbArc
 50
192.839588
 51
270.0
  0
LINE
  5
B88A
330
B802
100
AcDbEntity
  8
1
  6
Continuous
100
AcDbLine
 10
65.274963
 20
315.2808289999999
 30
0.0
 11
69.999999
 21
315.2808289999999
 31
0.0
  0
ARC
  5
B88B
330
B802
100
AcDbEntity
  8
1
  6
Continuous
100
AcDbCircle
 10
67.999999
 20
344.346203
 30
0.0
 40
2.0
100
AcDbArc
 50
0.0
 51
61.36900999999999
  0
LINE
  5
B88C
330
B802
100
AcDbEntity
  8
5
  6
PHANTOM
100
AcDbLine
 10
65.274963
 20
332.880829
 30
0.0
 11
69.999999
 21
332.880829
 31
0.0
  0
ARC
  5
B88D
330
B802
100
AcDbEntity
  8
5
  6
PHANTOM
100
AcDbCircle
 10
65.274963
 20
333.880829
 30
0.0
 40
1.0
100
AcDbArc
 50
192.839588
 51
270.0
  0
LINE
  5
B88E
330
B802
100
AcDbEntity
  8
1
  6
Continuous
100
AcDbLine
 10
188.945687
 20
298.4195859999999
 30
0.0
 11
196.0787169999999
 21
214.112217
 31
0.0
  0
LINE
  5
B88F
330
B802
100
AcDbEntity
  8
1
  6
Continuous
100
AcDbLine
 10
203.2336659999999
 20
315.1374149999999
 30
0.0
 11
203.2336659999999
 21
234.351897
 31
0.0
  0
ARC
  5
B890
330
B802
100
AcDbEntity
  8
1
  6
Continuous
100
AcDbCircle
 10
201.2336659999999
 20
220.280829
 30
0.0
 40
8.0
100
AcDbArc
 50
270.0
 51
0.0
  0
ARC
  5
B891
330
B802
100
AcDbEntity
  8
1
  6
Continuous
100
AcDbCircle
 10
198.071597
 20
214.280829
 30
0.0
 40
2.0
100
AcDbArc
 50
184.8361309999999
 51
270.0
  0
LINE
  5
B892
330
B802
100
AcDbEntity
  8
1
  6
Continuous
100
AcDbLine
 10
198.071597
 20
212.280829
 30
0.0
 11
201.2336659999999
 21
212.280829
 31
0.0
  0
ARC
  5
B893
330
B802
100
AcDbEntity
  8
1
  6
Continuous
100
AcDbCircle
 10
201.2336659999999
 20
222.9671209999999
 30
0.0
 40
8.0
100
AcDbArc
 50
0.0
 51
45.0
  0
ARC
  5
B894
330
B802
100
AcDbEntity
  8
1
  6
Continuous
100
AcDbCircle
 10
208.233666
 20
234.351897
 30
0.0
 40
5.0
100
AcDbArc
 50
180.0
 51
225.0
  0
LINE
  5
B895
330
B802
100
AcDbEntity
  8
1
  6
Continuous
100
AcDbLine
 10
206.89052
 20
228.623975
 30
0.0
 11
204.6981319999999
 21
230.816363
 31
0.0
  0
LINE
  5
B896
330
B802
100
AcDbEntity
  8
1
  6
Continuous
100
AcDbLine
 10
209.2336659999999
 20
222.9671209999999
 30
0.0
 11
209.2336659999999
 21
220.280829
 31
0.0
  0
LINE
  5
B897
330
B802
100
AcDbEntity
  8
1
  6
Continuous
100
AcDbLine
 10
188.6336659999997
 20
349.2808289999999
 30
0.0
 11
195.833666
 21
349.2808289999999
 31
0.0
  0
LINE
  5
B898
330
B802
100
AcDbEntity
  8
1
  6
Continuous
100
AcDbLine
 10
187.6336659999997
 20
315.2808289999999
 30
0.0
 11
195.533666
 21
315.2808289999999
 31
0.0
  0
ARC
  5
B899
330
B802
100
AcDbEntity
  8
1
  6
Continuous
100
AcDbCircle
 10
388.233666
 20
315.2808289999999
 30
0.0
 40
200.0
100
AcDbArc
 50
180.0
 51
184.8361309999999
  0
ARC
  5
B89A
330
B802
100
AcDbEntity
  8
5
  6
PHANTOM
100
AcDbCircle
 10
138.772412
 20
284.7808289999999
 30
0.0
 40
25.0
100
AcDbArc
 50
315.382014
 51
344.6179859999999
  0
ARC
  5
B89B
330
B802
100
AcDbEntity
  8
5
  6
PHANTOM
100
AcDbCircle
 10
154.788038
 20
268.9773569999999
 30
0.0
 40
2.5
100
AcDbArc
 50
243.233444
 51
315.382014
  0
ARC
  5
B89C
330
B802
100
AcDbEntity
  8
5
  6
PHANTOM
100
AcDbCircle
 10
160.466433
 20
278.8126259999998
 30
0.0
 40
2.5
100
AcDbArc
 50
344.6179859999999
 51
56.76655600000001
  0
LINE
  5
B89D
330
B802
100
AcDbEntity
  8
1
  6
Continuous
100
AcDbLine
 10
187.6336659999997
 20
330.2808289999999
 30
0.0
 11
187.133666
 21
329.7808289999999
 31
0.0
  0
LINE
  5
B89E
330
B802
100
AcDbEntity
  8
1
  6
Continuous
100
AcDbLine
 10
187.6336659999997
 20
348.2808289999999
 30
0.0
 11
187.6336659999997
 21
315.2808289999999
 31
0.0
  0
LINE
  5
B89F
330
B802
100
AcDbEntity
  8
1
  6
Continuous
100
AcDbLine
 10
187.6336659999997
 20
326.2808289999999
 30
0.0
 11
187.133666
 21
325.7808289999999
 31
0.0
  0
LINE
  5
B8A0
330
B802
100
AcDbEntity
  8
1
  6
Continuous
100
AcDbLine
 10
187.133666
 20
326.780829
 30
0.0
 11
187.6336659999997
 21
326.2808289999999
 31
0.0
  0
LINE
  5
B8A1
330
B802
100
AcDbEntity
  8
1
  6
Continuous
100
AcDbLine
 10
187.6336659999997
 20
327.2808289999999
 30
0.0
 11
187.133666
 21
326.780829
 31
0.0
  0
LINE
  5
B8A2
330
B802
100
AcDbEntity
  8
1
  6
Continuous
100
AcDbLine
 10
187.133666
 20
327.7808289999999
 30
0.0
 11
187.6336659999997
 21
327.2808289999999
 31
0.0
  0
LINE
  5
B8A3
330
B802
100
AcDbEntity
  8
1
  6
Continuous
100
AcDbLine
 10
187.6336659999997
 20
328.2808289999999
 30
0.0
 11
187.133666
 21
327.7808289999999
 31
0.0
  0
LINE
  5
B8A4
330
B802
100
AcDbEntity
  8
1
  6
Continuous
100
AcDbLine
 10
187.133666
 20
328.780829
 30
0.0
 11
187.6336659999997
 21
328.2808289999999
 31
0.0
  0
LINE
  5
B8A5
330
B802
100
AcDbEntity
  8
1
  6
Continuous
100
AcDbLine
 10
187.6336659999997
 20
329.2808289999999
 30
0.0
 11
187.133666
 21
328.780829
 31
0.0
  0
LINE
  5
B8A6
330
B802
100
AcDbEntity
  8
1
  6
Continuous
100
AcDbLine
 10
187.133666
 20
329.7808289999999
 30
0.0
 11
187.6336659999997
 21
329.2808289999999
 31
0.0
  0
LINE
  5
B8A7
330
B802
100
AcDbEntity
  8
1
  6
Continuous
100
AcDbLine
 10
187.133666
 20
318.7808289999999
 30
0.0
 11
187.6336659999997
 21
318.280829
 31
0.0
  0
LINE
  5
B8A8
330
B802
100
AcDbEntity
  8
1
  6
Continuous
100
AcDbLine
 10
187.6336659999997
 20
319.2808289999998
 30
0.0
 11
187.133666
 21
318.7808289999999
 31
0.0
  0
LINE
  5
B8A9
330
B802
100
AcDbEntity
  8
1
  6
Continuous
100
AcDbLine
 10
187.133666
 20
319.7808289999999
 30
0.0
 11
187.6336659999997
 21
319.2808289999998
 31
0.0
  0
LINE
  5
B8AA
330
B802
100
AcDbEntity
  8
1
  6
Continuous
100
AcDbLine
 10
187.6336659999997
 20
320.280829
 30
0.0
 11
187.133666
 21
319.7808289999999
 31
0.0
  0
LINE
  5
B8AB
330
B802
100
AcDbEntity
  8
1
  6
Continuous
100
AcDbLine
 10
187.133666
 20
320.780829
 30
0.0
 11
187.6336659999997
 21
320.280829
 31
0.0
  0
LINE
  5
B8AC
330
B802
100
AcDbEntity
  8
1
  6
Continuous
100
AcDbLine
 10
187.6336659999997
 20
321.2808289999999
 30
0.0
 11
187.133666
 21
320.780829
 31
0.0
  0
LINE
  5
B8AD
330
B802
100
AcDbEntity
  8
1
  6
Continuous
100
AcDbLine
 10
187.133666
 20
321.7808289999999
 30
0.0
 11
187.6336659999997
 21
321.2808289999999
 31
0.0
  0
LINE
  5
B8AE
330
B802
100
AcDbEntity
  8
1
  6
Continuous
100
AcDbLine
 10
187.6336659999997
 20
322.2808289999999
 30
0.0
 11
187.133666
 21
321.7808289999999
 31
0.0
  0
LINE
  5
B8AF
330
B802
100
AcDbEntity
  8
1
  6
Continuous
100
AcDbLine
 10
187.133666
 20
322.780829
 30
0.0
 11
187.6336659999997
 21
322.2808289999999
 31
0.0
  0
LINE
  5
B8B0
330
B802
100
AcDbEntity
  8
1
  6
Continuous
100
AcDbLine
 10
187.6336659999997
 20
323.2808289999999
 30
0.0
 11
187.133666
 21
322.780829
 31
0.0
  0
LINE
  5
B8B1
330
B802
100
AcDbEntity
  8
1
  6
Continuous
100
AcDbLine
 10
187.133666
 20
323.7808289999999
 30
0.0
 11
187.6336659999997
 21
323.2808289999999
 31
0.0
  0
LINE
  5
B8B2
330
B802
100
AcDbEntity
  8
1
  6
Continuous
100
AcDbLine
 10
187.6336659999997
 20
324.2808289999999
 30
0.0
 11
187.133666
 21
323.7808289999999
 31
0.0
  0
LINE
  5
B8B3
330
B802
100
AcDbEntity
  8
1
  6
Continuous
100
AcDbLine
 10
187.133666
 20
324.780829
 30
0.0
 11
187.6336659999997
 21
324.2808289999999
 31
0.0
  0
LINE
  5
B8B4
330
B802
100
AcDbEntity
  8
1
  6
Continuous
100
AcDbLine
 10
187.6336659999997
 20
325.2808289999999
 30
0.0
 11
187.133666
 21
324.780829
 31
0.0
  0
LINE
  5
B8B5
330
B802
100
AcDbEntity
  8
1
  6
Continuous
100
AcDbLine
 10
187.133666
 20
325.7808289999999
 30
0.0
 11
187.6336659999997
 21
325.2808289999999
 31
0.0
  0
ARC
  5
B8B6
330
B802
100
AcDbEntity
  8
1
  6
Continuous
100
AcDbCircle
 10
188.6336659999997
 20
348.2808289999999
 30
0.0
 40
1.0
100
AcDbArc
 50
90.0
 51
180.0
  0
LINE
  5
B8B7
330
B802
100
AcDbEntity
  8
1
  6
Continuous
100
AcDbLine
 10
221.844665
 20
318.1799919999999
 30
0.0
 11
230.7616869999999
 21
303.323513
 31
0.0
  0
ARC
  5
B8B8
330
B802
100
AcDbEntity
  8
1
  6
Continuous
100
AcDbCircle
 10
232.5176899999999
 20
304.2808289999999
 30
0.0
 40
2.0
100
AcDbArc
 50
208.597786
 51
270.0
  0
LINE
  5
B8B9
330
B802
100
AcDbEntity
  8
1
  6
Continuous
100
AcDbLine
 10
232.5176899999999
 20
302.2808289999999
 30
0.0
 11
236.3336659999999
 21
302.2808289999999
 31
0.0
  0
LINE
  5
B8BA
330
B802
100
AcDbEntity
  8
1
  6
Continuous
100
AcDbLine
 10
231.333666
 20
303.318915
 30
0.0
 11
231.333666
 21
307.718431
 31
0.0
  0
LINE
  5
B8BB
330
B802
100
AcDbEntity
  8
1
  6
Continuous
100
AcDbLine
 10
230.7642009999999
 20
308.570401
 30
0.0
 11
221.7952939999999
 21
321.988687
 31
0.0
  0
LINE
  5
B8BC
330
B802
100
AcDbEntity
  8
1
  6
Continuous
100
AcDbLine
 10
221.733666
 20
318.280829
 30
0.0
 11
221.733666
 21
346.2808289999999
 31
0.0
  0
LINE
  5
B8BD
330
B802
100
AcDbEntity
  8
1
  6
Continuous
100
AcDbLine
 10
221.783666
 20
318.4193209999999
 30
0.0
 11
221.783666
 21
346.152693
 31
0.0
  0
LINE
  5
B8BE
330
B802
100
AcDbEntity
  8
1
  6
Continuous
100
AcDbLine
 10
195.833666
 20
349.2808289999999
 30
0.0
 11
195.833666
 21
315.5808289999999
 31
0.0
  0
LINE
  5
B8BF
330
B802
100
AcDbEntity
  8
1
  6
Continuous
100
AcDbLine
 10
195.9336659999999
 20
349.2808289999999
 30
0.0
 11
195.9336659999999
 21
315.2808289999999
 31
0.0
  0
LINE
  5
B8C0
330
B802
100
AcDbEntity
  8
1
  6
Continuous
100
AcDbLine
 10
221.733666
 20
318.280829
 30
0.0
 11
204.8919179999999
 21
316.7726129999999
 31
0.0
  0
ARC
  5
B8C1
330
B802
100
AcDbEntity
  8
1
  6
Continuous
100
AcDbCircle
 10
209.2336659999999
 20
315.1374149999999
 30
0.0
 40
6.0
100
AcDbArc
 50
95.11731500000001
 51
180.0
  0
ARC
  5
B8C2
330
B802
100
AcDbEntity
  8
1
  6
Continuous
100
AcDbCircle
 10
195.533666
 20
315.5808289999999
 30
0.0
 40
0.3
100
AcDbArc
 50
270.0
 51
0.0
  0
LINE
  5
B8C3
330
B802
100
AcDbEntity
  8
1
  6
Continuous
100
AcDbLine
 10
195.9336659999999
 20
315.2808289999999
 30
0.0
 11
195.533666
 21
315.2808289999999
 31
0.0
  0
ARC
  5
B8C4
330
B802
100
AcDbEntity
  8
1
  6
Continuous
100
AcDbCircle
 10
206.2298479999999
 20
301.832401
 30
0.0
 40
15.0
100
AcDbArc
 50
95.11731500000001
 51
100.851964
  0
LINE
  5
B8C5
330
B802
100
AcDbEntity
  8
1
  6
Continuous
100
AcDbLine
 10
221.733666
 20
322.2808289999999
 30
0.0
 11
221.783666
 21
322.2808289999999
 31
0.0
  0
ARC
  5
B8C6
330
B802
100
AcDbEntity
  8
1
  6
Continuous
100
AcDbCircle
 10
222.283666
 20
318.4193209999999
 30
0.0
 40
0.5
100
AcDbArc
 50
180.0
 51
210.963757
  0
LINE
  5
B8C7
330
B802
100
AcDbEntity
  8
1
  6
Continuous
100
AcDbLine
 10
221.733666
 20
322.2808289999999
 30
0.0
 11
208.6984939999999
 21
321.1135
 31
0.0
  0
LINE
  5
B8C8
330
B802
100
AcDbEntity
  8
1
  6
Continuous
100
AcDbLine
 10
202.192959
 20
345.298197
 30
0.0
 11
221.1445299999998
 21
342.412171
 31
0.0
  0
LINE
  5
B8C9
330
B802
100
AcDbEntity
  8
1
  6
Continuous
100
AcDbLine
 10
202.782095
 20
349.1668549999998
 30
0.0
 11
221.733666
 21
346.2808289999999
 31
0.0
  0
ARC
  5
B8CA
330
B802
100
AcDbEntity
  8
1
  6
Continuous
100
AcDbCircle
 10
201.276608
 20
339.280829
 30
0.0
 40
10.0
100
AcDbArc
 50
81.34127900000001
 51
90.0
  0
LINE
  5
B8CB
330
B802
100
AcDbEntity
  8
1
  6
Continuous
100
AcDbLine
 10
195.9336659999999
 20
349.2808289999999
 30
0.0
 11
201.276608
 21
349.2808289999999
 31
0.0
  0
LINE
  5
B8CC
330
B802
100
AcDbEntity
  8
1
  6
Continuous
100
AcDbLine
 10
195.833666
 20
347.680829
 30
0.0
 11
195.9336659999999
 21
347.680829
 31
0.0
  0
LINE
  5
B8CD
330
B802
100
AcDbEntity
  8
1
  6
Continuous
100
AcDbLine
 10
195.9336659999999
 20
345.36757
 30
0.0
 11
201.276608
 21
345.36757
 31
0.0
  0
ARC
  5
B8CE
330
B802
100
AcDbEntity
  8
1
  6
Continuous
100
AcDbCircle
 10
201.276608
 20
339.280829
 30
0.0
 40
6.086740999999999
100
AcDbArc
 50
81.34127900000001
 51
90.0
  0
LINE
  5
B8CF
330
B802
100
AcDbEntity
  8
1
  6
Continuous
100
AcDbLine
 10
195.833666
 20
344.8863259999998
 30
0.0
 11
195.9336659999999
 21
344.8863259999998
 31
0.0
  0
LINE
  5
B8D0
330
B802
100
AcDbEntity
  8
1
  6
Continuous
100
AcDbLine
 10
195.833666
 20
346.945148
 30
0.0
 11
195.9336659999999
 21
346.945148
 31
0.0
  0
LINE
  5
B8D1
330
B802
100
AcDbEntity
  8
1
  6
Continuous
100
AcDbLine
 10
195.833666
 20
347.350727
 30
0.0
 11
195.9336659999999
 21
347.350727
 31
0.0
  0
LINE
  5
B8D2
330
B802
100
AcDbEntity
  8
1
  6
Continuous
100
AcDbLine
 10
221.733666
 20
341.95024
 30
0.0
 11
221.783666
 21
341.95024
 31
0.0
  0
LINE
  5
B8D3
330
B802
100
AcDbEntity
  8
1
  6
Continuous
100
AcDbLine
 10
221.733666
 20
344.7808289999999
 30
0.0
 11
221.783666
 21
344.7808289999999
 31
0.0
  0
ARC
  5
B8D4
330
B802
100
AcDbEntity
  8
1
  6
Continuous
100
AcDbCircle
 10
222.283666
 20
346.152693
 30
0.0
 40
0.5
100
AcDbArc
 50
151.2520859999999
 51
180.0
  0
LINE
  5
B8D5
330
B802
100
AcDbEntity
  8
1
  6
Continuous
100
AcDbLine
 10
236.3336659999999
 20
314.7808289999999
 30
0.0
 11
240.8336659999999
 21
314.7808289999999
 31
0.0
  0
LINE
  5
B8D6
330
B802
100
AcDbEntity
  8
1
  6
Continuous
100
AcDbLine
 10
236.3336659999999
 20
308.280829
 30
0.0
 11
240.8336659999999
 21
308.280829
 31
0.0
  0
LINE
  5
B8D7
330
B802
100
AcDbEntity
  8
1
  6
Continuous
100
AcDbLine
 10
240.8336659999999
 20
314.7808289999999
 30
0.0
 11
240.8336659999999
 21
308.280829
 31
0.0
  0
LINE
  5
B8D8
330
B802
100
AcDbEntity
  8
1
  6
Continuous
100
AcDbLine
 10
236.3336659999999
 20
349.780829
 30
0.0
 11
240.8336659999999
 21
349.780829
 31
0.0
  0
LINE
  5
B8D9
330
B802
100
AcDbEntity
  8
1
  6
Continuous
100
AcDbLine
 10
288.801571
 20
93.852548
 30
0.0
 11
288.801571
 21
61.852548
 31
0.0
  0
LINE
  5
B8DA
330
B802
100
AcDbEntity
  8
1
  6
Continuous
100
AcDbLine
 10
287.1015709999999
 20
95.352548
 30
0.0
 11
287.1015709999999
 21
60.352548
 31
0.0
  0
LINE
  5
B8DB
330
B802
100
AcDbEntity
  8
1
  6
Continuous
100
AcDbLine
 10
257.133666
 20
88.852548
 30
0.0
 11
258.683666
 21
87.302548
 31
0.0
  0
LINE
  5
B8DC
330
B802
100
AcDbEntity
  8
1
  6
Continuous
100
AcDbLine
 10
257.133666
 20
88.852548
 30
0.0
 11
257.133666
 21
82.945448
 31
0.0
  0
LINE
  5
B8DD
330
B802
100
AcDbEntity
  8
1
  6
Continuous
100
AcDbLine
 10
288.501571
 20
60.352548
 30
0.0
 11
288.501571
 21
95.352548
 31
0.0
  0
ARC
  5
B8DE
330
B802
100
AcDbEntity
  8
1
  6
Continuous
100
AcDbCircle
 10
324.822632
 20
86.602548
 30
0.0
 40
34.52106099999999
100
AcDbArc
 50
165.317147
 51
194.6828529999999
  0
ARC
  5
B8DF
330
B802
100
AcDbEntity
  8
1
  6
Continuous
100
AcDbCircle
 10
262.7805099999998
 20
86.602548
 30
0.0
 40
34.52106099999999
100
AcDbArc
 50
345.317147
 51
14.68285299999999
  0
LINE
  5
B8E0
330
B802
100
AcDbEntity
  8
1
  6
Continuous
100
AcDbLine
 10
298.801571
 20
93.852548
 30
0.0
 11
298.801571
 21
61.852548
 31
0.0
  0
LINE
  5
B8E1
330
B802
100
AcDbEntity
  8
1
  6
Continuous
100
AcDbLine
 10
297.301571
 20
95.352548
 30
0.0
 11
297.301571
 21
60.352548
 31
0.0
  0
LINE
  5
B8E2
330
B802
100
AcDbEntity
  8
1
  6
Continuous
100
AcDbLine
 10
290.301571
 20
95.352548
 30
0.0
 11
290.301571
 21
60.352548
 31
0.0
  0
LINE
  5
B8E3
330
B802
100
AcDbEntity
  8
1
  6
Continuous
100
AcDbLine
 10
334.8067349999999
 20
66.85257
 30
0.0
 11
334.8067349999999
 21
88.85257000000001
 31
0.0
  0
LINE
  5
B8E4
330
B802
100
AcDbEntity
  8
1
  6
Continuous
100
AcDbLine
 10
331.806735
 20
66.85257
 30
0.0
 11
331.806735
 21
88.85257000000001
 31
0.0
  0
LINE
  5
B8E5
330
B802
100
AcDbEntity
  8
1
  6
Continuous
100
AcDbLine
 10
326.07059
 20
66.85257
 30
0.0
 11
326.07059
 21
88.85257000000001
 31
0.0
  0
LINE
  5
B8E6
330
B802
100
AcDbEntity
  8
1
  6
Continuous
100
AcDbLine
 10
328.07059
 20
66.85257
 30
0.0
 11
328.07059
 21
88.85257000000001
 31
0.0
  0
LINE
  5
B8E7
330
B802
100
AcDbEntity
  8
1
  6
Continuous
100
AcDbLine
 10
287.1015709999999
 20
60.352548
 30
0.0
 11
288.501571
 21
60.352548
 31
0.0
  0
LINE
  5
B8E8
330
B802
100
AcDbEntity
  8
4
  6
CENTER
100
AcDbLine
 10
283.801571
 20
77.852548
 30
0.0
 11
303.801571
 21
77.852548
 31
0.0
  0
LINE
  5
B8E9
330
B802
100
AcDbEntity
  8
1
  6
Continuous
100
AcDbLine
 10
286.801571
 20
66.915398
 30
0.0
 11
287.1015709999999
 21
65.757248
 31
0.0
  0
LINE
  5
B8EA
330
B802
100
AcDbEntity
  8
1
  6
Continuous
100
AcDbLine
 10
257.133666
 20
72.759648
 30
0.0
 11
257.133666
 21
66.852548
 31
0.0
  0
ARC
  5
B8EB
330
B802
100
AcDbEntity
  8
1
  6
Continuous
100
AcDbCircle
 10
246.92632
 20
77.852548
 30
0.0
 40
11.407346
100
AcDbArc
 50
333.483346
 51
26.516654
  0
LINE
  5
B8EC
330
B802
100
AcDbEntity
  8
1
  6
Continuous
100
AcDbLine
 10
257.133666
 20
66.852548
 30
0.0
 11
258.683666
 21
68.402548
 31
0.0
  0
ARC
  5
B8ED
330
B802
100
AcDbEntity
  8
1
  6
Continuous
100
AcDbCircle
 10
266.433666
 20
84.42864099999999
 30
0.0
 40
0.3
100
AcDbArc
 50
0.0
 51
90.0
  0
LINE
  5
B8EE
330
B802
100
AcDbEntity
  8
2
  6
Continuous
100
AcDbLine
 10
266.433666
 20
84.72864099999998
 30
0.0
 11
258.733666
 21
77.852548
 31
0.0
  0
LINE
  5
B8EF
330
B802
100
AcDbEntity
  8
2
  6
Continuous
100
AcDbLine
 10
266.433666
 20
77.852548
 30
0.0
 11
258.733666
 21
84.72864099999998
 31
0.0
  0
LINE
  5
B8F0
330
B802
100
AcDbEntity
  8
1
  6
Continuous
100
AcDbLine
 10
266.433666
 20
77.852548
 30
0.0
 11
258.733666
 21
77.852548
 31
0.0
  0
ARC
  5
B8F1
330
B802
100
AcDbEntity
  8
1
  6
Continuous
100
AcDbCircle
 10
266.433666
 20
71.27645499999998
 30
0.0
 40
0.3
100
AcDbArc
 50
270.0
 51
0.0
  0
LINE
  5
B8F2
330
B802
100
AcDbEntity
  8
1
  6
Continuous
100
AcDbLine
 10
266.433666
 20
70.976455
 30
0.0
 11
258.733666
 21
70.976455
 31
0.0
  0
LINE
  5
B8F3
330
B802
100
AcDbEntity
  8
2
  6
Continuous
100
AcDbLine
 10
258.733666
 20
77.852548
 30
0.0
 11
266.433666
 21
70.976455
 31
0.0
  0
LINE
  5
B8F4
330
B802
100
AcDbEntity
  8
2
  6
Continuous
100
AcDbLine
 10
258.733666
 20
70.976455
 30
0.0
 11
266.433666
 21
77.852548
 31
0.0
  0
LINE
  5
B8F5
330
B802
100
AcDbEntity
  8
1
  6
Continuous
100
AcDbLine
 10
266.733666
 20
84.42864099999999
 30
0.0
 11
266.733666
 21
71.27645499999998
 31
0.0
  0
LINE
  5
B8F6
330
B802
100
AcDbEntity
  8
1
  6
Continuous
100
AcDbLine
 10
266.433666
 20
84.72864099999998
 30
0.0
 11
258.733666
 21
84.72864099999998
 31
0.0
  0
LINE
  5
B8F7
330
B802
100
AcDbEntity
  8
1
  6
Continuous
100
AcDbLine
 10
258.683666
 20
87.302548
 30
0.0
 11
258.683666
 21
68.402548
 31
0.0
  0
LINE
  5
B8F8
330
B802
100
AcDbEntity
  8
1
  6
Continuous
100
AcDbLine
 10
287.1015709999999
 20
66.915398
 30
0.0
 11
286.801571
 21
66.915398
 31
0.0
  0
LINE
  5
B8F9
330
B802
100
AcDbEntity
  8
1
  6
Continuous
100
AcDbLine
 10
286.801571
 20
71.09303800000002
 30
0.0
 11
287.1015709999999
 21
70.79303799999998
 31
0.0
  0
LINE
  5
B8FA
330
B802
100
AcDbEntity
  8
1
  6
Continuous
100
AcDbLine
 10
286.801571
 20
71.09303800000002
 30
0.0
 11
287.1015709999999
 21
71.39304799999997
 31
0.0
  0
LINE
  5
B8FB
330
B802
100
AcDbEntity
  8
1
  6
Continuous
100
AcDbLine
 10
286.801571
 20
77.862578
 30
0.0
 11
287.1015709999999
 21
78.16257799999998
 31
0.0
  0
LINE
  5
B8FC
330
B802
100
AcDbEntity
  8
1
  6
Continuous
100
AcDbLine
 10
286.801571
 20
77.862578
 30
0.0
 11
287.1015709999999
 21
77.562578
 31
0.0
  0
LINE
  5
B8FD
330
B802
100
AcDbEntity
  8
1
  6
Continuous
100
AcDbLine
 10
286.801571
 20
84.61207799999998
 30
0.0
 11
287.1015709999999
 21
84.31207800000001
 31
0.0
  0
LINE
  5
B8FE
330
B802
100
AcDbEntity
  8
1
  6
Continuous
100
AcDbLine
 10
286.801571
 20
84.61207799999998
 30
0.0
 11
287.1015709999999
 21
84.91207799999996
 31
0.0
  0
LINE
  5
B8FF
330
B802
100
AcDbEntity
  8
1
  6
Continuous
100
AcDbLine
 10
288.801571
 20
66.915398
 30
0.0
 11
288.501571
 21
65.757248
 31
0.0
  0
ARC
  5
B900
330
B802
100
AcDbEntity
  8
1
  6
Continuous
100
AcDbCircle
 10
324.822632
 20
69.102548
 30
0.0
 40
34.52106099999999
100
AcDbArc
 50
165.317147
 51
194.6828529999999
  0
ARC
  5
B901
330
B802
100
AcDbEntity
  8
1
  6
Continuous
100
AcDbCircle
 10
262.7805099999998
 20
69.102548
 30
0.0
 40
34.52106099999999
100
AcDbArc
 50
345.317147
 51
14.68285299999999
  0
LINE
  5
B902
330
B802
100
AcDbEntity
  8
1
  6
Continuous
100
AcDbLine
 10
288.801571
 20
61.852548
 30
0.0
 11
290.301571
 21
61.852548
 31
0.0
  0
LINE
  5
B903
330
B802
100
AcDbEntity
  8
1
  6
Continuous
100
AcDbLine
 10
298.801571
 20
61.852548
 30
0.0
 11
297.301571
 21
61.852548
 31
0.0
  0
LINE
  5
B904
330
B802
100
AcDbEntity
  8
1
  6
Continuous
100
AcDbLine
 10
290.301571
 20
60.352548
 30
0.0
 11
297.301571
 21
60.352548
 31
0.0
  0
LINE
  5
B905
330
B802
100
AcDbEntity
  8
1
  6
Continuous
100
AcDbLine
 10
288.801571
 20
77.84249799999997
 30
0.0
 11
288.501571
 21
77.54249799999998
 31
0.0
  0
LINE
  5
B906
330
B802
100
AcDbEntity
  8
1
  6
Continuous
100
AcDbLine
 10
288.501571
 20
78.142498
 30
0.0
 11
288.801571
 21
77.84249799999997
 31
0.0
  0
LINE
  5
B907
330
B802
100
AcDbEntity
  8
1
  6
Continuous
100
AcDbLine
 10
288.501571
 20
84.91207799999996
 30
0.0
 11
288.801571
 21
84.61207799999998
 31
0.0
  0
LINE
  5
B908
330
B802
100
AcDbEntity
  8
1
  6
Continuous
100
AcDbLine
 10
288.801571
 20
84.61207799999998
 30
0.0
 11
288.501571
 21
84.31207800000001
 31
0.0
  0
LINE
  5
B909
330
B802
100
AcDbEntity
  8
1
  6
Continuous
100
AcDbLine
 10
288.501571
 20
66.915398
 30
0.0
 11
288.801571
 21
66.915398
 31
0.0
  0
LINE
  5
B90A
330
B802
100
AcDbEntity
  8
1
  6
Continuous
100
AcDbLine
 10
288.801571
 20
71.09303800000002
 30
0.0
 11
288.501571
 21
71.39304799999997
 31
0.0
  0
LINE
  5
B90B
330
B802
100
AcDbEntity
  8
1
  6
Continuous
100
AcDbLine
 10
288.501571
 20
70.79303799999998
 30
0.0
 11
288.801571
 21
71.09303800000002
 31
0.0
  0
LINE
  5
B90C
330
B802
100
AcDbEntity
  8
1
  6
Continuous
100
AcDbLine
 10
291.4289029999998
 20
77.852548
 30
0.0
 11
296.1742389999999
 21
77.852548
 31
0.0
  0
LINE
  5
B90D
330
B802
100
AcDbEntity
  8
4
  6
CENTER
100
AcDbLine
 10
339.806735
 20
77.85257
 30
0.0
 11
321.0705899999999
 21
77.85257
 31
0.0
  0
LINE
  5
B90E
330
B802
100
AcDbEntity
  8
1
  6
Continuous
100
AcDbLine
 10
334.8067349999999
 20
66.85257
 30
0.0
 11
331.806735
 21
66.85257
 31
0.0
  0
LINE
  5
B90F
330
B802
100
AcDbEntity
  8
1
  6
Continuous
100
AcDbLine
 10
328.07059
 20
66.85257
 30
0.0
 11
326.07059
 21
66.85257
 31
0.0
  0
LINE
  5
B910
330
B802
100
AcDbEntity
  8
1
  6
Continuous
100
AcDbLine
 10
365.4771629999999
 20
85.85259
 30
0.0
 11
367.0771629999999
 21
85.85259
 31
0.0
  0
LINE
  5
B911
330
B802
100
AcDbEntity
  8
4
  6
CENTER
100
AcDbLine
 10
377.5771629999999
 20
77.85259
 30
0.0
 11
360.4771629999997
 21
77.85259
 31
0.0
  0
LINE
  5
B912
330
B802
100
AcDbEntity
  8
1
  6
Continuous
100
AcDbLine
 10
365.4771629999999
 20
69.85259
 30
0.0
 11
367.0771629999999
 21
69.85259
 31
0.0
  0
LINE
  5
B913
330
B802
100
AcDbEntity
  8
1
  6
Continuous
100
AcDbLine
 10
365.4771629999999
 20
85.85259
 30
0.0
 11
365.4771629999999
 21
69.85259
 31
0.0
  0
ARC
  5
B914
330
B802
100
AcDbEntity
  8
1
  6
Continuous
100
AcDbCircle
 10
365.351871
 20
75.35259
 30
0.0
 40
7.225291999999996
100
AcDbArc
 50
339.756734
 51
20.24326599999999
  0
LINE
  5
B915
330
B802
100
AcDbEntity
  8
1
  6
Continuous
100
AcDbLine
 10
372.577163
 20
82.85259000000001
 30
0.0
 11
372.577163
 21
72.85259
 31
0.0
  0
ARC
  5
B916
330
B802
100
AcDbEntity
  8
1
  6
Continuous
100
AcDbCircle
 10
365.351871
 20
80.35259000000001
 30
0.0
 40
7.225291999999996
100
AcDbArc
 50
339.756734
 51
20.24326599999999
  0
ARC
  5
B917
330
B802
100
AcDbEntity
  8
1
  6
Continuous
100
AcDbCircle
 10
375.802455
 20
75.35259
 30
0.0
 40
7.225291999999996
100
AcDbArc
 50
159.7567339999999
 51
200.243266
  0
ARC
  5
B918
330
B802
100
AcDbEntity
  8
1
  6
Continuous
100
AcDbCircle
 10
375.802455
 20
80.35259000000001
 30
0.0
 40
7.225291999999996
100
AcDbArc
 50
159.7567339999999
 51
200.243266
  0
LINE
  5
B919
330
B802
100
AcDbEntity
  8
1
  6
Continuous
100
AcDbLine
 10
372.577163
 20
72.85259
 30
0.0
 11
368.577163
 21
72.85259
 31
0.0
  0
LINE
  5
B91A
330
B802
100
AcDbEntity
  8
1
  6
Continuous
100
AcDbLine
 10
372.577163
 20
82.85259000000001
 30
0.0
 11
368.577163
 21
82.85259000000001
 31
0.0
  0
LINE
  5
B91B
330
B802
100
AcDbEntity
  8
1
  6
Continuous
100
AcDbLine
 10
369.0234549999997
 20
77.85259
 30
0.0
 11
372.130871
 21
77.85259
 31
0.0
  0
LINE
  5
B91C
330
B802
100
AcDbEntity
  8
1
  6
Continuous
100
AcDbLine
 10
368.577163
 20
71.75259
 30
0.0
 11
368.577163
 21
83.95259000000001
 31
0.0
  0
LINE
  5
B91D
330
B802
100
AcDbEntity
  8
1
  6
Continuous
100
AcDbLine
 10
368.577163
 20
83.95259000000001
 30
0.0
 11
367.0771629999999
 21
83.95259000000001
 31
0.0
  0
LINE
  5
B91E
330
B802
100
AcDbEntity
  8
1
  6
Continuous
100
AcDbLine
 10
368.577163
 20
71.75259
 30
0.0
 11
367.0771629999999
 21
71.75259
 31
0.0
  0
LINE
  5
B91F
330
B802
100
AcDbEntity
  8
1
  6
Continuous
100
AcDbLine
 10
367.0771629999999
 20
76.34863299999998
 30
0.0
 11
368.577163
 21
77.84863299999997
 31
0.0
  0
LINE
  5
B920
330
B802
100
AcDbEntity
  8
1
  6
Continuous
100
AcDbLine
 10
367.0771629999999
 20
77.85259
 30
0.0
 11
368.577163
 21
79.35259000000002
 31
0.0
  0
LINE
  5
B921
330
B802
100
AcDbEntity
  8
1
  6
Continuous
100
AcDbLine
 10
367.0771629999999
 20
85.85259
 30
0.0
 11
367.0771629999999
 21
69.85259
 31
0.0
  0
LINE
  5
B922
330
B802
100
AcDbEntity
  8
1
  6
Continuous
100
AcDbLine
 10
287.1015709999999
 20
95.352548
 30
0.0
 11
288.501571
 21
95.352548
 31
0.0
  0
LINE
  5
B923
330
B802
100
AcDbEntity
  8
1
  6
Continuous
100
AcDbLine
 10
287.1015709999999
 20
88.789698
 30
0.0
 11
286.801571
 21
88.789698
 31
0.0
  0
LINE
  5
B924
330
B802
100
AcDbEntity
  8
1
  6
Continuous
100
AcDbLine
 10
286.801571
 20
88.789698
 30
0.0
 11
287.1015709999999
 21
89.94784799999996
 31
0.0
  0
LINE
  5
B925
330
B802
100
AcDbEntity
  8
1
  6
Continuous
100
AcDbLine
 10
288.501571
 20
88.789698
 30
0.0
 11
288.801571
 21
88.789698
 31
0.0
  0
LINE
  5
B926
330
B802
100
AcDbEntity
  8
1
  6
Continuous
100
AcDbLine
 10
288.801571
 20
88.789698
 30
0.0
 11
288.501571
 21
89.94784799999996
 31
0.0
  0
LINE
  5
B927
330
B802
100
AcDbEntity
  8
1
  6
Continuous
100
AcDbLine
 10
288.801571
 20
93.852548
 30
0.0
 11
290.301571
 21
93.852548
 31
0.0
  0
LINE
  5
B928
330
B802
100
AcDbEntity
  8
1
  6
Continuous
100
AcDbLine
 10
298.801571
 20
93.852548
 30
0.0
 11
297.301571
 21
93.852548
 31
0.0
  0
LINE
  5
B929
330
B802
100
AcDbEntity
  8
1
  6
Continuous
100
AcDbLine
 10
290.301571
 20
95.352548
 30
0.0
 11
297.301571
 21
95.352548
 31
0.0
  0
LINE
  5
B92A
330
B802
100
AcDbEntity
  8
1
  6
Continuous
100
AcDbLine
 10
334.8067349999999
 20
88.85257000000001
 30
0.0
 11
331.806735
 21
88.85257000000001
 31
0.0
  0
LINE
  5
B92B
330
B802
100
AcDbEntity
  8
1
  6
Continuous
100
AcDbLine
 10
328.07059
 20
88.85257000000001
 30
0.0
 11
326.07059
 21
88.85257000000001
 31
0.0
  0
LINE
  5
B92C
330
B802
100
AcDbEntity
  8
5
  6
PHANTOM
100
AcDbLine
 10
341.7533979999999
 20
280.903737
 30
0.0
 11
416.007219
 21
329.5560029999998
 31
0.0
  0
LINE
  5
B92D
330
B802
100
AcDbEntity
  8
5
  6
PHANTOM
100
AcDbLine
 10
349.927813
 20
266.745235
 30
0.0
 11
429.188821
 21
306.724798
 31
0.0
  0
LINE
  5
B92E
330
B802
100
AcDbEntity
  8
4
  6
CENTER
100
AcDbLine
 10
477.054441
 20
349.5808289999998
 30
0.0
 11
339.3060399999999
 21
270.0517529999999
 31
0.0
  0
LINE
  5
B92F
330
B802
100
AcDbEntity
  8
1
  6
Continuous
100
AcDbLine
 10
287.1015689999999
 20
349.780829
 30
0.0
 11
288.501569
 21
349.780829
 31
0.0
  0
LINE
  5
B930
330
B802
100
AcDbEntity
  8
1
  6
Continuous
100
AcDbLine
 10
287.1015689999999
 20
314.7808289999999
 30
0.0
 11
288.501569
 21
314.7808289999999
 31
0.0
  0
LINE
  5
B931
330
B802
100
AcDbEntity
  8
4
  6
CENTER
100
AcDbLine
 10
282.201569
 20
332.2808289999999
 30
0.0
 11
303.8015689999999
 21
332.2808289999999
 31
0.0
  0
LINE
  5
B932
330
B802
100
AcDbEntity
  8
1
  6
Continuous
100
AcDbLine
 10
287.1015689999999
 20
349.780829
 30
0.0
 11
287.1015689999999
 21
314.7808289999999
 31
0.0
  0
LINE
  5
B933
330
B802
100
AcDbEntity
  8
2
  6
Continuous
100
AcDbLine
 10
258.733666
 20
332.2808289999999
 30
0.0
 11
266.433666
 21
325.404736
 31
0.0
  0
LINE
  5
B934
330
B802
100
AcDbEntity
  8
2
  6
Continuous
100
AcDbLine
 10
258.733666
 20
325.404736
 30
0.0
 11
266.433666
 21
332.2808289999999
 31
0.0
  0
LINE
  5
B935
330
B802
100
AcDbEntity
  8
1
  6
Continuous
100
AcDbLine
 10
266.733666
 20
338.8569219999999
 30
0.0
 11
266.733666
 21
325.7047359999999
 31
0.0
  0
LINE
  5
B936
330
B802
100
AcDbEntity
  8
1
  6
Continuous
100
AcDbLine
 10
258.683666
 20
341.7308290000002
 30
0.0
 11
258.683666
 21
322.830829
 31
0.0
  0
LINE
  5
B937
330
B802
100
AcDbEntity
  8
1
  6
Continuous
100
AcDbLine
 10
258.383666
 20
322.530829
 30
0.0
 11
258.683666
 21
322.830829
 31
0.0
  0
ARC
  5
B938
330
B802
100
AcDbEntity
  8
1
  6
Continuous
100
AcDbCircle
 10
266.433666
 20
325.7047359999999
 30
0.0
 40
0.3
100
AcDbArc
 50
270.0
 51
0.0
  0
LINE
  5
B939
330
B802
100
AcDbEntity
  8
1
  6
Continuous
100
AcDbLine
 10
266.433666
 20
325.404736
 30
0.0
 11
258.733666
 21
325.404736
 31
0.0
  0
LINE
  5
B93A
330
B802
100
AcDbEntity
  8
1
  6
Continuous
100
AcDbLine
 10
286.8015689999999
 20
325.521319
 30
0.0
 11
287.1015689999999
 21
325.821329
 31
0.0
  0
LINE
  5
B93B
330
B802
100
AcDbEntity
  8
1
  6
Continuous
100
AcDbLine
 10
286.8015689999999
 20
325.521319
 30
0.0
 11
287.1015689999999
 21
325.2213189999999
 31
0.0
  0
LINE
  5
B93C
330
B802
100
AcDbEntity
  8
1
  6
Continuous
100
AcDbLine
 10
287.1015689999999
 20
321.343679
 30
0.0
 11
286.8015689999999
 21
321.343679
 31
0.0
  0
LINE
  5
B93D
330
B802
100
AcDbEntity
  8
1
  6
Continuous
100
AcDbLine
 10
286.8015689999999
 20
321.343679
 30
0.0
 11
287.1015689999999
 21
320.1855289999999
 31
0.0
  0
LINE
  5
B93E
330
B802
100
AcDbEntity
  8
1
  6
Continuous
100
AcDbLine
 10
258.383666
 20
342.0308289999999
 30
0.0
 11
258.683666
 21
341.7308290000002
 31
0.0
  0
ARC
  5
B93F
330
B802
100
AcDbEntity
  8
1
  6
Continuous
100
AcDbCircle
 10
266.433666
 20
338.8569219999999
 30
0.0
 40
0.3
100
AcDbArc
 50
0.0
 51
90.0
  0
LINE
  5
B940
330
B802
100
AcDbEntity
  8
2
  6
Continuous
100
AcDbLine
 10
266.433666
 20
339.156922
 30
0.0
 11
258.733666
 21
332.2808289999999
 31
0.0
  0
LINE
  5
B941
330
B802
100
AcDbEntity
  8
2
  6
Continuous
100
AcDbLine
 10
266.433666
 20
332.2808289999999
 30
0.0
 11
258.733666
 21
339.156922
 31
0.0
  0
LINE
  5
B942
330
B802
100
AcDbEntity
  8
1
  6
Continuous
100
AcDbLine
 10
266.433666
 20
332.2808289999999
 30
0.0
 11
258.733666
 21
332.2808289999999
 31
0.0
  0
LINE
  5
B943
330
B802
100
AcDbEntity
  8
1
  6
Continuous
100
AcDbLine
 10
266.433666
 20
339.156922
 30
0.0
 11
258.733666
 21
339.156922
 31
0.0
  0
LINE
  5
B944
330
B802
100
AcDbEntity
  8
1
  6
Continuous
100
AcDbLine
 10
286.8015689999999
 20
339.0403589999999
 30
0.0
 11
287.1015689999999
 21
339.3403589999999
 31
0.0
  0
LINE
  5
B945
330
B802
100
AcDbEntity
  8
1
  6
Continuous
100
AcDbLine
 10
286.8015689999999
 20
339.0403589999999
 30
0.0
 11
287.1015689999999
 21
338.740359
 31
0.0
  0
LINE
  5
B946
330
B802
100
AcDbEntity
  8
1
  6
Continuous
100
AcDbLine
 10
286.8015689999999
 20
343.217979
 30
0.0
 11
287.1015689999999
 21
344.3761289999998
 31
0.0
  0
LINE
  5
B947
330
B802
100
AcDbEntity
  8
1
  6
Continuous
100
AcDbLine
 10
287.1015689999999
 20
343.217979
 30
0.0
 11
286.8015689999999
 21
343.217979
 31
0.0
  0
LINE
  5
B948
330
B802
100
AcDbEntity
  8
1
  6
Continuous
100
AcDbLine
 10
286.8015689999999
 20
332.290859
 30
0.0
 11
287.1015689999999
 21
331.990859
 31
0.0
  0
LINE
  5
B949
330
B802
100
AcDbEntity
  8
1
  6
Continuous
100
AcDbLine
 10
286.8015689999999
 20
332.290859
 30
0.0
 11
287.1015689999999
 21
332.5908589999999
 31
0.0
  0
LINE
  5
B94A
330
B802
100
AcDbEntity
  8
1
  6
Continuous
100
AcDbLine
 10
288.8015689999999
 20
348.2808289999999
 30
0.0
 11
288.8015689999999
 21
316.280829
 31
0.0
  0
ARC
  5
B94B
330
B802
100
AcDbEntity
  8
1
  6
Continuous
100
AcDbCircle
 10
251.4613740000001
 20
332.2808289999999
 30
0.0
 40
45.84019399999998
100
AcDbArc
 50
347.266894
 51
12.733106
  0
ARC
  5
B94C
330
B802
100
AcDbEntity
  8
1
  6
Continuous
100
AcDbCircle
 10
336.1417629999999
 20
332.2808289999999
 30
0.0
 40
45.84019399999998
100
AcDbArc
 50
167.266894
 51
192.733106
  0
LINE
  5
B94D
330
B802
100
AcDbEntity
  8
1
  6
Continuous
100
AcDbLine
 10
288.501569
 20
314.7808289999999
 30
0.0
 11
288.501569
 21
349.780829
 31
0.0
  0
LINE
  5
B94E
330
B802
100
AcDbEntity
  8
1
  6
Continuous
100
AcDbLine
 10
290.3015689999999
 20
314.7808289999999
 30
0.0
 11
290.3015689999999
 21
349.780829
 31
0.0
  0
LINE
  5
B94F
330
B802
100
AcDbEntity
  8
1
  6
Continuous
100
AcDbLine
 10
297.301569
 20
314.7808289999999
 30
0.0
 11
297.301569
 21
349.780829
 31
0.0
  0
LINE
  5
B950
330
B802
100
AcDbEntity
  8
1
  6
Continuous
100
AcDbLine
 10
298.8015689999999
 20
316.280829
 30
0.0
 11
298.8015689999999
 21
348.2808289999999
 31
0.0
  0
ARC
  5
B951
330
B802
100
AcDbEntity
  8
1
  6
Continuous
100
AcDbCircle
 10
285.4187729999998
 20
317.1253849999998
 30
0.0
 40
11.882796
100
AcDbArc
 50
345.2736279999998
 51
25.159327
  0
LINE
  5
B952
330
B802
100
AcDbEntity
  8
1
  6
Continuous
100
AcDbLine
 10
298.8015689999999
 20
316.280829
 30
0.0
 11
297.301569
 21
316.280829
 31
0.0
  0
LINE
  5
B953
330
B802
100
AcDbEntity
  8
1
  6
Continuous
100
AcDbLine
 10
288.501569
 20
325.2213189999999
 30
0.0
 11
288.8015689999999
 21
325.521319
 31
0.0
  0
LINE
  5
B954
330
B802
100
AcDbEntity
  8
1
  6
Continuous
100
AcDbLine
 10
288.8015689999999
 20
325.521319
 30
0.0
 11
288.501569
 21
325.821329
 31
0.0
  0
LINE
  5
B955
330
B802
100
AcDbEntity
  8
1
  6
Continuous
100
AcDbLine
 10
288.501569
 20
321.343679
 30
0.0
 11
288.8015689999999
 21
321.343679
 31
0.0
  0
LINE
  5
B956
330
B802
100
AcDbEntity
  8
1
  6
Continuous
100
AcDbLine
 10
288.8015689999999
 20
321.343679
 30
0.0
 11
288.501569
 21
320.1855289999999
 31
0.0
  0
ARC
  5
B957
330
B802
100
AcDbEntity
  8
1
  6
Continuous
100
AcDbCircle
 10
302.184365
 20
317.1253849999998
 30
0.0
 40
11.882796
100
AcDbArc
 50
154.840673
 51
194.726372
  0
LINE
  5
B958
330
B802
100
AcDbEntity
  8
1
  6
Continuous
100
AcDbLine
 10
288.8015689999999
 20
316.280829
 30
0.0
 11
290.3015689999999
 21
316.280829
 31
0.0
  0
LINE
  5
B959
330
B802
100
AcDbEntity
  8
1
  6
Continuous
100
AcDbLine
 10
296.1742369999999
 20
322.1771989999999
 30
0.0
 11
291.428901
 21
322.1771989999999
 31
0.0
  0
LINE
  5
B95A
330
B802
100
AcDbEntity
  8
1
  6
Continuous
100
AcDbLine
 10
295.7385319999999
 20
312.07357
 30
0.0
 11
291.864606
 21
312.07357
 31
0.0
  0
LINE
  5
B95B
330
B802
100
AcDbEntity
  8
1
  6
Continuous
100
AcDbLine
 10
297.301569
 20
314.7808289999999
 30
0.0
 11
295.7385319999999
 21
312.073569
 31
0.0
  0
LINE
  5
B95C
330
B802
100
AcDbEntity
  8
1
  6
Continuous
100
AcDbLine
 10
290.3015689999999
 20
314.7808289999999
 30
0.0
 11
291.864606
 21
312.073569
 31
0.0
  0
ARC
  5
B95D
330
B802
100
AcDbEntity
  8
1
  6
Continuous
100
AcDbCircle
 10
285.4187729999998
 20
347.4362740000001
 30
0.0
 40
11.882796
100
AcDbArc
 50
334.8406729999999
 51
14.726371
  0
LINE
  5
B95E
330
B802
100
AcDbEntity
  8
1
  6
Continuous
100
AcDbLine
 10
298.8015689999999
 20
348.2808289999999
 30
0.0
 11
297.301569
 21
348.2808289999999
 31
0.0
  0
LINE
  5
B95F
330
B802
100
AcDbEntity
  8
1
  6
Continuous
100
AcDbLine
 10
288.8015689999999
 20
339.0403589999999
 30
0.0
 11
288.501569
 21
338.740359
 31
0.0
  0
LINE
  5
B960
330
B802
100
AcDbEntity
  8
1
  6
Continuous
100
AcDbLine
 10
288.501569
 20
339.3403589999999
 30
0.0
 11
288.8015689999999
 21
339.0403589999999
 31
0.0
  0
LINE
  5
B961
330
B802
100
AcDbEntity
  8
1
  6
Continuous
100
AcDbLine
 10
288.8015689999999
 20
343.217979
 30
0.0
 11
288.501569
 21
344.3761289999998
 31
0.0
  0
LINE
  5
B962
330
B802
100
AcDbEntity
  8
1
  6
Continuous
100
AcDbLine
 10
288.501569
 20
343.217979
 30
0.0
 11
288.8015689999999
 21
343.217979
 31
0.0
  0
ARC
  5
B963
330
B802
100
AcDbEntity
  8
1
  6
Continuous
100
AcDbCircle
 10
302.184365
 20
347.4362740000001
 30
0.0
 40
11.882796
100
AcDbArc
 50
165.2736289999998
 51
205.159327
  0
LINE
  5
B964
330
B802
100
AcDbEntity
  8
1
  6
Continuous
100
AcDbLine
 10
288.8015689999999
 20
348.2808289999999
 30
0.0
 11
290.3015689999999
 21
348.2808289999999
 31
0.0
  0
LINE
  5
B965
330
B802
100
AcDbEntity
  8
1
  6
Continuous
100
AcDbLine
 10
296.1742369999999
 20
342.3844589999998
 30
0.0
 11
291.428901
 21
342.3844589999998
 31
0.0
  0
LINE
  5
B966
330
B802
100
AcDbEntity
  8
1
  6
Continuous
100
AcDbLine
 10
288.501569
 20
332.570779
 30
0.0
 11
288.8015689999999
 21
332.2707789999999
 31
0.0
  0
LINE
  5
B967
330
B802
100
AcDbEntity
  8
1
  6
Continuous
100
AcDbLine
 10
288.8015689999999
 20
332.2707789999999
 30
0.0
 11
288.501569
 21
331.9707789999998
 31
0.0
  0
ARC
  5
B968
330
B802
100
AcDbEntity
  8
5
  6
PHANTOM
100
AcDbCircle
 10
343.123527
 20
278.8126259999998
 30
0.0
 40
2.5
100
AcDbArc
 50
123.233444
 51
195.3820139999996
  0
ARC
  5
B969
330
B802
100
AcDbEntity
  8
5
  6
PHANTOM
100
AcDbCircle
 10
348.8019219999998
 20
268.9773569999999
 30
0.0
 40
2.5
100
AcDbArc
 50
224.6179859999997
 51
296.766556
  0
ARC
  5
B96A
330
B802
100
AcDbEntity
  8
5
  6
PHANTOM
100
AcDbCircle
 10
364.8175479999999
 20
284.7808289999999
 30
0.0
 40
25.0
100
AcDbArc
 50
195.3820139999996
 51
224.6179859999997
  0
LINE
  5
B96B
330
B802
100
AcDbEntity
  8
1
  6
Continuous
100
AcDbLine
 10
328.07059
 20
321.2808289999999
 30
0.0
 11
328.07059
 21
343.280829
 31
0.0
  0
LINE
  5
B96C
330
B802
100
AcDbEntity
  8
1
  6
Continuous
100
AcDbLine
 10
326.07059
 20
321.2808289999999
 30
0.0
 11
326.07059
 21
343.280829
 31
0.0
  0
LINE
  5
B96D
330
B802
100
AcDbEntity
  8
1
  6
Continuous
100
AcDbLine
 10
331.806735
 20
321.2808289999999
 30
0.0
 11
331.806735
 21
343.280829
 31
0.0
  0
LINE
  5
B96E
330
B802
100
AcDbEntity
  8
1
  6
Continuous
100
AcDbLine
 10
334.8067349999999
 20
321.2808289999999
 30
0.0
 11
334.8067349999999
 21
343.280829
 31
0.0
  0
LINE
  5
B96F
330
B802
100
AcDbEntity
  8
1
  6
Continuous
100
AcDbLine
 10
328.07059
 20
321.2808289999999
 30
0.0
 11
326.07059
 21
321.2808289999999
 31
0.0
  0
LINE
  5
B970
330
B802
100
AcDbEntity
  8
1
  6
Continuous
100
AcDbLine
 10
334.8067349999999
 20
321.2808289999999
 30
0.0
 11
331.806735
 21
321.2808289999999
 31
0.0
  0
LINE
  5
B971
330
B802
100
AcDbEntity
  8
4
  6
CENTER
100
AcDbLine
 10
339.806735
 20
332.2808289999999
 30
0.0
 11
321.0705899999999
 21
332.2808289999999
 31
0.0
  0
LINE
  5
B972
330
B802
100
AcDbEntity
  8
1
  6
Continuous
100
AcDbLine
 10
328.07059
 20
343.280829
 30
0.0
 11
326.07059
 21
343.280829
 31
0.0
  0
LINE
  5
B973
330
B802
100
AcDbEntity
  8
1
  6
Continuous
100
AcDbLine
 10
334.8067349999999
 20
343.280829
 30
0.0
 11
331.806735
 21
343.280829
 31
0.0
  0
ARC
  5
B974
330
B802
100
AcDbEntity
  8
1
  6
Continuous
100
AcDbCircle
 10
363.0162139999998
 20
332.277372
 30
0.0
 40
9.560949
100
AcDbArc
 50
342.4247879999999
 51
17.575212
  0
LINE
  5
B975
330
B802
100
AcDbEntity
  8
1
  6
Continuous
100
AcDbLine
 10
372.577163
 20
337.277372
 30
0.0
 11
372.577163
 21
327.2763719999999
 31
0.0
  0
ARC
  5
B976
330
B802
100
AcDbEntity
  8
1
  6
Continuous
100
AcDbCircle
 10
378.1381119999999
 20
332.277372
 30
0.0
 40
9.560949
100
AcDbArc
 50
162.4247879999998
 51
197.5752119999999
  0
LINE
  5
B977
330
B802
100
AcDbEntity
  8
1
  6
Continuous
100
AcDbLine
 10
368.577163
 20
326.5073259999998
 30
0.0
 11
368.577163
 21
338.054332
 31
0.0
  0
LINE
  5
B978
330
B802
100
AcDbEntity
  8
1
  6
Continuous
100
AcDbLine
 10
368.577163
 20
326.180829
 30
0.0
 11
368.577163
 21
338.380829
 31
0.0
  0
LINE
  5
B979
330
B802
100
AcDbEntity
  8
1
  6
Continuous
100
AcDbLine
 10
367.0771629999999
 20
340.2808289999999
 30
0.0
 11
367.0771629999999
 21
324.2808289999999
 31
0.0
  0
LINE
  5
B97A
330
B802
100
AcDbEntity
  8
1
  6
Continuous
100
AcDbLine
 10
365.4771629999999
 20
340.2808289999999
 30
0.0
 11
365.4771629999999
 21
324.2808289999999
 31
0.0
  0
LINE
  5
B97B
330
B802
100
AcDbEntity
  8
1
  6
Continuous
100
AcDbLine
 10
365.4771629999999
 20
324.2808289999999
 30
0.0
 11
367.0771629999999
 21
324.2808289999999
 31
0.0
  0
LINE
  5
B97C
330
B802
100
AcDbEntity
  8
1
  6
Continuous
100
AcDbLine
 10
372.577163
 20
327.2763719999999
 30
0.0
 11
372.130871
 21
326.503372
 31
0.0
  0
ARC
  5
B97D
330
B802
100
AcDbEntity
  8
1
  6
Continuous
100
AcDbCircle
 10
370.021183
 20
327.9463719999998
 30
0.0
 40
2.555979999999999
100
AcDbArc
 50
334.371637
 51
34.371637
  0
ARC
  5
B97E
330
B802
100
AcDbEntity
  8
1
  6
Continuous
100
AcDbCircle
 10
370.021163
 20
327.9473719999999
 30
0.0
 40
2.55582
100
AcDbArc
 50
325.6159999999998
 51
325.647143
  0
LINE
  5
B97F
330
B802
100
AcDbEntity
  8
1
  6
Continuous
100
AcDbLine
 10
368.577163
 20
327.2763719999999
 30
0.0
 11
369.0234549999997
 21
326.503372
 31
0.0
  0
ARC
  5
B980
330
B802
100
AcDbEntity
  8
1
  6
Continuous
100
AcDbCircle
 10
371.133143
 20
327.9463719999998
 30
0.0
 40
2.555979999999999
100
AcDbArc
 50
145.6283629999998
 51
205.6283629999998
  0
ARC
  5
B981
330
B802
100
AcDbEntity
  8
1
  6
Continuous
100
AcDbCircle
 10
371.1331629999999
 20
327.9473719999999
 30
0.0
 40
2.55582
100
AcDbArc
 50
214.3528569999999
 51
214.3839999999999
  0
LINE
  5
B982
330
B802
100
AcDbEntity
  8
1
  6
Continuous
100
AcDbLine
 10
369.0234549999997
 20
326.503372
 30
0.0
 11
372.130871
 21
326.503372
 31
0.0
  0
LINE
  5
B983
330
B802
100
AcDbEntity
  8
1
  6
Continuous
100
AcDbLine
 10
369.0234549999997
 20
329.390372
 30
0.0
 11
372.130871
 21
329.390372
 31
0.0
  0
LINE
  5
B984
330
B802
100
AcDbEntity
  8
1
  6
Continuous
100
AcDbLine
 10
368.577163
 20
326.180829
 30
0.0
 11
367.0771629999999
 21
326.180829
 31
0.0
  0
LINE
  5
B985
330
B802
100
AcDbEntity
  8
1
  6
Continuous
100
AcDbLine
 10
365.4771629999999
 20
340.2808289999999
 30
0.0
 11
367.0771629999999
 21
340.2808289999999
 31
0.0
  0
LINE
  5
B986
330
B802
100
AcDbEntity
  8
4
  6
CENTER
100
AcDbLine
 10
377.5771629999999
 20
332.2808289999999
 30
0.0
 11
360.4771629999997
 21
332.2808289999999
 31
0.0
  0
ARC
  5
B987
330
B802
100
AcDbEntity
  8
1
  6
Continuous
100
AcDbCircle
 10
370.021183
 20
336.607372
 30
0.0
 40
2.555979999999999
100
AcDbArc
 50
325.6283629999999
 51
25.628363
  0
LINE
  5
B988
330
B802
100
AcDbEntity
  8
1
  6
Continuous
100
AcDbLine
 10
372.577163
 20
337.277372
 30
0.0
 11
372.130871
 21
338.050372
 31
0.0
  0
ARC
  5
B989
330
B802
100
AcDbEntity
  8
1
  6
Continuous
100
AcDbCircle
 10
371.133143
 20
336.607372
 30
0.0
 40
2.555979999999999
100
AcDbArc
 50
154.371637
 51
214.371637
  0
LINE
  5
B98A
330
B802
100
AcDbEntity
  8
1
  6
Continuous
100
AcDbLine
 10
368.577163
 20
337.277372
 30
0.0
 11
369.0234549999997
 21
338.050372
 31
0.0
  0
LINE
  5
B98B
330
B802
100
AcDbEntity
  8
1
  6
Continuous
100
AcDbLine
 10
369.0234549999997
 20
335.164372
 30
0.0
 11
372.130871
 21
335.164372
 31
0.0
  0
LINE
  5
B98C
330
B802
100
AcDbEntity
  8
1
  6
Continuous
100
AcDbLine
 10
369.0234549999997
 20
338.050372
 30
0.0
 11
372.130871
 21
338.050372
 31
0.0
  0
LINE
  5
B98D
330
B802
100
AcDbEntity
  8
1
  6
Continuous
100
AcDbLine
 10
367.0771629999999
 20
332.2808289999999
 30
0.0
 11
368.577163
 21
333.7808289999999
 31
0.0
  0
LINE
  5
B98E
330
B802
100
AcDbEntity
  8
1
  6
Continuous
100
AcDbLine
 10
367.0771629999999
 20
330.776872
 30
0.0
 11
368.577163
 21
332.276872
 31
0.0
  0
LINE
  5
B98F
330
B802
100
AcDbEntity
  8
1
  6
Continuous
100
AcDbLine
 10
368.577163
 20
338.380829
 30
0.0
 11
367.0771629999999
 21
338.380829
 31
0.0
  0
LINE
  5
B990
330
B802
100
AcDbEntity
  8
1
  6
Continuous
100
AcDbLine
 10
445.46345
 20
264.5706769999998
 30
0.0
 11
444.5548669999998
 21
263.8204819999999
 31
0.0
  0
LINE
  5
B991
330
B802
100
AcDbEntity
  8
1
  6
Continuous
100
AcDbLine
 10
445.3423059999998
 20
264.4738759999999
 30
0.0
 11
446.202429
 21
263.6873819999999
 31
0.0
  0
LINE
  5
B992
330
B802
100
AcDbEntity
  8
1
  6
Continuous
100
AcDbLine
 10
438.9155469999998
 20
215.368143
 30
0.0
 11
433.9083599999996
 21
303.999971
 31
0.0
  0
LINE
  5
B993
330
B802
100
AcDbEntity
  8
1
  6
Continuous
100
AcDbLine
 10
455.264378
 20
215.368143
 30
0.0
 11
460.2715639999996
 21
303.999971
 31
0.0
  0
LINE
  5
B994
330
B802
100
AcDbEntity
  8
1
  6
Continuous
100
AcDbLine
 10
440.8315919999998
 20
234.6398179999999
 30
0.0
 11
436.909699
 21
304.0609379999999
 31
0.0
  0
LINE
  5
B995
330
B802
100
AcDbEntity
  8
1
  6
Continuous
100
AcDbLine
 10
453.348332
 20
234.6398179999999
 30
0.0
 11
457.2702249999998
 21
304.0609379999999
 31
0.0
  0
LINE
  5
B996
330
B802
100
AcDbEntity
  8
1
  6
Continuous
100
AcDbLine
 10
446.3937999999997
 20
261.2808289999999
 30
0.0
 11
447.968775
 21
261.2808289999999
 31
0.0
  0
LINE
  5
B997
330
B802
100
AcDbEntity
  8
1
  6
Continuous
100
AcDbLine
 10
439.5525049999998
 20
257.2808289999999
 30
0.0
 11
454.627419
 21
257.2808289999999
 31
0.0
  0
LINE
  5
B998
330
B802
100
AcDbEntity
  8
1
  6
Continuous
100
AcDbLine
 10
439.891471
 20
251.280829
 30
0.0
 11
454.288453
 21
251.280829
 31
0.0
  0
LINE
  5
B999
330
B802
100
AcDbEntity
  8
1
  6
Continuous
100
AcDbLine
 10
443.327612
 20
232.280829
 30
0.0
 11
450.8523119999998
 21
232.280829
 31
0.0
  0
ARC
  5
B99A
330
B802
100
AcDbEntity
  8
1
  6
Continuous
100
AcDbCircle
 10
447.0899619999998
 20
237.280829
 30
0.0
 40
11.0
100
AcDbArc
 50
255.382014
 51
284.6179859999999
  0
ARC
  5
B99B
330
B802
100
AcDbEntity
  8
1
  6
Continuous
100
AcDbCircle
 10
447.0899619999998
 20
237.280829
 30
0.0
 40
25.0
100
AcDbArc
 50
255.382014
 51
284.6179859999999
  0
ARC
  5
B99C
330
B802
100
AcDbEntity
  8
1
  6
Continuous
100
AcDbCircle
 10
441.411567
 20
215.5091539999999
 30
0.0
 40
2.5
100
AcDbArc
 50
183.233444
 51
255.382014
  0
ARC
  5
B99D
330
B802
100
AcDbEntity
  8
1
  6
Continuous
100
AcDbCircle
 10
443.327612
 20
234.780829
 30
0.0
 40
2.5
100
AcDbArc
 50
183.233444
 51
270.0
  0
LINE
  5
B99E
330
B802
100
AcDbEntity
  8
1
  6
Continuous
100
AcDbLine
 10
443.610754
 20
261.2808289999999
 30
0.0
 11
444.080554
 21
261.2808289999999
 31
0.0
  0
ARC
  5
B99F
330
B802
100
AcDbEntity
  8
1
  6
Continuous
100
AcDbCircle
 10
444.080554
 20
260.640829
 30
0.0
 40
0.6400000000000004
100
AcDbArc
 50
222.7718659999999
 51
90.0
  0
LINE
  5
B9A0
330
B802
100
AcDbEntity
  8
1
  6
Continuous
100
AcDbLine
 10
443.610754
 20
261.2808289999999
 30
0.0
 11
443.610754
 21
259.2808289999999
 31
0.0
  0
LINE
  5
B9A1
330
B802
100
AcDbEntity
  8
1
  6
Continuous
100
AcDbLine
 10
445.035468
 20
259.886029
 30
0.0
 11
446.088968
 21
259.886029
 31
0.0
  0
LINE
  5
B9A2
330
B802
100
AcDbEntity
  8
1
  6
Continuous
100
AcDbLine
 10
445.570968
 20
261.2825839999998
 30
0.0
 11
446.3108179999998
 21
259.282579
 31
0.0
  0
LINE
  5
B9A3
330
B802
100
AcDbEntity
  8
1
  6
Continuous
100
AcDbLine
 10
445.570968
 20
261.279069
 30
0.0
 11
444.7956679999998
 21
259.282579
 31
0.0
  0
ARC
  5
B9A4
330
B802
100
AcDbEntity
  8
1
  6
Continuous
100
AcDbCircle
 10
452.7683579999998
 20
215.5091539999999
 30
0.0
 40
2.5
100
AcDbArc
 50
284.6179859999999
 51
356.766556
  0
ARC
  5
B9A5
330
B802
100
AcDbEntity
  8
1
  6
Continuous
100
AcDbCircle
 10
450.8523119999998
 20
234.780829
 30
0.0
 40
2.5
100
AcDbArc
 50
270.0
 51
356.766556
  0
LINE
  5
B9A6
330
B802
100
AcDbEntity
  8
1
  6
Continuous
100
AcDbLine
 10
447.177805
 20
261.2808289999999
 30
0.0
 11
447.177805
 21
259.2808289999999
 31
0.0
  0
CIRCLE
  5
B9A7
330
B802
100
AcDbEntity
  8
1
  6
Continuous
100
AcDbCircle
 10
448.96067
 20
259.320829
 30
0.0
 40
0.04
  0
LINE
  5
B9A8
330
B802
100
AcDbEntity
  8
1
  6
Continuous
100
AcDbLine
 10
449.6876059999998
 20
261.2808289999999
 30
0.0
 11
449.6876059999998
 21
259.2808289999999
 31
0.0
  0
LINE
  5
B9A9
330
B802
100
AcDbEntity
  8
1
  6
Continuous
100
AcDbLine
 10
449.6876059999998
 20
261.2808289999999
 30
0.0
 11
450.157407
 21
261.2808289999999
 31
0.0
  0
ARC
  5
B9AA
330
B802
100
AcDbEntity
  8
1
  6
Continuous
100
AcDbCircle
 10
450.157407
 20
260.640829
 30
0.0
 40
0.6400000000000004
100
AcDbArc
 50
222.7718659999999
 51
90.0
  0
LINE
  5
B9AB
330
B802
100
AcDbEntity
  8
1
  6
Continuous
100
AcDbLine
 10
445.736471
 20
335.069747
 30
0.0
 11
447.0869969999998
 21
333.765559
 31
0.0
  0
LINE
  5
B9AC
330
B802
100
AcDbEntity
  8
1
  6
Continuous
100
AcDbLine
 10
447.0899619999998
 20
338.053829
 30
0.0
 11
442.089962
 21
335.1678289999999
 31
0.0
  0
LINE
  5
B9AD
330
B802
100
AcDbEntity
  8
1
  6
Continuous
100
AcDbLine
 10
447.0869969999998
 20
330.7961
 30
0.0
 11
445.736471
 21
329.491912
 31
0.0
  0
LINE
  5
B9AE
330
B802
100
AcDbEntity
  8
1
  6
Continuous
100
AcDbLine
 10
442.089962
 20
329.3938289999999
 30
0.0
 11
447.0899619999998
 21
326.5068289999998
 31
0.0
  0
CIRCLE
  5
B9AF
330
B802
100
AcDbEntity
  8
1
  6
Continuous
100
AcDbCircle
 10
447.0899619999998
 20
332.2808289999999
 30
0.0
 40
5.0
  0
CIRCLE
  5
B9B0
330
B802
100
AcDbEntity
  8
1
  6
Continuous
100
AcDbCircle
 10
447.0899619999998
 20
332.2808289999999
 30
0.0
 40
4.049999999999998
  0
CIRCLE
  5
B9B1
330
B802
100
AcDbEntity
  8
1
  6
Continuous
100
AcDbCircle
 10
447.0899619999998
 20
332.2808289999999
 30
0.0
 40
8.0
  0
CIRCLE
  5
B9B2
330
B802
100
AcDbEntity
  8
1
  6
Continuous
100
AcDbCircle
 10
447.0899619999998
 20
332.2808289999999
 30
0.0
 40
6.099999999999997
  0
ARC
  5
B9B3
330
B802
100
AcDbEntity
  8
1
  6
Continuous
100
AcDbCircle
 10
447.0899619999998
 20
332.2808289999999
 30
0.0
 40
10.25
100
AcDbArc
 50
72.03024599999998
 51
107.9697539999999
  0
LINE
  5
B9B4
330
B802
100
AcDbEntity
  8
1
  6
Continuous
100
AcDbLine
 10
452.1828489999998
 20
342.0308289999999
 30
0.0
 11
441.997075
 21
342.0308289999999
 31
0.0
  0
ARC
  5
B9B5
330
B802
100
AcDbEntity
  8
2
  6
Continuous
100
AcDbCircle
 10
447.0899619999998
 20
332.2808289999999
 30
0.0
 40
11.0
100
AcDbArc
 50
62.419801
 51
117.5801989999998
  0
ARC
  5
B9B6
330
B802
100
AcDbEntity
  8
1
  6
Continuous
100
AcDbCircle
 10
447.0899619999998
 20
312.280829
 30
0.0
 40
4.0
100
AcDbArc
 50
152.571893
 51
27.428107
  0
ARC
  5
B9B7
330
B802
100
AcDbEntity
  8
1
  6
Continuous
100
AcDbCircle
 10
447.0899619999998
 20
312.280829
 30
0.0
 40
4.25
100
AcDbArc
 50
152.4205119999997
 51
27.579488
  0
ARC
  5
B9B8
330
B802
100
AcDbEntity
  8
1
  6
Continuous
100
AcDbCircle
 10
447.0899619999998
 20
332.2808289999999
 30
0.0
 40
10.25
100
AcDbArc
 50
252.0302459999999
 51
287.969754
  0
LINE
  5
B9B9
330
B802
100
AcDbEntity
  8
1
  6
Continuous
100
AcDbLine
 10
452.1828489999998
 20
322.530829
 30
0.0
 11
441.997075
 21
322.530829
 31
0.0
  0
ARC
  5
B9BA
330
B802
100
AcDbEntity
  8
2
  6
Continuous
100
AcDbCircle
 10
447.0899619999998
 20
332.2808289999999
 30
0.0
 40
11.0
100
AcDbArc
 50
242.419801
 51
297.5801989999999
  0
LINE
  5
B9BB
330
B802
100
AcDbEntity
  8
4
  6
CENTER
100
AcDbLine
 10
453.659483
 20
312.280829
 30
0.0
 11
441.589962
 21
312.280829
 31
0.0
  0
CIRCLE
  5
B9BC
330
B802
100
AcDbEntity
  8
1
  6
Continuous
100
AcDbCircle
 10
447.0899619999998
 20
332.2808289999999
 30
0.0
 40
11.5
  0
ARC
  5
B9BD
330
B802
100
AcDbEntity
  8
1
  6
Continuous
100
AcDbCircle
 10
452.362123
 20
286.6784629999999
 30
0.0
 40
5.732929999999998
100
AcDbArc
 50
144.462
 51
215.5379999999999
  0
LINE
  5
B9BE
330
B802
100
AcDbEntity
  8
4
  6
CENTER
100
AcDbLine
 10
482.089962
 20
332.2808289999999
 30
0.0
 11
412.089962
 21
332.2808289999999
 31
0.0
  0
LINE
  5
B9BF
330
B802
100
AcDbEntity
  8
1
  6
Continuous
100
AcDbLine
 10
429.589962
 20
322.1771989999999
 30
0.0
 11
447.0899619999998
 21
312.07357
 31
0.0
  0
CIRCLE
  5
B9C0
330
B802
100
AcDbEntity
  8
1
  6
Continuous
100
AcDbCircle
 10
447.0899619999998
 20
332.2808289999999
 30
0.0
 40
16.0
  0
CIRCLE
  5
B9C1
330
B802
100
AcDbEntity
  8
1
  6
Continuous
100
AcDbCircle
 10
447.0899619999998
 20
332.2808289999999
 30
0.0
 40
17.5
  0
LINE
  5
B9C2
330
B802
100
AcDbEntity
  8
1
  6
Continuous
100
AcDbLine
 10
446.4648429999998
 20
264.5700499999999
 30
0.0
 11
444.4648429999999
 21
264.5700499999999
 31
0.0
  0
LINE
  5
B9C3
330
B802
100
AcDbEntity
  8
1
  6
Continuous
100
AcDbLine
 10
445.8821679999998
 20
265.9995629999999
 30
0.0
 11
446.4648429999998
 21
265.4466409999999
 31
0.0
  0
LINE
  5
B9C4
330
B802
100
AcDbEntity
  8
1
  6
Continuous
100
AcDbLine
 10
446.4648429999998
 20
265.4466409999999
 30
0.0
 11
444.4648429999999
 21
265.4466409999999
 31
0.0
  0
LINE
  5
B9C5
330
B802
100
AcDbEntity
  8
1
  6
Continuous
100
AcDbLine
 10
445.4648429999998
 20
267.0470209999999
 30
0.0
 11
445.4648429999998
 21
266.420471
 31
0.0
  0
LINE
  5
B9C6
330
B802
100
AcDbEntity
  8
1
  6
Continuous
100
AcDbLine
 10
445.852743
 20
269.444723
 30
0.0
 11
445.076943
 21
269.444723
 31
0.0
  0
ARC
  5
B9C7
330
B802
100
AcDbEntity
  8
1
  6
Continuous
100
AcDbCircle
 10
445.852743
 20
268.8183729999999
 30
0.0
 40
0.62634
100
AcDbArc
 50
45.92799999999999
 51
90.0
  0
ARC
  5
B9C8
330
B802
100
AcDbEntity
  8
1
  6
Continuous
100
AcDbCircle
 10
445.885503
 20
268.8522229999999
 30
0.0
 40
0.57924
100
AcDbArc
 50
314.0724999999998
 51
45.92799999999999
  0
ARC
  5
B9C9
330
B802
100
AcDbEntity
  8
1
  6
Continuous
100
AcDbCircle
 10
445.076943
 20
268.8183729999999
 30
0.0
 40
0.62634
100
AcDbArc
 50
90.0
 51
134.072
  0
ARC
  5
B9CA
330
B802
100
AcDbEntity
  8
1
  6
Continuous
100
AcDbCircle
 10
445.0441829999999
 20
268.8522229999999
 30
0.0
 40
0.57924
100
AcDbArc
 50
134.072
 51
225.9269999999999
  0
LINE
  5
B9CB
330
B802
100
AcDbEntity
  8
1
  6
Continuous
100
AcDbLine
 10
445.852743
 20
268.259723
 30
0.0
 11
445.076943
 21
268.259723
 31
0.0
  0
ARC
  5
B9CC
330
B802
100
AcDbEntity
  8
1
  6
Continuous
100
AcDbCircle
 10
445.852743
 20
268.886073
 30
0.0
 40
0.62634
100
AcDbArc
 50
270.0
 51
314.0724999999998
  0
ARC
  5
B9CD
330
B802
100
AcDbEntity
  8
1
  6
Continuous
100
AcDbCircle
 10
445.076943
 20
268.886073
 30
0.0
 40
0.62634
100
AcDbArc
 50
225.9269999999999
 51
270.0
  0
ARC
  5
B9CE
330
B802
100
AcDbEntity
  8
1
  6
Continuous
100
AcDbCircle
 10
445.0148429999998
 20
270.822069
 30
0.0
 40
0.5225300000000001
100
AcDbArc
 50
103.0139999999999
 51
137.1299999999999
  0
ARC
  5
B9CF
330
B802
100
AcDbEntity
  8
1
  6
Continuous
100
AcDbCircle
 10
445.0148429999998
 20
270.6821289999999
 30
0.0
 40
0.5225300000000001
100
AcDbArc
 50
222.8699999999999
 51
317.1304
  0
ARC
  5
B9D0
330
B802
100
AcDbEntity
  8
1
  6
Continuous
100
AcDbCircle
 10
444.939466
 20
270.7520989999998
 30
0.0
 40
0.6253750000000001
100
AcDbArc
 50
317.1304
 51
327.1503
  0
ARC
  5
B9D1
330
B802
100
AcDbEntity
  8
1
  6
Continuous
100
AcDbCircle
 10
445.0902179999998
 20
270.7520989999998
 30
0.0
 40
0.6253750000000001
100
AcDbArc
 50
137.1299999999999
 51
222.8699999999999
  0
ARC
  5
B9D2
330
B802
100
AcDbEntity
  8
1
  6
Continuous
100
AcDbCircle
 10
445.9148429999998
 20
270.822069
 30
0.0
 40
0.5225300000000001
100
AcDbArc
 50
42.86999999999999
 51
108.2079999999999
  0
ARC
  5
B9D3
330
B802
100
AcDbEntity
  8
1
  6
Continuous
100
AcDbCircle
 10
445.9148429999998
 20
270.6821289999999
 30
0.0
 40
0.5225300000000001
100
AcDbArc
 50
222.8699999999999
 51
317.1304
  0
ARC
  5
B9D4
330
B802
100
AcDbEntity
  8
1
  6
Continuous
100
AcDbCircle
 10
445.8394679999996
 20
270.7520989999998
 30
0.0
 40
0.6253750000000001
100
AcDbArc
 50
317.1304
 51
42.86999999999999
  0
ARC
  5
B9D5
330
B802
100
AcDbEntity
  8
1
  6
Continuous
100
AcDbCircle
 10
445.9902179999998
 20
270.7520989999998
 30
0.0
 40
0.6253750000000001
100
AcDbArc
 50
212.8499999999999
 51
222.8699999999999
  0
LINE
  5
B9D6
330
B802
100
AcDbEntity
  8
1
  6
Continuous
100
AcDbLine
 10
445.4648429999998
 20
270.705579
 30
0.0
 11
445.4648429999998
 21
270.412869
 31
0.0
  0
LINE
  5
B9D7
330
B802
100
AcDbEntity
  8
1
  6
Continuous
100
AcDbLine
 10
445.4648429999998
 20
272.5545509999999
 30
0.0
 11
445.4648429999998
 21
272.2618409999999
 31
0.0
  0
ARC
  5
B9D8
330
B802
100
AcDbEntity
  8
1
  6
Continuous
100
AcDbCircle
 10
445.9902179999998
 20
272.601071
 30
0.0
 40
0.6253750000000001
100
AcDbArc
 50
212.8499999999999
 51
222.8699999999999
  0
ARC
  5
B9D9
330
B802
100
AcDbEntity
  8
1
  6
Continuous
100
AcDbCircle
 10
445.8394679999996
 20
272.601071
 30
0.0
 40
0.6253750000000001
100
AcDbArc
 50
317.1304
 51
42.86999999999999
  0
ARC
  5
B9DA
330
B802
100
AcDbEntity
  8
1
  6
Continuous
100
AcDbCircle
 10
445.9148429999998
 20
272.5311009999999
 30
0.0
 40
0.5225300000000001
100
AcDbArc
 50
222.8699999999999
 51
317.1304
  0
ARC
  5
B9DB
330
B802
100
AcDbEntity
  8
1
  6
Continuous
100
AcDbCircle
 10
445.9148429999998
 20
272.6710409999999
 30
0.0
 40
0.5225300000000001
100
AcDbArc
 50
42.86999999999999
 51
108.2079999999999
  0
ARC
  5
B9DC
330
B802
100
AcDbEntity
  8
1
  6
Continuous
100
AcDbCircle
 10
445.0902179999998
 20
272.601071
 30
0.0
 40
0.6253750000000001
100
AcDbArc
 50
137.1299999999999
 51
222.8699999999999
  0
ARC
  5
B9DD
330
B802
100
AcDbEntity
  8
1
  6
Continuous
100
AcDbCircle
 10
444.939466
 20
272.601071
 30
0.0
 40
0.6253750000000001
100
AcDbArc
 50
317.1304
 51
327.1503
  0
ARC
  5
B9DE
330
B802
100
AcDbEntity
  8
1
  6
Continuous
100
AcDbCircle
 10
445.0148429999998
 20
272.5311009999999
 30
0.0
 40
0.5225300000000001
100
AcDbArc
 50
222.8699999999999
 51
317.1304
  0
ARC
  5
B9DF
330
B802
100
AcDbEntity
  8
1
  6
Continuous
100
AcDbCircle
 10
445.0148429999998
 20
272.6710409999999
 30
0.0
 40
0.5225300000000001
100
AcDbArc
 50
103.0139999999999
 51
137.1299999999999
  0
LINE
  5
B9E0
330
B802
100
AcDbEntity
  8
1
  6
Continuous
100
AcDbLine
 10
446.479798
 20
279.227551
 30
0.0
 11
444.479793
 21
279.227551
 31
0.0
  0
LINE
  5
B9E1
330
B802
100
AcDbEntity
  8
1
  6
Continuous
100
AcDbLine
 10
446.4648429999998
 20
280.601066
 30
0.0
 11
444.4648429999999
 21
280.601066
 31
0.0
  0
LINE
  5
B9E2
330
B802
100
AcDbEntity
  8
1
  6
Continuous
100
AcDbLine
 10
446.4648429999998
 20
281.385071
 30
0.0
 11
446.4648429999998
 21
279.8100959999998
 31
0.0
  0
LINE
  5
B9E3
330
B802
100
AcDbEntity
  8
1
  6
Continuous
100
AcDbLine
 10
446.4630829999999
 20
276.6010709999998
 30
0.0
 11
444.466593
 21
277.376371
 31
0.0
  0
LINE
  5
B9E4
330
B802
100
AcDbEntity
  8
1
  6
Continuous
100
AcDbLine
 10
446.479798
 20
277.9745709999999
 30
0.0
 11
444.479793
 21
277.9745709999999
 31
0.0
  0
LINE
  5
B9E5
330
B802
100
AcDbEntity
  8
1
  6
Continuous
100
AcDbLine
 10
446.4665979999998
 20
276.6010709999998
 30
0.0
 11
444.466593
 21
275.8612209999999
 31
0.0
  0
LINE
  5
B9E6
330
B802
100
AcDbEntity
  8
1
  6
Continuous
100
AcDbLine
 10
445.070043
 20
277.1365709999999
 30
0.0
 11
445.070043
 21
276.083071
 31
0.0
  0
LINE
  5
B9E7
330
B802
100
AcDbEntity
  8
1
  6
Continuous
100
AcDbLine
 10
445.4648429999998
 20
274.9143209999999
 30
0.0
 11
445.4648429999998
 21
274.287771
 31
0.0
  0
LINE
  5
B9E8
330
B802
100
AcDbEntity
  8
1
  6
Continuous
100
AcDbLine
 10
445.4648429999998
 20
279.227551
 30
0.0
 11
445.4648429999998
 21
277.9745709999999
 31
0.0
  0
ARC
  5
B9E9
330
B802
100
AcDbEntity
  8
1
  6
Continuous
100
AcDbCircle
 10
633.589962
 20
315.2808289999999
 30
0.0
 40
200.0
100
AcDbArc
 50
182.841123
 51
183.233444
  0
ARC
  5
B9EA
330
B802
100
AcDbEntity
  8
1
  6
Continuous
100
AcDbCircle
 10
447.0899619999998
 20
332.2808289999999
 30
0.0
 40
3.1
100
AcDbArc
 50
205.887785
 51
244.112215
  0
LINE
  5
B9EB
330
B802
100
AcDbEntity
  8
1
  6
Continuous
100
AcDbLine
 10
442.089962
 20
329.3938289999999
 30
0.0
 11
442.089962
 21
335.1678289999999
 31
0.0
  0
ARC
  5
B9EC
330
B802
100
AcDbEntity
  8
2
  6
Continuous
100
AcDbCircle
 10
447.0899619999998
 20
332.2808289999999
 30
0.0
 40
10.18799999999999
100
AcDbArc
 50
106.8615909999999
 51
253.1384089999999
  0
LINE
  5
B9ED
330
B802
100
AcDbEntity
  8
1
  6
Continuous
100
AcDbLine
 10
429.589962
 20
342.3844589999998
 30
0.0
 11
429.589962
 21
322.1771989999999
 31
0.0
  0
ARC
  5
B9EE
330
B802
100
AcDbEntity
  8
1
  6
Continuous
100
AcDbCircle
 10
447.0899619999998
 20
332.2808289999999
 30
0.0
 40
11.0
100
AcDbArc
 50
117.5801989999998
 51
242.419801
  0
ARC
  5
B9EF
330
B802
100
AcDbEntity
  8
1
  6
Continuous
100
AcDbCircle
 10
447.0899619999998
 20
332.2808289999999
 30
0.0
 40
3.1
100
AcDbArc
 50
115.8877849999998
 51
154.1122149999999
  0
LINE
  5
B9F0
330
B802
100
AcDbEntity
  8
1
  6
Continuous
100
AcDbLine
 10
445.606138
 20
332.2808289999999
 30
0.0
 11
445.605232
 21
332.2778649999999
 31
0.0
  0
LINE
  5
B9F1
330
B802
100
AcDbEntity
  8
1
  6
Continuous
100
AcDbLine
 10
445.606138
 20
332.2808289999999
 30
0.0
 11
445.605232
 21
332.2837939999997
 31
0.0
  0
LINE
  5
B9F2
330
B802
100
AcDbEntity
  8
1
  6
Continuous
100
AcDbLine
 10
445.605232
 20
332.2778649999999
 30
0.0
 11
444.3010440000001
 21
330.9273379999999
 31
0.0
  0
LINE
  5
B9F3
330
B802
100
AcDbEntity
  8
1
  6
Continuous
100
AcDbLine
 10
444.3010440000001
 20
333.6343199999999
 30
0.0
 11
445.605232
 21
332.2837939999997
 31
0.0
  0
ARC
  5
B9F4
330
B802
100
AcDbEntity
  8
1
  6
Continuous
100
AcDbCircle
 10
450.0921449999998
 20
285.9666139999998
 30
0.0
 40
0.044452
100
AcDbArc
 50
352.2069999999998
 51
90.0
  0
ARC
  5
B9F5
330
B802
100
AcDbEntity
  8
1
  6
Continuous
100
AcDbCircle
 10
447.1662549999998
 20
285.9666139999998
 30
0.0
 40
0.044452
100
AcDbArc
 50
90.0
 51
187.793
  0
ARC
  5
B9F6
330
B802
100
AcDbEntity
  8
1
  6
Continuous
100
AcDbCircle
 10
444.8962769999998
 20
286.6784629999999
 30
0.0
 40
5.732929999999998
100
AcDbArc
 50
324.4619999999998
 51
35.5377
  0
LINE
  5
B9F7
330
B802
100
AcDbEntity
  8
1
  6
Continuous
100
AcDbLine
 10
448.6296509999998
 20
285.566932
 30
0.0
 11
448.6296509999998
 21
285.7888779999999
 31
0.0
  0
ARC
  5
B9F8
330
B802
100
AcDbEntity
  8
1
  6
Continuous
100
AcDbCircle
 10
449.8837329999998
 20
285.7888779999999
 30
0.0
 40
0.222261
100
AcDbArc
 50
270.0
 51
349.8959999999998
  0
ARC
  5
B9F9
330
B802
100
AcDbEntity
  8
1
  6
Continuous
100
AcDbCircle
 10
447.3746669999998
 20
285.7888779999999
 30
0.0
 40
0.222261
100
AcDbArc
 50
190.1039999999999
 51
270.0
  0
ARC
  5
B9FA
330
B802
100
AcDbEntity
  8
1
  6
Continuous
100
AcDbCircle
 10
444.8962769999998
 20
286.6784629999999
 30
0.0
 40
5.288524999999999
100
AcDbArc
 50
349.8959999999998
 51
352.2069999999998
  0
ARC
  5
B9FB
330
B802
100
AcDbEntity
  8
1
  6
Continuous
100
AcDbCircle
 10
452.362123
 20
286.6784629999999
 30
0.0
 40
5.288524999999999
100
AcDbArc
 50
187.793
 51
190.1039999999999
  0
LINE
  5
B9FC
330
B802
100
AcDbEntity
  8
1
  6
Continuous
100
AcDbLine
 10
450.0921449999998
 20
286.011725
 30
0.0
 11
447.1662549999998
 21
286.011725
 31
0.0
  0
LINE
  5
B9FD
330
B802
100
AcDbEntity
  8
1
  6
Continuous
100
AcDbLine
 10
449.162861
 20
285.566932
 30
0.0
 11
449.8837329999998
 21
285.566932
 31
0.0
  0
LINE
  5
B9FE
330
B802
100
AcDbEntity
  8
1
  6
Continuous
100
AcDbLine
 10
449.8810259999998
 20
284.6782479999999
 30
0.0
 11
448.8515969999999
 21
284.6782479999999
 31
0.0
  0
LINE
  5
B9FF
330
B802
100
AcDbEntity
  8
1
  6
Continuous
100
AcDbLine
 10
448.6296509999998
 20
284.4563029999998
 30
0.0
 11
447.5632309999999
 21
284.4563029999998
 31
0.0
  0
LINE
  5
BA00
330
B802
100
AcDbEntity
  8
1
  6
Continuous
100
AcDbLine
 10
447.3746669999998
 20
285.566932
 30
0.0
 11
448.6296509999998
 21
285.566932
 31
0.0
  0
LINE
  5
BA01
330
B802
100
AcDbEntity
  8
1
  6
Continuous
100
AcDbLine
 10
450.090341
 20
285.1230409999999
 30
0.0
 11
447.307903
 21
285.1230409999999
 31
0.0
  0
ARC
  5
BA02
330
B802
100
AcDbEntity
  8
1
  6
Continuous
100
AcDbCircle
 10
448.9218629999998
 20
278.8266959999999
 30
0.0
 40
0.76574
100
AcDbArc
 50
311.0679
 51
48.932
  0
ARC
  5
BA03
330
B802
100
AcDbEntity
  8
1
  6
Continuous
100
AcDbCircle
 10
448.5253429999998
 20
278.8266959999999
 30
0.0
 40
0.76574
100
AcDbArc
 50
131.0679999999997
 51
228.932
  0
ARC
  5
BA04
330
B802
100
AcDbEntity
  8
1
  6
Continuous
100
AcDbCircle
 10
448.723603
 20
279.0542259999999
 30
0.0
 40
1.067529999999997
100
AcDbArc
 50
228.932
 51
311.0679
  0
ARC
  5
BA05
330
B802
100
AcDbEntity
  8
1
  6
Continuous
100
AcDbCircle
 10
448.723603
 20
278.599171
 30
0.0
 40
1.067529999999997
100
AcDbArc
 50
48.932
 51
131.0679999999997
  0
ARC
  5
BA06
330
B802
100
AcDbEntity
  8
1
  6
Continuous
100
AcDbCircle
 10
448.454203
 20
271.674371
 30
0.0
 40
0.72
100
AcDbArc
 50
179.5819999999999
 51
281.6541
  0
ARC
  5
BA07
330
B802
100
AcDbEntity
  8
1
  6
Continuous
100
AcDbCircle
 10
448.499638
 20
271.679621
 30
0.0
 40
0.76574
100
AcDbArc
 50
131.0679999999997
 51
186.5909999999999
  0
ARC
  5
BA08
330
B802
100
AcDbEntity
  8
1
  6
Continuous
100
AcDbCircle
 10
448.697903
 20
271.452121
 30
0.0
 40
1.067529999999997
100
AcDbArc
 50
48.932
 51
131.0679999999997
  0
ARC
  5
BA09
330
B802
100
AcDbEntity
  8
1
  6
Continuous
100
AcDbCircle
 10
448.896163
 20
271.679621
 30
0.0
 40
0.76574
100
AcDbArc
 50
340.8072
 51
48.932
  0
ARC
  5
BA0A
330
B802
100
AcDbEntity
  8
1
  6
Continuous
100
AcDbCircle
 10
449.1347179999998
 20
271.5965709999999
 30
0.0
 40
0.513145
100
AcDbArc
 50
275.65924
 51
340.8072
  0
ARC
  5
BA0B
330
B802
100
AcDbEntity
  8
1
  6
Continuous
100
AcDbCircle
 10
448.297388
 20
276.6450209999998
 30
0.0
 40
0.513145
100
AcDbArc
 50
199.193
 51
264.341
  0
ARC
  5
BA0C
330
B802
100
AcDbEntity
  8
1
  6
Continuous
100
AcDbCircle
 10
449.1710179999998
 20
276.6450209999998
 30
0.0
 40
0.513145
100
AcDbArc
 50
275.65924
 51
340.8072
  0
ARC
  5
BA0D
330
B802
100
AcDbEntity
  8
1
  6
Continuous
100
AcDbCircle
 10
448.9324629999998
 20
276.728071
 30
0.0
 40
0.76574
100
AcDbArc
 50
340.8072
 51
48.932
  0
ARC
  5
BA0E
330
B802
100
AcDbEntity
  8
1
  6
Continuous
100
AcDbCircle
 10
448.5359429999999
 20
276.728071
 30
0.0
 40
0.76574
100
AcDbArc
 50
131.0679999999997
 51
199.193
  0
ARC
  5
BA0F
330
B802
100
AcDbEntity
  8
1
  6
Continuous
100
AcDbCircle
 10
448.7342029999998
 20
276.5005209999998
 30
0.0
 40
1.067529999999997
100
AcDbArc
 50
48.932
 51
131.0679999999997
  0
LINE
  5
BA10
330
B802
100
AcDbEntity
  8
1
  6
Continuous
100
AcDbLine
 10
448.5959629999999
 20
268.990971
 30
0.0
 11
449.7664429999998
 21
269.664671
 31
0.0
  0
LINE
  5
BA11
330
B802
100
AcDbEntity
  8
1
  6
Continuous
100
AcDbLine
 10
448.5923529999998
 20
268.990971
 30
0.0
 11
449.767703
 21
268.3123709999999
 31
0.0
  0
LINE
  5
BA12
330
B802
100
AcDbEntity
  8
1
  6
Continuous
100
AcDbLine
 10
449.7518079999998
 20
270.389521
 30
0.0
 11
447.6503679999996
 21
270.389521
 31
0.0
  0
LINE
  5
BA13
330
B802
100
AcDbEntity
  8
1
  6
Continuous
100
AcDbLine
 10
448.3015729999998
 20
270.969221
 30
0.0
 11
447.664843
 21
270.969221
 31
0.0
  0
LINE
  5
BA14
330
B802
100
AcDbEntity
  8
1
  6
Continuous
100
AcDbLine
 10
448.5923579999997
 20
268.990971
 30
0.0
 11
447.6503679999996
 21
268.990971
 31
0.0
  0
LINE
  5
BA15
330
B802
100
AcDbEntity
  8
1
  6
Continuous
100
AcDbLine
 10
449.7010879999998
 20
267.1250709999998
 30
0.0
 11
447.6575679999998
 21
267.9185209999999
 31
0.0
  0
LINE
  5
BA16
330
B802
100
AcDbEntity
  8
1
  6
Continuous
100
AcDbLine
 10
449.7518079999998
 20
273.309771
 30
0.0
 11
447.6503679999996
 21
273.309771
 31
0.0
  0
LINE
  5
BA17
330
B802
100
AcDbEntity
  8
1
  6
Continuous
100
AcDbLine
 10
449.7518079999998
 20
274.0127709999998
 30
0.0
 11
447.6503679999996
 21
274.0127709999998
 31
0.0
  0
LINE
  5
BA18
330
B802
100
AcDbEntity
  8
1
  6
Continuous
100
AcDbLine
 10
448.599648
 20
271.672121
 30
0.0
 11
448.599648
 21
270.969221
 31
0.0
  0
LINE
  5
BA19
330
B802
100
AcDbEntity
  8
1
  6
Continuous
100
AcDbLine
 10
449.7518079999998
 20
275.309771
 30
0.0
 11
447.6503679999996
 21
275.309771
 31
0.0
  0
LINE
  5
BA1A
330
B802
100
AcDbEntity
  8
1
  6
Continuous
100
AcDbLine
 10
449.6648429999998
 20
281.628676
 30
0.0
 11
449.6648429999998
 21
279.998256
 31
0.0
  0
LINE
  5
BA1B
330
B802
100
AcDbEntity
  8
1
  6
Continuous
100
AcDbLine
 10
449.6648429999998
 20
280.8170559999999
 30
0.0
 11
447.664843
 21
280.8170559999999
 31
0.0
  0
LINE
  5
BA1C
330
B802
100
AcDbEntity
  8
1
  6
Continuous
100
AcDbLine
 10
448.7010879999998
 20
275.309771
 30
0.0
 11
448.7010879999998
 21
274.0127709999998
 31
0.0
  0
LINE
  5
BA1D
330
B802
100
AcDbEntity
  8
1
  6
Continuous
100
AcDbLine
 10
449.704683
 20
267.1250709999998
 30
0.0
 11
447.657563
 21
266.3677709999999
 31
0.0
  0
LINE
  5
BA1E
330
B802
100
AcDbEntity
  8
1
  6
Continuous
100
AcDbLine
 10
448.258998
 20
267.679371
 30
0.0
 11
448.258998
 21
266.5888209999998
 31
0.0
  0
LINE
  5
BA1F
330
B802
100
AcDbEntity
  8
1
  6
Continuous
100
AcDbLine
 10
448.8515969999999
 20
284.2334549999998
 30
0.0
 11
449.800729
 21
284.2334549999998
 31
0.0
  0
LINE
  5
BA20
330
B802
100
AcDbEntity
  8
1
  6
Continuous
100
AcDbLine
 10
447.7978069999998
 20
284.007901
 30
0.0
 11
449.6708099999998
 21
283.5053659999999
 31
0.0
  0
LINE
  5
BA21
330
B802
100
AcDbEntity
  8
1
  6
Continuous
100
AcDbLine
 10
448.6296509999998
 20
282.866597
 30
0.0
 11
448.6296509999998
 21
283.785054
 31
0.0
  0
ARC
  5
BA22
330
B802
100
AcDbEntity
  8
1
  6
Continuous
100
AcDbCircle
 10
448.6296509999998
 20
284.0115099999998
 30
0.0
 40
1.145318999999998
100
AcDbArc
 50
242.2499999999998
 51
324.4619999999998
  0
ARC
  5
BA23
330
B802
100
AcDbEntity
  8
1
  6
Continuous
100
AcDbCircle
 10
448.6296509999998
 20
284.0115099999998
 30
0.0
 40
1.145318999999998
100
AcDbArc
 50
215.5379999999999
 51
225.699
  0
ARC
  5
BA24
330
B802
100
AcDbEntity
  8
1
  6
Continuous
100
AcDbCircle
 10
448.8515969999999
 20
284.4563029999998
 30
0.0
 40
0.222261
100
AcDbArc
 50
90.0
 51
270.0
  0
ARC
  5
BA25
330
B802
100
AcDbEntity
  8
1
  6
Continuous
100
AcDbCircle
 10
260.589962
 20
315.2808289999999
 30
0.0
 40
200.0
100
AcDbArc
 50
356.766556
 51
357.158877
  0
LINE
  5
BA26
330
B802
100
AcDbEntity
  8
1
  6
Continuous
100
AcDbLine
 10
449.848546
 20
289.5664599999999
 30
0.0
 11
447.932237
 21
289.5664599999999
 31
0.0
  0
LINE
  5
BA27
330
B802
100
AcDbEntity
  8
1
  6
Continuous
100
AcDbLine
 10
447.809536
 20
289.122569
 30
0.0
 11
449.4488639999998
 21
289.122569
 31
0.0
  0
LINE
  5
BA28
330
B802
100
AcDbEntity
  8
1
  6
Continuous
100
AcDbLine
 10
449.725845
 20
288.677776
 30
0.0
 11
447.533458
 21
288.677776
 31
0.0
  0
LINE
  5
BA29
330
B802
100
AcDbEntity
  8
1
  6
Continuous
100
AcDbLine
 10
449.162861
 20
287.7890929999999
 30
0.0
 11
450.010945
 21
287.7890929999999
 31
0.0
  0
LINE
  5
BA2A
330
B802
100
AcDbEntity
  8
1
  6
Continuous
100
AcDbLine
 10
448.6296509999998
 20
286.9004089999999
 30
0.0
 11
448.6296509999998
 21
287.3442999999999
 31
0.0
  0
ARC
  5
BA2B
330
B802
100
AcDbEntity
  8
1
  6
Continuous
100
AcDbCircle
 10
448.6296509999998
 20
289.344515
 30
0.0
 40
1.145318999999998
100
AcDbArc
 50
35.5377
 51
76.5374
  0
ARC
  5
BA2C
330
B802
100
AcDbEntity
  8
1
  6
Continuous
100
AcDbCircle
 10
448.6296509999998
 20
289.344515
 30
0.0
 40
1.145318999999998
100
AcDbArc
 50
90.0
 51
144.462
  0
ARC
  5
BA2D
330
B802
100
AcDbEntity
  8
1
  6
Continuous
100
AcDbCircle
 10
449.4488639999998
 20
288.8997219999998
 30
0.0
 40
0.222261
100
AcDbArc
 50
26.0144
 51
90.0
  0
ARC
  5
BA2E
330
B802
100
AcDbEntity
  8
1
  6
Continuous
100
AcDbCircle
 10
444.8962769999998
 20
286.6784629999999
 30
0.0
 40
5.288524999999999
100
AcDbArc
 50
22.94399999999999
 51
26.0144
  0
ARC
  5
BA2F
330
B802
100
AcDbEntity
  8
1
  6
Continuous
100
AcDbCircle
 10
449.725845
 20
288.721985
 30
0.0
 40
0.044452
100
AcDbArc
 50
270.0
 51
22.94399999999999
  0
ARC
  5
BA30
330
B802
100
AcDbEntity
  8
1
  6
Continuous
100
AcDbCircle
 10
447.809536
 20
288.8997219999998
 30
0.0
 40
0.222261
100
AcDbArc
 50
90.0
 51
153.986
  0
ARC
  5
BA31
330
B802
100
AcDbEntity
  8
1
  6
Continuous
100
AcDbCircle
 10
450.010945
 20
287.833301
 30
0.0
 40
0.044452
100
AcDbArc
 50
270.0
 51
12.7289
  0
ARC
  5
BA32
330
B802
100
AcDbEntity
  8
1
  6
Continuous
100
AcDbCircle
 10
444.8962769999998
 20
286.6784629999999
 30
0.0
 40
5.288524999999999
100
AcDbArc
 50
12.7289
 51
13.2681
  0
ARC
  5
BA33
330
B802
100
AcDbEntity
  8
1
  6
Continuous
100
AcDbCircle
 10
444.8962769999998
 20
286.6784629999999
 30
0.0
 40
5.288524999999999
100
AcDbArc
 50
13.2681
 51
15.2575
  0
ARC
  5
BA34
330
B802
100
AcDbEntity
  8
1
  6
Continuous
100
AcDbCircle
 10
449.783587
 20
288.0110379999999
 30
0.0
 40
0.222261
100
AcDbArc
 50
15.2575
 51
90.0
  0
ARC
  5
BA35
330
B802
100
AcDbEntity
  8
1
  6
Continuous
100
AcDbCircle
 10
447.474813
 20
288.0110379999999
 30
0.0
 40
0.222261
100
AcDbArc
 50
90.0
 51
164.7419999999998
  0
ARC
  5
BA36
330
B802
100
AcDbEntity
  8
1
  6
Continuous
100
AcDbCircle
 10
452.362123
 20
286.6784629999999
 30
0.0
 40
5.288524999999999
100
AcDbArc
 50
164.7419999999998
 51
164.794
  0
ARC
  5
BA37
330
B802
100
AcDbEntity
  8
1
  6
Continuous
100
AcDbCircle
 10
452.362123
 20
286.6784629999999
 30
0.0
 40
5.288524999999999
100
AcDbArc
 50
164.794
 51
167.2709999999999
  0
ARC
  5
BA38
330
B802
100
AcDbEntity
  8
1
  6
Continuous
100
AcDbCircle
 10
447.247455
 20
287.833301
 30
0.0
 40
0.044452
100
AcDbArc
 50
167.2709999999999
 51
270.0
  0
LINE
  5
BA39
330
B802
100
AcDbEntity
  8
1
  6
Continuous
100
AcDbLine
 10
449.783587
 20
288.2338859999999
 30
0.0
 11
447.474813
 21
288.2338859999999
 31
0.0
  0
LINE
  5
BA3A
330
B802
100
AcDbEntity
  8
1
  6
Continuous
100
AcDbLine
 10
447.247455
 20
287.7890929999999
 30
0.0
 11
448.096441
 21
287.7890929999999
 31
0.0
  0
LINE
  5
BA3B
330
B802
100
AcDbEntity
  8
1
  6
Continuous
100
AcDbLine
 10
450.142669
 20
287.3442999999999
 30
0.0
 11
447.1157309999998
 21
287.3442999999999
 31
0.0
  0
LINE
  5
BA3C
330
B802
100
AcDbEntity
  8
1
  6
Continuous
100
AcDbLine
 10
450.1796599999996
 20
286.9004089999999
 30
0.0
 11
447.0787399999998
 21
286.9004089999999
 31
0.0
  0
ARC
  5
BA3D
330
B802
100
AcDbEntity
  8
1
  6
Continuous
100
AcDbCircle
 10
447.533458
 20
288.721985
 30
0.0
 40
0.044452
100
AcDbArc
 50
157.056
 51
270.0
  0
ARC
  5
BA3E
330
B802
100
AcDbEntity
  8
1
  6
Continuous
100
AcDbCircle
 10
452.362123
 20
286.6784629999999
 30
0.0
 40
5.288524999999999
100
AcDbArc
 50
153.986
 51
157.056
  0
LINE
  5
BA3F
330
B802
100
AcDbEntity
  8
1
  6
Continuous
100
AcDbLine
 10
450.1796599999996
 20
286.455616
 30
0.0
 11
447.0787399999998
 21
286.455616
 31
0.0
  0
LINE
  5
BA40
330
B802
100
AcDbEntity
  8
1
  6
Continuous
100
AcDbLine
 10
452.089962
 20
329.3938289999999
 30
0.0
 11
452.089962
 21
335.1678289999999
 31
0.0
  0
LINE
  5
BA41
330
B802
100
AcDbEntity
  8
1
  6
Continuous
100
AcDbLine
 10
448.4434529999998
 20
329.491912
 30
0.0
 11
447.092926
 21
330.7961
 31
0.0
  0
ARC
  5
BA42
330
B802
100
AcDbEntity
  8
1
  6
Continuous
100
AcDbCircle
 10
447.0899619999998
 20
332.2808289999999
 30
0.0
 40
3.1
100
AcDbArc
 50
295.887785
 51
334.1122149999999
  0
ARC
  5
BA43
330
B802
100
AcDbEntity
  8
2
  6
Continuous
100
AcDbCircle
 10
447.0899619999998
 20
332.2808289999999
 30
0.0
 40
10.18799999999999
100
AcDbArc
 50
286.8615909999999
 51
73.13840899999998
  0
LINE
  5
BA44
330
B802
100
AcDbEntity
  8
1
  6
Continuous
100
AcDbLine
 10
464.589962
 20
342.3844589999998
 30
0.0
 11
464.589962
 21
322.1771989999999
 31
0.0
  0
ARC
  5
BA45
330
B802
100
AcDbEntity
  8
1
  6
Continuous
100
AcDbCircle
 10
447.0899619999998
 20
332.2808289999999
 30
0.0
 40
11.0
100
AcDbArc
 50
297.5801989999999
 51
62.419801
  0
LINE
  5
BA46
330
B802
100
AcDbEntity
  8
1
  6
Continuous
100
AcDbLine
 10
447.0899619999998
 20
312.07357
 30
0.0
 11
464.589962
 21
322.1771989999999
 31
0.0
  0
LINE
  5
BA47
330
B802
100
AcDbEntity
  8
1
  6
Continuous
100
AcDbLine
 10
452.089962
 20
329.3938289999999
 30
0.0
 11
447.0899619999998
 21
326.5068289999998
 31
0.0
  0
LINE
  5
BA48
330
B802
100
AcDbEntity
  8
1
  6
Continuous
100
AcDbLine
 10
447.0899619999998
 20
333.7646529999997
 30
0.0
 11
447.0869969999998
 21
333.765559
 31
0.0
  0
LINE
  5
BA49
330
B802
100
AcDbEntity
  8
1
  6
Continuous
100
AcDbLine
 10
447.0899619999998
 20
333.7646529999997
 30
0.0
 11
447.092926
 21
333.765559
 31
0.0
  0
LINE
  5
BA4A
330
B802
100
AcDbEntity
  8
1
  6
Continuous
100
AcDbLine
 10
447.092926
 20
333.765559
 30
0.0
 11
448.4434529999998
 21
335.069747
 31
0.0
  0
LINE
  5
BA4B
330
B802
100
AcDbEntity
  8
1
  6
Continuous
100
AcDbLine
 10
448.5737849999998
 20
332.2808289999999
 30
0.0
 11
448.5746909999998
 21
332.2837939999997
 31
0.0
  0
LINE
  5
BA4C
330
B802
100
AcDbEntity
  8
1
  6
Continuous
100
AcDbLine
 10
448.5737849999998
 20
332.2808289999999
 30
0.0
 11
448.5746909999998
 21
332.2778649999999
 31
0.0
  0
LINE
  5
BA4D
330
B802
100
AcDbEntity
  8
1
  6
Continuous
100
AcDbLine
 10
447.0899619999998
 20
330.797006
 30
0.0
 11
447.092926
 21
330.7961
 31
0.0
  0
LINE
  5
BA4E
330
B802
100
AcDbEntity
  8
1
  6
Continuous
100
AcDbLine
 10
447.0899619999998
 20
330.797006
 30
0.0
 11
447.0869969999998
 21
330.7961
 31
0.0
  0
LINE
  5
BA4F
330
B802
100
AcDbEntity
  8
1
  6
Continuous
100
AcDbLine
 10
447.0899619999998
 20
338.053829
 30
0.0
 11
452.089962
 21
335.1678289999999
 31
0.0
  0
LINE
  5
BA50
330
B802
100
AcDbEntity
  8
1
  6
Continuous
100
AcDbLine
 10
449.8788789999998
 20
330.9273379999999
 30
0.0
 11
448.5746909999998
 21
332.2778649999999
 31
0.0
  0
LINE
  5
BA51
330
B802
100
AcDbEntity
  8
1
  6
Continuous
100
AcDbLine
 10
448.5746909999998
 20
332.2837939999997
 30
0.0
 11
449.8788789999998
 21
333.6343199999999
 31
0.0
  0
ARC
  5
BA52
330
B802
100
AcDbEntity
  8
1
  6
Continuous
100
AcDbCircle
 10
447.0899619999998
 20
332.2808289999999
 30
0.0
 40
3.1
100
AcDbArc
 50
25.887785
 51
64.112215
  0
LINE
  5
BA53
330
B802
100
AcDbEntity
  8
2
  6
Continuous
100
AcDbLine
 10
257.133666
 20
502.651494
 30
0.0
 11
240.8336659999999
 21
494.563456
 31
0.0
  0
LINE
  5
BA54
330
B802
100
AcDbEntity
  8
2
  6
Continuous
100
AcDbLine
 10
240.8336659999999
 20
500.553732
 30
0.0
 11
257.133666
 21
492.465694
 31
0.0
  0
LINE
  5
BA55
330
B802
100
AcDbEntity
  8
1
  6
Continuous
100
AcDbLine
 10
257.133666
 20
492.465694
 30
0.0
 11
236.3336659999999
 21
492.465694
 31
0.0
  0
LINE
  5
BA56
330
B802
100
AcDbEntity
  8
1
  6
Continuous
100
AcDbLine
 10
257.133666
 20
502.651494
 30
0.0
 11
236.3336659999999
 21
502.651494
 31
0.0
  0
LINE
  5
BA57
330
B802
100
AcDbEntity
  8
1
  6
Continuous
100
AcDbLine
 10
257.133666
 20
486.558594
 30
0.0
 11
236.3336659999999
 21
486.558594
 31
0.0
  0
LINE
  5
BA58
330
B802
100
AcDbEntity
  8
1
  6
Continuous
100
AcDbLine
 10
257.133666
 20
508.558594
 30
0.0
 11
236.3336659999999
 21
508.558594
 31
0.0
  0
LINE
  5
BA59
330
B802
100
AcDbEntity
  8
2
  6
Continuous
100
AcDbLine
 10
257.945666
 20
487.3705939999998
 30
0.0
 11
240.740091
 21
487.3705939999998
 31
0.0
  0
LINE
  5
BA5A
330
B802
100
AcDbEntity
  8
2
  6
Continuous
100
AcDbLine
 10
257.945666
 20
507.746594
 30
0.0
 11
240.740091
 21
507.746594
 31
0.0
  0
LINE
  5
BA5B
330
B802
100
AcDbEntity
  8
4
  6
CENTER
100
AcDbLine
 10
271.683666
 20
497.558594
 30
0.0
 11
182.633666
 21
497.558594
 31
0.0
  0
ARC
  5
BA5C
330
B802
100
AcDbEntity
  8
5
  6
PHANTOM
100
AcDbCircle
 10
56.499999
 20
340.880829
 30
0.0
 40
26.0
100
AcDbArc
 50
61.36900999999999
 51
118.6309899999999
  0
ARC
  5
BA5D
330
B802
100
AcDbEntity
  8
1
  6
Continuous
100
AcDbCircle
 10
41.499999
 20
355.92401
 30
0.0
 40
2.0
100
AcDbArc
 50
122.3923649999999
 51
180.0
  0
ARC
  5
BA5E
330
B802
100
AcDbEntity
  8
5
  6
PHANTOM
100
AcDbCircle
 10
44.999999
 20
361.9462029999998
 30
0.0
 40
2.0
100
AcDbArc
 50
118.6309899999999
 51
180.0
  0
ARC
  5
BA5F
330
B802
100
AcDbEntity
  8
1
  6
Continuous
100
AcDbCircle
 10
71.499999
 20
355.92401
 30
0.0
 40
2.0
100
AcDbArc
 50
0.0
 51
57.60763499999999
  0
ARC
  5
BA60
330
B802
100
AcDbEntity
  8
5
  6
PHANTOM
100
AcDbCircle
 10
67.999999
 20
361.9462029999998
 30
0.0
 40
2.0
100
AcDbArc
 50
0.0
 51
61.36900999999999
  0
LINE
  5
BA61
330
B802
100
AcDbEntity
  8
1
  6
Continuous
100
AcDbLine
 10
52.745548
 20
497.058641
 30
0.0
 11
75.51699399999998
 21
497.058641
 31
0.0
  0
LINE
  5
BA62
330
B802
100
AcDbEntity
  8
1
  6
Continuous
100
AcDbLine
 10
52.745548
 20
498.258641
 30
0.0
 11
76.15281800000002
 21
498.258641
 31
0.0
  0
LINE
  5
BA63
330
B802
100
AcDbEntity
  8
1
  6
Continuous
100
AcDbLine
 10
56.245548
 20
500.6586409999998
 30
0.0
 11
73.745548
 21
500.6586409999998
 31
0.0
  0
LINE
  5
BA64
330
B802
100
AcDbEntity
  8
1
  6
Continuous
100
AcDbLine
 10
56.245548
 20
494.458641
 30
0.0
 11
72.745548
 21
494.458641
 31
0.0
  0
LINE
  5
BA65
330
B802
100
AcDbEntity
  8
4
  6
CENTER
100
AcDbLine
 10
23.245548
 20
497.558641
 30
0.0
 11
77.534419
 21
497.558641
 31
0.0
  0
LINE
  5
BA66
330
B802
100
AcDbEntity
  8
1
  6
Continuous
100
AcDbLine
 10
33.483865
 20
487.003941
 30
0.0
 11
29.41349799999999
 21
493.1094919999998
 31
0.0
  0
LINE
  5
BA67
330
B802
100
AcDbEntity
  8
1
  6
Continuous
100
AcDbLine
 10
28.581447
 20
492.554792
 30
0.0
 11
32.651815
 21
486.4492409999998
 31
0.0
  0
LINE
  5
BA68
330
B802
100
AcDbEntity
  8
1
  6
Continuous
100
AcDbLine
 10
30.745548
 20
501.558641
 30
0.0
 11
33.745548
 21
501.558641
 31
0.0
  0
LINE
  5
BA69
330
B802
100
AcDbEntity
  8
1
  6
Continuous
100
AcDbLine
 10
30.745548
 20
493.5586409999998
 30
0.0
 11
33.745548
 21
493.5586409999998
 31
0.0
  0
LINE
  5
BA6A
330
B802
100
AcDbEntity
  8
1
  6
Continuous
100
AcDbLine
 10
33.483865
 20
508.1133409999998
 30
0.0
 11
29.41349799999999
 21
502.00779
 31
0.0
  0
LINE
  5
BA6B
330
B802
100
AcDbEntity
  8
1
  6
Continuous
100
AcDbLine
 10
28.581447
 20
502.56249
 30
0.0
 11
32.651815
 21
508.668041
 31
0.0
  0
ARC
  5
BA6C
330
B802
100
AcDbEntity
  8
1
  6
Continuous
100
AcDbCircle
 10
30.245548
 20
501.4530899999998
 30
0.0
 40
1.0
100
AcDbArc
 50
146.3099319999997
 51
180.0
  0
LINE
  5
BA6D
330
B802
100
AcDbEntity
  8
1
  6
Continuous
100
AcDbLine
 10
29.245548
 20
493.664192
 30
0.0
 11
29.245548
 21
501.4530899999998
 31
0.0
  0
ARC
  5
BA6E
330
B802
100
AcDbEntity
  8
1
  6
Continuous
100
AcDbCircle
 10
30.245548
 20
493.664192
 30
0.0
 40
1.0
100
AcDbArc
 50
180.0
 51
213.690068
  0
ARC
  5
BA6F
330
B802
100
AcDbEntity
  8
1
  6
Continuous
100
AcDbCircle
 10
30.745548
 20
501.058641
 30
0.0
 40
0.5
100
AcDbArc
 50
90.0
 51
180.0
  0
ARC
  5
BA70
330
B802
100
AcDbEntity
  8
1
  6
Continuous
100
AcDbCircle
 10
30.245548
 20
493.664192
 30
0.0
 40
2.0
100
AcDbArc
 50
180.0
 51
213.690068
  0
ARC
  5
BA71
330
B802
100
AcDbEntity
  8
1
  6
Continuous
100
AcDbCircle
 10
30.245548
 20
501.4530899999998
 30
0.0
 40
2.0
100
AcDbArc
 50
146.3099319999997
 51
180.0
  0
ARC
  5
BA72
330
B802
100
AcDbEntity
  8
1
  6
Continuous
100
AcDbCircle
 10
30.745548
 20
494.058641
 30
0.0
 40
0.5
100
AcDbArc
 50
180.0
 51
270.0
  0
LINE
  5
BA73
330
B802
100
AcDbEntity
  8
1
  6
Continuous
100
AcDbLine
 10
30.245548
 20
501.058641
 30
0.0
 11
30.245548
 21
494.058641
 31
0.0
  0
LINE
  5
BA74
330
B802
100
AcDbEntity
  8
1
  6
Continuous
100
AcDbLine
 10
28.24554799999999
 20
501.453096
 30
0.0
 11
28.24554799999999
 21
493.664198
 31
0.0
  0
LINE
  5
BA75
330
B802
100
AcDbEntity
  8
1
  6
Continuous
100
AcDbLine
 10
39.17888099999998
 20
508.3586409999998
 30
0.0
 11
49.245548
 21
500.808641
 31
0.0
  0
LINE
  5
BA76
330
B802
100
AcDbEntity
  8
1
  6
Continuous
100
AcDbLine
 10
39.77888099999999
 20
509.1586409999998
 30
0.0
 11
49.245548
 21
502.0586409999999
 31
0.0
  0
LINE
  5
BA77
330
B802
100
AcDbEntity
  8
1
  6
Continuous
100
AcDbLine
 10
49.245548
 20
494.308641
 30
0.0
 11
39.17888099999998
 21
486.758641
 31
0.0
  0
LINE
  5
BA78
330
B802
100
AcDbEntity
  8
1
  6
Continuous
100
AcDbLine
 10
39.77888099999999
 20
485.958641
 30
0.0
 11
49.245548
 21
493.058641
 31
0.0
  0
ARC
  5
BA79
330
B802
100
AcDbEntity
  8
1
  6
Continuous
100
AcDbCircle
 10
38.578881
 20
487.558641
 30
0.0
 40
1.0
100
AcDbArc
 50
270.0
 51
306.8698979999999
  0
ARC
  5
BA7A
330
B802
100
AcDbEntity
  8
1
  6
Continuous
100
AcDbCircle
 10
38.578881
 20
487.558641
 30
0.0
 40
2.0
100
AcDbArc
 50
270.0
 51
306.8698979999999
  0
ARC
  5
BA7B
330
B802
100
AcDbEntity
  8
1
  6
Continuous
100
AcDbCircle
 10
39.244759
 20
492.8930519999997
 30
0.0
 40
2.004309
100
AcDbArc
 50
270.0
 51
324.4619999999998
  0
ARC
  5
BA7C
330
B802
100
AcDbEntity
  8
1
  6
Continuous
100
AcDbCircle
 10
32.71293299999999
 20
497.558641
 30
0.0
 40
10.032628
100
AcDbArc
 50
324.4619999999998
 51
35.53799999999998
  0
ARC
  5
BA7D
330
B802
100
AcDbEntity
  8
1
  6
Continuous
100
AcDbCircle
 10
45.778163
 20
497.558641
 30
0.0
 40
10.032628
100
AcDbArc
 50
144.462
 51
215.5377
  0
LINE
  5
BA7E
330
B802
100
AcDbEntity
  8
1
  6
Continuous
100
AcDbLine
 10
36.532243
 20
497.9486249999998
 30
0.0
 11
41.95885299999999
 21
497.9486249999998
 31
0.0
  0
LINE
  5
BA7F
330
B802
100
AcDbEntity
  8
1
  6
Continuous
100
AcDbLine
 10
37.111692
 20
492.5046469999998
 30
0.0
 11
40.46523299999999
 21
492.5046469999998
 31
0.0
  0
LINE
  5
BA80
330
B802
100
AcDbEntity
  8
1
  6
Continuous
100
AcDbLine
 10
40.67995999999999
 20
493.2814559999997
 30
0.0
 11
37.81113599999999
 21
493.2814559999997
 31
0.0
  0
LINE
  5
BA81
330
B802
100
AcDbEntity
  8
1
  6
Continuous
100
AcDbLine
 10
37.32642
 20
494.059844
 30
0.0
 11
41.163097
 21
494.059844
 31
0.0
  0
LINE
  5
BA82
330
B802
100
AcDbEntity
  8
1
  6
Continuous
100
AcDbLine
 10
38.31164099999997
 20
495.61504
 30
0.0
 11
36.827494
 21
495.61504
 31
0.0
  0
LINE
  5
BA83
330
B802
100
AcDbEntity
  8
1
  6
Continuous
100
AcDbLine
 10
39.244759
 20
497.170237
 30
0.0
 11
39.244759
 21
496.393428
 31
0.0
  0
ARC
  5
BA84
330
B802
100
AcDbEntity
  8
1
  6
Continuous
100
AcDbCircle
 10
37.81113599999999
 20
493.6714389999997
 30
0.0
 40
0.388957
100
AcDbArc
 50
206.0144
 51
270.0
  0
ARC
  5
BA85
330
B802
100
AcDbEntity
  8
1
  6
Continuous
100
AcDbCircle
 10
45.778163
 20
497.558641
 30
0.0
 40
9.254918999999999
100
AcDbArc
 50
202.944
 51
206.0144
  0
ARC
  5
BA86
330
B802
100
AcDbEntity
  8
1
  6
Continuous
100
AcDbCircle
 10
37.32642
 20
493.982479
 30
0.0
 40
0.077791
100
AcDbArc
 50
90.0
 51
202.944
  0
ARC
  5
BA87
330
B802
100
AcDbEntity
  8
1
  6
Continuous
100
AcDbCircle
 10
40.67995999999999
 20
493.6714389999997
 30
0.0
 40
0.388957
100
AcDbArc
 50
270.0
 51
333.9859999999998
  0
ARC
  5
BA88
330
B802
100
AcDbEntity
  8
1
  6
Continuous
100
AcDbCircle
 10
36.827494
 20
495.537675
 30
0.0
 40
0.077791
100
AcDbArc
 50
90.0
 51
192.7289
  0
ARC
  5
BA89
330
B802
100
AcDbEntity
  8
1
  6
Continuous
100
AcDbCircle
 10
45.778163
 20
497.558641
 30
0.0
 40
9.254918999999999
100
AcDbArc
 50
192.7289
 51
193.2680999999999
  0
ARC
  5
BA8A
330
B802
100
AcDbEntity
  8
1
  6
Continuous
100
AcDbCircle
 10
45.778163
 20
497.558641
 30
0.0
 40
9.254918999999999
100
AcDbArc
 50
193.2680999999999
 51
195.2574999999999
  0
ARC
  5
BA8B
330
B802
100
AcDbEntity
  8
1
  6
Continuous
100
AcDbCircle
 10
37.225371
 20
495.226636
 30
0.0
 40
0.388957
100
AcDbArc
 50
195.2574999999999
 51
270.0
  0
ARC
  5
BA8C
330
B802
100
AcDbEntity
  8
1
  6
Continuous
100
AcDbCircle
 10
41.265725
 20
495.226636
 30
0.0
 40
0.388957
100
AcDbArc
 50
270.0
 51
344.7419999999997
  0
ARC
  5
BA8D
330
B802
100
AcDbEntity
  8
1
  6
Continuous
100
AcDbCircle
 10
32.71293299999999
 20
497.558641
 30
0.0
 40
9.254918999999999
100
AcDbArc
 50
344.7419999999997
 51
344.794
  0
ARC
  5
BA8E
330
B802
100
AcDbEntity
  8
1
  6
Continuous
100
AcDbCircle
 10
32.71293299999999
 20
497.558641
 30
0.0
 40
9.254918999999999
100
AcDbArc
 50
344.794
 51
347.2709999999997
  0
ARC
  5
BA8F
330
B802
100
AcDbEntity
  8
1
  6
Continuous
100
AcDbCircle
 10
41.66360199999997
 20
495.537675
 30
0.0
 40
0.077791
100
AcDbArc
 50
347.2709999999997
 51
90.0
  0
LINE
  5
BA90
330
B802
100
AcDbEntity
  8
1
  6
Continuous
100
AcDbLine
 10
37.225371
 20
494.836653
 30
0.0
 11
41.265725
 21
494.836653
 31
0.0
  0
LINE
  5
BA91
330
B802
100
AcDbEntity
  8
1
  6
Continuous
100
AcDbLine
 10
41.66360199999997
 20
495.61504
 30
0.0
 11
40.177876
 21
495.61504
 31
0.0
  0
LINE
  5
BA92
330
B802
100
AcDbEntity
  8
1
  6
Continuous
100
AcDbLine
 10
36.59697700000001
 20
496.393428
 30
0.0
 11
41.894119
 21
496.393428
 31
0.0
  0
LINE
  5
BA93
330
B802
100
AcDbEntity
  8
1
  6
Continuous
100
AcDbLine
 10
36.532243
 20
497.170237
 30
0.0
 11
41.95885299999999
 21
497.170237
 31
0.0
  0
ARC
  5
BA94
330
B802
100
AcDbEntity
  8
1
  6
Continuous
100
AcDbCircle
 10
41.163097
 20
493.982479
 30
0.0
 40
0.077791
100
AcDbArc
 50
337.0559999999999
 51
90.0
  0
ARC
  5
BA95
330
B802
100
AcDbEntity
  8
1
  6
Continuous
100
AcDbCircle
 10
32.71293299999999
 20
497.558641
 30
0.0
 40
9.254918999999999
100
AcDbArc
 50
333.9859999999998
 51
337.0559999999999
  0
LINE
  5
BA96
330
B802
100
AcDbEntity
  8
1
  6
Continuous
100
AcDbLine
 10
38.31164099999997
 20
499.503821
 30
0.0
 11
37.05011599999997
 21
499.503821
 31
0.0
  0
LINE
  5
BA97
330
B802
100
AcDbEntity
  8
1
  6
Continuous
100
AcDbLine
 10
39.244759
 20
499.503821
 30
0.0
 11
39.244759
 21
499.1154169999998
 31
0.0
  0
LINE
  5
BA98
330
B802
100
AcDbEntity
  8
1
  6
Continuous
100
AcDbLine
 10
37.054852
 20
501.059018
 30
0.0
 11
38.85635399999999
 21
501.059018
 31
0.0
  0
LINE
  5
BA99
330
B802
100
AcDbEntity
  8
1
  6
Continuous
100
AcDbLine
 10
38.85635399999999
 20
501.837405
 30
0.0
 11
37.19537299999998
 21
501.837405
 31
0.0
  0
LINE
  5
BA9A
330
B802
100
AcDbEntity
  8
1
  6
Continuous
100
AcDbLine
 10
39.244759
 20
501.4474219999996
 30
0.0
 11
41.11099399999999
 21
501.4474219999996
 31
0.0
  0
LINE
  5
BA9B
330
B802
100
AcDbEntity
  8
1
  6
Continuous
100
AcDbLine
 10
40.70048599999998
 20
502.232125
 30
0.0
 11
37.422731
 21
503.1115609999998
 31
0.0
  0
LINE
  5
BA9C
330
B802
100
AcDbEntity
  8
1
  6
Continuous
100
AcDbLine
 10
39.244759
 20
504.2294079999998
 30
0.0
 11
39.244759
 21
502.6221089999999
 31
0.0
  0
ARC
  5
BA9D
330
B802
100
AcDbEntity
  8
1
  6
Continuous
100
AcDbCircle
 10
38.85635399999999
 20
501.4474219999996
 30
0.0
 40
0.388957
100
AcDbArc
 50
270.0
 51
90.0
  0
ARC
  5
BA9E
330
B802
100
AcDbEntity
  8
1
  6
Continuous
100
AcDbCircle
 10
39.244759
 20
502.22581
 30
0.0
 40
2.004309
100
AcDbArc
 50
62.24999999999999
 51
144.462
  0
ARC
  5
BA9F
330
B802
100
AcDbEntity
  8
1
  6
Continuous
100
AcDbCircle
 10
39.244759
 20
502.22581
 30
0.0
 40
2.004309
100
AcDbArc
 50
35.53799999999998
 51
45.69899999999999
  0
ARC
  5
BAA0
330
B802
100
AcDbEntity
  8
1
  6
Continuous
100
AcDbCircle
 10
37.05011599999997
 20
499.1154169999998
 30
0.0
 40
0.388957
100
AcDbArc
 50
90.0
 51
169.896
  0
ARC
  5
BAA1
330
B802
100
AcDbEntity
  8
1
  6
Continuous
100
AcDbCircle
 10
45.778163
 20
497.558641
 30
0.0
 40
9.254918999999999
100
AcDbArc
 50
169.896
 51
172.2069999999999
  0
ARC
  5
BAA2
330
B802
100
AcDbEntity
  8
1
  6
Continuous
100
AcDbCircle
 10
36.685394
 20
498.8043769999999
 30
0.0
 40
0.077791
100
AcDbArc
 50
172.2069999999999
 51
270.0
  0
ARC
  5
BAA3
330
B802
100
AcDbEntity
  8
1
  6
Continuous
100
AcDbCircle
 10
41.44097999999997
 20
499.1154169999998
 30
0.0
 40
0.388957
100
AcDbArc
 50
10.10399999999999
 51
90.0
  0
ARC
  5
BAA4
330
B802
100
AcDbEntity
  8
1
  6
Continuous
100
AcDbCircle
 10
41.805702
 20
498.8043769999999
 30
0.0
 40
0.077791
100
AcDbArc
 50
270.0
 51
7.792999999999999
  0
ARC
  5
BAA5
330
B802
100
AcDbEntity
  8
1
  6
Continuous
100
AcDbCircle
 10
32.71293299999999
 20
497.558641
 30
0.0
 40
9.254918999999999
100
AcDbArc
 50
7.792999999999999
 51
10.10399999999999
  0
LINE
  5
BAA6
330
B802
100
AcDbEntity
  8
1
  6
Continuous
100
AcDbLine
 10
36.685394
 20
498.7254329999998
 30
0.0
 11
41.805702
 21
498.7254329999998
 31
0.0
  0
LINE
  5
BAA7
330
B802
100
AcDbEntity
  8
1
  6
Continuous
100
AcDbLine
 10
41.44097999999997
 20
499.503821
 30
0.0
 11
39.244759
 21
499.503821
 31
0.0
  0
LINE
  5
BAA8
330
B802
100
AcDbEntity
  8
1
  6
Continuous
100
AcDbLine
 10
36.688552
 20
500.2806299999998
 30
0.0
 11
41.557817
 21
500.2806299999998
 31
0.0
  0
ARC
  5
BAA9
330
B802
100
AcDbEntity
  8
1
  6
Continuous
100
AcDbCircle
 10
39.244759
 20
492.8930519999997
 30
0.0
 40
2.004309
100
AcDbArc
 50
215.5377
 51
256.5374
  0
ARC
  5
BAAA
330
B802
100
AcDbEntity
  8
1
  6
Continuous
100
AcDbCircle
 10
34.31591499999999
 20
487.558641
 30
0.0
 40
1.0
100
AcDbArc
 50
213.690068
 51
270.0
  0
ARC
  5
BAAB
330
B802
100
AcDbEntity
  8
1
  6
Continuous
100
AcDbCircle
 10
34.31591499999999
 20
487.558641
 30
0.0
 40
2.0
100
AcDbArc
 50
213.690068
 51
270.0
  0
ARC
  5
BAAC
330
B802
100
AcDbEntity
  8
1
  6
Continuous
100
AcDbCircle
 10
33.745548
 20
501.058641
 30
0.0
 40
0.5
100
AcDbArc
 50
0.0
 51
90.0
  0
ARC
  5
BAAD
330
B802
100
AcDbEntity
  8
1
  6
Continuous
100
AcDbCircle
 10
33.745548
 20
494.058641
 30
0.0
 40
0.5
100
AcDbArc
 50
270.0
 51
0.0
  0
LINE
  5
BAAE
330
B802
100
AcDbEntity
  8
1
  6
Continuous
100
AcDbLine
 10
34.245548
 20
501.058641
 30
0.0
 11
34.245548
 21
494.058641
 31
0.0
  0
LINE
  5
BAAF
330
B802
100
AcDbEntity
  8
1
  6
Continuous
100
AcDbLine
 10
38.578881
 20
486.558641
 30
0.0
 11
34.31591499999999
 21
486.558641
 31
0.0
  0
LINE
  5
BAB0
330
B802
100
AcDbEntity
  8
1
  6
Continuous
100
AcDbLine
 10
34.31591499999999
 20
485.5586409999999
 30
0.0
 11
38.578881
 21
485.5586409999999
 31
0.0
  0
ARC
  5
BAB1
330
B802
100
AcDbEntity
  8
1
  6
Continuous
100
AcDbCircle
 10
55.945548
 20
493.358641
 30
0.0
 40
0.3
100
AcDbArc
 50
270.0
 51
0.0
  0
ARC
  5
BAB2
330
B802
100
AcDbEntity
  8
1
  6
Continuous
100
AcDbCircle
 10
55.945548
 20
501.7586409999998
 30
0.0
 40
0.3
100
AcDbArc
 50
0.0
 51
90.0
  0
LINE
  5
BAB3
330
B802
100
AcDbEntity
  8
1
  6
Continuous
100
AcDbLine
 10
56.245548
 20
494.458641
 30
0.0
 11
56.245548
 21
493.358641
 31
0.0
  0
LINE
  5
BAB4
330
B802
100
AcDbEntity
  8
1
  6
Continuous
100
AcDbLine
 10
56.245548
 20
501.7586409999998
 30
0.0
 11
56.245548
 21
500.6586409999998
 31
0.0
  0
LINE
  5
BAB5
330
B802
100
AcDbEntity
  8
1
  6
Continuous
100
AcDbLine
 10
52.745548
 20
498.258641
 30
0.0
 11
52.745548
 21
497.058641
 31
0.0
  0
LINE
  5
BAB6
330
B802
100
AcDbEntity
  8
1
  6
Continuous
100
AcDbLine
 10
49.245548
 20
494.308641
 30
0.0
 11
49.245548
 21
500.808641
 31
0.0
  0
LINE
  5
BAB7
330
B802
100
AcDbEntity
  8
1
  6
Continuous
100
AcDbLine
 10
49.245548
 20
502.0586409999999
 30
0.0
 11
55.945548
 21
502.0586409999999
 31
0.0
  0
LINE
  5
BAB8
330
B802
100
AcDbEntity
  8
1
  6
Continuous
100
AcDbLine
 10
49.245548
 20
493.058641
 30
0.0
 11
55.945548
 21
493.058641
 31
0.0
  0
ARC
  5
BAB9
330
B802
100
AcDbEntity
  8
1
  6
Continuous
100
AcDbCircle
 10
38.578881
 20
507.558641
 30
0.0
 40
1.0
100
AcDbArc
 50
53.130102
 51
90.0
  0
ARC
  5
BABA
330
B802
100
AcDbEntity
  8
1
  6
Continuous
100
AcDbCircle
 10
38.578881
 20
507.558641
 30
0.0
 40
2.0
100
AcDbArc
 50
53.130102
 51
90.0
  0
ARC
  5
BABB
330
B802
100
AcDbEntity
  8
1
  6
Continuous
100
AcDbCircle
 10
34.31591499999999
 20
507.558641
 30
0.0
 40
1.0
100
AcDbArc
 50
90.0
 51
146.3099319999997
  0
ARC
  5
BABC
330
B802
100
AcDbEntity
  8
1
  6
Continuous
100
AcDbCircle
 10
34.31591499999999
 20
507.558641
 30
0.0
 40
2.0
100
AcDbArc
 50
90.0
 51
146.3099319999997
  0
LINE
  5
BABD
330
B802
100
AcDbEntity
  8
1
  6
Continuous
100
AcDbLine
 10
34.31591499999999
 20
508.558641
 30
0.0
 11
38.578881
 21
508.558641
 31
0.0
  0
LINE
  5
BABE
330
B802
100
AcDbEntity
  8
1
  6
Continuous
100
AcDbLine
 10
34.31591499999999
 20
509.558641
 30
0.0
 11
38.578881
 21
509.558641
 31
0.0
  0
LINE
  5
BABF
330
B802
100
AcDbEntity
  8
1
  6
Continuous
100
AcDbLine
 10
72.745548
 20
494.458641
 30
0.0
 11
76.087642
 21
497.5939879999998
 31
0.0
  0
LINE
  5
BAC0
330
B802
100
AcDbEntity
  8
1
  6
Continuous
100
AcDbLine
 10
73.745548
 20
500.6586409999998
 30
0.0
 11
76.098566
 21
498.3127289999997
 31
0.0
  0
ARC
  5
BAC1
330
B802
100
AcDbEntity
  8
1
  6
Continuous
100
AcDbCircle
 10
75.745548
 20
497.958641
 30
0.0
 40
0.5
100
AcDbArc
 50
313.1718549999998
 51
45.08664600000001
  0
LINE
  5
BAC2
330
B802
100
AcDbEntity
  8
1
  6
Continuous
100
AcDbLine
 10
236.3336659999999
 20
356.2808289999999
 30
0.0
 11
240.8336659999999
 21
356.2808289999999
 31
0.0
  0
LINE
  5
BAC3
330
B802
100
AcDbEntity
  8
1
  6
Continuous
100
AcDbLine
 10
231.333666
 20
361.242743
 30
0.0
 11
231.333666
 21
356.843227
 31
0.0
  0
ARC
  5
BAC4
330
B802
100
AcDbEntity
  8
1
  6
Continuous
100
AcDbCircle
 10
232.5176899999999
 20
360.280829
 30
0.0
 40
2.0
100
AcDbArc
 50
90.0
 51
151.386961
  0
LINE
  5
BAC5
330
B802
100
AcDbEntity
  8
1
  6
Continuous
100
AcDbLine
 10
232.5176899999999
 20
362.280829
 30
0.0
 11
236.3336659999999
 21
362.280829
 31
0.0
  0
LINE
  5
BAC6
330
B802
100
AcDbEntity
  8
1
  6
Continuous
100
AcDbLine
 10
221.733666
 20
484.058594
 30
0.0
 11
190.4730209999999
 21
484.058594
 31
0.0
  0
LINE
  5
BAC7
330
B802
100
AcDbEntity
  8
1
  6
Continuous
100
AcDbLine
 10
221.733666
 20
511.0585939999999
 30
0.0
 11
190.4730209999999
 21
511.0585939999999
 31
0.0
  0
LINE
  5
BAC8
330
B802
100
AcDbEntity
  8
1
  6
Continuous
100
AcDbLine
 10
188.1649239999999
 20
489.558594
 30
0.0
 11
187.660531
 21
489.558594
 31
0.0
  0
LINE
  5
BAC9
330
B802
100
AcDbEntity
  8
1
  6
Continuous
100
AcDbLine
 10
188.1649239999999
 20
505.558594
 30
0.0
 11
187.660531
 21
505.558594
 31
0.0
  0
LINE
  5
BACA
330
B802
100
AcDbEntity
  8
1
  6
Continuous
100
AcDbLine
 10
189.246061
 20
486.0585939999999
 30
0.0
 11
188.7366959999999
 21
486.0585939999999
 31
0.0
  0
LINE
  5
BACB
330
B802
100
AcDbEntity
  8
1
  6
Continuous
100
AcDbLine
 10
189.246061
 20
509.058594
 30
0.0
 11
188.7366959999999
 21
509.058594
 31
0.0
  0
LINE
  5
BACC
330
B802
100
AcDbEntity
  8
1
  6
Continuous
100
AcDbLine
 10
221.783666
 20
484.058594
 30
0.0
 11
231.333666
 21
480.558594
 31
0.0
  0
LINE
  5
BACD
330
B802
100
AcDbEntity
  8
1
  6
Continuous
100
AcDbLine
 10
231.333666
 20
469.5585939999999
 30
0.0
 11
231.333666
 21
525.5585940000002
 31
0.0
  0
LINE
  5
BACE
330
B802
100
AcDbEntity
  8
1
  6
Continuous
100
AcDbLine
 10
236.3336659999999
 20
467.558594
 30
0.0
 11
236.3336659999999
 21
527.558594
 31
0.0
  0
LINE
  5
BACF
330
B802
100
AcDbEntity
  8
1
  6
Continuous
100
AcDbLine
 10
235.333666
 20
467.558594
 30
0.0
 11
235.333666
 21
527.558594
 31
0.0
  0
ARC
  5
BAD0
330
B802
100
AcDbEntity
  8
1
  6
Continuous
100
AcDbCircle
 10
233.333666
 20
469.5585939999999
 30
0.0
 40
2.0
100
AcDbArc
 50
180.0
 51
270.0
  0
LINE
  5
BAD1
330
B802
100
AcDbEntity
  8
1
  6
Continuous
100
AcDbLine
 10
236.3336659999999
 20
467.558594
 30
0.0
 11
233.333666
 21
467.558594
 31
0.0
  0
LINE
  5
BAD2
330
B802
100
AcDbEntity
  8
1
  6
Continuous
100
AcDbLine
 10
221.783666
 20
511.0585939999999
 30
0.0
 11
231.333666
 21
514.5585940000001
 31
0.0
  0
LINE
  5
BAD3
330
B802
100
AcDbEntity
  8
1
  6
Continuous
100
AcDbLine
 10
221.783666
 20
484.058594
 30
0.0
 11
221.783666
 21
511.0585939999999
 31
0.0
  0
LINE
  5
BAD4
330
B802
100
AcDbEntity
  8
1
  6
Continuous
100
AcDbLine
 10
221.733666
 20
484.058594
 30
0.0
 11
221.733666
 21
511.0585939999999
 31
0.0
  0
LINE
  5
BAD5
330
B802
100
AcDbEntity
  8
1
  6
Continuous
100
AcDbLine
 10
195.9336659999999
 20
484.058594
 30
0.0
 11
195.9336659999999
 21
511.0585939999999
 31
0.0
  0
LINE
  5
BAD6
330
B802
100
AcDbEntity
  8
1
  6
Continuous
100
AcDbLine
 10
195.833666
 20
484.058594
 30
0.0
 11
195.833666
 21
511.0585939999999
 31
0.0
  0
LINE
  5
BAD7
330
B802
100
AcDbEntity
  8
1
  6
Continuous
100
AcDbLine
 10
240.740091
 20
508.558594
 30
0.0
 11
240.740091
 21
502.651494
 31
0.0
  0
LINE
  5
BAD8
330
B802
100
AcDbEntity
  8
2
  6
Continuous
100
AcDbLine
 10
239.333666
 20
486.558594
 30
0.0
 11
240.740091
 21
487.3705939999998
 31
0.0
  0
LINE
  5
BAD9
330
B802
100
AcDbEntity
  8
1
  6
Continuous
100
AcDbLine
 10
236.3336659999999
 20
500.8085939999999
 30
0.0
 11
240.8336659999999
 21
500.8085939999999
 31
0.0
  0
LINE
  5
BADA
330
B802
100
AcDbEntity
  8
1
  6
Continuous
100
AcDbLine
 10
236.3336659999999
 20
494.308594
 30
0.0
 11
240.8336659999999
 21
494.308594
 31
0.0
  0
LINE
  5
BADB
330
B802
100
AcDbEntity
  8
1
  6
Continuous
100
AcDbLine
 10
240.740091
 20
492.465694
 30
0.0
 11
240.740091
 21
486.558594
 31
0.0
  0
LINE
  5
BADC
330
B802
100
AcDbEntity
  8
1
  6
Continuous
100
AcDbLine
 10
240.8336659999999
 20
500.8085939999999
 30
0.0
 11
240.8336659999999
 21
494.308594
 31
0.0
  0
LINE
  5
BADD
330
B802
100
AcDbEntity
  8
2
  6
Continuous
100
AcDbLine
 10
239.333666
 20
508.558594
 30
0.0
 11
240.740091
 21
507.746594
 31
0.0
  0
ARC
  5
BADE
330
B802
100
AcDbEntity
  8
1
  6
Continuous
100
AcDbCircle
 10
233.333666
 20
525.5585940000002
 30
0.0
 40
2.0
100
AcDbArc
 50
90.0
 51
180.0
  0
LINE
  5
BADF
330
B802
100
AcDbEntity
  8
1
  6
Continuous
100
AcDbLine
 10
236.3336659999999
 20
527.558594
 30
0.0
 11
233.333666
 21
527.558594
 31
0.0
  0
LINE
  5
BAE0
330
B802
100
AcDbEntity
  8
1
  6
Continuous
100
AcDbLine
 10
295.7385319999999
 20
352.4880889999997
 30
0.0
 11
291.864606
 21
352.4880889999997
 31
0.0
  0
LINE
  5
BAE1
330
B802
100
AcDbEntity
  8
1
  6
Continuous
100
AcDbLine
 10
288.801571
 20
513.5585940000002
 30
0.0
 11
288.801571
 21
481.558594
 31
0.0
  0
LINE
  5
BAE2
330
B802
100
AcDbEntity
  8
1
  6
Continuous
100
AcDbLine
 10
287.1015709999999
 20
515.058594
 30
0.0
 11
287.1015709999999
 21
480.058594
 31
0.0
  0
LINE
  5
BAE3
330
B802
100
AcDbEntity
  8
1
  6
Continuous
100
AcDbLine
 10
288.501571
 20
480.058594
 30
0.0
 11
288.501571
 21
515.058594
 31
0.0
  0
ARC
  5
BAE4
330
B802
100
AcDbEntity
  8
1
  6
Continuous
100
AcDbCircle
 10
324.822632
 20
488.808594
 30
0.0
 40
34.52106099999999
100
AcDbArc
 50
165.317147
 51
194.6828529999999
  0
ARC
  5
BAE5
330
B802
100
AcDbEntity
  8
1
  6
Continuous
100
AcDbCircle
 10
262.7805099999998
 20
488.808594
 30
0.0
 40
34.52106099999999
100
AcDbArc
 50
345.317147
 51
14.68285299999999
  0
LINE
  5
BAE6
330
B802
100
AcDbEntity
  8
1
  6
Continuous
100
AcDbLine
 10
298.801571
 20
513.5585940000002
 30
0.0
 11
298.801571
 21
481.558594
 31
0.0
  0
LINE
  5
BAE7
330
B802
100
AcDbEntity
  8
1
  6
Continuous
100
AcDbLine
 10
297.301571
 20
515.058594
 30
0.0
 11
297.301571
 21
480.058594
 31
0.0
  0
LINE
  5
BAE8
330
B802
100
AcDbEntity
  8
1
  6
Continuous
100
AcDbLine
 10
290.301571
 20
515.058594
 30
0.0
 11
290.301571
 21
480.058594
 31
0.0
  0
LINE
  5
BAE9
330
B802
100
AcDbEntity
  8
1
  6
Continuous
100
AcDbLine
 10
287.1015709999999
 20
480.058594
 30
0.0
 11
288.501571
 21
480.058594
 31
0.0
  0
LINE
  5
BAEA
330
B802
100
AcDbEntity
  8
1
  6
Continuous
100
AcDbLine
 10
290.301571
 20
480.058594
 30
0.0
 11
297.301571
 21
480.058594
 31
0.0
  0
LINE
  5
BAEB
330
B802
100
AcDbEntity
  8
1
  6
Continuous
100
AcDbLine
 10
288.801571
 20
481.558594
 30
0.0
 11
290.301571
 21
481.558594
 31
0.0
  0
LINE
  5
BAEC
330
B802
100
AcDbEntity
  8
1
  6
Continuous
100
AcDbLine
 10
298.801571
 20
481.558594
 30
0.0
 11
297.301571
 21
481.558594
 31
0.0
  0
LINE
  5
BAED
330
B802
100
AcDbEntity
  8
1
  6
Continuous
100
AcDbLine
 10
287.1015709999999
 20
515.058594
 30
0.0
 11
288.501571
 21
515.058594
 31
0.0
  0
LINE
  5
BAEE
330
B802
100
AcDbEntity
  8
4
  6
CENTER
100
AcDbLine
 10
283.801571
 20
497.558594
 30
0.0
 11
303.801571
 21
497.558594
 31
0.0
  0
LINE
  5
BAEF
330
B802
100
AcDbEntity
  8
1
  6
Continuous
100
AcDbLine
 10
257.133666
 20
508.558594
 30
0.0
 11
257.133666
 21
502.651494
 31
0.0
  0
LINE
  5
BAF0
330
B802
100
AcDbEntity
  8
1
  6
Continuous
100
AcDbLine
 10
258.683666
 20
507.008594
 30
0.0
 11
258.683666
 21
488.108594
 31
0.0
  0
LINE
  5
BAF1
330
B802
100
AcDbEntity
  8
1
  6
Continuous
100
AcDbLine
 10
266.433666
 20
504.434687
 30
0.0
 11
258.733666
 21
504.434687
 31
0.0
  0
ARC
  5
BAF2
330
B802
100
AcDbEntity
  8
1
  6
Continuous
100
AcDbCircle
 10
266.433666
 20
504.1346869999999
 30
0.0
 40
0.3
100
AcDbArc
 50
0.0
 51
90.0
  0
LINE
  5
BAF3
330
B802
100
AcDbEntity
  8
1
  6
Continuous
100
AcDbLine
 10
266.433666
 20
497.558594
 30
0.0
 11
258.733666
 21
497.558594
 31
0.0
  0
LINE
  5
BAF4
330
B802
100
AcDbEntity
  8
2
  6
Continuous
100
AcDbLine
 10
266.433666
 20
504.434687
 30
0.0
 11
258.733666
 21
497.558594
 31
0.0
  0
LINE
  5
BAF5
330
B802
100
AcDbEntity
  8
2
  6
Continuous
100
AcDbLine
 10
266.433666
 20
497.558594
 30
0.0
 11
258.733666
 21
504.434687
 31
0.0
  0
ARC
  5
BAF6
330
B802
100
AcDbEntity
  8
1
  6
Continuous
100
AcDbCircle
 10
266.383666
 20
490.9825009999996
 30
0.0
 40
0.3
100
AcDbArc
 50
270.0
 51
0.0
  0
LINE
  5
BAF7
330
B802
100
AcDbEntity
  8
1
  6
Continuous
100
AcDbLine
 10
266.433666
 20
490.682501
 30
0.0
 11
258.733666
 21
490.682501
 31
0.0
  0
LINE
  5
BAF8
330
B802
100
AcDbEntity
  8
2
  6
Continuous
100
AcDbLine
 10
258.733666
 20
497.558594
 30
0.0
 11
266.433666
 21
490.682501
 31
0.0
  0
LINE
  5
BAF9
330
B802
100
AcDbEntity
  8
2
  6
Continuous
100
AcDbLine
 10
258.733666
 20
490.682501
 30
0.0
 11
266.433666
 21
497.558594
 31
0.0
  0
LINE
  5
BAFA
330
B802
100
AcDbEntity
  8
1
  6
Continuous
100
AcDbLine
 10
266.733666
 20
504.1346869999999
 30
0.0
 11
266.733666
 21
490.9825009999996
 31
0.0
  0
LINE
  5
BAFB
330
B802
100
AcDbEntity
  8
1
  6
Continuous
100
AcDbLine
 10
257.133666
 20
492.465694
 30
0.0
 11
257.133666
 21
486.558594
 31
0.0
  0
ARC
  5
BAFC
330
B802
100
AcDbEntity
  8
1
  6
Continuous
100
AcDbCircle
 10
246.92632
 20
497.558594
 30
0.0
 40
11.407346
100
AcDbArc
 50
333.483346
 51
26.516654
  0
LINE
  5
BAFD
330
B802
100
AcDbEntity
  8
1
  6
Continuous
100
AcDbLine
 10
257.133666
 20
486.558594
 30
0.0
 11
258.683666
 21
488.108594
 31
0.0
  0
LINE
  5
BAFE
330
B802
100
AcDbEntity
  8
1
  6
Continuous
100
AcDbLine
 10
286.801571
 20
504.318124
 30
0.0
 11
287.1015709999999
 21
504.618124
 31
0.0
  0
LINE
  5
BAFF
330
B802
100
AcDbEntity
  8
1
  6
Continuous
100
AcDbLine
 10
286.801571
 20
504.318124
 30
0.0
 11
287.1015709999999
 21
504.0181239999998
 31
0.0
  0
LINE
  5
BB00
330
B802
100
AcDbEntity
  8
1
  6
Continuous
100
AcDbLine
 10
286.801571
 20
497.5686239999998
 30
0.0
 11
287.1015709999999
 21
497.2686239999998
 31
0.0
  0
LINE
  5
BB01
330
B802
100
AcDbEntity
  8
1
  6
Continuous
100
AcDbLine
 10
286.801571
 20
497.5686239999998
 30
0.0
 11
287.1015709999999
 21
497.868624
 31
0.0
  0
LINE
  5
BB02
330
B802
100
AcDbEntity
  8
1
  6
Continuous
100
AcDbLine
 10
286.801571
 20
490.799084
 30
0.0
 11
287.1015709999999
 21
491.0990939999998
 31
0.0
  0
LINE
  5
BB03
330
B802
100
AcDbEntity
  8
1
  6
Continuous
100
AcDbLine
 10
286.801571
 20
490.799084
 30
0.0
 11
287.1015709999999
 21
490.4990839999999
 31
0.0
  0
LINE
  5
BB04
330
B802
100
AcDbEntity
  8
1
  6
Continuous
100
AcDbLine
 10
287.1015709999999
 20
486.621444
 30
0.0
 11
286.801571
 21
486.621444
 31
0.0
  0
LINE
  5
BB05
330
B802
100
AcDbEntity
  8
1
  6
Continuous
100
AcDbLine
 10
286.801571
 20
486.621444
 30
0.0
 11
287.1015709999999
 21
485.463294
 31
0.0
  0
LINE
  5
BB06
330
B802
100
AcDbEntity
  8
1
  6
Continuous
100
AcDbLine
 10
257.133666
 20
508.558594
 30
0.0
 11
258.683666
 21
507.008594
 31
0.0
  0
LINE
  5
BB07
330
B802
100
AcDbEntity
  8
1
  6
Continuous
100
AcDbLine
 10
286.801571
 20
508.4957440000001
 30
0.0
 11
287.1015709999999
 21
509.653894
 31
0.0
  0
LINE
  5
BB08
330
B802
100
AcDbEntity
  8
1
  6
Continuous
100
AcDbLine
 10
287.1015709999999
 20
508.4957440000001
 30
0.0
 11
286.801571
 21
508.4957440000001
 31
0.0
  0
ARC
  5
BB09
330
B802
100
AcDbEntity
  8
1
  6
Continuous
100
AcDbCircle
 10
324.822632
 20
506.308594
 30
0.0
 40
34.52106099999999
100
AcDbArc
 50
165.317147
 51
194.6828529999999
  0
ARC
  5
BB0A
330
B802
100
AcDbEntity
  8
1
  6
Continuous
100
AcDbCircle
 10
262.7805099999998
 20
506.308594
 30
0.0
 40
34.52106099999999
100
AcDbArc
 50
345.317147
 51
14.68285299999999
  0
LINE
  5
BB0B
330
B802
100
AcDbEntity
  8
1
  6
Continuous
100
AcDbLine
 10
288.501571
 20
490.4990839999999
 30
0.0
 11
288.801571
 21
490.799084
 31
0.0
  0
LINE
  5
BB0C
330
B802
100
AcDbEntity
  8
1
  6
Continuous
100
AcDbLine
 10
288.801571
 20
490.799084
 30
0.0
 11
288.501571
 21
491.0990939999998
 31
0.0
  0
LINE
  5
BB0D
330
B802
100
AcDbEntity
  8
1
  6
Continuous
100
AcDbLine
 10
288.801571
 20
504.318124
 30
0.0
 11
288.501571
 21
504.0181239999998
 31
0.0
  0
LINE
  5
BB0E
330
B802
100
AcDbEntity
  8
1
  6
Continuous
100
AcDbLine
 10
288.501571
 20
504.618124
 30
0.0
 11
288.801571
 21
504.318124
 31
0.0
  0
LINE
  5
BB0F
330
B802
100
AcDbEntity
  8
1
  6
Continuous
100
AcDbLine
 10
288.501571
 20
497.848544
 30
0.0
 11
288.801571
 21
497.5485439999998
 31
0.0
  0
LINE
  5
BB10
330
B802
100
AcDbEntity
  8
1
  6
Continuous
100
AcDbLine
 10
288.801571
 20
497.5485439999998
 30
0.0
 11
288.501571
 21
497.2485439999998
 31
0.0
  0
LINE
  5
BB11
330
B802
100
AcDbEntity
  8
1
  6
Continuous
100
AcDbLine
 10
288.501571
 20
486.621444
 30
0.0
 11
288.801571
 21
486.621444
 31
0.0
  0
LINE
  5
BB12
330
B802
100
AcDbEntity
  8
1
  6
Continuous
100
AcDbLine
 10
288.801571
 20
486.621444
 30
0.0
 11
288.501571
 21
485.463294
 31
0.0
  0
LINE
  5
BB13
330
B802
100
AcDbEntity
  8
1
  6
Continuous
100
AcDbLine
 10
291.4289029999998
 20
497.558594
 30
0.0
 11
296.1742389999999
 21
497.558594
 31
0.0
  0
LINE
  5
BB14
330
B802
100
AcDbEntity
  8
1
  6
Continuous
100
AcDbLine
 10
288.801571
 20
508.4957440000001
 30
0.0
 11
288.501571
 21
509.653894
 31
0.0
  0
LINE
  5
BB15
330
B802
100
AcDbEntity
  8
1
  6
Continuous
100
AcDbLine
 10
288.501571
 20
508.4957440000001
 30
0.0
 11
288.801571
 21
508.4957440000001
 31
0.0
  0
LINE
  5
BB16
330
B802
100
AcDbEntity
  8
1
  6
Continuous
100
AcDbLine
 10
290.301571
 20
515.058594
 30
0.0
 11
297.301571
 21
515.058594
 31
0.0
  0
LINE
  5
BB17
330
B802
100
AcDbEntity
  8
1
  6
Continuous
100
AcDbLine
 10
288.801571
 20
513.5585940000002
 30
0.0
 11
290.301571
 21
513.5585940000002
 31
0.0
  0
LINE
  5
BB18
330
B802
100
AcDbEntity
  8
1
  6
Continuous
100
AcDbLine
 10
298.801571
 20
513.5585940000002
 30
0.0
 11
297.301571
 21
513.5585940000002
 31
0.0
  0
LINE
  5
BB19
330
B802
100
AcDbEntity
  8
1
  6
Continuous
100
AcDbLine
 10
334.8067349999999
 20
486.5586159999998
 30
0.0
 11
334.8067349999999
 21
508.558616
 31
0.0
  0
LINE
  5
BB1A
330
B802
100
AcDbEntity
  8
1
  6
Continuous
100
AcDbLine
 10
331.806735
 20
486.5586159999998
 30
0.0
 11
331.806735
 21
508.558616
 31
0.0
  0
LINE
  5
BB1B
330
B802
100
AcDbEntity
  8
1
  6
Continuous
100
AcDbLine
 10
326.07059
 20
486.5586159999998
 30
0.0
 11
326.07059
 21
508.558616
 31
0.0
  0
LINE
  5
BB1C
330
B802
100
AcDbEntity
  8
1
  6
Continuous
100
AcDbLine
 10
328.07059
 20
486.5586159999998
 30
0.0
 11
328.07059
 21
508.558616
 31
0.0
  0
LINE
  5
BB1D
330
B802
100
AcDbEntity
  8
4
  6
CENTER
100
AcDbLine
 10
339.806735
 20
497.5586159999998
 30
0.0
 11
321.0705899999999
 21
497.5586159999998
 31
0.0
  0
LINE
  5
BB1E
330
B802
100
AcDbEntity
  8
1
  6
Continuous
100
AcDbLine
 10
334.8067349999999
 20
486.5586159999998
 30
0.0
 11
331.806735
 21
486.5586159999998
 31
0.0
  0
LINE
  5
BB1F
330
B802
100
AcDbEntity
  8
1
  6
Continuous
100
AcDbLine
 10
328.07059
 20
486.5586159999998
 30
0.0
 11
326.07059
 21
486.5586159999998
 31
0.0
  0
LINE
  5
BB20
330
B802
100
AcDbEntity
  8
1
  6
Continuous
100
AcDbLine
 10
334.8067349999999
 20
508.558616
 30
0.0
 11
331.806735
 21
508.558616
 31
0.0
  0
LINE
  5
BB21
330
B802
100
AcDbEntity
  8
1
  6
Continuous
100
AcDbLine
 10
328.07059
 20
508.558616
 30
0.0
 11
326.07059
 21
508.558616
 31
0.0
  0
LINE
  5
BB22
330
B802
100
AcDbEntity
  8
1
  6
Continuous
100
AcDbLine
 10
365.4771629999999
 20
505.5586369999998
 30
0.0
 11
367.0771629999999
 21
505.5586369999998
 31
0.0
  0
LINE
  5
BB23
330
B802
100
AcDbEntity
  8
4
  6
CENTER
100
AcDbLine
 10
377.5771629999999
 20
497.558637
 30
0.0
 11
360.4771629999997
 21
497.558637
 31
0.0
  0
LINE
  5
BB24
330
B802
100
AcDbEntity
  8
1
  6
Continuous
100
AcDbLine
 10
365.4771629999999
 20
489.558637
 30
0.0
 11
367.0771629999999
 21
489.558637
 31
0.0
  0
LINE
  5
BB25
330
B802
100
AcDbEntity
  8
1
  6
Continuous
100
AcDbLine
 10
365.4771629999999
 20
505.5586369999998
 30
0.0
 11
365.4771629999999
 21
489.558637
 31
0.0
  0
LINE
  5
BB26
330
B802
100
AcDbEntity
  8
1
  6
Continuous
100
AcDbLine
 10
372.577163
 20
502.5546799999998
 30
0.0
 11
372.577163
 21
492.5546799999998
 31
0.0
  0
LINE
  5
BB27
330
B802
100
AcDbEntity
  8
1
  6
Continuous
100
AcDbLine
 10
369.0234549999997
 20
497.55468
 30
0.0
 11
372.130871
 21
497.55468
 31
0.0
  0
ARC
  5
BB28
330
B802
100
AcDbEntity
  8
1
  6
Continuous
100
AcDbCircle
 10
375.802455
 20
500.0546799999998
 30
0.0
 40
7.225291999999996
100
AcDbArc
 50
159.7567339999999
 51
200.243266
  0
ARC
  5
BB29
330
B802
100
AcDbEntity
  8
1
  6
Continuous
100
AcDbCircle
 10
375.802455
 20
495.0546799999997
 30
0.0
 40
7.225291999999996
100
AcDbArc
 50
159.7567339999999
 51
200.243266
  0
LINE
  5
BB2A
330
B802
100
AcDbEntity
  8
1
  6
Continuous
100
AcDbLine
 10
372.577163
 20
502.5546799999998
 30
0.0
 11
368.577163
 21
502.5546799999998
 31
0.0
  0
LINE
  5
BB2B
330
B802
100
AcDbEntity
  8
1
  6
Continuous
100
AcDbLine
 10
372.577163
 20
492.5546799999998
 30
0.0
 11
368.577163
 21
492.5546799999998
 31
0.0
  0
ARC
  5
BB2C
330
B802
100
AcDbEntity
  8
1
  6
Continuous
100
AcDbCircle
 10
365.351871
 20
500.0546799999998
 30
0.0
 40
7.225291999999996
100
AcDbArc
 50
339.756734
 51
20.24326599999999
  0
ARC
  5
BB2D
330
B802
100
AcDbEntity
  8
1
  6
Continuous
100
AcDbCircle
 10
365.351871
 20
495.0546799999997
 30
0.0
 40
7.225291999999996
100
AcDbArc
 50
339.756734
 51
20.24326599999999
  0
LINE
  5
BB2E
330
B802
100
AcDbEntity
  8
1
  6
Continuous
100
AcDbLine
 10
368.577163
 20
503.658637
 30
0.0
 11
367.0771629999999
 21
503.658637
 31
0.0
  0
LINE
  5
BB2F
330
B802
100
AcDbEntity
  8
1
  6
Continuous
100
AcDbLine
 10
368.577163
 20
491.458637
 30
0.0
 11
367.0771629999999
 21
491.458637
 31
0.0
  0
LINE
  5
BB30
330
B802
100
AcDbEntity
  8
1
  6
Continuous
100
AcDbLine
 10
368.577163
 20
491.458637
 30
0.0
 11
368.577163
 21
503.658637
 31
0.0
  0
LINE
  5
BB31
330
B802
100
AcDbEntity
  8
1
  6
Continuous
100
AcDbLine
 10
367.0771629999999
 20
496.0546799999998
 30
0.0
 11
368.577163
 21
497.55468
 31
0.0
  0
LINE
  5
BB32
330
B802
100
AcDbEntity
  8
1
  6
Continuous
100
AcDbLine
 10
367.0771629999999
 20
497.558637
 30
0.0
 11
368.577163
 21
499.0586369999999
 31
0.0
  0
LINE
  5
BB33
330
B802
100
AcDbEntity
  8
1
  6
Continuous
100
AcDbLine
 10
367.0771629999999
 20
505.5586369999998
 30
0.0
 11
367.0771629999999
 21
489.558637
 31
0.0
  0
LINE
  5
BB34
330
B802
100
AcDbEntity
  8
4
  6
CENTER
100
AcDbLine
 10
453.829506
 20
352.2808289999999
 30
0.0
 11
441.589962
 21
352.2808289999999
 31
0.0
  0
LINE
  5
BB35
330
B802
100
AcDbEntity
  8
1
  6
Continuous
100
AcDbLine
 10
603.8783550000001
 20
349.780829
 30
0.0
 11
602.3153170000001
 21
352.4880889999997
 31
0.0
  0
LINE
  5
BB36
330
B802
100
AcDbEntity
  8
1
  6
Continuous
100
AcDbLine
 10
596.8783550000003
 20
349.780829
 30
0.0
 11
598.4413919999998
 21
352.4880889999997
 31
0.0
  0
LINE
  5
BB37
330
B802
100
AcDbEntity
  8
1
  6
Continuous
100
AcDbLine
 10
521.60276
 20
337.284787
 30
0.0
 11
521.60276
 21
327.283787
 31
0.0
  0
ARC
  5
BB38
330
B802
100
AcDbEntity
  8
1
  6
Continuous
100
AcDbCircle
 10
531.163709
 20
332.2847869999999
 30
0.0
 40
9.560949
100
AcDbArc
 50
162.4247879999998
 51
197.5752119999999
  0
ARC
  5
BB39
330
B802
100
AcDbEntity
  8
1
  6
Continuous
100
AcDbCircle
 10
516.0418110000001
 20
332.2847869999999
 30
0.0
 40
9.560949
100
AcDbArc
 50
342.4247879999999
 51
17.575212
  0
LINE
  5
BB3A
330
B802
100
AcDbEntity
  8
1
  6
Continuous
100
AcDbLine
 10
528.70276
 20
340.2808289999999
 30
0.0
 11
528.70276
 21
324.2808289999999
 31
0.0
  0
LINE
  5
BB3B
330
B802
100
AcDbEntity
  8
1
  6
Continuous
100
AcDbLine
 10
527.10276
 20
340.2808289999999
 30
0.0
 11
527.10276
 21
324.2808289999999
 31
0.0
  0
LINE
  5
BB3C
330
B802
100
AcDbEntity
  8
1
  6
Continuous
100
AcDbLine
 10
525.60276
 20
326.180829
 30
0.0
 11
525.60276
 21
338.380829
 31
0.0
  0
LINE
  5
BB3D
330
B802
100
AcDbEntity
  8
1
  6
Continuous
100
AcDbLine
 10
525.60276
 20
326.5073259999998
 30
0.0
 11
525.60276
 21
338.054332
 31
0.0
  0
LINE
  5
BB3E
330
B802
100
AcDbEntity
  8
1
  6
Continuous
100
AcDbLine
 10
525.60276
 20
326.180829
 30
0.0
 11
527.10276
 21
326.180829
 31
0.0
  0
LINE
  5
BB3F
330
B802
100
AcDbEntity
  8
1
  6
Continuous
100
AcDbLine
 10
522.0490519999998
 20
329.3977869999999
 30
0.0
 11
525.156469
 21
329.3977869999999
 31
0.0
  0
ARC
  5
BB40
330
B802
100
AcDbEntity
  8
1
  6
Continuous
100
AcDbCircle
 10
523.0467599999998
 20
327.954787
 30
0.0
 40
2.55582
100
AcDbArc
 50
325.6159999999998
 51
325.647143
  0
ARC
  5
BB41
330
B802
100
AcDbEntity
  8
1
  6
Continuous
100
AcDbCircle
 10
524.1587599999998
 20
327.954787
 30
0.0
 40
2.55582
100
AcDbArc
 50
214.3528569999999
 51
214.3839999999999
  0
LINE
  5
BB42
330
B802
100
AcDbEntity
  8
1
  6
Continuous
100
AcDbLine
 10
522.0490519999998
 20
326.510787
 30
0.0
 11
525.156469
 21
326.510787
 31
0.0
  0
ARC
  5
BB43
330
B802
100
AcDbEntity
  8
1
  6
Continuous
100
AcDbCircle
 10
524.1587400000002
 20
327.9537869999999
 30
0.0
 40
2.555979999999999
100
AcDbArc
 50
145.6283629999998
 51
205.6283629999998
  0
LINE
  5
BB44
330
B802
100
AcDbEntity
  8
1
  6
Continuous
100
AcDbLine
 10
521.60276
 20
327.283787
 30
0.0
 11
522.0490519999998
 21
326.510787
 31
0.0
  0
ARC
  5
BB45
330
B802
100
AcDbEntity
  8
1
  6
Continuous
100
AcDbCircle
 10
523.046781
 20
327.9537869999999
 30
0.0
 40
2.555979999999999
100
AcDbArc
 50
334.371637
 51
34.371637
  0
LINE
  5
BB46
330
B802
100
AcDbEntity
  8
1
  6
Continuous
100
AcDbLine
 10
525.60276
 20
327.283787
 30
0.0
 11
525.156469
 21
326.510787
 31
0.0
  0
LINE
  5
BB47
330
B802
100
AcDbEntity
  8
1
  6
Continuous
100
AcDbLine
 10
528.70276
 20
324.2808289999999
 30
0.0
 11
527.10276
 21
324.2808289999999
 31
0.0
  0
LINE
  5
BB48
330
B802
100
AcDbEntity
  8
1
  6
Continuous
100
AcDbLine
 10
525.60276
 20
338.380829
 30
0.0
 11
527.10276
 21
338.380829
 31
0.0
  0
LINE
  5
BB49
330
B802
100
AcDbEntity
  8
1
  6
Continuous
100
AcDbLine
 10
527.10276
 20
333.784787
 30
0.0
 11
525.60276
 21
332.2847869999999
 31
0.0
  0
LINE
  5
BB4A
330
B802
100
AcDbEntity
  8
1
  6
Continuous
100
AcDbLine
 10
527.10276
 20
332.2808289999999
 30
0.0
 11
525.60276
 21
330.780829
 31
0.0
  0
LINE
  5
BB4B
330
B802
100
AcDbEntity
  8
4
  6
CENTER
100
AcDbLine
 10
516.6027599999996
 20
332.2808289999999
 30
0.0
 11
533.7027599999998
 21
332.2808289999999
 31
0.0
  0
LINE
  5
BB4C
330
B802
100
AcDbEntity
  8
1
  6
Continuous
100
AcDbLine
 10
521.60276
 20
337.284787
 30
0.0
 11
522.0490519999998
 21
338.057787
 31
0.0
  0
ARC
  5
BB4D
330
B802
100
AcDbEntity
  8
1
  6
Continuous
100
AcDbCircle
 10
524.1587400000002
 20
336.6147869999999
 30
0.0
 40
2.555979999999999
100
AcDbArc
 50
154.371637
 51
214.371637
  0
LINE
  5
BB4E
330
B802
100
AcDbEntity
  8
1
  6
Continuous
100
AcDbLine
 10
522.0490519999998
 20
338.057787
 30
0.0
 11
525.156469
 21
338.057787
 31
0.0
  0
LINE
  5
BB4F
330
B802
100
AcDbEntity
  8
1
  6
Continuous
100
AcDbLine
 10
522.0490519999998
 20
335.1717869999998
 30
0.0
 11
525.156469
 21
335.1717869999998
 31
0.0
  0
LINE
  5
BB50
330
B802
100
AcDbEntity
  8
1
  6
Continuous
100
AcDbLine
 10
525.60276
 20
337.284787
 30
0.0
 11
525.156469
 21
338.057787
 31
0.0
  0
ARC
  5
BB51
330
B802
100
AcDbEntity
  8
1
  6
Continuous
100
AcDbCircle
 10
523.046781
 20
336.6147869999999
 30
0.0
 40
2.555979999999999
100
AcDbArc
 50
325.6283629999999
 51
25.628363
  0
LINE
  5
BB52
330
B802
100
AcDbEntity
  8
1
  6
Continuous
100
AcDbLine
 10
528.70276
 20
340.2808289999999
 30
0.0
 11
527.10276
 21
340.2808289999999
 31
0.0
  0
LINE
  5
BB53
330
B802
100
AcDbEntity
  8
1
  6
Continuous
100
AcDbLine
 10
559.3731889999998
 20
321.2808289999999
 30
0.0
 11
559.3731889999998
 21
343.280829
 31
0.0
  0
LINE
  5
BB54
330
B802
100
AcDbEntity
  8
1
  6
Continuous
100
AcDbLine
 10
562.3731889999998
 20
321.2808289999999
 30
0.0
 11
562.3731889999998
 21
343.280829
 31
0.0
  0
LINE
  5
BB55
330
B802
100
AcDbEntity
  8
1
  6
Continuous
100
AcDbLine
 10
568.109334
 20
321.2808289999999
 30
0.0
 11
568.109334
 21
343.280829
 31
0.0
  0
LINE
  5
BB56
330
B802
100
AcDbEntity
  8
1
  6
Continuous
100
AcDbLine
 10
566.1093339999998
 20
321.2808289999999
 30
0.0
 11
566.1093339999998
 21
343.280829
 31
0.0
  0
LINE
  5
BB57
330
B802
100
AcDbEntity
  8
1
  6
Continuous
100
AcDbLine
 10
559.3731889999998
 20
321.2808289999999
 30
0.0
 11
562.3731889999998
 21
321.2808289999999
 31
0.0
  0
LINE
  5
BB58
330
B802
100
AcDbEntity
  8
1
  6
Continuous
100
AcDbLine
 10
566.1093339999998
 20
321.2808289999999
 30
0.0
 11
568.109334
 21
321.2808289999999
 31
0.0
  0
LINE
  5
BB59
330
B802
100
AcDbEntity
  8
4
  6
CENTER
100
AcDbLine
 10
554.3731889999998
 20
332.2808289999999
 30
0.0
 11
573.109334
 21
332.2808289999999
 31
0.0
  0
LINE
  5
BB5A
330
B802
100
AcDbEntity
  8
1
  6
Continuous
100
AcDbLine
 10
559.3731889999998
 20
343.280829
 30
0.0
 11
562.3731889999998
 21
343.280829
 31
0.0
  0
LINE
  5
BB5B
330
B802
100
AcDbEntity
  8
1
  6
Continuous
100
AcDbLine
 10
566.1093339999998
 20
343.280829
 30
0.0
 11
568.109334
 21
343.280829
 31
0.0
  0
LINE
  5
BB5C
330
B802
100
AcDbEntity
  8
1
  6
Continuous
100
AcDbLine
 10
607.0783549999998
 20
349.780829
 30
0.0
 11
605.678355
 21
349.780829
 31
0.0
  0
LINE
  5
BB5D
330
B802
100
AcDbEntity
  8
1
  6
Continuous
100
AcDbLine
 10
607.0783549999998
 20
314.7808289999999
 30
0.0
 11
605.678355
 21
314.7808289999999
 31
0.0
  0
LINE
  5
BB5E
330
B802
100
AcDbEntity
  8
4
  6
CENTER
100
AcDbLine
 10
611.978355
 20
332.2808289999999
 30
0.0
 11
590.3783550000001
 21
332.2808289999999
 31
0.0
  0
LINE
  5
BB5F
330
B802
100
AcDbEntity
  8
1
  6
Continuous
100
AcDbLine
 10
605.3783550000003
 20
348.2808289999999
 30
0.0
 11
605.3783550000003
 21
316.280829
 31
0.0
  0
LINE
  5
BB60
330
B802
100
AcDbEntity
  8
1
  6
Continuous
100
AcDbLine
 10
605.678355
 20
314.7808289999999
 30
0.0
 11
605.678355
 21
349.780829
 31
0.0
  0
ARC
  5
BB61
330
B802
100
AcDbEntity
  8
1
  6
Continuous
100
AcDbCircle
 10
558.0381599999998
 20
332.2808289999999
 30
0.0
 40
45.84019399999998
100
AcDbArc
 50
347.266894
 51
12.733106
  0
ARC
  5
BB62
330
B802
100
AcDbEntity
  8
1
  6
Continuous
100
AcDbCircle
 10
642.7185490000002
 20
332.2808289999999
 30
0.0
 40
45.84019399999998
100
AcDbArc
 50
167.266894
 51
192.733106
  0
LINE
  5
BB63
330
B802
100
AcDbEntity
  8
1
  6
Continuous
100
AcDbLine
 10
596.8783550000003
 20
314.7808289999999
 30
0.0
 11
596.8783550000003
 21
349.780829
 31
0.0
  0
LINE
  5
BB64
330
B802
100
AcDbEntity
  8
1
  6
Continuous
100
AcDbLine
 10
603.8783550000001
 20
314.7808289999999
 30
0.0
 11
603.8783550000001
 21
349.780829
 31
0.0
  0
LINE
  5
BB65
330
B802
100
AcDbEntity
  8
1
  6
Continuous
100
AcDbLine
 10
595.3783550000001
 20
316.280829
 30
0.0
 11
595.3783550000001
 21
348.2808289999999
 31
0.0
  0
LINE
  5
BB66
330
B802
100
AcDbEntity
  8
1
  6
Continuous
100
AcDbLine
 10
595.3783550000001
 20
316.280829
 30
0.0
 11
596.8783550000003
 21
316.280829
 31
0.0
  0
LINE
  5
BB67
330
B802
100
AcDbEntity
  8
1
  6
Continuous
100
AcDbLine
 10
605.3783550000003
 20
316.280829
 30
0.0
 11
603.8783550000001
 21
316.280829
 31
0.0
  0
LINE
  5
BB68
330
B802
100
AcDbEntity
  8
1
  6
Continuous
100
AcDbLine
 10
598.4413909999998
 20
312.07357
 30
0.0
 11
602.3153179999998
 21
312.07357
 31
0.0
  0
LINE
  5
BB69
330
B802
100
AcDbEntity
  8
1
  6
Continuous
100
AcDbLine
 10
598.0056860000002
 20
322.1771989999999
 30
0.0
 11
602.751023
 21
322.1771989999999
 31
0.0
  0
ARC
  5
BB6A
330
B802
100
AcDbEntity
  8
1
  6
Continuous
100
AcDbCircle
 10
591.9955589999997
 20
317.1253849999998
 30
0.0
 40
11.882796
100
AcDbArc
 50
345.2736279999998
 51
25.159327
  0
ARC
  5
BB6B
330
B802
100
AcDbEntity
  8
1
  6
Continuous
100
AcDbCircle
 10
608.76115
 20
317.1253849999998
 30
0.0
 40
11.882796
100
AcDbArc
 50
154.840673
 51
194.726372
  0
LINE
  5
BB6C
330
B802
100
AcDbEntity
  8
1
  6
Continuous
100
AcDbLine
 10
605.3783550000003
 20
321.343679
 30
0.0
 11
605.678355
 21
320.1855289999999
 31
0.0
  0
LINE
  5
BB6D
330
B802
100
AcDbEntity
  8
1
  6
Continuous
100
AcDbLine
 10
605.678355
 20
321.343679
 30
0.0
 11
605.3783550000003
 21
321.343679
 31
0.0
  0
LINE
  5
BB6E
330
B802
100
AcDbEntity
  8
1
  6
Continuous
100
AcDbLine
 10
605.3783550000003
 20
325.521319
 30
0.0
 11
605.678355
 21
325.821329
 31
0.0
  0
LINE
  5
BB6F
330
B802
100
AcDbEntity
  8
1
  6
Continuous
100
AcDbLine
 10
605.678355
 20
325.2213189999999
 30
0.0
 11
605.3783550000003
 21
325.521319
 31
0.0
  0
LINE
  5
BB70
330
B802
100
AcDbEntity
  8
1
  6
Continuous
100
AcDbLine
 10
603.8783550000001
 20
314.7808289999999
 30
0.0
 11
602.3153170000001
 21
312.073569
 31
0.0
  0
LINE
  5
BB71
330
B802
100
AcDbEntity
  8
1
  6
Continuous
100
AcDbLine
 10
596.8783550000003
 20
314.7808289999999
 30
0.0
 11
598.4413919999998
 21
312.073569
 31
0.0
  0
LINE
  5
BB72
330
B802
100
AcDbEntity
  8
1
  6
Continuous
100
AcDbLine
 10
595.3783550000001
 20
348.2808289999999
 30
0.0
 11
596.8783550000003
 21
348.2808289999999
 31
0.0
  0
LINE
  5
BB73
330
B802
100
AcDbEntity
  8
1
  6
Continuous
100
AcDbLine
 10
605.3783550000003
 20
348.2808289999999
 30
0.0
 11
603.8783550000001
 21
348.2808289999999
 31
0.0
  0
LINE
  5
BB74
330
B802
100
AcDbEntity
  8
1
  6
Continuous
100
AcDbLine
 10
598.0056860000002
 20
342.3844589999998
 30
0.0
 11
602.751023
 21
342.3844589999998
 31
0.0
  0
ARC
  5
BB75
330
B802
100
AcDbEntity
  8
1
  6
Continuous
100
AcDbCircle
 10
591.9955589999997
 20
347.4362740000001
 30
0.0
 40
11.882796
100
AcDbArc
 50
334.8406729999999
 51
14.726371
  0
ARC
  5
BB76
330
B802
100
AcDbEntity
  8
1
  6
Continuous
100
AcDbCircle
 10
608.76115
 20
347.4362740000001
 30
0.0
 40
11.882796
100
AcDbArc
 50
165.2736289999998
 51
205.159327
  0
LINE
  5
BB77
330
B802
100
AcDbEntity
  8
1
  6
Continuous
100
AcDbLine
 10
605.3783550000003
 20
332.2707789999999
 30
0.0
 11
605.678355
 21
331.9707789999998
 31
0.0
  0
LINE
  5
BB78
330
B802
100
AcDbEntity
  8
1
  6
Continuous
100
AcDbLine
 10
605.678355
 20
332.570779
 30
0.0
 11
605.3783550000003
 21
332.2707789999999
 31
0.0
  0
LINE
  5
BB79
330
B802
100
AcDbEntity
  8
1
  6
Continuous
100
AcDbLine
 10
605.678355
 20
343.217979
 30
0.0
 11
605.3783550000003
 21
343.217979
 31
0.0
  0
LINE
  5
BB7A
330
B802
100
AcDbEntity
  8
1
  6
Continuous
100
AcDbLine
 10
605.3783550000003
 20
343.217979
 30
0.0
 11
605.678355
 21
344.3761289999998
 31
0.0
  0
LINE
  5
BB7B
330
B802
100
AcDbEntity
  8
1
  6
Continuous
100
AcDbLine
 10
605.678355
 20
339.3403589999999
 30
0.0
 11
605.3783550000003
 21
339.0403589999999
 31
0.0
  0
LINE
  5
BB7C
330
B802
100
AcDbEntity
  8
1
  6
Continuous
100
AcDbLine
 10
605.3783550000003
 20
339.0403589999999
 30
0.0
 11
605.678355
 21
338.740359
 31
0.0
  0
LINE
  5
BB7D
330
B802
100
AcDbEntity
  8
1
  6
Continuous
100
AcDbLine
 10
607.0783549999998
 20
349.780829
 30
0.0
 11
607.0783549999998
 21
314.7808289999999
 31
0.0
  0
LINE
  5
BB7E
330
B802
100
AcDbEntity
  8
1
  6
Continuous
100
AcDbLine
 10
607.3783550000001
 20
321.343679
 30
0.0
 11
607.0783549999998
 21
320.1855289999999
 31
0.0
  0
LINE
  5
BB7F
330
B802
100
AcDbEntity
  8
1
  6
Continuous
100
AcDbLine
 10
607.0783549999998
 20
321.343679
 30
0.0
 11
607.3783550000001
 21
321.343679
 31
0.0
  0
LINE
  5
BB80
330
B802
100
AcDbEntity
  8
1
  6
Continuous
100
AcDbLine
 10
607.3783550000001
 20
325.521319
 30
0.0
 11
607.0783549999998
 21
325.2213189999999
 31
0.0
  0
LINE
  5
BB81
330
B802
100
AcDbEntity
  8
1
  6
Continuous
100
AcDbLine
 10
607.3783550000001
 20
325.521319
 30
0.0
 11
607.0783549999998
 21
325.821329
 31
0.0
  0
LINE
  5
BB82
330
B802
100
AcDbEntity
  8
1
  6
Continuous
100
AcDbLine
 10
607.3783550000001
 20
332.290859
 30
0.0
 11
607.0783549999998
 21
332.5908589999999
 31
0.0
  0
LINE
  5
BB83
330
B802
100
AcDbEntity
  8
1
  6
Continuous
100
AcDbLine
 10
607.3783550000001
 20
332.290859
 30
0.0
 11
607.0783549999998
 21
331.990859
 31
0.0
  0
LINE
  5
BB84
330
B802
100
AcDbEntity
  8
1
  6
Continuous
100
AcDbLine
 10
607.0783549999998
 20
343.217979
 30
0.0
 11
607.3783550000001
 21
343.217979
 31
0.0
  0
LINE
  5
BB85
330
B802
100
AcDbEntity
  8
1
  6
Continuous
100
AcDbLine
 10
607.3783550000001
 20
343.217979
 30
0.0
 11
607.0783549999998
 21
344.3761289999998
 31
0.0
  0
LINE
  5
BB86
330
B802
100
AcDbEntity
  8
1
  6
Continuous
100
AcDbLine
 10
607.3783550000001
 20
339.0403589999999
 30
0.0
 11
607.0783549999998
 21
338.740359
 31
0.0
  0
LINE
  5
BB87
330
B802
100
AcDbEntity
  8
1
  6
Continuous
100
AcDbLine
 10
607.3783550000001
 20
339.0403589999999
 30
0.0
 11
607.0783549999998
 21
339.3403589999999
 31
0.0
  0
LINE
  5
BB88
330
B802
100
AcDbEntity
  8
1
  6
Continuous
100
AcDbLine
 10
598.4413919999998
 20
352.4880889999997
 30
0.0
 11
602.3153170000001
 21
352.4880889999997
 31
0.0
  0
LINE
  5
BB89
330
B802
100
AcDbEntity
  8
1
  6
Continuous
100
AcDbLine
 10
258.733666
 20
505.308594
 30
0.0
 11
258.733666
 21
489.808594
 31
0.0
  0
ARC
  5
BB8A
330
B802
100
AcDbEntity
  8
1
  6
Continuous
100
AcDbCircle
 10
258.5336659999999
 20
505.308594
 30
0.0
 40
0.2
100
AcDbArc
 50
0.0
 51
41.40962199999999
  0
ARC
  5
BB8B
330
B802
100
AcDbEntity
  8
1
  6
Continuous
100
AcDbCircle
 10
258.5336659999999
 20
489.808594
 30
0.0
 40
0.2
100
AcDbArc
 50
318.5903779999998
 51
0.0
  0
LINE
  5
BB8C
330
B802
100
AcDbEntity
  8
1
  6
Continuous
100
AcDbLine
 10
258.733666
 20
339.156922
 30
0.0
 11
258.733666
 21
325.404736
 31
0.0
  0
ARC
  5
BB8D
330
B802
100
AcDbEntity
  8
1
  6
Continuous
100
AcDbCircle
 10
258.5336659999999
 20
340.0308289999999
 30
0.0
 40
0.2
100
AcDbArc
 50
0.0
 51
41.40962199999999
  0
LINE
  5
BB8E
330
B802
100
AcDbEntity
  8
1
  6
Continuous
100
AcDbLine
 10
258.733666
 20
340.0308289999999
 30
0.0
 11
258.733666
 21
324.530829
 31
0.0
  0
ARC
  5
BB8F
330
B802
100
AcDbEntity
  8
1
  6
Continuous
100
AcDbCircle
 10
258.5336659999999
 20
324.530829
 30
0.0
 40
0.2
100
AcDbArc
 50
318.5903779999998
 51
0.0
  0
LINE
  5
BB90
330
B802
100
AcDbEntity
  8
1
  6
Continuous
100
AcDbLine
 10
258.733666
 20
84.72864099999998
 30
0.0
 11
258.733666
 21
70.976455
 31
0.0
  0
ARC
  5
BB91
330
B802
100
AcDbEntity
  8
1
  6
Continuous
100
AcDbCircle
 10
258.5336659999999
 20
85.602548
 30
0.0
 40
0.2
100
AcDbArc
 50
0.0
 51
41.40962199999999
  0
LINE
  5
BB92
330
B802
100
AcDbEntity
  8
1
  6
Continuous
100
AcDbLine
 10
258.733666
 20
85.602548
 30
0.0
 11
258.733666
 21
70.102548
 31
0.0
  0
ARC
  5
BB93
330
B802
100
AcDbEntity
  8
1
  6
Continuous
100
AcDbCircle
 10
258.5336659999999
 20
70.102548
 30
0.0
 40
0.2
100
AcDbArc
 50
318.5903779999998
 51
0.0
  0
ARC
  5
BB94
330
B802
100
AcDbEntity
  8
1
  6
Continuous
100
AcDbCircle
 10
248.133666
 20
497.558594
 30
0.0
 40
61.0
100
AcDbArc
 50
172.4640909999999
 51
187.535909
  0
ARC
  5
BB95
330
B802
100
AcDbEntity
  8
1
  6
Continuous
100
AcDbCircle
 10
248.133666
 20
497.558594
 30
0.0
 40
60.5
100
AcDbArc
 50
169.042393
 51
190.957607
  0
ARC
  5
BB96
330
B802
100
AcDbEntity
  8
1
  6
Continuous
100
AcDbCircle
 10
248.133666
 20
497.558594
 30
0.0
 40
60.0
100
AcDbArc
 50
167.7683659999999
 51
168.949935
  0
ARC
  5
BB97
330
B802
100
AcDbEntity
  8
1
  6
Continuous
100
AcDbCircle
 10
190.4730209999999
 20
510.058594
 30
0.0
 40
1.0
100
AcDbArc
 50
90.0
 51
167.7683659999999
  0
ARC
  5
BB98
330
B802
100
AcDbEntity
  8
1
  6
Continuous
100
AcDbCircle
 10
190.4730209999999
 20
485.058594
 30
0.0
 40
1.0
100
AcDbArc
 50
192.231634
 51
270.0
  0
ARC
  5
BB99
330
B802
100
AcDbEntity
  8
1
  6
Continuous
100
AcDbCircle
 10
248.133666
 20
497.558594
 30
0.0
 40
60.0
100
AcDbArc
 50
191.0500649999999
 51
192.231634
  0
ARC
  5
BB9A
330
B802
100
AcDbEntity
  8
1
  6
Continuous
100
AcDbCircle
 10
190.4730209999999
 20
65.352548
 30
0.0
 40
1.0
100
AcDbArc
 50
192.231634
 51
270.0
  0
ARC
  5
BB9B
330
B802
100
AcDbEntity
  8
1
  6
Continuous
100
AcDbCircle
 10
248.133666
 20
77.852548
 30
0.0
 40
60.5
100
AcDbArc
 50
169.042393
 51
190.957607
  0
ARC
  5
BB9C
330
B802
100
AcDbEntity
  8
1
  6
Continuous
100
AcDbCircle
 10
248.133666
 20
77.852548
 30
0.0
 40
60.0
100
AcDbArc
 50
191.0500649999999
 51
192.231634
  0
LINE
  5
BB9D
330
B802
100
AcDbEntity
  8
1
  6
Continuous
100
AcDbLine
 10
189.246061
 20
66.352548
 30
0.0
 11
188.7366959999999
 21
66.352548
 31
0.0
  0
ARC
  5
BB9E
330
B802
100
AcDbEntity
  8
1
  6
Continuous
100
AcDbCircle
 10
248.133666
 20
77.852548
 30
0.0
 40
61.0
100
AcDbArc
 50
172.4640909999999
 51
187.535909
  0
LINE
  5
BB9F
330
B802
100
AcDbEntity
  8
1
  6
Continuous
100
AcDbLine
 10
188.1649239999999
 20
69.85254799999998
 30
0.0
 11
187.660531
 21
69.85254799999998
 31
0.0
  0
LINE
  5
BBA0
330
B802
100
AcDbEntity
  8
1
  6
Continuous
100
AcDbLine
 10
188.1649239999999
 20
85.85254799999999
 30
0.0
 11
187.660531
 21
85.85254799999999
 31
0.0
  0
ARC
  5
BBA1
330
B802
100
AcDbEntity
  8
1
  6
Continuous
100
AcDbCircle
 10
248.133666
 20
77.852548
 30
0.0
 40
60.0
100
AcDbArc
 50
167.7683659999999
 51
168.949935
  0
ARC
  5
BBA2
330
B802
100
AcDbEntity
  8
1
  6
Continuous
100
AcDbCircle
 10
190.4730209999999
 20
90.352548
 30
0.0
 40
1.0
100
AcDbArc
 50
90.0
 51
167.7683659999999
  0
LINE
  5
BBA3
330
B802
100
AcDbEntity
  8
1
  6
Continuous
100
AcDbLine
 10
189.246061
 20
89.352548
 30
0.0
 11
188.7366959999999
 21
89.352548
 31
0.0
  0
ARC
  5
BBA4
330
B802
100
AcDbEntity
  8
1
  6
Continuous
100
AcDbCircle
 10
256.233666
 20
77.852548
 30
0.0
 40
60.0
100
AcDbArc
 50
173.0154499999999
 51
186.98455
  0
ARC
  5
BBA5
330
B802
100
AcDbEntity
  8
1
  6
Continuous
100
AcDbCircle
 10
197.671506
 20
85.02704799999998
 30
0.0
 40
1.0
100
AcDbArc
 50
90.0
 51
173.0154499999999
  0
ARC
  5
BBA6
330
B802
100
AcDbEntity
  8
1
  6
Continuous
100
AcDbCircle
 10
197.671506
 20
70.67804800000001
 30
0.0
 40
1.0
100
AcDbArc
 50
186.98455
 51
270.0
  0
ARC
  5
BBA7
330
B802
100
AcDbEntity
  8
1
  6
Continuous
100
AcDbCircle
 10
248.233666
 20
77.852548
 30
0.0
 40
60.0
100
AcDbArc
 50
167.7683659999999
 51
192.231634
  0
ARC
  5
BBA8
330
B802
100
AcDbEntity
  8
1
  6
Continuous
100
AcDbCircle
 10
190.5730209999999
 20
65.352548
 30
0.0
 40
1.0
100
AcDbArc
 50
192.231634
 51
270.0
  0
ARC
  5
BBA9
330
B802
100
AcDbEntity
  8
1
  6
Continuous
100
AcDbCircle
 10
190.5730209999999
 20
90.352548
 30
0.0
 40
1.0
100
AcDbArc
 50
90.0
 51
167.7683659999999
  0
LINE
  5
BBAA
330
B802
100
AcDbEntity
  8
1
  6
Continuous
100
AcDbLine
 10
197.0087849999999
 20
85.77591400000001
 30
0.0
 11
189.945272
 21
91.13096400000001
 31
0.0
  0
LINE
  5
BBAB
330
B802
100
AcDbEntity
  8
1
  6
Continuous
100
AcDbLine
 10
197.0087849999999
 20
69.929181
 30
0.0
 11
189.945272
 21
64.57413100000001
 31
0.0
  0
LINE
  5
BBAC
330
B802
100
AcDbEntity
  8
1
  6
Continuous
100
AcDbLine
 10
658.846258
 20
362.280829
 30
0.0
 11
658.846258
 21
302.2808289999999
 31
0.0
  0
LINE
  5
BBAD
330
B802
100
AcDbEntity
  8
1
  6
Continuous
100
AcDbLine
 10
657.846258
 20
362.280829
 30
0.0
 11
657.846258
 21
302.2808289999999
 31
0.0
  0
LINE
  5
BBAE
330
B802
100
AcDbEntity
  8
1
  6
Continuous
100
AcDbLine
 10
662.846258
 20
355.9912569999998
 30
0.0
 11
662.846258
 21
308.570401
 31
0.0
  0
LINE
  5
BBAF
330
B802
100
AcDbEntity
  8
1
  6
Continuous
100
AcDbLine
 10
663.4157229999997
 20
355.9912569999998
 30
0.0
 11
672.3846299999999
 21
342.572971
 31
0.0
  0
LINE
  5
BBB0
330
B802
100
AcDbEntity
  8
1
  6
Continuous
100
AcDbLine
 10
672.335195
 20
346.3921389999999
 30
0.0
 11
663.4179820000001
 21
361.238612
 31
0.0
  0
LINE
  5
BBB1
330
B802
100
AcDbEntity
  8
1
  6
Continuous
100
AcDbLine
 10
653.346258
 20
356.2808289999999
 30
0.0
 11
653.346258
 21
349.780829
 31
0.0
  0
LINE
  5
BBB2
330
B802
100
AcDbEntity
  8
4
  6
CENTER
100
AcDbLine
 10
709.893552
 20
332.2808289999999
 30
0.0
 11
622.496258
 21
332.2808289999999
 31
0.0
  0
LINE
  5
BBB3
330
B802
100
AcDbEntity
  8
1
  6
Continuous
100
AcDbLine
 10
657.846258
 20
322.530829
 30
0.0
 11
635.7962579999997
 21
322.530829
 31
0.0
  0
LINE
  5
BBB4
330
B802
100
AcDbEntity
  8
1
  6
Continuous
100
AcDbLine
 10
657.846258
 20
342.0308289999999
 30
0.0
 11
635.7962579999997
 21
342.0308289999999
 31
0.0
  0
LINE
  5
BBB5
330
B802
100
AcDbEntity
  8
1
  6
Continuous
100
AcDbLine
 10
705.2342369999997
 20
298.4195859999999
 30
0.0
 11
698.101207
 21
214.112217
 31
0.0
  0
LINE
  5
BBB6
330
B802
100
AcDbEntity
  8
1
  6
Continuous
100
AcDbLine
 10
690.9462579999998
 20
315.1374149999999
 30
0.0
 11
690.9462579999998
 21
234.351897
 31
0.0
  0
ARC
  5
BBB7
330
B802
100
AcDbEntity
  8
1
  6
Continuous
100
AcDbCircle
 10
692.9462579999998
 20
220.280829
 30
0.0
 40
8.0
100
AcDbArc
 50
180.0
 51
270.0
  0
LINE
  5
BBB8
330
B802
100
AcDbEntity
  8
1
  6
Continuous
100
AcDbLine
 10
696.1083269999996
 20
212.280829
 30
0.0
 11
692.9462579999998
 21
212.280829
 31
0.0
  0
ARC
  5
BBB9
330
B802
100
AcDbEntity
  8
1
  6
Continuous
100
AcDbCircle
 10
696.1083269999996
 20
214.280829
 30
0.0
 40
2.0
100
AcDbArc
 50
270.0
 51
355.1638689999998
  0
ARC
  5
BBBA
330
B802
100
AcDbEntity
  8
1
  6
Continuous
100
AcDbCircle
 10
692.9462579999998
 20
222.9671209999999
 30
0.0
 40
8.0
100
AcDbArc
 50
135.0
 51
180.0
  0
LINE
  5
BBBB
330
B802
100
AcDbEntity
  8
1
  6
Continuous
100
AcDbLine
 10
687.289404
 20
228.623975
 30
0.0
 11
689.481792
 21
230.816363
 31
0.0
  0
ARC
  5
BBBC
330
B802
100
AcDbEntity
  8
1
  6
Continuous
100
AcDbCircle
 10
685.9462579999998
 20
234.351897
 30
0.0
 40
5.0
100
AcDbArc
 50
315.0
 51
0.0
  0
LINE
  5
BBBD
330
B802
100
AcDbEntity
  8
1
  6
Continuous
100
AcDbLine
 10
684.9462579999998
 20
222.9671209999999
 30
0.0
 11
684.9462579999998
 21
220.280829
 31
0.0
  0
LINE
  5
BBBE
330
B802
100
AcDbEntity
  8
1
  6
Continuous
100
AcDbLine
 10
706.546258
 20
315.2808289999999
 30
0.0
 11
698.646258
 21
315.2808289999999
 31
0.0
  0
LINE
  5
BBBF
330
B802
100
AcDbEntity
  8
1
  6
Continuous
100
AcDbLine
 10
705.5462579999997
 20
349.2808289999999
 30
0.0
 11
698.346258
 21
349.2808289999999
 31
0.0
  0
ARC
  5
BBC0
330
B802
100
AcDbEntity
  8
1
  6
Continuous
100
AcDbCircle
 10
505.9462579999998
 20
315.2808289999999
 30
0.0
 40
200.0
100
AcDbArc
 50
355.1638689999998
 51
0.0
  0
LINE
  5
BBC1
330
B802
100
AcDbEntity
  8
1
  6
Continuous
100
AcDbLine
 10
706.546258
 20
348.2808289999999
 30
0.0
 11
706.546258
 21
315.2808289999999
 31
0.0
  0
LINE
  5
BBC2
330
B802
100
AcDbEntity
  8
1
  6
Continuous
100
AcDbLine
 10
706.546258
 20
330.2808289999999
 30
0.0
 11
707.046258
 21
329.7808289999999
 31
0.0
  0
LINE
  5
BBC3
330
B802
100
AcDbEntity
  8
1
  6
Continuous
100
AcDbLine
 10
707.046258
 20
325.7808289999999
 30
0.0
 11
706.546258
 21
325.2808289999999
 31
0.0
  0
LINE
  5
BBC4
330
B802
100
AcDbEntity
  8
1
  6
Continuous
100
AcDbLine
 10
706.546258
 20
325.2808289999999
 30
0.0
 11
707.046258
 21
324.780829
 31
0.0
  0
LINE
  5
BBC5
330
B802
100
AcDbEntity
  8
1
  6
Continuous
100
AcDbLine
 10
707.046258
 20
324.780829
 30
0.0
 11
706.546258
 21
324.2808289999999
 31
0.0
  0
LINE
  5
BBC6
330
B802
100
AcDbEntity
  8
1
  6
Continuous
100
AcDbLine
 10
706.546258
 20
324.2808289999999
 30
0.0
 11
707.046258
 21
323.7808289999999
 31
0.0
  0
LINE
  5
BBC7
330
B802
100
AcDbEntity
  8
1
  6
Continuous
100
AcDbLine
 10
707.046258
 20
323.7808289999999
 30
0.0
 11
706.546258
 21
323.2808289999999
 31
0.0
  0
LINE
  5
BBC8
330
B802
100
AcDbEntity
  8
1
  6
Continuous
100
AcDbLine
 10
706.546258
 20
323.2808289999999
 30
0.0
 11
707.046258
 21
322.780829
 31
0.0
  0
LINE
  5
BBC9
330
B802
100
AcDbEntity
  8
1
  6
Continuous
100
AcDbLine
 10
707.046258
 20
322.780829
 30
0.0
 11
706.546258
 21
322.2808289999999
 31
0.0
  0
LINE
  5
BBCA
330
B802
100
AcDbEntity
  8
1
  6
Continuous
100
AcDbLine
 10
706.546258
 20
322.2808289999999
 30
0.0
 11
707.046258
 21
321.7808289999999
 31
0.0
  0
LINE
  5
BBCB
330
B802
100
AcDbEntity
  8
1
  6
Continuous
100
AcDbLine
 10
707.046258
 20
321.7808289999999
 30
0.0
 11
706.546258
 21
321.2808289999999
 31
0.0
  0
LINE
  5
BBCC
330
B802
100
AcDbEntity
  8
1
  6
Continuous
100
AcDbLine
 10
706.546258
 20
321.2808289999999
 30
0.0
 11
707.046258
 21
320.780829
 31
0.0
  0
LINE
  5
BBCD
330
B802
100
AcDbEntity
  8
1
  6
Continuous
100
AcDbLine
 10
707.046258
 20
320.780829
 30
0.0
 11
706.546258
 21
320.280829
 31
0.0
  0
LINE
  5
BBCE
330
B802
100
AcDbEntity
  8
1
  6
Continuous
100
AcDbLine
 10
706.546258
 20
320.280829
 30
0.0
 11
707.046258
 21
319.7808289999999
 31
0.0
  0
LINE
  5
BBCF
330
B802
100
AcDbEntity
  8
1
  6
Continuous
100
AcDbLine
 10
707.046258
 20
319.7808289999999
 30
0.0
 11
706.546258
 21
319.2808289999998
 31
0.0
  0
LINE
  5
BBD0
330
B802
100
AcDbEntity
  8
1
  6
Continuous
100
AcDbLine
 10
706.546258
 20
319.2808289999998
 30
0.0
 11
707.046258
 21
318.7808289999999
 31
0.0
  0
LINE
  5
BBD1
330
B802
100
AcDbEntity
  8
1
  6
Continuous
100
AcDbLine
 10
707.046258
 20
318.7808289999999
 30
0.0
 11
706.546258
 21
318.280829
 31
0.0
  0
LINE
  5
BBD2
330
B802
100
AcDbEntity
  8
1
  6
Continuous
100
AcDbLine
 10
707.046258
 20
329.7808289999999
 30
0.0
 11
706.546258
 21
329.2808289999999
 31
0.0
  0
LINE
  5
BBD3
330
B802
100
AcDbEntity
  8
1
  6
Continuous
100
AcDbLine
 10
706.546258
 20
329.2808289999999
 30
0.0
 11
707.046258
 21
328.780829
 31
0.0
  0
LINE
  5
BBD4
330
B802
100
AcDbEntity
  8
1
  6
Continuous
100
AcDbLine
 10
707.046258
 20
328.780829
 30
0.0
 11
706.546258
 21
328.2808289999999
 31
0.0
  0
LINE
  5
BBD5
330
B802
100
AcDbEntity
  8
1
  6
Continuous
100
AcDbLine
 10
706.546258
 20
328.2808289999999
 30
0.0
 11
707.046258
 21
327.7808289999999
 31
0.0
  0
LINE
  5
BBD6
330
B802
100
AcDbEntity
  8
1
  6
Continuous
100
AcDbLine
 10
707.046258
 20
327.7808289999999
 30
0.0
 11
706.546258
 21
327.2808289999999
 31
0.0
  0
LINE
  5
BBD7
330
B802
100
AcDbEntity
  8
1
  6
Continuous
100
AcDbLine
 10
706.546258
 20
327.2808289999999
 30
0.0
 11
707.046258
 21
326.780829
 31
0.0
  0
LINE
  5
BBD8
330
B802
100
AcDbEntity
  8
1
  6
Continuous
100
AcDbLine
 10
707.046258
 20
326.780829
 30
0.0
 11
706.546258
 21
326.2808289999999
 31
0.0
  0
LINE
  5
BBD9
330
B802
100
AcDbEntity
  8
1
  6
Continuous
100
AcDbLine
 10
706.546258
 20
326.2808289999999
 30
0.0
 11
707.046258
 21
325.7808289999999
 31
0.0
  0
ARC
  5
BBDA
330
B802
100
AcDbEntity
  8
1
  6
Continuous
100
AcDbCircle
 10
705.5462579999997
 20
348.2808289999999
 30
0.0
 40
1.0
100
AcDbArc
 50
0.0
 51
90.0
  0
LINE
  5
BBDB
330
B802
100
AcDbEntity
  8
1
  6
Continuous
100
AcDbLine
 10
672.3352589999998
 20
318.1799919999999
 30
0.0
 11
663.4182369999997
 21
303.323513
 31
0.0
  0
LINE
  5
BBDC
330
B802
100
AcDbEntity
  8
1
  6
Continuous
100
AcDbLine
 10
662.846258
 20
303.318915
 30
0.0
 11
662.846258
 21
307.718431
 31
0.0
  0
LINE
  5
BBDD
330
B802
100
AcDbEntity
  8
1
  6
Continuous
100
AcDbLine
 10
661.662234
 20
302.2808289999999
 30
0.0
 11
657.846258
 21
302.2808289999999
 31
0.0
  0
ARC
  5
BBDE
330
B802
100
AcDbEntity
  8
1
  6
Continuous
100
AcDbCircle
 10
661.662234
 20
304.2808289999999
 30
0.0
 40
2.0
100
AcDbArc
 50
270.0
 51
331.402214
  0
LINE
  5
BBDF
330
B802
100
AcDbEntity
  8
1
  6
Continuous
100
AcDbLine
 10
663.4157229999997
 20
308.570401
 30
0.0
 11
672.3846299999999
 21
321.988687
 31
0.0
  0
LINE
  5
BBE0
330
B802
100
AcDbEntity
  8
1
  6
Continuous
100
AcDbLine
 10
698.2462579999999
 20
349.2808289999999
 30
0.0
 11
698.2462579999999
 21
315.2808289999999
 31
0.0
  0
LINE
  5
BBE1
330
B802
100
AcDbEntity
  8
1
  6
Continuous
100
AcDbLine
 10
698.346258
 20
349.2808289999999
 30
0.0
 11
698.346258
 21
315.5808289999999
 31
0.0
  0
LINE
  5
BBE2
330
B802
100
AcDbEntity
  8
1
  6
Continuous
100
AcDbLine
 10
672.396258
 20
318.4193209999999
 30
0.0
 11
672.396258
 21
346.152693
 31
0.0
  0
LINE
  5
BBE3
330
B802
100
AcDbEntity
  8
1
  6
Continuous
100
AcDbLine
 10
672.4462579999998
 20
318.280829
 30
0.0
 11
672.4462579999998
 21
346.2808289999999
 31
0.0
  0
ARC
  5
BBE4
330
B802
100
AcDbEntity
  8
1
  6
Continuous
100
AcDbCircle
 10
684.9462579999998
 20
315.1374149999999
 30
0.0
 40
6.0
100
AcDbArc
 50
0.0
 51
84.88268499999998
  0
LINE
  5
BBE5
330
B802
100
AcDbEntity
  8
1
  6
Continuous
100
AcDbLine
 10
672.4462579999998
 20
318.280829
 30
0.0
 11
689.288006
 21
316.7726129999999
 31
0.0
  0
ARC
  5
BBE6
330
B802
100
AcDbEntity
  8
1
  6
Continuous
100
AcDbCircle
 10
687.9500759999999
 20
301.832401
 30
0.0
 40
15.0
100
AcDbArc
 50
79.148036
 51
84.88268499999998
  0
LINE
  5
BBE7
330
B802
100
AcDbEntity
  8
1
  6
Continuous
100
AcDbLine
 10
698.2462579999999
 20
315.2808289999999
 30
0.0
 11
698.646258
 21
315.2808289999999
 31
0.0
  0
ARC
  5
BBE8
330
B802
100
AcDbEntity
  8
1
  6
Continuous
100
AcDbCircle
 10
698.646258
 20
315.5808289999999
 30
0.0
 40
0.3
100
AcDbArc
 50
180.0
 51
270.0
  0
LINE
  5
BBE9
330
B802
100
AcDbEntity
  8
1
  6
Continuous
100
AcDbLine
 10
672.4462579999998
 20
322.2808289999999
 30
0.0
 11
685.4814299999998
 21
321.1135
 31
0.0
  0
ARC
  5
BBEA
330
B802
100
AcDbEntity
  8
1
  6
Continuous
100
AcDbCircle
 10
671.896258
 20
318.4193209999999
 30
0.0
 40
0.5
100
AcDbArc
 50
329.036243
 51
0.0
  0
LINE
  5
BBEB
330
B802
100
AcDbEntity
  8
1
  6
Continuous
100
AcDbLine
 10
672.4462579999998
 20
322.2808289999999
 30
0.0
 11
672.396258
 21
322.2808289999999
 31
0.0
  0
LINE
  5
BBEC
330
B802
100
AcDbEntity
  8
1
  6
Continuous
100
AcDbLine
 10
691.397829
 20
349.1668549999998
 30
0.0
 11
672.4462579999998
 21
346.2808289999999
 31
0.0
  0
LINE
  5
BBED
330
B802
100
AcDbEntity
  8
1
  6
Continuous
100
AcDbLine
 10
691.9869650000001
 20
345.298197
 30
0.0
 11
673.035394
 21
342.412171
 31
0.0
  0
LINE
  5
BBEE
330
B802
100
AcDbEntity
  8
1
  6
Continuous
100
AcDbLine
 10
698.346258
 20
347.350727
 30
0.0
 11
698.2462579999999
 21
347.350727
 31
0.0
  0
LINE
  5
BBEF
330
B802
100
AcDbEntity
  8
1
  6
Continuous
100
AcDbLine
 10
698.346258
 20
346.945148
 30
0.0
 11
698.2462579999999
 21
346.945148
 31
0.0
  0
LINE
  5
BBF0
330
B802
100
AcDbEntity
  8
1
  6
Continuous
100
AcDbLine
 10
698.346258
 20
344.8863259999998
 30
0.0
 11
698.2462579999999
 21
344.8863259999998
 31
0.0
  0
ARC
  5
BBF1
330
B802
100
AcDbEntity
  8
1
  6
Continuous
100
AcDbCircle
 10
692.903316
 20
339.280829
 30
0.0
 40
6.086740999999999
100
AcDbArc
 50
90.0
 51
98.65872100000002
  0
LINE
  5
BBF2
330
B802
100
AcDbEntity
  8
1
  6
Continuous
100
AcDbLine
 10
698.2462579999999
 20
345.36757
 30
0.0
 11
692.903316
 21
345.36757
 31
0.0
  0
LINE
  5
BBF3
330
B802
100
AcDbEntity
  8
1
  6
Continuous
100
AcDbLine
 10
698.346258
 20
347.680829
 30
0.0
 11
698.2462579999999
 21
347.680829
 31
0.0
  0
LINE
  5
BBF4
330
B802
100
AcDbEntity
  8
1
  6
Continuous
100
AcDbLine
 10
698.2462579999999
 20
349.2808289999999
 30
0.0
 11
692.903316
 21
349.2808289999999
 31
0.0
  0
ARC
  5
BBF5
330
B802
100
AcDbEntity
  8
1
  6
Continuous
100
AcDbCircle
 10
692.903316
 20
339.280829
 30
0.0
 40
10.0
100
AcDbArc
 50
90.0
 51
98.65872100000002
  0
ARC
  5
BBF6
330
B802
100
AcDbEntity
  8
1
  6
Continuous
100
AcDbCircle
 10
671.896258
 20
346.152693
 30
0.0
 40
0.5
100
AcDbArc
 50
0.0
 51
28.747914
  0
LINE
  5
BBF7
330
B802
100
AcDbEntity
  8
1
  6
Continuous
100
AcDbLine
 10
672.4462579999998
 20
344.7808289999999
 30
0.0
 11
672.396258
 21
344.7808289999999
 31
0.0
  0
LINE
  5
BBF8
330
B802
100
AcDbEntity
  8
1
  6
Continuous
100
AcDbLine
 10
672.4462579999998
 20
341.95024
 30
0.0
 11
672.396258
 21
341.95024
 31
0.0
  0
LINE
  5
BBF9
330
B802
100
AcDbEntity
  8
1
  6
Continuous
100
AcDbLine
 10
657.846258
 20
308.280829
 30
0.0
 11
653.346258
 21
308.280829
 31
0.0
  0
LINE
  5
BBFA
330
B802
100
AcDbEntity
  8
1
  6
Continuous
100
AcDbLine
 10
657.846258
 20
314.7808289999999
 30
0.0
 11
653.346258
 21
314.7808289999999
 31
0.0
  0
LINE
  5
BBFB
330
B802
100
AcDbEntity
  8
1
  6
Continuous
100
AcDbLine
 10
653.346258
 20
314.7808289999999
 30
0.0
 11
653.346258
 21
308.280829
 31
0.0
  0
LINE
  5
BBFC
330
B802
100
AcDbEntity
  8
1
  6
Continuous
100
AcDbLine
 10
657.846258
 20
349.780829
 30
0.0
 11
653.346258
 21
349.780829
 31
0.0
  0
LINE
  5
BBFD
330
B802
100
AcDbEntity
  8
1
  6
Continuous
100
AcDbLine
 10
635.4462579999998
 20
340.0308289999999
 30
0.0
 11
635.4462579999998
 21
324.530829
 31
0.0
  0
LINE
  5
BBFE
330
B802
100
AcDbEntity
  8
1
  6
Continuous
100
AcDbLine
 10
635.4462579999998
 20
339.156922
 30
0.0
 11
635.4462579999998
 21
325.404736
 31
0.0
  0
LINE
  5
BBFF
330
B802
100
AcDbEntity
  8
1
  6
Continuous
100
AcDbLine
 10
635.496258
 20
341.7308290000002
 30
0.0
 11
635.496258
 21
322.830829
 31
0.0
  0
LINE
  5
BC00
330
B802
100
AcDbEntity
  8
1
  6
Continuous
100
AcDbLine
 10
627.4462579999998
 20
338.8569219999999
 30
0.0
 11
627.4462579999998
 21
325.7047359999999
 31
0.0
  0
LINE
  5
BC01
330
B802
100
AcDbEntity
  8
2
  6
Continuous
100
AcDbLine
 10
635.4462579999998
 20
325.404736
 30
0.0
 11
627.7462579999999
 21
332.2808289999999
 31
0.0
  0
LINE
  5
BC02
330
B802
100
AcDbEntity
  8
2
  6
Continuous
100
AcDbLine
 10
635.4462579999998
 20
332.2808289999999
 30
0.0
 11
627.7462579999999
 21
325.404736
 31
0.0
  0
ARC
  5
BC03
330
B802
100
AcDbEntity
  8
1
  6
Continuous
100
AcDbCircle
 10
635.6462579999997
 20
324.530829
 30
0.0
 40
0.2
100
AcDbArc
 50
180.0
 51
221.409622
  0
LINE
  5
BC04
330
B802
100
AcDbEntity
  8
1
  6
Continuous
100
AcDbLine
 10
627.7462579999999
 20
325.404736
 30
0.0
 11
635.4462579999998
 21
325.404736
 31
0.0
  0
ARC
  5
BC05
330
B802
100
AcDbEntity
  8
1
  6
Continuous
100
AcDbCircle
 10
627.7462579999999
 20
325.7047359999999
 30
0.0
 40
0.3
100
AcDbArc
 50
180.0
 51
270.0
  0
LINE
  5
BC06
330
B802
100
AcDbEntity
  8
1
  6
Continuous
100
AcDbLine
 10
635.7962579999997
 20
322.530829
 30
0.0
 11
635.496258
 21
322.830829
 31
0.0
  0
ARC
  5
BC07
330
B802
100
AcDbEntity
  8
1
  6
Continuous
100
AcDbCircle
 10
635.6462579999997
 20
340.0308289999999
 30
0.0
 40
0.2
100
AcDbArc
 50
138.5903779999999
 51
180.0
  0
LINE
  5
BC08
330
B802
100
AcDbEntity
  8
1
  6
Continuous
100
AcDbLine
 10
627.7462579999999
 20
339.156922
 30
0.0
 11
635.4462579999998
 21
339.156922
 31
0.0
  0
LINE
  5
BC09
330
B802
100
AcDbEntity
  8
1
  6
Continuous
100
AcDbLine
 10
627.7462579999999
 20
332.2808289999999
 30
0.0
 11
635.4462579999998
 21
332.2808289999999
 31
0.0
  0
LINE
  5
BC0A
330
B802
100
AcDbEntity
  8
2
  6
Continuous
100
AcDbLine
 10
627.7462579999999
 20
332.2808289999999
 30
0.0
 11
635.4462579999998
 21
339.156922
 31
0.0
  0
LINE
  5
BC0B
330
B802
100
AcDbEntity
  8
2
  6
Continuous
100
AcDbLine
 10
627.7462579999999
 20
339.156922
 30
0.0
 11
635.4462579999998
 21
332.2808289999999
 31
0.0
  0
ARC
  5
BC0C
330
B802
100
AcDbEntity
  8
1
  6
Continuous
100
AcDbCircle
 10
627.7462579999999
 20
338.8569219999999
 30
0.0
 40
0.3
100
AcDbArc
 50
90.0
 51
180.0
  0
LINE
  5
BC0D
330
B802
100
AcDbEntity
  8
1
  6
Continuous
100
AcDbLine
 10
635.7962579999997
 20
342.0308289999999
 30
0.0
 11
635.496258
 21
341.7308290000002
 31
0.0
  0
LINE
  5
BC0E
330
B802
100
AcDbEntity
  8
1
  6
Continuous
100
AcDbLine
 10
657.846258
 20
356.2808289999999
 30
0.0
 11
653.346258
 21
356.2808289999999
 31
0.0
  0
LINE
  5
BC0F
330
B802
100
AcDbEntity
  8
1
  6
Continuous
100
AcDbLine
 10
661.662234
 20
362.280829
 30
0.0
 11
657.846258
 21
362.280829
 31
0.0
  0
ARC
  5
BC10
330
B802
100
AcDbEntity
  8
1
  6
Continuous
100
AcDbCircle
 10
661.662234
 20
360.280829
 30
0.0
 40
2.0
100
AcDbArc
 50
28.613039
 51
90.0
  0
LINE
  5
BC11
330
B802
100
AcDbEntity
  8
1
  6
Continuous
100
AcDbLine
 10
662.846258
 20
361.242743
 30
0.0
 11
662.846258
 21
356.843227
 31
0.0
  0
LINE
  5
BC12
330
B802
100
AcDbEntity
  8
1
  6
Continuous
100
AcDbLine
 10
56.788674
 20
329.7808289999999
 30
0.0
 11
56.211324
 21
329.7808289999999
 31
0.0
  0
LINE
  5
BC13
330
B802
100
AcDbEntity
  8
1
  6
Continuous
100
AcDbLine
 10
57.36602399999998
 20
328.780829
 30
0.0
 11
55.633974
 21
328.780829
 31
0.0
  0
LINE
  5
BC14
330
B802
100
AcDbEntity
  8
1
  6
Continuous
100
AcDbLine
 10
57.94337500000001
 20
327.7808289999999
 30
0.0
 11
55.056623
 21
327.7808289999999
 31
0.0
  0
LINE
  5
BC15
330
B802
100
AcDbEntity
  8
1
  6
Continuous
100
AcDbLine
 10
58.520725
 20
326.780829
 30
0.0
 11
54.47927299999999
 21
326.780829
 31
0.0
  0
LINE
  5
BC16
330
B802
100
AcDbEntity
  8
1
  6
Continuous
100
AcDbLine
 10
59.098075
 20
325.7808289999999
 30
0.0
 11
53.90192299999998
 21
325.7808289999999
 31
0.0
  0
LINE
  5
BC17
330
B802
100
AcDbEntity
  8
1
  6
Continuous
100
AcDbLine
 10
59.675425
 20
324.780829
 30
0.0
 11
53.324573
 21
324.780829
 31
0.0
  0
LINE
  5
BC18
330
B802
100
AcDbEntity
  8
1
  6
Continuous
100
AcDbLine
 10
60.25277599999999
 20
323.7808289999999
 30
0.0
 11
52.747222
 21
323.7808289999999
 31
0.0
  0
LINE
  5
BC19
330
B802
100
AcDbEntity
  8
1
  6
Continuous
100
AcDbLine
 10
60.83012599999999
 20
322.780829
 30
0.0
 11
52.169872
 21
322.780829
 31
0.0
  0
LINE
  5
BC1A
330
B802
100
AcDbEntity
  8
1
  6
Continuous
100
AcDbLine
 10
61.984826
 20
320.780829
 30
0.0
 11
61.163689
 21
320.780829
 31
0.0
  0
LINE
  5
BC1B
330
B802
100
AcDbEntity
  8
1
  6
Continuous
100
AcDbLine
 10
61.407476
 20
321.7808289999999
 30
0.0
 11
59.28388100000001
 21
321.7808289999999
 31
0.0
  0
LINE
  5
BC1C
330
B802
100
AcDbEntity
  8
1
  6
Continuous
100
AcDbLine
 10
53.71611699999998
 20
321.7808289999999
 30
0.0
 11
51.592522
 21
321.7808289999999
 31
0.0
  0
LINE
  5
BC1D
330
B802
100
AcDbEntity
  8
1
  6
Continuous
100
AcDbLine
 10
51.836309
 20
320.780829
 30
0.0
 11
51.01517199999999
 21
320.780829
 31
0.0
  0
LINE
  5
BC1E
330
B802
100
AcDbEntity
  8
1
  6
Continuous
100
AcDbLine
 10
62.562177
 20
319.7808289999999
 30
0.0
 11
62.309474
 21
319.7808289999999
 31
0.0
  0
LINE
  5
BC1F
330
B802
100
AcDbEntity
  8
1
  6
Continuous
100
AcDbLine
 10
63.139527
 20
318.7808289999999
 30
0.0
 11
63.11437699999999
 21
318.7808289999999
 31
0.0
  0
LINE
  5
BC20
330
B802
100
AcDbEntity
  8
1
  6
Continuous
100
AcDbLine
 10
50.690524
 20
319.7808289999999
 30
0.0
 11
50.437821
 21
319.7808289999999
 31
0.0
  0
LINE
  5
BC21
330
B802
100
AcDbEntity
  8
1
  6
Continuous
100
AcDbLine
 10
49.885621
 20
318.7808289999999
 30
0.0
 11
49.860471
 21
318.7808289999999
 31
0.0
  0
LINE
  5
BC22
330
B802
100
AcDbEntity
  8
1
  6
Continuous
100
AcDbLine
 10
57.077349
 20
329.2808289999999
 30
0.0
 11
55.92264899999999
 21
329.2808289999999
 31
0.0
  0
LINE
  5
BC23
330
B802
100
AcDbEntity
  8
1
  6
Continuous
100
AcDbLine
 10
57.6547
 20
328.2808289999999
 30
0.0
 11
55.34529899999999
 21
328.2808289999999
 31
0.0
  0
LINE
  5
BC24
330
B802
100
AcDbEntity
  8
1
  6
Continuous
100
AcDbLine
 10
58.23205
 20
327.2808289999999
 30
0.0
 11
54.767948
 21
327.2808289999999
 31
0.0
  0
LINE
  5
BC25
330
B802
100
AcDbEntity
  8
1
  6
Continuous
100
AcDbLine
 10
58.80939999999998
 20
326.2808289999999
 30
0.0
 11
54.190598
 21
326.2808289999999
 31
0.0
  0
LINE
  5
BC26
330
B802
100
AcDbEntity
  8
1
  6
Continuous
100
AcDbLine
 10
59.38674999999999
 20
325.2808289999999
 30
0.0
 11
53.613248
 21
325.2808289999999
 31
0.0
  0
LINE
  5
BC27
330
B802
100
AcDbEntity
  8
1
  6
Continuous
100
AcDbLine
 10
59.964101
 20
324.2808289999999
 30
0.0
 11
53.03589800000001
 21
324.2808289999999
 31
0.0
  0
LINE
  5
BC28
330
B802
100
AcDbEntity
  8
1
  6
Continuous
100
AcDbLine
 10
60.541451
 20
323.2808289999999
 30
0.0
 11
52.45854699999998
 21
323.2808289999999
 31
0.0
  0
LINE
  5
BC29
330
B802
100
AcDbEntity
  8
1
  6
Continuous
100
AcDbLine
 10
61.118801
 20
322.2808289999999
 30
0.0
 11
51.881197
 21
322.2808289999999
 31
0.0
  0
LINE
  5
BC2A
330
B802
100
AcDbEntity
  8
1
  6
Continuous
100
AcDbLine
 10
61.696151
 20
321.2808289999999
 30
0.0
 11
60.37298199999999
 21
321.2808289999999
 31
0.0
  0
LINE
  5
BC2B
330
B802
100
AcDbEntity
  8
1
  6
Continuous
100
AcDbLine
 10
62.273502
 20
320.280829
 30
0.0
 11
61.791502
 21
320.280829
 31
0.0
  0
LINE
  5
BC2C
330
B802
100
AcDbEntity
  8
1
  6
Continuous
100
AcDbLine
 10
62.85085200000001
 20
319.2808289999998
 30
0.0
 11
62.74499699999999
 21
319.2808289999998
 31
0.0
  0
LINE
  5
BC2D
330
B802
100
AcDbEntity
  8
1
  6
Continuous
100
AcDbLine
 10
52.62701599999999
 20
321.2808289999999
 30
0.0
 11
51.303847
 21
321.2808289999999
 31
0.0
  0
LINE
  5
BC2E
330
B802
100
AcDbEntity
  8
1
  6
Continuous
100
AcDbLine
 10
51.20849599999999
 20
320.280829
 30
0.0
 11
50.726496
 21
320.280829
 31
0.0
  0
LINE
  5
BC2F
330
B802
100
AcDbEntity
  8
1
  6
Continuous
100
AcDbLine
 10
50.255001
 20
319.2808289999998
 30
0.0
 11
50.149146
 21
319.2808289999998
 31
0.0
  0
ENDSEC
  0
SECTION
  2
OBJECTS
  0
DICTIONARY
  5
B7F0
330
0
100
AcDbDictionary
281
     1
  3
ACAD_CIP_PREVIOUS_PRODUCT_INFO
350
BC95
  3
ACAD_COLOR
350
BC77
  3
ACAD_DETAILVIEWSTYLE
350
BC90
  3
ACAD_GROUP
350
B7F1
  3
ACAD_LAYOUT
350
B7FD
  3
ACAD_MATERIAL
350
BC45
  3
ACAD_MLEADERSTYLE
350
BC8C
  3
ACAD_MLINESTYLE
350
B7FA
  3
ACAD_PLOTSETTINGS
350
B7FC
  3
ACAD_PLOTSTYLENAME
350
BC43
  3
ACAD_SCALELIST
350
BC7A
  3
ACAD_SECTIONVIEWSTYLE
350
BC8E
  3
ACAD_TABLESTYLE
350
BC78
  3
ACAD_VISUALSTYLE
350
BC5E
  3
ACDB_RECOMPOSE_DATA
350
BCB3
  3
AcDbVariableDictionary
350
BCA6
  3
DWGPROPS
350
BCB4
  0
DICTIONARY
  5
BC96
330
B7F4
100
AcDbDictionary
280
     1
281
     1
  3
ADSK_XREC_LAYER_RECONCILED
360
BC97
  0
DICTIONARY
  5
BC98
330
B80A
100
AcDbDictionary
280
     1
281
     1
  3
ADSK_XREC_LAYER_RECONCILED
360
BC99
  0
DICTIONARY
  5
BC9A
330
B80B
100
AcDbDictionary
280
     1
281
     1
  3
ADSK_XREC_LAYER_RECONCILED
360
BC9B
  0
DICTIONARY
  5
BC9C
330
B80C
100
AcDbDictionary
280
     1
281
     1
  3
ADSK_XREC_LAYER_RECONCILED
360
BC9D
  0
DICTIONARY
  5
BC9E
330
B80D
100
AcDbDictionary
280
     1
281
     1
  3
ADSK_XREC_LAYER_RECONCILED
360
BC9F
  0
DICTIONARY
  5
BCA0
330
B80E
100
AcDbDictionary
280
     1
281
     1
  3
ADSK_XREC_LAYER_RECONCILED
360
BCA1
  0
DICTIONARY
  5
BCA2
330
B80F
100
AcDbDictionary
280
     1
281
     1
  3
ADSK_XREC_LAYER_RECONCILED
360
BCA3
  0
DICTIONARY
  5
BCA4
330
B810
100
AcDbDictionary
280
     1
281
     1
  3
ADSK_XREC_LAYER_RECONCILED
360
BCA5
  0
DICTIONARY
  5
BC3E
330
B802
100
AcDbDictionary
281
     1
  3
ACAD_LAYOUTSELFREF
350
BC3F
  0
DICTIONARY
  5
BC3C
330
B7FE
100
AcDbDictionary
281
     1
  3
ACAD_LAYOUTSELFREF
350
BC3D
  0
XRECORD
  5
BC95
102
{ACAD_REACTORS
330
B7F0
102
}
330
B7F0
100
AcDbXrecord
280
     1
300
ACDLT
300
2014
300
ACDLT_F_S
  0
DICTIONARY
  5
BC77
102
{ACAD_REACTORS
330
B7F0
102
}
330
B7F0
100
AcDbDictionary
281
     1
  0
DICTIONARY
  5
BC90
102
{ACAD_REACTORS
330
B7F0
102
}
330
B7F0
100
AcDbDictionary
281
     1
  3
Imperial24
350
BC91
  0
DICTIONARY
  5
B7F1
102
{ACAD_REACTORS
330
B7F0
102
}
330
B7F0
100
AcDbDictionary
281
     1
  0
DICTIONARY
  5
B7FD
102
{ACAD_REACTORS
330
B7F0
102
}
330
B7F0
100
AcDbDictionary
281
     1
  3
Model
350
BC92
  3
レイアウト1
350
BC93
  0
DICTIONARY
  5
BC45
102
{ACAD_REACTORS
330
B7F0
102
}
330
B7F0
100
AcDbDictionary
281
     1
  3
ByBlock
350
BC4E
  3
ByLayer
350
BC46
  3
Global
350
BC56
  0
DICTIONARY
  5
BC8C
102
{ACAD_REACTORS
330
B7F0
102
}
330
B7F0
100
AcDbDictionary
281
     1
  3
Standard
350
BC8D
  0
DICTIONARY
  5
B7FA
102
{ACAD_REACTORS
330
B7F0
102
}
330
B7F0
100
AcDbDictionary
281
     1
  3
STANDARD
350
B7FB
  0
DICTIONARY
  5
B7FC
102
{ACAD_REACTORS
330
B7F0
102
}
330
B7F0
100
AcDbDictionary
281
     1
  0
ACDBDICTIONARYWDFLT
  5
BC43
102
{ACAD_REACTORS
330
B7F0
102
}
330
B7F0
100
AcDbDictionary
281
     1
  3
Normal
350
BC44
100
AcDbDictionaryWithDefault
340
BC44
  0
DICTIONARY
  5
BC7A
102
{ACAD_REACTORS
330
B7F0
102
}
330
B7F0
100
AcDbDictionary
281
     1
  3
A0
350
BC7B
  3
A1
350
BC7C
  3
A2
350
BC7D
  3
A3
350
BC7E
  3
A4
350
BC7F
  3
A5
350
BC80
  3
A6
350
BC81
  3
A7
350
BC82
  3
A8
350
BC83
  3
A9
350
BC84
  3
B0
350
BC85
  3
B1
350
BC86
  3
B2
350
BC87
  3
B3
350
BC88
  3
B4
350
BC89
  3
B5
350
BC8A
  3
B6
350
BC8B
  0
DICTIONARY
  5
BC8E
102
{ACAD_REACTORS
330
B7F0
102
}
330
B7F0
100
AcDbDictionary
281
     1
  3
Imperial24
350
BC8F
  0
DICTIONARY
  5
BC78
102
{ACAD_REACTORS
330
B7F0
102
}
330
B7F0
100
AcDbDictionary
281
     1
  3
Standard
350
BC79
  0
DICTIONARY
  5
BC5E
102
{ACAD_REACTORS
330
B7F0
102
}
330
B7F0
100
AcDbDictionary
281
     1
  3
2dWireframe
350
BC64
  3
Basic
350
BC63
  3
Brighten
350
BC6A
  3
ColorChange
350
BC6E
  3
Conceptual
350
BC67
  3
Dim
350
BC69
  3
EdgeColorOff
350
BC76
  3
Facepattern
350
BC6D
  3
Flat
350
BC5F
  3
FlatWithEdges
350
BC60
  3
Gouraud
350
BC61
  3
GouraudWithEdges
350
BC62
  3
Hidden
350
BC66
  3
JitterOff
350
BC74
  3
Linepattern
350
BC6C
  3
OverhangOff
350
BC75
  3
Realistic
350
BC68
  3
Shaded
350
BC73
  3
Shaded with edges
350
BC72
  3
Shades of Gray
350
BC6F
  3
Sketchy
350
BC70
  3
Thicken
350
BC6B
  3
Wireframe
350
BC65
  3
X-Ray
350
BC71
  0
XRECORD
  5
BCB3
102
{ACAD_REACTORS
330
B7F0
102
}
330
B7F0
100
AcDbXrecord
280
     1
 90
        1
330
BC79
  0
DICTIONARY
  5
BCA6
102
{ACAD_REACTORS
330
B7F0
102
}
330
B7F0
100
AcDbDictionary
281
     1
  3
CANNOSCALE
350
BCAB
  3
CMLEADERSTYLE
350
BCA8
  3
CTABLESTYLE
350
BCA7
  3
CVIEWDETAILSTYLE
350
BCA9
  3
CVIEWSECTIONSTYLE
350
BCAA
  3
DIMASSOC
350
BCAE
  3
INDEXCTL
350
BCAD
  3
SORTENTS
350
BCAC
  3
XCLIPFRAME
350
BCAF
  0
XRECORD
  5
BCB4
102
{ACAD_REACTORS
330
B7F0
102
}
330
B7F0
100
AcDbXrecord
280
     1
  1
DWGPROPS COOKIE
  2

  3

  4

  6

  7

  8
Yoshitsune
  9

300
=
301
=
302
=
303
=
304
=
305
=
306
=
307
=
308
=
309
=
 40
0.0021842013888889
 41
2451417.570668171
 42
2457192.641339884
  1

 90
        0
  0
XRECORD
  5
BC97
102
{ACAD_REACTORS
330
BC96
102
}
330
BC96
100
AcDbXrecord
280
     1
290
     1
  0
XRECORD
  5
BC99
102
{ACAD_REACTORS
330
BC98
102
}
330
BC98
100
AcDbXrecord
280
     1
290
     1
  0
XRECORD
  5
BC9B
102
{ACAD_REACTORS
330
BC9A
102
}
330
BC9A
100
AcDbXrecord
280
     1
290
     1
  0
XRECORD
  5
BC9D
102
{ACAD_REACTORS
330
BC9C
102
}
330
BC9C
100
AcDbXrecord
280
     1
290
     1
  0
XRECORD
  5
BC9F
102
{ACAD_REACTORS
330
BC9E
102
}
330
BC9E
100
AcDbXrecord
280
     1
290
     1
  0
XRECORD
  5
BCA1
102
{ACAD_REACTORS
330
BCA0
102
}
330
BCA0
100
AcDbXrecord
280
     1
290
     1
  0
XRECORD
  5
BCA3
102
{ACAD_REACTORS
330
BCA2
102
}
330
BCA2
100
AcDbXrecord
280
     1
290
     1
  0
XRECORD
  5
BCA5
102
{ACAD_REACTORS
330
BCA4
102
}
330
BCA4
100
AcDbXrecord
280
     1
290
     1
  0
XRECORD
  5
BC3F
102
{ACAD_REACTORS
330
BC3E
102
}
330
BC3E
100
AcDbXrecord
280
     1
340
B802
  0
XRECORD
  5
BC3D
102
{ACAD_REACTORS
330
BC3C
102
}
330
BC3C
100
AcDbXrecord
280
     1
340
B7FE
  0
ACDBDETAILVIEWSTYLE
  5
BC91
102
{ACAD_XDICTIONARY
360
BCEC
102
}
102
{ACAD_REACTORS
330
BC90
102
}
330
BC90
100
AcDbModelDocViewStyle
 70
     0
  3
Imperial24
290
     0
100
AcDbDetailViewStyle
 70
     0
 71
     0
 90
        3
 71
     1
340
B7F5
 40
0.24
340
0
 40
0.24
300

 40
0.36
280
     3
 71
     2
340
B7F9
 90
       25
 71
     3
340
B7F5
 40
0.24
 90
        1
 40
0.75
 90
        1
300
%<\AcVar ViewType \f "%tc1">% %<\AcVar ViewDetailId>%\PSCALE %<\AcVar ViewScale \f "%sn">%
 71
     4
340
B7F9
 90
       25
340
B7F9
 90
       25
280
     0
  0
LAYOUT
  5
BC92
102
{ACAD_XDICTIONARY
360
BCEE
102
}
102
{ACAD_REACTORS
330
B7FD
102
}
330
B7FD
100
AcDbPlotSettings
  1

  2
Canon LBP9100C
  4

  6

 40
0.0
 41
0.0
 42
0.0
 43
0.0
 44
0.0
 45
0.0
 46
0.0
 47
0.0
 48
0.0
 49
0.0
140
0.0
141
0.0
142
1.0
143
1.0
 70
  1712
 72
     0
 73
     0
 74
     0
  7

 75
     0
147
1.0
148
0.0
149
0.0
100
AcDbLayout
  1
Model
 70
     1
 71
     0
 10
0.0
 20
0.0
 11
12.0
 21
9.0
 12
0.0
 22
0.0
 32
0.0
 14
0.0
 24
0.0
 34
0.0
 15
0.0
 25
0.0
 35
0.0
146
0.0
 13
0.0
 23
0.0
 33
0.0
 16
1.0
 26
0.0
 36
0.0
 17
0.0
 27
1.0
 37
0.0
 76
     0
330
B802
331
BC3B
  0
LAYOUT
  5
BC93
102
{ACAD_XDICTIONARY
360
BCF0
102
}
102
{ACAD_REACTORS
330
B7FD
102
}
330
B7FD
100
AcDbPlotSettings
  1

  2
Canon LBP9100C
  4

  6

 40
0.0
 41
0.0
 42
0.0
 43
0.0
 44
0.0
 45
0.0
 46
0.0
 47
0.0
 48
0.0
 49
0.0
140
0.0
141
0.0
142
1.0
143
1.0
 70
   688
 72
     0
 73
     0
 74
     5
  7

 75
    16
147
1.0
148
0.0
149
0.0
100
AcDbLayout
  1
レイアウト1
 70
     0
 71
     1
 10
0.0
 20
0.0
 11
420.0
 21
297.0
 12
0.0
 22
0.0
 32
0.0
 14
1.000000000000000E+20
 24
1.000000000000000E+20
 34
1.000000000000000E+20
 15
-1.000000000000000E+20
 25
-1.000000000000000E+20
 35
-1.000000000000000E+20
146
0.0
 13
0.0
 23
0.0
 33
0.0
 16
1.0
 26
0.0
 36
0.0
 17
0.0
 27
1.0
 37
0.0
 76
     0
330
B7FE
  0
MATERIAL
  5
BC4E
102
{ACAD_XDICTIONARY
360
BC4F
102
}
102
{ACAD_REACTORS
330
BC45
102
}
330
BC45
100
AcDbMaterial
  1
ByBlock
 72
     0
 43
0.0208333333333333
 43
0.0
 43
0.0
 43
0.0
 43
0.0
 43
0.0208333333333333
 43
0.0
 43
0.0
 43
0.0
 43
0.0
 43
1.0
 43
0.0
 43
0.0
 43
0.0
 43
0.0
 43
1.0
 77
     0
 47
0.0208333333333333
 47
0.0
 47
0.0
 47
0.0
 47
0.0
 47
0.0208333333333333
 47
0.0
 47
0.0
 47
0.0
 47
0.0
 47
1.0
 47
0.0
 47
0.0
 47
0.0
 47
0.0
 47
1.0
171
     0
 49
0.0208333333333333
 49
0.0
 49
0.0
 49
0.0
 49
0.0
 49
0.0208333333333333
 49
0.0
 49
0.0
 49
0.0
 49
0.0
 49
1.0
 49
0.0
 49
0.0
 49
0.0
 49
0.0
 49
1.0
175
     0
142
0.0208333333333333
142
0.0
142
0.0
142
0.0
142
0.0
142
0.0208333333333333
142
0.0
142
0.0
142
0.0
142
0.0
142
1.0
142
0.0
142
0.0
142
0.0
142
0.0
142
1.0
179
     0
144
0.0208333333333333
144
0.0
144
0.0
144
0.0
144
0.0
144
0.0208333333333333
144
0.0
144
0.0
144
0.0
144
0.0
144
1.0
144
0.0
144
0.0
144
0.0
144
0.0
144
1.0
147
0.0208333333333333
147
0.0
147
0.0
147
0.0
147
0.0
147
0.0208333333333333
147
0.0
147
0.0
147
0.0
147
0.0
147
1.0
147
0.0
147
0.0
147
0.0
147
0.0
147
1.0
  0
MATERIAL
  5
BC46
102
{ACAD_XDICTIONARY
360
BC47
102
}
102
{ACAD_REACTORS
330
BC45
102
}
330
BC45
100
AcDbMaterial
  1
ByLayer
 72
     0
 43
0.0208333333333333
 43
0.0
 43
0.0
 43
0.0
 43
0.0
 43
0.0208333333333333
 43
0.0
 43
0.0
 43
0.0
 43
0.0
 43
1.0
 43
0.0
 43
0.0
 43
0.0
 43
0.0
 43
1.0
 77
     0
 47
0.0208333333333333
 47
0.0
 47
0.0
 47
0.0
 47
0.0
 47
0.0208333333333333
 47
0.0
 47
0.0
 47
0.0
 47
0.0
 47
1.0
 47
0.0
 47
0.0
 47
0.0
 47
0.0
 47
1.0
171
     0
 49
0.0208333333333333
 49
0.0
 49
0.0
 49
0.0
 49
0.0
 49
0.0208333333333333
 49
0.0
 49
0.0
 49
0.0
 49
0.0
 49
1.0
 49
0.0
 49
0.0
 49
0.0
 49
0.0
 49
1.0
175
     0
142
0.0208333333333333
142
0.0
142
0.0
142
0.0
142
0.0
142
0.0208333333333333
142
0.0
142
0.0
142
0.0
142
0.0
142
1.0
142
0.0
142
0.0
142
0.0
142
0.0
142
1.0
179
     0
144
0.0208333333333333
144
0.0
144
0.0
144
0.0
144
0.0
144
0.0208333333333333
144
0.0
144
0.0
144
0.0
144
0.0
144
1.0
144
0.0
144
0.0
144
0.0
144
0.0
144
1.0
147
0.0208333333333333
147
0.0
147
0.0
147
0.0
147
0.0
147
0.0208333333333333
147
0.0
147
0.0
147
0.0
147
0.0
147
1.0
147
0.0
147
0.0
147
0.0
147
0.0
147
1.0
  0
MATERIAL
  5
BC56
102
{ACAD_XDICTIONARY
360
BC57
102
}
102
{ACAD_REACTORS
330
BC45
102
}
330
BC45
100
AcDbMaterial
  1
Global
 72
     0
 43
0.0208333333333333
 43
0.0
 43
0.0
 43
0.0
 43
0.0
 43
0.0208333333333333
 43
0.0
 43
0.0
 43
0.0
 43
0.0
 43
1.0
 43
0.0
 43
0.0
 43
0.0
 43
0.0
 43
1.0
 77
     0
 47
0.0208333333333333
 47
0.0
 47
0.0
 47
0.0
 47
0.0
 47
0.0208333333333333
 47
0.0
 47
0.0
 47
0.0
 47
0.0
 47
1.0
 47
0.0
 47
0.0
 47
0.0
 47
0.0
 47
1.0
171
     0
 49
0.0208333333333333
 49
0.0
 49
0.0
 49
0.0
 49
0.0
 49
0.0208333333333333
 49
0.0
 49
0.0
 49
0.0
 49
0.0
 49
1.0
 49
0.0
 49
0.0
 49
0.0
 49
0.0
 49
1.0
175
     0
142
0.0208333333333333
142
0.0
142
0.0
142
0.0
142
0.0
142
0.0208333333333333
142
0.0
142
0.0
142
0.0
142
0.0
142
1.0
142
0.0
142
0.0
142
0.0
142
0.0
142
1.0
179
     0
144
0.0208333333333333
144
0.0
144
0.0
144
0.0
144
0.0
144
0.0208333333333333
144
0.0
144
0.0
144
0.0
144
0.0
144
1.0
144
0.0
144
0.0
144
0.0
144
0.0
144
1.0
147
0.0208333333333333
147
0.0
147
0.0
147
0.0
147
0.0
147
0.0208333333333333
147
0.0
147
0.0
147
0.0
147
0.0
147
1.0
147
0.0
147
0.0
147
0.0
147
0.0
147
1.0
  0
MLEADERSTYLE
  5
BC8D
102
{ACAD_REACTORS
330
BC8C
102
}
330
BC8C
100
AcDbMLeaderStyle
170
     2
171
     1
172
     0
 90
        2
 40
0.0
 41
0.0
173
     1
 91
-1056964608
340
B7F7
 92
       -2
290
     1
 42
0.09
291
     1
 43
0.36
  3
Standard
 44
0.18
300

342
B7F5
174
     1
178
     6
175
     1
176
     0
 93
-1056964608
 45
0.18
292
     0
297
     0
 46
0.18
 94
-1056964608
 47
1.0
 49
1.0
140
1.0
293
     1
141
0.0
294
     1
177
     0
142
1.0
295
     0
296
     0
143
0.125
1001
ACAD_MLEADERVER
1070
     2
  0
MLINESTYLE
  5
B7FB
102
{ACAD_REACTORS
330
B7FA
102
}
330
B7FA
100
AcDbMlineStyle
  2
STANDARD
 70
     0
  3

 62
   256
 51
90.0
 52
90.0
 71
     2
 49
0.5
 62
   256
  6
BYLAYER
 49
-0.5
 62
   256
  6
BYLAYER
  0
ACDBPLACEHOLDER
  5
BC44
102
{ACAD_REACTORS
330
BC43
102
}
330
BC43
  0
SCALE
  5
BC7B
102
{ACAD_REACTORS
330
BC7A
102
}
330
BC7A
100
AcDbScale
 70
     0
300
1:1
140
1.0
141
1.0
290
     1
  0
SCALE
  5
BC7C
102
{ACAD_REACTORS
330
BC7A
102
}
330
BC7A
100
AcDbScale
 70
     0
300
1/128" = 1'-0"
140
0.0078125
141
12.0
290
     0
  0
SCALE
  5
BC7D
102
{ACAD_REACTORS
330
BC7A
102
}
330
BC7A
100
AcDbScale
 70
     0
300
1/64" = 1'-0"
140
0.015625
141
12.0
290
     0
  0
SCALE
  5
BC7E
102
{ACAD_REACTORS
330
BC7A
102
}
330
BC7A
100
AcDbScale
 70
     0
300
1/32" = 1'-0"
140
0.03125
141
12.0
290
     0
  0
SCALE
  5
BC7F
102
{ACAD_REACTORS
330
BC7A
102
}
330
BC7A
100
AcDbScale
 70
     0
300
1/16" = 1'-0"
140
0.0625
141
12.0
290
     0
  0
SCALE
  5
BC80
102
{ACAD_REACTORS
330
BC7A
102
}
330
BC7A
100
AcDbScale
 70
     0
300
3/32" = 1'-0"
140
0.09375
141
12.0
290
     0
  0
SCALE
  5
BC81
102
{ACAD_REACTORS
330
BC7A
102
}
330
BC7A
100
AcDbScale
 70
     0
300
1/8" = 1'-0"
140
0.125
141
12.0
290
     0
  0
SCALE
  5
BC82
102
{ACAD_REACTORS
330
BC7A
102
}
330
BC7A
100
AcDbScale
 70
     0
300
3/16" = 1'-0"
140
0.1875
141
12.0
290
     0
  0
SCALE
  5
BC83
102
{ACAD_REACTORS
330
BC7A
102
}
330
BC7A
100
AcDbScale
 70
     0
300
1/4" = 1'-0"
140
0.25
141
12.0
290
     0
  0
SCALE
  5
BC84
102
{ACAD_REACTORS
330
BC7A
102
}
330
BC7A
100
AcDbScale
 70
     0
300
3/8" = 1'-0"
140
0.375
141
12.0
290
     0
  0
SCALE
  5
BC85
102
{ACAD_REACTORS
330
BC7A
102
}
330
BC7A
100
AcDbScale
 70
     0
300
1/2" = 1'-0"
140
0.5
141
12.0
290
     0
  0
SCALE
  5
BC86
102
{ACAD_REACTORS
330
BC7A
102
}
330
BC7A
100
AcDbScale
 70
     0
300
3/4" = 1'-0"
140
0.75
141
12.0
290
     0
  0
SCALE
  5
BC87
102
{ACAD_REACTORS
330
BC7A
102
}
330
BC7A
100
AcDbScale
 70
     0
300
1" = 1'-0"
140
1.0
141
12.0
290
     0
  0
SCALE
  5
BC88
102
{ACAD_REACTORS
330
BC7A
102
}
330
BC7A
100
AcDbScale
 70
     0
300
1-1/2" = 1'-0"
140
1.5
141
12.0
290
     0
  0
SCALE
  5
BC89
102
{ACAD_REACTORS
330
BC7A
102
}
330
BC7A
100
AcDbScale
 70
     0
300
3" = 1'-0"
140
3.0
141
12.0
290
     0
  0
SCALE
  5
BC8A
102
{ACAD_REACTORS
330
BC7A
102
}
330
BC7A
100
AcDbScale
 70
     0
300
6" = 1'-0"
140
6.0
141
12.0
290
     0
  0
SCALE
  5
BC8B
102
{ACAD_REACTORS
330
BC7A
102
}
330
BC7A
100
AcDbScale
 70
     0
300
1'-0" = 1'-0"
140
12.0
141
12.0
290
     0
  0
ACDBSECTIONVIEWSTYLE
  5
BC8F
102
{ACAD_XDICTIONARY
360
BCEA
102
}
102
{ACAD_REACTORS
330
BC8E
102
}
330
BC8E
100
AcDbModelDocViewStyle
 70
     0
  3
Imperial24
290
     0
100
AcDbSectionViewStyle
 70
     0
 71
     0
 90
       78
 71
     1
340
B7F5
 40
0.24
340
0
340
0
 40
0.24
300
I, O, Q, S, X, Z
 40
0.48
 90
        3
 40
0.18
 90
        1
 71
     2
340
B7F9
 90
       25
340
B7F9
 90
       50
 40
0.24
 40
0.0
 40
0.24
 71
     3
340
B7F5
 40
0.24
 90
        1
 40
0.75
 90
        1
300
%<\AcVar ViewType \f "%tc1">% %<\AcVar ViewSectionStartId>%-%<\AcVar ViewSectionEndId>%\PSCALE %<\AcVar ViewScale \f "%sn">%
 71
     4
300
ANSI31
 40
1.0
 90
        0
290
     0
290
     0
 90
        6
 40
0.0
 40
1.570796326794896
 40
0.2617993877991494
 40
1.308996938995747
 40
-0.2617993877991494
 40
1.832595714594046
  0
TABLESTYLE
  5
BC79
102
{ACAD_XDICTIONARY
360
BCB1
102
}
102
{ACAD_REACTORS
330
BC78
102
}
330
BC78
100
AcDbTableStyle
  3
Standard
 70
     0
 71
     0
 40
0.06
 41
0.06
280
     0
281
     0
  7
STANDARD
140
0.18
170
     2
 62
     0
 63
     7
283
     0
274
    -2
284
     1
 64
     0
275
    -2
285
     1
 65
     0
276
    -2
286
     1
 66
     0
277
    -2
287
     1
 67
     0
278
    -2
288
     1
 68
     0
279
    -2
289
     1
 69
     0
  7
STANDARD
140
0.25
170
     5
 62
     0
 63
     7
283
     0
274
    -2
284
     1
 64
     0
275
    -2
285
     1
 65
     0
276
    -2
286
     1
 66
     0
277
    -2
287
     1
 67
     0
278
    -2
288
     1
 68
     0
279
    -2
289
     1
 69
     0
  7
STANDARD
140
0.18
170
     5
 62
     0
 63
     7
283
     0
274
    -2
284
     1
 64
     0
275
    -2
285
     1
 65
     0
276
    -2
286
     1
 66
     0
277
    -2
287
     1
 67
     0
278
    -2
288
     1
 68
     0
279
    -2
289
     1
 69
     0
  0
VISUALSTYLE
  5
BC64
102
{ACAD_XDICTIONARY
360
BCC2
102
}
102
{ACAD_REACTORS
330
BC5E
102
}
330
BC5E
100
AcDbVisualStyle
  2
2dWireframe
 70
     4
 71
     0
 72
     2
 73
     0
 90
        0
 40
-0.6
 41
-30.0
 62
     5
 63
     7
 74
     1
 91
        4
 64
     7
 65
   257
 75
     1
175
     1
 42
1.0
 92
        0
 66
   257
 43
1.0
 76
     1
 77
     6
 78
     2
 67
     7
 79
     5
170
     0
171
     0
290
     0
174
     0
 93
        1
 44
0.0
173
     0
291
     0
 45
0.0
1001
ACAD
1000
AcDbSavedByObjectVersion
1070
     0
  0
VISUALSTYLE
  5
BC63
102
{ACAD_XDICTIONARY
360
BCC0
102
}
102
{ACAD_REACTORS
330
BC5E
102
}
330
BC5E
100
AcDbVisualStyle
  2
Basic
 70
     7
 71
     1
 72
     0
 73
     1
 90
        0
 40
-0.6
 41
-30.0
 62
     5
 63
     7
 74
     0
 91
        4
 64
     7
 65
   257
 75
     1
175
     1
 42
1.0
 92
        8
 66
     7
 43
1.0
 76
     1
 77
     6
 78
     2
 67
     7
 79
     5
170
     0
171
     0
290
     0
174
     0
 93
        1
 44
0.0
173
     0
291
     1
 45
0.0
1001
ACAD
1000
AcDbSavedByObjectVersion
1070
     0
  0
VISUALSTYLE
  5
BC6A
102
{ACAD_XDICTIONARY
360
BCCE
102
}
102
{ACAD_REACTORS
330
BC5E
102
}
330
BC5E
100
AcDbVisualStyle
  2
Brighten
 70
    12
 71
     2
 72
     2
 73
     0
 90
        0
 40
-0.6
 41
-30.0
 62
     5
 63
     7
 74
     1
 91
        4
 64
     7
 65
   257
 75
     1
175
     1
 42
1.0
 92
        8
 66
     7
 43
1.0
 76
     1
 77
     6
 78
     2
 67
     7
 79
     5
170
     0
171
     0
290
     0
174
     0
 93
        1
 44
50.0
173
     0
291
     1
 45
0.0
1001
ACAD
1000
AcDbSavedByObjectVersion
1070
     0
  0
VISUALSTYLE
  5
BC6E
102
{ACAD_XDICTIONARY
360
BCD6
102
}
102
{ACAD_REACTORS
330
BC5E
102
}
330
BC5E
100
AcDbVisualStyle
  2
ColorChange
 70
    16
 71
     2
 72
     2
 73
     3
 90
        0
 40
-0.6
 41
-30.0
 62
     5
 63
     8
 74
     1
 91
        4
 64
     7
 65
   257
 75
     1
175
     1
 42
1.0
 92
        8
 66
     8
 43
1.0
 76
     1
 77
     6
 78
     2
 67
     7
 79
     5
170
     0
171
     0
290
     0
174
     0
 93
        1
 44
0.0
173
     0
291
     1
 45
0.0
1001
ACAD
1000
AcDbSavedByObjectVersion
1070
     0
  0
VISUALSTYLE
  5
BC67
102
{ACAD_XDICTIONARY
360
BCC8
102
}
102
{ACAD_REACTORS
330
BC5E
102
}
330
BC5E
100
AcDbVisualStyle
  2
Conceptual
 70
     9
 71
     3
 72
     2
 73
     0
 90
        0
 40
-0.6
 41
-30.0
 62
     5
 63
     7
 74
     2
 91
        2
 64
     7
 65
   257
 75
     1
175
     1
 42
179.0
 92
        8
 66
     7
 43
1.0
 76
     1
 77
     6
 78
     2
 67
     7
 79
     3
170
     0
171
     0
290
     0
174
     0
 93
        1
 44
0.0
173
     0
291
     0
 45
0.0
1001
ACAD
1000
AcDbSavedByObjectVersion
1070
     0
  0
VISUALSTYLE
  5
BC69
102
{ACAD_XDICTIONARY
360
BCCC
102
}
102
{ACAD_REACTORS
330
BC5E
102
}
330
BC5E
100
AcDbVisualStyle
  2
Dim
 70
    11
 71
     2
 72
     2
 73
     0
 90
        0
 40
-0.6
 41
-30.0
 62
     5
 63
     7
 74
     1
 91
        4
 64
     7
 65
   257
 75
     1
175
     1
 42
1.0
 92
        8
 66
     7
 43
1.0
 76
     1
 77
     6
 78
     2
 67
     7
 79
     5
170
     0
171
     0
290
     0
174
     0
 93
        1
 44
-50.0
173
     0
291
     1
 45
0.0
1001
ACAD
1000
AcDbSavedByObjectVersion
1070
     0
  0
VISUALSTYLE
  5
BC76
102
{ACAD_XDICTIONARY
360
BCE6
102
}
102
{ACAD_REACTORS
330
BC5E
102
}
330
BC5E
100
AcDbVisualStyle
  2
EdgeColorOff
 70
    22
 71
     2
 72
     2
 73
     0
 90
        0
 40
-0.6
 41
-30.0
 62
     5
 63
     7
 74
     1
 91
        4
 64
     7
 65
   257
 75
     1
175
     1
 42
1.0
 92
        8
 66
     7
 43
1.0
 76
     1
 77
     6
 78
     2
 67
     7
 79
     5
170
     0
171
     0
290
     0
174
     0
 93
        1
 44
0.0
173
     0
291
     1
 45
0.0
1001
ACAD
1000
AcDbSavedByObjectVersion
1070
     0
  0
VISUALSTYLE
  5
BC6D
102
{ACAD_XDICTIONARY
360
BCD4
102
}
102
{ACAD_REACTORS
330
BC5E
102
}
330
BC5E
100
AcDbVisualStyle
  2
Facepattern
 70
    15
 71
     2
 72
     2
 73
     0
 90
        0
 40
-0.6
 41
-30.0
 62
     5
 63
     7
 74
     1
 91
        4
 64
     7
 65
   257
 75
     1
175
     1
 42
1.0
 92
        8
 66
     7
 43
1.0
 76
     1
 77
     6
 78
     2
 67
     7
 79
     5
170
     0
171
     0
290
     0
174
     0
 93
        1
 44
0.0
173
     0
291
     1
 45
0.0
1001
ACAD
1000
AcDbSavedByObjectVersion
1070
     0
  0
VISUALSTYLE
  5
BC5F
102
{ACAD_XDICTIONARY
360
BCB8
102
}
102
{ACAD_REACTORS
330
BC5E
102
}
330
BC5E
100
AcDbVisualStyle
  2
Flat
 70
     0
 71
     2
 72
     1
 73
     1
 90
        2
 40
-0.6
 41
30.0
 62
     5
 63
     7
 74
     0
 91
        0
 64
     7
 65
   257
 75
     1
175
     1
 42
1.0
 92
        8
 66
     7
 43
1.0
 76
     1
 77
     6
 78
     2
 67
     7
 79
     5
170
     0
171
     0
290
     0
174
     0
 93
       13
 44
0.0
173
     0
291
     1
 45
0.0
1001
ACAD
1000
AcDbSavedByObjectVersion
1070
     0
  0
VISUALSTYLE
  5
BC60
102
{ACAD_XDICTIONARY
360
BCBA
102
}
102
{ACAD_REACTORS
330
BC5E
102
}
330
BC5E
100
AcDbVisualStyle
  2
FlatWithEdges
 70
     1
 71
     2
 72
     1
 73
     1
 90
        2
 40
-0.6
 41
30.0
 62
     5
 63
     7
 74
     1
 91
        0
 64
     7
 65
   257
 75
     1
175
     1
 42
1.0
 92
        0
 66
   257
 43
1.0
 76
     1
 77
     6
 78
     2
 67
     7
 79
     5
170
     0
171
     0
290
     0
174
     0
 93
       13
 44
0.0
173
     0
291
     1
 45
0.0
1001
ACAD
1000
AcDbSavedByObjectVersion
1070
     0
  0
VISUALSTYLE
  5
BC61
102
{ACAD_XDICTIONARY
360
BCBC
102
}
102
{ACAD_REACTORS
330
BC5E
102
}
330
BC5E
100
AcDbVisualStyle
  2
Gouraud
 70
     2
 71
     2
 72
     2
 73
     1
 90
        2
 40
-0.6
 41
30.0
 62
     5
 63
     7
 74
     0
 91
        0
 64
     7
 65
   257
 75
     1
175
     1
 42
1.0
 92
        0
 66
     7
 43
1.0
 76
     1
 77
     6
 78
     2
 67
     7
 79
     5
170
     0
171
     0
290
     0
174
     0
 93
       13
 44
0.0
173
     0
291
     1
 45
0.0
1001
ACAD
1000
AcDbSavedByObjectVersion
1070
     0
  0
VISUALSTYLE
  5
BC62
102
{ACAD_XDICTIONARY
360
BCBE
102
}
102
{ACAD_REACTORS
330
BC5E
102
}
330
BC5E
100
AcDbVisualStyle
  2
GouraudWithEdges
 70
     3
 71
     2
 72
     2
 73
     1
 90
        2
 40
-0.6
 41
30.0
 62
     5
 63
     7
 74
     1
 91
        0
 64
     7
 65
   257
 75
     1
175
     1
 42
1.0
 92
        0
 66
   257
 43
1.0
 76
     1
 77
     6
 78
     2
 67
     7
 79
     5
170
     0
171
     0
290
     0
174
     0
 93
       13
 44
0.0
173
     0
291
     1
 45
0.0
1001
ACAD
1000
AcDbSavedByObjectVersion
1070
     0
  0
VISUALSTYLE
  5
BC66
102
{ACAD_XDICTIONARY
360
BCC6
102
}
102
{ACAD_REACTORS
330
BC5E
102
}
330
BC5E
100
AcDbVisualStyle
  2
Hidden
 70
     6
 71
     1
 72
     2
 73
     2
 90
        0
 40
-0.6
 41
-30.0
 62
     5
 63
     7
 74
     2
 91
        2
 64
     7
 65
   257
 75
     2
175
     1
 42
40.0
 92
        0
 66
   257
 43
1.0
 76
     1
 77
     6
 78
     2
 67
     7
 79
     3
170
     0
171
     0
290
     0
174
     0
 93
        1
 44
0.0
173
     0
291
     0
 45
0.0
1001
ACAD
1000
AcDbSavedByObjectVersion
1070
     0
  0
VISUALSTYLE
  5
BC74
102
{ACAD_XDICTIONARY
360
BCE2
102
}
102
{ACAD_REACTORS
330
BC5E
102
}
330
BC5E
100
AcDbVisualStyle
  2
JitterOff
 70
    20
 71
     2
 72
     2
 73
     0
 90
        0
 40
-0.6
 41
-30.0
 62
     5
 63
     7
 74
     1
 91
        4
 64
     7
 65
   257
 75
     1
175
     1
 42
1.0
 92
       10
 66
     7
 43
1.0
 76
     1
 77
     6
 78
     2
 67
     7
 79
     5
170
     0
171
     0
290
     0
174
     0
 93
        1
 44
0.0
173
     0
291
     1
 45
0.0
1001
ACAD
1000
AcDbSavedByObjectVersion
1070
     0
  0
VISUALSTYLE
  5
BC6C
102
{ACAD_XDICTIONARY
360
BCD2
102
}
102
{ACAD_REACTORS
330
BC5E
102
}
330
BC5E
100
AcDbVisualStyle
  2
Linepattern
 70
    14
 71
     2
 72
     2
 73
     0
 90
        0
 40
-0.6
 41
-30.0
 62
     5
 63
     7
 74
     1
 91
        4
 64
     7
 65
   257
 75
     7
175
     7
 42
1.0
 92
        8
 66
     7
 43
1.0
 76
     1
 77
     6
 78
     2
 67
     7
 79
     5
170
     0
171
     0
290
     0
174
     0
 93
        1
 44
0.0
173
     0
291
     1
 45
0.0
1001
ACAD
1000
AcDbSavedByObjectVersion
1070
     0
  0
VISUALSTYLE
  5
BC75
102
{ACAD_XDICTIONARY
360
BCE4
102
}
102
{ACAD_REACTORS
330
BC5E
102
}
330
BC5E
100
AcDbVisualStyle
  2
OverhangOff
 70
    21
 71
     2
 72
     2
 73
     0
 90
        0
 40
-0.6
 41
-30.0
 62
     5
 63
     7
 74
     1
 91
        4
 64
     7
 65
   257
 75
     1
175
     1
 42
1.0
 92
        9
 66
     7
 43
1.0
 76
     1
 77
     6
 78
     2
 67
     7
 79
     5
170
     0
171
     0
290
     0
174
     0
 93
        1
 44
0.0
173
     0
291
     1
 45
0.0
1001
ACAD
1000
AcDbSavedByObjectVersion
1070
     0
  0
VISUALSTYLE
  5
BC68
102
{ACAD_XDICTIONARY
360
BCCA
102
}
102
{ACAD_REACTORS
330
BC5E
102
}
330
BC5E
100
AcDbVisualStyle
  2
Realistic
 70
     8
 71
     2
 72
     3
 73
     0
 90
        2
 40
-0.6
 41
30.0
 62
     5
 63
     7
 74
     0
 91
        0
 64
     7
 65
   257
 75
     1
175
     1
 42
1.0
 92
        8
 66
   257
 43
1.0
 76
     1
 77
     6
 78
     2
 67
     7
 79
     3
170
     0
171
     0
290
     0
174
     0
 93
       13
 44
0.0
173
     0
291
     0
 45
0.0
1001
ACAD
1000
AcDbSavedByObjectVersion
1070
     0
  0
VISUALSTYLE
  5
BC73
102
{ACAD_XDICTIONARY
360
BCE0
102
}
102
{ACAD_REACTORS
330
BC5E
102
}
330
BC5E
100
AcDbVisualStyle
  2
Shaded
 70
    27
 71
     2
 72
     2
 73
     1
 90
        2
 40
-0.6
 41
30.0
 62
     5
 63
     7
 74
     0
 91
        4
 64
     7
 65
   257
 75
     1
175
     1
 42
1.0
 92
        8
 66
   257
 43
1.0
 76
     1
 77
     6
 78
     2
 67
     8
 79
     3
170
     0
171
     0
290
     0
174
     0
 93
        5
 44
0.0
173
     0
291
     0
 45
0.0
1001
ACAD
1000
AcDbSavedByObjectVersion
1070
     0
  0
VISUALSTYLE
  5
BC72
102
{ACAD_XDICTIONARY
360
BCDE
102
}
102
{ACAD_REACTORS
330
BC5E
102
}
330
BC5E
100
AcDbVisualStyle
  2
Shaded with edges
 70
    26
 71
     2
 72
     2
 73
     1
 90
        2
 40
-0.6
 41
30.0
 62
     5
 63
     7
 74
     1
 91
       10
 64
     7
 65
   257
 75
     2
175
     1
 42
1.0
 92
        8
 66
   257
 43
1.0
 76
     1
 77
     6
 78
     2
 67
     7
 79
     3
170
     0
171
     0
290
     0
174
     0
 93
        5
 44
0.0
173
     0
291
     0
 45
0.0
1001
ACAD
1000
AcDbSavedByObjectVersion
1070
     0
  0
VISUALSTYLE
  5
BC6F
102
{ACAD_XDICTIONARY
360
BCD8
102
}
102
{ACAD_REACTORS
330
BC5E
102
}
330
BC5E
100
AcDbVisualStyle
  2
Shades of Gray
 70
    23
 71
     2
 72
     2
 73
     3
 90
        0
 40
-0.6
 41
-30.0
 62
     5
 63
     7
 74
     2
 91
        2
 64
     7
 65
     7
 75
     1
175
     1
 42
40.0
 92
        8
 66
     7
 43
1.0
 76
     1
 77
     6
 78
     2
 67
     7
 79
     3
170
     0
171
     0
290
     0
174
     0
 93
        1
 44
0.0
173
     0
291
     0
 45
0.0
1001
ACAD
1000
AcDbSavedByObjectVersion
1070
     0
  0
VISUALSTYLE
  5
BC70
102
{ACAD_XDICTIONARY
360
BCDA
102
}
102
{ACAD_REACTORS
330
BC5E
102
}
330
BC5E
100
AcDbVisualStyle
  2
Sketchy
 70
    24
 71
     1
 72
     2
 73
     2
 90
        0
 40
-0.6
 41
-30.0
 62
     5
 63
     7
 74
     2
 91
        2
 64
     7
 65
     7
 75
     1
175
     1
 42
40.0
 92
       11
 66
     7
 43
1.0
 76
     1
 77
     6
 78
     2
 67
     7
 79
     6
170
     0
171
     0
290
     0
174
     0
 93
        1
 44
0.0
173
     0
291
     0
 45
0.0
1001
ACAD
1000
AcDbSavedByObjectVersion
1070
     0
  0
VISUALSTYLE
  5
BC6B
102
{ACAD_XDICTIONARY
360
BCD0
102
}
102
{ACAD_REACTORS
330
BC5E
102
}
330
BC5E
100
AcDbVisualStyle
  2
Thicken
 70
    13
 71
     2
 72
     2
 73
     0
 90
        0
 40
-0.6
 41
-30.0
 62
     5
 63
     7
 74
     1
 91
        4
 64
     7
 65
   257
 75
     1
175
     1
 42
1.0
 92
       12
 66
     7
 43
1.0
 76
     1
 77
     6
 78
     2
 67
     7
 79
     5
170
     0
171
     0
290
     0
174
     0
 93
        1
 44
0.0
173
     0
291
     1
 45
0.0
1001
ACAD
1000
AcDbSavedByObjectVersion
1070
     0
  0
VISUALSTYLE
  5
BC65
102
{ACAD_XDICTIONARY
360
BCC4
102
}
102
{ACAD_REACTORS
330
BC5E
102
}
330
BC5E
100
AcDbVisualStyle
  2
Wireframe
 70
     5
 71
     0
 72
     2
 73
     0
 90
        0
 40
-0.6
 41
-30.0
 62
     5
 63
     7
 74
     1
 91
        4
 64
     7
 65
   257
 75
     1
175
     1
 42
1.0
 92
        0
 66
   257
 43
1.0
 76
     1
 77
     6
 78
     2
 67
     7
 79
     3
170
     0
171
     0
290
     0
174
     0
 93
        1
 44
0.0
173
     0
291
     0
 45
0.0
1001
ACAD
1000
AcDbSavedByObjectVersion
1070
     0
  0
VISUALSTYLE
  5
BC71
102
{ACAD_XDICTIONARY
360
BCDC
102
}
102
{ACAD_REACTORS
330
BC5E
102
}
330
BC5E
100
AcDbVisualStyle
  2
X-Ray
 70
    25
 71
     2
 72
     2
 73
     1
 90
        1
 40
0.5
 41
-30.0
 62
     5
 63
     7
 74
     1
 91
        0
 64
     7
 65
   257
 75
     1
175
     1
 42
1.0
 92
        8
 66
     7
 43
1.0
 76
     1
 77
     6
 78
     2
 67
     7
 79
     3
170
     0
171
     0
290
     0
174
     0
 93
       13
 44
0.0
173
     0
291
     0
 45
0.0
1001
ACAD
1000
AcDbSavedByObjectVersion
1070
     0
  0
DICTIONARYVAR
  5
BCAB
102
{ACAD_REACTORS
330
BCA6
102
}
330
BCA6
100
DictionaryVariables
280
     0
  1
1:1
  0
DICTIONARYVAR
  5
BCA8
102
{ACAD_REACTORS
330
BCA6
102
}
330
BCA6
100
DictionaryVariables
280
     0
  1
STANDARD
  0
DICTIONARYVAR
  5
BCA7
102
{ACAD_REACTORS
330
BCA6
102
}
330
BCA6
100
DictionaryVariables
280
     0
  1
STANDARD
  0
DICTIONARYVAR
  5
BCA9
102
{ACAD_REACTORS
330
BCA6
102
}
330
BCA6
100
DictionaryVariables
280
     0
  1
Imperial24
  0
DICTIONARYVAR
  5
BCAA
102
{ACAD_REACTORS
330
BCA6
102
}
330
BCA6
100
DictionaryVariables
280
     0
  1
Imperial24
  0
DICTIONARYVAR
  5
BCAE
102
{ACAD_REACTORS
330
BCA6
102
}
330
BCA6
100
DictionaryVariables
280
     0
  1
1
  0
DICTIONARYVAR
  5
BCAD
102
{ACAD_REACTORS
330
BCA6
102
}
330
BCA6
100
DictionaryVariables
280
     0
  1
0
  0
DICTIONARYVAR
  5
BCAC
102
{ACAD_REACTORS
330
BCA6
102
}
330
BCA6
100
DictionaryVariables
280
     0
  1
127
  0
DICTIONARYVAR
  5
BCAF
102
{ACAD_REACTORS
330
BCA6
102
}
330
BCA6
100
DictionaryVariables
280
     0
  1
2
  0
DICTIONARY
  5
BCEC
330
BC91
100
AcDbDictionary
280
     1
281
     1
  3
ACAD_XREC_ROUNDTRIP
360
BCED
  0
DICTIONARY
  5
BCEE
330
BC92
100
AcDbDictionary
280
     1
281
     1
  3
ACAD_XREC_ROUNDTRIP
360
BCEF
  0
DICTIONARY
  5
BCF0
330
BC93
100
AcDbDictionary
280
     1
281
     1
  3
ACAD_XREC_ROUNDTRIP
360
BCF1
  0
DICTIONARY
  5
BC4F
330
BC4E
100
AcDbDictionary
280
     1
281
     1
  3
ACAD_XREC_ROUNDTRIP
360
BCB6
  3
BUMPTILE
360
BC51
  3
DIFFUSETILE
360
BC50
  3
OPACITYTILE
360
BC54
  3
REFLECTIONTILE
360
BC53
  3
REFRACTIONTILE
360
BC55
  3
SPECULARTILE
360
BC52
  0
DICTIONARY
  5
BC47
330
BC46
100
AcDbDictionary
280
     1
281
     1
  3
ACAD_XREC_ROUNDTRIP
360
BCB5
  3
BUMPTILE
360
BC49
  3
DIFFUSETILE
360
BC48
  3
OPACITYTILE
360
BC4C
  3
REFLECTIONTILE
360
BC4B
  3
REFRACTIONTILE
360
BC4D
  3
SPECULARTILE
360
BC4A
  0
DICTIONARY
  5
BC57
330
BC56
100
AcDbDictionary
280
     1
281
     1
  3
ACAD_XREC_ROUNDTRIP
360
BCB7
  3
BUMPTILE
360
BC59
  3
DIFFUSETILE
360
BC58
  3
OPACITYTILE
360
BC5C
  3
REFLECTIONTILE
360
BC5B
  3
REFRACTIONTILE
360
BC5D
  3
SPECULARTILE
360
BC5A
  0
DICTIONARY
  5
BCEA
330
BC8F
100
AcDbDictionary
280
     1
281
     1
  3
ACAD_XREC_ROUNDTRIP
360
BCEB
  0
DICTIONARY
  5
BCB1
330
BC79
100
AcDbDictionary
280
     1
281
     1
  3
ACAD_ROUNDTRIP_2008_TABLESTYLE_CELLSTYLEMAP
360
BCB2
  3
ACAD_XREC_ROUNDTRIP
360
BCE8
  0
DICTIONARY
  5
BCC2
330
BC64
100
AcDbDictionary
280
     1
281
     1
  3
ACAD_XREC_ROUNDTRIP
360
BCC3
  0
DICTIONARY
  5
BCC0
330
BC63
100
AcDbDictionary
280
     1
281
     1
  3
ACAD_XREC_ROUNDTRIP
360
BCC1
  0
DICTIONARY
  5
BCCE
330
BC6A
100
AcDbDictionary
280
     1
281
     1
  3
ACAD_XREC_ROUNDTRIP
360
BCCF
  0
DICTIONARY
  5
BCD6
330
BC6E
100
AcDbDictionary
280
     1
281
     1
  3
ACAD_XREC_ROUNDTRIP
360
BCD7
  0
DICTIONARY
  5
BCC8
330
BC67
100
AcDbDictionary
280
     1
281
     1
  3
ACAD_XREC_ROUNDTRIP
360
BCC9
  0
DICTIONARY
  5
BCCC
330
BC69
100
AcDbDictionary
280
     1
281
     1
  3
ACAD_XREC_ROUNDTRIP
360
BCCD
  0
DICTIONARY
  5
BCE6
330
BC76
100
AcDbDictionary
280
     1
281
     1
  3
ACAD_XREC_ROUNDTRIP
360
BCE7
  0
DICTIONARY
  5
BCD4
330
BC6D
100
AcDbDictionary
280
     1
281
     1
  3
ACAD_XREC_ROUNDTRIP
360
BCD5
  0
DICTIONARY
  5
BCB8
330
BC5F
100
AcDbDictionary
280
     1
281
     1
  3
ACAD_XREC_ROUNDTRIP
360
BCB9
  0
DICTIONARY
  5
BCBA
330
BC60
100
AcDbDictionary
280
     1
281
     1
  3
ACAD_XREC_ROUNDTRIP
360
BCBB
  0
DICTIONARY
  5
BCBC
330
BC61
100
AcDbDictionary
280
     1
281
     1
  3
ACAD_XREC_ROUNDTRIP
360
BCBD
  0
DICTIONARY
  5
BCBE
330
BC62
100
AcDbDictionary
280
     1
281
     1
  3
ACAD_XREC_ROUNDTRIP
360
BCBF
  0
DICTIONARY
  5
BCC6
330
BC66
100
AcDbDictionary
280
     1
281
     1
  3
ACAD_XREC_ROUNDTRIP
360
BCC7
  0
DICTIONARY
  5
BCE2
330
BC74
100
AcDbDictionary
280
     1
281
     1
  3
ACAD_XREC_ROUNDTRIP
360
BCE3
  0
DICTIONARY
  5
BCD2
330
BC6C
100
AcDbDictionary
280
     1
281
     1
  3
ACAD_XREC_ROUNDTRIP
360
BCD3
  0
DICTIONARY
  5
BCE4
330
BC75
100
AcDbDictionary
280
     1
281
     1
  3
ACAD_XREC_ROUNDTRIP
360
BCE5
  0
DICTIONARY
  5
BCCA
330
BC68
100
AcDbDictionary
280
     1
281
     1
  3
ACAD_XREC_ROUNDTRIP
360
BCCB
  0
DICTIONARY
  5
BCE0
330
BC73
100
AcDbDictionary
280
     1
281
     1
  3
ACAD_XREC_ROUNDTRIP
360
BCE1
  0
DICTIONARY
  5
BCDE
330
BC72
100
AcDbDictionary
280
     1
281
     1
  3
ACAD_XREC_ROUNDTRIP
360
BCDF
  0
DICTIONARY
  5
BCD8
330
BC6F
100
AcDbDictionary
280
     1
281
     1
  3
ACAD_XREC_ROUNDTRIP
360
BCD9
  0
DICTIONARY
  5
BCDA
330
BC70
100
AcDbDictionary
280
     1
281
     1
  3
ACAD_XREC_ROUNDTRIP
360
BCDB
  0
DICTIONARY
  5
BCD0
330
BC6B
100
AcDbDictionary
280
     1
281
     1
  3
ACAD_XREC_ROUNDTRIP
360
BCD1
  0
DICTIONARY
  5
BCC4
330
BC65
100
AcDbDictionary
280
     1
281
     1
  3
ACAD_XREC_ROUNDTRIP
360
BCC5
  0
DICTIONARY
  5
BCDC
330
BC71
100
AcDbDictionary
280
     1
281
     1
  3
ACAD_XREC_ROUNDTRIP
360
BCDD
  0
XRECORD
  5
BCED
102
{ACAD_REACTORS
330
BCEC
102
}
330
BCEC
100
AcDbXrecord
280
     1
102
DISPLAYNAME
  1
Imperial24
102
FLAGS
 90
        0
  0
XRECORD
  5
BCEF
102
{ACAD_REACTORS
330
BCEE
102
}
330
BCEE
100
AcDbXrecord
280
     1
102
SHADEPLOT
 70
     0
102
SHADEPLOTRESLEVEL
 70
     2
102
SHADEPLOTCUSTOMDPI
 70
   300
  0
XRECORD
  5
BCF1
102
{ACAD_REACTORS
330
BCF0
102
}
330
BCF0
100
AcDbXrecord
280
     1
102
SHADEPLOT
 70
     0
102
SHADEPLOTRESLEVEL
 70
     2
102
SHADEPLOTCUSTOMDPI
 70
   300
  0
XRECORD
  5
BCB6
102
{ACAD_REACTORS
330
BC4F
102
}
330
BC4F
100
AcDbXrecord
280
     1
102
MATERIAL
148
0.0
149
0.0
149
0.0
 93
        0
 94
      127
282
     0
 72
     0
 77
     0
171
     0
175
     0
179
     0
273
     0
  0
XRECORD
  5
BC51
102
{ACAD_REACTORS
330
BC4F
102
}
330
BC4F
100
AcDbXrecord
280
     1
270
     1
271
     1
  0
XRECORD
  5
BC50
102
{ACAD_REACTORS
330
BC4F
102
}
330
BC4F
100
AcDbXrecord
280
     1
270
     1
271
     1
  0
XRECORD
  5
BC54
102
{ACAD_REACTORS
330
BC4F
102
}
330
BC4F
100
AcDbXrecord
280
     1
270
     1
271
     1
  0
XRECORD
  5
BC53
102
{ACAD_REACTORS
330
BC4F
102
}
330
BC4F
100
AcDbXrecord
280
     1
270
     1
271
     1
  0
XRECORD
  5
BC55
102
{ACAD_REACTORS
330
BC4F
102
}
330
BC4F
100
AcDbXrecord
280
     1
270
     1
271
     1
  0
XRECORD
  5
BC52
102
{ACAD_REACTORS
330
BC4F
102
}
330
BC4F
100
AcDbXrecord
280
     1
270
     1
271
     1
  0
XRECORD
  5
BCB5
102
{ACAD_REACTORS
330
BC47
102
}
330
BC47
100
AcDbXrecord
280
     1
102
MATERIAL
148
0.0
149
0.0
149
0.0
 93
        0
 94
      127
282
     0
 72
     0
 77
     0
171
     0
175
     0
179
     0
273
     0
  0
XRECORD
  5
BC49
102
{ACAD_REACTORS
330
BC47
102
}
330
BC47
100
AcDbXrecord
280
     1
270
     1
271
     1
  0
XRECORD
  5
BC48
102
{ACAD_REACTORS
330
BC47
102
}
330
BC47
100
AcDbXrecord
280
     1
270
     1
271
     1
  0
XRECORD
  5
BC4C
102
{ACAD_REACTORS
330
BC47
102
}
330
BC47
100
AcDbXrecord
280
     1
270
     1
271
     1
  0
XRECORD
  5
BC4B
102
{ACAD_REACTORS
330
BC47
102
}
330
BC47
100
AcDbXrecord
280
     1
270
     1
271
     1
  0
XRECORD
  5
BC4D
102
{ACAD_REACTORS
330
BC47
102
}
330
BC47
100
AcDbXrecord
280
     1
270
     1
271
     1
  0
XRECORD
  5
BC4A
102
{ACAD_REACTORS
330
BC47
102
}
330
BC47
100
AcDbXrecord
280
     1
270
     1
271
     1
  0
XRECORD
  5
BCB7
102
{ACAD_REACTORS
330
BC57
102
}
330
BC57
100
AcDbXrecord
280
     1
102
MATERIAL
148
0.0
149
0.0
149
0.0
 93
        0
 94
      127
282
     0
 72
     0
 77
     0
171
     0
175
     0
179
     0
273
     0
  0
XRECORD
  5
BC59
102
{ACAD_REACTORS
330
BC57
102
}
330
BC57
100
AcDbXrecord
280
     1
270
     1
271
     1
  0
XRECORD
  5
BC58
102
{ACAD_REACTORS
330
BC57
102
}
330
BC57
100
AcDbXrecord
280
     1
270
     1
271
     1
  0
XRECORD
  5
BC5C
102
{ACAD_REACTORS
330
BC57
102
}
330
BC57
100
AcDbXrecord
280
     1
270
     1
271
     1
  0
XRECORD
  5
BC5B
102
{ACAD_REACTORS
330
BC57
102
}
330
BC57
100
AcDbXrecord
280
     1
270
     1
271
     1
  0
XRECORD
  5
BC5D
102
{ACAD_REACTORS
330
BC57
102
}
330
BC57
100
AcDbXrecord
280
     1
270
     1
271
     1
  0
XRECORD
  5
BC5A
102
{ACAD_REACTORS
330
BC57
102
}
330
BC57
100
AcDbXrecord
280
     1
270
     1
271
     1
  0
XRECORD
  5
BCEB
102
{ACAD_REACTORS
330
BCEA
102
}
330
BCEA
100
AcDbXrecord
280
     1
102
DISPLAYNAME
  1
Imperial24
102
FLAGS
 90
        0
  0
CELLSTYLEMAP
  5
BCB2
102
{ACAD_REACTORS
330
BCB1
102
}
330
BCB1
100
AcDbCellStyleMap
 90
        3
300
CELLSTYLE
  1
TABLEFORMAT_BEGIN
 90
        5
170
     1
 91
        0
 92
    32768
 62
   257
 93
        1
300
CONTENTFORMAT
  1
CONTENTFORMAT_BEGIN
 90
        0
 91
        0
 92
      512
 93
        0
300

 40
0.0
140
1.0
 94
        5
 62
     0
340
B7F5
144
0.25
309
CONTENTFORMAT_END
171
     0
 94
        0
309
TABLEFORMAT_END
  1
CELLSTYLE_BEGIN
 90
        1
 91
        1
300
_TITLE
309
CELLSTYLE_END
300
CELLSTYLE
  1
TABLEFORMAT_BEGIN
 90
        5
170
     1
 91
        0
 92
        0
 62
   257
 93
        1
300
CONTENTFORMAT
  1
CONTENTFORMAT_BEGIN
 90
        0
 91
        0
 92
      512
 93
        0
300

 40
0.0
140
1.0
 94
        5
 62
     0
340
B7F5
144
0.18
309
CONTENTFORMAT_END
171
     0
 94
        0
309
TABLEFORMAT_END
  1
CELLSTYLE_BEGIN
 90
        2
 91
        1
300
_HEADER
309
CELLSTYLE_END
300
CELLSTYLE
  1
TABLEFORMAT_BEGIN
 90
        5
170
     1
 91
        0
 92
        0
 62
   257
 93
        1
300
CONTENTFORMAT
  1
CONTENTFORMAT_BEGIN
 90
        0
 91
        0
 92
      512
 93
        0
300

 40
0.0
140
1.0
 94
        2
 62
     0
340
B7F5
144
0.18
309
CONTENTFORMAT_END
171
     0
 94
        0
309
TABLEFORMAT_END
  1
CELLSTYLE_BEGIN
 90
        3
 91
        2
300
_DATA
309
CELLSTYLE_END
  0
XRECORD
  5
BCE8
102
{ACAD_REACTORS
330
BCB1
102
}
330
BCB1
100
AcDbXrecord
280
     1
102
ACAD_ROUNDTRIP_PRE2007_TABLESTYLE
 90
      512
 91
        0
  1

 92
      512
 93
        0
  2

 94
      512
 95
        0
  3

  0
XRECORD
  5
BCC3
102
{ACAD_REACTORS
330
BCC2
102
}
330
BCC2
100
AcDbXrecord
280
     1
102
RTVSPost2010Prop28
280
     1
102
RTVSPost2010PropOp28
 70
     1
102
RTVSPost2010Prop29
280
     1
102
RTVSPost2010PropOp29
 70
     1
102
RTVSPost2010Prop30
280
     0
102
RTVSPost2010PropOp30
 70
     1
102
RTVSPost2010Prop31
280
     0
102
RTVSPost2010PropOp31
 70
     1
102
RTVSPost2010Prop32
280
     0
102
RTVSPost2010PropOp32
 70
     1
102
RTVSPost2010Prop33
280
     0
102
RTVSPost2010PropOp33
 70
     1
102
RTVSPost2010Prop34
280
     0
102
RTVSPost2010PropOp34
 70
     1
102
RTVSPost2010Prop35
280
     0
102
RTVSPost2010PropOp35
 70
     1
102
RTVSPost2010Prop36
280
     0
102
RTVSPost2010PropOp36
 70
     1
102
RTVSPost2010Prop37
 90
       50
102
RTVSPost2010PropOp37
 70
     1
102
RTVSPost2010Prop38
140
0.0
102
RTVSPost2010PropOp38
 70
     1
102
RTVSPost2010Prop39
140
1.0
102
RTVSPost2010PropOp39
 70
     1
102
RTVSPost2010Prop40
 90
        0
102
RTVSPost2010PropOp40
 70
     1
102
RTVSPost2010Prop41ColorIndex
 90
       18
102
RTVSPost2010Prop41ColorRGB
 90
        0
102
RTVSPost2010PropOp41
 70
     1
102
RTVSPost2010Prop42
 90
       50
102
RTVSPost2010PropOp42
 70
     1
102
RTVSPost2010Prop43
 90
        3
102
RTVSPost2010PropOp43
 70
     1
102
RTVSPost2010Prop44ColorIndex
 90
        5
102
RTVSPost2010Prop44ColorRGB
 90
      255
102
RTVSPost2010PropOp44
 70
     1
102
RTVSPost2010Prop45
280
     0
102
RTVSPost2010PropOp45
 70
     1
102
RTVSPost2010Prop46
 90
       50
102
RTVSPost2010PropOp46
 70
     1
102
RTVSPost2010Prop47
 90
       50
102
RTVSPost2010PropOp47
 70
     1
102
RTVSPost2010Prop48
 90
       50
102
RTVSPost2010PropOp48
 70
     1
102
RTVSPost2010Prop49
280
     0
102
RTVSPost2010PropOp49
 70
     1
102
RTVSPost2010Prop50
 90
       50
102
RTVSPost2010PropOp50
 70
     1
102
RTVSPost2010Prop51ColorIndex
 90
      256
102
RTVSPost2010Prop51ColorRGB
 90
-16777216
102
RTVSPost2010PropOp51
 70
     0
102
RTVSPost2010Prop52
140
1.0
102
RTVSPost2010PropOp52
 70
     0
102
RTVSPost2010Prop53
 90
        2
102
RTVSPost2010PropOp53
 70
     1
102
RTVSPost2010Prop54
  1
strokes_ogs.tif
102
RTVSPost2010PropOp54
 70
     1
102
RTVSPost2010Prop55
280
     0
102
RTVSPost2010PropOp55
 70
     1
102
RTVSPost2010Prop56
140
1.0
102
RTVSPost2010PropOp56
 70
     1
102
RTVSPost2010Prop57
140
1.0
102
RTVSPost2010PropOp57
 70
     1
102
RTVSPropertyOp0
 70
     1
102
RTVSPropertyOp1
 70
     1
102
RTVSPropertyOp2
 70
     1
102
RTVSPropertyOp3
 70
     1
102
RTVSPropertyOp4
 70
     1
102
RTVSPropertyOp5
 70
     1
102
RTVSPropertyOp6
 70
     1
102
RTVSPropertyOp7
 70
     1
102
RTVSPropertyOp8
 70
     1
102
RTVSPropertyOp9
 70
     1
102
RTVSPropertyOp10
 70
     1
102
RTVSPropertyOp11
 70
     1
102
RTVSPropertyOp12
 70
     1
102
RTVSPropertyOp13
 70
     1
102
RTVSPropertyOp14
 70
     1
102
RTVSPropertyOp15
 70
     1
102
RTVSPropertyOp16
 70
     1
102
RTVSPropertyOp17
 70
     1
102
RTVSPropertyOp18
 70
     1
102
RTVSPropertyOp19
 70
     1
102
RTVSPropertyOp20
 70
     1
102
RTVSPropertyOp21
 70
     1
102
RTVSPropertyOp22
 70
     1
102
RTVSPropertyOp23
 70
     1
102
RTVSPropertyOp24
 70
     1
102
RTVSPropertyOp25
 70
     1
102
RTVSPropertyOp26
 70
     1
102
RTVSPropertyOp27
 70
     1
102
RTVSPropertyOp28
 70
     1
102
RTVSPropertyOp29
 70
     1
102
RTVSPropertyOp30
 70
     1
102
RTVSPropertyOp31
 70
     1
102
RTVSPropertyOp32
 70
     1
102
RTVSPropertyOp33
 70
     1
102
RTVSPropertyOp34
 70
     1
102
RTVSPropertyOp35
 70
     1
102
RTVSPropertyOp36
 70
     1
102
RTVSPropertyOp37
 70
     1
102
RTVSPropertyOp38
 70
     1
102
RTVSPropertyOp39
 70
     1
102
RTVSPropertyOp40
 70
     1
102
RTVSPropertyOp41
 70
     1
102
RTVSPropertyOp42
 70
     1
102
RTVSPropertyOp43
 70
     1
102
RTVSPropertyOp44
 70
     1
102
RTVSPropertyOp45
 70
     1
102
RTVSPropertyOp46
 70
     1
102
RTVSPropertyOp47
 70
     1
102
RTVSPropertyOp48
 70
     1
102
RTVSPropertyOp49
 70
     1
102
RTVSPropertyOp50
 70
     1
102
RTVSPropertyOp51
 70
     0
102
RTVSPropertyOp52
 70
     0
102
RTVSPropertyOp53
 70
     1
102
RTVSPropertyOp54
 70
     1
102
RTVSPropertyOp55
 70
     1
102
RTVSPropertyOp56
 70
     1
102
RTVSPropertyOp57
 70
     1
102
RTVSPropertyOp58
 70
     1
102
RTVSPropertyOp59
 70
     1
102
RTVSPropertyOp60
 70
     1
102
RTVSPropertyOp61
 70
     1
102
RTVSPropertyOp62
 70
     1
  0
XRECORD
  5
BCC1
102
{ACAD_REACTORS
330
BCC0
102
}
330
BCC0
100
AcDbXrecord
280
     1
102
RTVSPost2010Prop28
280
     0
102
RTVSPost2010PropOp28
 70
     1
102
RTVSPost2010Prop29
280
     1
102
RTVSPost2010PropOp29
 70
     1
102
RTVSPost2010Prop30
280
     1
102
RTVSPost2010PropOp30
 70
     1
102
RTVSPost2010Prop31
280
     0
102
RTVSPost2010PropOp31
 70
     1
102
RTVSPost2010Prop32
280
     0
102
RTVSPost2010PropOp32
 70
     1
102
RTVSPost2010Prop33
280
     0
102
RTVSPost2010PropOp33
 70
     1
102
RTVSPost2010Prop34
280
     0
102
RTVSPost2010PropOp34
 70
     1
102
RTVSPost2010Prop35
280
     0
102
RTVSPost2010PropOp35
 70
     1
102
RTVSPost2010Prop36
280
     0
102
RTVSPost2010PropOp36
 70
     1
102
RTVSPost2010Prop37
 90
       50
102
RTVSPost2010PropOp37
 70
     1
102
RTVSPost2010Prop38
140
0.0
102
RTVSPost2010PropOp38
 70
     1
102
RTVSPost2010Prop39
140
1.0
102
RTVSPost2010PropOp39
 70
     1
102
RTVSPost2010Prop40
 90
        0
102
RTVSPost2010PropOp40
 70
     1
102
RTVSPost2010Prop41ColorIndex
 90
       18
102
RTVSPost2010Prop41ColorRGB
 90
        0
102
RTVSPost2010PropOp41
 70
     1
102
RTVSPost2010Prop42
 90
       50
102
RTVSPost2010PropOp42
 70
     1
102
RTVSPost2010Prop43
 90
        3
102
RTVSPost2010PropOp43
 70
     1
102
RTVSPost2010Prop44ColorIndex
 90
        5
102
RTVSPost2010Prop44ColorRGB
 90
      255
102
RTVSPost2010PropOp44
 70
     1
102
RTVSPost2010Prop45
280
     0
102
RTVSPost2010PropOp45
 70
     1
102
RTVSPost2010Prop46
 90
       50
102
RTVSPost2010PropOp46
 70
     1
102
RTVSPost2010Prop47
 90
       50
102
RTVSPost2010PropOp47
 70
     1
102
RTVSPost2010Prop48
 90
       50
102
RTVSPost2010PropOp48
 70
     1
102
RTVSPost2010Prop49
280
     0
102
RTVSPost2010PropOp49
 70
     1
102
RTVSPost2010Prop50
 90
       50
102
RTVSPost2010PropOp50
 70
     1
102
RTVSPost2010Prop51ColorIndex
 90
      256
102
RTVSPost2010Prop51ColorRGB
 90
-16777216
102
RTVSPost2010PropOp51
 70
     0
102
RTVSPost2010Prop52
140
1.0
102
RTVSPost2010PropOp52
 70
     0
102
RTVSPost2010Prop53
 90
        2
102
RTVSPost2010PropOp53
 70
     1
102
RTVSPost2010Prop54
  1
strokes_ogs.tif
102
RTVSPost2010PropOp54
 70
     1
102
RTVSPost2010Prop55
280
     0
102
RTVSPost2010PropOp55
 70
     1
102
RTVSPost2010Prop56
140
1.0
102
RTVSPost2010PropOp56
 70
     1
102
RTVSPost2010Prop57
140
1.0
102
RTVSPost2010PropOp57
 70
     1
102
RTVSPropertyOp0
 70
     1
102
RTVSPropertyOp1
 70
     1
102
RTVSPropertyOp2
 70
     1
102
RTVSPropertyOp3
 70
     1
102
RTVSPropertyOp4
 70
     1
102
RTVSPropertyOp5
 70
     1
102
RTVSPropertyOp6
 70
     1
102
RTVSPropertyOp7
 70
     1
102
RTVSPropertyOp8
 70
     1
102
RTVSPropertyOp9
 70
     1
102
RTVSPropertyOp10
 70
     1
102
RTVSPropertyOp11
 70
     1
102
RTVSPropertyOp12
 70
     1
102
RTVSPropertyOp13
 70
     1
102
RTVSPropertyOp14
 70
     1
102
RTVSPropertyOp15
 70
     1
102
RTVSPropertyOp16
 70
     1
102
RTVSPropertyOp17
 70
     1
102
RTVSPropertyOp18
 70
     1
102
RTVSPropertyOp19
 70
     1
102
RTVSPropertyOp20
 70
     1
102
RTVSPropertyOp21
 70
     1
102
RTVSPropertyOp22
 70
     1
102
RTVSPropertyOp23
 70
     1
102
RTVSPropertyOp24
 70
     1
102
RTVSPropertyOp25
 70
     1
102
RTVSPropertyOp26
 70
     1
102
RTVSPropertyOp27
 70
     1
102
RTVSPropertyOp28
 70
     1
102
RTVSPropertyOp29
 70
     1
102
RTVSPropertyOp30
 70
     1
102
RTVSPropertyOp31
 70
     1
102
RTVSPropertyOp32
 70
     1
102
RTVSPropertyOp33
 70
     1
102
RTVSPropertyOp34
 70
     1
102
RTVSPropertyOp35
 70
     1
102
RTVSPropertyOp36
 70
     1
102
RTVSPropertyOp37
 70
     1
102
RTVSPropertyOp38
 70
     1
102
RTVSPropertyOp39
 70
     1
102
RTVSPropertyOp40
 70
     1
102
RTVSPropertyOp41
 70
     1
102
RTVSPropertyOp42
 70
     1
102
RTVSPropertyOp43
 70
     1
102
RTVSPropertyOp44
 70
     1
102
RTVSPropertyOp45
 70
     1
102
RTVSPropertyOp46
 70
     1
102
RTVSPropertyOp47
 70
     1
102
RTVSPropertyOp48
 70
     1
102
RTVSPropertyOp49
 70
     1
102
RTVSPropertyOp50
 70
     1
102
RTVSPropertyOp51
 70
     0
102
RTVSPropertyOp52
 70
     0
102
RTVSPropertyOp53
 70
     1
102
RTVSPropertyOp54
 70
     1
102
RTVSPropertyOp55
 70
     1
102
RTVSPropertyOp56
 70
     1
102
RTVSPropertyOp57
 70
     1
102
RTVSPropertyOp58
 70
     1
102
RTVSPropertyOp59
 70
     1
102
RTVSPropertyOp60
 70
     1
102
RTVSPropertyOp61
 70
     1
102
RTVSPropertyOp62
 70
     1
  0
XRECORD
  5
BCCF
102
{ACAD_REACTORS
330
BCCE
102
}
330
BCCE
100
AcDbXrecord
280
     1
102
RTVSPost2010Prop28
280
     0
102
RTVSPost2010PropOp28
 70
     1
102
RTVSPost2010Prop29
280
     1
102
RTVSPost2010PropOp29
 70
     1
102
RTVSPost2010Prop30
280
     1
102
RTVSPost2010PropOp30
 70
     1
102
RTVSPost2010Prop31
280
     0
102
RTVSPost2010PropOp31
 70
     1
102
RTVSPost2010Prop32
280
     0
102
RTVSPost2010PropOp32
 70
     1
102
RTVSPost2010Prop33
280
     0
102
RTVSPost2010PropOp33
 70
     1
102
RTVSPost2010Prop34
280
     0
102
RTVSPost2010PropOp34
 70
     1
102
RTVSPost2010Prop35
280
     0
102
RTVSPost2010PropOp35
 70
     1
102
RTVSPost2010Prop36
280
     0
102
RTVSPost2010PropOp36
 70
     1
102
RTVSPost2010Prop37
 90
       50
102
RTVSPost2010PropOp37
 70
     1
102
RTVSPost2010Prop38
140
0.0
102
RTVSPost2010PropOp38
 70
     1
102
RTVSPost2010Prop39
140
1.0
102
RTVSPost2010PropOp39
 70
     1
102
RTVSPost2010Prop40
 90
        0
102
RTVSPost2010PropOp40
 70
     1
102
RTVSPost2010Prop41ColorIndex
 90
       18
102
RTVSPost2010Prop41ColorRGB
 90
        0
102
RTVSPost2010PropOp41
 70
     1
102
RTVSPost2010Prop42
 90
       50
102
RTVSPost2010PropOp42
 70
     1
102
RTVSPost2010Prop43
 90
        3
102
RTVSPost2010PropOp43
 70
     1
102
RTVSPost2010Prop44ColorIndex
 90
        5
102
RTVSPost2010Prop44ColorRGB
 90
      255
102
RTVSPost2010PropOp44
 70
     1
102
RTVSPost2010Prop45
280
     0
102
RTVSPost2010PropOp45
 70
     1
102
RTVSPost2010Prop46
 90
       50
102
RTVSPost2010PropOp46
 70
     1
102
RTVSPost2010Prop47
 90
       50
102
RTVSPost2010PropOp47
 70
     1
102
RTVSPost2010Prop48
 90
       50
102
RTVSPost2010PropOp48
 70
     1
102
RTVSPost2010Prop49
280
     0
102
RTVSPost2010PropOp49
 70
     1
102
RTVSPost2010Prop50
 90
       50
102
RTVSPost2010PropOp50
 70
     1
102
RTVSPost2010Prop51ColorIndex
 90
      256
102
RTVSPost2010Prop51ColorRGB
 90
-16777216
102
RTVSPost2010PropOp51
 70
     0
102
RTVSPost2010Prop52
140
1.0
102
RTVSPost2010PropOp52
 70
     0
102
RTVSPost2010Prop53
 90
        2
102
RTVSPost2010PropOp53
 70
     1
102
RTVSPost2010Prop54
  1
strokes_ogs.tif
102
RTVSPost2010PropOp54
 70
     1
102
RTVSPost2010Prop55
280
     0
102
RTVSPost2010PropOp55
 70
     1
102
RTVSPost2010Prop56
140
1.0
102
RTVSPost2010PropOp56
 70
     1
102
RTVSPost2010Prop57
140
1.0
102
RTVSPost2010PropOp57
 70
     1
102
RTVSPropertyOp0
 70
     1
102
RTVSPropertyOp1
 70
     1
102
RTVSPropertyOp2
 70
     1
102
RTVSPropertyOp3
 70
     1
102
RTVSPropertyOp4
 70
     1
102
RTVSPropertyOp5
 70
     1
102
RTVSPropertyOp6
 70
     1
102
RTVSPropertyOp7
 70
     1
102
RTVSPropertyOp8
 70
     1
102
RTVSPropertyOp9
 70
     1
102
RTVSPropertyOp10
 70
     1
102
RTVSPropertyOp11
 70
     1
102
RTVSPropertyOp12
 70
     1
102
RTVSPropertyOp13
 70
     1
102
RTVSPropertyOp14
 70
     1
102
RTVSPropertyOp15
 70
     1
102
RTVSPropertyOp16
 70
     1
102
RTVSPropertyOp17
 70
     1
102
RTVSPropertyOp18
 70
     1
102
RTVSPropertyOp19
 70
     1
102
RTVSPropertyOp20
 70
     1
102
RTVSPropertyOp21
 70
     1
102
RTVSPropertyOp22
 70
     1
102
RTVSPropertyOp23
 70
     1
102
RTVSPropertyOp24
 70
     1
102
RTVSPropertyOp25
 70
     1
102
RTVSPropertyOp26
 70
     1
102
RTVSPropertyOp27
 70
     1
102
RTVSPropertyOp28
 70
     1
102
RTVSPropertyOp29
 70
     1
102
RTVSPropertyOp30
 70
     1
102
RTVSPropertyOp31
 70
     1
102
RTVSPropertyOp32
 70
     1
102
RTVSPropertyOp33
 70
     1
102
RTVSPropertyOp34
 70
     1
102
RTVSPropertyOp35
 70
     1
102
RTVSPropertyOp36
 70
     1
102
RTVSPropertyOp37
 70
     1
102
RTVSPropertyOp38
 70
     1
102
RTVSPropertyOp39
 70
     1
102
RTVSPropertyOp40
 70
     1
102
RTVSPropertyOp41
 70
     1
102
RTVSPropertyOp42
 70
     1
102
RTVSPropertyOp43
 70
     1
102
RTVSPropertyOp44
 70
     1
102
RTVSPropertyOp45
 70
     1
102
RTVSPropertyOp46
 70
     1
102
RTVSPropertyOp47
 70
     1
102
RTVSPropertyOp48
 70
     1
102
RTVSPropertyOp49
 70
     1
102
RTVSPropertyOp50
 70
     1
102
RTVSPropertyOp51
 70
     0
102
RTVSPropertyOp52
 70
     0
102
RTVSPropertyOp53
 70
     1
102
RTVSPropertyOp54
 70
     1
102
RTVSPropertyOp55
 70
     1
102
RTVSPropertyOp56
 70
     1
102
RTVSPropertyOp57
 70
     1
102
RTVSPropertyOp58
 70
     1
102
RTVSPropertyOp59
 70
     1
102
RTVSPropertyOp60
 70
     1
102
RTVSPropertyOp61
 70
     1
102
RTVSPropertyOp62
 70
     1
  0
XRECORD
  5
BCD7
102
{ACAD_REACTORS
330
BCD6
102
}
330
BCD6
100
AcDbXrecord
280
     1
102
RTVSPost2010Prop28
280
     0
102
RTVSPost2010PropOp28
 70
     1
102
RTVSPost2010Prop29
280
     1
102
RTVSPost2010PropOp29
 70
     1
102
RTVSPost2010Prop30
280
     1
102
RTVSPost2010PropOp30
 70
     1
102
RTVSPost2010Prop31
280
     0
102
RTVSPost2010PropOp31
 70
     1
102
RTVSPost2010Prop32
280
     0
102
RTVSPost2010PropOp32
 70
     1
102
RTVSPost2010Prop33
280
     0
102
RTVSPost2010PropOp33
 70
     1
102
RTVSPost2010Prop34
280
     0
102
RTVSPost2010PropOp34
 70
     1
102
RTVSPost2010Prop35
280
     0
102
RTVSPost2010PropOp35
 70
     1
102
RTVSPost2010Prop36
280
     0
102
RTVSPost2010PropOp36
 70
     1
102
RTVSPost2010Prop37
 90
       50
102
RTVSPost2010PropOp37
 70
     1
102
RTVSPost2010Prop38
140
0.0
102
RTVSPost2010PropOp38
 70
     1
102
RTVSPost2010Prop39
140
1.0
102
RTVSPost2010PropOp39
 70
     1
102
RTVSPost2010Prop40
 90
        0
102
RTVSPost2010PropOp40
 70
     1
102
RTVSPost2010Prop41ColorIndex
 90
       18
102
RTVSPost2010Prop41ColorRGB
 90
        0
102
RTVSPost2010PropOp41
 70
     1
102
RTVSPost2010Prop42
 90
       50
102
RTVSPost2010PropOp42
 70
     1
102
RTVSPost2010Prop43
 90
        3
102
RTVSPost2010PropOp43
 70
     1
102
RTVSPost2010Prop44ColorIndex
 90
        5
102
RTVSPost2010Prop44ColorRGB
 90
      255
102
RTVSPost2010PropOp44
 70
     1
102
RTVSPost2010Prop45
280
     0
102
RTVSPost2010PropOp45
 70
     1
102
RTVSPost2010Prop46
 90
       50
102
RTVSPost2010PropOp46
 70
     1
102
RTVSPost2010Prop47
 90
       50
102
RTVSPost2010PropOp47
 70
     1
102
RTVSPost2010Prop48
 90
       50
102
RTVSPost2010PropOp48
 70
     1
102
RTVSPost2010Prop49
280
     0
102
RTVSPost2010PropOp49
 70
     1
102
RTVSPost2010Prop50
 90
       50
102
RTVSPost2010PropOp50
 70
     1
102
RTVSPost2010Prop51ColorIndex
 90
      256
102
RTVSPost2010Prop51ColorRGB
 90
-16777216
102
RTVSPost2010PropOp51
 70
     0
102
RTVSPost2010Prop52
140
1.0
102
RTVSPost2010PropOp52
 70
     0
102
RTVSPost2010Prop53
 90
        2
102
RTVSPost2010PropOp53
 70
     1
102
RTVSPost2010Prop54
  1
strokes_ogs.tif
102
RTVSPost2010PropOp54
 70
     1
102
RTVSPost2010Prop55
280
     0
102
RTVSPost2010PropOp55
 70
     1
102
RTVSPost2010Prop56
140
1.0
102
RTVSPost2010PropOp56
 70
     1
102
RTVSPost2010Prop57
140
1.0
102
RTVSPost2010PropOp57
 70
     1
102
RTVSPropertyOp0
 70
     1
102
RTVSPropertyOp1
 70
     1
102
RTVSPropertyOp2
 70
     1
102
RTVSPropertyOp3
 70
     1
102
RTVSPropertyOp4
 70
     1
102
RTVSPropertyOp5
 70
     1
102
RTVSPropertyOp6
 70
     1
102
RTVSPropertyOp7
 70
     1
102
RTVSPropertyOp8
 70
     1
102
RTVSPropertyOp9
 70
     1
102
RTVSPropertyOp10
 70
     1
102
RTVSPropertyOp11
 70
     1
102
RTVSPropertyOp12
 70
     1
102
RTVSPropertyOp13
 70
     1
102
RTVSPropertyOp14
 70
     1
102
RTVSPropertyOp15
 70
     1
102
RTVSPropertyOp16
 70
     1
102
RTVSPropertyOp17
 70
     1
102
RTVSPropertyOp18
 70
     1
102
RTVSPropertyOp19
 70
     1
102
RTVSPropertyOp20
 70
     1
102
RTVSPropertyOp21
 70
     1
102
RTVSPropertyOp22
 70
     1
102
RTVSPropertyOp23
 70
     1
102
RTVSPropertyOp24
 70
     1
102
RTVSPropertyOp25
 70
     1
102
RTVSPropertyOp26
 70
     1
102
RTVSPropertyOp27
 70
     1
102
RTVSPropertyOp28
 70
     1
102
RTVSPropertyOp29
 70
     1
102
RTVSPropertyOp30
 70
     1
102
RTVSPropertyOp31
 70
     1
102
RTVSPropertyOp32
 70
     1
102
RTVSPropertyOp33
 70
     1
102
RTVSPropertyOp34
 70
     1
102
RTVSPropertyOp35
 70
     1
102
RTVSPropertyOp36
 70
     1
102
RTVSPropertyOp37
 70
     1
102
RTVSPropertyOp38
 70
     1
102
RTVSPropertyOp39
 70
     1
102
RTVSPropertyOp40
 70
     1
102
RTVSPropertyOp41
 70
     1
102
RTVSPropertyOp42
 70
     1
102
RTVSPropertyOp43
 70
     1
102
RTVSPropertyOp44
 70
     1
102
RTVSPropertyOp45
 70
     1
102
RTVSPropertyOp46
 70
     1
102
RTVSPropertyOp47
 70
     1
102
RTVSPropertyOp48
 70
     1
102
RTVSPropertyOp49
 70
     1
102
RTVSPropertyOp50
 70
     1
102
RTVSPropertyOp51
 70
     0
102
RTVSPropertyOp52
 70
     0
102
RTVSPropertyOp53
 70
     1
102
RTVSPropertyOp54
 70
     1
102
RTVSPropertyOp55
 70
     1
102
RTVSPropertyOp56
 70
     1
102
RTVSPropertyOp57
 70
     1
102
RTVSPropertyOp58
 70
     1
102
RTVSPropertyOp59
 70
     1
102
RTVSPropertyOp60
 70
     1
102
RTVSPropertyOp61
 70
     1
102
RTVSPropertyOp62
 70
     1
  0
XRECORD
  5
BCC9
102
{ACAD_REACTORS
330
BCC8
102
}
330
BCC8
100
AcDbXrecord
280
     1
102
RTVSPost2010Prop28
280
     0
102
RTVSPost2010PropOp28
 70
     1
102
RTVSPost2010Prop29
280
     1
102
RTVSPost2010PropOp29
 70
     1
102
RTVSPost2010Prop30
280
     1
102
RTVSPost2010PropOp30
 70
     1
102
RTVSPost2010Prop31
280
     0
102
RTVSPost2010PropOp31
 70
     1
102
RTVSPost2010Prop32
280
     0
102
RTVSPost2010PropOp32
 70
     1
102
RTVSPost2010Prop33
280
     0
102
RTVSPost2010PropOp33
 70
     1
102
RTVSPost2010Prop34
280
     0
102
RTVSPost2010PropOp34
 70
     1
102
RTVSPost2010Prop35
280
     0
102
RTVSPost2010PropOp35
 70
     1
102
RTVSPost2010Prop36
280
     0
102
RTVSPost2010PropOp36
 70
     1
102
RTVSPost2010Prop37
 90
       50
102
RTVSPost2010PropOp37
 70
     1
102
RTVSPost2010Prop38
140
0.0
102
RTVSPost2010PropOp38
 70
     1
102
RTVSPost2010Prop39
140
1.0
102
RTVSPost2010PropOp39
 70
     1
102
RTVSPost2010Prop40
 90
        0
102
RTVSPost2010PropOp40
 70
     1
102
RTVSPost2010Prop41ColorIndex
 90
       18
102
RTVSPost2010Prop41ColorRGB
 90
        0
102
RTVSPost2010PropOp41
 70
     1
102
RTVSPost2010Prop42
 90
       50
102
RTVSPost2010PropOp42
 70
     1
102
RTVSPost2010Prop43
 90
        3
102
RTVSPost2010PropOp43
 70
     1
102
RTVSPost2010Prop44ColorIndex
 90
        5
102
RTVSPost2010Prop44ColorRGB
 90
      255
102
RTVSPost2010PropOp44
 70
     1
102
RTVSPost2010Prop45
280
     0
102
RTVSPost2010PropOp45
 70
     1
102
RTVSPost2010Prop46
 90
       50
102
RTVSPost2010PropOp46
 70
     1
102
RTVSPost2010Prop47
 90
       50
102
RTVSPost2010PropOp47
 70
     1
102
RTVSPost2010Prop48
 90
       50
102
RTVSPost2010PropOp48
 70
     1
102
RTVSPost2010Prop49
280
     0
102
RTVSPost2010PropOp49
 70
     1
102
RTVSPost2010Prop50
 90
       50
102
RTVSPost2010PropOp50
 70
     1
102
RTVSPost2010Prop51ColorIndex
 90
      256
102
RTVSPost2010Prop51ColorRGB
 90
-16777216
102
RTVSPost2010PropOp51
 70
     0
102
RTVSPost2010Prop52
140
1.0
102
RTVSPost2010PropOp52
 70
     0
102
RTVSPost2010Prop53
 90
        2
102
RTVSPost2010PropOp53
 70
     1
102
RTVSPost2010Prop54
  1
strokes_ogs.tif
102
RTVSPost2010PropOp54
 70
     1
102
RTVSPost2010Prop55
280
     0
102
RTVSPost2010PropOp55
 70
     1
102
RTVSPost2010Prop56
140
1.0
102
RTVSPost2010PropOp56
 70
     1
102
RTVSPost2010Prop57
140
1.0
102
RTVSPost2010PropOp57
 70
     1
102
RTVSPropertyOp0
 70
     1
102
RTVSPropertyOp1
 70
     1
102
RTVSPropertyOp2
 70
     1
102
RTVSPropertyOp3
 70
     1
102
RTVSPropertyOp4
 70
     1
102
RTVSPropertyOp5
 70
     1
102
RTVSPropertyOp6
 70
     1
102
RTVSPropertyOp7
 70
     1
102
RTVSPropertyOp8
 70
     1
102
RTVSPropertyOp9
 70
     1
102
RTVSPropertyOp10
 70
     1
102
RTVSPropertyOp11
 70
     1
102
RTVSPropertyOp12
 70
     1
102
RTVSPropertyOp13
 70
     1
102
RTVSPropertyOp14
 70
     1
102
RTVSPropertyOp15
 70
     1
102
RTVSPropertyOp16
 70
     1
102
RTVSPropertyOp17
 70
     1
102
RTVSPropertyOp18
 70
     1
102
RTVSPropertyOp19
 70
     1
102
RTVSPropertyOp20
 70
     1
102
RTVSPropertyOp21
 70
     1
102
RTVSPropertyOp22
 70
     1
102
RTVSPropertyOp23
 70
     1
102
RTVSPropertyOp24
 70
     1
102
RTVSPropertyOp25
 70
     1
102
RTVSPropertyOp26
 70
     1
102
RTVSPropertyOp27
 70
     1
102
RTVSPropertyOp28
 70
     1
102
RTVSPropertyOp29
 70
     1
102
RTVSPropertyOp30
 70
     1
102
RTVSPropertyOp31
 70
     1
102
RTVSPropertyOp32
 70
     1
102
RTVSPropertyOp33
 70
     1
102
RTVSPropertyOp34
 70
     1
102
RTVSPropertyOp35
 70
     1
102
RTVSPropertyOp36
 70
     1
102
RTVSPropertyOp37
 70
     1
102
RTVSPropertyOp38
 70
     1
102
RTVSPropertyOp39
 70
     1
102
RTVSPropertyOp40
 70
     1
102
RTVSPropertyOp41
 70
     1
102
RTVSPropertyOp42
 70
     1
102
RTVSPropertyOp43
 70
     1
102
RTVSPropertyOp44
 70
     1
102
RTVSPropertyOp45
 70
     1
102
RTVSPropertyOp46
 70
     1
102
RTVSPropertyOp47
 70
     1
102
RTVSPropertyOp48
 70
     1
102
RTVSPropertyOp49
 70
     1
102
RTVSPropertyOp50
 70
     1
102
RTVSPropertyOp51
 70
     0
102
RTVSPropertyOp52
 70
     0
102
RTVSPropertyOp53
 70
     1
102
RTVSPropertyOp54
 70
     1
102
RTVSPropertyOp55
 70
     1
102
RTVSPropertyOp56
 70
     1
102
RTVSPropertyOp57
 70
     1
102
RTVSPropertyOp58
 70
     1
102
RTVSPropertyOp59
 70
     1
102
RTVSPropertyOp60
 70
     1
102
RTVSPropertyOp61
 70
     1
102
RTVSPropertyOp62
 70
     1
  0
XRECORD
  5
BCCD
102
{ACAD_REACTORS
330
BCCC
102
}
330
BCCC
100
AcDbXrecord
280
     1
102
RTVSPost2010Prop28
280
     0
102
RTVSPost2010PropOp28
 70
     1
102
RTVSPost2010Prop29
280
     1
102
RTVSPost2010PropOp29
 70
     1
102
RTVSPost2010Prop30
280
     1
102
RTVSPost2010PropOp30
 70
     1
102
RTVSPost2010Prop31
280
     0
102
RTVSPost2010PropOp31
 70
     1
102
RTVSPost2010Prop32
280
     0
102
RTVSPost2010PropOp32
 70
     1
102
RTVSPost2010Prop33
280
     0
102
RTVSPost2010PropOp33
 70
     1
102
RTVSPost2010Prop34
280
     0
102
RTVSPost2010PropOp34
 70
     1
102
RTVSPost2010Prop35
280
     0
102
RTVSPost2010PropOp35
 70
     1
102
RTVSPost2010Prop36
280
     0
102
RTVSPost2010PropOp36
 70
     1
102
RTVSPost2010Prop37
 90
       50
102
RTVSPost2010PropOp37
 70
     1
102
RTVSPost2010Prop38
140
0.0
102
RTVSPost2010PropOp38
 70
     1
102
RTVSPost2010Prop39
140
1.0
102
RTVSPost2010PropOp39
 70
     1
102
RTVSPost2010Prop40
 90
        0
102
RTVSPost2010PropOp40
 70
     1
102
RTVSPost2010Prop41ColorIndex
 90
       18
102
RTVSPost2010Prop41ColorRGB
 90
        0
102
RTVSPost2010PropOp41
 70
     1
102
RTVSPost2010Prop42
 90
       50
102
RTVSPost2010PropOp42
 70
     1
102
RTVSPost2010Prop43
 90
        3
102
RTVSPost2010PropOp43
 70
     1
102
RTVSPost2010Prop44ColorIndex
 90
        5
102
RTVSPost2010Prop44ColorRGB
 90
      255
102
RTVSPost2010PropOp44
 70
     1
102
RTVSPost2010Prop45
280
     0
102
RTVSPost2010PropOp45
 70
     1
102
RTVSPost2010Prop46
 90
       50
102
RTVSPost2010PropOp46
 70
     1
102
RTVSPost2010Prop47
 90
       50
102
RTVSPost2010PropOp47
 70
     1
102
RTVSPost2010Prop48
 90
       50
102
RTVSPost2010PropOp48
 70
     1
102
RTVSPost2010Prop49
280
     0
102
RTVSPost2010PropOp49
 70
     1
102
RTVSPost2010Prop50
 90
       50
102
RTVSPost2010PropOp50
 70
     1
102
RTVSPost2010Prop51ColorIndex
 90
      256
102
RTVSPost2010Prop51ColorRGB
 90
-16777216
102
RTVSPost2010PropOp51
 70
     0
102
RTVSPost2010Prop52
140
1.0
102
RTVSPost2010PropOp52
 70
     0
102
RTVSPost2010Prop53
 90
        2
102
RTVSPost2010PropOp53
 70
     1
102
RTVSPost2010Prop54
  1
strokes_ogs.tif
102
RTVSPost2010PropOp54
 70
     1
102
RTVSPost2010Prop55
280
     0
102
RTVSPost2010PropOp55
 70
     1
102
RTVSPost2010Prop56
140
1.0
102
RTVSPost2010PropOp56
 70
     1
102
RTVSPost2010Prop57
140
1.0
102
RTVSPost2010PropOp57
 70
     1
102
RTVSPropertyOp0
 70
     1
102
RTVSPropertyOp1
 70
     1
102
RTVSPropertyOp2
 70
     1
102
RTVSPropertyOp3
 70
     1
102
RTVSPropertyOp4
 70
     1
102
RTVSPropertyOp5
 70
     1
102
RTVSPropertyOp6
 70
     1
102
RTVSPropertyOp7
 70
     1
102
RTVSPropertyOp8
 70
     1
102
RTVSPropertyOp9
 70
     1
102
RTVSPropertyOp10
 70
     1
102
RTVSPropertyOp11
 70
     1
102
RTVSPropertyOp12
 70
     1
102
RTVSPropertyOp13
 70
     1
102
RTVSPropertyOp14
 70
     1
102
RTVSPropertyOp15
 70
     1
102
RTVSPropertyOp16
 70
     1
102
RTVSPropertyOp17
 70
     1
102
RTVSPropertyOp18
 70
     1
102
RTVSPropertyOp19
 70
     1
102
RTVSPropertyOp20
 70
     1
102
RTVSPropertyOp21
 70
     1
102
RTVSPropertyOp22
 70
     1
102
RTVSPropertyOp23
 70
     1
102
RTVSPropertyOp24
 70
     1
102
RTVSPropertyOp25
 70
     1
102
RTVSPropertyOp26
 70
     1
102
RTVSPropertyOp27
 70
     1
102
RTVSPropertyOp28
 70
     1
102
RTVSPropertyOp29
 70
     1
102
RTVSPropertyOp30
 70
     1
102
RTVSPropertyOp31
 70
     1
102
RTVSPropertyOp32
 70
     1
102
RTVSPropertyOp33
 70
     1
102
RTVSPropertyOp34
 70
     1
102
RTVSPropertyOp35
 70
     1
102
RTVSPropertyOp36
 70
     1
102
RTVSPropertyOp37
 70
     1
102
RTVSPropertyOp38
 70
     1
102
RTVSPropertyOp39
 70
     1
102
RTVSPropertyOp40
 70
     1
102
RTVSPropertyOp41
 70
     1
102
RTVSPropertyOp42
 70
     1
102
RTVSPropertyOp43
 70
     1
102
RTVSPropertyOp44
 70
     1
102
RTVSPropertyOp45
 70
     1
102
RTVSPropertyOp46
 70
     1
102
RTVSPropertyOp47
 70
     1
102
RTVSPropertyOp48
 70
     1
102
RTVSPropertyOp49
 70
     1
102
RTVSPropertyOp50
 70
     1
102
RTVSPropertyOp51
 70
     0
102
RTVSPropertyOp52
 70
     0
102
RTVSPropertyOp53
 70
     1
102
RTVSPropertyOp54
 70
     1
102
RTVSPropertyOp55
 70
     1
102
RTVSPropertyOp56
 70
     1
102
RTVSPropertyOp57
 70
     1
102
RTVSPropertyOp58
 70
     1
102
RTVSPropertyOp59
 70
     1
102
RTVSPropertyOp60
 70
     1
102
RTVSPropertyOp61
 70
     1
102
RTVSPropertyOp62
 70
     1
  0
XRECORD
  5
BCE7
102
{ACAD_REACTORS
330
BCE6
102
}
330
BCE6
100
AcDbXrecord
280
     1
102
RTVSPost2010Prop28
280
     0
102
RTVSPost2010PropOp28
 70
     1
102
RTVSPost2010Prop29
280
     1
102
RTVSPost2010PropOp29
 70
     1
102
RTVSPost2010Prop30
280
     1
102
RTVSPost2010PropOp30
 70
     1
102
RTVSPost2010Prop31
280
     0
102
RTVSPost2010PropOp31
 70
     1
102
RTVSPost2010Prop32
280
     0
102
RTVSPost2010PropOp32
 70
     1
102
RTVSPost2010Prop33
280
     0
102
RTVSPost2010PropOp33
 70
     1
102
RTVSPost2010Prop34
280
     0
102
RTVSPost2010PropOp34
 70
     1
102
RTVSPost2010Prop35
280
     0
102
RTVSPost2010PropOp35
 70
     1
102
RTVSPost2010Prop36
280
     0
102
RTVSPost2010PropOp36
 70
     1
102
RTVSPost2010Prop37
 90
       50
102
RTVSPost2010PropOp37
 70
     0
102
RTVSPost2010Prop38
140
0.0
102
RTVSPost2010PropOp38
 70
     0
102
RTVSPost2010Prop39
140
1.0
102
RTVSPost2010PropOp39
 70
     0
102
RTVSPost2010Prop40
 90
        0
102
RTVSPost2010PropOp40
 70
     0
102
RTVSPost2010Prop41ColorIndex
 90
       18
102
RTVSPost2010Prop41ColorRGB
 90
        0
102
RTVSPost2010PropOp41
 70
     0
102
RTVSPost2010Prop42
 90
       50
102
RTVSPost2010PropOp42
 70
     0
102
RTVSPost2010Prop43
 90
        3
102
RTVSPost2010PropOp43
 70
     0
102
RTVSPost2010Prop44ColorIndex
 90
        5
102
RTVSPost2010Prop44ColorRGB
 90
      255
102
RTVSPost2010PropOp44
 70
     0
102
RTVSPost2010Prop45
280
     0
102
RTVSPost2010PropOp45
 70
     1
102
RTVSPost2010Prop46
 90
       50
102
RTVSPost2010PropOp46
 70
     0
102
RTVSPost2010Prop47
 90
       50
102
RTVSPost2010PropOp47
 70
     0
102
RTVSPost2010Prop48
 90
       50
102
RTVSPost2010PropOp48
 70
     0
102
RTVSPost2010Prop49
280
     0
102
RTVSPost2010PropOp49
 70
     1
102
RTVSPost2010Prop50
 90
       50
102
RTVSPost2010PropOp50
 70
     0
102
RTVSPost2010Prop51ColorIndex
 90
      256
102
RTVSPost2010Prop51ColorRGB
 90
-16777216
102
RTVSPost2010PropOp51
 70
     0
102
RTVSPost2010Prop52
140
1.0
102
RTVSPost2010PropOp52
 70
     0
102
RTVSPost2010Prop53
 90
        2
102
RTVSPost2010PropOp53
 70
     0
102
RTVSPost2010Prop54
  1
strokes_ogs.tif
102
RTVSPost2010PropOp54
 70
     0
102
RTVSPost2010Prop55
280
     0
102
RTVSPost2010PropOp55
 70
     1
102
RTVSPost2010Prop56
140
1.0
102
RTVSPost2010PropOp56
 70
     0
102
RTVSPost2010Prop57
140
1.0
102
RTVSPost2010PropOp57
 70
     0
102
RTVSPropertyOp0
 70
     0
102
RTVSPropertyOp1
 70
     0
102
RTVSPropertyOp2
 70
     0
102
RTVSPropertyOp3
 70
     0
102
RTVSPropertyOp4
 70
     0
102
RTVSPropertyOp5
 70
     0
102
RTVSPropertyOp6
 70
     0
102
RTVSPropertyOp7
 70
     0
102
RTVSPropertyOp8
 70
     0
102
RTVSPropertyOp9
 70
     0
102
RTVSPropertyOp10
 70
     0
102
RTVSPropertyOp11
 70
     0
102
RTVSPropertyOp12
 70
     0
102
RTVSPropertyOp13
 70
     0
102
RTVSPropertyOp14
 70
     2
102
RTVSPropertyOp15
 70
     0
102
RTVSPropertyOp16
 70
     0
102
RTVSPropertyOp17
 70
     0
102
RTVSPropertyOp18
 70
     0
102
RTVSPropertyOp19
 70
     0
102
RTVSPropertyOp20
 70
     0
102
RTVSPropertyOp21
 70
     0
102
RTVSPropertyOp22
 70
     0
102
RTVSPropertyOp23
 70
     0
102
RTVSPropertyOp24
 70
     0
102
RTVSPropertyOp25
 70
     0
102
RTVSPropertyOp26
 70
     0
102
RTVSPropertyOp27
 70
     0
102
RTVSPropertyOp28
 70
     1
102
RTVSPropertyOp29
 70
     1
102
RTVSPropertyOp30
 70
     1
102
RTVSPropertyOp31
 70
     1
102
RTVSPropertyOp32
 70
     1
102
RTVSPropertyOp33
 70
     1
102
RTVSPropertyOp34
 70
     1
102
RTVSPropertyOp35
 70
     1
102
RTVSPropertyOp36
 70
     1
102
RTVSPropertyOp37
 70
     0
102
RTVSPropertyOp38
 70
     0
102
RTVSPropertyOp39
 70
     0
102
RTVSPropertyOp40
 70
     0
102
RTVSPropertyOp41
 70
     0
102
RTVSPropertyOp42
 70
     0
102
RTVSPropertyOp43
 70
     0
102
RTVSPropertyOp44
 70
     0
102
RTVSPropertyOp45
 70
     1
102
RTVSPropertyOp46
 70
     0
102
RTVSPropertyOp47
 70
     0
102
RTVSPropertyOp48
 70
     0
102
RTVSPropertyOp49
 70
     1
102
RTVSPropertyOp50
 70
     0
102
RTVSPropertyOp51
 70
     0
102
RTVSPropertyOp52
 70
     0
102
RTVSPropertyOp53
 70
     0
102
RTVSPropertyOp54
 70
     0
102
RTVSPropertyOp55
 70
     1
102
RTVSPropertyOp56
 70
     0
102
RTVSPropertyOp57
 70
     0
102
RTVSPropertyOp58
 70
     0
102
RTVSPropertyOp59
 70
     0
102
RTVSPropertyOp60
 70
     0
102
RTVSPropertyOp61
 70
     0
102
RTVSPropertyOp62
 70
     0
  0
XRECORD
  5
BCD5
102
{ACAD_REACTORS
330
BCD4
102
}
330
BCD4
100
AcDbXrecord
280
     1
102
RTVSPost2010Prop28
280
     0
102
RTVSPost2010PropOp28
 70
     1
102
RTVSPost2010Prop29
280
     1
102
RTVSPost2010PropOp29
 70
     1
102
RTVSPost2010Prop30
280
     1
102
RTVSPost2010PropOp30
 70
     1
102
RTVSPost2010Prop31
280
     0
102
RTVSPost2010PropOp31
 70
     1
102
RTVSPost2010Prop32
280
     0
102
RTVSPost2010PropOp32
 70
     1
102
RTVSPost2010Prop33
280
     0
102
RTVSPost2010PropOp33
 70
     1
102
RTVSPost2010Prop34
280
     0
102
RTVSPost2010PropOp34
 70
     1
102
RTVSPost2010Prop35
280
     0
102
RTVSPost2010PropOp35
 70
     1
102
RTVSPost2010Prop36
280
     0
102
RTVSPost2010PropOp36
 70
     1
102
RTVSPost2010Prop37
 90
       50
102
RTVSPost2010PropOp37
 70
     1
102
RTVSPost2010Prop38
140
0.0
102
RTVSPost2010PropOp38
 70
     1
102
RTVSPost2010Prop39
140
1.0
102
RTVSPost2010PropOp39
 70
     1
102
RTVSPost2010Prop40
 90
        0
102
RTVSPost2010PropOp40
 70
     1
102
RTVSPost2010Prop41ColorIndex
 90
       18
102
RTVSPost2010Prop41ColorRGB
 90
        0
102
RTVSPost2010PropOp41
 70
     1
102
RTVSPost2010Prop42
 90
       50
102
RTVSPost2010PropOp42
 70
     1
102
RTVSPost2010Prop43
 90
        3
102
RTVSPost2010PropOp43
 70
     1
102
RTVSPost2010Prop44ColorIndex
 90
        5
102
RTVSPost2010Prop44ColorRGB
 90
      255
102
RTVSPost2010PropOp44
 70
     1
102
RTVSPost2010Prop45
280
     0
102
RTVSPost2010PropOp45
 70
     1
102
RTVSPost2010Prop46
 90
       50
102
RTVSPost2010PropOp46
 70
     1
102
RTVSPost2010Prop47
 90
       50
102
RTVSPost2010PropOp47
 70
     1
102
RTVSPost2010Prop48
 90
       50
102
RTVSPost2010PropOp48
 70
     1
102
RTVSPost2010Prop49
280
     0
102
RTVSPost2010PropOp49
 70
     1
102
RTVSPost2010Prop50
 90
       50
102
RTVSPost2010PropOp50
 70
     1
102
RTVSPost2010Prop51ColorIndex
 90
      256
102
RTVSPost2010Prop51ColorRGB
 90
-16777216
102
RTVSPost2010PropOp51
 70
     0
102
RTVSPost2010Prop52
140
1.0
102
RTVSPost2010PropOp52
 70
     0
102
RTVSPost2010Prop53
 90
        2
102
RTVSPost2010PropOp53
 70
     1
102
RTVSPost2010Prop54
  1
strokes_ogs.tif
102
RTVSPost2010PropOp54
 70
     1
102
RTVSPost2010Prop55
280
     0
102
RTVSPost2010PropOp55
 70
     1
102
RTVSPost2010Prop56
140
1.0
102
RTVSPost2010PropOp56
 70
     1
102
RTVSPost2010Prop57
140
1.0
102
RTVSPost2010PropOp57
 70
     1
102
RTVSPropertyOp0
 70
     1
102
RTVSPropertyOp1
 70
     1
102
RTVSPropertyOp2
 70
     1
102
RTVSPropertyOp3
 70
     1
102
RTVSPropertyOp4
 70
     1
102
RTVSPropertyOp5
 70
     1
102
RTVSPropertyOp6
 70
     1
102
RTVSPropertyOp7
 70
     1
102
RTVSPropertyOp8
 70
     1
102
RTVSPropertyOp9
 70
     1
102
RTVSPropertyOp10
 70
     1
102
RTVSPropertyOp11
 70
     1
102
RTVSPropertyOp12
 70
     1
102
RTVSPropertyOp13
 70
     1
102
RTVSPropertyOp14
 70
     1
102
RTVSPropertyOp15
 70
     1
102
RTVSPropertyOp16
 70
     1
102
RTVSPropertyOp17
 70
     1
102
RTVSPropertyOp18
 70
     1
102
RTVSPropertyOp19
 70
     1
102
RTVSPropertyOp20
 70
     1
102
RTVSPropertyOp21
 70
     1
102
RTVSPropertyOp22
 70
     1
102
RTVSPropertyOp23
 70
     1
102
RTVSPropertyOp24
 70
     1
102
RTVSPropertyOp25
 70
     1
102
RTVSPropertyOp26
 70
     1
102
RTVSPropertyOp27
 70
     1
102
RTVSPropertyOp28
 70
     1
102
RTVSPropertyOp29
 70
     1
102
RTVSPropertyOp30
 70
     1
102
RTVSPropertyOp31
 70
     1
102
RTVSPropertyOp32
 70
     1
102
RTVSPropertyOp33
 70
     1
102
RTVSPropertyOp34
 70
     1
102
RTVSPropertyOp35
 70
     1
102
RTVSPropertyOp36
 70
     1
102
RTVSPropertyOp37
 70
     1
102
RTVSPropertyOp38
 70
     1
102
RTVSPropertyOp39
 70
     1
102
RTVSPropertyOp40
 70
     1
102
RTVSPropertyOp41
 70
     1
102
RTVSPropertyOp42
 70
     1
102
RTVSPropertyOp43
 70
     1
102
RTVSPropertyOp44
 70
     1
102
RTVSPropertyOp45
 70
     1
102
RTVSPropertyOp46
 70
     1
102
RTVSPropertyOp47
 70
     1
102
RTVSPropertyOp48
 70
     1
102
RTVSPropertyOp49
 70
     1
102
RTVSPropertyOp50
 70
     1
102
RTVSPropertyOp51
 70
     0
102
RTVSPropertyOp52
 70
     0
102
RTVSPropertyOp53
 70
     1
102
RTVSPropertyOp54
 70
     1
102
RTVSPropertyOp55
 70
     1
102
RTVSPropertyOp56
 70
     1
102
RTVSPropertyOp57
 70
     1
102
RTVSPropertyOp58
 70
     1
102
RTVSPropertyOp59
 70
     1
102
RTVSPropertyOp60
 70
     1
102
RTVSPropertyOp61
 70
     1
102
RTVSPropertyOp62
 70
     1
  0
XRECORD
  5
BCB9
102
{ACAD_REACTORS
330
BCB8
102
}
330
BCB8
100
AcDbXrecord
280
     1
102
RTVSPost2010Prop28
280
     0
102
RTVSPost2010PropOp28
 70
     1
102
RTVSPost2010Prop29
280
     1
102
RTVSPost2010PropOp29
 70
     1
102
RTVSPost2010Prop30
280
     1
102
RTVSPost2010PropOp30
 70
     1
102
RTVSPost2010Prop31
280
     0
102
RTVSPost2010PropOp31
 70
     1
102
RTVSPost2010Prop32
280
     0
102
RTVSPost2010PropOp32
 70
     1
102
RTVSPost2010Prop33
280
     0
102
RTVSPost2010PropOp33
 70
     1
102
RTVSPost2010Prop34
280
     0
102
RTVSPost2010PropOp34
 70
     1
102
RTVSPost2010Prop35
280
     0
102
RTVSPost2010PropOp35
 70
     1
102
RTVSPost2010Prop36
280
     0
102
RTVSPost2010PropOp36
 70
     1
102
RTVSPost2010Prop37
 90
       50
102
RTVSPost2010PropOp37
 70
     1
102
RTVSPost2010Prop38
140
0.0
102
RTVSPost2010PropOp38
 70
     1
102
RTVSPost2010Prop39
140
1.0
102
RTVSPost2010PropOp39
 70
     1
102
RTVSPost2010Prop40
 90
        0
102
RTVSPost2010PropOp40
 70
     1
102
RTVSPost2010Prop41ColorIndex
 90
       18
102
RTVSPost2010Prop41ColorRGB
 90
        0
102
RTVSPost2010PropOp41
 70
     1
102
RTVSPost2010Prop42
 90
       50
102
RTVSPost2010PropOp42
 70
     1
102
RTVSPost2010Prop43
 90
        3
102
RTVSPost2010PropOp43
 70
     1
102
RTVSPost2010Prop44ColorIndex
 90
        5
102
RTVSPost2010Prop44ColorRGB
 90
      255
102
RTVSPost2010PropOp44
 70
     1
102
RTVSPost2010Prop45
280
     0
102
RTVSPost2010PropOp45
 70
     1
102
RTVSPost2010Prop46
 90
       50
102
RTVSPost2010PropOp46
 70
     1
102
RTVSPost2010Prop47
 90
       50
102
RTVSPost2010PropOp47
 70
     1
102
RTVSPost2010Prop48
 90
       50
102
RTVSPost2010PropOp48
 70
     1
102
RTVSPost2010Prop49
280
     0
102
RTVSPost2010PropOp49
 70
     1
102
RTVSPost2010Prop50
 90
       50
102
RTVSPost2010PropOp50
 70
     1
102
RTVSPost2010Prop51ColorIndex
 90
      256
102
RTVSPost2010Prop51ColorRGB
 90
-16777216
102
RTVSPost2010PropOp51
 70
     0
102
RTVSPost2010Prop52
140
1.0
102
RTVSPost2010PropOp52
 70
     0
102
RTVSPost2010Prop53
 90
        2
102
RTVSPost2010PropOp53
 70
     1
102
RTVSPost2010Prop54
  1
strokes_ogs.tif
102
RTVSPost2010PropOp54
 70
     1
102
RTVSPost2010Prop55
280
     0
102
RTVSPost2010PropOp55
 70
     1
102
RTVSPost2010Prop56
140
1.0
102
RTVSPost2010PropOp56
 70
     1
102
RTVSPost2010Prop57
140
1.0
102
RTVSPost2010PropOp57
 70
     1
102
RTVSPropertyOp0
 70
     1
102
RTVSPropertyOp1
 70
     1
102
RTVSPropertyOp2
 70
     1
102
RTVSPropertyOp3
 70
     1
102
RTVSPropertyOp4
 70
     1
102
RTVSPropertyOp5
 70
     1
102
RTVSPropertyOp6
 70
     1
102
RTVSPropertyOp7
 70
     1
102
RTVSPropertyOp8
 70
     1
102
RTVSPropertyOp9
 70
     1
102
RTVSPropertyOp10
 70
     1
102
RTVSPropertyOp11
 70
     1
102
RTVSPropertyOp12
 70
     1
102
RTVSPropertyOp13
 70
     1
102
RTVSPropertyOp14
 70
     1
102
RTVSPropertyOp15
 70
     1
102
RTVSPropertyOp16
 70
     1
102
RTVSPropertyOp17
 70
     1
102
RTVSPropertyOp18
 70
     1
102
RTVSPropertyOp19
 70
     1
102
RTVSPropertyOp20
 70
     1
102
RTVSPropertyOp21
 70
     1
102
RTVSPropertyOp22
 70
     1
102
RTVSPropertyOp23
 70
     1
102
RTVSPropertyOp24
 70
     1
102
RTVSPropertyOp25
 70
     1
102
RTVSPropertyOp26
 70
     1
102
RTVSPropertyOp27
 70
     1
102
RTVSPropertyOp28
 70
     1
102
RTVSPropertyOp29
 70
     1
102
RTVSPropertyOp30
 70
     1
102
RTVSPropertyOp31
 70
     1
102
RTVSPropertyOp32
 70
     1
102
RTVSPropertyOp33
 70
     1
102
RTVSPropertyOp34
 70
     1
102
RTVSPropertyOp35
 70
     1
102
RTVSPropertyOp36
 70
     1
102
RTVSPropertyOp37
 70
     1
102
RTVSPropertyOp38
 70
     1
102
RTVSPropertyOp39
 70
     1
102
RTVSPropertyOp40
 70
     1
102
RTVSPropertyOp41
 70
     1
102
RTVSPropertyOp42
 70
     1
102
RTVSPropertyOp43
 70
     1
102
RTVSPropertyOp44
 70
     1
102
RTVSPropertyOp45
 70
     1
102
RTVSPropertyOp46
 70
     1
102
RTVSPropertyOp47
 70
     1
102
RTVSPropertyOp48
 70
     1
102
RTVSPropertyOp49
 70
     1
102
RTVSPropertyOp50
 70
     1
102
RTVSPropertyOp51
 70
     0
102
RTVSPropertyOp52
 70
     0
102
RTVSPropertyOp53
 70
     1
102
RTVSPropertyOp54
 70
     1
102
RTVSPropertyOp55
 70
     1
102
RTVSPropertyOp56
 70
     1
102
RTVSPropertyOp57
 70
     1
102
RTVSPropertyOp58
 70
     1
102
RTVSPropertyOp59
 70
     1
102
RTVSPropertyOp60
 70
     1
102
RTVSPropertyOp61
 70
     1
102
RTVSPropertyOp62
 70
     1
  0
XRECORD
  5
BCBB
102
{ACAD_REACTORS
330
BCBA
102
}
330
BCBA
100
AcDbXrecord
280
     1
102
RTVSPost2010Prop28
280
     0
102
RTVSPost2010PropOp28
 70
     1
102
RTVSPost2010Prop29
280
     1
102
RTVSPost2010PropOp29
 70
     1
102
RTVSPost2010Prop30
280
     1
102
RTVSPost2010PropOp30
 70
     1
102
RTVSPost2010Prop31
280
     0
102
RTVSPost2010PropOp31
 70
     1
102
RTVSPost2010Prop32
280
     0
102
RTVSPost2010PropOp32
 70
     1
102
RTVSPost2010Prop33
280
     0
102
RTVSPost2010PropOp33
 70
     1
102
RTVSPost2010Prop34
280
     0
102
RTVSPost2010PropOp34
 70
     1
102
RTVSPost2010Prop35
280
     0
102
RTVSPost2010PropOp35
 70
     1
102
RTVSPost2010Prop36
280
     0
102
RTVSPost2010PropOp36
 70
     1
102
RTVSPost2010Prop37
 90
       50
102
RTVSPost2010PropOp37
 70
     1
102
RTVSPost2010Prop38
140
0.0
102
RTVSPost2010PropOp38
 70
     1
102
RTVSPost2010Prop39
140
1.0
102
RTVSPost2010PropOp39
 70
     1
102
RTVSPost2010Prop40
 90
        0
102
RTVSPost2010PropOp40
 70
     1
102
RTVSPost2010Prop41ColorIndex
 90
       18
102
RTVSPost2010Prop41ColorRGB
 90
        0
102
RTVSPost2010PropOp41
 70
     1
102
RTVSPost2010Prop42
 90
       50
102
RTVSPost2010PropOp42
 70
     1
102
RTVSPost2010Prop43
 90
        3
102
RTVSPost2010PropOp43
 70
     1
102
RTVSPost2010Prop44ColorIndex
 90
        5
102
RTVSPost2010Prop44ColorRGB
 90
      255
102
RTVSPost2010PropOp44
 70
     1
102
RTVSPost2010Prop45
280
     0
102
RTVSPost2010PropOp45
 70
     1
102
RTVSPost2010Prop46
 90
       50
102
RTVSPost2010PropOp46
 70
     1
102
RTVSPost2010Prop47
 90
       50
102
RTVSPost2010PropOp47
 70
     1
102
RTVSPost2010Prop48
 90
       50
102
RTVSPost2010PropOp48
 70
     1
102
RTVSPost2010Prop49
280
     0
102
RTVSPost2010PropOp49
 70
     1
102
RTVSPost2010Prop50
 90
       50
102
RTVSPost2010PropOp50
 70
     1
102
RTVSPost2010Prop51ColorIndex
 90
      256
102
RTVSPost2010Prop51ColorRGB
 90
-16777216
102
RTVSPost2010PropOp51
 70
     0
102
RTVSPost2010Prop52
140
1.0
102
RTVSPost2010PropOp52
 70
     0
102
RTVSPost2010Prop53
 90
        2
102
RTVSPost2010PropOp53
 70
     1
102
RTVSPost2010Prop54
  1
strokes_ogs.tif
102
RTVSPost2010PropOp54
 70
     1
102
RTVSPost2010Prop55
280
     0
102
RTVSPost2010PropOp55
 70
     1
102
RTVSPost2010Prop56
140
1.0
102
RTVSPost2010PropOp56
 70
     1
102
RTVSPost2010Prop57
140
1.0
102
RTVSPost2010PropOp57
 70
     1
102
RTVSPropertyOp0
 70
     1
102
RTVSPropertyOp1
 70
     1
102
RTVSPropertyOp2
 70
     1
102
RTVSPropertyOp3
 70
     1
102
RTVSPropertyOp4
 70
     1
102
RTVSPropertyOp5
 70
     1
102
RTVSPropertyOp6
 70
     1
102
RTVSPropertyOp7
 70
     1
102
RTVSPropertyOp8
 70
     1
102
RTVSPropertyOp9
 70
     1
102
RTVSPropertyOp10
 70
     1
102
RTVSPropertyOp11
 70
     1
102
RTVSPropertyOp12
 70
     1
102
RTVSPropertyOp13
 70
     1
102
RTVSPropertyOp14
 70
     1
102
RTVSPropertyOp15
 70
     1
102
RTVSPropertyOp16
 70
     1
102
RTVSPropertyOp17
 70
     1
102
RTVSPropertyOp18
 70
     1
102
RTVSPropertyOp19
 70
     1
102
RTVSPropertyOp20
 70
     1
102
RTVSPropertyOp21
 70
     1
102
RTVSPropertyOp22
 70
     1
102
RTVSPropertyOp23
 70
     1
102
RTVSPropertyOp24
 70
     1
102
RTVSPropertyOp25
 70
     1
102
RTVSPropertyOp26
 70
     1
102
RTVSPropertyOp27
 70
     1
102
RTVSPropertyOp28
 70
     1
102
RTVSPropertyOp29
 70
     1
102
RTVSPropertyOp30
 70
     1
102
RTVSPropertyOp31
 70
     1
102
RTVSPropertyOp32
 70
     1
102
RTVSPropertyOp33
 70
     1
102
RTVSPropertyOp34
 70
     1
102
RTVSPropertyOp35
 70
     1
102
RTVSPropertyOp36
 70
     1
102
RTVSPropertyOp37
 70
     1
102
RTVSPropertyOp38
 70
     1
102
RTVSPropertyOp39
 70
     1
102
RTVSPropertyOp40
 70
     1
102
RTVSPropertyOp41
 70
     1
102
RTVSPropertyOp42
 70
     1
102
RTVSPropertyOp43
 70
     1
102
RTVSPropertyOp44
 70
     1
102
RTVSPropertyOp45
 70
     1
102
RTVSPropertyOp46
 70
     1
102
RTVSPropertyOp47
 70
     1
102
RTVSPropertyOp48
 70
     1
102
RTVSPropertyOp49
 70
     1
102
RTVSPropertyOp50
 70
     1
102
RTVSPropertyOp51
 70
     0
102
RTVSPropertyOp52
 70
     0
102
RTVSPropertyOp53
 70
     1
102
RTVSPropertyOp54
 70
     1
102
RTVSPropertyOp55
 70
     1
102
RTVSPropertyOp56
 70
     1
102
RTVSPropertyOp57
 70
     1
102
RTVSPropertyOp58
 70
     1
102
RTVSPropertyOp59
 70
     1
102
RTVSPropertyOp60
 70
     1
102
RTVSPropertyOp61
 70
     1
102
RTVSPropertyOp62
 70
     1
  0
XRECORD
  5
BCBD
102
{ACAD_REACTORS
330
BCBC
102
}
330
BCBC
100
AcDbXrecord
280
     1
102
RTVSPost2010Prop28
280
     0
102
RTVSPost2010PropOp28
 70
     1
102
RTVSPost2010Prop29
280
     1
102
RTVSPost2010PropOp29
 70
     1
102
RTVSPost2010Prop30
280
     1
102
RTVSPost2010PropOp30
 70
     1
102
RTVSPost2010Prop31
280
     0
102
RTVSPost2010PropOp31
 70
     1
102
RTVSPost2010Prop32
280
     0
102
RTVSPost2010PropOp32
 70
     1
102
RTVSPost2010Prop33
280
     0
102
RTVSPost2010PropOp33
 70
     1
102
RTVSPost2010Prop34
280
     0
102
RTVSPost2010PropOp34
 70
     1
102
RTVSPost2010Prop35
280
     0
102
RTVSPost2010PropOp35
 70
     1
102
RTVSPost2010Prop36
280
     0
102
RTVSPost2010PropOp36
 70
     1
102
RTVSPost2010Prop37
 90
       50
102
RTVSPost2010PropOp37
 70
     1
102
RTVSPost2010Prop38
140
0.0
102
RTVSPost2010PropOp38
 70
     1
102
RTVSPost2010Prop39
140
1.0
102
RTVSPost2010PropOp39
 70
     1
102
RTVSPost2010Prop40
 90
        0
102
RTVSPost2010PropOp40
 70
     1
102
RTVSPost2010Prop41ColorIndex
 90
       18
102
RTVSPost2010Prop41ColorRGB
 90
        0
102
RTVSPost2010PropOp41
 70
     1
102
RTVSPost2010Prop42
 90
       50
102
RTVSPost2010PropOp42
 70
     1
102
RTVSPost2010Prop43
 90
        3
102
RTVSPost2010PropOp43
 70
     1
102
RTVSPost2010Prop44ColorIndex
 90
        5
102
RTVSPost2010Prop44ColorRGB
 90
      255
102
RTVSPost2010PropOp44
 70
     1
102
RTVSPost2010Prop45
280
     0
102
RTVSPost2010PropOp45
 70
     1
102
RTVSPost2010Prop46
 90
       50
102
RTVSPost2010PropOp46
 70
     1
102
RTVSPost2010Prop47
 90
       50
102
RTVSPost2010PropOp47
 70
     1
102
RTVSPost2010Prop48
 90
       50
102
RTVSPost2010PropOp48
 70
     1
102
RTVSPost2010Prop49
280
     0
102
RTVSPost2010PropOp49
 70
     1
102
RTVSPost2010Prop50
 90
       50
102
RTVSPost2010PropOp50
 70
     1
102
RTVSPost2010Prop51ColorIndex
 90
      256
102
RTVSPost2010Prop51ColorRGB
 90
-16777216
102
RTVSPost2010PropOp51
 70
     0
102
RTVSPost2010Prop52
140
1.0
102
RTVSPost2010PropOp52
 70
     0
102
RTVSPost2010Prop53
 90
        2
102
RTVSPost2010PropOp53
 70
     1
102
RTVSPost2010Prop54
  1
strokes_ogs.tif
102
RTVSPost2010PropOp54
 70
     1
102
RTVSPost2010Prop55
280
     0
102
RTVSPost2010PropOp55
 70
     1
102
RTVSPost2010Prop56
140
1.0
102
RTVSPost2010PropOp56
 70
     1
102
RTVSPost2010Prop57
140
1.0
102
RTVSPost2010PropOp57
 70
     1
102
RTVSPropertyOp0
 70
     1
102
RTVSPropertyOp1
 70
     1
102
RTVSPropertyOp2
 70
     1
102
RTVSPropertyOp3
 70
     1
102
RTVSPropertyOp4
 70
     1
102
RTVSPropertyOp5
 70
     1
102
RTVSPropertyOp6
 70
     1
102
RTVSPropertyOp7
 70
     1
102
RTVSPropertyOp8
 70
     1
102
RTVSPropertyOp9
 70
     1
102
RTVSPropertyOp10
 70
     1
102
RTVSPropertyOp11
 70
     1
102
RTVSPropertyOp12
 70
     1
102
RTVSPropertyOp13
 70
     1
102
RTVSPropertyOp14
 70
     1
102
RTVSPropertyOp15
 70
     1
102
RTVSPropertyOp16
 70
     1
102
RTVSPropertyOp17
 70
     1
102
RTVSPropertyOp18
 70
     1
102
RTVSPropertyOp19
 70
     1
102
RTVSPropertyOp20
 70
     1
102
RTVSPropertyOp21
 70
     1
102
RTVSPropertyOp22
 70
     1
102
RTVSPropertyOp23
 70
     1
102
RTVSPropertyOp24
 70
     1
102
RTVSPropertyOp25
 70
     1
102
RTVSPropertyOp26
 70
     1
102
RTVSPropertyOp27
 70
     1
102
RTVSPropertyOp28
 70
     1
102
RTVSPropertyOp29
 70
     1
102
RTVSPropertyOp30
 70
     1
102
RTVSPropertyOp31
 70
     1
102
RTVSPropertyOp32
 70
     1
102
RTVSPropertyOp33
 70
     1
102
RTVSPropertyOp34
 70
     1
102
RTVSPropertyOp35
 70
     1
102
RTVSPropertyOp36
 70
     1
102
RTVSPropertyOp37
 70
     1
102
RTVSPropertyOp38
 70
     1
102
RTVSPropertyOp39
 70
     1
102
RTVSPropertyOp40
 70
     1
102
RTVSPropertyOp41
 70
     1
102
RTVSPropertyOp42
 70
     1
102
RTVSPropertyOp43
 70
     1
102
RTVSPropertyOp44
 70
     1
102
RTVSPropertyOp45
 70
     1
102
RTVSPropertyOp46
 70
     1
102
RTVSPropertyOp47
 70
     1
102
RTVSPropertyOp48
 70
     1
102
RTVSPropertyOp49
 70
     1
102
RTVSPropertyOp50
 70
     1
102
RTVSPropertyOp51
 70
     0
102
RTVSPropertyOp52
 70
     0
102
RTVSPropertyOp53
 70
     1
102
RTVSPropertyOp54
 70
     1
102
RTVSPropertyOp55
 70
     1
102
RTVSPropertyOp56
 70
     1
102
RTVSPropertyOp57
 70
     1
102
RTVSPropertyOp58
 70
     1
102
RTVSPropertyOp59
 70
     1
102
RTVSPropertyOp60
 70
     1
102
RTVSPropertyOp61
 70
     1
102
RTVSPropertyOp62
 70
     1
  0
XRECORD
  5
BCBF
102
{ACAD_REACTORS
330
BCBE
102
}
330
BCBE
100
AcDbXrecord
280
     1
102
RTVSPost2010Prop28
280
     0
102
RTVSPost2010PropOp28
 70
     1
102
RTVSPost2010Prop29
280
     1
102
RTVSPost2010PropOp29
 70
     1
102
RTVSPost2010Prop30
280
     1
102
RTVSPost2010PropOp30
 70
     1
102
RTVSPost2010Prop31
280
     0
102
RTVSPost2010PropOp31
 70
     1
102
RTVSPost2010Prop32
280
     0
102
RTVSPost2010PropOp32
 70
     1
102
RTVSPost2010Prop33
280
     0
102
RTVSPost2010PropOp33
 70
     1
102
RTVSPost2010Prop34
280
     0
102
RTVSPost2010PropOp34
 70
     1
102
RTVSPost2010Prop35
280
     0
102
RTVSPost2010PropOp35
 70
     1
102
RTVSPost2010Prop36
280
     0
102
RTVSPost2010PropOp36
 70
     1
102
RTVSPost2010Prop37
 90
       50
102
RTVSPost2010PropOp37
 70
     1
102
RTVSPost2010Prop38
140
0.0
102
RTVSPost2010PropOp38
 70
     1
102
RTVSPost2010Prop39
140
1.0
102
RTVSPost2010PropOp39
 70
     1
102
RTVSPost2010Prop40
 90
        0
102
RTVSPost2010PropOp40
 70
     1
102
RTVSPost2010Prop41ColorIndex
 90
       18
102
RTVSPost2010Prop41ColorRGB
 90
        0
102
RTVSPost2010PropOp41
 70
     1
102
RTVSPost2010Prop42
 90
       50
102
RTVSPost2010PropOp42
 70
     1
102
RTVSPost2010Prop43
 90
        3
102
RTVSPost2010PropOp43
 70
     1
102
RTVSPost2010Prop44ColorIndex
 90
        5
102
RTVSPost2010Prop44ColorRGB
 90
      255
102
RTVSPost2010PropOp44
 70
     1
102
RTVSPost2010Prop45
280
     0
102
RTVSPost2010PropOp45
 70
     1
102
RTVSPost2010Prop46
 90
       50
102
RTVSPost2010PropOp46
 70
     1
102
RTVSPost2010Prop47
 90
       50
102
RTVSPost2010PropOp47
 70
     1
102
RTVSPost2010Prop48
 90
       50
102
RTVSPost2010PropOp48
 70
     1
102
RTVSPost2010Prop49
280
     0
102
RTVSPost2010PropOp49
 70
     1
102
RTVSPost2010Prop50
 90
       50
102
RTVSPost2010PropOp50
 70
     1
102
RTVSPost2010Prop51ColorIndex
 90
      256
102
RTVSPost2010Prop51ColorRGB
 90
-16777216
102
RTVSPost2010PropOp51
 70
     0
102
RTVSPost2010Prop52
140
1.0
102
RTVSPost2010PropOp52
 70
     0
102
RTVSPost2010Prop53
 90
        2
102
RTVSPost2010PropOp53
 70
     1
102
RTVSPost2010Prop54
  1
strokes_ogs.tif
102
RTVSPost2010PropOp54
 70
     1
102
RTVSPost2010Prop55
280
     0
102
RTVSPost2010PropOp55
 70
     1
102
RTVSPost2010Prop56
140
1.0
102
RTVSPost2010PropOp56
 70
     1
102
RTVSPost2010Prop57
140
1.0
102
RTVSPost2010PropOp57
 70
     1
102
RTVSPropertyOp0
 70
     1
102
RTVSPropertyOp1
 70
     1
102
RTVSPropertyOp2
 70
     1
102
RTVSPropertyOp3
 70
     1
102
RTVSPropertyOp4
 70
     1
102
RTVSPropertyOp5
 70
     1
102
RTVSPropertyOp6
 70
     1
102
RTVSPropertyOp7
 70
     1
102
RTVSPropertyOp8
 70
     1
102
RTVSPropertyOp9
 70
     1
102
RTVSPropertyOp10
 70
     1
102
RTVSPropertyOp11
 70
     1
102
RTVSPropertyOp12
 70
     1
102
RTVSPropertyOp13
 70
     1
102
RTVSPropertyOp14
 70
     1
102
RTVSPropertyOp15
 70
     1
102
RTVSPropertyOp16
 70
     1
102
RTVSPropertyOp17
 70
     1
102
RTVSPropertyOp18
 70
     1
102
RTVSPropertyOp19
 70
     1
102
RTVSPropertyOp20
 70
     1
102
RTVSPropertyOp21
 70
     1
102
RTVSPropertyOp22
 70
     1
102
RTVSPropertyOp23
 70
     1
102
RTVSPropertyOp24
 70
     1
102
RTVSPropertyOp25
 70
     1
102
RTVSPropertyOp26
 70
     1
102
RTVSPropertyOp27
 70
     1
102
RTVSPropertyOp28
 70
     1
102
RTVSPropertyOp29
 70
     1
102
RTVSPropertyOp30
 70
     1
102
RTVSPropertyOp31
 70
     1
102
RTVSPropertyOp32
 70
     1
102
RTVSPropertyOp33
 70
     1
102
RTVSPropertyOp34
 70
     1
102
RTVSPropertyOp35
 70
     1
102
RTVSPropertyOp36
 70
     1
102
RTVSPropertyOp37
 70
     1
102
RTVSPropertyOp38
 70
     1
102
RTVSPropertyOp39
 70
     1
102
RTVSPropertyOp40
 70
     1
102
RTVSPropertyOp41
 70
     1
102
RTVSPropertyOp42
 70
     1
102
RTVSPropertyOp43
 70
     1
102
RTVSPropertyOp44
 70
     1
102
RTVSPropertyOp45
 70
     1
102
RTVSPropertyOp46
 70
     1
102
RTVSPropertyOp47
 70
     1
102
RTVSPropertyOp48
 70
     1
102
RTVSPropertyOp49
 70
     1
102
RTVSPropertyOp50
 70
     1
102
RTVSPropertyOp51
 70
     0
102
RTVSPropertyOp52
 70
     0
102
RTVSPropertyOp53
 70
     1
102
RTVSPropertyOp54
 70
     1
102
RTVSPropertyOp55
 70
     1
102
RTVSPropertyOp56
 70
     1
102
RTVSPropertyOp57
 70
     1
102
RTVSPropertyOp58
 70
     1
102
RTVSPropertyOp59
 70
     1
102
RTVSPropertyOp60
 70
     1
102
RTVSPropertyOp61
 70
     1
102
RTVSPropertyOp62
 70
     1
  0
XRECORD
  5
BCC7
102
{ACAD_REACTORS
330
BCC6
102
}
330
BCC6
100
AcDbXrecord
280
     1
102
RTVSPost2010Prop28
280
     0
102
RTVSPost2010PropOp28
 70
     1
102
RTVSPost2010Prop29
280
     1
102
RTVSPost2010PropOp29
 70
     1
102
RTVSPost2010Prop30
280
     1
102
RTVSPost2010PropOp30
 70
     1
102
RTVSPost2010Prop31
280
     0
102
RTVSPost2010PropOp31
 70
     1
102
RTVSPost2010Prop32
280
     0
102
RTVSPost2010PropOp32
 70
     1
102
RTVSPost2010Prop33
280
     0
102
RTVSPost2010PropOp33
 70
     1
102
RTVSPost2010Prop34
280
     0
102
RTVSPost2010PropOp34
 70
     1
102
RTVSPost2010Prop35
280
     0
102
RTVSPost2010PropOp35
 70
     1
102
RTVSPost2010Prop36
280
     0
102
RTVSPost2010PropOp36
 70
     1
102
RTVSPost2010Prop37
 90
       50
102
RTVSPost2010PropOp37
 70
     1
102
RTVSPost2010Prop38
140
0.0
102
RTVSPost2010PropOp38
 70
     1
102
RTVSPost2010Prop39
140
1.0
102
RTVSPost2010PropOp39
 70
     1
102
RTVSPost2010Prop40
 90
        0
102
RTVSPost2010PropOp40
 70
     1
102
RTVSPost2010Prop41ColorIndex
 90
       18
102
RTVSPost2010Prop41ColorRGB
 90
        0
102
RTVSPost2010PropOp41
 70
     1
102
RTVSPost2010Prop42
 90
       50
102
RTVSPost2010PropOp42
 70
     1
102
RTVSPost2010Prop43
 90
        3
102
RTVSPost2010PropOp43
 70
     1
102
RTVSPost2010Prop44ColorIndex
 90
        5
102
RTVSPost2010Prop44ColorRGB
 90
      255
102
RTVSPost2010PropOp44
 70
     1
102
RTVSPost2010Prop45
280
     0
102
RTVSPost2010PropOp45
 70
     1
102
RTVSPost2010Prop46
 90
       50
102
RTVSPost2010PropOp46
 70
     1
102
RTVSPost2010Prop47
 90
       50
102
RTVSPost2010PropOp47
 70
     1
102
RTVSPost2010Prop48
 90
       50
102
RTVSPost2010PropOp48
 70
     1
102
RTVSPost2010Prop49
280
     0
102
RTVSPost2010PropOp49
 70
     1
102
RTVSPost2010Prop50
 90
       50
102
RTVSPost2010PropOp50
 70
     1
102
RTVSPost2010Prop51ColorIndex
 90
      256
102
RTVSPost2010Prop51ColorRGB
 90
-16777216
102
RTVSPost2010PropOp51
 70
     0
102
RTVSPost2010Prop52
140
1.0
102
RTVSPost2010PropOp52
 70
     0
102
RTVSPost2010Prop53
 90
        2
102
RTVSPost2010PropOp53
 70
     1
102
RTVSPost2010Prop54
  1
strokes_ogs.tif
102
RTVSPost2010PropOp54
 70
     1
102
RTVSPost2010Prop55
280
     0
102
RTVSPost2010PropOp55
 70
     1
102
RTVSPost2010Prop56
140
1.0
102
RTVSPost2010PropOp56
 70
     1
102
RTVSPost2010Prop57
140
1.0
102
RTVSPost2010PropOp57
 70
     1
102
RTVSPropertyOp0
 70
     1
102
RTVSPropertyOp1
 70
     1
102
RTVSPropertyOp2
 70
     1
102
RTVSPropertyOp3
 70
     1
102
RTVSPropertyOp4
 70
     1
102
RTVSPropertyOp5
 70
     1
102
RTVSPropertyOp6
 70
     1
102
RTVSPropertyOp7
 70
     1
102
RTVSPropertyOp8
 70
     1
102
RTVSPropertyOp9
 70
     1
102
RTVSPropertyOp10
 70
     1
102
RTVSPropertyOp11
 70
     1
102
RTVSPropertyOp12
 70
     1
102
RTVSPropertyOp13
 70
     1
102
RTVSPropertyOp14
 70
     1
102
RTVSPropertyOp15
 70
     1
102
RTVSPropertyOp16
 70
     1
102
RTVSPropertyOp17
 70
     1
102
RTVSPropertyOp18
 70
     1
102
RTVSPropertyOp19
 70
     1
102
RTVSPropertyOp20
 70
     1
102
RTVSPropertyOp21
 70
     1
102
RTVSPropertyOp22
 70
     1
102
RTVSPropertyOp23
 70
     1
102
RTVSPropertyOp24
 70
     1
102
RTVSPropertyOp25
 70
     1
102
RTVSPropertyOp26
 70
     1
102
RTVSPropertyOp27
 70
     1
102
RTVSPropertyOp28
 70
     1
102
RTVSPropertyOp29
 70
     1
102
RTVSPropertyOp30
 70
     1
102
RTVSPropertyOp31
 70
     1
102
RTVSPropertyOp32
 70
     1
102
RTVSPropertyOp33
 70
     1
102
RTVSPropertyOp34
 70
     1
102
RTVSPropertyOp35
 70
     1
102
RTVSPropertyOp36
 70
     1
102
RTVSPropertyOp37
 70
     1
102
RTVSPropertyOp38
 70
     1
102
RTVSPropertyOp39
 70
     1
102
RTVSPropertyOp40
 70
     1
102
RTVSPropertyOp41
 70
     1
102
RTVSPropertyOp42
 70
     1
102
RTVSPropertyOp43
 70
     1
102
RTVSPropertyOp44
 70
     1
102
RTVSPropertyOp45
 70
     1
102
RTVSPropertyOp46
 70
     1
102
RTVSPropertyOp47
 70
     1
102
RTVSPropertyOp48
 70
     1
102
RTVSPropertyOp49
 70
     1
102
RTVSPropertyOp50
 70
     1
102
RTVSPropertyOp51
 70
     0
102
RTVSPropertyOp52
 70
     0
102
RTVSPropertyOp53
 70
     1
102
RTVSPropertyOp54
 70
     1
102
RTVSPropertyOp55
 70
     1
102
RTVSPropertyOp56
 70
     1
102
RTVSPropertyOp57
 70
     1
102
RTVSPropertyOp58
 70
     1
102
RTVSPropertyOp59
 70
     1
102
RTVSPropertyOp60
 70
     1
102
RTVSPropertyOp61
 70
     1
102
RTVSPropertyOp62
 70
     1
  0
XRECORD
  5
BCE3
102
{ACAD_REACTORS
330
BCE2
102
}
330
BCE2
100
AcDbXrecord
280
     1
102
RTVSPost2010Prop28
280
     0
102
RTVSPost2010PropOp28
 70
     1
102
RTVSPost2010Prop29
280
     1
102
RTVSPost2010PropOp29
 70
     1
102
RTVSPost2010Prop30
280
     1
102
RTVSPost2010PropOp30
 70
     1
102
RTVSPost2010Prop31
280
     0
102
RTVSPost2010PropOp31
 70
     1
102
RTVSPost2010Prop32
280
     0
102
RTVSPost2010PropOp32
 70
     1
102
RTVSPost2010Prop33
280
     0
102
RTVSPost2010PropOp33
 70
     1
102
RTVSPost2010Prop34
280
     0
102
RTVSPost2010PropOp34
 70
     1
102
RTVSPost2010Prop35
280
     0
102
RTVSPost2010PropOp35
 70
     1
102
RTVSPost2010Prop36
280
     0
102
RTVSPost2010PropOp36
 70
     1
102
RTVSPost2010Prop37
 90
       50
102
RTVSPost2010PropOp37
 70
     0
102
RTVSPost2010Prop38
140
0.0
102
RTVSPost2010PropOp38
 70
     0
102
RTVSPost2010Prop39
140
1.0
102
RTVSPost2010PropOp39
 70
     0
102
RTVSPost2010Prop40
 90
        0
102
RTVSPost2010PropOp40
 70
     0
102
RTVSPost2010Prop41ColorIndex
 90
       18
102
RTVSPost2010Prop41ColorRGB
 90
        0
102
RTVSPost2010PropOp41
 70
     0
102
RTVSPost2010Prop42
 90
       50
102
RTVSPost2010PropOp42
 70
     0
102
RTVSPost2010Prop43
 90
        3
102
RTVSPost2010PropOp43
 70
     0
102
RTVSPost2010Prop44ColorIndex
 90
        5
102
RTVSPost2010Prop44ColorRGB
 90
      255
102
RTVSPost2010PropOp44
 70
     0
102
RTVSPost2010Prop45
280
     0
102
RTVSPost2010PropOp45
 70
     1
102
RTVSPost2010Prop46
 90
       50
102
RTVSPost2010PropOp46
 70
     0
102
RTVSPost2010Prop47
 90
       50
102
RTVSPost2010PropOp47
 70
     0
102
RTVSPost2010Prop48
 90
       50
102
RTVSPost2010PropOp48
 70
     0
102
RTVSPost2010Prop49
280
     0
102
RTVSPost2010PropOp49
 70
     1
102
RTVSPost2010Prop50
 90
       50
102
RTVSPost2010PropOp50
 70
     0
102
RTVSPost2010Prop51ColorIndex
 90
      256
102
RTVSPost2010Prop51ColorRGB
 90
-16777216
102
RTVSPost2010PropOp51
 70
     0
102
RTVSPost2010Prop52
140
1.0
102
RTVSPost2010PropOp52
 70
     0
102
RTVSPost2010Prop53
 90
        2
102
RTVSPost2010PropOp53
 70
     0
102
RTVSPost2010Prop54
  1
strokes_ogs.tif
102
RTVSPost2010PropOp54
 70
     0
102
RTVSPost2010Prop55
280
     0
102
RTVSPost2010PropOp55
 70
     1
102
RTVSPost2010Prop56
140
1.0
102
RTVSPost2010PropOp56
 70
     0
102
RTVSPost2010Prop57
140
1.0
102
RTVSPost2010PropOp57
 70
     0
102
RTVSPropertyOp0
 70
     0
102
RTVSPropertyOp1
 70
     0
102
RTVSPropertyOp2
 70
     0
102
RTVSPropertyOp3
 70
     0
102
RTVSPropertyOp4
 70
     0
102
RTVSPropertyOp5
 70
     0
102
RTVSPropertyOp6
 70
     0
102
RTVSPropertyOp7
 70
     0
102
RTVSPropertyOp8
 70
     0
102
RTVSPropertyOp9
 70
     0
102
RTVSPropertyOp10
 70
     0
102
RTVSPropertyOp11
 70
     0
102
RTVSPropertyOp12
 70
     0
102
RTVSPropertyOp13
 70
     0
102
RTVSPropertyOp14
 70
     2
102
RTVSPropertyOp15
 70
     0
102
RTVSPropertyOp16
 70
     0
102
RTVSPropertyOp17
 70
     0
102
RTVSPropertyOp18
 70
     0
102
RTVSPropertyOp19
 70
     0
102
RTVSPropertyOp20
 70
     0
102
RTVSPropertyOp21
 70
     0
102
RTVSPropertyOp22
 70
     0
102
RTVSPropertyOp23
 70
     0
102
RTVSPropertyOp24
 70
     0
102
RTVSPropertyOp25
 70
     0
102
RTVSPropertyOp26
 70
     0
102
RTVSPropertyOp27
 70
     0
102
RTVSPropertyOp28
 70
     1
102
RTVSPropertyOp29
 70
     1
102
RTVSPropertyOp30
 70
     1
102
RTVSPropertyOp31
 70
     1
102
RTVSPropertyOp32
 70
     1
102
RTVSPropertyOp33
 70
     1
102
RTVSPropertyOp34
 70
     1
102
RTVSPropertyOp35
 70
     1
102
RTVSPropertyOp36
 70
     1
102
RTVSPropertyOp37
 70
     0
102
RTVSPropertyOp38
 70
     0
102
RTVSPropertyOp39
 70
     0
102
RTVSPropertyOp40
 70
     0
102
RTVSPropertyOp41
 70
     0
102
RTVSPropertyOp42
 70
     0
102
RTVSPropertyOp43
 70
     0
102
RTVSPropertyOp44
 70
     0
102
RTVSPropertyOp45
 70
     1
102
RTVSPropertyOp46
 70
     0
102
RTVSPropertyOp47
 70
     0
102
RTVSPropertyOp48
 70
     0
102
RTVSPropertyOp49
 70
     1
102
RTVSPropertyOp50
 70
     0
102
RTVSPropertyOp51
 70
     0
102
RTVSPropertyOp52
 70
     0
102
RTVSPropertyOp53
 70
     0
102
RTVSPropertyOp54
 70
     0
102
RTVSPropertyOp55
 70
     1
102
RTVSPropertyOp56
 70
     0
102
RTVSPropertyOp57
 70
     0
102
RTVSPropertyOp58
 70
     0
102
RTVSPropertyOp59
 70
     0
102
RTVSPropertyOp60
 70
     0
102
RTVSPropertyOp61
 70
     0
102
RTVSPropertyOp62
 70
     0
  0
XRECORD
  5
BCD3
102
{ACAD_REACTORS
330
BCD2
102
}
330
BCD2
100
AcDbXrecord
280
     1
102
RTVSPost2010Prop28
280
     0
102
RTVSPost2010PropOp28
 70
     1
102
RTVSPost2010Prop29
280
     1
102
RTVSPost2010PropOp29
 70
     1
102
RTVSPost2010Prop30
280
     1
102
RTVSPost2010PropOp30
 70
     1
102
RTVSPost2010Prop31
280
     0
102
RTVSPost2010PropOp31
 70
     1
102
RTVSPost2010Prop32
280
     0
102
RTVSPost2010PropOp32
 70
     1
102
RTVSPost2010Prop33
280
     0
102
RTVSPost2010PropOp33
 70
     1
102
RTVSPost2010Prop34
280
     0
102
RTVSPost2010PropOp34
 70
     1
102
RTVSPost2010Prop35
280
     0
102
RTVSPost2010PropOp35
 70
     1
102
RTVSPost2010Prop36
280
     0
102
RTVSPost2010PropOp36
 70
     1
102
RTVSPost2010Prop37
 90
       50
102
RTVSPost2010PropOp37
 70
     1
102
RTVSPost2010Prop38
140
0.0
102
RTVSPost2010PropOp38
 70
     1
102
RTVSPost2010Prop39
140
1.0
102
RTVSPost2010PropOp39
 70
     1
102
RTVSPost2010Prop40
 90
        0
102
RTVSPost2010PropOp40
 70
     1
102
RTVSPost2010Prop41ColorIndex
 90
       18
102
RTVSPost2010Prop41ColorRGB
 90
        0
102
RTVSPost2010PropOp41
 70
     1
102
RTVSPost2010Prop42
 90
       50
102
RTVSPost2010PropOp42
 70
     1
102
RTVSPost2010Prop43
 90
        3
102
RTVSPost2010PropOp43
 70
     1
102
RTVSPost2010Prop44ColorIndex
 90
        5
102
RTVSPost2010Prop44ColorRGB
 90
      255
102
RTVSPost2010PropOp44
 70
     1
102
RTVSPost2010Prop45
280
     0
102
RTVSPost2010PropOp45
 70
     1
102
RTVSPost2010Prop46
 90
       50
102
RTVSPost2010PropOp46
 70
     1
102
RTVSPost2010Prop47
 90
       50
102
RTVSPost2010PropOp47
 70
     1
102
RTVSPost2010Prop48
 90
       50
102
RTVSPost2010PropOp48
 70
     1
102
RTVSPost2010Prop49
280
     0
102
RTVSPost2010PropOp49
 70
     1
102
RTVSPost2010Prop50
 90
       50
102
RTVSPost2010PropOp50
 70
     1
102
RTVSPost2010Prop51ColorIndex
 90
      256
102
RTVSPost2010Prop51ColorRGB
 90
-16777216
102
RTVSPost2010PropOp51
 70
     0
102
RTVSPost2010Prop52
140
1.0
102
RTVSPost2010PropOp52
 70
     0
102
RTVSPost2010Prop53
 90
        2
102
RTVSPost2010PropOp53
 70
     1
102
RTVSPost2010Prop54
  1
strokes_ogs.tif
102
RTVSPost2010PropOp54
 70
     1
102
RTVSPost2010Prop55
280
     0
102
RTVSPost2010PropOp55
 70
     1
102
RTVSPost2010Prop56
140
1.0
102
RTVSPost2010PropOp56
 70
     1
102
RTVSPost2010Prop57
140
1.0
102
RTVSPost2010PropOp57
 70
     1
102
RTVSPropertyOp0
 70
     1
102
RTVSPropertyOp1
 70
     1
102
RTVSPropertyOp2
 70
     1
102
RTVSPropertyOp3
 70
     1
102
RTVSPropertyOp4
 70
     1
102
RTVSPropertyOp5
 70
     1
102
RTVSPropertyOp6
 70
     1
102
RTVSPropertyOp7
 70
     1
102
RTVSPropertyOp8
 70
     1
102
RTVSPropertyOp9
 70
     1
102
RTVSPropertyOp10
 70
     1
102
RTVSPropertyOp11
 70
     1
102
RTVSPropertyOp12
 70
     1
102
RTVSPropertyOp13
 70
     1
102
RTVSPropertyOp14
 70
     1
102
RTVSPropertyOp15
 70
     1
102
RTVSPropertyOp16
 70
     1
102
RTVSPropertyOp17
 70
     1
102
RTVSPropertyOp18
 70
     1
102
RTVSPropertyOp19
 70
     1
102
RTVSPropertyOp20
 70
     1
102
RTVSPropertyOp21
 70
     1
102
RTVSPropertyOp22
 70
     1
102
RTVSPropertyOp23
 70
     1
102
RTVSPropertyOp24
 70
     1
102
RTVSPropertyOp25
 70
     1
102
RTVSPropertyOp26
 70
     1
102
RTVSPropertyOp27
 70
     1
102
RTVSPropertyOp28
 70
     1
102
RTVSPropertyOp29
 70
     1
102
RTVSPropertyOp30
 70
     1
102
RTVSPropertyOp31
 70
     1
102
RTVSPropertyOp32
 70
     1
102
RTVSPropertyOp33
 70
     1
102
RTVSPropertyOp34
 70
     1
102
RTVSPropertyOp35
 70
     1
102
RTVSPropertyOp36
 70
     1
102
RTVSPropertyOp37
 70
     1
102
RTVSPropertyOp38
 70
     1
102
RTVSPropertyOp39
 70
     1
102
RTVSPropertyOp40
 70
     1
102
RTVSPropertyOp41
 70
     1
102
RTVSPropertyOp42
 70
     1
102
RTVSPropertyOp43
 70
     1
102
RTVSPropertyOp44
 70
     1
102
RTVSPropertyOp45
 70
     1
102
RTVSPropertyOp46
 70
     1
102
RTVSPropertyOp47
 70
     1
102
RTVSPropertyOp48
 70
     1
102
RTVSPropertyOp49
 70
     1
102
RTVSPropertyOp50
 70
     1
102
RTVSPropertyOp51
 70
     0
102
RTVSPropertyOp52
 70
     0
102
RTVSPropertyOp53
 70
     1
102
RTVSPropertyOp54
 70
     1
102
RTVSPropertyOp55
 70
     1
102
RTVSPropertyOp56
 70
     1
102
RTVSPropertyOp57
 70
     1
102
RTVSPropertyOp58
 70
     1
102
RTVSPropertyOp59
 70
     1
102
RTVSPropertyOp60
 70
     1
102
RTVSPropertyOp61
 70
     1
102
RTVSPropertyOp62
 70
     1
  0
XRECORD
  5
BCE5
102
{ACAD_REACTORS
330
BCE4
102
}
330
BCE4
100
AcDbXrecord
280
     1
102
RTVSPost2010Prop28
280
     0
102
RTVSPost2010PropOp28
 70
     1
102
RTVSPost2010Prop29
280
     1
102
RTVSPost2010PropOp29
 70
     1
102
RTVSPost2010Prop30
280
     1
102
RTVSPost2010PropOp30
 70
     1
102
RTVSPost2010Prop31
280
     0
102
RTVSPost2010PropOp31
 70
     1
102
RTVSPost2010Prop32
280
     0
102
RTVSPost2010PropOp32
 70
     1
102
RTVSPost2010Prop33
280
     0
102
RTVSPost2010PropOp33
 70
     1
102
RTVSPost2010Prop34
280
     0
102
RTVSPost2010PropOp34
 70
     1
102
RTVSPost2010Prop35
280
     0
102
RTVSPost2010PropOp35
 70
     1
102
RTVSPost2010Prop36
280
     0
102
RTVSPost2010PropOp36
 70
     1
102
RTVSPost2010Prop37
 90
       50
102
RTVSPost2010PropOp37
 70
     0
102
RTVSPost2010Prop38
140
0.0
102
RTVSPost2010PropOp38
 70
     0
102
RTVSPost2010Prop39
140
1.0
102
RTVSPost2010PropOp39
 70
     0
102
RTVSPost2010Prop40
 90
        0
102
RTVSPost2010PropOp40
 70
     0
102
RTVSPost2010Prop41ColorIndex
 90
       18
102
RTVSPost2010Prop41ColorRGB
 90
        0
102
RTVSPost2010PropOp41
 70
     0
102
RTVSPost2010Prop42
 90
       50
102
RTVSPost2010PropOp42
 70
     0
102
RTVSPost2010Prop43
 90
        3
102
RTVSPost2010PropOp43
 70
     0
102
RTVSPost2010Prop44ColorIndex
 90
        5
102
RTVSPost2010Prop44ColorRGB
 90
      255
102
RTVSPost2010PropOp44
 70
     0
102
RTVSPost2010Prop45
280
     0
102
RTVSPost2010PropOp45
 70
     1
102
RTVSPost2010Prop46
 90
       50
102
RTVSPost2010PropOp46
 70
     0
102
RTVSPost2010Prop47
 90
       50
102
RTVSPost2010PropOp47
 70
     0
102
RTVSPost2010Prop48
 90
       50
102
RTVSPost2010PropOp48
 70
     0
102
RTVSPost2010Prop49
280
     0
102
RTVSPost2010PropOp49
 70
     1
102
RTVSPost2010Prop50
 90
       50
102
RTVSPost2010PropOp50
 70
     0
102
RTVSPost2010Prop51ColorIndex
 90
      256
102
RTVSPost2010Prop51ColorRGB
 90
-16777216
102
RTVSPost2010PropOp51
 70
     0
102
RTVSPost2010Prop52
140
1.0
102
RTVSPost2010PropOp52
 70
     0
102
RTVSPost2010Prop53
 90
        2
102
RTVSPost2010PropOp53
 70
     0
102
RTVSPost2010Prop54
  1
strokes_ogs.tif
102
RTVSPost2010PropOp54
 70
     0
102
RTVSPost2010Prop55
280
     0
102
RTVSPost2010PropOp55
 70
     1
102
RTVSPost2010Prop56
140
1.0
102
RTVSPost2010PropOp56
 70
     0
102
RTVSPost2010Prop57
140
1.0
102
RTVSPost2010PropOp57
 70
     0
102
RTVSPropertyOp0
 70
     0
102
RTVSPropertyOp1
 70
     0
102
RTVSPropertyOp2
 70
     0
102
RTVSPropertyOp3
 70
     0
102
RTVSPropertyOp4
 70
     0
102
RTVSPropertyOp5
 70
     0
102
RTVSPropertyOp6
 70
     0
102
RTVSPropertyOp7
 70
     0
102
RTVSPropertyOp8
 70
     0
102
RTVSPropertyOp9
 70
     0
102
RTVSPropertyOp10
 70
     0
102
RTVSPropertyOp11
 70
     0
102
RTVSPropertyOp12
 70
     0
102
RTVSPropertyOp13
 70
     0
102
RTVSPropertyOp14
 70
     2
102
RTVSPropertyOp15
 70
     0
102
RTVSPropertyOp16
 70
     0
102
RTVSPropertyOp17
 70
     0
102
RTVSPropertyOp18
 70
     0
102
RTVSPropertyOp19
 70
     0
102
RTVSPropertyOp20
 70
     0
102
RTVSPropertyOp21
 70
     0
102
RTVSPropertyOp22
 70
     0
102
RTVSPropertyOp23
 70
     0
102
RTVSPropertyOp24
 70
     0
102
RTVSPropertyOp25
 70
     0
102
RTVSPropertyOp26
 70
     0
102
RTVSPropertyOp27
 70
     0
102
RTVSPropertyOp28
 70
     1
102
RTVSPropertyOp29
 70
     1
102
RTVSPropertyOp30
 70
     1
102
RTVSPropertyOp31
 70
     1
102
RTVSPropertyOp32
 70
     1
102
RTVSPropertyOp33
 70
     1
102
RTVSPropertyOp34
 70
     1
102
RTVSPropertyOp35
 70
     1
102
RTVSPropertyOp36
 70
     1
102
RTVSPropertyOp37
 70
     0
102
RTVSPropertyOp38
 70
     0
102
RTVSPropertyOp39
 70
     0
102
RTVSPropertyOp40
 70
     0
102
RTVSPropertyOp41
 70
     0
102
RTVSPropertyOp42
 70
     0
102
RTVSPropertyOp43
 70
     0
102
RTVSPropertyOp44
 70
     0
102
RTVSPropertyOp45
 70
     1
102
RTVSPropertyOp46
 70
     0
102
RTVSPropertyOp47
 70
     0
102
RTVSPropertyOp48
 70
     0
102
RTVSPropertyOp49
 70
     1
102
RTVSPropertyOp50
 70
     0
102
RTVSPropertyOp51
 70
     0
102
RTVSPropertyOp52
 70
     0
102
RTVSPropertyOp53
 70
     0
102
RTVSPropertyOp54
 70
     0
102
RTVSPropertyOp55
 70
     1
102
RTVSPropertyOp56
 70
     0
102
RTVSPropertyOp57
 70
     0
102
RTVSPropertyOp58
 70
     0
102
RTVSPropertyOp59
 70
     0
102
RTVSPropertyOp60
 70
     0
102
RTVSPropertyOp61
 70
     0
102
RTVSPropertyOp62
 70
     0
  0
XRECORD
  5
BCCB
102
{ACAD_REACTORS
330
BCCA
102
}
330
BCCA
100
AcDbXrecord
280
     1
102
RTVSPost2010Prop28
280
     0
102
RTVSPost2010PropOp28
 70
     1
102
RTVSPost2010Prop29
280
     1
102
RTVSPost2010PropOp29
 70
     1
102
RTVSPost2010Prop30
280
     1
102
RTVSPost2010PropOp30
 70
     1
102
RTVSPost2010Prop31
280
     0
102
RTVSPost2010PropOp31
 70
     1
102
RTVSPost2010Prop32
280
     0
102
RTVSPost2010PropOp32
 70
     1
102
RTVSPost2010Prop33
280
     0
102
RTVSPost2010PropOp33
 70
     1
102
RTVSPost2010Prop34
280
     0
102
RTVSPost2010PropOp34
 70
     1
102
RTVSPost2010Prop35
280
     0
102
RTVSPost2010PropOp35
 70
     1
102
RTVSPost2010Prop36
280
     0
102
RTVSPost2010PropOp36
 70
     1
102
RTVSPost2010Prop37
 90
       50
102
RTVSPost2010PropOp37
 70
     1
102
RTVSPost2010Prop38
140
0.0
102
RTVSPost2010PropOp38
 70
     1
102
RTVSPost2010Prop39
140
1.0
102
RTVSPost2010PropOp39
 70
     1
102
RTVSPost2010Prop40
 90
        0
102
RTVSPost2010PropOp40
 70
     1
102
RTVSPost2010Prop41ColorIndex
 90
       18
102
RTVSPost2010Prop41ColorRGB
 90
        0
102
RTVSPost2010PropOp41
 70
     1
102
RTVSPost2010Prop42
 90
       50
102
RTVSPost2010PropOp42
 70
     1
102
RTVSPost2010Prop43
 90
        3
102
RTVSPost2010PropOp43
 70
     1
102
RTVSPost2010Prop44ColorIndex
 90
        5
102
RTVSPost2010Prop44ColorRGB
 90
      255
102
RTVSPost2010PropOp44
 70
     1
102
RTVSPost2010Prop45
280
     0
102
RTVSPost2010PropOp45
 70
     1
102
RTVSPost2010Prop46
 90
       50
102
RTVSPost2010PropOp46
 70
     1
102
RTVSPost2010Prop47
 90
       50
102
RTVSPost2010PropOp47
 70
     1
102
RTVSPost2010Prop48
 90
       50
102
RTVSPost2010PropOp48
 70
     1
102
RTVSPost2010Prop49
280
     0
102
RTVSPost2010PropOp49
 70
     1
102
RTVSPost2010Prop50
 90
       50
102
RTVSPost2010PropOp50
 70
     1
102
RTVSPost2010Prop51ColorIndex
 90
      256
102
RTVSPost2010Prop51ColorRGB
 90
-16777216
102
RTVSPost2010PropOp51
 70
     0
102
RTVSPost2010Prop52
140
1.0
102
RTVSPost2010PropOp52
 70
     0
102
RTVSPost2010Prop53
 90
        2
102
RTVSPost2010PropOp53
 70
     1
102
RTVSPost2010Prop54
  1
strokes_ogs.tif
102
RTVSPost2010PropOp54
 70
     1
102
RTVSPost2010Prop55
280
     0
102
RTVSPost2010PropOp55
 70
     1
102
RTVSPost2010Prop56
140
1.0
102
RTVSPost2010PropOp56
 70
     1
102
RTVSPost2010Prop57
140
1.0
102
RTVSPost2010PropOp57
 70
     1
102
RTVSPropertyOp0
 70
     1
102
RTVSPropertyOp1
 70
     1
102
RTVSPropertyOp2
 70
     1
102
RTVSPropertyOp3
 70
     1
102
RTVSPropertyOp4
 70
     1
102
RTVSPropertyOp5
 70
     1
102
RTVSPropertyOp6
 70
     1
102
RTVSPropertyOp7
 70
     1
102
RTVSPropertyOp8
 70
     1
102
RTVSPropertyOp9
 70
     1
102
RTVSPropertyOp10
 70
     1
102
RTVSPropertyOp11
 70
     1
102
RTVSPropertyOp12
 70
     1
102
RTVSPropertyOp13
 70
     1
102
RTVSPropertyOp14
 70
     1
102
RTVSPropertyOp15
 70
     1
102
RTVSPropertyOp16
 70
     1
102
RTVSPropertyOp17
 70
     1
102
RTVSPropertyOp18
 70
     1
102
RTVSPropertyOp19
 70
     1
102
RTVSPropertyOp20
 70
     1
102
RTVSPropertyOp21
 70
     1
102
RTVSPropertyOp22
 70
     1
102
RTVSPropertyOp23
 70
     1
102
RTVSPropertyOp24
 70
     1
102
RTVSPropertyOp25
 70
     1
102
RTVSPropertyOp26
 70
     1
102
RTVSPropertyOp27
 70
     1
102
RTVSPropertyOp28
 70
     1
102
RTVSPropertyOp29
 70
     1
102
RTVSPropertyOp30
 70
     1
102
RTVSPropertyOp31
 70
     1
102
RTVSPropertyOp32
 70
     1
102
RTVSPropertyOp33
 70
     1
102
RTVSPropertyOp34
 70
     1
102
RTVSPropertyOp35
 70
     1
102
RTVSPropertyOp36
 70
     1
102
RTVSPropertyOp37
 70
     1
102
RTVSPropertyOp38
 70
     1
102
RTVSPropertyOp39
 70
     1
102
RTVSPropertyOp40
 70
     1
102
RTVSPropertyOp41
 70
     1
102
RTVSPropertyOp42
 70
     1
102
RTVSPropertyOp43
 70
     1
102
RTVSPropertyOp44
 70
     1
102
RTVSPropertyOp45
 70
     1
102
RTVSPropertyOp46
 70
     1
102
RTVSPropertyOp47
 70
     1
102
RTVSPropertyOp48
 70
     1
102
RTVSPropertyOp49
 70
     1
102
RTVSPropertyOp50
 70
     1
102
RTVSPropertyOp51
 70
     0
102
RTVSPropertyOp52
 70
     0
102
RTVSPropertyOp53
 70
     1
102
RTVSPropertyOp54
 70
     1
102
RTVSPropertyOp55
 70
     1
102
RTVSPropertyOp56
 70
     1
102
RTVSPropertyOp57
 70
     1
102
RTVSPropertyOp58
 70
     1
102
RTVSPropertyOp59
 70
     1
102
RTVSPropertyOp60
 70
     1
102
RTVSPropertyOp61
 70
     1
102
RTVSPropertyOp62
 70
     1
  0
XRECORD
  5
BCE1
102
{ACAD_REACTORS
330
BCE0
102
}
330
BCE0
100
AcDbXrecord
280
     1
102
RTVSPost2010Prop28
280
     0
102
RTVSPost2010PropOp28
 70
     1
102
RTVSPost2010Prop29
280
     1
102
RTVSPost2010PropOp29
 70
     1
102
RTVSPost2010Prop30
280
     1
102
RTVSPost2010PropOp30
 70
     1
102
RTVSPost2010Prop31
280
     0
102
RTVSPost2010PropOp31
 70
     1
102
RTVSPost2010Prop32
280
     0
102
RTVSPost2010PropOp32
 70
     1
102
RTVSPost2010Prop33
280
     0
102
RTVSPost2010PropOp33
 70
     1
102
RTVSPost2010Prop34
280
     0
102
RTVSPost2010PropOp34
 70
     1
102
RTVSPost2010Prop35
280
     0
102
RTVSPost2010PropOp35
 70
     1
102
RTVSPost2010Prop36
280
     0
102
RTVSPost2010PropOp36
 70
     1
102
RTVSPost2010Prop37
 90
       50
102
RTVSPost2010PropOp37
 70
     1
102
RTVSPost2010Prop38
140
0.0
102
RTVSPost2010PropOp38
 70
     1
102
RTVSPost2010Prop39
140
1.0
102
RTVSPost2010PropOp39
 70
     1
102
RTVSPost2010Prop40
 90
        0
102
RTVSPost2010PropOp40
 70
     1
102
RTVSPost2010Prop41ColorIndex
 90
       18
102
RTVSPost2010Prop41ColorRGB
 90
        0
102
RTVSPost2010PropOp41
 70
     1
102
RTVSPost2010Prop42
 90
       50
102
RTVSPost2010PropOp42
 70
     1
102
RTVSPost2010Prop43
 90
        3
102
RTVSPost2010PropOp43
 70
     1
102
RTVSPost2010Prop44ColorIndex
 90
        5
102
RTVSPost2010Prop44ColorRGB
 90
      255
102
RTVSPost2010PropOp44
 70
     1
102
RTVSPost2010Prop45
280
     0
102
RTVSPost2010PropOp45
 70
     1
102
RTVSPost2010Prop46
 90
       50
102
RTVSPost2010PropOp46
 70
     1
102
RTVSPost2010Prop47
 90
       50
102
RTVSPost2010PropOp47
 70
     1
102
RTVSPost2010Prop48
 90
       50
102
RTVSPost2010PropOp48
 70
     1
102
RTVSPost2010Prop49
280
     0
102
RTVSPost2010PropOp49
 70
     1
102
RTVSPost2010Prop50
 90
       50
102
RTVSPost2010PropOp50
 70
     1
102
RTVSPost2010Prop51ColorIndex
 90
      256
102
RTVSPost2010Prop51ColorRGB
 90
-16777216
102
RTVSPost2010PropOp51
 70
     0
102
RTVSPost2010Prop52
140
1.0
102
RTVSPost2010PropOp52
 70
     0
102
RTVSPost2010Prop53
 90
        2
102
RTVSPost2010PropOp53
 70
     1
102
RTVSPost2010Prop54
  1
strokes_ogs.tif
102
RTVSPost2010PropOp54
 70
     1
102
RTVSPost2010Prop55
280
     0
102
RTVSPost2010PropOp55
 70
     1
102
RTVSPost2010Prop56
140
1.0
102
RTVSPost2010PropOp56
 70
     1
102
RTVSPost2010Prop57
140
1.0
102
RTVSPost2010PropOp57
 70
     1
102
RTVSPropertyOp0
 70
     1
102
RTVSPropertyOp1
 70
     1
102
RTVSPropertyOp2
 70
     1
102
RTVSPropertyOp3
 70
     1
102
RTVSPropertyOp4
 70
     1
102
RTVSPropertyOp5
 70
     1
102
RTVSPropertyOp6
 70
     1
102
RTVSPropertyOp7
 70
     1
102
RTVSPropertyOp8
 70
     1
102
RTVSPropertyOp9
 70
     1
102
RTVSPropertyOp10
 70
     1
102
RTVSPropertyOp11
 70
     1
102
RTVSPropertyOp12
 70
     1
102
RTVSPropertyOp13
 70
     1
102
RTVSPropertyOp14
 70
     1
102
RTVSPropertyOp15
 70
     1
102
RTVSPropertyOp16
 70
     1
102
RTVSPropertyOp17
 70
     1
102
RTVSPropertyOp18
 70
     1
102
RTVSPropertyOp19
 70
     1
102
RTVSPropertyOp20
 70
     1
102
RTVSPropertyOp21
 70
     1
102
RTVSPropertyOp22
 70
     1
102
RTVSPropertyOp23
 70
     1
102
RTVSPropertyOp24
 70
     1
102
RTVSPropertyOp25
 70
     1
102
RTVSPropertyOp26
 70
     1
102
RTVSPropertyOp27
 70
     1
102
RTVSPropertyOp28
 70
     1
102
RTVSPropertyOp29
 70
     1
102
RTVSPropertyOp30
 70
     1
102
RTVSPropertyOp31
 70
     1
102
RTVSPropertyOp32
 70
     1
102
RTVSPropertyOp33
 70
     1
102
RTVSPropertyOp34
 70
     1
102
RTVSPropertyOp35
 70
     1
102
RTVSPropertyOp36
 70
     1
102
RTVSPropertyOp37
 70
     1
102
RTVSPropertyOp38
 70
     1
102
RTVSPropertyOp39
 70
     1
102
RTVSPropertyOp40
 70
     1
102
RTVSPropertyOp41
 70
     1
102
RTVSPropertyOp42
 70
     1
102
RTVSPropertyOp43
 70
     1
102
RTVSPropertyOp44
 70
     1
102
RTVSPropertyOp45
 70
     1
102
RTVSPropertyOp46
 70
     1
102
RTVSPropertyOp47
 70
     1
102
RTVSPropertyOp48
 70
     1
102
RTVSPropertyOp49
 70
     1
102
RTVSPropertyOp50
 70
     1
102
RTVSPropertyOp51
 70
     0
102
RTVSPropertyOp52
 70
     0
102
RTVSPropertyOp53
 70
     1
102
RTVSPropertyOp54
 70
     1
102
RTVSPropertyOp55
 70
     1
102
RTVSPropertyOp56
 70
     1
102
RTVSPropertyOp57
 70
     1
102
RTVSPropertyOp58
 70
     1
102
RTVSPropertyOp59
 70
     1
102
RTVSPropertyOp60
 70
     1
102
RTVSPropertyOp61
 70
     1
102
RTVSPropertyOp62
 70
     1
  0
XRECORD
  5
BCDF
102
{ACAD_REACTORS
330
BCDE
102
}
330
BCDE
100
AcDbXrecord
280
     1
102
RTVSPost2010Prop28
280
     0
102
RTVSPost2010PropOp28
 70
     1
102
RTVSPost2010Prop29
280
     1
102
RTVSPost2010PropOp29
 70
     1
102
RTVSPost2010Prop30
280
     1
102
RTVSPost2010PropOp30
 70
     1
102
RTVSPost2010Prop31
280
     0
102
RTVSPost2010PropOp31
 70
     1
102
RTVSPost2010Prop32
280
     0
102
RTVSPost2010PropOp32
 70
     1
102
RTVSPost2010Prop33
280
     0
102
RTVSPost2010PropOp33
 70
     1
102
RTVSPost2010Prop34
280
     0
102
RTVSPost2010PropOp34
 70
     1
102
RTVSPost2010Prop35
280
     0
102
RTVSPost2010PropOp35
 70
     1
102
RTVSPost2010Prop36
280
     0
102
RTVSPost2010PropOp36
 70
     1
102
RTVSPost2010Prop37
 90
       50
102
RTVSPost2010PropOp37
 70
     1
102
RTVSPost2010Prop38
140
0.0
102
RTVSPost2010PropOp38
 70
     1
102
RTVSPost2010Prop39
140
1.0
102
RTVSPost2010PropOp39
 70
     1
102
RTVSPost2010Prop40
 90
        0
102
RTVSPost2010PropOp40
 70
     1
102
RTVSPost2010Prop41ColorIndex
 90
       18
102
RTVSPost2010Prop41ColorRGB
 90
        0
102
RTVSPost2010PropOp41
 70
     1
102
RTVSPost2010Prop42
 90
       50
102
RTVSPost2010PropOp42
 70
     1
102
RTVSPost2010Prop43
 90
        3
102
RTVSPost2010PropOp43
 70
     1
102
RTVSPost2010Prop44ColorIndex
 90
        5
102
RTVSPost2010Prop44ColorRGB
 90
      255
102
RTVSPost2010PropOp44
 70
     1
102
RTVSPost2010Prop45
280
     0
102
RTVSPost2010PropOp45
 70
     1
102
RTVSPost2010Prop46
 90
       50
102
RTVSPost2010PropOp46
 70
     1
102
RTVSPost2010Prop47
 90
       50
102
RTVSPost2010PropOp47
 70
     1
102
RTVSPost2010Prop48
 90
       50
102
RTVSPost2010PropOp48
 70
     1
102
RTVSPost2010Prop49
280
     0
102
RTVSPost2010PropOp49
 70
     1
102
RTVSPost2010Prop50
 90
       50
102
RTVSPost2010PropOp50
 70
     1
102
RTVSPost2010Prop51ColorIndex
 90
      256
102
RTVSPost2010Prop51ColorRGB
 90
-16777216
102
RTVSPost2010PropOp51
 70
     0
102
RTVSPost2010Prop52
140
1.0
102
RTVSPost2010PropOp52
 70
     0
102
RTVSPost2010Prop53
 90
        2
102
RTVSPost2010PropOp53
 70
     1
102
RTVSPost2010Prop54
  1
strokes_ogs.tif
102
RTVSPost2010PropOp54
 70
     1
102
RTVSPost2010Prop55
280
     0
102
RTVSPost2010PropOp55
 70
     1
102
RTVSPost2010Prop56
140
1.0
102
RTVSPost2010PropOp56
 70
     1
102
RTVSPost2010Prop57
140
1.0
102
RTVSPost2010PropOp57
 70
     1
102
RTVSPropertyOp0
 70
     1
102
RTVSPropertyOp1
 70
     1
102
RTVSPropertyOp2
 70
     1
102
RTVSPropertyOp3
 70
     1
102
RTVSPropertyOp4
 70
     1
102
RTVSPropertyOp5
 70
     1
102
RTVSPropertyOp6
 70
     1
102
RTVSPropertyOp7
 70
     1
102
RTVSPropertyOp8
 70
     1
102
RTVSPropertyOp9
 70
     1
102
RTVSPropertyOp10
 70
     1
102
RTVSPropertyOp11
 70
     1
102
RTVSPropertyOp12
 70
     1
102
RTVSPropertyOp13
 70
     1
102
RTVSPropertyOp14
 70
     1
102
RTVSPropertyOp15
 70
     1
102
RTVSPropertyOp16
 70
     1
102
RTVSPropertyOp17
 70
     1
102
RTVSPropertyOp18
 70
     1
102
RTVSPropertyOp19
 70
     1
102
RTVSPropertyOp20
 70
     1
102
RTVSPropertyOp21
 70
     1
102
RTVSPropertyOp22
 70
     1
102
RTVSPropertyOp23
 70
     1
102
RTVSPropertyOp24
 70
     1
102
RTVSPropertyOp25
 70
     1
102
RTVSPropertyOp26
 70
     1
102
RTVSPropertyOp27
 70
     1
102
RTVSPropertyOp28
 70
     1
102
RTVSPropertyOp29
 70
     1
102
RTVSPropertyOp30
 70
     1
102
RTVSPropertyOp31
 70
     1
102
RTVSPropertyOp32
 70
     1
102
RTVSPropertyOp33
 70
     1
102
RTVSPropertyOp34
 70
     1
102
RTVSPropertyOp35
 70
     1
102
RTVSPropertyOp36
 70
     1
102
RTVSPropertyOp37
 70
     1
102
RTVSPropertyOp38
 70
     1
102
RTVSPropertyOp39
 70
     1
102
RTVSPropertyOp40
 70
     1
102
RTVSPropertyOp41
 70
     1
102
RTVSPropertyOp42
 70
     1
102
RTVSPropertyOp43
 70
     1
102
RTVSPropertyOp44
 70
     1
102
RTVSPropertyOp45
 70
     1
102
RTVSPropertyOp46
 70
     1
102
RTVSPropertyOp47
 70
     1
102
RTVSPropertyOp48
 70
     1
102
RTVSPropertyOp49
 70
     1
102
RTVSPropertyOp50
 70
     1
102
RTVSPropertyOp51
 70
     0
102
RTVSPropertyOp52
 70
     0
102
RTVSPropertyOp53
 70
     1
102
RTVSPropertyOp54
 70
     1
102
RTVSPropertyOp55
 70
     1
102
RTVSPropertyOp56
 70
     1
102
RTVSPropertyOp57
 70
     1
102
RTVSPropertyOp58
 70
     1
102
RTVSPropertyOp59
 70
     1
102
RTVSPropertyOp60
 70
     1
102
RTVSPropertyOp61
 70
     1
102
RTVSPropertyOp62
 70
     1
  0
XRECORD
  5
BCD9
102
{ACAD_REACTORS
330
BCD8
102
}
330
BCD8
100
AcDbXrecord
280
     1
102
RTVSPost2010Prop28
280
     0
102
RTVSPost2010PropOp28
 70
     1
102
RTVSPost2010Prop29
280
     1
102
RTVSPost2010PropOp29
 70
     1
102
RTVSPost2010Prop30
280
     1
102
RTVSPost2010PropOp30
 70
     1
102
RTVSPost2010Prop31
280
     0
102
RTVSPost2010PropOp31
 70
     1
102
RTVSPost2010Prop32
280
     0
102
RTVSPost2010PropOp32
 70
     1
102
RTVSPost2010Prop33
280
     0
102
RTVSPost2010PropOp33
 70
     1
102
RTVSPost2010Prop34
280
     0
102
RTVSPost2010PropOp34
 70
     1
102
RTVSPost2010Prop35
280
     0
102
RTVSPost2010PropOp35
 70
     1
102
RTVSPost2010Prop36
280
     0
102
RTVSPost2010PropOp36
 70
     1
102
RTVSPost2010Prop37
 90
       50
102
RTVSPost2010PropOp37
 70
     1
102
RTVSPost2010Prop38
140
0.0
102
RTVSPost2010PropOp38
 70
     1
102
RTVSPost2010Prop39
140
1.0
102
RTVSPost2010PropOp39
 70
     1
102
RTVSPost2010Prop40
 90
        0
102
RTVSPost2010PropOp40
 70
     1
102
RTVSPost2010Prop41ColorIndex
 90
       18
102
RTVSPost2010Prop41ColorRGB
 90
        0
102
RTVSPost2010PropOp41
 70
     1
102
RTVSPost2010Prop42
 90
       50
102
RTVSPost2010PropOp42
 70
     1
102
RTVSPost2010Prop43
 90
        3
102
RTVSPost2010PropOp43
 70
     1
102
RTVSPost2010Prop44ColorIndex
 90
        5
102
RTVSPost2010Prop44ColorRGB
 90
      255
102
RTVSPost2010PropOp44
 70
     1
102
RTVSPost2010Prop45
280
     0
102
RTVSPost2010PropOp45
 70
     1
102
RTVSPost2010Prop46
 90
       50
102
RTVSPost2010PropOp46
 70
     1
102
RTVSPost2010Prop47
 90
       50
102
RTVSPost2010PropOp47
 70
     1
102
RTVSPost2010Prop48
 90
       50
102
RTVSPost2010PropOp48
 70
     1
102
RTVSPost2010Prop49
280
     0
102
RTVSPost2010PropOp49
 70
     1
102
RTVSPost2010Prop50
 90
       50
102
RTVSPost2010PropOp50
 70
     1
102
RTVSPost2010Prop51ColorIndex
 90
      256
102
RTVSPost2010Prop51ColorRGB
 90
-16777216
102
RTVSPost2010PropOp51
 70
     0
102
RTVSPost2010Prop52
140
1.0
102
RTVSPost2010PropOp52
 70
     0
102
RTVSPost2010Prop53
 90
        2
102
RTVSPost2010PropOp53
 70
     1
102
RTVSPost2010Prop54
  1
strokes_ogs.tif
102
RTVSPost2010PropOp54
 70
     1
102
RTVSPost2010Prop55
280
     0
102
RTVSPost2010PropOp55
 70
     1
102
RTVSPost2010Prop56
140
1.0
102
RTVSPost2010PropOp56
 70
     1
102
RTVSPost2010Prop57
140
1.0
102
RTVSPost2010PropOp57
 70
     1
102
RTVSPropertyOp0
 70
     1
102
RTVSPropertyOp1
 70
     1
102
RTVSPropertyOp2
 70
     1
102
RTVSPropertyOp3
 70
     1
102
RTVSPropertyOp4
 70
     1
102
RTVSPropertyOp5
 70
     1
102
RTVSPropertyOp6
 70
     1
102
RTVSPropertyOp7
 70
     1
102
RTVSPropertyOp8
 70
     1
102
RTVSPropertyOp9
 70
     1
102
RTVSPropertyOp10
 70
     1
102
RTVSPropertyOp11
 70
     1
102
RTVSPropertyOp12
 70
     1
102
RTVSPropertyOp13
 70
     1
102
RTVSPropertyOp14
 70
     1
102
RTVSPropertyOp15
 70
     1
102
RTVSPropertyOp16
 70
     1
102
RTVSPropertyOp17
 70
     1
102
RTVSPropertyOp18
 70
     1
102
RTVSPropertyOp19
 70
     1
102
RTVSPropertyOp20
 70
     1
102
RTVSPropertyOp21
 70
     1
102
RTVSPropertyOp22
 70
     1
102
RTVSPropertyOp23
 70
     1
102
RTVSPropertyOp24
 70
     1
102
RTVSPropertyOp25
 70
     1
102
RTVSPropertyOp26
 70
     1
102
RTVSPropertyOp27
 70
     1
102
RTVSPropertyOp28
 70
     1
102
RTVSPropertyOp29
 70
     1
102
RTVSPropertyOp30
 70
     1
102
RTVSPropertyOp31
 70
     1
102
RTVSPropertyOp32
 70
     1
102
RTVSPropertyOp33
 70
     1
102
RTVSPropertyOp34
 70
     1
102
RTVSPropertyOp35
 70
     1
102
RTVSPropertyOp36
 70
     1
102
RTVSPropertyOp37
 70
     1
102
RTVSPropertyOp38
 70
     1
102
RTVSPropertyOp39
 70
     1
102
RTVSPropertyOp40
 70
     1
102
RTVSPropertyOp41
 70
     1
102
RTVSPropertyOp42
 70
     1
102
RTVSPropertyOp43
 70
     1
102
RTVSPropertyOp44
 70
     1
102
RTVSPropertyOp45
 70
     1
102
RTVSPropertyOp46
 70
     1
102
RTVSPropertyOp47
 70
     1
102
RTVSPropertyOp48
 70
     1
102
RTVSPropertyOp49
 70
     1
102
RTVSPropertyOp50
 70
     1
102
RTVSPropertyOp51
 70
     0
102
RTVSPropertyOp52
 70
     0
102
RTVSPropertyOp53
 70
     1
102
RTVSPropertyOp54
 70
     1
102
RTVSPropertyOp55
 70
     1
102
RTVSPropertyOp56
 70
     1
102
RTVSPropertyOp57
 70
     1
102
RTVSPropertyOp58
 70
     1
102
RTVSPropertyOp59
 70
     1
102
RTVSPropertyOp60
 70
     1
102
RTVSPropertyOp61
 70
     1
102
RTVSPropertyOp62
 70
     1
  0
XRECORD
  5
BCDB
102
{ACAD_REACTORS
330
BCDA
102
}
330
BCDA
100
AcDbXrecord
280
     1
102
RTVSPost2010Prop28
280
     0
102
RTVSPost2010PropOp28
 70
     1
102
RTVSPost2010Prop29
280
     1
102
RTVSPost2010PropOp29
 70
     1
102
RTVSPost2010Prop30
280
     1
102
RTVSPost2010PropOp30
 70
     1
102
RTVSPost2010Prop31
280
     0
102
RTVSPost2010PropOp31
 70
     1
102
RTVSPost2010Prop32
280
     0
102
RTVSPost2010PropOp32
 70
     1
102
RTVSPost2010Prop33
280
     0
102
RTVSPost2010PropOp33
 70
     1
102
RTVSPost2010Prop34
280
     0
102
RTVSPost2010PropOp34
 70
     1
102
RTVSPost2010Prop35
280
     0
102
RTVSPost2010PropOp35
 70
     1
102
RTVSPost2010Prop36
280
     0
102
RTVSPost2010PropOp36
 70
     1
102
RTVSPost2010Prop37
 90
       50
102
RTVSPost2010PropOp37
 70
     1
102
RTVSPost2010Prop38
140
0.0
102
RTVSPost2010PropOp38
 70
     1
102
RTVSPost2010Prop39
140
1.0
102
RTVSPost2010PropOp39
 70
     1
102
RTVSPost2010Prop40
 90
        0
102
RTVSPost2010PropOp40
 70
     1
102
RTVSPost2010Prop41ColorIndex
 90
       18
102
RTVSPost2010Prop41ColorRGB
 90
        0
102
RTVSPost2010PropOp41
 70
     1
102
RTVSPost2010Prop42
 90
       50
102
RTVSPost2010PropOp42
 70
     1
102
RTVSPost2010Prop43
 90
        3
102
RTVSPost2010PropOp43
 70
     1
102
RTVSPost2010Prop44ColorIndex
 90
        5
102
RTVSPost2010Prop44ColorRGB
 90
      255
102
RTVSPost2010PropOp44
 70
     1
102
RTVSPost2010Prop45
280
     0
102
RTVSPost2010PropOp45
 70
     1
102
RTVSPost2010Prop46
 90
       50
102
RTVSPost2010PropOp46
 70
     1
102
RTVSPost2010Prop47
 90
       50
102
RTVSPost2010PropOp47
 70
     1
102
RTVSPost2010Prop48
 90
       50
102
RTVSPost2010PropOp48
 70
     1
102
RTVSPost2010Prop49
280
     0
102
RTVSPost2010PropOp49
 70
     1
102
RTVSPost2010Prop50
 90
       50
102
RTVSPost2010PropOp50
 70
     1
102
RTVSPost2010Prop51ColorIndex
 90
      256
102
RTVSPost2010Prop51ColorRGB
 90
-16777216
102
RTVSPost2010PropOp51
 70
     0
102
RTVSPost2010Prop52
140
1.0
102
RTVSPost2010PropOp52
 70
     0
102
RTVSPost2010Prop53
 90
        2
102
RTVSPost2010PropOp53
 70
     1
102
RTVSPost2010Prop54
  1
strokes_ogs.tif
102
RTVSPost2010PropOp54
 70
     1
102
RTVSPost2010Prop55
280
     0
102
RTVSPost2010PropOp55
 70
     1
102
RTVSPost2010Prop56
140
1.0
102
RTVSPost2010PropOp56
 70
     1
102
RTVSPost2010Prop57
140
1.0
102
RTVSPost2010PropOp57
 70
     1
102
RTVSPropertyOp0
 70
     1
102
RTVSPropertyOp1
 70
     1
102
RTVSPropertyOp2
 70
     1
102
RTVSPropertyOp3
 70
     1
102
RTVSPropertyOp4
 70
     1
102
RTVSPropertyOp5
 70
     1
102
RTVSPropertyOp6
 70
     1
102
RTVSPropertyOp7
 70
     1
102
RTVSPropertyOp8
 70
     1
102
RTVSPropertyOp9
 70
     1
102
RTVSPropertyOp10
 70
     1
102
RTVSPropertyOp11
 70
     1
102
RTVSPropertyOp12
 70
     1
102
RTVSPropertyOp13
 70
     1
102
RTVSPropertyOp14
 70
     1
102
RTVSPropertyOp15
 70
     1
102
RTVSPropertyOp16
 70
     1
102
RTVSPropertyOp17
 70
     1
102
RTVSPropertyOp18
 70
     1
102
RTVSPropertyOp19
 70
     1
102
RTVSPropertyOp20
 70
     1
102
RTVSPropertyOp21
 70
     1
102
RTVSPropertyOp22
 70
     1
102
RTVSPropertyOp23
 70
     1
102
RTVSPropertyOp24
 70
     1
102
RTVSPropertyOp25
 70
     1
102
RTVSPropertyOp26
 70
     1
102
RTVSPropertyOp27
 70
     1
102
RTVSPropertyOp28
 70
     1
102
RTVSPropertyOp29
 70
     1
102
RTVSPropertyOp30
 70
     1
102
RTVSPropertyOp31
 70
     1
102
RTVSPropertyOp32
 70
     1
102
RTVSPropertyOp33
 70
     1
102
RTVSPropertyOp34
 70
     1
102
RTVSPropertyOp35
 70
     1
102
RTVSPropertyOp36
 70
     1
102
RTVSPropertyOp37
 70
     1
102
RTVSPropertyOp38
 70
     1
102
RTVSPropertyOp39
 70
     1
102
RTVSPropertyOp40
 70
     1
102
RTVSPropertyOp41
 70
     1
102
RTVSPropertyOp42
 70
     1
102
RTVSPropertyOp43
 70
     1
102
RTVSPropertyOp44
 70
     1
102
RTVSPropertyOp45
 70
     1
102
RTVSPropertyOp46
 70
     1
102
RTVSPropertyOp47
 70
     1
102
RTVSPropertyOp48
 70
     1
102
RTVSPropertyOp49
 70
     1
102
RTVSPropertyOp50
 70
     1
102
RTVSPropertyOp51
 70
     0
102
RTVSPropertyOp52
 70
     0
102
RTVSPropertyOp53
 70
     1
102
RTVSPropertyOp54
 70
     1
102
RTVSPropertyOp55
 70
     1
102
RTVSPropertyOp56
 70
     1
102
RTVSPropertyOp57
 70
     1
102
RTVSPropertyOp58
 70
     1
102
RTVSPropertyOp59
 70
     1
102
RTVSPropertyOp60
 70
     1
102
RTVSPropertyOp61
 70
     1
102
RTVSPropertyOp62
 70
     1
  0
XRECORD
  5
BCD1
102
{ACAD_REACTORS
330
BCD0
102
}
330
BCD0
100
AcDbXrecord
280
     1
102
RTVSPost2010Prop28
280
     0
102
RTVSPost2010PropOp28
 70
     1
102
RTVSPost2010Prop29
280
     1
102
RTVSPost2010PropOp29
 70
     1
102
RTVSPost2010Prop30
280
     1
102
RTVSPost2010PropOp30
 70
     1
102
RTVSPost2010Prop31
280
     0
102
RTVSPost2010PropOp31
 70
     1
102
RTVSPost2010Prop32
280
     0
102
RTVSPost2010PropOp32
 70
     1
102
RTVSPost2010Prop33
280
     0
102
RTVSPost2010PropOp33
 70
     1
102
RTVSPost2010Prop34
280
     0
102
RTVSPost2010PropOp34
 70
     1
102
RTVSPost2010Prop35
280
     0
102
RTVSPost2010PropOp35
 70
     1
102
RTVSPost2010Prop36
280
     0
102
RTVSPost2010PropOp36
 70
     1
102
RTVSPost2010Prop37
 90
       50
102
RTVSPost2010PropOp37
 70
     1
102
RTVSPost2010Prop38
140
0.0
102
RTVSPost2010PropOp38
 70
     1
102
RTVSPost2010Prop39
140
1.0
102
RTVSPost2010PropOp39
 70
     1
102
RTVSPost2010Prop40
 90
        0
102
RTVSPost2010PropOp40
 70
     1
102
RTVSPost2010Prop41ColorIndex
 90
       18
102
RTVSPost2010Prop41ColorRGB
 90
        0
102
RTVSPost2010PropOp41
 70
     1
102
RTVSPost2010Prop42
 90
       50
102
RTVSPost2010PropOp42
 70
     1
102
RTVSPost2010Prop43
 90
        3
102
RTVSPost2010PropOp43
 70
     1
102
RTVSPost2010Prop44ColorIndex
 90
        5
102
RTVSPost2010Prop44ColorRGB
 90
      255
102
RTVSPost2010PropOp44
 70
     1
102
RTVSPost2010Prop45
280
     0
102
RTVSPost2010PropOp45
 70
     1
102
RTVSPost2010Prop46
 90
       50
102
RTVSPost2010PropOp46
 70
     1
102
RTVSPost2010Prop47
 90
       50
102
RTVSPost2010PropOp47
 70
     1
102
RTVSPost2010Prop48
 90
       50
102
RTVSPost2010PropOp48
 70
     1
102
RTVSPost2010Prop49
280
     0
102
RTVSPost2010PropOp49
 70
     1
102
RTVSPost2010Prop50
 90
       50
102
RTVSPost2010PropOp50
 70
     1
102
RTVSPost2010Prop51ColorIndex
 90
      256
102
RTVSPost2010Prop51ColorRGB
 90
-16777216
102
RTVSPost2010PropOp51
 70
     0
102
RTVSPost2010Prop52
140
1.0
102
RTVSPost2010PropOp52
 70
     0
102
RTVSPost2010Prop53
 90
        2
102
RTVSPost2010PropOp53
 70
     1
102
RTVSPost2010Prop54
  1
strokes_ogs.tif
102
RTVSPost2010PropOp54
 70
     1
102
RTVSPost2010Prop55
280
     0
102
RTVSPost2010PropOp55
 70
     1
102
RTVSPost2010Prop56
140
1.0
102
RTVSPost2010PropOp56
 70
     1
102
RTVSPost2010Prop57
140
1.0
102
RTVSPost2010PropOp57
 70
     1
102
RTVSPropertyOp0
 70
     1
102
RTVSPropertyOp1
 70
     1
102
RTVSPropertyOp2
 70
     1
102
RTVSPropertyOp3
 70
     1
102
RTVSPropertyOp4
 70
     1
102
RTVSPropertyOp5
 70
     1
102
RTVSPropertyOp6
 70
     1
102
RTVSPropertyOp7
 70
     1
102
RTVSPropertyOp8
 70
     1
102
RTVSPropertyOp9
 70
     1
102
RTVSPropertyOp10
 70
     1
102
RTVSPropertyOp11
 70
     1
102
RTVSPropertyOp12
 70
     1
102
RTVSPropertyOp13
 70
     1
102
RTVSPropertyOp14
 70
     1
102
RTVSPropertyOp15
 70
     1
102
RTVSPropertyOp16
 70
     1
102
RTVSPropertyOp17
 70
     1
102
RTVSPropertyOp18
 70
     1
102
RTVSPropertyOp19
 70
     1
102
RTVSPropertyOp20
 70
     1
102
RTVSPropertyOp21
 70
     1
102
RTVSPropertyOp22
 70
     1
102
RTVSPropertyOp23
 70
     1
102
RTVSPropertyOp24
 70
     1
102
RTVSPropertyOp25
 70
     1
102
RTVSPropertyOp26
 70
     1
102
RTVSPropertyOp27
 70
     1
102
RTVSPropertyOp28
 70
     1
102
RTVSPropertyOp29
 70
     1
102
RTVSPropertyOp30
 70
     1
102
RTVSPropertyOp31
 70
     1
102
RTVSPropertyOp32
 70
     1
102
RTVSPropertyOp33
 70
     1
102
RTVSPropertyOp34
 70
     1
102
RTVSPropertyOp35
 70
     1
102
RTVSPropertyOp36
 70
     1
102
RTVSPropertyOp37
 70
     1
102
RTVSPropertyOp38
 70
     1
102
RTVSPropertyOp39
 70
     1
102
RTVSPropertyOp40
 70
     1
102
RTVSPropertyOp41
 70
     1
102
RTVSPropertyOp42
 70
     1
102
RTVSPropertyOp43
 70
     1
102
RTVSPropertyOp44
 70
     1
102
RTVSPropertyOp45
 70
     1
102
RTVSPropertyOp46
 70
     1
102
RTVSPropertyOp47
 70
     1
102
RTVSPropertyOp48
 70
     1
102
RTVSPropertyOp49
 70
     1
102
RTVSPropertyOp50
 70
     1
102
RTVSPropertyOp51
 70
     0
102
RTVSPropertyOp52
 70
     0
102
RTVSPropertyOp53
 70
     1
102
RTVSPropertyOp54
 70
     1
102
RTVSPropertyOp55
 70
     1
102
RTVSPropertyOp56
 70
     1
102
RTVSPropertyOp57
 70
     1
102
RTVSPropertyOp58
 70
     1
102
RTVSPropertyOp59
 70
     1
102
RTVSPropertyOp60
 70
     1
102
RTVSPropertyOp61
 70
     1
102
RTVSPropertyOp62
 70
     1
  0
XRECORD
  5
BCC5
102
{ACAD_REACTORS
330
BCC4
102
}
330
BCC4
100
AcDbXrecord
280
     1
102
RTVSPost2010Prop28
280
     0
102
RTVSPost2010PropOp28
 70
     1
102
RTVSPost2010Prop29
280
     1
102
RTVSPost2010PropOp29
 70
     1
102
RTVSPost2010Prop30
280
     1
102
RTVSPost2010PropOp30
 70
     1
102
RTVSPost2010Prop31
280
     0
102
RTVSPost2010PropOp31
 70
     1
102
RTVSPost2010Prop32
280
     0
102
RTVSPost2010PropOp32
 70
     1
102
RTVSPost2010Prop33
280
     0
102
RTVSPost2010PropOp33
 70
     1
102
RTVSPost2010Prop34
280
     0
102
RTVSPost2010PropOp34
 70
     1
102
RTVSPost2010Prop35
280
     0
102
RTVSPost2010PropOp35
 70
     1
102
RTVSPost2010Prop36
280
     0
102
RTVSPost2010PropOp36
 70
     1
102
RTVSPost2010Prop37
 90
       50
102
RTVSPost2010PropOp37
 70
     1
102
RTVSPost2010Prop38
140
0.0
102
RTVSPost2010PropOp38
 70
     1
102
RTVSPost2010Prop39
140
1.0
102
RTVSPost2010PropOp39
 70
     1
102
RTVSPost2010Prop40
 90
        0
102
RTVSPost2010PropOp40
 70
     1
102
RTVSPost2010Prop41ColorIndex
 90
       18
102
RTVSPost2010Prop41ColorRGB
 90
        0
102
RTVSPost2010PropOp41
 70
     1
102
RTVSPost2010Prop42
 90
       50
102
RTVSPost2010PropOp42
 70
     1
102
RTVSPost2010Prop43
 90
        3
102
RTVSPost2010PropOp43
 70
     1
102
RTVSPost2010Prop44ColorIndex
 90
        5
102
RTVSPost2010Prop44ColorRGB
 90
      255
102
RTVSPost2010PropOp44
 70
     1
102
RTVSPost2010Prop45
280
     0
102
RTVSPost2010PropOp45
 70
     1
102
RTVSPost2010Prop46
 90
       50
102
RTVSPost2010PropOp46
 70
     1
102
RTVSPost2010Prop47
 90
       50
102
RTVSPost2010PropOp47
 70
     1
102
RTVSPost2010Prop48
 90
       50
102
RTVSPost2010PropOp48
 70
     1
102
RTVSPost2010Prop49
280
     0
102
RTVSPost2010PropOp49
 70
     1
102
RTVSPost2010Prop50
 90
       50
102
RTVSPost2010PropOp50
 70
     1
102
RTVSPost2010Prop51ColorIndex
 90
      256
102
RTVSPost2010Prop51ColorRGB
 90
-16777216
102
RTVSPost2010PropOp51
 70
     0
102
RTVSPost2010Prop52
140
1.0
102
RTVSPost2010PropOp52
 70
     0
102
RTVSPost2010Prop53
 90
        2
102
RTVSPost2010PropOp53
 70
     1
102
RTVSPost2010Prop54
  1
strokes_ogs.tif
102
RTVSPost2010PropOp54
 70
     1
102
RTVSPost2010Prop55
280
     0
102
RTVSPost2010PropOp55
 70
     1
102
RTVSPost2010Prop56
140
1.0
102
RTVSPost2010PropOp56
 70
     1
102
RTVSPost2010Prop57
140
1.0
102
RTVSPost2010PropOp57
 70
     1
102
RTVSPropertyOp0
 70
     1
102
RTVSPropertyOp1
 70
     1
102
RTVSPropertyOp2
 70
     1
102
RTVSPropertyOp3
 70
     1
102
RTVSPropertyOp4
 70
     1
102
RTVSPropertyOp5
 70
     1
102
RTVSPropertyOp6
 70
     1
102
RTVSPropertyOp7
 70
     1
102
RTVSPropertyOp8
 70
     1
102
RTVSPropertyOp9
 70
     1
102
RTVSPropertyOp10
 70
     1
102
RTVSPropertyOp11
 70
     1
102
RTVSPropertyOp12
 70
     1
102
RTVSPropertyOp13
 70
     1
102
RTVSPropertyOp14
 70
     1
102
RTVSPropertyOp15
 70
     1
102
RTVSPropertyOp16
 70
     1
102
RTVSPropertyOp17
 70
     1
102
RTVSPropertyOp18
 70
     1
102
RTVSPropertyOp19
 70
     1
102
RTVSPropertyOp20
 70
     1
102
RTVSPropertyOp21
 70
     1
102
RTVSPropertyOp22
 70
     1
102
RTVSPropertyOp23
 70
     1
102
RTVSPropertyOp24
 70
     1
102
RTVSPropertyOp25
 70
     1
102
RTVSPropertyOp26
 70
     1
102
RTVSPropertyOp27
 70
     1
102
RTVSPropertyOp28
 70
     1
102
RTVSPropertyOp29
 70
     1
102
RTVSPropertyOp30
 70
     1
102
RTVSPropertyOp31
 70
     1
102
RTVSPropertyOp32
 70
     1
102
RTVSPropertyOp33
 70
     1
102
RTVSPropertyOp34
 70
     1
102
RTVSPropertyOp35
 70
     1
102
RTVSPropertyOp36
 70
     1
102
RTVSPropertyOp37
 70
     1
102
RTVSPropertyOp38
 70
     1
102
RTVSPropertyOp39
 70
     1
102
RTVSPropertyOp40
 70
     1
102
RTVSPropertyOp41
 70
     1
102
RTVSPropertyOp42
 70
     1
102
RTVSPropertyOp43
 70
     1
102
RTVSPropertyOp44
 70
     1
102
RTVSPropertyOp45
 70
     1
102
RTVSPropertyOp46
 70
     1
102
RTVSPropertyOp47
 70
     1
102
RTVSPropertyOp48
 70
     1
102
RTVSPropertyOp49
 70
     1
102
RTVSPropertyOp50
 70
     1
102
RTVSPropertyOp51
 70
     0
102
RTVSPropertyOp52
 70
     0
102
RTVSPropertyOp53
 70
     1
102
RTVSPropertyOp54
 70
     1
102
RTVSPropertyOp55
 70
     1
102
RTVSPropertyOp56
 70
     1
102
RTVSPropertyOp57
 70
     1
102
RTVSPropertyOp58
 70
     1
102
RTVSPropertyOp59
 70
     1
102
RTVSPropertyOp60
 70
     1
102
RTVSPropertyOp61
 70
     1
102
RTVSPropertyOp62
 70
     1
  0
XRECORD
  5
BCDD
102
{ACAD_REACTORS
330
BCDC
102
}
330
BCDC
100
AcDbXrecord
280
     1
102
RTVSPost2010Prop28
280
     0
102
RTVSPost2010PropOp28
 70
     1
102
RTVSPost2010Prop29
280
     1
102
RTVSPost2010PropOp29
 70
     1
102
RTVSPost2010Prop30
280
     1
102
RTVSPost2010PropOp30
 70
     1
102
RTVSPost2010Prop31
280
     0
102
RTVSPost2010PropOp31
 70
     1
102
RTVSPost2010Prop32
280
     0
102
RTVSPost2010PropOp32
 70
     1
102
RTVSPost2010Prop33
280
     0
102
RTVSPost2010PropOp33
 70
     1
102
RTVSPost2010Prop34
280
     0
102
RTVSPost2010PropOp34
 70
     1
102
RTVSPost2010Prop35
280
     0
102
RTVSPost2010PropOp35
 70
     1
102
RTVSPost2010Prop36
280
     0
102
RTVSPost2010PropOp36
 70
     1
102
RTVSPost2010Prop37
 90
       50
102
RTVSPost2010PropOp37
 70
     1
102
RTVSPost2010Prop38
140
0.0
102
RTVSPost2010PropOp38
 70
     1
102
RTVSPost2010Prop39
140
1.0
102
RTVSPost2010PropOp39
 70
     1
102
RTVSPost2010Prop40
 90
        0
102
RTVSPost2010PropOp40
 70
     1
102
RTVSPost2010Prop41ColorIndex
 90
       18
102
RTVSPost2010Prop41ColorRGB
 90
        0
102
RTVSPost2010PropOp41
 70
     1
102
RTVSPost2010Prop42
 90
       50
102
RTVSPost2010PropOp42
 70
     1
102
RTVSPost2010Prop43
 90
        3
102
RTVSPost2010PropOp43
 70
     1
102
RTVSPost2010Prop44ColorIndex
 90
        5
102
RTVSPost2010Prop44ColorRGB
 90
      255
102
RTVSPost2010PropOp44
 70
     1
102
RTVSPost2010Prop45
280
     0
102
RTVSPost2010PropOp45
 70
     1
102
RTVSPost2010Prop46
 90
       50
102
RTVSPost2010PropOp46
 70
     1
102
RTVSPost2010Prop47
 90
       50
102
RTVSPost2010PropOp47
 70
     1
102
RTVSPost2010Prop48
 90
       50
102
RTVSPost2010PropOp48
 70
     1
102
RTVSPost2010Prop49
280
     0
102
RTVSPost2010PropOp49
 70
     1
102
RTVSPost2010Prop50
 90
       50
102
RTVSPost2010PropOp50
 70
     1
102
RTVSPost2010Prop51ColorIndex
 90
      256
102
RTVSPost2010Prop51ColorRGB
 90
-16777216
102
RTVSPost2010PropOp51
 70
     0
102
RTVSPost2010Prop52
140
1.0
102
RTVSPost2010PropOp52
 70
     0
102
RTVSPost2010Prop53
 90
        2
102
RTVSPost2010PropOp53
 70
     1
102
RTVSPost2010Prop54
  1
strokes_ogs.tif
102
RTVSPost2010PropOp54
 70
     1
102
RTVSPost2010Prop55
280
     0
102
RTVSPost2010PropOp55
 70
     1
102
RTVSPost2010Prop56
140
1.0
102
RTVSPost2010PropOp56
 70
     1
102
RTVSPost2010Prop57
140
1.0
102
RTVSPost2010PropOp57
 70
     1
102
RTVSPropertyOp0
 70
     1
102
RTVSPropertyOp1
 70
     1
102
RTVSPropertyOp2
 70
     1
102
RTVSPropertyOp3
 70
     1
102
RTVSPropertyOp4
 70
     1
102
RTVSPropertyOp5
 70
     1
102
RTVSPropertyOp6
 70
     1
102
RTVSPropertyOp7
 70
     1
102
RTVSPropertyOp8
 70
     1
102
RTVSPropertyOp9
 70
     1
102
RTVSPropertyOp10
 70
     1
102
RTVSPropertyOp11
 70
     1
102
RTVSPropertyOp12
 70
     1
102
RTVSPropertyOp13
 70
     1
102
RTVSPropertyOp14
 70
     1
102
RTVSPropertyOp15
 70
     1
102
RTVSPropertyOp16
 70
     1
102
RTVSPropertyOp17
 70
     1
102
RTVSPropertyOp18
 70
     1
102
RTVSPropertyOp19
 70
     1
102
RTVSPropertyOp20
 70
     1
102
RTVSPropertyOp21
 70
     1
102
RTVSPropertyOp22
 70
     1
102
RTVSPropertyOp23
 70
     1
102
RTVSPropertyOp24
 70
     1
102
RTVSPropertyOp25
 70
     1
102
RTVSPropertyOp26
 70
     1
102
RTVSPropertyOp27
 70
     1
102
RTVSPropertyOp28
 70
     1
102
RTVSPropertyOp29
 70
     1
102
RTVSPropertyOp30
 70
     1
102
RTVSPropertyOp31
 70
     1
102
RTVSPropertyOp32
 70
     1
102
RTVSPropertyOp33
 70
     1
102
RTVSPropertyOp34
 70
     1
102
RTVSPropertyOp35
 70
     1
102
RTVSPropertyOp36
 70
     1
102
RTVSPropertyOp37
 70
     1
102
RTVSPropertyOp38
 70
     1
102
RTVSPropertyOp39
 70
     1
102
RTVSPropertyOp40
 70
     1
102
RTVSPropertyOp41
 70
     1
102
RTVSPropertyOp42
 70
     1
102
RTVSPropertyOp43
 70
     1
102
RTVSPropertyOp44
 70
     1
102
RTVSPropertyOp45
 70
     1
102
RTVSPropertyOp46
 70
     1
102
RTVSPropertyOp47
 70
     1
102
RTVSPropertyOp48
 70
     1
102
RTVSPropertyOp49
 70
     1
102
RTVSPropertyOp50
 70
     1
102
RTVSPropertyOp51
 70
     0
102
RTVSPropertyOp52
 70
     0
102
RTVSPropertyOp53
 70
     1
102
RTVSPropertyOp54
 70
     1
102
RTVSPropertyOp55
 70
     1
102
RTVSPropertyOp56
 70
     1
102
RTVSPropertyOp57
 70
     1
102
RTVSPropertyOp58
 70
     1
102
RTVSPropertyOp59
 70
     1
102
RTVSPropertyOp60
 70
     1
102
RTVSPropertyOp61
 70
     1
102
RTVSPropertyOp62
 70
     1
  0
ENDSEC
  0
EOF
