  0
SECTION
  2
HEADER
  9
$ACADVER
  1
AC1015
  9
$ACADMAINTVER
 70
    20
  9
$DWGCODEPAGE
  3
ANSI_932
  9
$INSBASE
 10
0.0
 20
0.0
 30
0.0
  9
$EXTMIN
 10
9.999997999999999
 20
10.000001
 30
0.0
  9
$EXTMAX
 10
687.550242
 20
402.7693039999999
 30
0.0
  9
$LIMMIN
 10
0.000002
 20
0.0
  9
$LIMMAX
 10
712.0000019999999
 20
490.8484849999998
  9
$ORTHOMODE
 70
     1
  9
$REGENMODE
 70
     1
  9
$FILLMODE
 70
     1
  9
$QTEXTMODE
 70
     0
  9
$MIRRTEXT
 70
     1
  9
$LTSCALE
 40
1.0
  9
$ATTMODE
 70
     1
  9
$TEXTSIZE
 40
2.5
  9
$TRACEWID
 40
1.0
  9
$TEXTSTYLE
  7
STANDARD
  9
$CLAYER
  8
0
  9
$CELTYPE
  6
BYLAYER
  9
$CECOLOR
 62
   256
  9
$CELTSCALE
 40
1.0
  9
$DISPSILH
 70
     0
  9
$DIMSCALE
 40
1.0
  9
$DIMASZ
 40
3.0
  9
$DIMEXO
 40
1.0
  9
$DIMDLI
 40
10.0
  9
$DIMRND
 40
0.0
  9
$DIMDLE
 40
0.0
  9
$DIMEXE
 40
1.0
  9
$DIMTP
 40
0.0
  9
$DIMTM
 40
0.0
  9
$DIMTXT
 40
3.2
  9
$DIMCEN
 40
0.0
  9
$DIMTSZ
 40
0.0
  9
$DIMTOL
 70
     0
  9
$DIMLIM
 70
     0
  9
$DIMTIH
 70
     0
  9
$DIMTOH
 70
     0
  9
$DIMSE1
 70
     0
  9
$DIMSE2
 70
     0
  9
$DIMTAD
 70
     3
  9
$DIMZIN
 70
     8
  9
$DIMBLK
  1

  9
$DIMASO
 70
     1
  9
$DIMSHO
 70
     1
  9
$DIMPOST
  1

  9
$DIMAPOST
  1

  9
$DIMALT
 70
     0
  9
$DIMALTD
 70
     2
  9
$DIMALTF
 40
25.4
  9
$DIMLFAC
 40
1.0
  9
$DIMTOFL
 70
     1
  9
$DIMTVP
 40
0.0
  9
$DIMTIX
 70
     0
  9
$DIMSOXD
 70
     0
  9
$DIMSAH
 70
     1
  9
$DIMBLK1
  1
OPEN
  9
$DIMBLK2
  1
OPEN
  9
$DIMSTYLE
  2
STANDARD
  9
$DIMCLRD
 70
     0
  9
$DIMCLRE
 70
     0
  9
$DIMCLRT
 70
     0
  9
$DIMTFAC
 40
1.0
  9
$DIMGAP
 40
1.0
  9
$DIMJUST
 70
     0
  9
$DIMSD1
 70
     0
  9
$DIMSD2
 70
     0
  9
$DIMTOLJ
 70
     1
  9
$DIMTZIN
 70
     0
  9
$DIMALTZ
 70
     0
  9
$DIMALTTZ
 70
     0
  9
$DIMUPT
 70
     0
  9
$DIMDEC
 70
     4
  9
$DIMTDEC
 70
     4
  9
$DIMALTU
 70
     2
  9
$DIMALTTD
 70
     2
  9
$DIMTXSTY
  7
STANDARD
  9
$DIMAUNIT
 70
     0
  9
$DIMADEC
 70
     0
  9
$DIMALTRND
 40
0.0
  9
$DIMAZIN
 70
     0
  9
$DIMDSEP
 70
    46
  9
$DIMATFIT
 70
     3
  9
$DIMFRAC
 70
     0
  9
$DIMLDRBLK
  1
OPEN
  9
$DIMLUNIT
 70
     2
  9
$DIMLWD
 70
    -2
  9
$DIMLWE
 70
    -2
  9
$DIMTMOVE
 70
     0
  9
$LUNITS
 70
     2
  9
$LUPREC
 70
     4
  9
$SKETCHINC
 40
1.0
  9
$FILLETRAD
 40
0.0
  9
$AUNITS
 70
     0
  9
$AUPREC
 70
     0
  9
$MENU
  1
.
  9
$ELEVATION
 40
0.0
  9
$PELEVATION
 40
0.0
  9
$THICKNESS
 40
0.0
  9
$LIMCHECK
 70
     0
  9
$CHAMFERA
 40
10.0
  9
$CHAMFERB
 40
10.0
  9
$CHAMFERC
 40
0.0
  9
$CHAMFERD
 40
0.0
  9
$SKPOLY
 70
     0
  9
$TDCREATE
 40
2451641.656689005
  9
$TDUCREATE
 40
2451641.281689005
  9
$TDUPDATE
 40
2457192.641551285
  9
$TDUUPDATE
 40
2457192.266551285
  9
$TDINDWG
 40
0.1846051273
  9
$TDUSRTIMER
 40
0.1846048264
  9
$USRTIMER
 70
     1
  9
$ANGBASE
 50
0.0
  9
$ANGDIR
 70
     0
  9
$PDMODE
 70
     0
  9
$PDSIZE
 40
0.0
  9
$PLINEWID
 40
0.0
  9
$SPLFRAME
 70
     0
  9
$SPLINETYPE
 70
     6
  9
$SPLINESEGS
 70
     8
  9
$HANDSEED
  5
555C
  9
$SURFTAB1
 70
     6
  9
$SURFTAB2
 70
     6
  9
$SURFTYPE
 70
     6
  9
$SURFU
 70
     6
  9
$SURFV
 70
     6
  9
$UCSBASE
  2

  9
$UCSNAME
  2

  9
$UCSORG
 10
0.0
 20
0.0
 30
0.0
  9
$UCSXDIR
 10
1.0
 20
0.0
 30
0.0
  9
$UCSYDIR
 10
0.0
 20
1.0
 30
0.0
  9
$UCSORTHOREF
  2

  9
$UCSORTHOVIEW
 70
     0
  9
$UCSORGTOP
 10
0.0
 20
0.0
 30
0.0
  9
$UCSORGBOTTOM
 10
0.0
 20
0.0
 30
0.0
  9
$UCSORGLEFT
 10
0.0
 20
0.0
 30
0.0
  9
$UCSORGRIGHT
 10
0.0
 20
0.0
 30
0.0
  9
$UCSORGFRONT
 10
0.0
 20
0.0
 30
0.0
  9
$UCSORGBACK
 10
0.0
 20
0.0
 30
0.0
  9
$PUCSBASE
  2

  9
$PUCSNAME
  2

  9
$PUCSORG
 10
0.0
 20
0.0
 30
0.0
  9
$PUCSXDIR
 10
1.0
 20
0.0
 30
0.0
  9
$PUCSYDIR
 10
0.0
 20
1.0
 30
0.0
  9
$PUCSORTHOREF
  2

  9
$PUCSORTHOVIEW
 70
     0
  9
$PUCSORGTOP
 10
0.0
 20
0.0
 30
0.0
  9
$PUCSORGBOTTOM
 10
0.0
 20
0.0
 30
0.0
  9
$PUCSORGLEFT
 10
0.0
 20
0.0
 30
0.0
  9
$PUCSORGRIGHT
 10
0.0
 20
0.0
 30
0.0
  9
$PUCSORGFRONT
 10
0.0
 20
0.0
 30
0.0
  9
$PUCSORGBACK
 10
0.0
 20
0.0
 30
0.0
  9
$USERI1
 70
     0
  9
$USERI2
 70
     0
  9
$USERI3
 70
     0
  9
$USERI4
 70
     0
  9
$USERI5
 70
     0
  9
$USERR1
 40
0.0
  9
$USERR2
 40
0.0
  9
$USERR3
 40
0.0
  9
$USERR4
 40
0.0
  9
$USERR5
 40
0.0
  9
$WORLDVIEW
 70
     1
  9
$SHADEDGE
 70
     3
  9
$SHADEDIF
 70
    70
  9
$TILEMODE
 70
     1
  9
$MAXACTVP
 70
    48
  9
$PINSBASE
 10
0.0
 20
0.0
 30
0.0
  9
$PLIMCHECK
 70
     0
  9
$PEXTMIN
 10
1.000000000000000E+20
 20
1.000000000000000E+20
 30
1.000000000000000E+20
  9
$PEXTMAX
 10
-1.000000000000000E+20
 20
-1.000000000000000E+20
 30
-1.000000000000000E+20
  9
$PLIMMIN
 10
0.0
 20
0.0
  9
$PLIMMAX
 10
420.0
 20
297.0
  9
$UNITMODE
 70
     0
  9
$VISRETAIN
 70
     1
  9
$PLINEGEN
 70
     0
  9
$PSLTSCALE
 70
     1
  9
$TREEDEPTH
 70
  3020
  9
$CMLSTYLE
  2
STANDARD
  9
$CMLJUST
 70
     0
  9
$CMLSCALE
 40
1.0
  9
$PROXYGRAPHICS
 70
     1
  9
$MEASUREMENT
 70
     0
  9
$CELWEIGHT
370
    -1
  9
$ENDCAPS
280
     0
  9
$JOINSTYLE
280
     0
  9
$LWDISPLAY
290
     0
  9
$INSUNITS
 70
     0
  9
$HYPERLINKBASE
  1

  9
$STYLESHEET
  1

  9
$XEDIT
290
     1
  9
$CEPSNTYPE
380
     0
  9
$PSTYLEMODE
290
     1
  9
$FINGERPRINTGUID
  2
{FD4CCAB6-7676-4766-AE1B-A9D1B854F47D}
  9
$VERSIONGUID
  2
{CB32FFB9-C1B0-4645-A50A-BB6AE82A51D4}
  9
$EXTNAMES
290
     1
  9
$PSVPSCALE
 40
0.0
  9
$OLESTARTUP
290
     0
  0
ENDSEC
  0
SECTION
  2
CLASSES
  0
CLASS
  1
ACDBDICTIONARYWDFLT
  2
AcDbDictionaryWithDefault
  3
ObjectDBX Classes
 90
        0
280
     0
281
     0
  0
CLASS
  1
ACDBPLACEHOLDER
  2
AcDbPlaceHolder
  3
ObjectDBX Classes
 90
        0
280
     0
281
     0
  0
CLASS
  1
LAYOUT
  2
AcDbLayout
  3
ObjectDBX Classes
 90
        0
280
     0
281
     0
  0
CLASS
  1
DICTIONARYVAR
  2
AcDbDictionaryVar
  3
ObjectDBX Classes
 90
        0
280
     0
281
     0
  0
CLASS
  1
MATERIAL
  2
AcDbMaterial
  3
ObjectDBX Classes
 90
     1153
280
     0
281
     0
  0
CLASS
  1
VISUALSTYLE
  2
AcDbVisualStyle
  3
ObjectDBX Classes
 90
     4095
280
     0
281
     0
  0
CLASS
  1
TABLESTYLE
  2
AcDbTableStyle
  3
ObjectDBX Classes
 90
     4095
280
     0
281
     0
  0
CLASS
  1
SCALE
  2
AcDbScale
  3
ObjectDBX Classes
 90
     1153
280
     0
281
     0
  0
CLASS
  1
MLEADERSTYLE
  2
AcDbMLeaderStyle
  3
ACDB_MLEADERSTYLE_CLASS
 90
     4095
280
     0
281
     0
  0
CLASS
  1
ACDBSECTIONVIEWSTYLE
  2
AcDbSectionViewStyle
  3
ObjectDBX Classes
 90
     1025
280
     0
281
     0
  0
CLASS
  1
ACDBDETAILVIEWSTYLE
  2
AcDbDetailViewStyle
  3
ObjectDBX Classes
 90
     1025
280
     0
281
     0
  0
CLASS
  1
CELLSTYLEMAP
  2
AcDbCellStyleMap
  3
ObjectDBX Classes
 90
     1152
280
     0
281
     0
  0
ENDSEC
  0
SECTION
  2
TABLES
  0
TABLE
  2
VPORT
  5
4FC5
330
0
100
AcDbSymbolTable
 70
     1
  0
VPORT
  5
54A5
330
4FC5
100
AcDbSymbolTableRecord
100
AcDbViewportTableRecord
  2
*ACTIVE
 70
     0
 10
0.0
 20
0.0
 11
1.0
 21
1.0
 12
467.7473413596382
 22
206.3839035085524
 13
0.0
 23
0.0
 14
10.0
 24
10.0
 15
10.0
 25
10.0
 16
0.0
 26
0.0
 36
1.0
 17
0.0
 27
0.0
 37
0.0
 40
397.1933625208464
 41
1.899603698811096
 42
50.0
 43
0.0
 44
0.0
 50
0.0
 51
0.0
 71
     0
 72
   100
 73
     1
 74
     0
 75
     0
 76
     0
 77
     0
 78
     0
281
     0
 65
     1
110
0.0
120
0.0
130
0.0
111
1.0
121
0.0
131
0.0
112
0.0
122
1.0
132
0.0
 79
     0
146
0.0
1001
ACAD_NAV_VCDISPLAY
1070
     3
  0
ENDTAB
  0
TABLE
  2
LTYPE
  5
4FC2
330
0
100
AcDbSymbolTable
 70
     4
  0
LTYPE
  5
4FD0
330
4FC2
100
AcDbSymbolTableRecord
100
AcDbLinetypeTableRecord
  2
BYBLOCK
 70
     0
  3

 72
    65
 73
     0
 40
0.0
  0
LTYPE
  5
4FD1
330
4FC2
100
AcDbSymbolTableRecord
100
AcDbLinetypeTableRecord
  2
BYLAYER
 70
     0
  3

 72
    65
 73
     0
 40
0.0
  0
LTYPE
  5
4FD2
330
4FC2
100
AcDbSymbolTableRecord
100
AcDbLinetypeTableRecord
  2
CONTINUOUS
 70
     0
  3
Solid line
 72
    65
 73
     0
 40
0.0
  0
LTYPE
  5
4FE0
330
4FC2
100
AcDbSymbolTableRecord
100
AcDbLinetypeTableRecord
  2
DASHED
 70
     0
  3
Dashed __ __ __ __ __ __ __ __ __ __ __ __ __ _
 72
    65
 73
     2
 40
19.05
 49
12.7
 74
     0
 49
-6.349999999999997
 74
     0
  0
LTYPE
  5
4FE1
330
4FC2
100
AcDbSymbolTableRecord
100
AcDbLinetypeTableRecord
  2
CENTER
 70
     0
  3
Center ____ _ ____ _ ____ _ ____ _ ____ _ ____
 72
    65
 73
     4
 40
50.8
 49
31.75
 74
     0
 49
-6.349999999999997
 74
     0
 49
6.349999999999997
 74
     0
 49
-6.349999999999997
 74
     0
  0
LTYPE
  5
4FE2
330
4FC2
100
AcDbSymbolTableRecord
100
AcDbLinetypeTableRecord
  2
PHANTOM
 70
     0
  3
Phantom ______  __  __  ______  __  __  ______
 72
    65
 73
     6
 40
63.5
 49
31.75
 74
     0
 49
-6.349999999999997
 74
     0
 49
6.349999999999997
 74
     0
 49
-6.349999999999997
 74
     0
 49
6.349999999999997
 74
     0
 49
-6.349999999999997
 74
     0
  0
ENDTAB
  0
TABLE
  2
LAYER
  5
4FBF
330
0
100
AcDbSymbolTable
 70
     8
  0
LAYER
  5
4FCD
102
{ACAD_XDICTIONARY
360
5500
102
}
330
4FBF
100
AcDbSymbolTableRecord
100
AcDbLayerTableRecord
  2
0
 70
     0
 62
     7
  6
CONTINUOUS
370
    -3
390
54AE
  0
LAYER
  5
4FE3
102
{ACAD_XDICTIONARY
360
5502
102
}
330
4FBF
100
AcDbSymbolTableRecord
100
AcDbLayerTableRecord
  2
4
 70
     0
 62
     1
  6
CENTER
370
    -3
390
54AE
  0
LAYER
  5
4FE4
102
{ACAD_XDICTIONARY
360
5504
102
}
330
4FBF
100
AcDbSymbolTableRecord
100
AcDbLayerTableRecord
  2
5
 70
     0
 62
     6
  6
PHANTOM
370
    -3
390
54AE
  0
LAYER
  5
4FE5
102
{ACAD_XDICTIONARY
360
5506
102
}
330
4FBF
100
AcDbSymbolTableRecord
100
AcDbLayerTableRecord
  2
1
 70
     0
 62
     7
  6
CONTINUOUS
370
    -3
390
54AE
  0
LAYER
  5
4FE6
102
{ACAD_XDICTIONARY
360
5508
102
}
330
4FBF
100
AcDbSymbolTableRecord
100
AcDbLayerTableRecord
  2
2
 70
     0
 62
     4
  6
CONTINUOUS
370
    -3
390
54AE
  0
LAYER
  5
4FE7
102
{ACAD_XDICTIONARY
360
550A
102
}
330
4FBF
100
AcDbSymbolTableRecord
100
AcDbLayerTableRecord
  2
3
 70
     0
 62
     2
  6
DASHED
370
    -3
390
54AE
  0
LAYER
  5
4FE8
102
{ACAD_XDICTIONARY
360
550C
102
}
330
4FBF
100
AcDbSymbolTableRecord
100
AcDbLayerTableRecord
  2
6
 70
     0
 62
     5
  6
CONTINUOUS
370
    -3
390
54AE
  0
LAYER
  5
4FE9
102
{ACAD_XDICTIONARY
360
550E
102
}
330
4FBF
100
AcDbSymbolTableRecord
100
AcDbLayerTableRecord
  2
7
 70
     0
 62
     3
  6
CONTINUOUS
370
    -3
390
54AE
  0
ENDTAB
  0
TABLE
  2
STYLE
  5
4FC0
330
0
100
AcDbSymbolTable
 70
     1
  0
STYLE
  5
4FCE
330
4FC0
100
AcDbSymbolTableRecord
100
AcDbTextStyleTableRecord
  2
STANDARD
 70
     0
 40
0.0
 41
1.0
 50
0.0
 71
     0
 42
2.5
  3
txt
  4

  0
ENDTAB
  0
TABLE
  2
VIEW
  5
4FC3
330
0
100
AcDbSymbolTable
 70
     0
  0
ENDTAB
  0
TABLE
  2
UCS
  5
4FC4
330
0
100
AcDbSymbolTable
 70
     0
  0
ENDTAB
  0
TABLE
  2
APPID
  5
4FC6
330
0
100
AcDbSymbolTable
 70
     7
  0
APPID
  5
4FCF
330
4FC6
100
AcDbSymbolTableRecord
100
AcDbRegAppTableRecord
  2
ACAD
 70
     0
  0
APPID
  5
4FEA
330
4FC6
100
AcDbSymbolTableRecord
100
AcDbRegAppTableRecord
  2
CONTENTTABDATA
 70
     0
  0
APPID
  5
4FEB
330
4FC6
100
AcDbSymbolTableRecord
100
AcDbRegAppTableRecord
  2
CONTENTCURRENTTAB
 70
     0
  0
APPID
  5
4FEC
330
4FC6
100
AcDbSymbolTableRecord
100
AcDbRegAppTableRecord
  2
CONTENTBLOCKDESCRIPTION
 70
     0
  0
APPID
  5
4FED
330
4FC6
100
AcDbSymbolTableRecord
100
AcDbRegAppTableRecord
  2
CONTENTBLOCKICON
 70
     0
  0
APPID
  5
551A
330
4FC6
100
AcDbSymbolTableRecord
100
AcDbRegAppTableRecord
  2
ACAD_NAV_VCDISPLAY
 70
     0
  0
APPID
  5
5553
330
4FC6
100
AcDbSymbolTableRecord
100
AcDbRegAppTableRecord
  2
ACAD_MLEADERVER
 70
     0
  0
ENDTAB
  0
TABLE
  2
DIMSTYLE
  5
4FC7
330
0
100
AcDbSymbolTable
 70
     1
100
AcDbDimStyleTable
 71
     0
  0
DIMSTYLE
105
4FEE
330
4FC7
100
AcDbSymbolTableRecord
100
AcDbDimStyleTableRecord
  2
STANDARD
 70
     0
 41
3.0
 42
1.0
 43
10.0
 44
1.0
 73
     0
 74
     0
 77
     3
 78
     8
140
3.2
141
0.0
147
1.0
172
     1
173
     1
284
     8
285
     8
286
     8
340
4FCE
  0
ENDTAB
  0
TABLE
  2
BLOCK_RECORD
  5
4FBE
330
0
100
AcDbSymbolTable
 70
     1
  0
BLOCK_RECORD
  5
4FDB
102
{ACAD_XDICTIONARY
360
54A8
102
}
330
4FBE
100
AcDbSymbolTableRecord
100
AcDbBlockTableRecord
  2
*MODEL_SPACE
340
54FC
  0
BLOCK_RECORD
  5
4FD7
102
{ACAD_XDICTIONARY
360
54A6
102
}
330
4FBE
100
AcDbSymbolTableRecord
100
AcDbBlockTableRecord
  2
*PAPER_SPACE
340
54FD
  0
BLOCK_RECORD
  5
4FF6
330
4FBE
100
AcDbSymbolTableRecord
100
AcDbBlockTableRecord
  2
_OPEN
340
0
  0
ENDTAB
  0
ENDSEC
  0
SECTION
  2
BLOCKS
  0
BLOCK
  5
4FDC
330
4FDB
100
AcDbEntity
  8
0
100
AcDbBlockBegin
  2
*MODEL_SPACE
 70
     0
 10
0.0
 20
0.0
 30
0.0
  3
*MODEL_SPACE
  1

  0
ENDBLK
  5
4FDD
330
4FDB
100
AcDbEntity
  8
0
100
AcDbBlockEnd
  0
BLOCK
  5
4FD8
330
4FD7
100
AcDbEntity
 67
     1
  8
0
100
AcDbBlockBegin
  2
*PAPER_SPACE
 70
     0
 10
0.0
 20
0.0
 30
0.0
  3
*PAPER_SPACE
  1

  0
ENDBLK
  5
4FD9
330
4FD7
100
AcDbEntity
 67
     1
  8
0
100
AcDbBlockEnd
  0
BLOCK
  5
4FF7
330
4FF6
100
AcDbEntity
  8
0
100
AcDbBlockBegin
  2
_OPEN
 70
     0
 10
0.0
 20
0.0
 30
0.0
  3
_OPEN
  1

  0
LINE
  5
4FF8
330
4FF6
100
AcDbEntity
  8
0
  6
ByBlock
 62
     0
100
AcDbLine
 10
-1.0
 20
0.166667
 30
0.0
 11
0.0
 21
0.0
 31
0.0
  0
LINE
  5
4FF9
330
4FF6
100
AcDbEntity
  8
0
  6
ByBlock
 62
     0
100
AcDbLine
 10
0.0
 20
0.0
 30
0.0
 11
-1.0
 21
-0.166667
 31
0.0
  0
LINE
  5
4FFA
330
4FF6
100
AcDbEntity
  8
0
  6
ByBlock
 62
     0
100
AcDbLine
 10
0.0
 20
0.0
 30
0.0
 11
-1.0
 21
0.0
 31
0.0
  0
ENDBLK
  5
4FFB
330
4FF6
100
AcDbEntity
  8
0
100
AcDbBlockEnd
  0
ENDSEC
  0
SECTION
  2
ENTITIES
  0
TEXT
  5
4FFC
330
4FDB
100
AcDbEntity
  8
4
  6
CENTER
100
AcDbText
 10
23.979509
 20
10.048738
 30
0.0
 40
1.399999999999999
  1
4
100
AcDbText
  0
TEXT
  5
4FFD
330
4FDB
100
AcDbEntity
  8
7
  6
Continuous
100
AcDbText
 10
9.999997999999999
 20
26.000001
 30
0.0
 40
3.0
  1
CODE No.13114
100
AcDbText
  0
TEXT
  5
4FFE
330
4FDB
100
AcDbEntity
  8
7
  6
Continuous
100
AcDbText
 10
9.999997999999999
 20
18.000001
 30
0.0
 40
3.0
  1
TYPE No.THA-330LB-2(5Y7/1)
100
AcDbText
  0
TEXT
  5
4FFF
330
4FDB
100
AcDbEntity
  8
1
  6
Continuous
100
AcDbText
 10
9.999997999999999
 20
10.000001
 30
0.0
 40
1.399999999999999
  1
LAYER
100
AcDbText
  0
TEXT
  5
5000
330
4FDB
100
AcDbEntity
  8
2
  6
Continuous
100
AcDbText
 10
19.979509
 20
10.048738
 30
0.0
 40
1.399999999999999
  1
2
100
AcDbText
  0
TEXT
  5
5001
330
4FDB
100
AcDbEntity
  8
3
  6
DASHED
100
AcDbText
 10
21.97950899999999
 20
10.048738
 30
0.0
 40
1.399999999999999
  1
3
100
AcDbText
  0
TEXT
  5
5002
330
4FDB
100
AcDbEntity
  8
1
  6
Continuous
100
AcDbText
 10
17.979509
 20
10.048738
 30
0.0
 40
1.399999999999999
  1
1
100
AcDbText
  0
TEXT
  5
5003
330
4FDB
100
AcDbEntity
  8
5
  6
PHANTOM
100
AcDbText
 10
25.979509
 20
10.048738
 30
0.0
 40
1.399999999999999
  1
5
100
AcDbText
  0
TEXT
  5
5004
330
4FDB
100
AcDbEntity
  8
6
  6
Continuous
100
AcDbText
 10
27.979509
 20
10.048738
 30
0.0
 40
1.399999999999999
  1
6
100
AcDbText
  0
TEXT
  5
5005
330
4FDB
100
AcDbEntity
  8
7
  6
Continuous
100
AcDbText
 10
29.97950900000001
 20
10.048738
 30
0.0
 40
1.399999999999999
  1
7
100
AcDbText
  0
LINE
  5
5006
330
4FDB
100
AcDbEntity
  8
4
  6
CENTER
100
AcDbLine
 10
143.091577
 20
254.584652
 30
0.0
 11
85.09157700000001
 21
254.584652
 31
0.0
  0
LINE
  5
5007
330
4FDB
100
AcDbEntity
  8
1
  6
Continuous
100
AcDbLine
 10
370.242245
 20
245.584652
 30
0.0
 11
367.0422449999999
 21
245.584652
 31
0.0
  0
LINE
  5
5008
330
4FDB
100
AcDbEntity
  8
1
  6
Continuous
100
AcDbLine
 10
370.242245
 20
263.584652
 30
0.0
 11
367.0422449999999
 21
263.584652
 31
0.0
  0
LINE
  5
5009
330
4FDB
100
AcDbEntity
  8
1
  6
Continuous
100
AcDbLine
 10
384.493827
 20
262.584652
 30
0.0
 11
384.493827
 21
246.5846519999999
 31
0.0
  0
LINE
  5
500A
330
4FDB
100
AcDbEntity
  8
1
  6
Continuous
100
AcDbLine
 10
384.493827
 20
246.5846519999999
 30
0.0
 11
383.293827
 21
246.5846519999999
 31
0.0
  0
LINE
  5
500B
330
4FDB
100
AcDbEntity
  8
1
  6
Continuous
100
AcDbLine
 10
384.493827
 20
262.584652
 30
0.0
 11
383.293827
 21
262.584652
 31
0.0
  0
LINE
  5
500C
330
4FDB
100
AcDbEntity
  8
1
  6
Continuous
100
AcDbLine
 10
370.242245
 20
263.584652
 30
0.0
 11
370.242245
 21
245.584652
 31
0.0
  0
LINE
  5
500D
330
4FDB
100
AcDbEntity
  8
4
  6
CENTER
100
AcDbLine
 10
205.0242439999999
 20
202.084652
 30
0.0
 11
88.97683999999998
 21
269.084652
 31
0.0
  0
LINE
  5
500E
330
4FDB
100
AcDbEntity
  8
1
  6
Continuous
100
AcDbLine
 10
367.0422449999999
 20
263.584652
 30
0.0
 11
367.0422449999999
 21
245.584652
 31
0.0
  0
LINE
  5
500F
330
4FDB
100
AcDbEntity
  8
1
  6
Continuous
100
AcDbLine
 10
383.293827
 20
262.584652
 30
0.0
 11
383.293827
 21
246.5846519999999
 31
0.0
  0
LINE
  5
5010
330
4FDB
100
AcDbEntity
  8
1
  6
Continuous
100
AcDbLine
 10
371.8422449999998
 20
263.584652
 30
0.0
 11
371.8422449999998
 21
245.584652
 31
0.0
  0
LINE
  5
5011
330
4FDB
100
AcDbEntity
  8
1
  6
Continuous
100
AcDbLine
 10
371.8422449999998
 20
245.584652
 30
0.0
 11
370.242245
 21
245.584652
 31
0.0
  0
LINE
  5
5012
330
4FDB
100
AcDbEntity
  8
1
  6
Continuous
100
AcDbLine
 10
371.8422449999998
 20
263.584652
 30
0.0
 11
370.242245
 21
263.584652
 31
0.0
  0
LINE
  5
5013
330
4FDB
100
AcDbEntity
  8
1
  6
Continuous
100
AcDbLine
 10
263.1846869999999
 20
271.5342329999999
 30
0.0
 11
292.446505
 21
268.584652
 31
0.0
  0
LINE
  5
5014
330
4FDB
100
AcDbEntity
  8
1
  6
Continuous
100
AcDbLine
 10
264.082691
 20
238.534256
 30
0.0
 11
292.446505
 21
240.584652
 31
0.0
  0
ARC
  5
5015
330
4FDB
100
AcDbEntity
  8
1
  6
Continuous
100
AcDbCircle
 10
269.946505
 20
237.26316
 30
0.0
 40
6.0
100
AcDbArc
 50
94.13467099999998
 51
180.0
  0
LINE
  5
5016
330
4FDB
100
AcDbEntity
  8
1
  6
Continuous
100
AcDbLine
 10
292.446505
 20
263.2158459999997
 30
0.0
 11
292.4965049999999
 21
263.2158459999997
 31
0.0
  0
LINE
  5
5017
330
4FDB
100
AcDbEntity
  8
1
  6
Continuous
100
AcDbLine
 10
292.4965049999999
 20
266.084652
 30
0.0
 11
292.446505
 21
266.084652
 31
0.0
  0
LINE
  5
5018
330
4FDB
100
AcDbEntity
  8
1
  6
Continuous
100
AcDbLine
 10
262.7984819999999
 20
267.7028209999999
 30
0.0
 11
292.446505
 21
264.714311
 31
0.0
  0
LINE
  5
5019
330
4FDB
100
AcDbEntity
  8
1
  6
Continuous
100
AcDbLine
 10
269.5138989999999
 20
243.247544
 30
0.0
 11
292.446505
 21
244.905322
 31
0.0
  0
ARC
  5
501A
330
4FDB
100
AcDbEntity
  8
1
  6
Continuous
100
AcDbCircle
 10
114.091577
 20
254.584652
 30
0.0
 40
24.0
100
AcDbArc
 50
301.302234
 51
238.6977659999999
  0
LINE
  5
501B
330
4FDB
100
AcDbEntity
  8
1
  6
Continuous
100
AcDbLine
 10
98.091577
 20
271.5552149999999
 30
0.0
 11
98.091577
 21
237.614089
 31
0.0
  0
LINE
  5
501C
330
4FDB
100
AcDbEntity
  8
1
  6
Continuous
100
AcDbLine
 10
130.091577
 20
271.5552149999999
 30
0.0
 11
130.091577
 21
237.614089
 31
0.0
  0
ARC
  5
501D
330
4FDB
100
AcDbEntity
  8
1
  6
Continuous
100
AcDbCircle
 10
100.0915769999999
 20
271.5552149999999
 30
0.0
 40
2.0
100
AcDbArc
 50
129.521196
 51
180.0
  0
ARC
  5
501E
330
4FDB
100
AcDbEntity
  8
1
  6
Continuous
100
AcDbCircle
 10
100.0915769999999
 20
237.614089
 30
0.0
 40
2.0
100
AcDbArc
 50
180.0
 51
230.478804
  0
ARC
  5
501F
330
4FDB
100
AcDbEntity
  8
1
  6
Continuous
100
AcDbCircle
 10
128.091577
 20
237.614089
 30
0.0
 40
2.0
100
AcDbArc
 50
309.5211959999998
 51
0.0
  0
ARC
  5
5020
330
4FDB
100
AcDbEntity
  8
1
  6
Continuous
100
AcDbCircle
 10
128.091577
 20
271.5552149999999
 30
0.0
 40
2.0
100
AcDbArc
 50
0.0
 51
50.478804
  0
LINE
  5
5021
330
4FDB
100
AcDbEntity
  8
1
  6
Continuous
100
AcDbLine
 10
129.7374299999999
 20
271.685503
 30
0.0
 11
126.591577
 21
264.6885189999999
 31
0.0
  0
LINE
  5
5022
330
4FDB
100
AcDbEntity
  8
1
  6
Continuous
100
AcDbLine
 10
98.33494399999999
 20
271.9319009999999
 30
0.0
 11
101.591577
 21
264.6885189999999
 31
0.0
  0
LINE
  5
5023
330
4FDB
100
AcDbEntity
  8
1
  6
Continuous
100
AcDbLine
 10
101.591577
 20
244.480785
 30
0.0
 11
98.306119
 21
237.1732909999999
 31
0.0
  0
LINE
  5
5024
330
4FDB
100
AcDbEntity
  8
1
  6
Continuous
100
AcDbLine
 10
126.591577
 20
244.480785
 30
0.0
 11
129.847565
 21
237.238839
 31
0.0
  0
CIRCLE
  5
5025
330
4FDB
100
AcDbEntity
  8
1
  6
Continuous
100
AcDbCircle
 10
464.3113129999998
 20
254.584652
 30
0.0
 40
24.0
  0
LINE
  5
5026
330
4FDB
100
AcDbEntity
  8
4
  6
CENTER
100
AcDbLine
 10
493.3113129999998
 20
254.584652
 30
0.0
 11
435.3113129999998
 21
254.584652
 31
0.0
  0
LINE
  5
5027
330
4FDB
100
AcDbEntity
  8
1
  6
Continuous
100
AcDbLine
 10
389.293827
 20
250.6846519999998
 30
0.0
 11
389.293827
 21
258.4846519999999
 31
0.0
  0
LINE
  5
5028
330
4FDB
100
AcDbEntity
  8
1
  6
Continuous
100
AcDbLine
 10
388.878826
 20
259.203454
 30
0.0
 11
385.793827
 21
259.203454
 31
0.0
  0
LINE
  5
5029
330
4FDB
100
AcDbEntity
  8
1
  6
Continuous
100
AcDbLine
 10
388.878826
 20
249.9658499999999
 30
0.0
 11
385.793827
 21
249.9658499999999
 31
0.0
  0
LINE
  5
502A
330
4FDB
100
AcDbEntity
  8
1
  6
Continuous
100
AcDbLine
 10
388.8525829999999
 20
252.2752509999999
 30
0.0
 11
385.793827
 21
252.2752509999999
 31
0.0
  0
LINE
  5
502B
330
4FDB
100
AcDbEntity
  8
1
  6
Continuous
100
AcDbLine
 10
388.8525829999999
 20
256.8940529999998
 30
0.0
 11
385.793827
 21
256.8940529999998
 31
0.0
  0
LINE
  5
502C
330
4FDB
100
AcDbEntity
  8
1
  6
Continuous
100
AcDbLine
 10
388.878826
 20
259.203454
 30
0.0
 11
389.293827
 21
258.4846519999999
 31
0.0
  0
LINE
  5
502D
330
4FDB
100
AcDbEntity
  8
1
  6
Continuous
100
AcDbLine
 10
388.878826
 20
249.9658499999999
 30
0.0
 11
389.293827
 21
250.6846519999998
 31
0.0
  0
ARC
  5
502E
330
4FDB
100
AcDbEntity
  8
1
  6
Continuous
100
AcDbCircle
 10
383.0296829999999
 20
254.584652
 30
0.0
 40
6.264143999999999
100
AcDbArc
 50
338.366392
 51
21.63360799999999
  0
ARC
  5
502F
330
4FDB
100
AcDbEntity
  8
1
  6
Continuous
100
AcDbCircle
 10
387.5623249999999
 20
251.1205509999999
 30
0.0
 40
1.731502
100
AcDbArc
 50
0.0
 51
41.82654799999999
  0
ARC
  5
5030
330
4FDB
100
AcDbEntity
  8
1
  6
Continuous
100
AcDbCircle
 10
387.5623249999999
 20
258.0487539999999
 30
0.0
 40
1.731502
100
AcDbArc
 50
318.173452
 51
0.0
  0
LINE
  5
5031
330
4FDB
100
AcDbEntity
  8
1
  6
Continuous
100
AcDbLine
 10
385.793827
 20
259.184652
 30
0.0
 11
384.493827
 21
259.184652
 31
0.0
  0
LINE
  5
5032
330
4FDB
100
AcDbEntity
  8
1
  6
Continuous
100
AcDbLine
 10
385.793827
 20
249.984652
 30
0.0
 11
384.493827
 21
249.984652
 31
0.0
  0
LINE
  5
5033
330
4FDB
100
AcDbEntity
  8
1
  6
Continuous
100
AcDbLine
 10
385.793827
 20
249.9658499999999
 30
0.0
 11
385.793827
 21
259.203454
 31
0.0
  0
LINE
  5
5034
330
4FDB
100
AcDbEntity
  8
4
  6
CENTER
100
AcDbLine
 10
392.293827
 20
254.584652
 30
0.0
 11
341.8692259999999
 21
254.584652
 31
0.0
  0
ARC
  5
5035
330
4FDB
100
AcDbEntity
  8
1
  6
Continuous
100
AcDbCircle
 10
450.946505
 20
237.584652
 30
0.0
 40
200.0
100
AcDbArc
 50
180.0
 51
184.573055
  0
LINE
  5
5036
330
4FDB
100
AcDbEntity
  8
1
  6
Continuous
100
AcDbLine
 10
258.7929229999999
 20
154.584652
 30
0.0
 11
261.946505
 21
154.584652
 31
0.0
  0
LINE
  5
5037
330
4FDB
100
AcDbEntity
  8
1
  6
Continuous
100
AcDbLine
 10
256.7992899999999
 20
156.4251919999998
 30
0.0
 11
251.583208
 21
221.6386229999999
 31
0.0
  0
LINE
  5
5038
330
4FDB
100
AcDbEntity
  8
1
  6
Continuous
100
AcDbLine
 10
268.9465049999999
 20
164.099371
 30
0.0
 11
268.9465049999999
 21
161.584652
 31
0.0
  0
LINE
  5
5039
330
4FDB
100
AcDbEntity
  8
1
  6
Continuous
100
AcDbLine
 10
267.1891459999998
 20
168.342012
 30
0.0
 11
265.703865
 21
169.8272929999999
 31
0.0
  0
ARC
  5
503A
330
4FDB
100
AcDbEntity
  8
1
  6
Continuous
100
AcDbCircle
 10
258.7929229999999
 20
156.584652
 30
0.0
 40
2.0
100
AcDbArc
 50
184.573055
 51
270.0
  0
ARC
  5
503B
330
4FDB
100
AcDbEntity
  8
1
  6
Continuous
100
AcDbCircle
 10
261.946505
 20
161.584652
 30
0.0
 40
7.0
100
AcDbArc
 50
270.0
 51
0.0
  0
ARC
  5
503C
330
4FDB
100
AcDbEntity
  8
1
  6
Continuous
100
AcDbCircle
 10
262.9465049999997
 20
164.099371
 30
0.0
 40
6.0
100
AcDbArc
 50
0.0
 51
45.0
  0
LINE
  5
503D
330
4FDB
100
AcDbEntity
  8
1
  6
Continuous
100
AcDbLine
 10
263.946505
 20
237.26316
 30
0.0
 11
263.946505
 21
174.0699339999999
 31
0.0
  0
ARC
  5
503E
330
4FDB
100
AcDbEntity
  8
1
  6
Continuous
100
AcDbCircle
 10
269.946505
 20
174.0699339999999
 30
0.0
 40
6.0
100
AcDbArc
 50
180.0
 51
225.0
  0
LINE
  5
503F
330
4FDB
100
AcDbEntity
  8
1
  6
Continuous
100
AcDbLine
 10
324.2465049999997
 20
259.7465319999999
 30
0.0
 11
324.2465049999997
 21
249.4227729999999
 31
0.0
  0
LINE
  5
5040
330
4FDB
100
AcDbEntity
  8
1
  6
Continuous
100
AcDbLine
 10
323.946505
 20
249.1227729999998
 30
0.0
 11
319.2465049999999
 21
249.1227729999998
 31
0.0
  0
LINE
  5
5041
330
4FDB
100
AcDbEntity
  8
1
  6
Continuous
100
AcDbLine
 10
323.946505
 20
260.0465319999999
 30
0.0
 11
319.2465049999999
 21
260.0465319999999
 31
0.0
  0
LINE
  5
5042
330
4FDB
100
AcDbEntity
  8
1
  6
Continuous
100
AcDbLine
 10
319.2465049999999
 20
247.7846519999999
 30
0.0
 11
319.2465049999999
 21
261.384652
 31
0.0
  0
LINE
  5
5043
330
4FDB
100
AcDbEntity
  8
1
  6
Continuous
100
AcDbLine
 10
323.946505
 20
254.584652
 30
0.0
 11
319.2465049999999
 21
254.584652
 31
0.0
  0
LINE
  5
5044
330
4FDB
100
AcDbEntity
  8
4
  6
CENTER
100
AcDbLine
 10
241.0723839999997
 20
254.584652
 30
0.0
 11
329.189342
 21
254.584652
 31
0.0
  0
LINE
  5
5045
330
4FDB
100
AcDbEntity
  8
2
  6
Continuous
100
AcDbLine
 10
323.946505
 20
254.584652
 30
0.0
 11
319.2465049999999
 21
260.0465319999999
 31
0.0
  0
LINE
  5
5046
330
4FDB
100
AcDbEntity
  8
2
  6
Continuous
100
AcDbLine
 10
323.946505
 20
260.0465319999999
 30
0.0
 11
319.2465049999999
 21
254.584652
 31
0.0
  0
LINE
  5
5047
330
4FDB
100
AcDbEntity
  8
2
  6
Continuous
100
AcDbLine
 10
319.2465049999999
 20
254.584652
 30
0.0
 11
323.946505
 21
249.1227729999998
 31
0.0
  0
LINE
  5
5048
330
4FDB
100
AcDbEntity
  8
2
  6
Continuous
100
AcDbLine
 10
319.2465049999999
 20
249.1227729999998
 30
0.0
 11
323.946505
 21
254.584652
 31
0.0
  0
ARC
  5
5049
330
4FDB
100
AcDbEntity
  8
1
  6
Continuous
100
AcDbCircle
 10
319.0465049999999
 20
247.7846519999999
 30
0.0
 40
0.2
100
AcDbArc
 50
270.0
 51
0.0
  0
ARC
  5
504A
330
4FDB
100
AcDbEntity
  8
1
  6
Continuous
100
AcDbCircle
 10
319.0465049999999
 20
261.384652
 30
0.0
 40
0.2
100
AcDbArc
 50
0.0
 51
90.0
  0
ARC
  5
504B
330
4FDB
100
AcDbEntity
  8
1
  6
Continuous
100
AcDbCircle
 10
323.946505
 20
249.4227729999999
 30
0.0
 40
0.3
100
AcDbArc
 50
270.0
 51
0.0
  0
ARC
  5
504C
330
4FDB
100
AcDbEntity
  8
1
  6
Continuous
100
AcDbCircle
 10
323.946505
 20
259.7465319999999
 30
0.0
 40
0.3
100
AcDbArc
 50
0.0
 51
90.0
  0
LINE
  5
504D
330
4FDB
100
AcDbEntity
  8
1
  6
Continuous
100
AcDbLine
 10
292.446505
 20
240.584652
 30
0.0
 11
292.446505
 21
268.584652
 31
0.0
  0
LINE
  5
504E
330
4FDB
100
AcDbEntity
  8
1
  6
Continuous
100
AcDbLine
 10
292.4965049999999
 20
245.584652
 30
0.0
 11
292.446505
 21
245.584652
 31
0.0
  0
LINE
  5
504F
330
4FDB
100
AcDbEntity
  8
1
  6
Continuous
100
AcDbLine
 10
304.946505
 20
278.584652
 30
0.0
 11
304.946505
 21
230.584652
 31
0.0
  0
LINE
  5
5050
330
4FDB
100
AcDbEntity
  8
1
  6
Continuous
100
AcDbLine
 10
304.946505
 20
230.584652
 30
0.0
 11
303.946505
 21
230.584652
 31
0.0
  0
LINE
  5
5051
330
4FDB
100
AcDbEntity
  8
1
  6
Continuous
100
AcDbLine
 10
304.946505
 20
278.584652
 30
0.0
 11
303.946505
 21
278.584652
 31
0.0
  0
LINE
  5
5052
330
4FDB
100
AcDbEntity
  8
1
  6
Continuous
100
AcDbLine
 10
302.4465049999997
 20
230.584652
 30
0.0
 11
303.946505
 21
230.584652
 31
0.0
  0
LINE
  5
5053
330
4FDB
100
AcDbEntity
  8
1
  6
Continuous
100
AcDbLine
 10
302.4465049999997
 20
278.584652
 30
0.0
 11
303.946505
 21
278.584652
 31
0.0
  0
ARC
  5
5054
330
4FDB
100
AcDbEntity
  8
1
  6
Continuous
100
AcDbCircle
 10
302.4465049999997
 20
232.584652
 30
0.0
 40
2.0
100
AcDbArc
 50
222.3553149999999
 51
270.0
  0
ARC
  5
5055
330
4FDB
100
AcDbEntity
  8
1
  6
Continuous
100
AcDbCircle
 10
302.4465049999997
 20
276.584652
 30
0.0
 40
2.0
100
AcDbArc
 50
90.0
 51
137.644685
  0
LINE
  5
5056
330
4FDB
100
AcDbEntity
  8
1
  6
Continuous
100
AcDbLine
 10
319.0465049999999
 20
264.084652
 30
0.0
 11
319.0465049999999
 21
245.084652
 31
0.0
  0
LINE
  5
5057
330
4FDB
100
AcDbEntity
  8
1
  6
Continuous
100
AcDbLine
 10
318.7965049999998
 20
244.834652
 30
0.0
 11
319.0465049999999
 21
245.084652
 31
0.0
  0
LINE
  5
5058
330
4FDB
100
AcDbEntity
  8
1
  6
Continuous
100
AcDbLine
 10
319.0465049999999
 20
264.084652
 30
0.0
 11
318.7965049999998
 21
264.334652
 31
0.0
  0
LINE
  5
5059
330
4FDB
100
AcDbEntity
  8
1
  6
Continuous
100
AcDbLine
 10
306.4465049999999
 20
274.084652
 30
0.0
 11
306.4465049999999
 21
269.5846519999999
 31
0.0
  0
LINE
  5
505A
330
4FDB
100
AcDbEntity
  8
1
  6
Continuous
100
AcDbLine
 10
306.4465049999999
 20
274.084652
 30
0.0
 11
304.946505
 21
274.084652
 31
0.0
  0
LINE
  5
505B
330
4FDB
100
AcDbEntity
  8
1
  6
Continuous
100
AcDbLine
 10
306.4465049999999
 20
269.5846519999999
 30
0.0
 11
304.946505
 21
269.5846519999999
 31
0.0
  0
LINE
  5
505C
330
4FDB
100
AcDbEntity
  8
1
  6
Continuous
100
AcDbLine
 10
306.4465049999999
 20
235.084652
 30
0.0
 11
306.4465049999999
 21
239.584652
 31
0.0
  0
LINE
  5
505D
330
4FDB
100
AcDbEntity
  8
1
  6
Continuous
100
AcDbLine
 10
306.4465049999999
 20
235.084652
 30
0.0
 11
304.946505
 21
235.084652
 31
0.0
  0
LINE
  5
505E
330
4FDB
100
AcDbEntity
  8
1
  6
Continuous
100
AcDbLine
 10
306.4465049999999
 20
239.584652
 30
0.0
 11
304.946505
 21
239.584652
 31
0.0
  0
LINE
  5
505F
330
4FDB
100
AcDbEntity
  8
1
  6
Continuous
100
AcDbLine
 10
303.946505
 20
278.584652
 30
0.0
 11
303.946505
 21
230.584652
 31
0.0
  0
ARC
  5
5060
330
4FDB
100
AcDbEntity
  8
1
  6
Continuous
100
AcDbCircle
 10
292.9965049999997
 20
240.7783649999998
 30
0.0
 40
0.5
100
AcDbArc
 50
180.0
 51
222.1848549999999
  0
ARC
  5
5061
330
4FDB
100
AcDbEntity
  8
1
  6
Continuous
100
AcDbCircle
 10
292.9965049999997
 20
268.390939
 30
0.0
 40
0.5
100
AcDbArc
 50
137.815145
 51
180.0
  0
LINE
  5
5062
330
4FDB
100
AcDbEntity
  8
1
  6
Continuous
100
AcDbLine
 10
300.446505
 20
276.584652
 30
0.0
 11
300.446505
 21
232.584652
 31
0.0
  0
ARC
  5
5063
330
4FDB
100
AcDbEntity
  8
1
  6
Continuous
100
AcDbCircle
 10
302.4465049999997
 20
232.584652
 30
0.0
 40
2.0
100
AcDbArc
 50
180.0
 51
222.3553149999999
  0
ARC
  5
5064
330
4FDB
100
AcDbEntity
  8
1
  6
Continuous
100
AcDbCircle
 10
302.4465049999997
 20
276.584652
 30
0.0
 40
2.0
100
AcDbArc
 50
137.644685
 51
180.0
  0
LINE
  5
5065
330
4FDB
100
AcDbEntity
  8
1
  6
Continuous
100
AcDbLine
 10
299.446505
 20
271.500111
 30
0.0
 11
296.7519989999999
 21
268.878129
 31
0.0
  0
LINE
  5
5066
330
4FDB
100
AcDbEntity
  8
1
  6
Continuous
100
AcDbLine
 10
296.1068299999999
 20
268.2503249999999
 30
0.0
 11
292.577015
 21
264.8155159999999
 31
0.0
  0
LINE
  5
5067
330
4FDB
100
AcDbEntity
  8
1
  6
Continuous
100
AcDbLine
 10
296.7519989999999
 20
240.291175
 30
0.0
 11
299.446505
 21
237.669193
 31
0.0
  0
LINE
  5
5068
330
4FDB
100
AcDbEntity
  8
1
  6
Continuous
100
AcDbLine
 10
292.577015
 20
244.353788
 30
0.0
 11
296.1068299999999
 21
240.918979
 31
0.0
  0
LINE
  5
5069
330
4FDB
100
AcDbEntity
  8
1
  6
Continuous
100
AcDbLine
 10
318.7965049999998
 20
244.834652
 30
0.0
 11
304.946505
 21
244.834652
 31
0.0
  0
LINE
  5
506A
330
4FDB
100
AcDbEntity
  8
1
  6
Continuous
100
AcDbLine
 10
318.7965049999998
 20
264.334652
 30
0.0
 11
304.946505
 21
264.334652
 31
0.0
  0
LINE
  5
506B
330
4FDB
100
AcDbEntity
  8
1
  6
Continuous
100
AcDbLine
 10
292.626014
 20
240.4426029999999
 30
0.0
 11
300.964541
 21
231.2416029999999
 31
0.0
  0
LINE
  5
506C
330
4FDB
100
AcDbEntity
  8
1
  6
Continuous
100
AcDbLine
 10
300.964541
 20
277.927702
 30
0.0
 11
292.626014
 21
268.7267019999998
 31
0.0
  0
LINE
  5
506D
330
4FDB
100
AcDbEntity
  8
1
  6
Continuous
100
AcDbLine
 10
292.4965049999999
 20
268.390939
 30
0.0
 11
292.4965049999999
 21
240.7783649999998
 31
0.0
  0
ARC
  5
506E
330
4FDB
100
AcDbEntity
  8
1
  6
Continuous
100
AcDbCircle
 10
276.8113129999999
 20
237.584652
 30
0.0
 40
200.0
100
AcDbArc
 50
356.258952
 51
358.9954029999997
  0
LINE
  5
506F
330
4FDB
100
AcDbEntity
  8
1
  6
Continuous
100
AcDbLine
 10
476.385139
 20
224.535207
 30
0.0
 11
471.980017
 21
157.164755
 31
0.0
  0
LINE
  5
5070
330
4FDB
100
AcDbEntity
  8
1
  6
Continuous
100
AcDbLine
 10
452.237487
 20
224.535207
 30
0.0
 11
456.642609
 21
157.164755
 31
0.0
  0
ARC
  5
5071
330
4FDB
100
AcDbEntity
  8
1
  6
Continuous
100
AcDbCircle
 10
651.811313
 20
237.584652
 30
0.0
 40
200.0
100
AcDbArc
 50
181.0045969999999
 51
183.741048
  0
LINE
  5
5072
330
4FDB
100
AcDbEntity
  8
1
  6
Continuous
100
AcDbLine
 10
454.73216
 20
224.6983249999999
 30
0.0
 11
458.167187
 21
172.164175
 31
0.0
  0
LINE
  5
5073
330
4FDB
100
AcDbEntity
  8
1
  6
Continuous
100
AcDbLine
 10
473.890466
 20
224.6983249999999
 30
0.0
 11
470.4554389999996
 21
172.164175
 31
0.0
  0
ARC
  5
5074
330
4FDB
100
AcDbEntity
  8
1
  6
Continuous
100
AcDbCircle
 10
651.811313
 20
237.584652
 30
0.0
 40
197.5
100
AcDbArc
 50
181.405574
 51
183.741048
  0
ARC
  5
5075
330
4FDB
100
AcDbEntity
  8
1
  6
Continuous
100
AcDbCircle
 10
276.8113129999999
 20
237.584652
 30
0.0
 40
197.5
100
AcDbArc
 50
356.258952
 51
358.594426
  0
ARC
  5
5076
330
4FDB
100
AcDbEntity
  8
1
  6
Continuous
100
AcDbCircle
 10
464.3113129999998
 20
169.584652
 30
0.0
 40
8.0
100
AcDbArc
 50
226.051292
 51
313.948708
  0
LINE
  5
5077
330
4FDB
100
AcDbEntity
  8
1
  6
Continuous
100
AcDbLine
 10
460.66186
 20
169.8272929999999
 30
0.0
 11
467.960766
 21
169.8272929999999
 31
0.0
  0
ARC
  5
5078
330
4FDB
100
AcDbEntity
  8
1
  6
Continuous
100
AcDbCircle
 10
460.66186
 20
172.327293
 30
0.0
 40
2.5
100
AcDbArc
 50
183.741048
 51
270.0
  0
ARC
  5
5079
330
4FDB
100
AcDbEntity
  8
1
  6
Continuous
100
AcDbCircle
 10
467.960766
 20
172.327293
 30
0.0
 40
2.5
100
AcDbArc
 50
270.0
 51
356.258952
  0
LINE
  5
507A
330
4FDB
100
AcDbEntity
  8
1
  6
Continuous
100
AcDbLine
 10
457.028122
 20
189.584652
 30
0.0
 11
471.594504
 21
189.584652
 31
0.0
  0
LINE
  5
507B
330
4FDB
100
AcDbEntity
  8
1
  6
Continuous
100
AcDbLine
 10
457.420441
 20
183.584652
 30
0.0
 11
471.202184
 21
183.584652
 31
0.0
  0
LINE
  5
507C
330
4FDB
100
AcDbEntity
  8
4
  6
CENTER
100
AcDbLine
 10
464.3113129999998
 20
149.584652
 30
0.0
 11
464.3113129999998
 21
283.584652
 31
0.0
  0
ARC
  5
507D
330
4FDB
100
AcDbEntity
  8
1
  6
Continuous
100
AcDbCircle
 10
458.6383469999996
 20
157.29525
 30
0.0
 40
2.0
100
AcDbArc
 50
183.741048
 51
255.720595
  0
ARC
  5
507E
330
4FDB
100
AcDbEntity
  8
1
  6
Continuous
100
AcDbCircle
 10
464.3113129999998
 20
179.584652
 30
0.0
 40
25.0
100
AcDbArc
 50
255.720595
 51
284.279405
  0
ARC
  5
507F
330
4FDB
100
AcDbEntity
  8
1
  6
Continuous
100
AcDbCircle
 10
469.9842779999998
 20
157.29525
 30
0.0
 40
2.0
100
AcDbArc
 50
284.279405
 51
356.258952
  0
ARC
  5
5080
330
4FDB
100
AcDbEntity
  8
5
  6
PHANTOM
100
AcDbCircle
 10
35.06400900000001
 20
83.70488899999998
 30
0.0
 40
200.0
100
AcDbArc
 50
56.258952
 51
60.0
  0
LINE
  5
5081
330
4FDB
100
AcDbEntity
  8
5
  6
PHANTOM
100
AcDbLine
 10
146.152072
 20
250.016169
 30
0.0
 11
202.2948179999999
 21
212.5154719999999
 31
0.0
  0
LINE
  5
5082
330
4FDB
100
AcDbEntity
  8
5
  6
PHANTOM
100
AcDbLine
 10
134.078246
 20
229.1036889999999
 30
0.0
 11
194.6261759999999
 21
199.2329939999999
 31
0.0
  0
ARC
  5
5083
330
4FDB
100
AcDbEntity
  8
5
  6
PHANTOM
100
AcDbCircle
 10
222.564009
 20
408.4644149999999
 30
0.0
 40
200.0
100
AcDbArc
 50
239.9999999999999
 51
243.741048
  0
ARC
  5
5084
330
4FDB
100
AcDbEntity
  8
5
  6
PHANTOM
100
AcDbCircle
 10
179.043482
 20
217.084652
 30
0.0
 40
25.0
100
AcDbArc
 50
315.720595
 51
344.2794049999998
  0
ARC
  5
5085
330
4FDB
100
AcDbEntity
  8
5
  6
PHANTOM
100
AcDbCircle
 10
201.183153
 20
210.852883
 30
0.0
 40
2.0
100
AcDbArc
 50
344.2794049999998
 51
56.258952
  0
ARC
  5
5086
330
4FDB
100
AcDbEntity
  8
5
  6
PHANTOM
100
AcDbCircle
 10
195.510187
 20
201.027018
 30
0.0
 40
2.0
100
AcDbArc
 50
243.741048
 51
315.720595
  0
LINE
  5
5087
330
4FDB
100
AcDbEntity
  8
5
  6
PHANTOM
100
AcDbLine
 10
101.591577
 20
255.184652
 30
0.0
 11
101.591577
 21
284.517267
 31
0.0
  0
LINE
  5
5088
330
4FDB
100
AcDbEntity
  8
5
  6
PHANTOM
100
AcDbLine
 10
126.591577
 20
255.184652
 30
0.0
 11
126.591577
 21
284.517267
 31
0.0
  0
ARC
  5
5089
330
4FDB
100
AcDbEntity
  8
5
  6
PHANTOM
100
AcDbCircle
 10
114.091577
 20
265.184652
 30
0.0
 40
24.0
100
AcDbArc
 50
61.49256900000001
 51
118.507431
  0
ARC
  5
508A
330
4FDB
100
AcDbEntity
  8
5
  6
PHANTOM
100
AcDbCircle
 10
103.591577
 20
284.517267
 30
0.0
 40
2.0
100
AcDbArc
 50
118.507431
 51
180.0
  0
ARC
  5
508B
330
4FDB
100
AcDbEntity
  8
5
  6
PHANTOM
100
AcDbCircle
 10
124.591577
 20
284.517267
 30
0.0
 40
2.0
100
AcDbArc
 50
0.0
 51
61.49256900000001
  0
LINE
  5
508C
330
4FDB
100
AcDbEntity
  8
5
  6
PHANTOM
100
AcDbLine
 10
103.3415769999999
 20
286.6424600000001
 30
0.0
 11
103.3415769999999
 21
255.184652
 31
0.0
  0
LINE
  5
508D
330
4FDB
100
AcDbEntity
  8
5
  6
PHANTOM
100
AcDbLine
 10
124.841577
 20
286.6424600000001
 30
0.0
 11
124.841577
 21
255.184652
 31
0.0
  0
ARC
  5
508E
330
4FDB
100
AcDbEntity
  8
5
  6
PHANTOM
100
AcDbCircle
 10
114.091577
 20
254.1846519999999
 30
0.0
 40
8.0
100
AcDbArc
 50
12.83958799999999
 51
167.160412
  0
LINE
  5
508F
330
4FDB
100
AcDbEntity
  8
5
  6
PHANTOM
100
AcDbLine
 10
101.591577
 20
255.184652
 30
0.0
 11
105.3166119999999
 21
255.184652
 31
0.0
  0
LINE
  5
5090
330
4FDB
100
AcDbEntity
  8
5
  6
PHANTOM
100
AcDbLine
 10
122.866541
 20
255.184652
 30
0.0
 11
126.591577
 21
255.184652
 31
0.0
  0
ARC
  5
5091
330
4FDB
100
AcDbEntity
  8
5
  6
PHANTOM
100
AcDbCircle
 10
105.3166119999999
 20
256.184652
 30
0.0
 40
1.0
100
AcDbArc
 50
270.0
 51
347.160412
  0
ARC
  5
5092
330
4FDB
100
AcDbEntity
  8
5
  6
PHANTOM
100
AcDbCircle
 10
122.866541
 20
256.184652
 30
0.0
 40
1.0
100
AcDbArc
 50
192.839588
 51
270.0
  0
LINE
  5
5093
330
4FDB
100
AcDbEntity
  8
5
  6
PHANTOM
100
AcDbLine
 10
107.163373
 20
258.184652
 30
0.0
 11
114.091577
 21
270.184652
 31
0.0
  0
LINE
  5
5094
330
4FDB
100
AcDbEntity
  8
5
  6
PHANTOM
100
AcDbLine
 10
114.091577
 20
270.184652
 30
0.0
 11
121.01978
 21
258.184652
 31
0.0
  0
LINE
  5
5095
330
4FDB
100
AcDbEntity
  8
1
  6
Continuous
100
AcDbLine
 10
101.591577
 20
237.584652
 30
0.0
 11
101.591577
 21
266.917267
 31
0.0
  0
LINE
  5
5096
330
4FDB
100
AcDbEntity
  8
1
  6
Continuous
100
AcDbLine
 10
126.591577
 20
237.584652
 30
0.0
 11
126.591577
 21
266.917267
 31
0.0
  0
ARC
  5
5097
330
4FDB
100
AcDbEntity
  8
1
  6
Continuous
100
AcDbCircle
 10
114.091577
 20
247.584652
 30
0.0
 40
24.0
100
AcDbArc
 50
61.49256900000001
 51
118.507431
  0
ARC
  5
5098
330
4FDB
100
AcDbEntity
  8
1
  6
Continuous
100
AcDbCircle
 10
103.591577
 20
266.917267
 30
0.0
 40
2.0
100
AcDbArc
 50
118.507431
 51
180.0
  0
ARC
  5
5099
330
4FDB
100
AcDbEntity
  8
1
  6
Continuous
100
AcDbCircle
 10
124.591577
 20
266.917267
 30
0.0
 40
2.0
100
AcDbArc
 50
0.0
 51
61.49256900000001
  0
LINE
  5
509A
330
4FDB
100
AcDbEntity
  8
1
  6
Continuous
100
AcDbLine
 10
103.3415769999999
 20
269.04246
 30
0.0
 11
103.3415769999999
 21
237.584652
 31
0.0
  0
LINE
  5
509B
330
4FDB
100
AcDbEntity
  8
1
  6
Continuous
100
AcDbLine
 10
124.841577
 20
269.04246
 30
0.0
 11
124.841577
 21
237.584652
 31
0.0
  0
ARC
  5
509C
330
4FDB
100
AcDbEntity
  8
1
  6
Continuous
100
AcDbCircle
 10
114.091577
 20
236.584652
 30
0.0
 40
8.0
100
AcDbArc
 50
12.83958799999999
 51
167.160412
  0
LINE
  5
509D
330
4FDB
100
AcDbEntity
  8
1
  6
Continuous
100
AcDbLine
 10
101.591577
 20
237.584652
 30
0.0
 11
105.3166129999999
 21
237.584652
 31
0.0
  0
LINE
  5
509E
330
4FDB
100
AcDbEntity
  8
1
  6
Continuous
100
AcDbLine
 10
122.866541
 20
237.584652
 30
0.0
 11
126.591577
 21
237.584652
 31
0.0
  0
ARC
  5
509F
330
4FDB
100
AcDbEntity
  8
1
  6
Continuous
100
AcDbCircle
 10
105.3166129999999
 20
238.584652
 30
0.0
 40
1.0
100
AcDbArc
 50
270.0
 51
347.160412
  0
ARC
  5
50A0
330
4FDB
100
AcDbEntity
  8
1
  6
Continuous
100
AcDbCircle
 10
122.866541
 20
238.584652
 30
0.0
 40
1.0
100
AcDbArc
 50
192.839588
 51
270.0
  0
LINE
  5
50A1
330
4FDB
100
AcDbEntity
  8
1
  6
Continuous
100
AcDbLine
 10
107.163374
 20
240.584652
 30
0.0
 11
114.091577
 21
252.5846519999999
 31
0.0
  0
LINE
  5
50A2
330
4FDB
100
AcDbEntity
  8
1
  6
Continuous
100
AcDbLine
 10
114.091577
 20
252.5846519999999
 30
0.0
 11
121.01978
 21
240.584652
 31
0.0
  0
LINE
  5
50A3
330
4FDB
100
AcDbEntity
  8
1
  6
Continuous
100
AcDbLine
 10
384.493827
 20
255.784652
 30
0.0
 11
383.293827
 21
254.584652
 31
0.0
  0
LINE
  5
50A4
330
4FDB
100
AcDbEntity
  8
1
  6
Continuous
100
AcDbLine
 10
384.493827
 20
254.584652
 30
0.0
 11
383.293827
 21
253.3846519999999
 31
0.0
  0
LINE
  5
50A5
330
4FDB
100
AcDbEntity
  8
1
  6
Continuous
100
AcDbLine
 10
463.807716
 20
209.0834749999999
 30
0.0
 11
461.8261
 21
209.852933
 31
0.0
  0
LINE
  5
50A6
330
4FDB
100
AcDbEntity
  8
1
  6
Continuous
100
AcDbLine
 10
462.3763489999998
 20
209.6337239999999
 30
0.0
 11
462.3763489999998
 21
208.5512079999999
 31
0.0
  0
LINE
  5
50A7
330
4FDB
100
AcDbEntity
  8
1
  6
Continuous
100
AcDbLine
 10
465.1061819999998
 20
211.063852
 30
0.0
 11
465.014473
 21
211.1806629999999
 31
0.0
  0
LINE
  5
50A8
330
4FDB
100
AcDbEntity
  8
1
  6
Continuous
100
AcDbLine
 10
466.647778
 20
211.1256019999999
 30
0.0
 11
466.545928
 21
211.0153359999999
 31
0.0
  0
LINE
  5
50A9
330
4FDB
100
AcDbEntity
  8
1
  6
Continuous
100
AcDbLine
 10
462.7783789999998
 20
199.623107
 30
0.0
 11
462.7783789999998
 21
198.9247879999999
 31
0.0
  0
LWPOLYLINE
  5
50AA
330
4FDB
100
AcDbEntity
  8
1
  6
Continuous
100
AcDbPolyline
 90
       10
 70
     0
 43
0.0
 10
463.329166
 20
205.5850229999999
 10
463.2566249999999
 20
205.5918109999999
 10
463.1862849999998
 20
205.6120249999999
 10
463.120308
 20
205.644995
 10
463.0606719999996
 20
205.6897129999999
 10
463.0091659999997
 20
205.7449109999998
 10
462.9674319999998
 20
205.8087989999999
 10
462.936625
 20
205.879512
 10
462.917791
 20
205.95485
 10
462.9114509999998
 20
206.032575
  0
LINE
  5
50B6
330
4FDB
100
AcDbEntity
  8
1
  6
Continuous
100
AcDbLine
 10
462.9114509999998
 20
206.0251159999999
 30
0.0
 11
462.9114509999998
 21
206.2115959999999
 31
0.0
  0
LWPOLYLINE
  5
50B7
330
4FDB
100
AcDbEntity
  8
1
  6
Continuous
100
AcDbPolyline
 90
       10
 70
     0
 43
0.0
 10
462.3072549999998
 20
205.562645
 10
462.2230779999998
 20
205.570142
 10
462.141437
 20
205.592333
 10
462.0648309999999
 20
205.628584
 10
461.9956099999998
 20
205.6778149999999
 10
461.935825
 20
205.7384959999999
 10
461.8873769999996
 20
205.8087989999999
 10
461.8516469999996
 20
205.886561
 10
461.8297919999998
 20
205.96947
 10
461.8224070000001
 20
206.0549519999999
  0
LWPOLYLINE
  5
50C3
330
4FDB
100
AcDbEntity
  8
1
  6
Continuous
100
AcDbPolyline
 90
       10
 70
     0
 43
0.0
 10
462.9114509999998
 20
206.032575
 10
462.9022759999998
 20
205.9509709999999
 10
462.875012
 20
205.8718659999999
 10
462.8305179999999
 20
205.7976099999999
 10
462.770099
 20
205.7305139999999
 10
462.695619
 20
205.672594
 10
462.609353
 20
205.6256009999999
 10
462.5139129999998
 20
205.5909899999998
 10
462.4121689999998
 20
205.569769
 10
462.3072549999998
 20
205.562645
  0
LWPOLYLINE
  5
50CF
330
4FDB
100
AcDbEntity
  8
1
  6
Continuous
100
AcDbPolyline
 90
       10
 70
     0
 43
0.0
 10
463.8140139999999
 20
206.040034
 10
463.8066669999998
 20
205.9610409999999
 10
463.784774
 20
205.884398
 10
463.749044
 20
205.812528
 10
463.7005969999997
 20
205.747559
 10
463.6408109999998
 20
205.6914649999999
 10
463.57159
 20
205.646002
 10
463.4949839999999
 20
205.612473
 10
463.413343
 20
205.591922
 10
463.329166
 20
205.5850229999999
  0
LWPOLYLINE
  5
50DB
330
4FDB
100
AcDbEntity
  8
1
  6
Continuous
100
AcDbPolyline
 90
       10
 70
     0
 43
0.0
 10
463.8222789999998
 20
202.7083839999999
 10
463.8127759999998
 20
202.6037399999999
 10
463.7845389999998
 20
202.502303
 10
463.738456
 20
202.407085
 10
463.675879
 20
202.321022
 10
463.5987389999998
 20
202.2467789999998
 10
463.509392
 20
202.186519
 10
463.4105429999998
 20
202.142136
 10
463.3051659999998
 20
202.1149419999999
 10
463.1965049999998
 20
202.1057869999999
  0
LWPOLYLINE
  5
50E7
330
4FDB
100
AcDbEntity
  8
1
  6
Continuous
100
AcDbPolyline
 90
       10
 70
     0
 43
0.0
 10
463.18878
 20
203.2646269999999
 10
463.2987919999997
 20
203.256167
 10
463.4054439999998
 20
203.231098
 10
463.505529
 20
203.190113
 10
463.595996
 20
203.134489
 10
463.674063
 20
203.0659239999998
 10
463.737413
 20
202.986505
 10
463.7840759999998
 20
202.8986259999999
 10
463.8126609999998
 20
202.8049919999999
 10
463.8222789999998
 20
202.7083839999999
  0
LINE
  5
50F3
330
4FDB
100
AcDbEntity
  8
1
  6
Continuous
100
AcDbLine
 10
463.2042309999998
 20
202.1057869999999
 30
0.0
 11
462.423945
 21
202.1057869999999
 31
0.0
  0
LWPOLYLINE
  5
50F4
330
4FDB
100
AcDbEntity
  8
1
  6
Continuous
100
AcDbPolyline
 90
       10
 70
     0
 43
0.0
 10
462.454848
 20
203.2646269999999
 10
462.344835
 20
203.256167
 10
462.238183
 20
203.231098
 10
462.138098
 20
203.190113
 10
462.0476309999999
 20
203.134489
 10
461.9695639999997
 20
203.0659239999998
 10
461.9062139999998
 20
202.986505
 10
461.8595519999998
 20
202.8986259999999
 10
461.830967
 20
202.8049919999999
 10
461.821348
 20
202.7083839999999
  0
LINE
  5
5100
330
4FDB
100
AcDbEntity
  8
1
  6
Continuous
100
AcDbLine
 10
463.18878
 20
203.2646269999999
 30
0.0
 11
462.423945
 21
203.2646269999999
 31
0.0
  0
LWPOLYLINE
  5
5101
330
4FDB
100
AcDbEntity
  8
1
  6
Continuous
100
AcDbPolyline
 90
       10
 70
     0
 43
0.0
 10
461.821348
 20
202.7083839999999
 10
461.830851
 20
202.6037399999999
 10
461.859088
 20
202.502303
 10
461.9051709999998
 20
202.407085
 10
461.9677489999999
 20
202.321022
 10
462.0448889999996
 20
202.2467789999998
 10
462.1342349999998
 20
202.186519
 10
462.233084
 20
202.142136
 10
462.338462
 20
202.1149419999999
 10
462.447122
 20
202.1057869999999
  0
LINE
  5
510D
330
4FDB
100
AcDbEntity
  8
1
  6
Continuous
100
AcDbLine
 10
463.8240999999998
 20
201.10223
 30
0.0
 11
461.8241
 21
201.10223
 31
0.0
  0
LINE
  5
510E
330
4FDB
100
AcDbEntity
  8
1
  6
Continuous
100
AcDbLine
 10
462.7783789999998
 20
207.9021119999999
 30
0.0
 11
462.7783789999998
 21
207.203793
 31
0.0
  0
LINE
  5
510F
330
4FDB
100
AcDbEntity
  8
1
  6
Continuous
100
AcDbLine
 10
463.8113129999998
 20
209.0834749999999
 30
0.0
 11
461.8261
 21
208.3491219999999
 31
0.0
  0
LWPOLYLINE
  5
5110
330
4FDB
100
AcDbEntity
  8
1
  6
Continuous
100
AcDbPolyline
 90
       10
 70
     0
 43
0.0
 10
461.8224070000001
 20
206.0549519999999
 10
461.829904
 20
206.1443139999997
 10
461.852095
 20
206.2309889999999
 10
461.8883469999998
 20
206.3122949999999
 10
461.9375769999998
 20
206.3857679999999
 10
461.998258
 20
206.4492079999999
 10
462.0685609999998
 20
206.500677
 10
462.146323
 20
206.538607
 10
462.229232
 20
206.5618049999999
 10
462.314715
 20
206.5696369999999
  0
LWPOLYLINE
  5
511C
330
4FDB
100
AcDbEntity
  8
1
  6
Continuous
100
AcDbPolyline
 90
       10
 70
     0
 43
0.0
 10
463.2844109999998
 20
206.5696369999999
 10
463.3776509999997
 20
206.5615809999999
 10
463.468093
 20
206.5377119999999
 10
463.552942
 20
206.4987
 10
463.629622
 20
206.44574
 10
463.695823
 20
206.3804719999999
 10
463.749529
 20
206.3048359999999
 10
463.789063
 20
206.2211809999999
 10
463.8133049999996
 20
206.1320059999999
 10
463.821473
 20
206.040034
  0
LINE
  5
5128
330
4FDB
100
AcDbEntity
  8
1
  6
Continuous
100
AcDbLine
 10
464.89849
 20
204.43468
 30
0.0
 11
464.8878439999998
 21
204.5663439999999
 31
0.0
  0
LINE
  5
5129
330
4FDB
100
AcDbEntity
  8
1
  6
Continuous
100
AcDbLine
 10
464.930066
 20
204.3070429999999
 30
0.0
 11
464.89849
 21
204.43468
 31
0.0
  0
LINE
  5
512A
330
4FDB
100
AcDbEntity
  8
1
  6
Continuous
100
AcDbLine
 10
464.981674
 20
204.1872829999999
 30
0.0
 11
464.930066
 21
204.3070429999999
 31
0.0
  0
LINE
  5
512B
330
4FDB
100
AcDbEntity
  8
1
  6
Continuous
100
AcDbLine
 10
465.051696
 20
204.079032
 30
0.0
 11
464.981674
 21
204.1872829999999
 31
0.0
  0
LINE
  5
512C
330
4FDB
100
AcDbEntity
  8
1
  6
Continuous
100
AcDbLine
 10
465.1380099999998
 20
203.985597
 30
0.0
 11
465.051696
 21
204.079032
 31
0.0
  0
LINE
  5
512D
330
4FDB
100
AcDbEntity
  8
1
  6
Continuous
100
AcDbLine
 10
465.23799
 20
203.909785
 30
0.0
 11
465.1380099999998
 21
203.985597
 31
0.0
  0
LINE
  5
512E
330
4FDB
100
AcDbEntity
  8
1
  6
Continuous
100
AcDbLine
 10
465.348615
 20
203.853933
 30
0.0
 11
465.23799
 21
203.909785
 31
0.0
  0
LINE
  5
512F
330
4FDB
100
AcDbEntity
  8
1
  6
Continuous
100
AcDbLine
 10
465.4665409999998
 20
203.819731
 30
0.0
 11
465.348615
 21
203.853933
 31
0.0
  0
LINE
  5
5130
330
4FDB
100
AcDbEntity
  8
1
  6
Continuous
100
AcDbLine
 10
465.5881349999998
 20
203.808223
 30
0.0
 11
465.4665409999998
 21
203.819731
 31
0.0
  0
LINE
  5
5131
330
4FDB
100
AcDbEntity
  8
1
  6
Continuous
100
AcDbLine
 10
465.678369
 20
205.3171999999999
 30
0.0
 11
465.844487
 21
205.328781
 31
0.0
  0
LINE
  5
5132
330
4FDB
100
AcDbEntity
  8
1
  6
Continuous
100
AcDbLine
 10
465.517286
 20
205.282783
 30
0.0
 11
465.678369
 21
205.3171999999999
 31
0.0
  0
LINE
  5
5133
330
4FDB
100
AcDbEntity
  8
1
  6
Continuous
100
AcDbLine
 10
465.366165
 20
205.2266429999999
 30
0.0
 11
465.517286
 21
205.282783
 31
0.0
  0
LINE
  5
5134
330
4FDB
100
AcDbEntity
  8
1
  6
Continuous
100
AcDbLine
 10
465.2295379999998
 20
205.150399
 30
0.0
 11
465.366165
 21
205.2266429999999
 31
0.0
  0
LINE
  5
5135
330
4FDB
100
AcDbEntity
  8
1
  6
Continuous
100
AcDbLine
 10
465.111648
 20
205.0564249999999
 30
0.0
 11
465.2295379999998
 21
205.150399
 31
0.0
  0
LINE
  5
5136
330
4FDB
100
AcDbEntity
  8
1
  6
Continuous
100
AcDbLine
 10
465.01602
 20
204.9475619999999
 30
0.0
 11
465.111648
 21
205.0564249999999
 31
0.0
  0
LINE
  5
5137
330
4FDB
100
AcDbEntity
  8
1
  6
Continuous
100
AcDbLine
 10
464.9455299999996
 20
204.8271189999999
 30
0.0
 11
465.01602
 21
204.9475619999999
 31
0.0
  0
LINE
  5
5138
330
4FDB
100
AcDbEntity
  8
1
  6
Continuous
100
AcDbLine
 10
464.902374
 20
204.6987269999999
 30
0.0
 11
464.9455299999996
 21
204.8271189999999
 31
0.0
  0
LINE
  5
5139
330
4FDB
100
AcDbEntity
  8
1
  6
Continuous
100
AcDbLine
 10
464.8878439999998
 20
204.5663439999999
 30
0.0
 11
464.902374
 21
204.6987269999999
 31
0.0
  0
LINE
  5
513A
330
4FDB
100
AcDbEntity
  8
1
  6
Continuous
100
AcDbLine
 10
466.011611
 20
205.3171999999999
 30
0.0
 11
465.8454939999998
 21
205.328781
 31
0.0
  0
LINE
  5
513B
330
4FDB
100
AcDbEntity
  8
1
  6
Continuous
100
AcDbLine
 10
466.172694
 20
205.282783
 30
0.0
 11
466.011611
 21
205.3171999999999
 31
0.0
  0
LINE
  5
513C
330
4FDB
100
AcDbEntity
  8
1
  6
Continuous
100
AcDbLine
 10
466.323815
 20
205.2266429999999
 30
0.0
 11
466.172694
 21
205.282783
 31
0.0
  0
LINE
  5
513D
330
4FDB
100
AcDbEntity
  8
1
  6
Continuous
100
AcDbLine
 10
466.4604419999998
 20
205.150399
 30
0.0
 11
466.323815
 21
205.2266429999999
 31
0.0
  0
LINE
  5
513E
330
4FDB
100
AcDbEntity
  8
1
  6
Continuous
100
AcDbLine
 10
466.578332
 20
205.0564249999999
 30
0.0
 11
466.4604419999998
 21
205.150399
 31
0.0
  0
LINE
  5
513F
330
4FDB
100
AcDbEntity
  8
1
  6
Continuous
100
AcDbLine
 10
466.6739599999996
 20
204.9475619999999
 30
0.0
 11
466.578332
 21
205.0564249999999
 31
0.0
  0
LINE
  5
5140
330
4FDB
100
AcDbEntity
  8
1
  6
Continuous
100
AcDbLine
 10
466.74445
 20
204.8271189999999
 30
0.0
 11
466.6739599999996
 21
204.9475619999999
 31
0.0
  0
LINE
  5
5141
330
4FDB
100
AcDbEntity
  8
1
  6
Continuous
100
AcDbLine
 10
466.787607
 20
204.6987269999999
 30
0.0
 11
466.74445
 21
204.8271189999999
 31
0.0
  0
LINE
  5
5142
330
4FDB
100
AcDbEntity
  8
1
  6
Continuous
100
AcDbLine
 10
466.802136
 20
204.5663439999999
 30
0.0
 11
466.787607
 21
204.6987269999999
 31
0.0
  0
LINE
  5
5143
330
4FDB
100
AcDbEntity
  8
1
  6
Continuous
100
AcDbLine
 10
466.794907
 20
204.458632
 30
0.0
 11
466.802136
 21
204.573537
 31
0.0
  0
LINE
  5
5144
330
4FDB
100
AcDbEntity
  8
1
  6
Continuous
100
AcDbLine
 10
466.7735089999998
 20
204.3472149999999
 30
0.0
 11
466.794907
 21
204.458632
 31
0.0
  0
LINE
  5
5145
330
4FDB
100
AcDbEntity
  8
1
  6
Continuous
100
AcDbLine
 10
466.738516
 20
204.2426679999999
 30
0.0
 11
466.7735089999998
 21
204.3472149999999
 31
0.0
  0
LINE
  5
5146
330
4FDB
100
AcDbEntity
  8
1
  6
Continuous
100
AcDbLine
 10
466.691079
 20
204.1481899999999
 30
0.0
 11
466.738516
 21
204.2426679999999
 31
0.0
  0
LINE
  5
5147
330
4FDB
100
AcDbEntity
  8
1
  6
Continuous
100
AcDbLine
 10
466.632566
 20
204.0666239999999
 30
0.0
 11
466.691079
 21
204.1481899999999
 31
0.0
  0
LINE
  5
5148
330
4FDB
100
AcDbEntity
  8
1
  6
Continuous
100
AcDbLine
 10
466.5647739999998
 20
204.00045
 30
0.0
 11
466.632566
 21
204.0666239999999
 31
0.0
  0
LINE
  5
5149
330
4FDB
100
AcDbEntity
  8
1
  6
Continuous
100
AcDbLine
 10
466.4897889999998
 20
203.951719
 30
0.0
 11
466.5647739999998
 21
204.00045
 31
0.0
  0
LINE
  5
514A
330
4FDB
100
AcDbEntity
  8
1
  6
Continuous
100
AcDbLine
 10
466.409841
 20
203.9218689999999
 30
0.0
 11
466.4897889999998
 21
203.951719
 31
0.0
  0
LINE
  5
514B
330
4FDB
100
AcDbEntity
  8
1
  6
Continuous
100
AcDbLine
 10
466.3274109999998
 20
203.911799
 30
0.0
 11
466.409841
 21
203.9218689999999
 31
0.0
  0
LINE
  5
514C
330
4FDB
100
AcDbEntity
  8
1
  6
Continuous
100
AcDbLine
 10
465.702537
 20
210.325547
 30
0.0
 11
465.8686539999997
 21
210.337127
 31
0.0
  0
LINE
  5
514D
330
4FDB
100
AcDbEntity
  8
1
  6
Continuous
100
AcDbLine
 10
465.5414539999998
 20
210.291129
 30
0.0
 11
465.702537
 21
210.325547
 31
0.0
  0
LINE
  5
514E
330
4FDB
100
AcDbEntity
  8
1
  6
Continuous
100
AcDbLine
 10
465.390333
 20
210.2349899999999
 30
0.0
 11
465.5414539999998
 21
210.291129
 31
0.0
  0
LINE
  5
514F
330
4FDB
100
AcDbEntity
  8
1
  6
Continuous
100
AcDbLine
 10
465.2537059999998
 20
210.158746
 30
0.0
 11
465.390333
 21
210.2349899999999
 31
0.0
  0
LINE
  5
5150
330
4FDB
100
AcDbEntity
  8
1
  6
Continuous
100
AcDbLine
 10
465.135816
 20
210.064772
 30
0.0
 11
465.2537059999998
 21
210.158746
 31
0.0
  0
LINE
  5
5151
330
4FDB
100
AcDbEntity
  8
1
  6
Continuous
100
AcDbLine
 10
465.040188
 20
209.955909
 30
0.0
 11
465.135816
 21
210.064772
 31
0.0
  0
LINE
  5
5152
330
4FDB
100
AcDbEntity
  8
1
  6
Continuous
100
AcDbLine
 10
464.9696979999998
 20
209.835466
 30
0.0
 11
465.040188
 21
209.955909
 31
0.0
  0
LINE
  5
5153
330
4FDB
100
AcDbEntity
  8
1
  6
Continuous
100
AcDbLine
 10
464.9265409999999
 20
209.7070739999999
 30
0.0
 11
464.9696979999998
 21
209.835466
 31
0.0
  0
LINE
  5
5154
330
4FDB
100
AcDbEntity
  8
1
  6
Continuous
100
AcDbLine
 10
464.912012
 20
209.5746909999999
 30
0.0
 11
464.9265409999999
 21
209.7070739999999
 31
0.0
  0
LINE
  5
5155
330
4FDB
100
AcDbEntity
  8
1
  6
Continuous
100
AcDbLine
 10
464.919241
 20
209.4597859999999
 30
0.0
 11
464.912012
 21
209.5746909999999
 31
0.0
  0
LINE
  5
5156
330
4FDB
100
AcDbEntity
  8
1
  6
Continuous
100
AcDbLine
 10
464.940639
 20
209.3483689999999
 30
0.0
 11
464.919241
 21
209.4597859999999
 31
0.0
  0
LINE
  5
5157
330
4FDB
100
AcDbEntity
  8
1
  6
Continuous
100
AcDbLine
 10
464.975632
 20
209.243822
 30
0.0
 11
464.940639
 21
209.3483689999999
 31
0.0
  0
LINE
  5
5158
330
4FDB
100
AcDbEntity
  8
1
  6
Continuous
100
AcDbLine
 10
465.0230689999999
 20
209.1493439999999
 30
0.0
 11
464.975632
 21
209.243822
 31
0.0
  0
LINE
  5
5159
330
4FDB
100
AcDbEntity
  8
1
  6
Continuous
100
AcDbLine
 10
465.081582
 20
209.067778
 30
0.0
 11
465.0230689999999
 21
209.1493439999999
 31
0.0
  0
LINE
  5
515A
330
4FDB
100
AcDbEntity
  8
1
  6
Continuous
100
AcDbLine
 10
465.149374
 20
209.001604
 30
0.0
 11
465.081582
 21
209.067778
 31
0.0
  0
LINE
  5
515B
330
4FDB
100
AcDbEntity
  8
1
  6
Continuous
100
AcDbLine
 10
465.224359
 20
208.952873
 30
0.0
 11
465.149374
 21
209.001604
 31
0.0
  0
LINE
  5
515C
330
4FDB
100
AcDbEntity
  8
1
  6
Continuous
100
AcDbLine
 10
465.3043069999998
 20
208.923023
 30
0.0
 11
465.224359
 21
208.952873
 31
0.0
  0
LINE
  5
515D
330
4FDB
100
AcDbEntity
  8
1
  6
Continuous
100
AcDbLine
 10
465.3867369999998
 20
208.912953
 30
0.0
 11
465.3043069999998
 21
208.923023
 31
0.0
  0
LINE
  5
515E
330
4FDB
100
AcDbEntity
  8
1
  6
Continuous
100
AcDbLine
 10
466.0357789999998
 20
210.325547
 30
0.0
 11
465.8696609999998
 21
210.337127
 31
0.0
  0
LINE
  5
515F
330
4FDB
100
AcDbEntity
  8
1
  6
Continuous
100
AcDbLine
 10
466.196862
 20
210.291129
 30
0.0
 11
466.0357789999998
 21
210.325547
 31
0.0
  0
LINE
  5
5160
330
4FDB
100
AcDbEntity
  8
1
  6
Continuous
100
AcDbLine
 10
466.3479829999998
 20
210.2349899999999
 30
0.0
 11
466.196862
 21
210.291129
 31
0.0
  0
LINE
  5
5161
330
4FDB
100
AcDbEntity
  8
1
  6
Continuous
100
AcDbLine
 10
466.48461
 20
210.158746
 30
0.0
 11
466.3479829999998
 21
210.2349899999999
 31
0.0
  0
LINE
  5
5162
330
4FDB
100
AcDbEntity
  8
1
  6
Continuous
100
AcDbLine
 10
466.6025
 20
210.064772
 30
0.0
 11
466.48461
 21
210.158746
 31
0.0
  0
LINE
  5
5163
330
4FDB
100
AcDbEntity
  8
1
  6
Continuous
100
AcDbLine
 10
466.698128
 20
209.955909
 30
0.0
 11
466.6025
 21
210.064772
 31
0.0
  0
LINE
  5
5164
330
4FDB
100
AcDbEntity
  8
1
  6
Continuous
100
AcDbLine
 10
466.7686179999998
 20
209.835466
 30
0.0
 11
466.698128
 21
209.955909
 31
0.0
  0
LINE
  5
5165
330
4FDB
100
AcDbEntity
  8
1
  6
Continuous
100
AcDbLine
 10
466.811774
 20
209.7070739999999
 30
0.0
 11
466.7686179999998
 21
209.835466
 31
0.0
  0
LINE
  5
5166
330
4FDB
100
AcDbEntity
  8
1
  6
Continuous
100
AcDbLine
 10
466.826304
 20
209.5746909999999
 30
0.0
 11
466.811774
 21
209.7070739999999
 31
0.0
  0
LINE
  5
5167
330
4FDB
100
AcDbEntity
  8
1
  6
Continuous
100
AcDbLine
 10
466.8190749999998
 20
209.466978
 30
0.0
 11
466.826304
 21
209.581883
 31
0.0
  0
LINE
  5
5168
330
4FDB
100
AcDbEntity
  8
1
  6
Continuous
100
AcDbLine
 10
466.797676
 20
209.355562
 30
0.0
 11
466.8190749999998
 21
209.466978
 31
0.0
  0
LINE
  5
5169
330
4FDB
100
AcDbEntity
  8
1
  6
Continuous
100
AcDbLine
 10
466.7626829999998
 20
209.2510149999998
 30
0.0
 11
466.797676
 21
209.355562
 31
0.0
  0
LINE
  5
516A
330
4FDB
100
AcDbEntity
  8
1
  6
Continuous
100
AcDbLine
 10
466.7152469999998
 20
209.156537
 30
0.0
 11
466.7626829999998
 21
209.2510149999998
 31
0.0
  0
LINE
  5
516B
330
4FDB
100
AcDbEntity
  8
1
  6
Continuous
100
AcDbLine
 10
466.6567339999998
 20
209.0749709999998
 30
0.0
 11
466.7152469999998
 21
209.156537
 31
0.0
  0
LINE
  5
516C
330
4FDB
100
AcDbEntity
  8
1
  6
Continuous
100
AcDbLine
 10
466.588941
 20
209.0087969999999
 30
0.0
 11
466.6567339999998
 21
209.0749709999998
 31
0.0
  0
LINE
  5
516D
330
4FDB
100
AcDbEntity
  8
1
  6
Continuous
100
AcDbLine
 10
466.5139559999998
 20
208.9600659999999
 30
0.0
 11
466.588941
 21
209.0087969999999
 31
0.0
  0
LINE
  5
516E
330
4FDB
100
AcDbEntity
  8
1
  6
Continuous
100
AcDbLine
 10
466.434008
 20
208.9302159999999
 30
0.0
 11
466.5139559999998
 21
208.9600659999999
 31
0.0
  0
LINE
  5
516F
330
4FDB
100
AcDbEntity
  8
1
  6
Continuous
100
AcDbLine
 10
466.3515789999998
 20
208.9201459999999
 30
0.0
 11
466.434008
 21
208.9302159999999
 31
0.0
  0
LINE
  5
5170
330
4FDB
100
AcDbEntity
  8
1
  6
Continuous
100
AcDbLine
 10
465.219288
 20
210.962182
 30
0.0
 11
465.1061819999998
 21
211.063852
 31
0.0
  0
LINE
  5
5171
330
4FDB
100
AcDbEntity
  8
1
  6
Continuous
100
AcDbLine
 10
465.350557
 20
210.8785649999999
 30
0.0
 11
465.219288
 21
210.962182
 31
0.0
  0
LINE
  5
5172
330
4FDB
100
AcDbEntity
  8
1
  6
Continuous
100
AcDbLine
 10
465.4961389999998
 20
210.8154129999999
 30
0.0
 11
465.350557
 21
210.8785649999999
 31
0.0
  0
LINE
  5
5173
330
4FDB
100
AcDbEntity
  8
1
  6
Continuous
100
AcDbLine
 10
465.6519349999999
 20
210.7745219999999
 30
0.0
 11
465.4961389999998
 21
210.8154129999999
 31
0.0
  0
LINE
  5
5174
330
4FDB
100
AcDbEntity
  8
1
  6
Continuous
100
AcDbLine
 10
465.81345
 20
210.757079
 30
0.0
 11
465.6519349999999
 21
210.7745219999999
 31
0.0
  0
LINE
  5
5175
330
4FDB
100
AcDbEntity
  8
1
  6
Continuous
100
AcDbLine
 10
465.9760069999999
 20
210.763588
 30
0.0
 11
465.81345
 21
210.757079
 31
0.0
  0
LINE
  5
5176
330
4FDB
100
AcDbEntity
  8
1
  6
Continuous
100
AcDbLine
 10
466.1349679999998
 20
210.79387
 30
0.0
 11
465.9760069999999
 21
210.763588
 31
0.0
  0
LINE
  5
5177
330
4FDB
100
AcDbEntity
  8
1
  6
Continuous
100
AcDbLine
 10
466.2858009999998
 20
210.8470609999999
 30
0.0
 11
466.1349679999998
 21
210.79387
 31
0.0
  0
LINE
  5
5178
330
4FDB
100
AcDbEntity
  8
1
  6
Continuous
100
AcDbLine
 10
466.424082
 20
210.9215779999999
 30
0.0
 11
466.2858009999998
 21
210.8470609999999
 31
0.0
  0
LINE
  5
5179
330
4FDB
100
AcDbEntity
  8
1
  6
Continuous
100
AcDbLine
 10
466.545928
 20
211.0153359999999
 30
0.0
 11
466.424082
 21
210.9215779999999
 31
0.0
  0
LINE
  5
517A
330
4FDB
100
AcDbEntity
  8
1
  6
Continuous
100
AcDbLine
 10
466.7965259999999
 20
205.991104
 30
0.0
 11
464.7969269999999
 21
205.991104
 31
0.0
  0
LINE
  5
517B
330
4FDB
100
AcDbEntity
  8
1
  6
Continuous
100
AcDbLine
 10
466.7965259999999
 20
203.0258059999999
 30
0.0
 11
464.7969269999999
 21
203.0258059999999
 31
0.0
  0
LINE
  5
517C
330
4FDB
100
AcDbEntity
  8
1
  6
Continuous
100
AcDbLine
 10
465.401122
 20
200.8684989999999
 30
0.0
 11
465.401122
 21
199.785982
 31
0.0
  0
LINE
  5
517D
330
4FDB
100
AcDbEntity
  8
1
  6
Continuous
100
AcDbLine
 10
466.8360859999999
 20
200.31825
 30
0.0
 11
464.80412
 21
199.5666019999999
 31
0.0
  0
LINE
  5
517E
330
4FDB
100
AcDbEntity
  8
1
  6
Continuous
100
AcDbLine
 10
466.8324899999998
 20
200.31825
 30
0.0
 11
464.80412
 21
201.105861
 31
0.0
  0
LINE
  5
517F
330
4FDB
100
AcDbEntity
  8
1
  6
Continuous
100
AcDbLine
 10
466.7965259999999
 20
206.8220059999999
 30
0.0
 11
464.7969269999999
 21
206.8220059999999
 31
0.0
  0
LINE
  5
5180
330
4FDB
100
AcDbEntity
  8
1
  6
Continuous
100
AcDbLine
 10
466.7965259999999
 20
208.1095169999999
 30
0.0
 11
464.7969269999999
 21
208.1095169999999
 31
0.0
  0
LINE
  5
5181
330
4FDB
100
AcDbEntity
  8
1
  6
Continuous
100
AcDbLine
 10
465.839883
 20
208.1095169999999
 30
0.0
 11
465.839883
 21
206.8220059999999
 31
0.0
  0
LINE
  5
5182
330
4FDB
100
AcDbEntity
  8
1
  6
Continuous
100
AcDbLine
 10
465.7355879999998
 20
201.8373959999999
 30
0.0
 11
466.7965259999999
 21
202.448033
 31
0.0
  0
LINE
  5
5183
330
4FDB
100
AcDbEntity
  8
1
  6
Continuous
100
AcDbLine
 10
465.731991
 20
201.8373959999999
 30
0.0
 11
466.7965259999999
 21
201.22278
 31
0.0
  0
LINE
  5
5184
330
4FDB
100
AcDbEntity
  8
1
  6
Continuous
100
AcDbLine
 10
465.7391839999998
 20
203.8010299999998
 30
0.0
 11
464.8113129999998
 21
203.8010299999998
 31
0.0
  0
LINE
  5
5185
330
4FDB
100
AcDbEntity
  8
1
  6
Continuous
100
AcDbLine
 10
465.731991
 20
201.8373959999999
 30
0.0
 11
464.7969269999999
 21
201.8373959999999
 31
0.0
  0
LINE
  5
5186
330
4FDB
100
AcDbEntity
  8
1
  6
Continuous
100
AcDbLine
 10
465.7391839999998
 20
204.4987319999999
 30
0.0
 11
465.7391839999998
 21
203.8010299999998
 31
0.0
  0
LINE
  5
5187
330
4FDB
100
AcDbEntity
  8
1
  6
Continuous
100
AcDbLine
 10
463.8113129999998
 20
213.243045
 30
0.0
 11
461.8261
 21
213.243045
 31
0.0
  0
LINE
  5
5188
330
4FDB
100
AcDbEntity
  8
1
  6
Continuous
100
AcDbLine
 10
463.8113129999998
 20
214.0522349999999
 30
0.0
 11
463.8113129999998
 21
212.433855
 31
0.0
  0
LINE
  5
5189
330
4FDB
100
AcDbEntity
  8
1
  6
Continuous
100
AcDbLine
 10
463.8113129999998
 20
211.6153409999999
 30
0.0
 11
461.8261
 21
211.6153409999999
 31
0.0
  0
LINE
  5
518A
330
4FDB
100
AcDbEntity
  8
1
  6
Continuous
100
AcDbLine
 10
463.8113129999998
 20
210.3278299999999
 30
0.0
 11
461.8261
 21
210.3278299999999
 31
0.0
  0
LINE
  5
518B
330
4FDB
100
AcDbEntity
  8
1
  6
Continuous
100
AcDbLine
 10
462.768357
 20
211.6153409999999
 30
0.0
 11
462.768357
 21
210.3278299999999
 31
0.0
  0
LINE
  5
518C
330
4FDB
100
AcDbEntity
  8
1
  6
Continuous
100
AcDbLine
 10
464.9050349999998
 20
211.4459329999998
 30
0.0
 11
464.8904339999998
 21
211.5908319999999
 31
0.0
  0
LINE
  5
518D
330
4FDB
100
AcDbEntity
  8
1
  6
Continuous
100
AcDbLine
 10
464.9467529999998
 20
211.30927
 30
0.0
 11
464.9050349999998
 21
211.4459329999998
 31
0.0
  0
LINE
  5
518E
330
4FDB
100
AcDbEntity
  8
1
  6
Continuous
100
AcDbLine
 10
465.014473
 20
211.1806629999999
 30
0.0
 11
464.9467529999998
 21
211.30927
 31
0.0
  0
LINE
  5
518F
330
4FDB
100
AcDbEntity
  8
1
  6
Continuous
100
AcDbLine
 10
466.726755
 20
211.2492459999999
 30
0.0
 11
466.647778
 21
211.1256019999999
 31
0.0
  0
LINE
  5
5190
330
4FDB
100
AcDbEntity
  8
1
  6
Continuous
100
AcDbLine
 10
466.7805579999998
 20
211.382709
 30
0.0
 11
466.726755
 21
211.2492459999999
 31
0.0
  0
LINE
  5
5191
330
4FDB
100
AcDbEntity
  8
1
  6
Continuous
100
AcDbLine
 10
466.807638
 20
211.522141
 30
0.0
 11
466.7805579999998
 21
211.382709
 31
0.0
  0
LINE
  5
5192
330
4FDB
100
AcDbEntity
  8
1
  6
Continuous
100
AcDbLine
 10
466.8072429999998
 20
211.6635519999999
 30
0.0
 11
466.807638
 21
211.522141
 31
0.0
  0
LINE
  5
5193
330
4FDB
100
AcDbEntity
  8
1
  6
Continuous
100
AcDbLine
 10
466.7793709999998
 20
211.8028759999999
 30
0.0
 11
466.8072429999998
 21
211.6635519999999
 31
0.0
  0
LINE
  5
5194
330
4FDB
100
AcDbEntity
  8
1
  6
Continuous
100
AcDbLine
 10
466.724849
 20
211.9360869999999
 30
0.0
 11
466.7793709999998
 21
211.8028759999999
 31
0.0
  0
LINE
  5
5195
330
4FDB
100
AcDbEntity
  8
1
  6
Continuous
100
AcDbLine
 10
466.6451889999996
 20
212.059407
 30
0.0
 11
466.724849
 21
211.9360869999999
 31
0.0
  0
LINE
  5
5196
330
4FDB
100
AcDbEntity
  8
1
  6
Continuous
100
AcDbLine
 10
466.5426919999998
 20
212.169277
 30
0.0
 11
466.6451889999996
 21
212.059407
 31
0.0
  0
LINE
  5
5197
330
4FDB
100
AcDbEntity
  8
1
  6
Continuous
100
AcDbLine
 10
466.4203419999998
 20
212.262496
 30
0.0
 11
466.5426919999998
 21
212.169277
 31
0.0
  0
LINE
  5
5198
330
4FDB
100
AcDbEntity
  8
1
  6
Continuous
100
AcDbLine
 10
466.281629
 20
212.3364379999999
 30
0.0
 11
466.4203419999998
 21
212.262496
 31
0.0
  0
LINE
  5
5199
330
4FDB
100
AcDbEntity
  8
1
  6
Continuous
100
AcDbLine
 10
466.1305439999998
 20
212.388981
 30
0.0
 11
466.281629
 21
212.3364379999999
 31
0.0
  0
LINE
  5
519A
330
4FDB
100
AcDbEntity
  8
1
  6
Continuous
100
AcDbLine
 10
465.9714039999998
 20
212.4185799999999
 30
0.0
 11
466.1305439999998
 21
212.388981
 31
0.0
  0
LINE
  5
519B
330
4FDB
100
AcDbEntity
  8
1
  6
Continuous
100
AcDbLine
 10
465.8088099999998
 20
212.424406
 30
0.0
 11
465.9714039999998
 21
212.4185799999999
 31
0.0
  0
LINE
  5
519C
330
4FDB
100
AcDbEntity
  8
1
  6
Continuous
100
AcDbLine
 10
465.6474039999998
 20
212.4062799999999
 30
0.0
 11
465.8088099999998
 21
212.424406
 31
0.0
  0
LINE
  5
519D
330
4FDB
100
AcDbEntity
  8
1
  6
Continuous
100
AcDbLine
 10
465.4918239999998
 20
212.3647419999997
 30
0.0
 11
465.6474039999998
 21
212.4062799999999
 31
0.0
  0
LINE
  5
519E
330
4FDB
100
AcDbEntity
  8
1
  6
Continuous
100
AcDbLine
 10
465.346565
 20
212.3009779999999
 30
0.0
 11
465.4918239999998
 21
212.3647419999997
 31
0.0
  0
LINE
  5
519F
330
4FDB
100
AcDbEntity
  8
1
  6
Continuous
100
AcDbLine
 10
465.2158
 20
212.216822
 30
0.0
 11
465.346565
 21
212.3009779999999
 31
0.0
  0
LINE
  5
51A0
330
4FDB
100
AcDbEntity
  8
1
  6
Continuous
100
AcDbLine
 10
465.103269
 20
212.1146479999999
 30
0.0
 11
465.2158
 21
212.216822
 31
0.0
  0
LINE
  5
51A1
330
4FDB
100
AcDbEntity
  8
1
  6
Continuous
100
AcDbLine
 10
465.012208
 20
211.997477
 30
0.0
 11
465.103269
 21
212.1146479999999
 31
0.0
  0
LINE
  5
51A2
330
4FDB
100
AcDbEntity
  8
1
  6
Continuous
100
AcDbLine
 10
464.9452069999998
 20
211.8685819999998
 30
0.0
 11
465.012208
 21
211.997477
 31
0.0
  0
LINE
  5
51A3
330
4FDB
100
AcDbEntity
  8
1
  6
Continuous
100
AcDbLine
 10
464.904244
 20
211.731739
 30
0.0
 11
464.9452069999998
 21
211.8685819999998
 31
0.0
  0
LINE
  5
51A4
330
4FDB
100
AcDbEntity
  8
1
  6
Continuous
100
AcDbLine
 10
464.8904339999998
 20
211.5908319999999
 30
0.0
 11
464.904244
 21
211.731739
 31
0.0
  0
LINE
  5
51A5
330
4FDB
100
AcDbEntity
  8
1
  6
Continuous
100
AcDbLine
 10
466.7965259999999
 20
213.243045
 30
0.0
 11
464.8113129999998
 21
213.243045
 31
0.0
  0
LINE
  5
51A6
330
4FDB
100
AcDbEntity
  8
1
  6
Continuous
100
AcDbLine
 10
466.7965259999999
 20
214.0486389999999
 30
0.0
 11
466.7965259999999
 21
212.4302589999998
 31
0.0
  0
ARC
  5
51A7
330
4FDB
100
AcDbEntity
  8
1
  6
Continuous
100
AcDbCircle
 10
463.351334
 20
198.0510759999999
 30
0.0
 40
0.5616
100
AcDbArc
 50
227.181793
 51
90.0
  0
LINE
  5
51A8
330
4FDB
100
AcDbEntity
  8
1
  6
Continuous
100
AcDbLine
 10
461.923934
 20
198.581476
 30
0.0
 11
461.923934
 21
197.4270759999997
 31
0.0
  0
LINE
  5
51A9
330
4FDB
100
AcDbEntity
  8
1
  6
Continuous
100
AcDbLine
 10
462.9691339999998
 20
197.6376759999999
 30
0.0
 11
461.9161339999998
 21
198.581476
 31
0.0
  0
ARC
  5
51AA
330
4FDB
100
AcDbEntity
  8
1
  6
Continuous
100
AcDbCircle
 10
467.664159
 20
193.084652
 30
0.0
 40
0.5
100
AcDbArc
 50
270.0
 51
90.0
  0
ARC
  5
51AB
330
4FDB
100
AcDbEntity
  8
1
  6
Continuous
100
AcDbCircle
 10
461.8157939999998
 20
193.084652
 30
0.0
 40
0.5
100
AcDbArc
 50
270.0
 51
90.0
  0
LINE
  5
51AC
330
4FDB
100
AcDbEntity
  8
1
  6
Continuous
100
AcDbLine
 10
461.2059939999999
 20
193.584652
 30
0.0
 11
461.2059939999999
 21
191.584652
 31
0.0
  0
LINE
  5
51AD
330
4FDB
100
AcDbEntity
  8
1
  6
Continuous
100
AcDbLine
 10
463.2540879999998
 20
193.586407
 30
0.0
 11
463.993938
 21
191.5864019999999
 31
0.0
  0
LINE
  5
51AE
330
4FDB
100
AcDbEntity
  8
1
  6
Continuous
100
AcDbLine
 10
463.2540879999998
 20
193.5828919999999
 30
0.0
 11
462.478788
 21
191.5864019999999
 31
0.0
  0
LINE
  5
51AF
330
4FDB
100
AcDbEntity
  8
1
  6
Continuous
100
AcDbLine
 10
464.8609249999998
 20
193.584652
 30
0.0
 11
464.8609249999998
 21
191.584652
 31
0.0
  0
LINE
  5
51B0
330
4FDB
100
AcDbEntity
  8
1
  6
Continuous
100
AcDbLine
 10
467.054359
 20
193.584652
 30
0.0
 11
467.054359
 21
191.584652
 31
0.0
  0
LINE
  5
51B1
330
4FDB
100
AcDbEntity
  8
1
  6
Continuous
100
AcDbLine
 10
461.2059939999999
 20
192.584652
 30
0.0
 11
461.8157939999998
 21
192.584652
 31
0.0
  0
LINE
  5
51B2
330
4FDB
100
AcDbEntity
  8
1
  6
Continuous
100
AcDbLine
 10
462.7185879999998
 20
192.189852
 30
0.0
 11
463.7720879999998
 21
192.189852
 31
0.0
  0
CIRCLE
  5
51B3
330
4FDB
100
AcDbEntity
  8
1
  6
Continuous
100
AcDbCircle
 10
466.3274229999998
 20
191.6246519999999
 30
0.0
 40
0.04
  0
LINE
  5
51B4
330
4FDB
100
AcDbEntity
  8
1
  6
Continuous
100
AcDbLine
 10
467.054359
 20
192.584652
 30
0.0
 11
467.664159
 21
192.584652
 31
0.0
  0
LINE
  5
51B5
330
4FDB
100
AcDbEntity
  8
1
  6
Continuous
100
AcDbLine
 10
464.07692
 20
193.584652
 30
0.0
 11
465.651895
 21
193.584652
 31
0.0
  0
LINE
  5
51B6
330
4FDB
100
AcDbEntity
  8
1
  6
Continuous
100
AcDbLine
 10
461.2059939999999
 20
193.584652
 30
0.0
 11
461.8157939999998
 21
193.584652
 31
0.0
  0
LINE
  5
51B7
330
4FDB
100
AcDbEntity
  8
1
  6
Continuous
100
AcDbLine
 10
467.054359
 20
193.584652
 30
0.0
 11
467.664159
 21
193.584652
 31
0.0
  0
LWPOLYLINE
  5
51B8
330
4FDB
100
AcDbEntity
  8
1
  6
Continuous
100
AcDbPolyline
 90
       10
 70
     0
 43
0.0
 10
463.329166
 20
203.93831
 10
463.2566249999999
 20
203.945098
 10
463.1862849999998
 20
203.965312
 10
463.120308
 20
203.998282
 10
463.0606719999996
 20
204.043
 10
463.0091659999997
 20
204.098198
 10
462.9674319999998
 20
204.162086
 10
462.936625
 20
204.2327989999999
 10
462.917791
 20
204.3081369999999
 10
462.9114509999998
 20
204.3858619999999
  0
LINE
  5
51C4
330
4FDB
100
AcDbEntity
  8
1
  6
Continuous
100
AcDbLine
 10
462.9114509999998
 20
204.3784029999999
 30
0.0
 11
462.9114509999998
 21
204.564883
 31
0.0
  0
LWPOLYLINE
  5
51C5
330
4FDB
100
AcDbEntity
  8
1
  6
Continuous
100
AcDbPolyline
 90
       10
 70
     0
 43
0.0
 10
462.3072549999998
 20
203.9159319999999
 10
462.2230779999998
 20
203.923429
 10
462.141437
 20
203.94562
 10
462.0648309999999
 20
203.981871
 10
461.9956099999998
 20
204.0311019999998
 10
461.935825
 20
204.091783
 10
461.8873769999996
 20
204.162086
 10
461.8516469999996
 20
204.239848
 10
461.8297919999998
 20
204.3227569999999
 10
461.8224070000001
 20
204.4082389999999
  0
LWPOLYLINE
  5
51D1
330
4FDB
100
AcDbEntity
  8
1
  6
Continuous
100
AcDbPolyline
 90
       10
 70
     0
 43
0.0
 10
462.9114509999998
 20
204.3858619999999
 10
462.9022759999998
 20
204.304258
 10
462.875012
 20
204.225153
 10
462.8305179999999
 20
204.1508969999999
 10
462.770099
 20
204.0838009999999
 10
462.695619
 20
204.025881
 10
462.609353
 20
203.9788879999999
 10
462.5139129999998
 20
203.9442769999999
 10
462.4121689999998
 20
203.923056
 10
462.3072549999998
 20
203.9159319999999
  0
LWPOLYLINE
  5
51DD
330
4FDB
100
AcDbEntity
  8
1
  6
Continuous
100
AcDbPolyline
 90
       10
 70
     0
 43
0.0
 10
463.8140139999999
 20
204.393321
 10
463.8066669999998
 20
204.3143279999999
 10
463.784774
 20
204.237685
 10
463.749044
 20
204.1658149999999
 10
463.7005969999997
 20
204.100846
 10
463.6408109999998
 20
204.0447519999999
 10
463.57159
 20
203.9992889999997
 10
463.4949839999999
 20
203.9657599999999
 10
463.413343
 20
203.945209
 10
463.329166
 20
203.93831
  0
LWPOLYLINE
  5
51E9
330
4FDB
100
AcDbEntity
  8
1
  6
Continuous
100
AcDbPolyline
 90
       10
 70
     0
 43
0.0
 10
461.8224070000001
 20
204.4082389999999
 10
461.829904
 20
204.497601
 10
461.852095
 20
204.5842759999999
 10
461.8883469999998
 20
204.665582
 10
461.9375769999998
 20
204.739055
 10
461.998258
 20
204.8024949999999
 10
462.0685609999998
 20
204.8539639999999
 10
462.146323
 20
204.891894
 10
462.229232
 20
204.9150919999999
 10
462.314715
 20
204.9229239999999
  0
LWPOLYLINE
  5
51F5
330
4FDB
100
AcDbEntity
  8
1
  6
Continuous
100
AcDbPolyline
 90
       10
 70
     0
 43
0.0
 10
463.2844109999998
 20
204.9229239999999
 10
463.3776509999997
 20
204.914868
 10
463.468093
 20
204.8909989999999
 10
463.552942
 20
204.851987
 10
463.629622
 20
204.799027
 10
463.695823
 20
204.733759
 10
463.749529
 20
204.658123
 10
463.789063
 20
204.5744679999998
 10
463.8133049999996
 20
204.4852929999999
 10
463.821473
 20
204.393321
  0
LINE
  5
5201
330
4FDB
100
AcDbEntity
  8
1
  6
Continuous
100
AcDbLine
 10
461.8241
 20
201.10223
 30
0.0
 11
461.8241
 21
200.1022299999999
 31
0.0
  0
ARC
  5
5202
330
4FDB
100
AcDbEntity
  8
1
  6
Continuous
100
AcDbCircle
 10
464.6569259999998
 20
220.105179
 30
0.0
 40
0.222261
100
AcDbArc
 50
90.0
 51
164.7419999999998
  0
ARC
  5
5203
330
4FDB
100
AcDbEntity
  8
1
  6
Continuous
100
AcDbCircle
 10
466.965699
 20
220.105179
 30
0.0
 40
0.222261
100
AcDbArc
 50
15.2575
 51
90.0
  0
ARC
  5
5204
330
4FDB
100
AcDbEntity
  8
1
  6
Continuous
100
AcDbCircle
 10
469.5442349999996
 20
218.7726049999999
 30
0.0
 40
5.732929999999998
100
AcDbArc
 50
144.462
 51
215.5379999999999
  0
ARC
  5
5205
330
4FDB
100
AcDbEntity
  8
1
  6
Continuous
100
AcDbCircle
 10
462.07839
 20
218.7726049999999
 30
0.0
 40
5.732929999999998
100
AcDbArc
 50
324.4619999999998
 51
35.5377
  0
ARC
  5
5206
330
4FDB
100
AcDbEntity
  8
1
  6
Continuous
100
AcDbCircle
 10
469.5442349999996
 20
218.7726049999999
 30
0.0
 40
5.288524999999999
100
AcDbArc
 50
153.986
 51
157.056
  0
ARC
  5
5207
330
4FDB
100
AcDbEntity
  8
1
  6
Continuous
100
AcDbCircle
 10
464.7155699999998
 20
220.8161259999999
 30
0.0
 40
0.044452
100
AcDbArc
 50
157.056
 51
270.0
  0
LINE
  5
5208
330
4FDB
100
AcDbEntity
  8
1
  6
Continuous
100
AcDbLine
 10
466.965699
 20
220.328027
 30
0.0
 11
464.6569259999998
 21
220.328027
 31
0.0
  0
ARC
  5
5209
330
4FDB
100
AcDbEntity
  8
1
  6
Continuous
100
AcDbCircle
 10
464.991648
 20
220.9938629999999
 30
0.0
 40
0.222261
100
AcDbArc
 50
90.0
 51
153.986
  0
ARC
  5
520A
330
4FDB
100
AcDbEntity
  8
1
  6
Continuous
100
AcDbCircle
 10
466.907957
 20
220.8161259999999
 30
0.0
 40
0.044452
100
AcDbArc
 50
270.0
 51
22.94399999999999
  0
ARC
  5
520B
330
4FDB
100
AcDbEntity
  8
1
  6
Continuous
100
AcDbCircle
 10
462.07839
 20
218.7726049999999
 30
0.0
 40
5.288524999999999
100
AcDbArc
 50
22.94399999999999
 51
26.0144
  0
ARC
  5
520C
330
4FDB
100
AcDbEntity
  8
1
  6
Continuous
100
AcDbCircle
 10
466.6309769999998
 20
220.9938629999999
 30
0.0
 40
0.222261
100
AcDbArc
 50
26.0144
 51
90.0
  0
LINE
  5
520D
330
4FDB
100
AcDbEntity
  8
1
  6
Continuous
100
AcDbLine
 10
466.907957
 20
220.771918
 30
0.0
 11
464.7155699999998
 21
220.771918
 31
0.0
  0
LINE
  5
520E
330
4FDB
100
AcDbEntity
  8
1
  6
Continuous
100
AcDbLine
 10
464.991648
 20
221.2167109999997
 30
0.0
 11
466.6309769999998
 21
221.2167109999997
 31
0.0
  0
ARC
  5
520F
330
4FDB
100
AcDbEntity
  8
1
  6
Continuous
100
AcDbCircle
 10
465.8117639999998
 20
221.438656
 30
0.0
 40
1.145318999999998
100
AcDbArc
 50
90.0
 51
144.462
  0
ARC
  5
5210
330
4FDB
100
AcDbEntity
  8
1
  6
Continuous
100
AcDbCircle
 10
465.8117639999998
 20
221.438656
 30
0.0
 40
1.145318999999998
100
AcDbArc
 50
35.5377
 51
76.5374
  0
LINE
  5
5211
330
4FDB
100
AcDbEntity
  8
1
  6
Continuous
100
AcDbLine
 10
467.030659
 20
221.660601
 30
0.0
 11
465.1143499999998
 21
221.660601
 31
0.0
  0
ARC
  5
5212
330
4FDB
100
AcDbEntity
  8
1
  6
Continuous
100
AcDbCircle
 10
466.0337089999998
 20
216.5504439999998
 30
0.0
 40
0.222261
100
AcDbArc
 50
90.0
 51
270.0
  0
LINE
  5
5213
330
4FDB
100
AcDbEntity
  8
1
  6
Continuous
100
AcDbLine
 10
467.2724529999999
 20
217.2171829999999
 30
0.0
 11
464.490016
 21
217.2171829999999
 31
0.0
  0
LINE
  5
5214
330
4FDB
100
AcDbEntity
  8
1
  6
Continuous
100
AcDbLine
 10
464.55678
 20
217.6610729999999
 30
0.0
 11
465.8117639999998
 21
217.6610729999999
 31
0.0
  0
LINE
  5
5215
330
4FDB
100
AcDbEntity
  8
1
  6
Continuous
100
AcDbLine
 10
467.2742569999998
 20
218.105866
 30
0.0
 11
464.348368
 21
218.105866
 31
0.0
  0
ARC
  5
5216
330
4FDB
100
AcDbEntity
  8
1
  6
Continuous
100
AcDbCircle
 10
469.5442349999996
 20
218.7726049999999
 30
0.0
 40
5.288524999999999
100
AcDbArc
 50
187.793
 51
190.1039999999999
  0
ARC
  5
5217
330
4FDB
100
AcDbEntity
  8
1
  6
Continuous
100
AcDbCircle
 10
464.348368
 20
218.0607559999999
 30
0.0
 40
0.044452
100
AcDbArc
 50
90.0
 51
187.793
  0
ARC
  5
5218
330
4FDB
100
AcDbEntity
  8
1
  6
Continuous
100
AcDbCircle
 10
464.55678
 20
217.8830189999999
 30
0.0
 40
0.222261
100
AcDbArc
 50
190.1039999999999
 51
270.0
  0
ARC
  5
5219
330
4FDB
100
AcDbEntity
  8
1
  6
Continuous
100
AcDbCircle
 10
467.2742569999998
 20
218.0607559999999
 30
0.0
 40
0.044452
100
AcDbArc
 50
352.2069999999998
 51
90.0
  0
ARC
  5
521A
330
4FDB
100
AcDbEntity
  8
1
  6
Continuous
100
AcDbCircle
 10
462.07839
 20
218.7726049999999
 30
0.0
 40
5.288524999999999
100
AcDbArc
 50
349.8959999999998
 51
352.2069999999998
  0
ARC
  5
521B
330
4FDB
100
AcDbEntity
  8
1
  6
Continuous
100
AcDbCircle
 10
467.065845
 20
217.8830189999999
 30
0.0
 40
0.222261
100
AcDbArc
 50
270.0
 51
349.8959999999998
  0
LINE
  5
521C
330
4FDB
100
AcDbEntity
  8
1
  6
Continuous
100
AcDbLine
 10
467.0631389999998
 20
216.7723899999999
 30
0.0
 11
466.0337089999998
 21
216.7723899999999
 31
0.0
  0
LINE
  5
521D
330
4FDB
100
AcDbEntity
  8
1
  6
Continuous
100
AcDbLine
 10
465.8117639999998
 20
217.6610729999999
 30
0.0
 11
465.8117639999998
 21
217.8830189999999
 31
0.0
  0
LINE
  5
521E
330
4FDB
100
AcDbEntity
  8
1
  6
Continuous
100
AcDbLine
 10
466.3449739999999
 20
217.6610729999999
 30
0.0
 11
467.065845
 21
217.6610729999999
 31
0.0
  0
LINE
  5
521F
330
4FDB
100
AcDbEntity
  8
1
  6
Continuous
100
AcDbLine
 10
467.361772
 20
218.9945499999998
 30
0.0
 11
464.260853
 21
218.9945499999998
 31
0.0
  0
LINE
  5
5220
330
4FDB
100
AcDbEntity
  8
1
  6
Continuous
100
AcDbLine
 10
467.3247809999998
 20
219.438441
 30
0.0
 11
464.2978429999998
 21
219.438441
 31
0.0
  0
LINE
  5
5221
330
4FDB
100
AcDbEntity
  8
1
  6
Continuous
100
AcDbLine
 10
464.4295669999998
 20
219.883234
 30
0.0
 11
465.278553
 21
219.883234
 31
0.0
  0
ARC
  5
5222
330
4FDB
100
AcDbEntity
  8
1
  6
Continuous
100
AcDbCircle
 10
464.4295669999998
 20
219.927443
 30
0.0
 40
0.044452
100
AcDbArc
 50
167.2709999999999
 51
270.0
  0
ARC
  5
5223
330
4FDB
100
AcDbEntity
  8
1
  6
Continuous
100
AcDbCircle
 10
469.5442349999996
 20
218.7726049999999
 30
0.0
 40
5.288524999999999
100
AcDbArc
 50
164.794
 51
167.2709999999999
  0
ARC
  5
5224
330
4FDB
100
AcDbEntity
  8
1
  6
Continuous
100
AcDbCircle
 10
469.5442349999996
 20
218.7726049999999
 30
0.0
 40
5.288524999999999
100
AcDbArc
 50
164.7419999999998
 51
164.794
  0
ARC
  5
5225
330
4FDB
100
AcDbEntity
  8
1
  6
Continuous
100
AcDbCircle
 10
462.07839
 20
218.7726049999999
 30
0.0
 40
5.288524999999999
100
AcDbArc
 50
13.2681
 51
15.2575
  0
ARC
  5
5226
330
4FDB
100
AcDbEntity
  8
1
  6
Continuous
100
AcDbCircle
 10
462.07839
 20
218.7726049999999
 30
0.0
 40
5.288524999999999
100
AcDbArc
 50
12.7289
 51
13.2681
  0
ARC
  5
5227
330
4FDB
100
AcDbEntity
  8
1
  6
Continuous
100
AcDbCircle
 10
467.193058
 20
219.927443
 30
0.0
 40
0.044452
100
AcDbArc
 50
270.0
 51
12.7289
  0
LINE
  5
5228
330
4FDB
100
AcDbEntity
  8
1
  6
Continuous
100
AcDbLine
 10
465.8117639999998
 20
218.9945499999998
 30
0.0
 11
465.8117639999998
 21
219.438441
 31
0.0
  0
LINE
  5
5229
330
4FDB
100
AcDbEntity
  8
1
  6
Continuous
100
AcDbLine
 10
466.3449739999999
 20
219.883234
 30
0.0
 11
467.193058
 21
219.883234
 31
0.0
  0
LINE
  5
522A
330
4FDB
100
AcDbEntity
  8
1
  6
Continuous
100
AcDbLine
 10
467.361772
 20
218.5497569999999
 30
0.0
 11
464.260853
 21
218.5497569999999
 31
0.0
  0
ARC
  5
522B
330
4FDB
100
AcDbEntity
  8
1
  6
Continuous
100
AcDbCircle
 10
465.8117639999998
 20
216.1056509999999
 30
0.0
 40
1.145318999999998
100
AcDbArc
 50
215.5379999999999
 51
225.699
  0
ARC
  5
522C
330
4FDB
100
AcDbEntity
  8
1
  6
Continuous
100
AcDbCircle
 10
465.8117639999998
 20
216.1056509999999
 30
0.0
 40
1.145318999999998
100
AcDbArc
 50
242.2499999999998
 51
324.4619999999998
  0
LINE
  5
522D
330
4FDB
100
AcDbEntity
  8
1
  6
Continuous
100
AcDbLine
 10
465.8117639999998
 20
214.9607379999999
 30
0.0
 11
465.8117639999998
 21
215.879195
 31
0.0
  0
LINE
  5
522E
330
4FDB
100
AcDbEntity
  8
1
  6
Continuous
100
AcDbLine
 10
464.979919
 20
216.1020419999999
 30
0.0
 11
466.8529219999999
 21
215.5995079999999
 31
0.0
  0
LINE
  5
522F
330
4FDB
100
AcDbEntity
  8
1
  6
Continuous
100
AcDbLine
 10
465.8117639999998
 20
216.5504439999998
 30
0.0
 11
464.7453429999997
 21
216.5504439999998
 31
0.0
  0
LINE
  5
5230
330
4FDB
100
AcDbEntity
  8
1
  6
Continuous
100
AcDbLine
 10
466.0337089999998
 20
216.327597
 30
0.0
 11
466.982841
 21
216.327597
 31
0.0
  0
LINE
  5
5231
330
4FDB
100
AcDbEntity
  8
1
  6
Continuous
100
AcDbLine
 10
120.705955
 20
241.084652
 30
0.0
 11
120.7311049999999
 21
241.084652
 31
0.0
  0
LINE
  5
5232
330
4FDB
100
AcDbEntity
  8
1
  6
Continuous
100
AcDbLine
 10
119.901052
 20
242.084652
 30
0.0
 11
120.153755
 21
242.084652
 31
0.0
  0
LINE
  5
5233
330
4FDB
100
AcDbEntity
  8
1
  6
Continuous
100
AcDbLine
 10
118.7552669999997
 20
243.084652
 30
0.0
 11
119.5764049999998
 21
243.084652
 31
0.0
  0
LINE
  5
5234
330
4FDB
100
AcDbEntity
  8
1
  6
Continuous
100
AcDbLine
 10
116.875459
 20
244.084652
 30
0.0
 11
118.9990539999999
 21
244.084652
 31
0.0
  0
LINE
  5
5235
330
4FDB
100
AcDbEntity
  8
1
  6
Continuous
100
AcDbLine
 10
109.7614499999999
 20
245.084652
 30
0.0
 11
118.421704
 21
245.084652
 31
0.0
  0
LINE
  5
5236
330
4FDB
100
AcDbEntity
  8
1
  6
Continuous
100
AcDbLine
 10
110.3388
 20
246.084652
 30
0.0
 11
117.844354
 21
246.084652
 31
0.0
  0
LINE
  5
5237
330
4FDB
100
AcDbEntity
  8
1
  6
Continuous
100
AcDbLine
 10
110.916151
 20
247.084652
 30
0.0
 11
117.267004
 21
247.084652
 31
0.0
  0
LINE
  5
5238
330
4FDB
100
AcDbEntity
  8
1
  6
Continuous
100
AcDbLine
 10
111.4935009999999
 20
248.084652
 30
0.0
 11
116.689653
 21
248.084652
 31
0.0
  0
LINE
  5
5239
330
4FDB
100
AcDbEntity
  8
1
  6
Continuous
100
AcDbLine
 10
112.070851
 20
249.084652
 30
0.0
 11
116.1123029999999
 21
249.084652
 31
0.0
  0
LINE
  5
523A
330
4FDB
100
AcDbEntity
  8
1
  6
Continuous
100
AcDbLine
 10
112.6482009999999
 20
250.084652
 30
0.0
 11
115.534953
 21
250.084652
 31
0.0
  0
LINE
  5
523B
330
4FDB
100
AcDbEntity
  8
1
  6
Continuous
100
AcDbLine
 10
113.2255519999998
 20
251.084652
 30
0.0
 11
114.957602
 21
251.084652
 31
0.0
  0
LINE
  5
523C
330
4FDB
100
AcDbEntity
  8
1
  6
Continuous
100
AcDbLine
 10
113.802902
 20
252.084652
 30
0.0
 11
114.3802519999999
 21
252.084652
 31
0.0
  0
LINE
  5
523D
330
4FDB
100
AcDbEntity
  8
1
  6
Continuous
100
AcDbLine
 10
111.3076949999999
 20
244.084652
 30
0.0
 11
109.1841
 21
244.084652
 31
0.0
  0
LINE
  5
523E
330
4FDB
100
AcDbEntity
  8
1
  6
Continuous
100
AcDbLine
 10
109.427887
 20
243.084652
 30
0.0
 11
108.606749
 21
243.084652
 31
0.0
  0
LINE
  5
523F
330
4FDB
100
AcDbEntity
  8
1
  6
Continuous
100
AcDbLine
 10
108.2821019999999
 20
242.084652
 30
0.0
 11
108.0293989999999
 21
242.084652
 31
0.0
  0
LINE
  5
5240
330
4FDB
100
AcDbEntity
  8
1
  6
Continuous
100
AcDbLine
 10
107.477199
 20
241.084652
 30
0.0
 11
107.452049
 21
241.084652
 31
0.0
  0
ARC
  5
5241
330
4FDB
100
AcDbEntity
  8
1
  6
Continuous
100
AcDbCircle
 10
310.8075379999997
 20
254.584652
 30
0.0
 40
42.592555
100
AcDbArc
 50
348.268368
 51
11.731632
  0
ARC
  5
5242
330
4FDB
100
AcDbEntity
  8
1
  6
Continuous
100
AcDbCircle
 10
391.9926489999999
 20
254.584652
 30
0.0
 40
42.592555
100
AcDbArc
 50
168.2683679999998
 51
191.7316319999999
  0
LINE
  5
5243
330
4FDB
100
AcDbEntity
  8
1
  6
Continuous
100
AcDbLine
 10
354.9000939999999
 20
240.584652
 30
0.0
 11
354.9000939999999
 21
268.584652
 31
0.0
  0
LINE
  5
5244
330
4FDB
100
AcDbEntity
  8
1
  6
Continuous
100
AcDbLine
 10
347.9000939999999
 20
268.584652
 30
0.0
 11
347.9000939999999
 21
240.584652
 31
0.0
  0
LINE
  5
5245
330
4FDB
100
AcDbEntity
  8
1
  6
Continuous
100
AcDbLine
 10
353.4000939999998
 20
239.58465
 30
0.0
 11
353.4000939999998
 21
269.584654
 31
0.0
  0
LINE
  5
5246
330
4FDB
100
AcDbEntity
  8
1
  6
Continuous
100
AcDbLine
 10
349.4000939999998
 20
239.584652
 30
0.0
 11
349.4000939999998
 21
269.5846519999999
 31
0.0
  0
LINE
  5
5247
330
4FDB
100
AcDbEntity
  8
1
  6
Continuous
100
AcDbLine
 10
346.4000939999999
 20
266.584652
 30
0.0
 11
346.4000939999999
 21
242.5846519999999
 31
0.0
  0
ARC
  5
5248
330
4FDB
100
AcDbEntity
  8
1
  6
Continuous
100
AcDbCircle
 10
347.1500939999998
 20
242.5846519999999
 30
0.0
 40
0.75
100
AcDbArc
 50
180.0
 51
0.0
  0
LINE
  5
5249
330
4FDB
100
AcDbEntity
  8
1
  6
Continuous
100
AcDbLine
 10
354.9000939999999
 20
248.854925
 30
0.0
 11
353.4000939999998
 21
248.854925
 31
0.0
  0
LINE
  5
524A
330
4FDB
100
AcDbEntity
  8
1
  6
Continuous
100
AcDbLine
 10
354.9000939999999
 20
246.387071
 30
0.0
 11
353.4000939999998
 21
246.387071
 31
0.0
  0
LINE
  5
524B
330
4FDB
100
AcDbEntity
  8
1
  6
Continuous
100
AcDbLine
 10
352.5103659999999
 20
245.924398
 30
0.0
 11
350.289822
 21
245.924398
 31
0.0
  0
LINE
  5
524C
330
4FDB
100
AcDbEntity
  8
1
  6
Continuous
100
AcDbLine
 10
352.0603489999999
 20
237.2641439999999
 30
0.0
 11
353.400095
 21
239.584652
 31
0.0
  0
LINE
  5
524D
330
4FDB
100
AcDbEntity
  8
1
  6
Continuous
100
AcDbLine
 10
350.73984
 20
237.2641439999999
 30
0.0
 11
349.4000939999998
 21
239.584652
 31
0.0
  0
LINE
  5
524E
330
4FDB
100
AcDbEntity
  8
1
  6
Continuous
100
AcDbLine
 10
352.0603489999999
 20
237.2641439999999
 30
0.0
 11
350.739839
 21
237.2641439999999
 31
0.0
  0
LINE
  5
524F
330
4FDB
100
AcDbEntity
  8
1
  6
Continuous
100
AcDbLine
 10
354.9000939999999
 20
240.584652
 30
0.0
 11
353.4000939999998
 21
240.584652
 31
0.0
  0
LINE
  5
5250
330
4FDB
100
AcDbEntity
  8
1
  6
Continuous
100
AcDbLine
 10
353.4000939999998
 20
240.584652
 30
0.0
 11
354.9000939999999
 21
240.584652
 31
0.0
  0
LINE
  5
5251
330
4FDB
100
AcDbEntity
  8
1
  6
Continuous
100
AcDbLine
 10
347.9000939999999
 20
240.584652
 30
0.0
 11
349.4000939999998
 21
240.584652
 31
0.0
  0
ARC
  5
5252
330
4FDB
100
AcDbEntity
  8
1
  6
Continuous
100
AcDbCircle
 10
342.4183069999999
 20
241.5942709999999
 30
0.0
 40
10.98178699999998
100
AcDbArc
 50
346.759553
 51
23.222372
  0
ARC
  5
5253
330
4FDB
100
AcDbEntity
  8
1
  6
Continuous
100
AcDbCircle
 10
360.381881
 20
241.5942709999999
 30
0.0
 40
10.98178699999998
100
AcDbArc
 50
156.7776279999999
 51
193.240431
  0
ARC
  5
5254
330
4FDB
100
AcDbEntity
  8
1
  6
Continuous
100
AcDbCircle
 10
347.1500939999998
 20
266.584652
 30
0.0
 40
0.75
100
AcDbArc
 50
0.0
 51
180.0
  0
LINE
  5
5255
330
4FDB
100
AcDbEntity
  8
1
  6
Continuous
100
AcDbLine
 10
352.0603489999999
 20
271.90516
 30
0.0
 11
350.73984
 21
271.90516
 31
0.0
  0
ARC
  5
5256
330
4FDB
100
AcDbEntity
  8
1
  6
Continuous
100
AcDbCircle
 10
342.4183069999999
 20
267.575033
 30
0.0
 40
10.98178699999998
100
AcDbArc
 50
336.777628
 51
13.24044699999999
  0
ARC
  5
5257
330
4FDB
100
AcDbEntity
  8
1
  6
Continuous
100
AcDbCircle
 10
360.381881
 20
267.575033
 30
0.0
 40
10.98178699999998
100
AcDbArc
 50
166.7595689999999
 51
203.222372
  0
LINE
  5
5258
330
4FDB
100
AcDbEntity
  8
1
  6
Continuous
100
AcDbLine
 10
354.9000939999999
 20
262.782233
 30
0.0
 11
353.4000939999998
 21
262.782233
 31
0.0
  0
LINE
  5
5259
330
4FDB
100
AcDbEntity
  8
1
  6
Continuous
100
AcDbLine
 10
352.5103659999999
 20
263.244906
 30
0.0
 11
350.289822
 21
263.244906
 31
0.0
  0
LINE
  5
525A
330
4FDB
100
AcDbEntity
  8
1
  6
Continuous
100
AcDbLine
 10
354.9000939999999
 20
260.3143789999999
 30
0.0
 11
353.4000939999998
 21
260.3143789999999
 31
0.0
  0
LINE
  5
525B
330
4FDB
100
AcDbEntity
  8
1
  6
Continuous
100
AcDbLine
 10
354.9000939999999
 20
268.584652
 30
0.0
 11
353.4000939999998
 21
268.584652
 31
0.0
  0
LINE
  5
525C
330
4FDB
100
AcDbEntity
  8
1
  6
Continuous
100
AcDbLine
 10
353.4000939999998
 20
268.584652
 30
0.0
 11
354.9000939999999
 21
268.584652
 31
0.0
  0
LINE
  5
525D
330
4FDB
100
AcDbEntity
  8
1
  6
Continuous
100
AcDbLine
 10
347.9000939999999
 20
268.584652
 30
0.0
 11
349.4000939999998
 21
268.584652
 31
0.0
  0
LINE
  5
525E
330
4FDB
100
AcDbEntity
  8
1
  6
Continuous
100
AcDbLine
 10
352.0603489999999
 20
271.90516
 30
0.0
 11
353.400095
 21
269.5846519999999
 31
0.0
  0
LINE
  5
525F
330
4FDB
100
AcDbEntity
  8
1
  6
Continuous
100
AcDbLine
 10
350.73984
 20
271.90516
 30
0.0
 11
349.4000939999998
 21
269.5846519999999
 31
0.0
  0
CIRCLE
  5
5260
330
4FDB
100
AcDbEntity
  8
1
  6
Continuous
100
AcDbCircle
 10
464.3113129999998
 20
254.584652
 30
0.0
 40
15.0
  0
ARC
  5
5261
330
4FDB
100
AcDbEntity
  8
1
  6
Continuous
100
AcDbCircle
 10
464.3113129999998
 20
254.584652
 30
0.0
 40
13.0
100
AcDbArc
 50
168.9125109999999
 51
191.087489
  0
ARC
  5
5262
330
4FDB
100
AcDbEntity
  8
1
  6
Continuous
100
AcDbCircle
 10
464.3113129999998
 20
254.584652
 30
0.0
 40
11.3
100
AcDbArc
 50
167.218188
 51
192.7818119999997
  0
LINE
  5
5263
330
4FDB
100
AcDbEntity
  8
1
  6
Continuous
100
AcDbLine
 10
449.311313
 20
245.924398
 30
0.0
 11
449.311313
 21
263.244906
 31
0.0
  0
ARC
  5
5264
330
4FDB
100
AcDbEntity
  8
1
  6
Continuous
100
AcDbCircle
 10
464.3113129999998
 20
254.584652
 30
0.0
 40
14.0
100
AcDbArc
 50
155.841252
 51
204.158748
  0
ARC
  5
5265
330
4FDB
100
AcDbEntity
  8
1
  6
Continuous
100
AcDbCircle
 10
464.3113129999998
 20
254.584652
 30
0.0
 40
13.0
100
AcDbArc
 50
342.079787
 51
17.920213
  0
ARC
  5
5266
330
4FDB
100
AcDbEntity
  8
1
  6
Continuous
100
AcDbCircle
 10
464.3113129999998
 20
254.584652
 30
0.0
 40
11.3
100
AcDbArc
 50
339.2689149999998
 51
20.731085
  0
LINE
  5
5267
330
4FDB
100
AcDbEntity
  8
1
  6
Continuous
100
AcDbLine
 10
479.311313
 20
245.924398
 30
0.0
 11
479.311313
 21
263.244906
 31
0.0
  0
ARC
  5
5268
330
4FDB
100
AcDbEntity
  8
1
  6
Continuous
100
AcDbCircle
 10
464.3113129999998
 20
254.584652
 30
0.0
 40
14.0
100
AcDbArc
 50
335.8412519999999
 51
24.158748
  0
ARC
  5
5269
330
4FDB
100
AcDbEntity
  8
1
  6
Continuous
100
AcDbCircle
 10
464.3113129999998
 20
254.584652
 30
0.0
 40
11.0
100
AcDbArc
 50
297.5801989999999
 51
62.419801
  0
ARC
  5
526A
330
4FDB
100
AcDbEntity
  8
2
  6
Continuous
100
AcDbCircle
 10
464.3113129999998
 20
254.584652
 30
0.0
 40
10.18799999999999
100
AcDbArc
 50
286.8615909999999
 51
73.13840899999998
  0
ARC
  5
526B
330
4FDB
100
AcDbEntity
  8
1
  6
Continuous
100
AcDbCircle
 10
464.3113129999998
 20
254.584652
 30
0.0
 40
11.0
100
AcDbArc
 50
117.5801989999998
 51
242.419801
  0
ARC
  5
526C
330
4FDB
100
AcDbEntity
  8
2
  6
Continuous
100
AcDbCircle
 10
464.3113129999998
 20
254.584652
 30
0.0
 40
10.18799999999999
100
AcDbArc
 50
106.8615909999999
 51
253.1384089999999
  0
LINE
  5
526D
330
4FDB
100
AcDbEntity
  8
1
  6
Continuous
100
AcDbLine
 10
449.311313
 20
245.924398
 30
0.0
 11
464.3113129999998
 21
237.2641439999999
 31
0.0
  0
ARC
  5
526E
330
4FDB
100
AcDbEntity
  8
1
  6
Continuous
100
AcDbCircle
 10
464.3113129999998
 20
254.584652
 30
0.0
 40
11.5
100
AcDbArc
 50
192.555858
 51
339.645594
  0
LINE
  5
526F
330
4FDB
100
AcDbEntity
  8
4
  6
CENTER
100
AcDbLine
 10
469.8073339999998
 20
238.584652
 30
0.0
 11
459.3113129999998
 21
238.584652
 31
0.0
  0
ARC
  5
5270
330
4FDB
100
AcDbEntity
  8
1
  6
Continuous
100
AcDbCircle
 10
464.3113129999998
 20
238.584652
 30
0.0
 40
3.7
100
AcDbArc
 50
180.0
 51
0.0
  0
ARC
  5
5271
330
4FDB
100
AcDbEntity
  8
1
  6
Continuous
100
AcDbCircle
 10
464.3113129999998
 20
254.584652
 30
0.0
 40
10.18799999999999
100
AcDbArc
 50
253.1384089999999
 51
286.8615909999999
  0
ARC
  5
5272
330
4FDB
100
AcDbEntity
  8
2
  6
Continuous
100
AcDbCircle
 10
464.3113129999998
 20
254.584652
 30
0.0
 40
11.0
100
AcDbArc
 50
242.419801
 51
297.5801989999999
  0
LINE
  5
5273
330
4FDB
100
AcDbEntity
  8
1
  6
Continuous
100
AcDbLine
 10
469.4042
 20
244.834652
 30
0.0
 11
459.218425
 21
244.834652
 31
0.0
  0
ARC
  5
5274
330
4FDB
100
AcDbEntity
  8
1
  6
Continuous
100
AcDbCircle
 10
464.3113129999998
 20
238.584652
 30
0.0
 40
3.5
100
AcDbArc
 50
170.4059319999998
 51
9.594068
  0
ARC
  5
5275
330
4FDB
100
AcDbEntity
  8
1
  6
Continuous
100
AcDbCircle
 10
464.3113129999998
 20
254.584652
 30
0.0
 40
14.0
100
AcDbArc
 50
215.841252
 51
324.158748
  0
LINE
  5
5276
330
4FDB
100
AcDbEntity
  8
1
  6
Continuous
100
AcDbLine
 10
479.311313
 20
245.924398
 30
0.0
 11
464.3113129999998
 21
237.2641439999999
 31
0.0
  0
LINE
  5
5277
330
4FDB
100
AcDbEntity
  8
1
  6
Continuous
100
AcDbLine
 10
451.553962
 20
252.084652
 30
0.0
 11
453.2913309999996
 21
252.084652
 31
0.0
  0
ARC
  5
5278
330
4FDB
100
AcDbEntity
  8
1
  6
Continuous
100
AcDbCircle
 10
453.0529829999998
 20
248.084652
 30
0.0
 40
1.7
100
AcDbArc
 50
153.057137
 51
266.942863
  0
LINE
  5
5279
330
4FDB
100
AcDbEntity
  8
1
  6
Continuous
100
AcDbLine
 10
460.6113129999998
 20
238.584652
 30
0.0
 11
460.6113129999998
 21
239.4003399999999
 31
0.0
  0
ARC
  5
527A
330
4FDB
100
AcDbEntity
  8
1
  6
Continuous
100
AcDbCircle
 10
461.3532730000001
 20
239.084652
 30
0.0
 40
0.5
100
AcDbArc
 50
161.254793
 51
170.4059319999998
  0
LINE
  5
527B
330
4FDB
100
AcDbEntity
  8
1
  6
Continuous
100
AcDbLine
 10
460.8113129999998
 20
237.3846519999999
 30
0.0
 11
460.8113129999998
 21
239.28487
 31
0.0
  0
ARC
  5
527C
330
4FDB
100
AcDbEntity
  8
1
  6
Continuous
100
AcDbCircle
 10
464.3113129999998
 20
254.584652
 30
0.0
 40
16.12829999999998
100
AcDbArc
 50
256.737637
 51
257.4665319999999
  0
LINE
  5
527D
330
4FDB
100
AcDbEntity
  8
1
  6
Continuous
100
AcDbLine
 10
468.0113129999998
 20
238.584652
 30
0.0
 11
468.0113129999998
 21
239.4003399999999
 31
0.0
  0
ARC
  5
527E
330
4FDB
100
AcDbEntity
  8
1
  6
Continuous
100
AcDbCircle
 10
467.269353
 20
239.084652
 30
0.0
 40
0.5
100
AcDbArc
 50
9.594068
 51
18.745207
  0
LINE
  5
527F
330
4FDB
100
AcDbEntity
  8
1
  6
Continuous
100
AcDbLine
 10
467.8113129999998
 20
237.3846519999999
 30
0.0
 11
467.8113129999998
 21
239.28487
 31
0.0
  0
ARC
  5
5280
330
4FDB
100
AcDbEntity
  8
1
  6
Continuous
100
AcDbCircle
 10
464.3113129999998
 20
254.584652
 30
0.0
 40
16.12829999999998
100
AcDbArc
 50
282.533468
 51
283.262363
  0
LINE
  5
5281
330
4FDB
100
AcDbEntity
  8
1
  6
Continuous
100
AcDbLine
 10
474.879662
 20
250.5846519999999
 30
0.0
 11
476.6806299999998
 21
250.5846519999999
 31
0.0
  0
ARC
  5
5282
330
4FDB
100
AcDbEntity
  8
1
  6
Continuous
100
AcDbCircle
 10
475.5696429999998
 20
248.084652
 30
0.0
 40
1.7
100
AcDbArc
 50
273.057137
 51
26.942863
  0
LINE
  5
5283
330
4FDB
100
AcDbEntity
  8
1
  6
Continuous
100
AcDbLine
 10
464.3113129999998
 20
271.90516
 30
0.0
 11
449.311313
 21
263.244906
 31
0.0
  0
ARC
  5
5284
330
4FDB
100
AcDbEntity
  8
1
  6
Continuous
100
AcDbCircle
 10
464.3113129999998
 20
254.584652
 30
0.0
 40
11.5
100
AcDbArc
 50
20.354406
 51
167.4441419999999
  0
LINE
  5
5285
330
4FDB
100
AcDbEntity
  8
4
  6
CENTER
100
AcDbLine
 10
469.3113129999998
 20
270.584652
 30
0.0
 11
458.849419
 21
270.584652
 31
0.0
  0
ARC
  5
5286
330
4FDB
100
AcDbEntity
  8
1
  6
Continuous
100
AcDbCircle
 10
464.3113129999998
 20
270.584652
 30
0.0
 40
3.7
100
AcDbArc
 50
0.0
 51
180.0
  0
ARC
  5
5287
330
4FDB
100
AcDbEntity
  8
1
  6
Continuous
100
AcDbCircle
 10
464.3113129999998
 20
254.584652
 30
0.0
 40
10.18799999999999
100
AcDbArc
 50
73.13840899999998
 51
106.8615909999999
  0
ARC
  5
5288
330
4FDB
100
AcDbEntity
  8
2
  6
Continuous
100
AcDbCircle
 10
464.3113129999998
 20
254.584652
 30
0.0
 40
11.0
100
AcDbArc
 50
62.419801
 51
117.5801989999998
  0
LINE
  5
5289
330
4FDB
100
AcDbEntity
  8
1
  6
Continuous
100
AcDbLine
 10
469.4042
 20
264.334652
 30
0.0
 11
459.218425
 21
264.334652
 31
0.0
  0
ARC
  5
528A
330
4FDB
100
AcDbEntity
  8
1
  6
Continuous
100
AcDbCircle
 10
464.3113129999998
 20
270.584652
 30
0.0
 40
3.5
100
AcDbArc
 50
350.405932
 51
189.5940679999999
  0
ARC
  5
528B
330
4FDB
100
AcDbEntity
  8
1
  6
Continuous
100
AcDbCircle
 10
464.3113129999998
 20
254.584652
 30
0.0
 40
14.0
100
AcDbArc
 50
35.84125199999999
 51
144.158748
  0
LINE
  5
528C
330
4FDB
100
AcDbEntity
  8
1
  6
Continuous
100
AcDbLine
 10
464.3113129999998
 20
271.90516
 30
0.0
 11
479.311313
 21
263.244906
 31
0.0
  0
ARC
  5
528D
330
4FDB
100
AcDbEntity
  8
1
  6
Continuous
100
AcDbCircle
 10
453.0529829999998
 20
261.0846519999999
 30
0.0
 40
1.7
100
AcDbArc
 50
93.057137
 51
206.9428629999999
  0
LINE
  5
528E
330
4FDB
100
AcDbEntity
  8
1
  6
Continuous
100
AcDbLine
 10
451.553962
 20
257.0846519999999
 30
0.0
 11
453.2913309999996
 21
257.0846519999999
 31
0.0
  0
LINE
  5
528F
330
4FDB
100
AcDbEntity
  8
1
  6
Continuous
100
AcDbLine
 10
460.6113129999998
 20
270.584652
 30
0.0
 11
460.6113129999998
 21
269.7689639999999
 31
0.0
  0
ARC
  5
5290
330
4FDB
100
AcDbEntity
  8
1
  6
Continuous
100
AcDbCircle
 10
461.3532730000001
 20
270.084652
 30
0.0
 40
0.5
100
AcDbArc
 50
189.5940679999999
 51
198.745207
  0
LINE
  5
5291
330
4FDB
100
AcDbEntity
  8
1
  6
Continuous
100
AcDbLine
 10
460.8113129999998
 20
271.784652
 30
0.0
 11
460.8113129999998
 21
269.8844339999999
 31
0.0
  0
ARC
  5
5292
330
4FDB
100
AcDbEntity
  8
1
  6
Continuous
100
AcDbCircle
 10
464.3113129999998
 20
254.584652
 30
0.0
 40
16.12829999999998
100
AcDbArc
 50
102.533468
 51
103.262363
  0
LINE
  5
5293
330
4FDB
100
AcDbEntity
  8
1
  6
Continuous
100
AcDbLine
 10
468.0113129999998
 20
270.584652
 30
0.0
 11
468.0113129999998
 21
269.7689639999999
 31
0.0
  0
ARC
  5
5294
330
4FDB
100
AcDbEntity
  8
1
  6
Continuous
100
AcDbCircle
 10
467.269353
 20
270.084652
 30
0.0
 40
0.5
100
AcDbArc
 50
341.254793
 51
350.405932
  0
LINE
  5
5295
330
4FDB
100
AcDbEntity
  8
1
  6
Continuous
100
AcDbLine
 10
467.8113129999998
 20
271.784652
 30
0.0
 11
467.8113129999998
 21
269.8844339999999
 31
0.0
  0
ARC
  5
5296
330
4FDB
100
AcDbEntity
  8
1
  6
Continuous
100
AcDbCircle
 10
464.3113129999998
 20
254.584652
 30
0.0
 40
16.12829999999998
100
AcDbArc
 50
76.73763700000002
 51
77.466532
  0
ARC
  5
5297
330
4FDB
100
AcDbEntity
  8
1
  6
Continuous
100
AcDbCircle
 10
475.5696429999998
 20
261.0846519999999
 30
0.0
 40
1.7
100
AcDbArc
 50
333.057137
 51
86.94286299999998
  0
LINE
  5
5298
330
4FDB
100
AcDbEntity
  8
1
  6
Continuous
100
AcDbLine
 10
474.879662
 20
258.584652
 30
0.0
 11
476.6806299999998
 21
258.584652
 31
0.0
  0
LINE
  5
5299
330
4FDB
100
AcDbEntity
  8
1
  6
Continuous
100
AcDbLine
 10
292.446505
 20
366.2693039999999
 30
0.0
 11
252.978119
 21
366.2693039999999
 31
0.0
  0
LINE
  5
529A
330
4FDB
100
AcDbEntity
  8
1
  6
Continuous
100
AcDbLine
 10
292.446505
 20
391.2693039999999
 30
0.0
 11
252.978119
 21
391.2693039999999
 31
0.0
  0
LINE
  5
529B
330
4FDB
100
AcDbEntity
  8
4
  6
CENTER
100
AcDbLine
 10
331.993044
 20
378.7693039999999
 30
0.0
 11
244.8465049999998
 21
378.7693039999999
 31
0.0
  0
LINE
  5
529C
330
4FDB
100
AcDbEntity
  8
1
  6
Continuous
100
AcDbLine
 10
250.8777629999999
 20
370.7693039999999
 30
0.0
 11
250.37337
 21
370.7693039999999
 31
0.0
  0
LINE
  5
529D
330
4FDB
100
AcDbEntity
  8
1
  6
Continuous
100
AcDbLine
 10
251.81738
 20
368.0193039999999
 30
0.0
 11
251.3092259999999
 21
368.0193039999999
 31
0.0
  0
LINE
  5
529E
330
4FDB
100
AcDbEntity
  8
1
  6
Continuous
100
AcDbLine
 10
250.8777629999999
 20
386.7693039999999
 30
0.0
 11
250.37337
 21
386.7693039999999
 31
0.0
  0
LINE
  5
529F
330
4FDB
100
AcDbEntity
  8
1
  6
Continuous
100
AcDbLine
 10
251.81738
 20
389.5193039999999
 30
0.0
 11
251.3092259999999
 21
389.5193039999999
 31
0.0
  0
LINE
  5
52A0
330
4FDB
100
AcDbEntity
  8
1
  6
Continuous
100
AcDbLine
 10
304.946505
 20
402.7693039999999
 30
0.0
 11
304.946505
 21
354.7693039999999
 31
0.0
  0
LINE
  5
52A1
330
4FDB
100
AcDbEntity
  8
1
  6
Continuous
100
AcDbLine
 10
303.946505
 20
402.7693039999999
 30
0.0
 11
303.946505
 21
354.7693039999999
 31
0.0
  0
LINE
  5
52A2
330
4FDB
100
AcDbEntity
  8
1
  6
Continuous
100
AcDbLine
 10
300.446505
 20
400.7693039999998
 30
0.0
 11
300.446505
 21
356.7693039999999
 31
0.0
  0
LINE
  5
52A3
330
4FDB
100
AcDbEntity
  8
2
  6
Continuous
100
AcDbLine
 10
317.5465049999999
 20
383.862204
 30
0.0
 11
304.946505
 21
373.676404
 31
0.0
  0
LINE
  5
52A4
330
4FDB
100
AcDbEntity
  8
2
  6
Continuous
100
AcDbLine
 10
304.946505
 20
383.862204
 30
0.0
 11
317.5465049999999
 21
373.676404
 31
0.0
  0
LINE
  5
52A5
330
4FDB
100
AcDbEntity
  8
1
  6
Continuous
100
AcDbLine
 10
317.5465049999999
 20
373.676404
 30
0.0
 11
304.946505
 21
373.676404
 31
0.0
  0
LINE
  5
52A6
330
4FDB
100
AcDbEntity
  8
1
  6
Continuous
100
AcDbLine
 10
317.5465049999999
 20
383.862204
 30
0.0
 11
304.946505
 21
383.862204
 31
0.0
  0
LINE
  5
52A7
330
4FDB
100
AcDbEntity
  8
2
  6
Continuous
100
AcDbLine
 10
318.358505
 20
368.5813039999999
 30
0.0
 11
306.8465049999999
 21
368.5813039999999
 31
0.0
  0
LINE
  5
52A8
330
4FDB
100
AcDbEntity
  8
2
  6
Continuous
100
AcDbLine
 10
318.358505
 20
388.957304
 30
0.0
 11
306.8465049999999
 21
388.957304
 31
0.0
  0
LINE
  5
52A9
330
4FDB
100
AcDbEntity
  8
1
  6
Continuous
100
AcDbLine
 10
317.5465049999999
 20
367.7693039999998
 30
0.0
 11
305.946505
 21
367.7693039999998
 31
0.0
  0
LINE
  5
52AA
330
4FDB
100
AcDbEntity
  8
1
  6
Continuous
100
AcDbLine
 10
317.5465049999999
 20
389.769304
 30
0.0
 11
305.946505
 21
389.769304
 31
0.0
  0
LINE
  5
52AB
330
4FDB
100
AcDbEntity
  8
1
  6
Continuous
100
AcDbLine
 10
292.446505
 20
366.2693039999999
 30
0.0
 11
292.446505
 21
391.2693039999999
 31
0.0
  0
LINE
  5
52AC
330
4FDB
100
AcDbEntity
  8
1
  6
Continuous
100
AcDbLine
 10
306.8465049999999
 20
373.676404
 30
0.0
 11
306.8465049999999
 21
367.7693039999998
 31
0.0
  0
ARC
  5
52AD
330
4FDB
100
AcDbEntity
  8
1
  6
Continuous
100
AcDbCircle
 10
305.946505
 20
366.7693039999999
 30
0.0
 40
1.0
100
AcDbArc
 50
90.0
 51
180.0
  0
LINE
  5
52AE
330
4FDB
100
AcDbEntity
  8
2
  6
Continuous
100
AcDbLine
 10
305.440079
 20
367.7693039999998
 30
0.0
 11
306.8465049999999
 21
368.5813039999999
 31
0.0
  0
ARC
  5
52AF
330
4FDB
100
AcDbEntity
  8
1
  6
Continuous
100
AcDbCircle
 10
302.4465049999997
 20
356.7693039999999
 30
0.0
 40
2.0
100
AcDbArc
 50
222.3553149999999
 51
270.0
  0
ARC
  5
52B0
330
4FDB
100
AcDbEntity
  8
1
  6
Continuous
100
AcDbCircle
 10
302.4465049999997
 20
356.7693039999999
 30
0.0
 40
2.0
100
AcDbArc
 50
180.0
 51
222.3553149999999
  0
LINE
  5
52B1
330
4FDB
100
AcDbEntity
  8
1
  6
Continuous
100
AcDbLine
 10
304.946505
 20
354.7693039999999
 30
0.0
 11
303.946505
 21
354.7693039999999
 31
0.0
  0
LINE
  5
52B2
330
4FDB
100
AcDbEntity
  8
1
  6
Continuous
100
AcDbLine
 10
302.4465049999997
 20
354.7693039999999
 30
0.0
 11
303.946505
 21
354.7693039999999
 31
0.0
  0
ARC
  5
52B3
330
4FDB
100
AcDbEntity
  8
1
  6
Continuous
100
AcDbCircle
 10
305.946505
 20
390.7693039999998
 30
0.0
 40
1.0
100
AcDbArc
 50
180.0
 51
270.0
  0
LINE
  5
52B4
330
4FDB
100
AcDbEntity
  8
2
  6
Continuous
100
AcDbLine
 10
305.440079
 20
389.769304
 30
0.0
 11
306.8465049999999
 21
388.957304
 31
0.0
  0
LINE
  5
52B5
330
4FDB
100
AcDbEntity
  8
1
  6
Continuous
100
AcDbLine
 10
306.8465049999999
 20
389.769304
 30
0.0
 11
306.8465049999999
 21
383.862204
 31
0.0
  0
LINE
  5
52B6
330
4FDB
100
AcDbEntity
  8
1
  6
Continuous
100
AcDbLine
 10
306.4465049999999
 20
382.2693039999998
 30
0.0
 11
304.946505
 21
382.2693039999998
 31
0.0
  0
LINE
  5
52B7
330
4FDB
100
AcDbEntity
  8
1
  6
Continuous
100
AcDbLine
 10
306.4465049999999
 20
375.269304
 30
0.0
 11
304.946505
 21
375.269304
 31
0.0
  0
LINE
  5
52B8
330
4FDB
100
AcDbEntity
  8
1
  6
Continuous
100
AcDbLine
 10
306.4465049999999
 20
375.269304
 30
0.0
 11
306.4465049999999
 21
382.2693039999998
 31
0.0
  0
LINE
  5
52B9
330
4FDB
100
AcDbEntity
  8
1
  6
Continuous
100
AcDbLine
 10
317.5465049999999
 20
373.676404
 30
0.0
 11
317.5465049999999
 21
367.7693039999998
 31
0.0
  0
ARC
  5
52BA
330
4FDB
100
AcDbEntity
  8
1
  6
Continuous
100
AcDbCircle
 10
323.946505
 20
373.6074249999999
 30
0.0
 40
0.3
100
AcDbArc
 50
270.0
 51
0.0
  0
LINE
  5
52BB
330
4FDB
100
AcDbEntity
  8
1
  6
Continuous
100
AcDbLine
 10
319.2465049999999
 20
371.969304
 30
0.0
 11
319.2465049999999
 21
385.5693039999999
 31
0.0
  0
LINE
  5
52BC
330
4FDB
100
AcDbEntity
  8
1
  6
Continuous
100
AcDbLine
 10
319.0465049999999
 20
388.2693039999999
 30
0.0
 11
319.0465049999999
 21
369.2693039999999
 31
0.0
  0
LINE
  5
52BD
330
4FDB
100
AcDbEntity
  8
1
  6
Continuous
100
AcDbLine
 10
317.5465049999999
 20
367.7693039999998
 30
0.0
 11
319.0465049999999
 21
369.2693039999999
 31
0.0
  0
ARC
  5
52BE
330
4FDB
100
AcDbEntity
  8
1
  6
Continuous
100
AcDbCircle
 10
319.0465049999999
 20
371.969304
 30
0.0
 40
0.2
100
AcDbArc
 50
270.0
 51
0.0
  0
ARC
  5
52BF
330
4FDB
100
AcDbEntity
  8
1
  6
Continuous
100
AcDbCircle
 10
309.6506279999999
 20
378.7693039999999
 30
0.0
 40
9.395877
100
AcDbArc
 50
327.177679
 51
32.822321
  0
LINE
  5
52C0
330
4FDB
100
AcDbEntity
  8
1
  6
Continuous
100
AcDbLine
 10
317.5465049999999
 20
389.769304
 30
0.0
 11
317.5465049999999
 21
383.862204
 31
0.0
  0
LINE
  5
52C1
330
4FDB
100
AcDbEntity
  8
1
  6
Continuous
100
AcDbLine
 10
317.5465049999999
 20
389.769304
 30
0.0
 11
319.0465049999999
 21
388.2693039999999
 31
0.0
  0
ARC
  5
52C2
330
4FDB
100
AcDbEntity
  8
1
  6
Continuous
100
AcDbCircle
 10
319.0465049999999
 20
385.5693039999999
 30
0.0
 40
0.2
100
AcDbArc
 50
0.0
 51
90.0
  0
LINE
  5
52C3
330
4FDB
100
AcDbEntity
  8
1
  6
Continuous
100
AcDbLine
 10
324.2465049999997
 20
383.9311839999999
 30
0.0
 11
324.2465049999997
 21
373.6074249999999
 31
0.0
  0
ARC
  5
52C4
330
4FDB
100
AcDbEntity
  8
1
  6
Continuous
100
AcDbCircle
 10
323.946505
 20
383.9311839999999
 30
0.0
 40
0.3
100
AcDbArc
 50
0.0
 51
90.0
  0
LINE
  5
52C5
330
4FDB
100
AcDbEntity
  8
2
  6
Continuous
100
AcDbLine
 10
323.946505
 20
378.7693039999999
 30
0.0
 11
319.2465049999999
 21
384.2311839999999
 31
0.0
  0
LINE
  5
52C6
330
4FDB
100
AcDbEntity
  8
2
  6
Continuous
100
AcDbLine
 10
323.946505
 20
384.2311839999999
 30
0.0
 11
319.2465049999999
 21
378.7693039999999
 31
0.0
  0
LINE
  5
52C7
330
4FDB
100
AcDbEntity
  8
1
  6
Continuous
100
AcDbLine
 10
323.946505
 20
373.307425
 30
0.0
 11
319.2465049999999
 21
373.307425
 31
0.0
  0
LINE
  5
52C8
330
4FDB
100
AcDbEntity
  8
1
  6
Continuous
100
AcDbLine
 10
323.946505
 20
378.7693039999999
 30
0.0
 11
319.2465049999999
 21
378.7693039999999
 31
0.0
  0
LINE
  5
52C9
330
4FDB
100
AcDbEntity
  8
2
  6
Continuous
100
AcDbLine
 10
319.2465049999999
 20
378.7693039999999
 30
0.0
 11
323.946505
 21
373.307425
 31
0.0
  0
LINE
  5
52CA
330
4FDB
100
AcDbEntity
  8
2
  6
Continuous
100
AcDbLine
 10
319.2465049999999
 20
373.307425
 30
0.0
 11
323.946505
 21
378.7693039999999
 31
0.0
  0
LINE
  5
52CB
330
4FDB
100
AcDbEntity
  8
1
  6
Continuous
100
AcDbLine
 10
323.946505
 20
384.2311839999999
 30
0.0
 11
319.2465049999999
 21
384.2311839999999
 31
0.0
  0
ARC
  5
52CC
330
4FDB
100
AcDbEntity
  8
1
  6
Continuous
100
AcDbCircle
 10
302.4465049999997
 20
400.7693039999998
 30
0.0
 40
2.0
100
AcDbArc
 50
137.644685
 51
180.0
  0
ARC
  5
52CD
330
4FDB
100
AcDbEntity
  8
1
  6
Continuous
100
AcDbCircle
 10
302.4465049999997
 20
400.7693039999998
 30
0.0
 40
2.0
100
AcDbArc
 50
90.0
 51
137.644685
  0
LINE
  5
52CE
330
4FDB
100
AcDbEntity
  8
1
  6
Continuous
100
AcDbLine
 10
304.946505
 20
402.7693039999999
 30
0.0
 11
303.946505
 21
402.7693039999999
 31
0.0
  0
LINE
  5
52CF
330
4FDB
100
AcDbEntity
  8
1
  6
Continuous
100
AcDbLine
 10
302.4465049999997
 20
402.7693039999999
 30
0.0
 11
303.946505
 21
402.7693039999999
 31
0.0
  0
ARC
  5
52D0
330
4FDB
100
AcDbEntity
  8
1
  6
Continuous
100
AcDbCircle
 10
381.455762
 20
371.2693039999999
 30
0.0
 40
32.055667
100
AcDbArc
 50
166.4692029999999
 51
193.530797
  0
ARC
  5
52D1
330
4FDB
100
AcDbEntity
  8
1
  6
Continuous
100
AcDbCircle
 10
321.344427
 20
371.2693039999999
 30
0.0
 40
32.055667
100
AcDbArc
 50
346.469203
 51
13.530797
  0
LINE
  5
52D2
330
4FDB
100
AcDbEntity
  8
1
  6
Continuous
100
AcDbLine
 10
347.9000939999999
 20
392.7693039999999
 30
0.0
 11
347.9000939999999
 21
364.769304
 31
0.0
  0
LINE
  5
52D3
330
4FDB
100
AcDbEntity
  8
1
  6
Continuous
100
AcDbLine
 10
349.4000939999998
 20
363.7693039999998
 30
0.0
 11
349.4000939999998
 21
393.7693039999999
 31
0.0
  0
LINE
  5
52D4
330
4FDB
100
AcDbEntity
  8
1
  6
Continuous
100
AcDbLine
 10
353.4000939999998
 20
363.7693039999998
 30
0.0
 11
353.4000939999998
 21
393.7693039999999
 31
0.0
  0
LINE
  5
52D5
330
4FDB
100
AcDbEntity
  8
1
  6
Continuous
100
AcDbLine
 10
354.9000939999999
 20
364.769304
 30
0.0
 11
354.9000939999999
 21
392.7693039999999
 31
0.0
  0
LINE
  5
52D6
330
4FDB
100
AcDbEntity
  8
1
  6
Continuous
100
AcDbLine
 10
346.4000939999999
 20
390.7693039999998
 30
0.0
 11
346.4000939999999
 21
366.7693039999999
 31
0.0
  0
ARC
  5
52D7
330
4FDB
100
AcDbEntity
  8
1
  6
Continuous
100
AcDbCircle
 10
347.1500939999998
 20
366.7693039999999
 30
0.0
 40
0.75
100
AcDbArc
 50
180.0
 51
0.0
  0
LINE
  5
52D8
330
4FDB
100
AcDbEntity
  8
1
  6
Continuous
100
AcDbLine
 10
353.4000939999998
 20
363.7693039999998
 30
0.0
 11
349.4000939999998
 21
363.7693039999998
 31
0.0
  0
LINE
  5
52D9
330
4FDB
100
AcDbEntity
  8
1
  6
Continuous
100
AcDbLine
 10
347.9000939999999
 20
364.769304
 30
0.0
 11
349.4000939999998
 21
364.769304
 31
0.0
  0
LINE
  5
52DA
330
4FDB
100
AcDbEntity
  8
1
  6
Continuous
100
AcDbLine
 10
353.4000939999998
 20
364.769304
 30
0.0
 11
354.9000939999999
 21
364.769304
 31
0.0
  0
LINE
  5
52DB
330
4FDB
100
AcDbEntity
  8
1
  6
Continuous
100
AcDbLine
 10
354.9000939999999
 20
367.4203099999999
 30
0.0
 11
353.4000939999998
 21
367.4203099999999
 31
0.0
  0
LINE
  5
52DC
330
4FDB
100
AcDbEntity
  8
1
  6
Continuous
100
AcDbLine
 10
354.9000939999999
 20
365.8109739999999
 30
0.0
 11
353.4000939999998
 21
365.8109739999999
 31
0.0
  0
ARC
  5
52DD
330
4FDB
100
AcDbEntity
  8
1
  6
Continuous
100
AcDbCircle
 10
347.1500939999998
 20
390.7693039999998
 30
0.0
 40
0.75
100
AcDbArc
 50
0.0
 51
180.0
  0
LINE
  5
52DE
330
4FDB
100
AcDbEntity
  8
1
  6
Continuous
100
AcDbLine
 10
353.4000939999998
 20
393.7693039999999
 30
0.0
 11
349.4000939999998
 21
393.7693039999999
 31
0.0
  0
LINE
  5
52DF
330
4FDB
100
AcDbEntity
  8
1
  6
Continuous
100
AcDbLine
 10
347.9000939999999
 20
392.7693039999999
 30
0.0
 11
349.4000939999998
 21
392.7693039999999
 31
0.0
  0
LINE
  5
52E0
330
4FDB
100
AcDbEntity
  8
1
  6
Continuous
100
AcDbLine
 10
353.4000939999998
 20
392.7693039999999
 30
0.0
 11
354.9000939999999
 21
392.7693039999999
 31
0.0
  0
LINE
  5
52E1
330
4FDB
100
AcDbEntity
  8
1
  6
Continuous
100
AcDbLine
 10
354.9000939999999
 20
391.7276339999999
 30
0.0
 11
353.4000939999998
 21
391.7276339999999
 31
0.0
  0
LINE
  5
52E2
330
4FDB
100
AcDbEntity
  8
1
  6
Continuous
100
AcDbLine
 10
354.9000939999999
 20
390.1182989999999
 30
0.0
 11
353.4000939999998
 21
390.1182989999999
 31
0.0
  0
LINE
  5
52E3
330
4FDB
100
AcDbEntity
  8
1
  6
Continuous
100
AcDbLine
 10
350.289822
 20
378.7693039999999
 30
0.0
 11
352.5103659999999
 21
378.7693039999999
 31
0.0
  0
ARC
  5
52E4
330
4FDB
100
AcDbEntity
  8
1
  6
Continuous
100
AcDbCircle
 10
381.455762
 20
386.2693039999999
 30
0.0
 40
32.055667
100
AcDbArc
 50
166.4692029999999
 51
193.530797
  0
ARC
  5
52E5
330
4FDB
100
AcDbEntity
  8
1
  6
Continuous
100
AcDbCircle
 10
321.344427
 20
386.2693039999999
 30
0.0
 40
32.055667
100
AcDbArc
 50
346.469203
 51
13.530797
  0
LINE
  5
52E6
330
4FDB
100
AcDbEntity
  8
1
  6
Continuous
100
AcDbLine
 10
384.493827
 20
386.7693039999999
 30
0.0
 11
384.493827
 21
370.7693039999999
 31
0.0
  0
LINE
  5
52E7
330
4FDB
100
AcDbEntity
  8
1
  6
Continuous
100
AcDbLine
 10
383.293827
 20
386.7693039999999
 30
0.0
 11
383.293827
 21
370.7693039999999
 31
0.0
  0
LINE
  5
52E8
330
4FDB
100
AcDbEntity
  8
1
  6
Continuous
100
AcDbLine
 10
384.493827
 20
370.7693039999999
 30
0.0
 11
383.293827
 21
370.7693039999999
 31
0.0
  0
LINE
  5
52E9
330
4FDB
100
AcDbEntity
  8
1
  6
Continuous
100
AcDbLine
 10
389.293827
 20
382.7693039999999
 30
0.0
 11
385.793827
 21
382.7693039999999
 31
0.0
  0
ARC
  5
52EA
330
4FDB
100
AcDbEntity
  8
1
  6
Continuous
100
AcDbCircle
 10
383.51885
 20
376.7693039999999
 30
0.0
 40
5.774976999999998
100
AcDbArc
 50
339.7375
 51
20.2625
  0
ARC
  5
52EB
330
4FDB
100
AcDbEntity
  8
1
  6
Continuous
100
AcDbCircle
 10
391.568804
 20
376.7693039999999
 30
0.0
 40
5.774976999999998
100
AcDbArc
 50
159.7375
 51
200.2625
  0
LINE
  5
52EC
330
4FDB
100
AcDbEntity
  8
1
  6
Continuous
100
AcDbLine
 10
389.293827
 20
374.7693039999999
 30
0.0
 11
385.793827
 21
374.7693039999999
 31
0.0
  0
LINE
  5
52ED
330
4FDB
100
AcDbEntity
  8
1
  6
Continuous
100
AcDbLine
 10
386.151207
 20
378.7693039999999
 30
0.0
 11
388.9364469999999
 21
378.7693039999999
 31
0.0
  0
LINE
  5
52EE
330
4FDB
100
AcDbEntity
  8
1
  6
Continuous
100
AcDbLine
 10
389.293827
 20
382.7693039999999
 30
0.0
 11
389.293827
 21
374.7693039999999
 31
0.0
  0
ARC
  5
52EF
330
4FDB
100
AcDbEntity
  8
1
  6
Continuous
100
AcDbCircle
 10
391.568804
 20
380.7693039999999
 30
0.0
 40
5.774976999999998
100
AcDbArc
 50
159.7375
 51
200.2625
  0
ARC
  5
52F0
330
4FDB
100
AcDbEntity
  8
1
  6
Continuous
100
AcDbCircle
 10
383.51885
 20
380.7693039999999
 30
0.0
 40
5.774976999999998
100
AcDbArc
 50
339.7375
 51
20.2625
  0
LINE
  5
52F1
330
4FDB
100
AcDbEntity
  8
1
  6
Continuous
100
AcDbLine
 10
384.493827
 20
386.7693039999999
 30
0.0
 11
383.293827
 21
386.7693039999999
 31
0.0
  0
LINE
  5
52F2
330
4FDB
100
AcDbEntity
  8
1
  6
Continuous
100
AcDbLine
 10
385.793827
 20
374.169304
 30
0.0
 11
385.793827
 21
383.3693039999998
 31
0.0
  0
LINE
  5
52F3
330
4FDB
100
AcDbEntity
  8
1
  6
Continuous
100
AcDbLine
 10
385.793827
 20
374.169304
 30
0.0
 11
384.493827
 21
374.169304
 31
0.0
  0
LINE
  5
52F4
330
4FDB
100
AcDbEntity
  8
1
  6
Continuous
100
AcDbLine
 10
385.793827
 20
383.3693039999998
 30
0.0
 11
384.493827
 21
383.3693039999998
 31
0.0
  0
LINE
  5
52F5
330
4FDB
100
AcDbEntity
  8
1
  6
Continuous
100
AcDbLine
 10
385.793827
 20
378.7693039999999
 30
0.0
 11
384.493827
 21
377.469304
 31
0.0
  0
LINE
  5
52F6
330
4FDB
100
AcDbEntity
  8
1
  6
Continuous
100
AcDbLine
 10
385.793827
 20
380.069304
 30
0.0
 11
384.493827
 21
378.7693039999999
 31
0.0
  0
ARC
  5
52F7
330
4FDB
100
AcDbEntity
  8
1
  6
Continuous
100
AcDbCircle
 10
310.8465049999999
 20
378.7693039999999
 30
0.0
 40
61.0
100
AcDbArc
 50
172.4640909999999
 51
187.535909
  0
ARC
  5
52F8
330
4FDB
100
AcDbEntity
  8
1
  6
Continuous
100
AcDbCircle
 10
310.8465049999999
 20
378.7693039999999
 30
0.0
 40
60.5
100
AcDbArc
 50
169.764998
 51
190.2350019999999
  0
ARC
  5
52F9
330
4FDB
100
AcDbEntity
  8
1
  6
Continuous
100
AcDbCircle
 10
310.8465049999999
 20
378.7693039999999
 30
0.0
 40
60.0
100
AcDbArc
 50
168.760227
 51
169.678776
  0
ARC
  5
52FA
330
4FDB
100
AcDbEntity
  8
1
  6
Continuous
100
AcDbCircle
 10
252.978119
 20
390.2693039999999
 30
0.0
 40
1.0
100
AcDbArc
 50
90.0
 51
168.760227
  0
ARC
  5
52FB
330
4FDB
100
AcDbEntity
  8
1
  6
Continuous
100
AcDbCircle
 10
252.978119
 20
367.2693039999999
 30
0.0
 40
1.0
100
AcDbArc
 50
191.2397729999999
 51
270.0
  0
ARC
  5
52FC
330
4FDB
100
AcDbEntity
  8
1
  6
Continuous
100
AcDbCircle
 10
310.8465049999999
 20
378.7693039999999
 30
0.0
 40
60.0
100
AcDbArc
 50
190.321224
 51
191.2397729999999
  0
LINE
  5
52FD
330
4FDB
100
AcDbEntity
  8
4
  6
CENTER
100
AcDbLine
 10
392.293827
 20
378.7693039999999
 30
0.0
 11
341.8692259999999
 21
378.7693039999999
 31
0.0
  0
LINE
  5
52FE
330
4FDB
100
AcDbEntity
  8
1
  6
Continuous
100
AcDbLine
 10
371.8422449999998
 20
387.769304
 30
0.0
 11
371.8422449999998
 21
369.7693039999998
 31
0.0
  0
LINE
  5
52FF
330
4FDB
100
AcDbEntity
  8
1
  6
Continuous
100
AcDbLine
 10
370.242245
 20
387.769304
 30
0.0
 11
370.242245
 21
369.7693039999998
 31
0.0
  0
LINE
  5
5300
330
4FDB
100
AcDbEntity
  8
1
  6
Continuous
100
AcDbLine
 10
367.0422449999999
 20
387.769304
 30
0.0
 11
367.0422449999999
 21
369.7693039999998
 31
0.0
  0
LINE
  5
5301
330
4FDB
100
AcDbEntity
  8
1
  6
Continuous
100
AcDbLine
 10
371.8422449999998
 20
369.7693039999998
 30
0.0
 11
370.242245
 21
369.7693039999998
 31
0.0
  0
LINE
  5
5302
330
4FDB
100
AcDbEntity
  8
1
  6
Continuous
100
AcDbLine
 10
370.242245
 20
369.7693039999998
 30
0.0
 11
367.0422449999999
 21
369.7693039999998
 31
0.0
  0
LINE
  5
5303
330
4FDB
100
AcDbEntity
  8
1
  6
Continuous
100
AcDbLine
 10
370.242245
 20
387.769304
 30
0.0
 11
367.0422449999999
 21
387.769304
 31
0.0
  0
LINE
  5
5304
330
4FDB
100
AcDbEntity
  8
1
  6
Continuous
100
AcDbLine
 10
371.8422449999998
 20
387.769304
 30
0.0
 11
370.242245
 21
387.769304
 31
0.0
  0
LINE
  5
5305
330
4FDB
100
AcDbEntity
  8
1
  6
Continuous
100
AcDbLine
 10
292.4965049999999
 20
390.9431189999999
 30
0.0
 11
292.4965049999999
 21
366.595489
 31
0.0
  0
LINE
  5
5306
330
4FDB
100
AcDbEntity
  8
1
  6
Continuous
100
AcDbLine
 10
292.7950399999998
 20
391.4007339999998
 30
0.0
 11
299.252368
 21
394.2435829999998
 31
0.0
  0
ARC
  5
5307
330
4FDB
100
AcDbEntity
  8
1
  6
Continuous
100
AcDbCircle
 10
292.9965049999997
 20
390.9431189999999
 30
0.0
 40
0.5
100
AcDbArc
 50
113.7615689999998
 51
180.0
  0
ARC
  5
5308
330
4FDB
100
AcDbEntity
  8
1
  6
Continuous
100
AcDbCircle
 10
298.446505
 20
396.074043
 30
0.0
 40
2.0
100
AcDbArc
 50
293.761569
 51
0.0
  0
ARC
  5
5309
330
4FDB
100
AcDbEntity
  8
1
  6
Continuous
100
AcDbCircle
 10
298.446505
 20
361.4645639999998
 30
0.0
 40
2.0
100
AcDbArc
 50
0.0
 51
66.23843100000001
  0
LINE
  5
530A
330
4FDB
100
AcDbEntity
  8
1
  6
Continuous
100
AcDbLine
 10
292.7950399999998
 20
366.137873
 30
0.0
 11
299.252368
 21
363.2950239999997
 31
0.0
  0
ARC
  5
530B
330
4FDB
100
AcDbEntity
  8
1
  6
Continuous
100
AcDbCircle
 10
292.9965049999997
 20
366.595489
 30
0.0
 40
0.5
100
AcDbArc
 50
180.0
 51
246.238431
  0
LINE
  5
530C
330
4FDB
100
AcDbEntity
  8
1
  6
Continuous
100
AcDbLine
 10
292.4965049999999
 20
387.769304
 30
0.0
 11
292.446505
 21
387.769304
 31
0.0
  0
LINE
  5
530D
330
4FDB
100
AcDbEntity
  8
1
  6
Continuous
100
AcDbLine
 10
292.4965049999999
 20
369.7693039999998
 30
0.0
 11
292.446505
 21
369.7693039999998
 31
0.0
  0
LINE
  5
530E
330
4FDB
100
AcDbEntity
  8
1
  6
Continuous
100
AcDbLine
 10
102.017751
 20
224.535207
 30
0.0
 11
106.422934
 21
157.163814
 31
0.0
  0
ARC
  5
530F
330
4FDB
100
AcDbEntity
  8
1
  6
Continuous
100
AcDbCircle
 10
301.5915769999998
 20
237.584652
 30
0.0
 40
200.0
100
AcDbArc
 50
180.0
 51
183.741048
  0
LINE
  5
5310
330
4FDB
100
AcDbEntity
  8
1
  6
Continuous
100
AcDbLine
 10
126.165403
 20
224.535207
 30
0.0
 11
121.760219
 21
157.163814
 31
0.0
  0
ARC
  5
5311
330
4FDB
100
AcDbEntity
  8
1
  6
Continuous
100
AcDbCircle
 10
-73.408423
 20
237.584652
 30
0.0
 40
200.0
100
AcDbArc
 50
356.258952
 51
0.0
  0
ARC
  5
5312
330
4FDB
100
AcDbEntity
  8
1
  6
Continuous
100
AcDbCircle
 10
108.418611
 20
157.29525
 30
0.0
 40
2.0
100
AcDbArc
 50
183.741048
 51
255.720595
  0
ARC
  5
5313
330
4FDB
100
AcDbEntity
  8
1
  6
Continuous
100
AcDbCircle
 10
114.091577
 20
179.584652
 30
0.0
 40
25.0
100
AcDbArc
 50
255.720595
 51
284.279405
  0
ARC
  5
5314
330
4FDB
100
AcDbEntity
  8
1
  6
Continuous
100
AcDbCircle
 10
119.7645429999999
 20
157.29525
 30
0.0
 40
2.0
100
AcDbArc
 50
284.279405
 51
356.258952
  0
LINE
  5
5315
330
4FDB
100
AcDbEntity
  8
4
  6
CENTER
100
AcDbLine
 10
114.091577
 20
149.584652
 30
0.0
 11
114.091577
 21
294.184652
 31
0.0
  0
LINE
  5
5316
330
4FDB
100
AcDbEntity
  8
5
  6
PHANTOM
100
AcDbLine
 10
94.104907
 20
229.1036889999999
 30
0.0
 11
33.556977
 21
199.2329939999999
 31
0.0
  0
LINE
  5
5317
330
4FDB
100
AcDbEntity
  8
5
  6
PHANTOM
100
AcDbLine
 10
82.03108099999999
 20
250.016169
 30
0.0
 11
25.888335
 21
212.5154719999999
 31
0.0
  0
LINE
  5
5318
330
4FDB
100
AcDbEntity
  8
4
  6
CENTER
100
AcDbLine
 10
23.158909
 20
202.084652
 30
0.0
 11
139.2063129999999
 21
269.084652
 31
0.0
  0
ARC
  5
5319
330
4FDB
100
AcDbEntity
  8
5
  6
PHANTOM
100
AcDbCircle
 10
49.139671
 20
217.084652
 30
0.0
 40
25.0
100
AcDbArc
 50
195.720595
 51
224.2794049999997
  0
ARC
  5
531A
330
4FDB
100
AcDbEntity
  8
5
  6
PHANTOM
100
AcDbCircle
 10
32.67296599999998
 20
201.027018
 30
0.0
 40
2.0
100
AcDbArc
 50
224.2794049999997
 51
296.258952
  0
ARC
  5
531B
330
4FDB
100
AcDbEntity
  8
5
  6
PHANTOM
100
AcDbCircle
 10
27.0
 20
210.852883
 30
0.0
 40
2.0
100
AcDbArc
 50
123.7410479999999
 51
195.720595
  0
ARC
  5
531C
330
4FDB
100
AcDbEntity
  8
5
  6
PHANTOM
100
AcDbCircle
 10
193.119145
 20
83.70488899999998
 30
0.0
 40
200.0
100
AcDbArc
 50
119.9999999999999
 51
123.7410479999999
  0
ARC
  5
531D
330
4FDB
100
AcDbEntity
  8
5
  6
PHANTOM
100
AcDbCircle
 10
5.619144999999998
 20
408.4644149999999
 30
0.0
 40
200.0
100
AcDbArc
 50
296.258952
 51
300.0
  0
LINE
  5
531E
330
4FDB
100
AcDbEntity
  8
4
  6
CENTER
100
AcDbLine
 10
331.993044
 20
65.0
 30
0.0
 11
244.8465049999998
 21
65.0
 31
0.0
  0
LINE
  5
531F
330
4FDB
100
AcDbEntity
  8
1
  6
Continuous
100
AcDbLine
 10
292.4965049999999
 20
52.82618499999998
 30
0.0
 11
292.4965049999999
 21
77.17381500000001
 31
0.0
  0
LINE
  5
5320
330
4FDB
100
AcDbEntity
  8
1
  6
Continuous
100
AcDbLine
 10
300.446505
 20
43.0
 30
0.0
 11
300.446505
 21
87.0
 31
0.0
  0
LINE
  5
5321
330
4FDB
100
AcDbEntity
  8
1
  6
Continuous
100
AcDbLine
 10
292.446505
 20
77.5
 30
0.0
 11
292.446505
 21
52.5
 31
0.0
  0
ARC
  5
5322
330
4FDB
100
AcDbEntity
  8
1
  6
Continuous
100
AcDbCircle
 10
310.8465049999999
 20
65.0
 30
0.0
 40
61.0
100
AcDbArc
 50
172.4640909999999
 51
187.535909
  0
ARC
  5
5323
330
4FDB
100
AcDbEntity
  8
1
  6
Continuous
100
AcDbCircle
 10
310.8465049999999
 20
65.0
 30
0.0
 40
60.5
100
AcDbArc
 50
169.764998
 51
190.2350019999999
  0
LINE
  5
5324
330
4FDB
100
AcDbEntity
  8
1
  6
Continuous
100
AcDbLine
 10
317.5465049999999
 20
70.0929
 30
0.0
 11
317.5465049999999
 21
76.0
 31
0.0
  0
LINE
  5
5325
330
4FDB
100
AcDbEntity
  8
1
  6
Continuous
100
AcDbLine
 10
306.8465049999999
 20
70.0929
 30
0.0
 11
306.8465049999999
 21
76.0
 31
0.0
  0
LINE
  5
5326
330
4FDB
100
AcDbEntity
  8
1
  6
Continuous
100
AcDbLine
 10
319.0465049999999
 20
55.5
 30
0.0
 11
319.0465049999999
 21
74.5
 31
0.0
  0
LINE
  5
5327
330
4FDB
100
AcDbEntity
  8
1
  6
Continuous
100
AcDbLine
 10
319.2465049999999
 20
71.79999999999998
 30
0.0
 11
319.2465049999999
 21
58.2
 31
0.0
  0
LINE
  5
5328
330
4FDB
100
AcDbEntity
  8
1
  6
Continuous
100
AcDbLine
 10
303.946505
 20
41.0
 30
0.0
 11
303.946505
 21
89.0
 31
0.0
  0
LINE
  5
5329
330
4FDB
100
AcDbEntity
  8
1
  6
Continuous
100
AcDbLine
 10
304.946505
 20
41.0
 30
0.0
 11
304.946505
 21
89.0
 31
0.0
  0
LINE
  5
532A
330
4FDB
100
AcDbEntity
  8
1
  6
Continuous
100
AcDbLine
 10
292.446505
 20
77.5
 30
0.0
 11
252.978119
 21
77.5
 31
0.0
  0
LINE
  5
532B
330
4FDB
100
AcDbEntity
  8
1
  6
Continuous
100
AcDbLine
 10
250.8777629999999
 20
73.0
 30
0.0
 11
250.37337
 21
73.0
 31
0.0
  0
LINE
  5
532C
330
4FDB
100
AcDbEntity
  8
1
  6
Continuous
100
AcDbLine
 10
251.81738
 20
75.75
 30
0.0
 11
251.3092259999999
 21
75.75
 31
0.0
  0
ARC
  5
532D
330
4FDB
100
AcDbEntity
  8
1
  6
Continuous
100
AcDbCircle
 10
252.978119
 20
76.5
 30
0.0
 40
1.0
100
AcDbArc
 50
90.0
 51
168.760227
  0
ARC
  5
532E
330
4FDB
100
AcDbEntity
  8
1
  6
Continuous
100
AcDbCircle
 10
310.8465049999999
 20
65.0
 30
0.0
 40
60.0
100
AcDbArc
 50
168.760227
 51
191.241016
  0
LINE
  5
532F
330
4FDB
100
AcDbEntity
  8
1
  6
Continuous
100
AcDbLine
 10
317.5465049999999
 20
76.0
 30
0.0
 11
305.946505
 21
76.0
 31
0.0
  0
LINE
  5
5330
330
4FDB
100
AcDbEntity
  8
2
  6
Continuous
100
AcDbLine
 10
318.358505
 20
75.188
 30
0.0
 11
306.8465049999999
 21
75.188
 31
0.0
  0
ARC
  5
5331
330
4FDB
100
AcDbEntity
  8
1
  6
Continuous
100
AcDbCircle
 10
298.446505
 20
82.30473999999999
 30
0.0
 40
2.0
100
AcDbArc
 50
293.761569
 51
0.0
  0
LINE
  5
5332
330
4FDB
100
AcDbEntity
  8
1
  6
Continuous
100
AcDbLine
 10
302.4465049999997
 20
89.0
 30
0.0
 11
303.946505
 21
89.0
 31
0.0
  0
LINE
  5
5333
330
4FDB
100
AcDbEntity
  8
1
  6
Continuous
100
AcDbLine
 10
304.946505
 20
89.0
 30
0.0
 11
303.946505
 21
89.0
 31
0.0
  0
ARC
  5
5334
330
4FDB
100
AcDbEntity
  8
1
  6
Continuous
100
AcDbCircle
 10
302.4465049999997
 20
87.0
 30
0.0
 40
2.0
100
AcDbArc
 50
137.644685
 51
180.0
  0
ARC
  5
5335
330
4FDB
100
AcDbEntity
  8
1
  6
Continuous
100
AcDbCircle
 10
302.4465049999997
 20
87.0
 30
0.0
 40
2.0
100
AcDbArc
 50
90.0
 51
137.644685
  0
LINE
  5
5336
330
4FDB
100
AcDbEntity
  8
1
  6
Continuous
100
AcDbLine
 10
292.7950399999998
 20
77.63143000000003
 30
0.0
 11
299.252368
 21
80.47427899999998
 31
0.0
  0
LINE
  5
5337
330
4FDB
100
AcDbEntity
  8
1
  6
Continuous
100
AcDbLine
 10
292.4965049999999
 20
74.0
 30
0.0
 11
292.446505
 21
74.0
 31
0.0
  0
ARC
  5
5338
330
4FDB
100
AcDbEntity
  8
1
  6
Continuous
100
AcDbCircle
 10
292.9965049999997
 20
77.17381500000001
 30
0.0
 40
0.5
100
AcDbArc
 50
113.7615689999998
 51
180.0
  0
LINE
  5
5339
330
4FDB
100
AcDbEntity
  8
2
  6
Continuous
100
AcDbLine
 10
305.440079
 20
76.0
 30
0.0
 11
306.8465049999999
 21
75.188
 31
0.0
  0
ARC
  5
533A
330
4FDB
100
AcDbEntity
  8
1
  6
Continuous
100
AcDbCircle
 10
305.946505
 20
77.0
 30
0.0
 40
1.0
100
AcDbArc
 50
180.0
 51
270.0
  0
ARC
  5
533B
330
4FDB
100
AcDbEntity
  8
1
  6
Continuous
100
AcDbCircle
 10
319.0465049999999
 20
71.79999999999998
 30
0.0
 40
0.2
100
AcDbArc
 50
0.0
 51
90.0
  0
LINE
  5
533C
330
4FDB
100
AcDbEntity
  8
1
  6
Continuous
100
AcDbLine
 10
317.5465049999999
 20
76.0
 30
0.0
 11
319.0465049999999
 21
74.5
 31
0.0
  0
LINE
  5
533D
330
4FDB
100
AcDbEntity
  8
1
  6
Continuous
100
AcDbLine
 10
292.446505
 20
52.5
 30
0.0
 11
252.978119
 21
52.5
 31
0.0
  0
LINE
  5
533E
330
4FDB
100
AcDbEntity
  8
1
  6
Continuous
100
AcDbLine
 10
250.8777629999999
 20
57.0
 30
0.0
 11
250.37337
 21
57.0
 31
0.0
  0
LINE
  5
533F
330
4FDB
100
AcDbEntity
  8
1
  6
Continuous
100
AcDbLine
 10
251.81738
 20
54.25
 30
0.0
 11
251.3092259999999
 21
54.25
 31
0.0
  0
ARC
  5
5340
330
4FDB
100
AcDbEntity
  8
1
  6
Continuous
100
AcDbCircle
 10
252.978119
 20
53.5
 30
0.0
 40
1.0
100
AcDbArc
 50
191.2397729999999
 51
270.0
  0
LINE
  5
5341
330
4FDB
100
AcDbEntity
  8
1
  6
Continuous
100
AcDbLine
 10
292.7950399999998
 20
52.36857
 30
0.0
 11
299.252368
 21
49.52572100000001
 31
0.0
  0
LINE
  5
5342
330
4FDB
100
AcDbEntity
  8
1
  6
Continuous
100
AcDbLine
 10
317.5465049999999
 20
54.0
 30
0.0
 11
305.946505
 21
54.0
 31
0.0
  0
LINE
  5
5343
330
4FDB
100
AcDbEntity
  8
2
  6
Continuous
100
AcDbLine
 10
318.358505
 20
54.812
 30
0.0
 11
306.8465049999999
 21
54.812
 31
0.0
  0
LINE
  5
5344
330
4FDB
100
AcDbEntity
  8
1
  6
Continuous
100
AcDbLine
 10
317.5465049999999
 20
59.90709999999999
 30
0.0
 11
304.946505
 21
59.90709999999999
 31
0.0
  0
LINE
  5
5345
330
4FDB
100
AcDbEntity
  8
1
  6
Continuous
100
AcDbLine
 10
317.5465049999999
 20
70.0929
 30
0.0
 11
304.946505
 21
70.0929
 31
0.0
  0
LINE
  5
5346
330
4FDB
100
AcDbEntity
  8
2
  6
Continuous
100
AcDbLine
 10
304.946505
 20
59.90709999999999
 30
0.0
 11
317.5465049999999
 21
70.0929
 31
0.0
  0
LINE
  5
5347
330
4FDB
100
AcDbEntity
  8
2
  6
Continuous
100
AcDbLine
 10
317.5465049999999
 20
59.90709999999999
 30
0.0
 11
304.946505
 21
70.0929
 31
0.0
  0
LINE
  5
5348
330
4FDB
100
AcDbEntity
  8
1
  6
Continuous
100
AcDbLine
 10
306.4465049999999
 20
61.5
 30
0.0
 11
304.946505
 21
61.5
 31
0.0
  0
LINE
  5
5349
330
4FDB
100
AcDbEntity
  8
1
  6
Continuous
100
AcDbLine
 10
306.4465049999999
 20
68.5
 30
0.0
 11
306.4465049999999
 21
61.5
 31
0.0
  0
LINE
  5
534A
330
4FDB
100
AcDbEntity
  8
1
  6
Continuous
100
AcDbLine
 10
306.4465049999999
 20
68.5
 30
0.0
 11
304.946505
 21
68.5
 31
0.0
  0
LINE
  5
534B
330
4FDB
100
AcDbEntity
  8
1
  6
Continuous
100
AcDbLine
 10
292.4965049999999
 20
56.0
 30
0.0
 11
292.446505
 21
56.0
 31
0.0
  0
ARC
  5
534C
330
4FDB
100
AcDbEntity
  8
1
  6
Continuous
100
AcDbCircle
 10
292.9965049999997
 20
52.82618499999998
 30
0.0
 40
0.5
100
AcDbArc
 50
180.0
 51
246.238431
  0
LINE
  5
534D
330
4FDB
100
AcDbEntity
  8
2
  6
Continuous
100
AcDbLine
 10
305.440079
 20
54.0
 30
0.0
 11
306.8465049999999
 21
54.812
 31
0.0
  0
ARC
  5
534E
330
4FDB
100
AcDbEntity
  8
1
  6
Continuous
100
AcDbCircle
 10
305.946505
 20
53.0
 30
0.0
 40
1.0
100
AcDbArc
 50
90.0
 51
180.0
  0
LINE
  5
534F
330
4FDB
100
AcDbEntity
  8
1
  6
Continuous
100
AcDbLine
 10
306.8465049999999
 20
54.0
 30
0.0
 11
306.8465049999999
 21
59.90709999999999
 31
0.0
  0
LINE
  5
5350
330
4FDB
100
AcDbEntity
  8
1
  6
Continuous
100
AcDbLine
 10
324.2465049999997
 20
59.83812
 30
0.0
 11
324.2465049999997
 21
70.161879
 31
0.0
  0
ARC
  5
5351
330
4FDB
100
AcDbEntity
  8
1
  6
Continuous
100
AcDbCircle
 10
309.6506279999999
 20
65.0
 30
0.0
 40
9.395877
100
AcDbArc
 50
327.177679
 51
32.822321
  0
LINE
  5
5352
330
4FDB
100
AcDbEntity
  8
2
  6
Continuous
100
AcDbLine
 10
323.946505
 20
59.53811999999999
 30
0.0
 11
319.2465049999999
 21
65.0
 31
0.0
  0
LINE
  5
5353
330
4FDB
100
AcDbEntity
  8
2
  6
Continuous
100
AcDbLine
 10
323.946505
 20
65.0
 30
0.0
 11
319.2465049999999
 21
59.53811999999999
 31
0.0
  0
LINE
  5
5354
330
4FDB
100
AcDbEntity
  8
1
  6
Continuous
100
AcDbLine
 10
323.946505
 20
65.0
 30
0.0
 11
319.2465049999999
 21
65.0
 31
0.0
  0
LINE
  5
5355
330
4FDB
100
AcDbEntity
  8
1
  6
Continuous
100
AcDbLine
 10
323.946505
 20
70.46187900000003
 30
0.0
 11
319.2465049999999
 21
70.46187900000003
 31
0.0
  0
LINE
  5
5356
330
4FDB
100
AcDbEntity
  8
2
  6
Continuous
100
AcDbLine
 10
319.2465049999999
 20
70.46187900000003
 30
0.0
 11
323.946505
 21
65.0
 31
0.0
  0
LINE
  5
5357
330
4FDB
100
AcDbEntity
  8
2
  6
Continuous
100
AcDbLine
 10
319.2465049999999
 20
65.0
 30
0.0
 11
323.946505
 21
70.46187900000003
 31
0.0
  0
ARC
  5
5358
330
4FDB
100
AcDbEntity
  8
1
  6
Continuous
100
AcDbCircle
 10
323.946505
 20
70.161879
 30
0.0
 40
0.3
100
AcDbArc
 50
0.0
 51
90.0
  0
LINE
  5
5359
330
4FDB
100
AcDbEntity
  8
1
  6
Continuous
100
AcDbLine
 10
323.946505
 20
59.53811999999999
 30
0.0
 11
319.2465049999999
 21
59.53811999999999
 31
0.0
  0
ARC
  5
535A
330
4FDB
100
AcDbEntity
  8
1
  6
Continuous
100
AcDbCircle
 10
319.0465049999999
 20
58.2
 30
0.0
 40
0.2
100
AcDbArc
 50
270.0
 51
0.0
  0
LINE
  5
535B
330
4FDB
100
AcDbEntity
  8
1
  6
Continuous
100
AcDbLine
 10
317.5465049999999
 20
54.0
 30
0.0
 11
319.0465049999999
 21
55.5
 31
0.0
  0
LINE
  5
535C
330
4FDB
100
AcDbEntity
  8
1
  6
Continuous
100
AcDbLine
 10
317.5465049999999
 20
54.0
 30
0.0
 11
317.5465049999999
 21
59.90709999999999
 31
0.0
  0
ARC
  5
535D
330
4FDB
100
AcDbEntity
  8
1
  6
Continuous
100
AcDbCircle
 10
323.946505
 20
59.83812
 30
0.0
 40
0.3
100
AcDbArc
 50
270.0
 51
0.0
  0
ARC
  5
535E
330
4FDB
100
AcDbEntity
  8
1
  6
Continuous
100
AcDbCircle
 10
298.446505
 20
47.69525999999999
 30
0.0
 40
2.0
100
AcDbArc
 50
0.0
 51
66.23843100000001
  0
LINE
  5
535F
330
4FDB
100
AcDbEntity
  8
1
  6
Continuous
100
AcDbLine
 10
302.4465049999997
 20
41.0
 30
0.0
 11
303.946505
 21
41.0
 31
0.0
  0
LINE
  5
5360
330
4FDB
100
AcDbEntity
  8
1
  6
Continuous
100
AcDbLine
 10
304.946505
 20
41.0
 30
0.0
 11
303.946505
 21
41.0
 31
0.0
  0
ARC
  5
5361
330
4FDB
100
AcDbEntity
  8
1
  6
Continuous
100
AcDbCircle
 10
302.4465049999997
 20
43.0
 30
0.0
 40
2.0
100
AcDbArc
 50
222.3553149999999
 51
270.0
  0
ARC
  5
5362
330
4FDB
100
AcDbEntity
  8
1
  6
Continuous
100
AcDbCircle
 10
302.4465049999997
 20
43.0
 30
0.0
 40
2.0
100
AcDbArc
 50
180.0
 51
222.3553149999999
  0
LINE
  5
5363
330
4FDB
100
AcDbEntity
  8
1
  6
Continuous
100
AcDbLine
 10
367.0422449999999
 20
56.0
 30
0.0
 11
367.0422449999999
 21
74.0
 31
0.0
  0
LINE
  5
5364
330
4FDB
100
AcDbEntity
  8
1
  6
Continuous
100
AcDbLine
 10
370.242245
 20
56.0
 30
0.0
 11
370.242245
 21
74.0
 31
0.0
  0
LINE
  5
5365
330
4FDB
100
AcDbEntity
  8
1
  6
Continuous
100
AcDbLine
 10
371.8422449999998
 20
56.0
 30
0.0
 11
371.8422449999998
 21
74.0
 31
0.0
  0
LINE
  5
5366
330
4FDB
100
AcDbEntity
  8
1
  6
Continuous
100
AcDbLine
 10
383.293827
 20
57.0
 30
0.0
 11
383.293827
 21
73.0
 31
0.0
  0
LINE
  5
5367
330
4FDB
100
AcDbEntity
  8
1
  6
Continuous
100
AcDbLine
 10
384.493827
 20
57.0
 30
0.0
 11
384.493827
 21
73.0
 31
0.0
  0
ARC
  5
5368
330
4FDB
100
AcDbEntity
  8
1
  6
Continuous
100
AcDbCircle
 10
381.455762
 20
72.5
 30
0.0
 40
32.055667
100
AcDbArc
 50
166.4692029999999
 51
193.530797
  0
ARC
  5
5369
330
4FDB
100
AcDbEntity
  8
1
  6
Continuous
100
AcDbCircle
 10
321.344427
 20
72.5
 30
0.0
 40
32.055667
100
AcDbArc
 50
346.469203
 51
13.530797
  0
LINE
  5
536A
330
4FDB
100
AcDbEntity
  8
1
  6
Continuous
100
AcDbLine
 10
347.9000939999999
 20
51.0
 30
0.0
 11
347.9000939999999
 21
79.0
 31
0.0
  0
LINE
  5
536B
330
4FDB
100
AcDbEntity
  8
1
  6
Continuous
100
AcDbLine
 10
349.4000939999998
 20
80.0
 30
0.0
 11
349.4000939999998
 21
50.0
 31
0.0
  0
LINE
  5
536C
330
4FDB
100
AcDbEntity
  8
1
  6
Continuous
100
AcDbLine
 10
353.4000939999998
 20
80.0
 30
0.0
 11
353.4000939999998
 21
50.0
 31
0.0
  0
LINE
  5
536D
330
4FDB
100
AcDbEntity
  8
1
  6
Continuous
100
AcDbLine
 10
354.9000939999999
 20
79.0
 30
0.0
 11
354.9000939999999
 21
51.0
 31
0.0
  0
LINE
  5
536E
330
4FDB
100
AcDbEntity
  8
1
  6
Continuous
100
AcDbLine
 10
346.4000939999999
 20
53.0
 30
0.0
 11
346.4000939999999
 21
77.0
 31
0.0
  0
LINE
  5
536F
330
4FDB
100
AcDbEntity
  8
1
  6
Continuous
100
AcDbLine
 10
353.4000939999998
 20
79.0
 30
0.0
 11
354.9000939999999
 21
79.0
 31
0.0
  0
LINE
  5
5370
330
4FDB
100
AcDbEntity
  8
1
  6
Continuous
100
AcDbLine
 10
354.9000939999999
 20
76.34899399999998
 30
0.0
 11
353.4000939999998
 21
76.34899399999998
 31
0.0
  0
LINE
  5
5371
330
4FDB
100
AcDbEntity
  8
1
  6
Continuous
100
AcDbLine
 10
354.9000939999999
 20
77.95833
 30
0.0
 11
353.4000939999998
 21
77.95833
 31
0.0
  0
ARC
  5
5372
330
4FDB
100
AcDbEntity
  8
1
  6
Continuous
100
AcDbCircle
 10
347.1500939999998
 20
77.0
 30
0.0
 40
0.75
100
AcDbArc
 50
0.0
 51
180.0
  0
LINE
  5
5373
330
4FDB
100
AcDbEntity
  8
1
  6
Continuous
100
AcDbLine
 10
353.4000939999998
 20
80.0
 30
0.0
 11
349.4000939999998
 21
80.0
 31
0.0
  0
LINE
  5
5374
330
4FDB
100
AcDbEntity
  8
1
  6
Continuous
100
AcDbLine
 10
347.9000939999999
 20
79.0
 30
0.0
 11
349.4000939999998
 21
79.0
 31
0.0
  0
LINE
  5
5375
330
4FDB
100
AcDbEntity
  8
1
  6
Continuous
100
AcDbLine
 10
370.242245
 20
74.0
 30
0.0
 11
367.0422449999999
 21
74.0
 31
0.0
  0
LINE
  5
5376
330
4FDB
100
AcDbEntity
  8
1
  6
Continuous
100
AcDbLine
 10
371.8422449999998
 20
74.0
 30
0.0
 11
370.242245
 21
74.0
 31
0.0
  0
LINE
  5
5377
330
4FDB
100
AcDbEntity
  8
1
  6
Continuous
100
AcDbLine
 10
384.493827
 20
73.0
 30
0.0
 11
383.293827
 21
73.0
 31
0.0
  0
LINE
  5
5378
330
4FDB
100
AcDbEntity
  8
4
  6
CENTER
100
AcDbLine
 10
392.293827
 20
65.0
 30
0.0
 11
341.8692259999999
 21
65.0
 31
0.0
  0
ARC
  5
5379
330
4FDB
100
AcDbEntity
  8
1
  6
Continuous
100
AcDbCircle
 10
381.455762
 20
57.5
 30
0.0
 40
32.055667
100
AcDbArc
 50
166.4692029999999
 51
193.530797
  0
ARC
  5
537A
330
4FDB
100
AcDbEntity
  8
1
  6
Continuous
100
AcDbCircle
 10
321.344427
 20
57.5
 30
0.0
 40
32.055667
100
AcDbArc
 50
346.469203
 51
13.530797
  0
LINE
  5
537B
330
4FDB
100
AcDbEntity
  8
1
  6
Continuous
100
AcDbLine
 10
353.4000939999998
 20
51.0
 30
0.0
 11
354.9000939999999
 21
51.0
 31
0.0
  0
LINE
  5
537C
330
4FDB
100
AcDbEntity
  8
1
  6
Continuous
100
AcDbLine
 10
354.9000939999999
 20
52.04167
 30
0.0
 11
353.4000939999998
 21
52.04167
 31
0.0
  0
LINE
  5
537D
330
4FDB
100
AcDbEntity
  8
1
  6
Continuous
100
AcDbLine
 10
354.9000939999999
 20
53.651005
 30
0.0
 11
353.4000939999998
 21
53.651005
 31
0.0
  0
LINE
  5
537E
330
4FDB
100
AcDbEntity
  8
1
  6
Continuous
100
AcDbLine
 10
350.289822
 20
65.0
 30
0.0
 11
352.5103659999999
 21
65.0
 31
0.0
  0
ARC
  5
537F
330
4FDB
100
AcDbEntity
  8
1
  6
Continuous
100
AcDbCircle
 10
347.1500939999998
 20
53.0
 30
0.0
 40
0.75
100
AcDbArc
 50
180.0
 51
0.0
  0
LINE
  5
5380
330
4FDB
100
AcDbEntity
  8
1
  6
Continuous
100
AcDbLine
 10
347.9000939999999
 20
51.0
 30
0.0
 11
349.4000939999998
 21
51.0
 31
0.0
  0
LINE
  5
5381
330
4FDB
100
AcDbEntity
  8
1
  6
Continuous
100
AcDbLine
 10
371.8422449999998
 20
56.0
 30
0.0
 11
370.242245
 21
56.0
 31
0.0
  0
LINE
  5
5382
330
4FDB
100
AcDbEntity
  8
1
  6
Continuous
100
AcDbLine
 10
370.242245
 20
56.0
 30
0.0
 11
367.0422449999999
 21
56.0
 31
0.0
  0
LINE
  5
5383
330
4FDB
100
AcDbEntity
  8
1
  6
Continuous
100
AcDbLine
 10
353.4000939999998
 20
50.0
 30
0.0
 11
349.4000939999998
 21
50.0
 31
0.0
  0
LINE
  5
5384
330
4FDB
100
AcDbEntity
  8
1
  6
Continuous
100
AcDbLine
 10
385.793827
 20
69.59999999999999
 30
0.0
 11
385.793827
 21
60.4
 31
0.0
  0
LINE
  5
5385
330
4FDB
100
AcDbEntity
  8
1
  6
Continuous
100
AcDbLine
 10
386.151207
 20
65.0
 30
0.0
 11
388.9364469999999
 21
65.0
 31
0.0
  0
LINE
  5
5386
330
4FDB
100
AcDbEntity
  8
1
  6
Continuous
100
AcDbLine
 10
389.293827
 20
69.0
 30
0.0
 11
385.793827
 21
69.0
 31
0.0
  0
LINE
  5
5387
330
4FDB
100
AcDbEntity
  8
1
  6
Continuous
100
AcDbLine
 10
389.293827
 20
61.0
 30
0.0
 11
385.793827
 21
61.0
 31
0.0
  0
LINE
  5
5388
330
4FDB
100
AcDbEntity
  8
1
  6
Continuous
100
AcDbLine
 10
385.793827
 20
66.29999999999999
 30
0.0
 11
384.493827
 21
65.0
 31
0.0
  0
LINE
  5
5389
330
4FDB
100
AcDbEntity
  8
1
  6
Continuous
100
AcDbLine
 10
385.793827
 20
65.0
 30
0.0
 11
384.493827
 21
63.7
 31
0.0
  0
LINE
  5
538A
330
4FDB
100
AcDbEntity
  8
1
  6
Continuous
100
AcDbLine
 10
385.793827
 20
69.59999999999999
 30
0.0
 11
384.493827
 21
69.59999999999999
 31
0.0
  0
ARC
  5
538B
330
4FDB
100
AcDbEntity
  8
1
  6
Continuous
100
AcDbCircle
 10
391.568804
 20
63.0
 30
0.0
 40
5.774976999999998
100
AcDbArc
 50
159.7375
 51
200.2625
  0
ARC
  5
538C
330
4FDB
100
AcDbEntity
  8
1
  6
Continuous
100
AcDbCircle
 10
391.568804
 20
67.0
 30
0.0
 40
5.774976999999998
100
AcDbArc
 50
159.7375
 51
200.2625
  0
ARC
  5
538D
330
4FDB
100
AcDbEntity
  8
1
  6
Continuous
100
AcDbCircle
 10
383.51885
 20
63.0
 30
0.0
 40
5.774976999999998
100
AcDbArc
 50
339.7375
 51
20.2625
  0
LINE
  5
538E
330
4FDB
100
AcDbEntity
  8
1
  6
Continuous
100
AcDbLine
 10
389.293827
 20
61.0
 30
0.0
 11
389.293827
 21
69.0
 31
0.0
  0
ARC
  5
538F
330
4FDB
100
AcDbEntity
  8
1
  6
Continuous
100
AcDbCircle
 10
383.51885
 20
67.0
 30
0.0
 40
5.774976999999998
100
AcDbArc
 50
339.7375
 51
20.2625
  0
LINE
  5
5390
330
4FDB
100
AcDbEntity
  8
1
  6
Continuous
100
AcDbLine
 10
385.793827
 20
60.4
 30
0.0
 11
384.493827
 21
60.4
 31
0.0
  0
LINE
  5
5391
330
4FDB
100
AcDbEntity
  8
1
  6
Continuous
100
AcDbLine
 10
384.493827
 20
57.0
 30
0.0
 11
383.293827
 21
57.0
 31
0.0
  0
LINE
  5
5392
330
4FDB
100
AcDbEntity
  8
1
  6
Continuous
100
AcDbLine
 10
664.676121
 20
237.26316
 30
0.0
 11
664.676121
 21
174.0699339999999
 31
0.0
  0
LINE
  5
5393
330
4FDB
100
AcDbEntity
  8
1
  6
Continuous
100
AcDbLine
 10
671.823336
 20
156.4251919999998
 30
0.0
 11
677.0394179999998
 21
221.6386229999999
 31
0.0
  0
ARC
  5
5394
330
4FDB
100
AcDbEntity
  8
1
  6
Continuous
100
AcDbCircle
 10
666.6761209999997
 20
161.584652
 30
0.0
 40
7.0
100
AcDbArc
 50
180.0
 51
270.0
  0
LINE
  5
5395
330
4FDB
100
AcDbEntity
  8
1
  6
Continuous
100
AcDbLine
 10
669.8297029999999
 20
154.584652
 30
0.0
 11
666.6761209999997
 21
154.584652
 31
0.0
  0
ARC
  5
5396
330
4FDB
100
AcDbEntity
  8
1
  6
Continuous
100
AcDbCircle
 10
669.8297029999999
 20
156.584652
 30
0.0
 40
2.0
100
AcDbArc
 50
270.0
 51
355.426945
  0
ARC
  5
5397
330
4FDB
100
AcDbEntity
  8
1
  6
Continuous
100
AcDbCircle
 10
658.6761209999997
 20
174.0699339999999
 30
0.0
 40
6.0
100
AcDbArc
 50
315.0
 51
0.0
  0
LINE
  5
5398
330
4FDB
100
AcDbEntity
  8
1
  6
Continuous
100
AcDbLine
 10
661.43348
 20
168.342012
 30
0.0
 11
662.918761
 21
169.8272929999999
 31
0.0
  0
ARC
  5
5399
330
4FDB
100
AcDbEntity
  8
1
  6
Continuous
100
AcDbCircle
 10
665.6761209999999
 20
164.099371
 30
0.0
 40
6.0
100
AcDbArc
 50
135.0
 51
180.0
  0
LINE
  5
539A
330
4FDB
100
AcDbEntity
  8
1
  6
Continuous
100
AcDbLine
 10
659.6761209999997
 20
164.099371
 30
0.0
 11
659.6761209999997
 21
161.584652
 31
0.0
  0
LINE
  5
539B
330
4FDB
100
AcDbEntity
  8
4
  6
CENTER
100
AcDbLine
 10
687.550242
 20
254.584652
 30
0.0
 11
599.4332839999997
 21
254.584652
 31
0.0
  0
LINE
  5
539C
330
4FDB
100
AcDbEntity
  8
1
  6
Continuous
100
AcDbLine
 10
636.045611
 20
244.353788
 30
0.0
 11
632.515796
 21
240.918979
 31
0.0
  0
LINE
  5
539D
330
4FDB
100
AcDbEntity
  8
1
  6
Continuous
100
AcDbLine
 10
636.126121
 20
268.390939
 30
0.0
 11
636.126121
 21
240.7783649999998
 31
0.0
  0
LINE
  5
539E
330
4FDB
100
AcDbEntity
  8
1
  6
Continuous
100
AcDbLine
 10
636.176121
 20
240.584652
 30
0.0
 11
636.176121
 21
268.584652
 31
0.0
  0
LINE
  5
539F
330
4FDB
100
AcDbEntity
  8
1
  6
Continuous
100
AcDbLine
 10
659.1087269999998
 20
243.247544
 30
0.0
 11
636.176121
 21
244.905322
 31
0.0
  0
ARC
  5
53A0
330
4FDB
100
AcDbEntity
  8
1
  6
Continuous
100
AcDbCircle
 10
658.6761209999997
 20
237.26316
 30
0.0
 40
6.0
100
AcDbArc
 50
0.0
 51
85.86532899999998
  0
LINE
  5
53A1
330
4FDB
100
AcDbEntity
  8
1
  6
Continuous
100
AcDbLine
 10
628.1761209999999
 20
276.584652
 30
0.0
 11
628.1761209999999
 21
232.584652
 31
0.0
  0
LINE
  5
53A2
330
4FDB
100
AcDbEntity
  8
1
  6
Continuous
100
AcDbLine
 10
624.6761209999997
 20
278.584652
 30
0.0
 11
624.6761209999997
 21
230.584652
 31
0.0
  0
LINE
  5
53A3
330
4FDB
100
AcDbEntity
  8
1
  6
Continuous
100
AcDbLine
 10
623.676121
 20
278.584652
 30
0.0
 11
623.676121
 21
230.584652
 31
0.0
  0
LINE
  5
53A4
330
4FDB
100
AcDbEntity
  8
1
  6
Continuous
100
AcDbLine
 10
664.5399349999999
 20
238.534256
 30
0.0
 11
636.176121
 21
240.584652
 31
0.0
  0
ARC
  5
53A5
330
4FDB
100
AcDbEntity
  8
1
  6
Continuous
100
AcDbCircle
 10
477.676121
 20
237.584652
 30
0.0
 40
200.0
100
AcDbArc
 50
355.426945
 51
0.0
  0
LINE
  5
53A6
330
4FDB
100
AcDbEntity
  8
1
  6
Continuous
100
AcDbLine
 10
635.996612
 20
240.4426029999999
 30
0.0
 11
627.6580849999998
 21
231.2416029999999
 31
0.0
  0
ARC
  5
53A7
330
4FDB
100
AcDbEntity
  8
1
  6
Continuous
100
AcDbCircle
 10
626.1761209999997
 20
232.584652
 30
0.0
 40
2.0
100
AcDbArc
 50
317.644685
 51
0.0
  0
ARC
  5
53A8
330
4FDB
100
AcDbEntity
  8
1
  6
Continuous
100
AcDbCircle
 10
626.1761209999997
 20
232.584652
 30
0.0
 40
2.0
100
AcDbArc
 50
270.0
 51
317.644685
  0
LINE
  5
53A9
330
4FDB
100
AcDbEntity
  8
1
  6
Continuous
100
AcDbLine
 10
626.1761209999997
 20
230.584652
 30
0.0
 11
624.6761209999997
 21
230.584652
 31
0.0
  0
LINE
  5
53AA
330
4FDB
100
AcDbEntity
  8
1
  6
Continuous
100
AcDbLine
 10
623.676121
 20
230.584652
 30
0.0
 11
624.6761209999997
 21
230.584652
 31
0.0
  0
LINE
  5
53AB
330
4FDB
100
AcDbEntity
  8
1
  6
Continuous
100
AcDbLine
 10
631.8706269999998
 20
240.291175
 30
0.0
 11
629.1761209999997
 21
237.669193
 31
0.0
  0
ARC
  5
53AC
330
4FDB
100
AcDbEntity
  8
1
  6
Continuous
100
AcDbCircle
 10
635.626121
 20
240.7783649999998
 30
0.0
 40
0.5
100
AcDbArc
 50
317.8151449999999
 51
0.0
  0
LINE
  5
53AD
330
4FDB
100
AcDbEntity
  8
1
  6
Continuous
100
AcDbLine
 10
622.1761209999997
 20
239.584652
 30
0.0
 11
623.676121
 21
239.584652
 31
0.0
  0
LINE
  5
53AE
330
4FDB
100
AcDbEntity
  8
1
  6
Continuous
100
AcDbLine
 10
622.1761209999997
 20
235.084652
 30
0.0
 11
623.676121
 21
235.084652
 31
0.0
  0
LINE
  5
53AF
330
4FDB
100
AcDbEntity
  8
1
  6
Continuous
100
AcDbLine
 10
622.1761209999997
 20
235.084652
 30
0.0
 11
622.1761209999997
 21
239.584652
 31
0.0
  0
LINE
  5
53B0
330
4FDB
100
AcDbEntity
  8
1
  6
Continuous
100
AcDbLine
 10
665.8241440000002
 20
267.7028209999999
 30
0.0
 11
636.176121
 21
264.714311
 31
0.0
  0
LINE
  5
53B1
330
4FDB
100
AcDbEntity
  8
1
  6
Continuous
100
AcDbLine
 10
665.4379389999998
 20
271.5342329999999
 30
0.0
 11
636.176121
 21
268.584652
 31
0.0
  0
ARC
  5
53B2
330
4FDB
100
AcDbEntity
  8
1
  6
Continuous
100
AcDbCircle
 10
666.4408530000001
 20
261.584652
 30
0.0
 40
6.149172
100
AcDbArc
 50
90.47126199999999
 51
95.75595300000001
  0
LINE
  5
53B3
330
4FDB
100
AcDbEntity
  8
1
  6
Continuous
100
AcDbLine
 10
632.515796
 20
268.2503249999999
 30
0.0
 11
636.045611
 21
264.8155159999999
 31
0.0
  0
LINE
  5
53B4
330
4FDB
100
AcDbEntity
  8
1
  6
Continuous
100
AcDbLine
 10
609.8261209999998
 20
264.334652
 30
0.0
 11
623.676121
 21
264.334652
 31
0.0
  0
LINE
  5
53B5
330
4FDB
100
AcDbEntity
  8
1
  6
Continuous
100
AcDbLine
 10
609.8261209999998
 20
244.834652
 30
0.0
 11
623.676121
 21
244.834652
 31
0.0
  0
LINE
  5
53B6
330
4FDB
100
AcDbEntity
  8
1
  6
Continuous
100
AcDbLine
 10
636.126121
 20
245.584652
 30
0.0
 11
636.176121
 21
245.584652
 31
0.0
  0
LINE
  5
53B7
330
4FDB
100
AcDbEntity
  8
1
  6
Continuous
100
AcDbLine
 10
636.176121
 20
263.2158459999997
 30
0.0
 11
636.126121
 21
263.2158459999997
 31
0.0
  0
LINE
  5
53B8
330
4FDB
100
AcDbEntity
  8
1
  6
Continuous
100
AcDbLine
 10
604.376121
 20
259.7465319999999
 30
0.0
 11
604.376121
 21
249.4227729999999
 31
0.0
  0
LINE
  5
53B9
330
4FDB
100
AcDbEntity
  8
1
  6
Continuous
100
AcDbLine
 10
609.5761209999998
 20
264.084652
 30
0.0
 11
609.5761209999998
 21
245.084652
 31
0.0
  0
LINE
  5
53BA
330
4FDB
100
AcDbEntity
  8
1
  6
Continuous
100
AcDbLine
 10
609.376121
 20
247.7846519999999
 30
0.0
 11
609.376121
 21
261.384652
 31
0.0
  0
LINE
  5
53BB
330
4FDB
100
AcDbEntity
  8
2
  6
Continuous
100
AcDbLine
 10
604.6761209999997
 20
254.584652
 30
0.0
 11
609.376121
 21
260.0465319999999
 31
0.0
  0
LINE
  5
53BC
330
4FDB
100
AcDbEntity
  8
2
  6
Continuous
100
AcDbLine
 10
604.6761209999997
 20
260.0465319999999
 30
0.0
 11
609.376121
 21
254.584652
 31
0.0
  0
LINE
  5
53BD
330
4FDB
100
AcDbEntity
  8
1
  6
Continuous
100
AcDbLine
 10
604.6761209999997
 20
254.584652
 30
0.0
 11
609.376121
 21
254.584652
 31
0.0
  0
LINE
  5
53BE
330
4FDB
100
AcDbEntity
  8
1
  6
Continuous
100
AcDbLine
 10
604.6761209999997
 20
249.1227729999998
 30
0.0
 11
609.376121
 21
249.1227729999998
 31
0.0
  0
LINE
  5
53BF
330
4FDB
100
AcDbEntity
  8
2
  6
Continuous
100
AcDbLine
 10
609.376121
 20
254.584652
 30
0.0
 11
604.6761209999997
 21
249.1227729999998
 31
0.0
  0
LINE
  5
53C0
330
4FDB
100
AcDbEntity
  8
2
  6
Continuous
100
AcDbLine
 10
609.376121
 20
249.1227729999998
 30
0.0
 11
604.6761209999997
 21
254.584652
 31
0.0
  0
LINE
  5
53C1
330
4FDB
100
AcDbEntity
  8
1
  6
Continuous
100
AcDbLine
 10
609.8261209999998
 20
244.834652
 30
0.0
 11
609.5761209999998
 21
245.084652
 31
0.0
  0
ARC
  5
53C2
330
4FDB
100
AcDbEntity
  8
1
  6
Continuous
100
AcDbCircle
 10
609.5761209999998
 20
247.7846519999999
 30
0.0
 40
0.2
100
AcDbArc
 50
180.0
 51
270.0
  0
ARC
  5
53C3
330
4FDB
100
AcDbEntity
  8
1
  6
Continuous
100
AcDbCircle
 10
604.6761209999997
 20
249.4227729999999
 30
0.0
 40
0.3
100
AcDbArc
 50
180.0
 51
270.0
  0
LINE
  5
53C4
330
4FDB
100
AcDbEntity
  8
1
  6
Continuous
100
AcDbLine
 10
604.6761209999997
 20
260.0465319999999
 30
0.0
 11
609.376121
 21
260.0465319999999
 31
0.0
  0
LINE
  5
53C5
330
4FDB
100
AcDbEntity
  8
1
  6
Continuous
100
AcDbLine
 10
609.5761209999998
 20
264.084652
 30
0.0
 11
609.8261209999998
 21
264.334652
 31
0.0
  0
ARC
  5
53C6
330
4FDB
100
AcDbEntity
  8
1
  6
Continuous
100
AcDbCircle
 10
609.5761209999998
 20
261.384652
 30
0.0
 40
0.2
100
AcDbArc
 50
90.0
 51
180.0
  0
ARC
  5
53C7
330
4FDB
100
AcDbEntity
  8
1
  6
Continuous
100
AcDbCircle
 10
604.6761209999997
 20
259.7465319999999
 30
0.0
 40
0.3
100
AcDbArc
 50
90.0
 51
180.0
  0
LINE
  5
53C8
330
4FDB
100
AcDbEntity
  8
1
  6
Continuous
100
AcDbLine
 10
627.6580849999998
 20
277.927702
 30
0.0
 11
635.996612
 21
268.7267019999998
 31
0.0
  0
LINE
  5
53C9
330
4FDB
100
AcDbEntity
  8
1
  6
Continuous
100
AcDbLine
 10
629.1761209999997
 20
271.500111
 30
0.0
 11
631.8706269999998
 21
268.878129
 31
0.0
  0
ARC
  5
53CA
330
4FDB
100
AcDbEntity
  8
1
  6
Continuous
100
AcDbCircle
 10
635.626121
 20
268.390939
 30
0.0
 40
0.5
100
AcDbArc
 50
0.0
 51
42.18485499999998
  0
LINE
  5
53CB
330
4FDB
100
AcDbEntity
  8
1
  6
Continuous
100
AcDbLine
 10
636.126121
 20
266.084652
 30
0.0
 11
636.176121
 21
266.084652
 31
0.0
  0
LINE
  5
53CC
330
4FDB
100
AcDbEntity
  8
1
  6
Continuous
100
AcDbLine
 10
622.1761209999997
 20
269.5846519999999
 30
0.0
 11
623.676121
 21
269.5846519999999
 31
0.0
  0
LINE
  5
53CD
330
4FDB
100
AcDbEntity
  8
1
  6
Continuous
100
AcDbLine
 10
622.1761209999997
 20
274.084652
 30
0.0
 11
623.676121
 21
274.084652
 31
0.0
  0
LINE
  5
53CE
330
4FDB
100
AcDbEntity
  8
1
  6
Continuous
100
AcDbLine
 10
622.1761209999997
 20
274.084652
 30
0.0
 11
622.1761209999997
 21
269.5846519999999
 31
0.0
  0
ARC
  5
53CF
330
4FDB
100
AcDbEntity
  8
1
  6
Continuous
100
AcDbCircle
 10
626.1761209999997
 20
276.584652
 30
0.0
 40
2.0
100
AcDbArc
 50
0.0
 51
42.35531499999999
  0
ARC
  5
53D0
330
4FDB
100
AcDbEntity
  8
1
  6
Continuous
100
AcDbCircle
 10
626.1761209999997
 20
276.584652
 30
0.0
 40
2.0
100
AcDbArc
 50
42.35531499999999
 51
90.0
  0
LINE
  5
53D1
330
4FDB
100
AcDbEntity
  8
1
  6
Continuous
100
AcDbLine
 10
626.1761209999997
 20
278.584652
 30
0.0
 11
624.6761209999997
 21
278.584652
 31
0.0
  0
LINE
  5
53D2
330
4FDB
100
AcDbEntity
  8
1
  6
Continuous
100
AcDbLine
 10
623.676121
 20
278.584652
 30
0.0
 11
624.6761209999997
 21
278.584652
 31
0.0
  0
LINE
  5
53D3
330
4FDB
100
AcDbEntity
  8
1
  6
Continuous
100
AcDbLine
 10
579.222532
 20
239.584652
 30
0.0
 11
579.222532
 21
269.5846519999999
 31
0.0
  0
LINE
  5
53D4
330
4FDB
100
AcDbEntity
  8
1
  6
Continuous
100
AcDbLine
 10
575.2225319999999
 20
239.58465
 30
0.0
 11
575.2225319999999
 21
269.584654
 31
0.0
  0
LINE
  5
53D5
330
4FDB
100
AcDbEntity
  8
1
  6
Continuous
100
AcDbLine
 10
582.222532
 20
266.584652
 30
0.0
 11
582.222532
 21
242.5846519999999
 31
0.0
  0
LINE
  5
53D6
330
4FDB
100
AcDbEntity
  8
1
  6
Continuous
100
AcDbLine
 10
580.7225319999997
 20
268.584652
 30
0.0
 11
580.7225319999997
 21
240.584652
 31
0.0
  0
LINE
  5
53D7
330
4FDB
100
AcDbEntity
  8
1
  6
Continuous
100
AcDbLine
 10
573.722532
 20
240.584652
 30
0.0
 11
573.722532
 21
268.584652
 31
0.0
  0
ARC
  5
53D8
330
4FDB
100
AcDbEntity
  8
1
  6
Continuous
100
AcDbCircle
 10
568.2407449999998
 20
241.5942709999999
 30
0.0
 40
10.98178699999998
100
AcDbArc
 50
346.759569
 51
23.222372
  0
ARC
  5
53D9
330
4FDB
100
AcDbEntity
  8
1
  6
Continuous
100
AcDbCircle
 10
586.2043190000001
 20
241.5942709999999
 30
0.0
 40
10.98178699999998
100
AcDbArc
 50
156.7776279999999
 51
193.240447
  0
LINE
  5
53DA
330
4FDB
100
AcDbEntity
  8
1
  6
Continuous
100
AcDbLine
 10
575.2225319999999
 20
240.584652
 30
0.0
 11
573.722532
 21
240.584652
 31
0.0
  0
LINE
  5
53DB
330
4FDB
100
AcDbEntity
  8
1
  6
Continuous
100
AcDbLine
 10
573.722532
 20
240.584652
 30
0.0
 11
575.2225319999999
 21
240.584652
 31
0.0
  0
LINE
  5
53DC
330
4FDB
100
AcDbEntity
  8
1
  6
Continuous
100
AcDbLine
 10
576.562277
 20
237.2641439999999
 30
0.0
 11
575.222531
 21
239.584652
 31
0.0
  0
LINE
  5
53DD
330
4FDB
100
AcDbEntity
  8
1
  6
Continuous
100
AcDbLine
 10
580.7225319999997
 20
240.584652
 30
0.0
 11
579.222532
 21
240.584652
 31
0.0
  0
LINE
  5
53DE
330
4FDB
100
AcDbEntity
  8
1
  6
Continuous
100
AcDbLine
 10
576.562277
 20
237.2641439999999
 30
0.0
 11
577.8827869999997
 21
237.2641439999999
 31
0.0
  0
LINE
  5
53DF
330
4FDB
100
AcDbEntity
  8
1
  6
Continuous
100
AcDbLine
 10
577.8827859999998
 20
237.2641439999999
 30
0.0
 11
579.222532
 21
239.584652
 31
0.0
  0
ARC
  5
53E0
330
4FDB
100
AcDbEntity
  8
1
  6
Continuous
100
AcDbCircle
 10
581.4725319999999
 20
242.5846519999999
 30
0.0
 40
0.75
100
AcDbArc
 50
180.0
 51
0.0
  0
LINE
  5
53E1
330
4FDB
100
AcDbEntity
  8
4
  6
CENTER
100
AcDbLine
 10
536.3287989999999
 20
254.584652
 30
0.0
 11
586.7534000000001
 21
254.584652
 31
0.0
  0
ARC
  5
53E2
330
4FDB
100
AcDbEntity
  8
1
  6
Continuous
100
AcDbCircle
 10
568.2407449999998
 20
267.575033
 30
0.0
 40
10.98178699999998
100
AcDbArc
 50
336.777628
 51
13.24043099999999
  0
ARC
  5
53E3
330
4FDB
100
AcDbEntity
  8
1
  6
Continuous
100
AcDbCircle
 10
586.2043190000001
 20
267.575033
 30
0.0
 40
10.98178699999998
100
AcDbArc
 50
166.759553
 51
203.222372
  0
LINE
  5
53E4
330
4FDB
100
AcDbEntity
  8
1
  6
Continuous
100
AcDbLine
 10
573.722532
 20
260.3143789999999
 30
0.0
 11
575.2225319999999
 21
260.3143789999999
 31
0.0
  0
LINE
  5
53E5
330
4FDB
100
AcDbEntity
  8
1
  6
Continuous
100
AcDbLine
 10
573.722532
 20
262.782233
 30
0.0
 11
575.2225319999999
 21
262.782233
 31
0.0
  0
LINE
  5
53E6
330
4FDB
100
AcDbEntity
  8
1
  6
Continuous
100
AcDbLine
 10
573.722532
 20
246.387071
 30
0.0
 11
575.2225319999999
 21
246.387071
 31
0.0
  0
LINE
  5
53E7
330
4FDB
100
AcDbEntity
  8
1
  6
Continuous
100
AcDbLine
 10
573.722532
 20
248.854925
 30
0.0
 11
575.2225319999999
 21
248.854925
 31
0.0
  0
ARC
  5
53E8
330
4FDB
100
AcDbEntity
  8
1
  6
Continuous
100
AcDbCircle
 10
536.6299769999999
 20
254.584652
 30
0.0
 40
42.592555
100
AcDbArc
 50
348.268368
 51
11.731632
  0
ARC
  5
53E9
330
4FDB
100
AcDbEntity
  8
1
  6
Continuous
100
AcDbCircle
 10
617.8150879999998
 20
254.584652
 30
0.0
 40
42.592555
100
AcDbArc
 50
168.2683679999998
 51
191.7316319999999
  0
LINE
  5
53EA
330
4FDB
100
AcDbEntity
  8
1
  6
Continuous
100
AcDbLine
 10
576.11226
 20
245.924398
 30
0.0
 11
578.3328039999998
 21
245.924398
 31
0.0
  0
LINE
  5
53EB
330
4FDB
100
AcDbEntity
  8
1
  6
Continuous
100
AcDbLine
 10
576.11226
 20
263.244906
 30
0.0
 11
578.3328039999998
 21
263.244906
 31
0.0
  0
LINE
  5
53EC
330
4FDB
100
AcDbEntity
  8
1
  6
Continuous
100
AcDbLine
 10
556.7803809999998
 20
263.584652
 30
0.0
 11
556.7803809999998
 21
245.584652
 31
0.0
  0
LINE
  5
53ED
330
4FDB
100
AcDbEntity
  8
1
  6
Continuous
100
AcDbLine
 10
558.3803809999999
 20
263.584652
 30
0.0
 11
558.3803809999999
 21
245.584652
 31
0.0
  0
LINE
  5
53EE
330
4FDB
100
AcDbEntity
  8
1
  6
Continuous
100
AcDbLine
 10
561.580381
 20
263.584652
 30
0.0
 11
561.580381
 21
245.584652
 31
0.0
  0
LINE
  5
53EF
330
4FDB
100
AcDbEntity
  8
1
  6
Continuous
100
AcDbLine
 10
556.7803809999998
 20
245.584652
 30
0.0
 11
558.3803809999999
 21
245.584652
 31
0.0
  0
LINE
  5
53F0
330
4FDB
100
AcDbEntity
  8
1
  6
Continuous
100
AcDbLine
 10
558.3803809999999
 20
245.584652
 30
0.0
 11
561.580381
 21
245.584652
 31
0.0
  0
LINE
  5
53F1
330
4FDB
100
AcDbEntity
  8
1
  6
Continuous
100
AcDbLine
 10
558.3803809999999
 20
263.584652
 30
0.0
 11
561.580381
 21
263.584652
 31
0.0
  0
LINE
  5
53F2
330
4FDB
100
AcDbEntity
  8
1
  6
Continuous
100
AcDbLine
 10
556.7803809999998
 20
263.584652
 30
0.0
 11
558.3803809999999
 21
263.584652
 31
0.0
  0
LINE
  5
53F3
330
4FDB
100
AcDbEntity
  8
1
  6
Continuous
100
AcDbLine
 10
575.2225319999999
 20
268.584652
 30
0.0
 11
573.722532
 21
268.584652
 31
0.0
  0
LINE
  5
53F4
330
4FDB
100
AcDbEntity
  8
1
  6
Continuous
100
AcDbLine
 10
573.722532
 20
268.584652
 30
0.0
 11
575.2225319999999
 21
268.584652
 31
0.0
  0
LINE
  5
53F5
330
4FDB
100
AcDbEntity
  8
1
  6
Continuous
100
AcDbLine
 10
576.562277
 20
271.90516
 30
0.0
 11
575.222531
 21
269.5846519999999
 31
0.0
  0
LINE
  5
53F6
330
4FDB
100
AcDbEntity
  8
1
  6
Continuous
100
AcDbLine
 10
580.7225319999997
 20
268.584652
 30
0.0
 11
579.222532
 21
268.584652
 31
0.0
  0
LINE
  5
53F7
330
4FDB
100
AcDbEntity
  8
1
  6
Continuous
100
AcDbLine
 10
577.8827859999998
 20
271.90516
 30
0.0
 11
579.222532
 21
269.5846519999999
 31
0.0
  0
LINE
  5
53F8
330
4FDB
100
AcDbEntity
  8
1
  6
Continuous
100
AcDbLine
 10
576.562277
 20
271.90516
 30
0.0
 11
577.8827859999998
 21
271.90516
 31
0.0
  0
ARC
  5
53F9
330
4FDB
100
AcDbEntity
  8
1
  6
Continuous
100
AcDbCircle
 10
581.4725319999999
 20
266.584652
 30
0.0
 40
0.75
100
AcDbArc
 50
0.0
 51
180.0
  0
LINE
  5
53FA
330
4FDB
100
AcDbEntity
  8
1
  6
Continuous
100
AcDbLine
 10
544.1287990000001
 20
253.3846519999999
 30
0.0
 11
545.3287989999997
 21
254.584652
 31
0.0
  0
LINE
  5
53FB
330
4FDB
100
AcDbEntity
  8
1
  6
Continuous
100
AcDbLine
 10
544.1287990000001
 20
262.584652
 30
0.0
 11
544.1287990000001
 21
246.5846519999999
 31
0.0
  0
LINE
  5
53FC
330
4FDB
100
AcDbEntity
  8
1
  6
Continuous
100
AcDbLine
 10
545.3287989999997
 20
262.584652
 30
0.0
 11
545.3287989999997
 21
246.5846519999999
 31
0.0
  0
LINE
  5
53FD
330
4FDB
100
AcDbEntity
  8
1
  6
Continuous
100
AcDbLine
 10
542.828799
 20
249.9658499999999
 30
0.0
 11
542.828799
 21
259.203454
 31
0.0
  0
LINE
  5
53FE
330
4FDB
100
AcDbEntity
  8
1
  6
Continuous
100
AcDbLine
 10
539.328799
 20
250.6846519999998
 30
0.0
 11
539.328799
 21
258.4846519999999
 31
0.0
  0
ARC
  5
53FF
330
4FDB
100
AcDbEntity
  8
1
  6
Continuous
100
AcDbCircle
 10
545.592943
 20
254.584652
 30
0.0
 40
6.264143999999999
100
AcDbArc
 50
158.366392
 51
201.633608
  0
LINE
  5
5400
330
4FDB
100
AcDbEntity
  8
1
  6
Continuous
100
AcDbLine
 10
539.7438
 20
249.9658499999999
 30
0.0
 11
542.828799
 21
249.9658499999999
 31
0.0
  0
LINE
  5
5401
330
4FDB
100
AcDbEntity
  8
1
  6
Continuous
100
AcDbLine
 10
539.7700429999996
 20
252.2752509999999
 30
0.0
 11
542.828799
 21
252.2752509999999
 31
0.0
  0
LINE
  5
5402
330
4FDB
100
AcDbEntity
  8
1
  6
Continuous
100
AcDbLine
 10
542.828799
 20
249.984652
 30
0.0
 11
544.1287990000001
 21
249.984652
 31
0.0
  0
LINE
  5
5403
330
4FDB
100
AcDbEntity
  8
1
  6
Continuous
100
AcDbLine
 10
544.1287990000001
 20
254.584652
 30
0.0
 11
545.3287989999997
 21
255.784652
 31
0.0
  0
LINE
  5
5404
330
4FDB
100
AcDbEntity
  8
1
  6
Continuous
100
AcDbLine
 10
544.1287990000001
 20
246.5846519999999
 30
0.0
 11
545.3287989999997
 21
246.5846519999999
 31
0.0
  0
LINE
  5
5405
330
4FDB
100
AcDbEntity
  8
1
  6
Continuous
100
AcDbLine
 10
539.7438
 20
249.9658499999999
 30
0.0
 11
539.328799
 21
250.6846519999998
 31
0.0
  0
ARC
  5
5406
330
4FDB
100
AcDbEntity
  8
1
  6
Continuous
100
AcDbCircle
 10
541.0603009999999
 20
251.1205509999999
 30
0.0
 40
1.731502
100
AcDbArc
 50
138.1734519999999
 51
180.0
  0
LINE
  5
5407
330
4FDB
100
AcDbEntity
  8
1
  6
Continuous
100
AcDbLine
 10
539.7438
 20
259.203454
 30
0.0
 11
542.828799
 21
259.203454
 31
0.0
  0
LINE
  5
5408
330
4FDB
100
AcDbEntity
  8
1
  6
Continuous
100
AcDbLine
 10
539.7700429999996
 20
256.8940529999998
 30
0.0
 11
542.828799
 21
256.8940529999998
 31
0.0
  0
LINE
  5
5409
330
4FDB
100
AcDbEntity
  8
1
  6
Continuous
100
AcDbLine
 10
542.828799
 20
259.184652
 30
0.0
 11
544.1287990000001
 21
259.184652
 31
0.0
  0
LINE
  5
540A
330
4FDB
100
AcDbEntity
  8
1
  6
Continuous
100
AcDbLine
 10
544.1287990000001
 20
262.584652
 30
0.0
 11
545.3287989999997
 21
262.584652
 31
0.0
  0
LINE
  5
540B
330
4FDB
100
AcDbEntity
  8
1
  6
Continuous
100
AcDbLine
 10
539.7438
 20
259.203454
 30
0.0
 11
539.328799
 21
258.4846519999999
 31
0.0
  0
ARC
  5
540C
330
4FDB
100
AcDbEntity
  8
1
  6
Continuous
100
AcDbCircle
 10
541.0603009999999
 20
258.0487539999999
 30
0.0
 40
1.731502
100
AcDbArc
 50
180.0
 51
221.8265479999999
  0
LINE
  5
540D
330
4FDB
100
AcDbEntity
  8
1
  6
Continuous
100
AcDbLine
 10
268.3465049999999
 20
63.5
 30
0.0
 11
268.3465049999999
 21
66.5
 31
0.0
  0
ARC
  5
540E
330
4FDB
100
AcDbEntity
  8
1
  6
Continuous
100
AcDbCircle
 10
316.3465049999999
 20
65.0
 30
0.0
 40
60.0
100
AcDbArc
 50
173.674914
 51
186.3250859999999
  0
LINE
  5
540F
330
4FDB
100
AcDbEntity
  8
1
  6
Continuous
100
AcDbLine
 10
262.3465049999999
 20
72.5
 30
0.0
 11
257.7056489999999
 21
72.5
 31
0.0
  0
LINE
  5
5410
330
4FDB
100
AcDbEntity
  8
1
  6
Continuous
100
AcDbLine
 10
262.3465049999999
 20
57.5
 30
0.0
 11
257.7056489999999
 21
57.5
 31
0.0
  0
ARC
  5
5411
330
4FDB
100
AcDbEntity
  8
1
  6
Continuous
100
AcDbCircle
 10
262.3465049999999
 20
66.5
 30
0.0
 40
6.0
100
AcDbArc
 50
0.0
 51
90.0
  0
ARC
  5
5412
330
4FDB
100
AcDbEntity
  8
1
  6
Continuous
100
AcDbCircle
 10
262.3465049999999
 20
63.5
 30
0.0
 40
6.0
100
AcDbArc
 50
270.0
 51
0.0
  0
ARC
  5
5413
330
4FDB
100
AcDbEntity
  8
1
  6
Continuous
100
AcDbCircle
 10
257.7056489999999
 20
71.5
 30
0.0
 40
1.0
100
AcDbArc
 50
90.0
 51
173.674914
  0
ARC
  5
5414
330
4FDB
100
AcDbEntity
  8
1
  6
Continuous
100
AcDbCircle
 10
257.7056489999999
 20
58.5
 30
0.0
 40
1.0
100
AcDbArc
 50
186.3250859999999
 51
270.0
  0
LINE
  5
5415
330
4FDB
100
AcDbEntity
  8
1
  6
Continuous
100
AcDbLine
 10
256.331587
 20
72.95325600000002
 30
0.0
 11
252.978119
 21
76.5
 31
0.0
  0
LINE
  5
5416
330
4FDB
100
AcDbEntity
  8
1
  6
Continuous
100
AcDbLine
 10
256.331587
 20
57.046744
 30
0.0
 11
252.978119
 21
53.5
 31
0.0
  0
ARC
  5
5417
330
4FDB
100
AcDbEntity
  8
1
  6
Continuous
100
AcDbCircle
 10
666.4387739999997
 20
261.584443
 30
0.0
 40
10.0
100
AcDbArc
 50
90.0
 51
95.73648099999999
  0
LINE
  5
5418
330
4FDB
100
AcDbEntity
  8
1
  6
Continuous
100
AcDbLine
 10
677.2761209999997
 20
271.584443
 30
0.0
 11
666.4387739999997
 21
271.584443
 31
0.0
  0
LINE
  5
5419
330
4FDB
100
AcDbEntity
  8
1
  6
Continuous
100
AcDbLine
 10
675.459594
 20
267.7336159999999
 30
0.0
 11
666.390276
 21
267.7336159999999
 31
0.0
  0
LINE
  5
541A
330
4FDB
100
AcDbEntity
  8
1
  6
Continuous
100
AcDbLine
 10
676.8052449999998
 20
237.5844429999999
 30
0.0
 11
678.276121
 21
237.5844429999999
 31
0.0
  0
LINE
  5
541B
330
4FDB
100
AcDbEntity
  8
1
  6
Continuous
100
AcDbLine
 10
676.8052449999998
 20
269.0422509999997
 30
0.0
 11
676.8052449999998
 21
237.5844429999999
 31
0.0
  0
LINE
  5
541C
330
4FDB
100
AcDbEntity
  8
1
  6
Continuous
100
AcDbLine
 10
677.3133989999998
 20
269.0422509999997
 30
0.0
 11
677.3133989999998
 21
237.5844429999999
 31
0.0
  0
ARC
  5
541D
330
4FDB
100
AcDbEntity
  8
1
  6
Continuous
100
AcDbCircle
 10
675.459594
 20
266.733616
 30
0.0
 40
1.0
100
AcDbArc
 50
0.0
 51
90.0
  0
LINE
  5
541E
330
4FDB
100
AcDbEntity
  8
1
  6
Continuous
100
AcDbLine
 10
678.276121
 20
270.584443
 30
0.0
 11
678.276121
 21
237.5844429999999
 31
0.0
  0
ARC
  5
541F
330
4FDB
100
AcDbEntity
  8
1
  6
Continuous
100
AcDbCircle
 10
677.2761209999997
 20
270.584443
 30
0.0
 40
1.0
100
AcDbArc
 50
0.0
 51
90.0
  0
LINE
  5
5420
330
4FDB
100
AcDbEntity
  8
1
  6
Continuous
100
AcDbLine
 10
677.3133989999998
 20
269.0422509999997
 30
0.0
 11
676.8052449999998
 21
269.0422509999997
 31
0.0
  0
LINE
  5
5421
330
4FDB
100
AcDbEntity
  8
1
  6
Continuous
100
AcDbLine
 10
676.8052449999998
 20
269.0422509999997
 30
0.0
 11
676.3167929999997
 21
267.9120629999999
 31
0.0
  0
LINE
  5
5422
330
4FDB
100
AcDbEntity
  8
1
  6
Continuous
100
AcDbLine
 10
677.3133989999998
 20
269.0422509999997
 30
0.0
 11
677.807621
 21
270.753077
 31
0.0
  0
LINE
  5
5423
330
4FDB
100
AcDbEntity
  8
1
  6
Continuous
100
AcDbLine
 10
678.776121
 20
241.084443
 30
0.0
 11
678.276121
 21
240.584443
 31
0.0
  0
LINE
  5
5424
330
4FDB
100
AcDbEntity
  8
1
  6
Continuous
100
AcDbLine
 10
678.276121
 20
241.5844429999999
 30
0.0
 11
678.776121
 21
241.084443
 31
0.0
  0
LINE
  5
5425
330
4FDB
100
AcDbEntity
  8
1
  6
Continuous
100
AcDbLine
 10
678.776121
 20
242.0844429999999
 30
0.0
 11
678.276121
 21
241.5844429999999
 31
0.0
  0
LINE
  5
5426
330
4FDB
100
AcDbEntity
  8
1
  6
Continuous
100
AcDbLine
 10
678.276121
 20
242.584443
 30
0.0
 11
678.776121
 21
242.0844429999999
 31
0.0
  0
LINE
  5
5427
330
4FDB
100
AcDbEntity
  8
1
  6
Continuous
100
AcDbLine
 10
678.776121
 20
243.084443
 30
0.0
 11
678.276121
 21
242.584443
 31
0.0
  0
LINE
  5
5428
330
4FDB
100
AcDbEntity
  8
1
  6
Continuous
100
AcDbLine
 10
678.276121
 20
243.5844429999999
 30
0.0
 11
678.776121
 21
243.084443
 31
0.0
  0
LINE
  5
5429
330
4FDB
100
AcDbEntity
  8
1
  6
Continuous
100
AcDbLine
 10
678.776121
 20
244.0844429999999
 30
0.0
 11
678.276121
 21
243.5844429999999
 31
0.0
  0
LINE
  5
542A
330
4FDB
100
AcDbEntity
  8
1
  6
Continuous
100
AcDbLine
 10
678.276121
 20
244.584443
 30
0.0
 11
678.776121
 21
244.0844429999999
 31
0.0
  0
LINE
  5
542B
330
4FDB
100
AcDbEntity
  8
1
  6
Continuous
100
AcDbLine
 10
678.776121
 20
245.084443
 30
0.0
 11
678.276121
 21
244.584443
 31
0.0
  0
LINE
  5
542C
330
4FDB
100
AcDbEntity
  8
1
  6
Continuous
100
AcDbLine
 10
678.276121
 20
245.5844429999999
 30
0.0
 11
678.776121
 21
245.084443
 31
0.0
  0
LINE
  5
542D
330
4FDB
100
AcDbEntity
  8
1
  6
Continuous
100
AcDbLine
 10
678.776121
 20
246.0844429999999
 30
0.0
 11
678.276121
 21
245.5844429999999
 31
0.0
  0
LINE
  5
542E
330
4FDB
100
AcDbEntity
  8
1
  6
Continuous
100
AcDbLine
 10
678.276121
 20
246.584443
 30
0.0
 11
678.776121
 21
246.0844429999999
 31
0.0
  0
LINE
  5
542F
330
4FDB
100
AcDbEntity
  8
1
  6
Continuous
100
AcDbLine
 10
678.776121
 20
247.084443
 30
0.0
 11
678.276121
 21
246.584443
 31
0.0
  0
LINE
  5
5430
330
4FDB
100
AcDbEntity
  8
1
  6
Continuous
100
AcDbLine
 10
678.276121
 20
247.5844429999999
 30
0.0
 11
678.776121
 21
247.084443
 31
0.0
  0
LINE
  5
5431
330
4FDB
100
AcDbEntity
  8
1
  6
Continuous
100
AcDbLine
 10
678.776121
 20
248.0844429999999
 30
0.0
 11
678.276121
 21
247.5844429999999
 31
0.0
  0
LINE
  5
5432
330
4FDB
100
AcDbEntity
  8
1
  6
Continuous
100
AcDbLine
 10
678.276121
 20
248.5844429999999
 30
0.0
 11
678.776121
 21
248.0844429999999
 31
0.0
  0
LINE
  5
5433
330
4FDB
100
AcDbEntity
  8
1
  6
Continuous
100
AcDbLine
 10
678.776121
 20
249.084443
 30
0.0
 11
678.276121
 21
248.5844429999999
 31
0.0
  0
LINE
  5
5434
330
4FDB
100
AcDbEntity
  8
1
  6
Continuous
100
AcDbLine
 10
678.276121
 20
249.584443
 30
0.0
 11
678.776121
 21
249.084443
 31
0.0
  0
LINE
  5
5435
330
4FDB
100
AcDbEntity
  8
1
  6
Continuous
100
AcDbLine
 10
678.776121
 20
250.0844429999999
 30
0.0
 11
678.276121
 21
249.584443
 31
0.0
  0
LINE
  5
5436
330
4FDB
100
AcDbEntity
  8
1
  6
Continuous
100
AcDbLine
 10
678.276121
 20
250.5844429999999
 30
0.0
 11
678.776121
 21
250.0844429999999
 31
0.0
  0
LINE
  5
5437
330
4FDB
100
AcDbEntity
  8
1
  6
Continuous
100
AcDbLine
 10
678.776121
 20
251.084443
 30
0.0
 11
678.276121
 21
250.5844429999999
 31
0.0
  0
LINE
  5
5438
330
4FDB
100
AcDbEntity
  8
1
  6
Continuous
100
AcDbLine
 10
678.276121
 20
251.584443
 30
0.0
 11
678.776121
 21
251.084443
 31
0.0
  0
LINE
  5
5439
330
4FDB
100
AcDbEntity
  8
1
  6
Continuous
100
AcDbLine
 10
678.776121
 20
252.0844429999999
 30
0.0
 11
678.276121
 21
251.584443
 31
0.0
  0
LINE
  5
543A
330
4FDB
100
AcDbEntity
  8
1
  6
Continuous
100
AcDbLine
 10
678.276121
 20
252.5844429999999
 30
0.0
 11
678.776121
 21
252.0844429999999
 31
0.0
  0
LINE
  5
543B
330
4FDB
100
AcDbEntity
  8
1
  6
Continuous
100
AcDbLine
 10
249.8465049999999
 20
252.0844429999999
 30
0.0
 11
250.3465049999999
 21
251.584443
 31
0.0
  0
LINE
  5
543C
330
4FDB
100
AcDbEntity
  8
1
  6
Continuous
100
AcDbLine
 10
251.8173809999999
 20
269.0422509999997
 30
0.0
 11
251.8173809999999
 21
237.5844429999999
 31
0.0
  0
LINE
  5
543D
330
4FDB
100
AcDbEntity
  8
1
  6
Continuous
100
AcDbLine
 10
251.309227
 20
269.0422509999997
 30
0.0
 11
251.309227
 21
237.5844429999999
 31
0.0
  0
LINE
  5
543E
330
4FDB
100
AcDbEntity
  8
1
  6
Continuous
100
AcDbLine
 10
250.3465049999999
 20
270.584443
 30
0.0
 11
250.3465049999999
 21
237.5844429999999
 31
0.0
  0
LINE
  5
543F
330
4FDB
100
AcDbEntity
  8
1
  6
Continuous
100
AcDbLine
 10
249.8465049999999
 20
241.084443
 30
0.0
 11
250.3465049999999
 21
240.584443
 31
0.0
  0
LINE
  5
5440
330
4FDB
100
AcDbEntity
  8
1
  6
Continuous
100
AcDbLine
 10
251.8173809999999
 20
237.5844429999999
 30
0.0
 11
250.3465049999999
 21
237.5844429999999
 31
0.0
  0
LINE
  5
5441
330
4FDB
100
AcDbEntity
  8
1
  6
Continuous
100
AcDbLine
 10
250.3465049999999
 20
246.584443
 30
0.0
 11
249.8465049999999
 21
246.0844429999999
 31
0.0
  0
LINE
  5
5442
330
4FDB
100
AcDbEntity
  8
1
  6
Continuous
100
AcDbLine
 10
249.8465049999999
 20
247.084443
 30
0.0
 11
250.3465049999999
 21
246.584443
 31
0.0
  0
LINE
  5
5443
330
4FDB
100
AcDbEntity
  8
1
  6
Continuous
100
AcDbLine
 10
250.3465049999999
 20
247.5844429999999
 30
0.0
 11
249.8465049999999
 21
247.084443
 31
0.0
  0
LINE
  5
5444
330
4FDB
100
AcDbEntity
  8
1
  6
Continuous
100
AcDbLine
 10
249.8465049999999
 20
248.0844429999999
 30
0.0
 11
250.3465049999999
 21
247.5844429999999
 31
0.0
  0
LINE
  5
5445
330
4FDB
100
AcDbEntity
  8
1
  6
Continuous
100
AcDbLine
 10
250.3465049999999
 20
248.5844429999999
 30
0.0
 11
249.8465049999999
 21
248.0844429999999
 31
0.0
  0
LINE
  5
5446
330
4FDB
100
AcDbEntity
  8
1
  6
Continuous
100
AcDbLine
 10
249.8465049999999
 20
249.084443
 30
0.0
 11
250.3465049999999
 21
248.5844429999999
 31
0.0
  0
LINE
  5
5447
330
4FDB
100
AcDbEntity
  8
1
  6
Continuous
100
AcDbLine
 10
250.3465049999999
 20
249.584443
 30
0.0
 11
249.8465049999999
 21
249.084443
 31
0.0
  0
LINE
  5
5448
330
4FDB
100
AcDbEntity
  8
1
  6
Continuous
100
AcDbLine
 10
249.8465049999999
 20
250.0844429999999
 30
0.0
 11
250.3465049999999
 21
249.584443
 31
0.0
  0
LINE
  5
5449
330
4FDB
100
AcDbEntity
  8
1
  6
Continuous
100
AcDbLine
 10
250.3465049999999
 20
250.5844429999999
 30
0.0
 11
249.8465049999999
 21
250.0844429999999
 31
0.0
  0
LINE
  5
544A
330
4FDB
100
AcDbEntity
  8
1
  6
Continuous
100
AcDbLine
 10
249.8465049999999
 20
251.084443
 30
0.0
 11
250.3465049999999
 21
250.5844429999999
 31
0.0
  0
LINE
  5
544B
330
4FDB
100
AcDbEntity
  8
1
  6
Continuous
100
AcDbLine
 10
250.3465049999999
 20
251.584443
 30
0.0
 11
249.8465049999999
 21
251.084443
 31
0.0
  0
LINE
  5
544C
330
4FDB
100
AcDbEntity
  8
1
  6
Continuous
100
AcDbLine
 10
250.3465049999999
 20
241.5844429999999
 30
0.0
 11
249.8465049999999
 21
241.084443
 31
0.0
  0
LINE
  5
544D
330
4FDB
100
AcDbEntity
  8
1
  6
Continuous
100
AcDbLine
 10
249.8465049999999
 20
242.0844429999999
 30
0.0
 11
250.3465049999999
 21
241.5844429999999
 31
0.0
  0
LINE
  5
544E
330
4FDB
100
AcDbEntity
  8
1
  6
Continuous
100
AcDbLine
 10
250.3465049999999
 20
242.584443
 30
0.0
 11
249.8465049999999
 21
242.0844429999999
 31
0.0
  0
LINE
  5
544F
330
4FDB
100
AcDbEntity
  8
1
  6
Continuous
100
AcDbLine
 10
249.8465049999999
 20
243.084443
 30
0.0
 11
250.3465049999999
 21
242.584443
 31
0.0
  0
LINE
  5
5450
330
4FDB
100
AcDbEntity
  8
1
  6
Continuous
100
AcDbLine
 10
250.3465049999999
 20
243.5844429999999
 30
0.0
 11
249.8465049999999
 21
243.084443
 31
0.0
  0
LINE
  5
5451
330
4FDB
100
AcDbEntity
  8
1
  6
Continuous
100
AcDbLine
 10
249.8465049999999
 20
244.0844429999999
 30
0.0
 11
250.3465049999999
 21
243.5844429999999
 31
0.0
  0
LINE
  5
5452
330
4FDB
100
AcDbEntity
  8
1
  6
Continuous
100
AcDbLine
 10
250.3465049999999
 20
244.584443
 30
0.0
 11
249.8465049999999
 21
244.0844429999999
 31
0.0
  0
LINE
  5
5453
330
4FDB
100
AcDbEntity
  8
1
  6
Continuous
100
AcDbLine
 10
249.8465049999999
 20
245.084443
 30
0.0
 11
250.3465049999999
 21
244.584443
 31
0.0
  0
LINE
  5
5454
330
4FDB
100
AcDbEntity
  8
1
  6
Continuous
100
AcDbLine
 10
250.3465049999999
 20
245.5844429999999
 30
0.0
 11
249.8465049999999
 21
245.084443
 31
0.0
  0
LINE
  5
5455
330
4FDB
100
AcDbEntity
  8
1
  6
Continuous
100
AcDbLine
 10
249.8465049999999
 20
246.0844429999999
 30
0.0
 11
250.3465049999999
 21
245.5844429999999
 31
0.0
  0
LINE
  5
5456
330
4FDB
100
AcDbEntity
  8
1
  6
Continuous
100
AcDbLine
 10
250.3465049999999
 20
252.5844429999999
 30
0.0
 11
249.8465049999999
 21
252.0844429999999
 31
0.0
  0
LINE
  5
5457
330
4FDB
100
AcDbEntity
  8
1
  6
Continuous
100
AcDbLine
 10
253.163032
 20
267.7336159999999
 30
0.0
 11
262.2323499999998
 21
267.7336159999999
 31
0.0
  0
LINE
  5
5458
330
4FDB
100
AcDbEntity
  8
1
  6
Continuous
100
AcDbLine
 10
251.3465049999997
 20
271.584443
 30
0.0
 11
262.183852
 21
271.584443
 31
0.0
  0
ARC
  5
5459
330
4FDB
100
AcDbEntity
  8
1
  6
Continuous
100
AcDbCircle
 10
251.3465049999997
 20
270.584443
 30
0.0
 40
1.0
100
AcDbArc
 50
90.0
 51
180.0
  0
LINE
  5
545A
330
4FDB
100
AcDbEntity
  8
1
  6
Continuous
100
AcDbLine
 10
251.309227
 20
269.0422509999997
 30
0.0
 11
251.8173809999999
 21
269.0422509999997
 31
0.0
  0
LINE
  5
545B
330
4FDB
100
AcDbEntity
  8
1
  6
Continuous
100
AcDbLine
 10
251.8173809999999
 20
269.0422509999997
 30
0.0
 11
252.305833
 21
267.9120629999999
 31
0.0
  0
LINE
  5
545C
330
4FDB
100
AcDbEntity
  8
1
  6
Continuous
100
AcDbLine
 10
251.309227
 20
269.0422509999997
 30
0.0
 11
250.8150049999999
 21
270.753077
 31
0.0
  0
ARC
  5
545D
330
4FDB
100
AcDbEntity
  8
1
  6
Continuous
100
AcDbCircle
 10
253.163032
 20
266.733616
 30
0.0
 40
1.0
100
AcDbArc
 50
90.0
 51
180.0
  0
ARC
  5
545E
330
4FDB
100
AcDbEntity
  8
1
  6
Continuous
100
AcDbCircle
 10
262.181773
 20
261.584652
 30
0.0
 40
6.149172
100
AcDbArc
 50
84.24404699999998
 51
89.528738
  0
ARC
  5
545F
330
4FDB
100
AcDbEntity
  8
1
  6
Continuous
100
AcDbCircle
 10
262.183852
 20
261.584443
 30
0.0
 40
10.0
100
AcDbArc
 50
84.26351899999998
 51
90.0
  0
ARC
  5
5460
330
4FDB
100
AcDbEntity
  8
1
  6
Continuous
100
AcDbCircle
 10
264.3465049999999
 20
55.47010799999998
 30
0.0
 40
1.0
100
AcDbArc
 50
180.0
 51
290.0
  0
ARC
  5
5461
330
4FDB
100
AcDbEntity
  8
1
  6
Continuous
100
AcDbCircle
 10
264.3465049999999
 20
56.791796
 30
0.0
 40
1.0
100
AcDbArc
 50
106.60155
 51
180.0
  0
LINE
  5
5462
330
4FDB
100
AcDbEntity
  8
1
  6
Continuous
100
AcDbLine
 10
263.3465049999999
 20
56.791796
 30
0.0
 11
263.3465049999999
 21
55.47010799999998
 31
0.0
  0
LINE
  5
5463
330
4FDB
100
AcDbEntity
  8
1
  6
Continuous
100
AcDbLine
 10
269.3465049999999
 20
56.22578199999999
 30
0.0
 11
264.688525
 21
54.53041500000001
 31
0.0
  0
ARC
  5
5464
330
4FDB
100
AcDbEntity
  8
1
  6
Continuous
100
AcDbCircle
 10
264.3465049999999
 20
74.52989200000001
 30
0.0
 40
1.0
100
AcDbArc
 50
70.0
 51
180.0
  0
ARC
  5
5465
330
4FDB
100
AcDbEntity
  8
1
  6
Continuous
100
AcDbCircle
 10
264.3465049999999
 20
73.20820400000002
 30
0.0
 40
1.0
100
AcDbArc
 50
180.0
 51
253.3984499999999
  0
LINE
  5
5466
330
4FDB
100
AcDbEntity
  8
1
  6
Continuous
100
AcDbLine
 10
263.3465049999999
 20
73.20820400000002
 30
0.0
 11
263.3465049999999
 21
74.52989200000001
 31
0.0
  0
LINE
  5
5467
330
4FDB
100
AcDbEntity
  8
1
  6
Continuous
100
AcDbLine
 10
269.3465049999999
 20
73.774218
 30
0.0
 11
264.688525
 21
75.46958499999998
 31
0.0
  0
LINE
  5
5468
330
4FDB
100
AcDbEntity
  8
4
  6
CENTER
100
AcDbLine
 10
478.311313
 20
306.1286809999999
 30
0.0
 11
450.311313
 21
306.1286809999999
 31
0.0
  0
CIRCLE
  5
5469
330
4FDB
100
AcDbEntity
  8
1
  6
Continuous
100
AcDbCircle
 10
464.3113129999998
 20
306.1286809999999
 30
0.0
 40
9.0
  0
CIRCLE
  5
546A
330
4FDB
100
AcDbEntity
  8
1
  6
Continuous
100
AcDbCircle
 10
464.3113129999998
 20
306.1286809999999
 30
0.0
 40
8.0
  0
LINE
  5
546B
330
4FDB
100
AcDbEntity
  8
4
  6
CENTER
100
AcDbLine
 10
464.3113129999998
 20
292.1286809999998
 30
0.0
 11
464.3113129999998
 21
320.1286809999999
 31
0.0
  0
LINE
  5
546C
330
4FDB
100
AcDbEntity
  8
1
  6
Continuous
100
AcDbLine
 10
468.3113129999998
 20
303.818681
 30
0.0
 11
468.3113129999998
 21
308.437681
 31
0.0
  0
ARC
  5
546D
330
4FDB
100
AcDbEntity
  8
1
  6
Continuous
100
AcDbCircle
 10
464.3113129999998
 20
306.1286809999999
 30
0.0
 40
4.599999999999996
100
AcDbArc
 50
330.408154
 51
29.591846
  0
LINE
  5
546E
330
4FDB
100
AcDbEntity
  8
1
  6
Continuous
100
AcDbLine
 10
460.3113129999998
 20
303.818681
 30
0.0
 11
460.3113129999998
 21
308.437681
 31
0.0
  0
LINE
  5
546F
330
4FDB
100
AcDbEntity
  8
1
  6
Continuous
100
AcDbLine
 10
464.3113129999998
 20
305.1327259999998
 30
0.0
 11
464.901034
 21
304.918085
 31
0.0
  0
LINE
  5
5470
330
4FDB
100
AcDbEntity
  8
1
  6
Continuous
100
AcDbLine
 10
462.3434599999998
 20
304.754798
 30
0.0
 11
463.100717
 21
305.5389599999998
 31
0.0
  0
LINE
  5
5471
330
4FDB
100
AcDbEntity
  8
1
  6
Continuous
100
AcDbLine
 10
464.3113129999998
 20
305.1327259999998
 30
0.0
 11
463.721592
 21
304.918085
 31
0.0
  0
ARC
  5
5472
330
4FDB
100
AcDbEntity
  8
1
  6
Continuous
100
AcDbCircle
 10
464.3113129999998
 20
306.1286809999999
 30
0.0
 40
4.599999999999996
100
AcDbArc
 50
150.408154
 51
209.591846
  0
LINE
  5
5473
330
4FDB
100
AcDbEntity
  8
1
  6
Continuous
100
AcDbLine
 10
466.2791659999999
 20
304.754798
 30
0.0
 11
465.521909
 21
305.5389599999998
 31
0.0
  0
CIRCLE
  5
5474
330
4FDB
100
AcDbEntity
  8
1
  6
Continuous
100
AcDbCircle
 10
464.3113129999998
 20
306.1286809999999
 30
0.0
 40
4.0
  0
CIRCLE
  5
5475
330
4FDB
100
AcDbEntity
  8
1
  6
Continuous
100
AcDbCircle
 10
464.3113129999998
 20
306.1286809999999
 30
0.0
 40
3.1
  0
LINE
  5
5476
330
4FDB
100
AcDbEntity
  8
1
  6
Continuous
100
AcDbLine
 10
465.685196
 20
304.1608279999999
 30
0.0
 11
464.901034
 21
304.918085
 31
0.0
  0
LINE
  5
5477
330
4FDB
100
AcDbEntity
  8
1
  6
Continuous
100
AcDbLine
 10
468.3113129999998
 20
303.819681
 30
0.0
 11
464.3113129999998
 21
301.509681
 31
0.0
  0
ARC
  5
5478
330
4FDB
100
AcDbEntity
  8
1
  6
Continuous
100
AcDbCircle
 10
464.3113129999998
 20
306.1286809999999
 30
0.0
 40
4.599999999999996
100
AcDbArc
 50
270.412368
 51
329.6005
  0
LINE
  5
5479
330
4FDB
100
AcDbEntity
  8
1
  6
Continuous
100
AcDbLine
 10
462.93743
 20
304.1608279999999
 30
0.0
 11
463.721592
 21
304.918085
 31
0.0
  0
ARC
  5
547A
330
4FDB
100
AcDbEntity
  8
1
  6
Continuous
100
AcDbCircle
 10
464.3113129999998
 20
306.1286809999999
 30
0.0
 40
2.399999999999999
100
AcDbArc
 50
214.921342
 51
235.0786579999998
  0
LINE
  5
547B
330
4FDB
100
AcDbEntity
  8
1
  6
Continuous
100
AcDbLine
 10
460.3113129999998
 20
303.818681
 30
0.0
 11
464.3113129999998
 21
301.509681
 31
0.0
  0
ARC
  5
547C
330
4FDB
100
AcDbEntity
  8
1
  6
Continuous
100
AcDbCircle
 10
464.3113129999998
 20
306.1286809999999
 30
0.0
 40
4.599999999999996
100
AcDbArc
 50
210.421167
 51
269.5874509999999
  0
ARC
  5
547D
330
4FDB
100
AcDbEntity
  8
1
  6
Continuous
100
AcDbCircle
 10
464.3113129999998
 20
306.1286809999999
 30
0.0
 40
2.399999999999999
100
AcDbArc
 50
304.921342
 51
325.078658
  0
LINE
  5
547E
330
4FDB
100
AcDbEntity
  8
1
  6
Continuous
100
AcDbLine
 10
464.3113129999998
 20
310.747681
 30
0.0
 11
468.3113129999998
 21
308.437681
 31
0.0
  0
LINE
  5
547F
330
4FDB
100
AcDbEntity
  8
1
  6
Continuous
100
AcDbLine
 10
466.2791659999999
 20
307.502564
 30
0.0
 11
465.521909
 21
306.718402
 31
0.0
  0
LINE
  5
5480
330
4FDB
100
AcDbEntity
  8
1
  6
Continuous
100
AcDbLine
 10
465.685196
 20
308.0965339999999
 30
0.0
 11
464.901034
 21
307.3392769999998
 31
0.0
  0
ARC
  5
5481
330
4FDB
100
AcDbEntity
  8
1
  6
Continuous
100
AcDbCircle
 10
464.3113129999998
 20
306.1286809999999
 30
0.0
 40
4.599999999999996
100
AcDbArc
 50
30.3995
 51
89.58763199999998
  0
LINE
  5
5482
330
4FDB
100
AcDbEntity
  8
1
  6
Continuous
100
AcDbLine
 10
465.307268
 20
306.1286809999999
 30
0.0
 11
465.521909
 21
306.718402
 31
0.0
  0
LINE
  5
5483
330
4FDB
100
AcDbEntity
  8
1
  6
Continuous
100
AcDbLine
 10
463.315358
 20
306.1286809999999
 30
0.0
 11
463.100717
 21
306.718402
 31
0.0
  0
LINE
  5
5484
330
4FDB
100
AcDbEntity
  8
1
  6
Continuous
100
AcDbLine
 10
465.307268
 20
306.1286809999999
 30
0.0
 11
465.521909
 21
305.5389599999998
 31
0.0
  0
LINE
  5
5485
330
4FDB
100
AcDbEntity
  8
1
  6
Continuous
100
AcDbLine
 10
463.315358
 20
306.1286809999999
 30
0.0
 11
463.100717
 21
305.5389599999998
 31
0.0
  0
ARC
  5
5486
330
4FDB
100
AcDbEntity
  8
1
  6
Continuous
100
AcDbCircle
 10
464.3113129999998
 20
306.1286809999999
 30
0.0
 40
2.399999999999999
100
AcDbArc
 50
124.921342
 51
145.0786579999999
  0
LINE
  5
5487
330
4FDB
100
AcDbEntity
  8
1
  6
Continuous
100
AcDbLine
 10
464.3113129999998
 20
310.747681
 30
0.0
 11
460.3113129999998
 21
308.437681
 31
0.0
  0
LINE
  5
5488
330
4FDB
100
AcDbEntity
  8
1
  6
Continuous
100
AcDbLine
 10
464.3113129999998
 20
307.1246359999999
 30
0.0
 11
464.901034
 21
307.3392769999998
 31
0.0
  0
LINE
  5
5489
330
4FDB
100
AcDbEntity
  8
1
  6
Continuous
100
AcDbLine
 10
464.3113129999998
 20
307.1246359999999
 30
0.0
 11
463.721592
 21
307.3392769999998
 31
0.0
  0
LINE
  5
548A
330
4FDB
100
AcDbEntity
  8
1
  6
Continuous
100
AcDbLine
 10
462.93743
 20
308.0965339999999
 30
0.0
 11
463.721592
 21
307.3392769999998
 31
0.0
  0
LINE
  5
548B
330
4FDB
100
AcDbEntity
  8
1
  6
Continuous
100
AcDbLine
 10
462.3434599999998
 20
307.502564
 30
0.0
 11
463.100717
 21
306.718402
 31
0.0
  0
ARC
  5
548C
330
4FDB
100
AcDbEntity
  8
1
  6
Continuous
100
AcDbCircle
 10
464.3113129999998
 20
306.1286809999999
 30
0.0
 40
4.599999999999996
100
AcDbArc
 50
90.412368
 51
149.6005
  0
ARC
  5
548D
330
4FDB
100
AcDbEntity
  8
1
  6
Continuous
100
AcDbCircle
 10
464.3113129999998
 20
306.1286809999999
 30
0.0
 40
2.399999999999999
100
AcDbArc
 50
34.92134199999998
 51
55.078658
  0
CIRCLE
  5
548E
330
4FDB
100
AcDbEntity
  8
1
  6
Continuous
100
AcDbCircle
 10
464.3113129999998
 20
254.584652
 30
0.0
 40
7.049999999999998
  0
CIRCLE
  5
548F
330
4FDB
100
AcDbEntity
  8
1
  6
Continuous
100
AcDbCircle
 10
464.3113129999998
 20
254.584652
 30
0.0
 40
9.5
  0
LINE
  5
5490
330
4FDB
100
AcDbEntity
  8
1
  6
Continuous
100
AcDbLine
 10
458.937301
 20
254.37252
 30
0.0
 11
464.099181
 21
249.210641
 31
0.0
  0
LINE
  5
5491
330
4FDB
100
AcDbEntity
  8
1
  6
Continuous
100
AcDbLine
 10
464.523445
 20
249.210641
 30
0.0
 11
469.685324
 21
254.37252
 31
0.0
  0
ARC
  5
5492
330
4FDB
100
AcDbEntity
  8
1
  6
Continuous
100
AcDbCircle
 10
464.3113129999998
 20
249.4227729999999
 30
0.0
 40
0.3
100
AcDbArc
 50
225.0
 51
315.0
  0
CIRCLE
  5
5493
330
4FDB
100
AcDbEntity
  8
2
  6
Continuous
100
AcDbCircle
 10
464.3113129999998
 20
254.584652
 30
0.0
 40
2.5
  0
CIRCLE
  5
5494
330
4FDB
100
AcDbEntity
  8
1
  6
Continuous
100
AcDbCircle
 10
464.3113129999998
 20
254.584652
 30
0.0
 40
2.066999999999996
  0
LINE
  5
5495
330
4FDB
100
AcDbEntity
  8
1
  6
Continuous
100
AcDbLine
 10
464.523445
 20
259.958664
 30
0.0
 11
469.685324
 21
254.7967839999997
 31
0.0
  0
ARC
  5
5496
330
4FDB
100
AcDbEntity
  8
1
  6
Continuous
100
AcDbCircle
 10
464.3113129999998
 20
259.7465319999999
 30
0.0
 40
0.3
100
AcDbArc
 50
45.0
 51
135.0
  0
ARC
  5
5497
330
4FDB
100
AcDbEntity
  8
1
  6
Continuous
100
AcDbCircle
 10
459.1494329999998
 20
254.584652
 30
0.0
 40
0.3
100
AcDbArc
 50
135.0
 51
225.0
  0
LINE
  5
5498
330
4FDB
100
AcDbEntity
  8
1
  6
Continuous
100
AcDbLine
 10
458.937301
 20
254.7967839999997
 30
0.0
 11
464.099181
 21
259.958664
 31
0.0
  0
ARC
  5
5499
330
4FDB
100
AcDbEntity
  8
1
  6
Continuous
100
AcDbCircle
 10
469.4731919999998
 20
254.584652
 30
0.0
 40
0.3
100
AcDbArc
 50
315.0
 51
45.0
  0
ENDSEC
  0
SECTION
  2
OBJECTS
  0
DICTIONARY
  5
4FC9
330
0
100
AcDbDictionary
281
     1
  3
ACAD_CIP_PREVIOUS_PRODUCT_INFO
350
54FF
  3
ACAD_COLOR
350
54E1
  3
ACAD_DETAILVIEWSTYLE
350
54FA
  3
ACAD_GROUP
350
4FCA
  3
ACAD_LAYOUT
350
4FD6
  3
ACAD_MATERIAL
350
54AF
  3
ACAD_MLEADERSTYLE
350
54F6
  3
ACAD_MLINESTYLE
350
4FD3
  3
ACAD_PLOTSETTINGS
350
4FD5
  3
ACAD_PLOTSTYLENAME
350
54AD
  3
ACAD_SCALELIST
350
54E4
  3
ACAD_SECTIONVIEWSTYLE
350
54F8
  3
ACAD_TABLESTYLE
350
54E2
  3
ACAD_VISUALSTYLE
350
54C8
  3
ACDB_RECOMPOSE_DATA
350
551D
  3
AcDbVariableDictionary
350
5510
  3
DWGPROPS
350
551E
  0
DICTIONARY
  5
5500
330
4FCD
100
AcDbDictionary
280
     1
281
     1
  3
ADSK_XREC_LAYER_RECONCILED
360
5501
  0
DICTIONARY
  5
5502
330
4FE3
100
AcDbDictionary
280
     1
281
     1
  3
ADSK_XREC_LAYER_RECONCILED
360
5503
  0
DICTIONARY
  5
5504
330
4FE4
100
AcDbDictionary
280
     1
281
     1
  3
ADSK_XREC_LAYER_RECONCILED
360
5505
  0
DICTIONARY
  5
5506
330
4FE5
100
AcDbDictionary
280
     1
281
     1
  3
ADSK_XREC_LAYER_RECONCILED
360
5507
  0
DICTIONARY
  5
5508
330
4FE6
100
AcDbDictionary
280
     1
281
     1
  3
ADSK_XREC_LAYER_RECONCILED
360
5509
  0
DICTIONARY
  5
550A
330
4FE7
100
AcDbDictionary
280
     1
281
     1
  3
ADSK_XREC_LAYER_RECONCILED
360
550B
  0
DICTIONARY
  5
550C
330
4FE8
100
AcDbDictionary
280
     1
281
     1
  3
ADSK_XREC_LAYER_RECONCILED
360
550D
  0
DICTIONARY
  5
550E
330
4FE9
100
AcDbDictionary
280
     1
281
     1
  3
ADSK_XREC_LAYER_RECONCILED
360
550F
  0
DICTIONARY
  5
54A8
330
4FDB
100
AcDbDictionary
281
     1
  3
ACAD_LAYOUTSELFREF
350
54A9
  0
DICTIONARY
  5
54A6
330
4FD7
100
AcDbDictionary
281
     1
  3
ACAD_LAYOUTSELFREF
350
54A7
  0
XRECORD
  5
54FF
102
{ACAD_REACTORS
330
4FC9
102
}
330
4FC9
100
AcDbXrecord
280
     1
300
ACDLT
300
2014
300
ACDLT_F_S
  0
DICTIONARY
  5
54E1
102
{ACAD_REACTORS
330
4FC9
102
}
330
4FC9
100
AcDbDictionary
281
     1
  0
DICTIONARY
  5
54FA
102
{ACAD_REACTORS
330
4FC9
102
}
330
4FC9
100
AcDbDictionary
281
     1
  3
Imperial24
350
54FB
  0
DICTIONARY
  5
4FCA
102
{ACAD_REACTORS
330
4FC9
102
}
330
4FC9
100
AcDbDictionary
281
     1
  0
DICTIONARY
  5
4FD6
102
{ACAD_REACTORS
330
4FC9
102
}
330
4FC9
100
AcDbDictionary
281
     1
  3
Model
350
54FC
  3
レイアウト1
350
54FD
  0
DICTIONARY
  5
54AF
102
{ACAD_REACTORS
330
4FC9
102
}
330
4FC9
100
AcDbDictionary
281
     1
  3
ByBlock
350
54B8
  3
ByLayer
350
54B0
  3
Global
350
54C0
  0
DICTIONARY
  5
54F6
102
{ACAD_REACTORS
330
4FC9
102
}
330
4FC9
100
AcDbDictionary
281
     1
  3
Standard
350
54F7
  0
DICTIONARY
  5
4FD3
102
{ACAD_REACTORS
330
4FC9
102
}
330
4FC9
100
AcDbDictionary
281
     1
  3
STANDARD
350
4FD4
  0
DICTIONARY
  5
4FD5
102
{ACAD_REACTORS
330
4FC9
102
}
330
4FC9
100
AcDbDictionary
281
     1
  0
ACDBDICTIONARYWDFLT
  5
54AD
102
{ACAD_REACTORS
330
4FC9
102
}
330
4FC9
100
AcDbDictionary
281
     1
  3
Normal
350
54AE
100
AcDbDictionaryWithDefault
340
54AE
  0
DICTIONARY
  5
54E4
102
{ACAD_REACTORS
330
4FC9
102
}
330
4FC9
100
AcDbDictionary
281
     1
  3
A0
350
54E5
  3
A1
350
54E6
  3
A2
350
54E7
  3
A3
350
54E8
  3
A4
350
54E9
  3
A5
350
54EA
  3
A6
350
54EB
  3
A7
350
54EC
  3
A8
350
54ED
  3
A9
350
54EE
  3
B0
350
54EF
  3
B1
350
54F0
  3
B2
350
54F1
  3
B3
350
54F2
  3
B4
350
54F3
  3
B5
350
54F4
  3
B6
350
54F5
  0
DICTIONARY
  5
54F8
102
{ACAD_REACTORS
330
4FC9
102
}
330
4FC9
100
AcDbDictionary
281
     1
  3
Imperial24
350
54F9
  0
DICTIONARY
  5
54E2
102
{ACAD_REACTORS
330
4FC9
102
}
330
4FC9
100
AcDbDictionary
281
     1
  3
Standard
350
54E3
  0
DICTIONARY
  5
54C8
102
{ACAD_REACTORS
330
4FC9
102
}
330
4FC9
100
AcDbDictionary
281
     1
  3
2dWireframe
350
54CE
  3
Basic
350
54CD
  3
Brighten
350
54D4
  3
ColorChange
350
54D8
  3
Conceptual
350
54D1
  3
Dim
350
54D3
  3
EdgeColorOff
350
54E0
  3
Facepattern
350
54D7
  3
Flat
350
54C9
  3
FlatWithEdges
350
54CA
  3
Gouraud
350
54CB
  3
GouraudWithEdges
350
54CC
  3
Hidden
350
54D0
  3
JitterOff
350
54DE
  3
Linepattern
350
54D6
  3
OverhangOff
350
54DF
  3
Realistic
350
54D2
  3
Shaded
350
54DD
  3
Shaded with edges
350
54DC
  3
Shades of Gray
350
54D9
  3
Sketchy
350
54DA
  3
Thicken
350
54D5
  3
Wireframe
350
54CF
  3
X-Ray
350
54DB
  0
XRECORD
  5
551D
102
{ACAD_REACTORS
330
4FC9
102
}
330
4FC9
100
AcDbXrecord
280
     1
 90
        1
330
54E3
  0
DICTIONARY
  5
5510
102
{ACAD_REACTORS
330
4FC9
102
}
330
4FC9
100
AcDbDictionary
281
     1
  3
CANNOSCALE
350
5515
  3
CMLEADERSTYLE
350
5512
  3
CTABLESTYLE
350
5511
  3
CVIEWDETAILSTYLE
350
5513
  3
CVIEWSECTIONSTYLE
350
5514
  3
DIMASSOC
350
5518
  3
INDEXCTL
350
5517
  3
SORTENTS
350
5516
  3
XCLIPFRAME
350
5519
  0
XRECORD
  5
551E
102
{ACAD_REACTORS
330
4FC9
102
}
330
4FC9
100
AcDbXrecord
280
     1
  1
DWGPROPS COOKIE
  2

  3

  4

  6

  7

  8
Yoshitsune
  9

300
=
301
=
302
=
303
=
304
=
305
=
306
=
307
=
308
=
309
=
 40
0.1846044212962963
 41
2451641.656689005
 42
2457192.641551285
  1

 90
        0
  0
XRECORD
  5
5501
102
{ACAD_REACTORS
330
5500
102
}
330
5500
100
AcDbXrecord
280
     1
290
     1
  0
XRECORD
  5
5503
102
{ACAD_REACTORS
330
5502
102
}
330
5502
100
AcDbXrecord
280
     1
290
     1
  0
XRECORD
  5
5505
102
{ACAD_REACTORS
330
5504
102
}
330
5504
100
AcDbXrecord
280
     1
290
     1
  0
XRECORD
  5
5507
102
{ACAD_REACTORS
330
5506
102
}
330
5506
100
AcDbXrecord
280
     1
290
     1
  0
XRECORD
  5
5509
102
{ACAD_REACTORS
330
5508
102
}
330
5508
100
AcDbXrecord
280
     1
290
     1
  0
XRECORD
  5
550B
102
{ACAD_REACTORS
330
550A
102
}
330
550A
100
AcDbXrecord
280
     1
290
     1
  0
XRECORD
  5
550D
102
{ACAD_REACTORS
330
550C
102
}
330
550C
100
AcDbXrecord
280
     1
290
     1
  0
XRECORD
  5
550F
102
{ACAD_REACTORS
330
550E
102
}
330
550E
100
AcDbXrecord
280
     1
290
     1
  0
XRECORD
  5
54A9
102
{ACAD_REACTORS
330
54A8
102
}
330
54A8
100
AcDbXrecord
280
     1
340
4FDB
  0
XRECORD
  5
54A7
102
{ACAD_REACTORS
330
54A6
102
}
330
54A6
100
AcDbXrecord
280
     1
340
4FD7
  0
ACDBDETAILVIEWSTYLE
  5
54FB
102
{ACAD_XDICTIONARY
360
5556
102
}
102
{ACAD_REACTORS
330
54FA
102
}
330
54FA
100
AcDbModelDocViewStyle
 70
     0
  3
Imperial24
290
     0
100
AcDbDetailViewStyle
 70
     0
 71
     0
 90
        3
 71
     1
340
4FCE
 40
0.24
340
0
 40
0.24
300

 40
0.36
280
     3
 71
     2
340
4FD2
 90
       25
 71
     3
340
4FCE
 40
0.24
 90
        1
 40
0.75
 90
        1
300
%<\AcVar ViewType \f "%tc1">% %<\AcVar ViewDetailId>%\PSCALE %<\AcVar ViewScale \f "%sn">%
 71
     4
340
4FD2
 90
       25
340
4FD2
 90
       25
280
     0
  0
LAYOUT
  5
54FC
102
{ACAD_XDICTIONARY
360
5558
102
}
102
{ACAD_REACTORS
330
4FD6
102
}
330
4FD6
100
AcDbPlotSettings
  1

  2
Canon LBP9100C
  4

  6

 40
0.0
 41
0.0
 42
0.0
 43
0.0
 44
0.0
 45
0.0
 46
0.0
 47
0.0
 48
0.0
 49
0.0
140
0.0
141
0.0
142
1.0
143
1.0
 70
  1712
 72
     0
 73
     0
 74
     0
  7

 75
     0
147
1.0
148
0.0
149
0.0
100
AcDbLayout
  1
Model
 70
     1
 71
     0
 10
0.0
 20
0.0
 11
12.0
 21
9.0
 12
0.0
 22
0.0
 32
0.0
 14
0.0
 24
0.0
 34
0.0
 15
0.0
 25
0.0
 35
0.0
146
0.0
 13
0.0
 23
0.0
 33
0.0
 16
1.0
 26
0.0
 36
0.0
 17
0.0
 27
1.0
 37
0.0
 76
     0
330
4FDB
331
54A5
  0
LAYOUT
  5
54FD
102
{ACAD_XDICTIONARY
360
555A
102
}
102
{ACAD_REACTORS
330
4FD6
102
}
330
4FD6
100
AcDbPlotSettings
  1

  2
Canon LBP9100C
  4

  6

 40
0.0
 41
0.0
 42
0.0
 43
0.0
 44
0.0
 45
0.0
 46
0.0
 47
0.0
 48
0.0
 49
0.0
140
0.0
141
0.0
142
1.0
143
1.0
 70
   688
 72
     0
 73
     0
 74
     5
  7

 75
    16
147
1.0
148
0.0
149
0.0
100
AcDbLayout
  1
レイアウト1
 70
     1
 71
     1
 10
0.0
 20
0.0
 11
420.0
 21
297.0
 12
0.0
 22
0.0
 32
0.0
 14
1.000000000000000E+20
 24
1.000000000000000E+20
 34
1.000000000000000E+20
 15
-1.000000000000000E+20
 25
-1.000000000000000E+20
 35
-1.000000000000000E+20
146
0.0
 13
0.0
 23
0.0
 33
0.0
 16
1.0
 26
0.0
 36
0.0
 17
0.0
 27
1.0
 37
0.0
 76
     0
330
4FD7
  0
MATERIAL
  5
54B8
102
{ACAD_XDICTIONARY
360
54B9
102
}
102
{ACAD_REACTORS
330
54AF
102
}
330
54AF
100
AcDbMaterial
  1
ByBlock
 72
     0
 43
0.0208333333333333
 43
0.0
 43
0.0
 43
0.0
 43
0.0
 43
0.0208333333333333
 43
0.0
 43
0.0
 43
0.0
 43
0.0
 43
1.0
 43
0.0
 43
0.0
 43
0.0
 43
0.0
 43
1.0
 77
     0
 47
0.0208333333333333
 47
0.0
 47
0.0
 47
0.0
 47
0.0
 47
0.0208333333333333
 47
0.0
 47
0.0
 47
0.0
 47
0.0
 47
1.0
 47
0.0
 47
0.0
 47
0.0
 47
0.0
 47
1.0
171
     0
 49
0.0208333333333333
 49
0.0
 49
0.0
 49
0.0
 49
0.0
 49
0.0208333333333333
 49
0.0
 49
0.0
 49
0.0
 49
0.0
 49
1.0
 49
0.0
 49
0.0
 49
0.0
 49
0.0
 49
1.0
175
     0
142
0.0208333333333333
142
0.0
142
0.0
142
0.0
142
0.0
142
0.0208333333333333
142
0.0
142
0.0
142
0.0
142
0.0
142
1.0
142
0.0
142
0.0
142
0.0
142
0.0
142
1.0
179
     0
144
0.0208333333333333
144
0.0
144
0.0
144
0.0
144
0.0
144
0.0208333333333333
144
0.0
144
0.0
144
0.0
144
0.0
144
1.0
144
0.0
144
0.0
144
0.0
144
0.0
144
1.0
147
0.0208333333333333
147
0.0
147
0.0
147
0.0
147
0.0
147
0.0208333333333333
147
0.0
147
0.0
147
0.0
147
0.0
147
1.0
147
0.0
147
0.0
147
0.0
147
0.0
147
1.0
  0
MATERIAL
  5
54B0
102
{ACAD_XDICTIONARY
360
54B1
102
}
102
{ACAD_REACTORS
330
54AF
102
}
330
54AF
100
AcDbMaterial
  1
ByLayer
 72
     0
 43
0.0208333333333333
 43
0.0
 43
0.0
 43
0.0
 43
0.0
 43
0.0208333333333333
 43
0.0
 43
0.0
 43
0.0
 43
0.0
 43
1.0
 43
0.0
 43
0.0
 43
0.0
 43
0.0
 43
1.0
 77
     0
 47
0.0208333333333333
 47
0.0
 47
0.0
 47
0.0
 47
0.0
 47
0.0208333333333333
 47
0.0
 47
0.0
 47
0.0
 47
0.0
 47
1.0
 47
0.0
 47
0.0
 47
0.0
 47
0.0
 47
1.0
171
     0
 49
0.0208333333333333
 49
0.0
 49
0.0
 49
0.0
 49
0.0
 49
0.0208333333333333
 49
0.0
 49
0.0
 49
0.0
 49
0.0
 49
1.0
 49
0.0
 49
0.0
 49
0.0
 49
0.0
 49
1.0
175
     0
142
0.0208333333333333
142
0.0
142
0.0
142
0.0
142
0.0
142
0.0208333333333333
142
0.0
142
0.0
142
0.0
142
0.0
142
1.0
142
0.0
142
0.0
142
0.0
142
0.0
142
1.0
179
     0
144
0.0208333333333333
144
0.0
144
0.0
144
0.0
144
0.0
144
0.0208333333333333
144
0.0
144
0.0
144
0.0
144
0.0
144
1.0
144
0.0
144
0.0
144
0.0
144
0.0
144
1.0
147
0.0208333333333333
147
0.0
147
0.0
147
0.0
147
0.0
147
0.0208333333333333
147
0.0
147
0.0
147
0.0
147
0.0
147
1.0
147
0.0
147
0.0
147
0.0
147
0.0
147
1.0
  0
MATERIAL
  5
54C0
102
{ACAD_XDICTIONARY
360
54C1
102
}
102
{ACAD_REACTORS
330
54AF
102
}
330
54AF
100
AcDbMaterial
  1
Global
 72
     0
 43
0.0208333333333333
 43
0.0
 43
0.0
 43
0.0
 43
0.0
 43
0.0208333333333333
 43
0.0
 43
0.0
 43
0.0
 43
0.0
 43
1.0
 43
0.0
 43
0.0
 43
0.0
 43
0.0
 43
1.0
 77
     0
 47
0.0208333333333333
 47
0.0
 47
0.0
 47
0.0
 47
0.0
 47
0.0208333333333333
 47
0.0
 47
0.0
 47
0.0
 47
0.0
 47
1.0
 47
0.0
 47
0.0
 47
0.0
 47
0.0
 47
1.0
171
     0
 49
0.0208333333333333
 49
0.0
 49
0.0
 49
0.0
 49
0.0
 49
0.0208333333333333
 49
0.0
 49
0.0
 49
0.0
 49
0.0
 49
1.0
 49
0.0
 49
0.0
 49
0.0
 49
0.0
 49
1.0
175
     0
142
0.0208333333333333
142
0.0
142
0.0
142
0.0
142
0.0
142
0.0208333333333333
142
0.0
142
0.0
142
0.0
142
0.0
142
1.0
142
0.0
142
0.0
142
0.0
142
0.0
142
1.0
179
     0
144
0.0208333333333333
144
0.0
144
0.0
144
0.0
144
0.0
144
0.0208333333333333
144
0.0
144
0.0
144
0.0
144
0.0
144
1.0
144
0.0
144
0.0
144
0.0
144
0.0
144
1.0
147
0.0208333333333333
147
0.0
147
0.0
147
0.0
147
0.0
147
0.0208333333333333
147
0.0
147
0.0
147
0.0
147
0.0
147
1.0
147
0.0
147
0.0
147
0.0
147
0.0
147
1.0
  0
MLEADERSTYLE
  5
54F7
102
{ACAD_REACTORS
330
54F6
102
}
330
54F6
100
AcDbMLeaderStyle
170
     2
171
     1
172
     0
 90
        2
 40
0.0
 41
0.0
173
     1
 91
-1056964608
340
4FD0
 92
       -2
290
     1
 42
0.09
291
     1
 43
0.36
  3
Standard
 44
0.18
300

342
4FCE
174
     1
178
     6
175
     1
176
     0
 93
-1056964608
 45
0.18
292
     0
297
     0
 46
0.18
 94
-1056964608
 47
1.0
 49
1.0
140
1.0
293
     1
141
0.0
294
     1
177
     0
142
1.0
295
     0
296
     0
143
0.125
1001
ACAD_MLEADERVER
1070
     2
  0
MLINESTYLE
  5
4FD4
102
{ACAD_REACTORS
330
4FD3
102
}
330
4FD3
100
AcDbMlineStyle
  2
STANDARD
 70
     0
  3

 62
   256
 51
90.0
 52
90.0
 71
     2
 49
0.5
 62
   256
  6
BYLAYER
 49
-0.5
 62
   256
  6
BYLAYER
  0
ACDBPLACEHOLDER
  5
54AE
102
{ACAD_REACTORS
330
54AD
102
}
330
54AD
  0
SCALE
  5
54E5
102
{ACAD_REACTORS
330
54E4
102
}
330
54E4
100
AcDbScale
 70
     0
300
1:1
140
1.0
141
1.0
290
     1
  0
SCALE
  5
54E6
102
{ACAD_REACTORS
330
54E4
102
}
330
54E4
100
AcDbScale
 70
     0
300
1/128" = 1'-0"
140
0.0078125
141
12.0
290
     0
  0
SCALE
  5
54E7
102
{ACAD_REACTORS
330
54E4
102
}
330
54E4
100
AcDbScale
 70
     0
300
1/64" = 1'-0"
140
0.015625
141
12.0
290
     0
  0
SCALE
  5
54E8
102
{ACAD_REACTORS
330
54E4
102
}
330
54E4
100
AcDbScale
 70
     0
300
1/32" = 1'-0"
140
0.03125
141
12.0
290
     0
  0
SCALE
  5
54E9
102
{ACAD_REACTORS
330
54E4
102
}
330
54E4
100
AcDbScale
 70
     0
300
1/16" = 1'-0"
140
0.0625
141
12.0
290
     0
  0
SCALE
  5
54EA
102
{ACAD_REACTORS
330
54E4
102
}
330
54E4
100
AcDbScale
 70
     0
300
3/32" = 1'-0"
140
0.09375
141
12.0
290
     0
  0
SCALE
  5
54EB
102
{ACAD_REACTORS
330
54E4
102
}
330
54E4
100
AcDbScale
 70
     0
300
1/8" = 1'-0"
140
0.125
141
12.0
290
     0
  0
SCALE
  5
54EC
102
{ACAD_REACTORS
330
54E4
102
}
330
54E4
100
AcDbScale
 70
     0
300
3/16" = 1'-0"
140
0.1875
141
12.0
290
     0
  0
SCALE
  5
54ED
102
{ACAD_REACTORS
330
54E4
102
}
330
54E4
100
AcDbScale
 70
     0
300
1/4" = 1'-0"
140
0.25
141
12.0
290
     0
  0
SCALE
  5
54EE
102
{ACAD_REACTORS
330
54E4
102
}
330
54E4
100
AcDbScale
 70
     0
300
3/8" = 1'-0"
140
0.375
141
12.0
290
     0
  0
SCALE
  5
54EF
102
{ACAD_REACTORS
330
54E4
102
}
330
54E4
100
AcDbScale
 70
     0
300
1/2" = 1'-0"
140
0.5
141
12.0
290
     0
  0
SCALE
  5
54F0
102
{ACAD_REACTORS
330
54E4
102
}
330
54E4
100
AcDbScale
 70
     0
300
3/4" = 1'-0"
140
0.75
141
12.0
290
     0
  0
SCALE
  5
54F1
102
{ACAD_REACTORS
330
54E4
102
}
330
54E4
100
AcDbScale
 70
     0
300
1" = 1'-0"
140
1.0
141
12.0
290
     0
  0
SCALE
  5
54F2
102
{ACAD_REACTORS
330
54E4
102
}
330
54E4
100
AcDbScale
 70
     0
300
1-1/2" = 1'-0"
140
1.5
141
12.0
290
     0
  0
SCALE
  5
54F3
102
{ACAD_REACTORS
330
54E4
102
}
330
54E4
100
AcDbScale
 70
     0
300
3" = 1'-0"
140
3.0
141
12.0
290
     0
  0
SCALE
  5
54F4
102
{ACAD_REACTORS
330
54E4
102
}
330
54E4
100
AcDbScale
 70
     0
300
6" = 1'-0"
140
6.0
141
12.0
290
     0
  0
SCALE
  5
54F5
102
{ACAD_REACTORS
330
54E4
102
}
330
54E4
100
AcDbScale
 70
     0
300
1'-0" = 1'-0"
140
12.0
141
12.0
290
     0
  0
ACDBSECTIONVIEWSTYLE
  5
54F9
102
{ACAD_XDICTIONARY
360
5554
102
}
102
{ACAD_REACTORS
330
54F8
102
}
330
54F8
100
AcDbModelDocViewStyle
 70
     0
  3
Imperial24
290
     0
100
AcDbSectionViewStyle
 70
     0
 71
     0
 90
       78
 71
     1
340
4FCE
 40
0.24
340
0
340
0
 40
0.24
300
I, O, Q, S, X, Z
 40
0.48
 90
        3
 40
0.18
 90
        1
 71
     2
340
4FD2
 90
       25
340
4FD2
 90
       50
 40
0.24
 40
0.0
 40
0.24
 71
     3
340
4FCE
 40
0.24
 90
        1
 40
0.75
 90
        1
300
%<\AcVar ViewType \f "%tc1">% %<\AcVar ViewSectionStartId>%-%<\AcVar ViewSectionEndId>%\PSCALE %<\AcVar ViewScale \f "%sn">%
 71
     4
300
ANSI31
 40
1.0
 90
        0
290
     0
290
     0
 90
        6
 40
0.0
 40
1.570796326794896
 40
0.2617993877991494
 40
1.308996938995747
 40
-0.2617993877991494
 40
1.832595714594046
  0
TABLESTYLE
  5
54E3
102
{ACAD_XDICTIONARY
360
551B
102
}
102
{ACAD_REACTORS
330
54E2
102
}
330
54E2
100
AcDbTableStyle
  3
Standard
 70
     0
 71
     0
 40
0.06
 41
0.06
280
     0
281
     0
  7
STANDARD
140
0.18
170
     2
 62
     0
 63
     7
283
     0
274
    -2
284
     1
 64
     0
275
    -2
285
     1
 65
     0
276
    -2
286
     1
 66
     0
277
    -2
287
     1
 67
     0
278
    -2
288
     1
 68
     0
279
    -2
289
     1
 69
     0
  7
STANDARD
140
0.25
170
     5
 62
     0
 63
     7
283
     0
274
    -2
284
     1
 64
     0
275
    -2
285
     1
 65
     0
276
    -2
286
     1
 66
     0
277
    -2
287
     1
 67
     0
278
    -2
288
     1
 68
     0
279
    -2
289
     1
 69
     0
  7
STANDARD
140
0.18
170
     5
 62
     0
 63
     7
283
     0
274
    -2
284
     1
 64
     0
275
    -2
285
     1
 65
     0
276
    -2
286
     1
 66
     0
277
    -2
287
     1
 67
     0
278
    -2
288
     1
 68
     0
279
    -2
289
     1
 69
     0
  0
VISUALSTYLE
  5
54CE
102
{ACAD_XDICTIONARY
360
552C
102
}
102
{ACAD_REACTORS
330
54C8
102
}
330
54C8
100
AcDbVisualStyle
  2
2dWireframe
 70
     4
 71
     0
 72
     2
 73
     0
 90
        0
 40
-0.6
 41
-30.0
 62
     5
 63
     7
 74
     1
 91
        4
 64
     7
 65
   257
 75
     1
175
     1
 42
1.0
 92
        0
 66
   257
 43
1.0
 76
     1
 77
     6
 78
     2
 67
     7
 79
     5
170
     0
171
     0
290
     0
174
     0
 93
        1
 44
0.0
173
     0
291
     0
 45
0.0
1001
ACAD
1000
AcDbSavedByObjectVersion
1070
     0
  0
VISUALSTYLE
  5
54CD
102
{ACAD_XDICTIONARY
360
552A
102
}
102
{ACAD_REACTORS
330
54C8
102
}
330
54C8
100
AcDbVisualStyle
  2
Basic
 70
     7
 71
     1
 72
     0
 73
     1
 90
        0
 40
-0.6
 41
-30.0
 62
     5
 63
     7
 74
     0
 91
        4
 64
     7
 65
   257
 75
     1
175
     1
 42
1.0
 92
        8
 66
     7
 43
1.0
 76
     1
 77
     6
 78
     2
 67
     7
 79
     5
170
     0
171
     0
290
     0
174
     0
 93
        1
 44
0.0
173
     0
291
     1
 45
0.0
1001
ACAD
1000
AcDbSavedByObjectVersion
1070
     0
  0
VISUALSTYLE
  5
54D4
102
{ACAD_XDICTIONARY
360
5538
102
}
102
{ACAD_REACTORS
330
54C8
102
}
330
54C8
100
AcDbVisualStyle
  2
Brighten
 70
    12
 71
     2
 72
     2
 73
     0
 90
        0
 40
-0.6
 41
-30.0
 62
     5
 63
     7
 74
     1
 91
        4
 64
     7
 65
   257
 75
     1
175
     1
 42
1.0
 92
        8
 66
     7
 43
1.0
 76
     1
 77
     6
 78
     2
 67
     7
 79
     5
170
     0
171
     0
290
     0
174
     0
 93
        1
 44
50.0
173
     0
291
     1
 45
0.0
1001
ACAD
1000
AcDbSavedByObjectVersion
1070
     0
  0
VISUALSTYLE
  5
54D8
102
{ACAD_XDICTIONARY
360
5540
102
}
102
{ACAD_REACTORS
330
54C8
102
}
330
54C8
100
AcDbVisualStyle
  2
ColorChange
 70
    16
 71
     2
 72
     2
 73
     3
 90
        0
 40
-0.6
 41
-30.0
 62
     5
 63
     8
 74
     1
 91
        4
 64
     7
 65
   257
 75
     1
175
     1
 42
1.0
 92
        8
 66
     8
 43
1.0
 76
     1
 77
     6
 78
     2
 67
     7
 79
     5
170
     0
171
     0
290
     0
174
     0
 93
        1
 44
0.0
173
     0
291
     1
 45
0.0
1001
ACAD
1000
AcDbSavedByObjectVersion
1070
     0
  0
VISUALSTYLE
  5
54D1
102
{ACAD_XDICTIONARY
360
5532
102
}
102
{ACAD_REACTORS
330
54C8
102
}
330
54C8
100
AcDbVisualStyle
  2
Conceptual
 70
     9
 71
     3
 72
     2
 73
     0
 90
        0
 40
-0.6
 41
-30.0
 62
     5
 63
     7
 74
     2
 91
        2
 64
     7
 65
   257
 75
     1
175
     1
 42
179.0
 92
        8
 66
     7
 43
1.0
 76
     1
 77
     6
 78
     2
 67
     7
 79
     3
170
     0
171
     0
290
     0
174
     0
 93
        1
 44
0.0
173
     0
291
     0
 45
0.0
1001
ACAD
1000
AcDbSavedByObjectVersion
1070
     0
  0
VISUALSTYLE
  5
54D3
102
{ACAD_XDICTIONARY
360
5536
102
}
102
{ACAD_REACTORS
330
54C8
102
}
330
54C8
100
AcDbVisualStyle
  2
Dim
 70
    11
 71
     2
 72
     2
 73
     0
 90
        0
 40
-0.6
 41
-30.0
 62
     5
 63
     7
 74
     1
 91
        4
 64
     7
 65
   257
 75
     1
175
     1
 42
1.0
 92
        8
 66
     7
 43
1.0
 76
     1
 77
     6
 78
     2
 67
     7
 79
     5
170
     0
171
     0
290
     0
174
     0
 93
        1
 44
-50.0
173
     0
291
     1
 45
0.0
1001
ACAD
1000
AcDbSavedByObjectVersion
1070
     0
  0
VISUALSTYLE
  5
54E0
102
{ACAD_XDICTIONARY
360
5550
102
}
102
{ACAD_REACTORS
330
54C8
102
}
330
54C8
100
AcDbVisualStyle
  2
EdgeColorOff
 70
    22
 71
     2
 72
     2
 73
     0
 90
        0
 40
-0.6
 41
-30.0
 62
     5
 63
     7
 74
     1
 91
        4
 64
     7
 65
   257
 75
     1
175
     1
 42
1.0
 92
        8
 66
     7
 43
1.0
 76
     1
 77
     6
 78
     2
 67
     7
 79
     5
170
     0
171
     0
290
     0
174
     0
 93
        1
 44
0.0
173
     0
291
     1
 45
0.0
1001
ACAD
1000
AcDbSavedByObjectVersion
1070
     0
  0
VISUALSTYLE
  5
54D7
102
{ACAD_XDICTIONARY
360
553E
102
}
102
{ACAD_REACTORS
330
54C8
102
}
330
54C8
100
AcDbVisualStyle
  2
Facepattern
 70
    15
 71
     2
 72
     2
 73
     0
 90
        0
 40
-0.6
 41
-30.0
 62
     5
 63
     7
 74
     1
 91
        4
 64
     7
 65
   257
 75
     1
175
     1
 42
1.0
 92
        8
 66
     7
 43
1.0
 76
     1
 77
     6
 78
     2
 67
     7
 79
     5
170
     0
171
     0
290
     0
174
     0
 93
        1
 44
0.0
173
     0
291
     1
 45
0.0
1001
ACAD
1000
AcDbSavedByObjectVersion
1070
     0
  0
VISUALSTYLE
  5
54C9
102
{ACAD_XDICTIONARY
360
5522
102
}
102
{ACAD_REACTORS
330
54C8
102
}
330
54C8
100
AcDbVisualStyle
  2
Flat
 70
     0
 71
     2
 72
     1
 73
     1
 90
        2
 40
-0.6
 41
30.0
 62
     5
 63
     7
 74
     0
 91
        0
 64
     7
 65
   257
 75
     1
175
     1
 42
1.0
 92
        8
 66
     7
 43
1.0
 76
     1
 77
     6
 78
     2
 67
     7
 79
     5
170
     0
171
     0
290
     0
174
     0
 93
       13
 44
0.0
173
     0
291
     1
 45
0.0
1001
ACAD
1000
AcDbSavedByObjectVersion
1070
     0
  0
VISUALSTYLE
  5
54CA
102
{ACAD_XDICTIONARY
360
5524
102
}
102
{ACAD_REACTORS
330
54C8
102
}
330
54C8
100
AcDbVisualStyle
  2
FlatWithEdges
 70
     1
 71
     2
 72
     1
 73
     1
 90
        2
 40
-0.6
 41
30.0
 62
     5
 63
     7
 74
     1
 91
        0
 64
     7
 65
   257
 75
     1
175
     1
 42
1.0
 92
        0
 66
   257
 43
1.0
 76
     1
 77
     6
 78
     2
 67
     7
 79
     5
170
     0
171
     0
290
     0
174
     0
 93
       13
 44
0.0
173
     0
291
     1
 45
0.0
1001
ACAD
1000
AcDbSavedByObjectVersion
1070
     0
  0
VISUALSTYLE
  5
54CB
102
{ACAD_XDICTIONARY
360
5526
102
}
102
{ACAD_REACTORS
330
54C8
102
}
330
54C8
100
AcDbVisualStyle
  2
Gouraud
 70
     2
 71
     2
 72
     2
 73
     1
 90
        2
 40
-0.6
 41
30.0
 62
     5
 63
     7
 74
     0
 91
        0
 64
     7
 65
   257
 75
     1
175
     1
 42
1.0
 92
        0
 66
     7
 43
1.0
 76
     1
 77
     6
 78
     2
 67
     7
 79
     5
170
     0
171
     0
290
     0
174
     0
 93
       13
 44
0.0
173
     0
291
     1
 45
0.0
1001
ACAD
1000
AcDbSavedByObjectVersion
1070
     0
  0
VISUALSTYLE
  5
54CC
102
{ACAD_XDICTIONARY
360
5528
102
}
102
{ACAD_REACTORS
330
54C8
102
}
330
54C8
100
AcDbVisualStyle
  2
GouraudWithEdges
 70
     3
 71
     2
 72
     2
 73
     1
 90
        2
 40
-0.6
 41
30.0
 62
     5
 63
     7
 74
     1
 91
        0
 64
     7
 65
   257
 75
     1
175
     1
 42
1.0
 92
        0
 66
   257
 43
1.0
 76
     1
 77
     6
 78
     2
 67
     7
 79
     5
170
     0
171
     0
290
     0
174
     0
 93
       13
 44
0.0
173
     0
291
     1
 45
0.0
1001
ACAD
1000
AcDbSavedByObjectVersion
1070
     0
  0
VISUALSTYLE
  5
54D0
102
{ACAD_XDICTIONARY
360
5530
102
}
102
{ACAD_REACTORS
330
54C8
102
}
330
54C8
100
AcDbVisualStyle
  2
Hidden
 70
     6
 71
     1
 72
     2
 73
     2
 90
        0
 40
-0.6
 41
-30.0
 62
     5
 63
     7
 74
     2
 91
        2
 64
     7
 65
   257
 75
     2
175
     1
 42
40.0
 92
        0
 66
   257
 43
1.0
 76
     1
 77
     6
 78
     2
 67
     7
 79
     3
170
     0
171
     0
290
     0
174
     0
 93
        1
 44
0.0
173
     0
291
     0
 45
0.0
1001
ACAD
1000
AcDbSavedByObjectVersion
1070
     0
  0
VISUALSTYLE
  5
54DE
102
{ACAD_XDICTIONARY
360
554C
102
}
102
{ACAD_REACTORS
330
54C8
102
}
330
54C8
100
AcDbVisualStyle
  2
JitterOff
 70
    20
 71
     2
 72
     2
 73
     0
 90
        0
 40
-0.6
 41
-30.0
 62
     5
 63
     7
 74
     1
 91
        4
 64
     7
 65
   257
 75
     1
175
     1
 42
1.0
 92
       10
 66
     7
 43
1.0
 76
     1
 77
     6
 78
     2
 67
     7
 79
     5
170
     0
171
     0
290
     0
174
     0
 93
        1
 44
0.0
173
     0
291
     1
 45
0.0
1001
ACAD
1000
AcDbSavedByObjectVersion
1070
     0
  0
VISUALSTYLE
  5
54D6
102
{ACAD_XDICTIONARY
360
553C
102
}
102
{ACAD_REACTORS
330
54C8
102
}
330
54C8
100
AcDbVisualStyle
  2
Linepattern
 70
    14
 71
     2
 72
     2
 73
     0
 90
        0
 40
-0.6
 41
-30.0
 62
     5
 63
     7
 74
     1
 91
        4
 64
     7
 65
   257
 75
     7
175
     7
 42
1.0
 92
        8
 66
     7
 43
1.0
 76
     1
 77
     6
 78
     2
 67
     7
 79
     5
170
     0
171
     0
290
     0
174
     0
 93
        1
 44
0.0
173
     0
291
     1
 45
0.0
1001
ACAD
1000
AcDbSavedByObjectVersion
1070
     0
  0
VISUALSTYLE
  5
54DF
102
{ACAD_XDICTIONARY
360
554E
102
}
102
{ACAD_REACTORS
330
54C8
102
}
330
54C8
100
AcDbVisualStyle
  2
OverhangOff
 70
    21
 71
     2
 72
     2
 73
     0
 90
        0
 40
-0.6
 41
-30.0
 62
     5
 63
     7
 74
     1
 91
        4
 64
     7
 65
   257
 75
     1
175
     1
 42
1.0
 92
        9
 66
     7
 43
1.0
 76
     1
 77
     6
 78
     2
 67
     7
 79
     5
170
     0
171
     0
290
     0
174
     0
 93
        1
 44
0.0
173
     0
291
     1
 45
0.0
1001
ACAD
1000
AcDbSavedByObjectVersion
1070
     0
  0
VISUALSTYLE
  5
54D2
102
{ACAD_XDICTIONARY
360
5534
102
}
102
{ACAD_REACTORS
330
54C8
102
}
330
54C8
100
AcDbVisualStyle
  2
Realistic
 70
     8
 71
     2
 72
     3
 73
     0
 90
        2
 40
-0.6
 41
30.0
 62
     5
 63
     7
 74
     0
 91
        0
 64
     7
 65
   257
 75
     1
175
     1
 42
1.0
 92
        8
 66
   257
 43
1.0
 76
     1
 77
     6
 78
     2
 67
     7
 79
     3
170
     0
171
     0
290
     0
174
     0
 93
       13
 44
0.0
173
     0
291
     0
 45
0.0
1001
ACAD
1000
AcDbSavedByObjectVersion
1070
     0
  0
VISUALSTYLE
  5
54DD
102
{ACAD_XDICTIONARY
360
554A
102
}
102
{ACAD_REACTORS
330
54C8
102
}
330
54C8
100
AcDbVisualStyle
  2
Shaded
 70
    27
 71
     2
 72
     2
 73
     1
 90
        2
 40
-0.6
 41
30.0
 62
     5
 63
     7
 74
     0
 91
        4
 64
     7
 65
   257
 75
     1
175
     1
 42
1.0
 92
        8
 66
   257
 43
1.0
 76
     1
 77
     6
 78
     2
 67
     8
 79
     3
170
     0
171
     0
290
     0
174
     0
 93
        5
 44
0.0
173
     0
291
     0
 45
0.0
1001
ACAD
1000
AcDbSavedByObjectVersion
1070
     0
  0
VISUALSTYLE
  5
54DC
102
{ACAD_XDICTIONARY
360
5548
102
}
102
{ACAD_REACTORS
330
54C8
102
}
330
54C8
100
AcDbVisualStyle
  2
Shaded with edges
 70
    26
 71
     2
 72
     2
 73
     1
 90
        2
 40
-0.6
 41
30.0
 62
     5
 63
     7
 74
     1
 91
       10
 64
     7
 65
   257
 75
     2
175
     1
 42
1.0
 92
        8
 66
   257
 43
1.0
 76
     1
 77
     6
 78
     2
 67
     7
 79
     3
170
     0
171
     0
290
     0
174
     0
 93
        5
 44
0.0
173
     0
291
     0
 45
0.0
1001
ACAD
1000
AcDbSavedByObjectVersion
1070
     0
  0
VISUALSTYLE
  5
54D9
102
{ACAD_XDICTIONARY
360
5542
102
}
102
{ACAD_REACTORS
330
54C8
102
}
330
54C8
100
AcDbVisualStyle
  2
Shades of Gray
 70
    23
 71
     2
 72
     2
 73
     3
 90
        0
 40
-0.6
 41
-30.0
 62
     5
 63
     7
 74
     2
 91
        2
 64
     7
 65
     7
 75
     1
175
     1
 42
40.0
 92
        8
 66
     7
 43
1.0
 76
     1
 77
     6
 78
     2
 67
     7
 79
     3
170
     0
171
     0
290
     0
174
     0
 93
        1
 44
0.0
173
     0
291
     0
 45
0.0
1001
ACAD
1000
AcDbSavedByObjectVersion
1070
     0
  0
VISUALSTYLE
  5
54DA
102
{ACAD_XDICTIONARY
360
5544
102
}
102
{ACAD_REACTORS
330
54C8
102
}
330
54C8
100
AcDbVisualStyle
  2
Sketchy
 70
    24
 71
     1
 72
     2
 73
     2
 90
        0
 40
-0.6
 41
-30.0
 62
     5
 63
     7
 74
     2
 91
        2
 64
     7
 65
     7
 75
     1
175
     1
 42
40.0
 92
       11
 66
     7
 43
1.0
 76
     1
 77
     6
 78
     2
 67
     7
 79
     6
170
     0
171
     0
290
     0
174
     0
 93
        1
 44
0.0
173
     0
291
     0
 45
0.0
1001
ACAD
1000
AcDbSavedByObjectVersion
1070
     0
  0
VISUALSTYLE
  5
54D5
102
{ACAD_XDICTIONARY
360
553A
102
}
102
{ACAD_REACTORS
330
54C8
102
}
330
54C8
100
AcDbVisualStyle
  2
Thicken
 70
    13
 71
     2
 72
     2
 73
     0
 90
        0
 40
-0.6
 41
-30.0
 62
     5
 63
     7
 74
     1
 91
        4
 64
     7
 65
   257
 75
     1
175
     1
 42
1.0
 92
       12
 66
     7
 43
1.0
 76
     1
 77
     6
 78
     2
 67
     7
 79
     5
170
     0
171
     0
290
     0
174
     0
 93
        1
 44
0.0
173
     0
291
     1
 45
0.0
1001
ACAD
1000
AcDbSavedByObjectVersion
1070
     0
  0
VISUALSTYLE
  5
54CF
102
{ACAD_XDICTIONARY
360
552E
102
}
102
{ACAD_REACTORS
330
54C8
102
}
330
54C8
100
AcDbVisualStyle
  2
Wireframe
 70
     5
 71
     0
 72
     2
 73
     0
 90
        0
 40
-0.6
 41
-30.0
 62
     5
 63
     7
 74
     1
 91
        4
 64
     7
 65
   257
 75
     1
175
     1
 42
1.0
 92
        0
 66
   257
 43
1.0
 76
     1
 77
     6
 78
     2
 67
     7
 79
     3
170
     0
171
     0
290
     0
174
     0
 93
        1
 44
0.0
173
     0
291
     0
 45
0.0
1001
ACAD
1000
AcDbSavedByObjectVersion
1070
     0
  0
VISUALSTYLE
  5
54DB
102
{ACAD_XDICTIONARY
360
5546
102
}
102
{ACAD_REACTORS
330
54C8
102
}
330
54C8
100
AcDbVisualStyle
  2
X-Ray
 70
    25
 71
     2
 72
     2
 73
     1
 90
        1
 40
0.5
 41
-30.0
 62
     5
 63
     7
 74
     1
 91
        0
 64
     7
 65
   257
 75
     1
175
     1
 42
1.0
 92
        8
 66
     7
 43
1.0
 76
     1
 77
     6
 78
     2
 67
     7
 79
     3
170
     0
171
     0
290
     0
174
     0
 93
       13
 44
0.0
173
     0
291
     0
 45
0.0
1001
ACAD
1000
AcDbSavedByObjectVersion
1070
     0
  0
DICTIONARYVAR
  5
5515
102
{ACAD_REACTORS
330
5510
102
}
330
5510
100
DictionaryVariables
280
     0
  1
1:1
  0
DICTIONARYVAR
  5
5512
102
{ACAD_REACTORS
330
5510
102
}
330
5510
100
DictionaryVariables
280
     0
  1
STANDARD
  0
DICTIONARYVAR
  5
5511
102
{ACAD_REACTORS
330
5510
102
}
330
5510
100
DictionaryVariables
280
     0
  1
STANDARD
  0
DICTIONARYVAR
  5
5513
102
{ACAD_REACTORS
330
5510
102
}
330
5510
100
DictionaryVariables
280
     0
  1
Imperial24
  0
DICTIONARYVAR
  5
5514
102
{ACAD_REACTORS
330
5510
102
}
330
5510
100
DictionaryVariables
280
     0
  1
Imperial24
  0
DICTIONARYVAR
  5
5518
102
{ACAD_REACTORS
330
5510
102
}
330
5510
100
DictionaryVariables
280
     0
  1
1
  0
DICTIONARYVAR
  5
5517
102
{ACAD_REACTORS
330
5510
102
}
330
5510
100
DictionaryVariables
280
     0
  1
0
  0
DICTIONARYVAR
  5
5516
102
{ACAD_REACTORS
330
5510
102
}
330
5510
100
DictionaryVariables
280
     0
  1
127
  0
DICTIONARYVAR
  5
5519
102
{ACAD_REACTORS
330
5510
102
}
330
5510
100
DictionaryVariables
280
     0
  1
2
  0
DICTIONARY
  5
5556
330
54FB
100
AcDbDictionary
280
     1
281
     1
  3
ACAD_XREC_ROUNDTRIP
360
5557
  0
DICTIONARY
  5
5558
330
54FC
100
AcDbDictionary
280
     1
281
     1
  3
ACAD_XREC_ROUNDTRIP
360
5559
  0
DICTIONARY
  5
555A
330
54FD
100
AcDbDictionary
280
     1
281
     1
  3
ACAD_XREC_ROUNDTRIP
360
555B
  0
DICTIONARY
  5
54B9
330
54B8
100
AcDbDictionary
280
     1
281
     1
  3
ACAD_XREC_ROUNDTRIP
360
5520
  3
BUMPTILE
360
54BB
  3
DIFFUSETILE
360
54BA
  3
OPACITYTILE
360
54BE
  3
REFLECTIONTILE
360
54BD
  3
REFRACTIONTILE
360
54BF
  3
SPECULARTILE
360
54BC
  0
DICTIONARY
  5
54B1
330
54B0
100
AcDbDictionary
280
     1
281
     1
  3
ACAD_XREC_ROUNDTRIP
360
551F
  3
BUMPTILE
360
54B3
  3
DIFFUSETILE
360
54B2
  3
OPACITYTILE
360
54B6
  3
REFLECTIONTILE
360
54B5
  3
REFRACTIONTILE
360
54B7
  3
SPECULARTILE
360
54B4
  0
DICTIONARY
  5
54C1
330
54C0
100
AcDbDictionary
280
     1
281
     1
  3
ACAD_XREC_ROUNDTRIP
360
5521
  3
BUMPTILE
360
54C3
  3
DIFFUSETILE
360
54C2
  3
OPACITYTILE
360
54C6
  3
REFLECTIONTILE
360
54C5
  3
REFRACTIONTILE
360
54C7
  3
SPECULARTILE
360
54C4
  0
DICTIONARY
  5
5554
330
54F9
100
AcDbDictionary
280
     1
281
     1
  3
ACAD_XREC_ROUNDTRIP
360
5555
  0
DICTIONARY
  5
551B
330
54E3
100
AcDbDictionary
280
     1
281
     1
  3
ACAD_ROUNDTRIP_2008_TABLESTYLE_CELLSTYLEMAP
360
551C
  3
ACAD_XREC_ROUNDTRIP
360
5552
  0
DICTIONARY
  5
552C
330
54CE
100
AcDbDictionary
280
     1
281
     1
  3
ACAD_XREC_ROUNDTRIP
360
552D
  0
DICTIONARY
  5
552A
330
54CD
100
AcDbDictionary
280
     1
281
     1
  3
ACAD_XREC_ROUNDTRIP
360
552B
  0
DICTIONARY
  5
5538
330
54D4
100
AcDbDictionary
280
     1
281
     1
  3
ACAD_XREC_ROUNDTRIP
360
5539
  0
DICTIONARY
  5
5540
330
54D8
100
AcDbDictionary
280
     1
281
     1
  3
ACAD_XREC_ROUNDTRIP
360
5541
  0
DICTIONARY
  5
5532
330
54D1
100
AcDbDictionary
280
     1
281
     1
  3
ACAD_XREC_ROUNDTRIP
360
5533
  0
DICTIONARY
  5
5536
330
54D3
100
AcDbDictionary
280
     1
281
     1
  3
ACAD_XREC_ROUNDTRIP
360
5537
  0
DICTIONARY
  5
5550
330
54E0
100
AcDbDictionary
280
     1
281
     1
  3
ACAD_XREC_ROUNDTRIP
360
5551
  0
DICTIONARY
  5
553E
330
54D7
100
AcDbDictionary
280
     1
281
     1
  3
ACAD_XREC_ROUNDTRIP
360
553F
  0
DICTIONARY
  5
5522
330
54C9
100
AcDbDictionary
280
     1
281
     1
  3
ACAD_XREC_ROUNDTRIP
360
5523
  0
DICTIONARY
  5
5524
330
54CA
100
AcDbDictionary
280
     1
281
     1
  3
ACAD_XREC_ROUNDTRIP
360
5525
  0
DICTIONARY
  5
5526
330
54CB
100
AcDbDictionary
280
     1
281
     1
  3
ACAD_XREC_ROUNDTRIP
360
5527
  0
DICTIONARY
  5
5528
330
54CC
100
AcDbDictionary
280
     1
281
     1
  3
ACAD_XREC_ROUNDTRIP
360
5529
  0
DICTIONARY
  5
5530
330
54D0
100
AcDbDictionary
280
     1
281
     1
  3
ACAD_XREC_ROUNDTRIP
360
5531
  0
DICTIONARY
  5
554C
330
54DE
100
AcDbDictionary
280
     1
281
     1
  3
ACAD_XREC_ROUNDTRIP
360
554D
  0
DICTIONARY
  5
553C
330
54D6
100
AcDbDictionary
280
     1
281
     1
  3
ACAD_XREC_ROUNDTRIP
360
553D
  0
DICTIONARY
  5
554E
330
54DF
100
AcDbDictionary
280
     1
281
     1
  3
ACAD_XREC_ROUNDTRIP
360
554F
  0
DICTIONARY
  5
5534
330
54D2
100
AcDbDictionary
280
     1
281
     1
  3
ACAD_XREC_ROUNDTRIP
360
5535
  0
DICTIONARY
  5
554A
330
54DD
100
AcDbDictionary
280
     1
281
     1
  3
ACAD_XREC_ROUNDTRIP
360
554B
  0
DICTIONARY
  5
5548
330
54DC
100
AcDbDictionary
280
     1
281
     1
  3
ACAD_XREC_ROUNDTRIP
360
5549
  0
DICTIONARY
  5
5542
330
54D9
100
AcDbDictionary
280
     1
281
     1
  3
ACAD_XREC_ROUNDTRIP
360
5543
  0
DICTIONARY
  5
5544
330
54DA
100
AcDbDictionary
280
     1
281
     1
  3
ACAD_XREC_ROUNDTRIP
360
5545
  0
DICTIONARY
  5
553A
330
54D5
100
AcDbDictionary
280
     1
281
     1
  3
ACAD_XREC_ROUNDTRIP
360
553B
  0
DICTIONARY
  5
552E
330
54CF
100
AcDbDictionary
280
     1
281
     1
  3
ACAD_XREC_ROUNDTRIP
360
552F
  0
DICTIONARY
  5
5546
330
54DB
100
AcDbDictionary
280
     1
281
     1
  3
ACAD_XREC_ROUNDTRIP
360
5547
  0
XRECORD
  5
5557
102
{ACAD_REACTORS
330
5556
102
}
330
5556
100
AcDbXrecord
280
     1
102
DISPLAYNAME
  1
Imperial24
102
FLAGS
 90
        0
  0
XRECORD
  5
5559
102
{ACAD_REACTORS
330
5558
102
}
330
5558
100
AcDbXrecord
280
     1
102
SHADEPLOT
 70
     0
102
SHADEPLOTRESLEVEL
 70
     2
102
SHADEPLOTCUSTOMDPI
 70
   300
  0
XRECORD
  5
555B
102
{ACAD_REACTORS
330
555A
102
}
330
555A
100
AcDbXrecord
280
     1
102
SHADEPLOT
 70
     0
102
SHADEPLOTRESLEVEL
 70
     2
102
SHADEPLOTCUSTOMDPI
 70
   300
  0
XRECORD
  5
5520
102
{ACAD_REACTORS
330
54B9
102
}
330
54B9
100
AcDbXrecord
280
     1
102
MATERIAL
148
0.0
149
0.0
149
0.0
 93
        0
 94
      127
282
     0
 72
     0
 77
     0
171
     0
175
     0
179
     0
273
     0
  0
XRECORD
  5
54BB
102
{ACAD_REACTORS
330
54B9
102
}
330
54B9
100
AcDbXrecord
280
     1
270
     1
271
     1
  0
XRECORD
  5
54BA
102
{ACAD_REACTORS
330
54B9
102
}
330
54B9
100
AcDbXrecord
280
     1
270
     1
271
     1
  0
XRECORD
  5
54BE
102
{ACAD_REACTORS
330
54B9
102
}
330
54B9
100
AcDbXrecord
280
     1
270
     1
271
     1
  0
XRECORD
  5
54BD
102
{ACAD_REACTORS
330
54B9
102
}
330
54B9
100
AcDbXrecord
280
     1
270
     1
271
     1
  0
XRECORD
  5
54BF
102
{ACAD_REACTORS
330
54B9
102
}
330
54B9
100
AcDbXrecord
280
     1
270
     1
271
     1
  0
XRECORD
  5
54BC
102
{ACAD_REACTORS
330
54B9
102
}
330
54B9
100
AcDbXrecord
280
     1
270
     1
271
     1
  0
XRECORD
  5
551F
102
{ACAD_REACTORS
330
54B1
102
}
330
54B1
100
AcDbXrecord
280
     1
102
MATERIAL
148
0.0
149
0.0
149
0.0
 93
        0
 94
      127
282
     0
 72
     0
 77
     0
171
     0
175
     0
179
     0
273
     0
  0
XRECORD
  5
54B3
102
{ACAD_REACTORS
330
54B1
102
}
330
54B1
100
AcDbXrecord
280
     1
270
     1
271
     1
  0
XRECORD
  5
54B2
102
{ACAD_REACTORS
330
54B1
102
}
330
54B1
100
AcDbXrecord
280
     1
270
     1
271
     1
  0
XRECORD
  5
54B6
102
{ACAD_REACTORS
330
54B1
102
}
330
54B1
100
AcDbXrecord
280
     1
270
     1
271
     1
  0
XRECORD
  5
54B5
102
{ACAD_REACTORS
330
54B1
102
}
330
54B1
100
AcDbXrecord
280
     1
270
     1
271
     1
  0
XRECORD
  5
54B7
102
{ACAD_REACTORS
330
54B1
102
}
330
54B1
100
AcDbXrecord
280
     1
270
     1
271
     1
  0
XRECORD
  5
54B4
102
{ACAD_REACTORS
330
54B1
102
}
330
54B1
100
AcDbXrecord
280
     1
270
     1
271
     1
  0
XRECORD
  5
5521
102
{ACAD_REACTORS
330
54C1
102
}
330
54C1
100
AcDbXrecord
280
     1
102
MATERIAL
148
0.0
149
0.0
149
0.0
 93
        0
 94
      127
282
     0
 72
     0
 77
     0
171
     0
175
     0
179
     0
273
     0
  0
XRECORD
  5
54C3
102
{ACAD_REACTORS
330
54C1
102
}
330
54C1
100
AcDbXrecord
280
     1
270
     1
271
     1
  0
XRECORD
  5
54C2
102
{ACAD_REACTORS
330
54C1
102
}
330
54C1
100
AcDbXrecord
280
     1
270
     1
271
     1
  0
XRECORD
  5
54C6
102
{ACAD_REACTORS
330
54C1
102
}
330
54C1
100
AcDbXrecord
280
     1
270
     1
271
     1
  0
XRECORD
  5
54C5
102
{ACAD_REACTORS
330
54C1
102
}
330
54C1
100
AcDbXrecord
280
     1
270
     1
271
     1
  0
XRECORD
  5
54C7
102
{ACAD_REACTORS
330
54C1
102
}
330
54C1
100
AcDbXrecord
280
     1
270
     1
271
     1
  0
XRECORD
  5
54C4
102
{ACAD_REACTORS
330
54C1
102
}
330
54C1
100
AcDbXrecord
280
     1
270
     1
271
     1
  0
XRECORD
  5
5555
102
{ACAD_REACTORS
330
5554
102
}
330
5554
100
AcDbXrecord
280
     1
102
DISPLAYNAME
  1
Imperial24
102
FLAGS
 90
        0
  0
CELLSTYLEMAP
  5
551C
102
{ACAD_REACTORS
330
551B
102
}
330
551B
100
AcDbCellStyleMap
 90
        3
300
CELLSTYLE
  1
TABLEFORMAT_BEGIN
 90
        5
170
     1
 91
        0
 92
    32768
 62
   257
 93
        1
300
CONTENTFORMAT
  1
CONTENTFORMAT_BEGIN
 90
        0
 91
        0
 92
      512
 93
        0
300

 40
0.0
140
1.0
 94
        5
 62
     0
340
4FCE
144
0.25
309
CONTENTFORMAT_END
171
     0
 94
        0
309
TABLEFORMAT_END
  1
CELLSTYLE_BEGIN
 90
        1
 91
        1
300
_TITLE
309
CELLSTYLE_END
300
CELLSTYLE
  1
TABLEFORMAT_BEGIN
 90
        5
170
     1
 91
        0
 92
        0
 62
   257
 93
        1
300
CONTENTFORMAT
  1
CONTENTFORMAT_BEGIN
 90
        0
 91
        0
 92
      512
 93
        0
300

 40
0.0
140
1.0
 94
        5
 62
     0
340
4FCE
144
0.18
309
CONTENTFORMAT_END
171
     0
 94
        0
309
TABLEFORMAT_END
  1
CELLSTYLE_BEGIN
 90
        2
 91
        1
300
_HEADER
309
CELLSTYLE_END
300
CELLSTYLE
  1
TABLEFORMAT_BEGIN
 90
        5
170
     1
 91
        0
 92
        0
 62
   257
 93
        1
300
CONTENTFORMAT
  1
CONTENTFORMAT_BEGIN
 90
        0
 91
        0
 92
      512
 93
        0
300

 40
0.0
140
1.0
 94
        2
 62
     0
340
4FCE
144
0.18
309
CONTENTFORMAT_END
171
     0
 94
        0
309
TABLEFORMAT_END
  1
CELLSTYLE_BEGIN
 90
        3
 91
        2
300
_DATA
309
CELLSTYLE_END
  0
XRECORD
  5
5552
102
{ACAD_REACTORS
330
551B
102
}
330
551B
100
AcDbXrecord
280
     1
102
ACAD_ROUNDTRIP_PRE2007_TABLESTYLE
 90
      512
 91
        0
  1

 92
      512
 93
        0
  2

 94
      512
 95
        0
  3

  0
XRECORD
  5
552D
102
{ACAD_REACTORS
330
552C
102
}
330
552C
100
AcDbXrecord
280
     1
102
RTVSPost2010Prop28
280
     1
102
RTVSPost2010PropOp28
 70
     1
102
RTVSPost2010Prop29
280
     1
102
RTVSPost2010PropOp29
 70
     1
102
RTVSPost2010Prop30
280
     0
102
RTVSPost2010PropOp30
 70
     1
102
RTVSPost2010Prop31
280
     0
102
RTVSPost2010PropOp31
 70
     1
102
RTVSPost2010Prop32
280
     0
102
RTVSPost2010PropOp32
 70
     1
102
RTVSPost2010Prop33
280
     0
102
RTVSPost2010PropOp33
 70
     1
102
RTVSPost2010Prop34
280
     0
102
RTVSPost2010PropOp34
 70
     1
102
RTVSPost2010Prop35
280
     0
102
RTVSPost2010PropOp35
 70
     1
102
RTVSPost2010Prop36
280
     0
102
RTVSPost2010PropOp36
 70
     1
102
RTVSPost2010Prop37
 90
       50
102
RTVSPost2010PropOp37
 70
     1
102
RTVSPost2010Prop38
140
0.0
102
RTVSPost2010PropOp38
 70
     1
102
RTVSPost2010Prop39
140
1.0
102
RTVSPost2010PropOp39
 70
     1
102
RTVSPost2010Prop40
 90
        0
102
RTVSPost2010PropOp40
 70
     1
102
RTVSPost2010Prop41ColorIndex
 90
       18
102
RTVSPost2010Prop41ColorRGB
 90
        0
102
RTVSPost2010PropOp41
 70
     1
102
RTVSPost2010Prop42
 90
       50
102
RTVSPost2010PropOp42
 70
     1
102
RTVSPost2010Prop43
 90
        3
102
RTVSPost2010PropOp43
 70
     1
102
RTVSPost2010Prop44ColorIndex
 90
        5
102
RTVSPost2010Prop44ColorRGB
 90
      255
102
RTVSPost2010PropOp44
 70
     1
102
RTVSPost2010Prop45
280
     0
102
RTVSPost2010PropOp45
 70
     1
102
RTVSPost2010Prop46
 90
       50
102
RTVSPost2010PropOp46
 70
     1
102
RTVSPost2010Prop47
 90
       50
102
RTVSPost2010PropOp47
 70
     1
102
RTVSPost2010Prop48
 90
       50
102
RTVSPost2010PropOp48
 70
     1
102
RTVSPost2010Prop49
280
     0
102
RTVSPost2010PropOp49
 70
     1
102
RTVSPost2010Prop50
 90
       50
102
RTVSPost2010PropOp50
 70
     1
102
RTVSPost2010Prop51ColorIndex
 90
      256
102
RTVSPost2010Prop51ColorRGB
 90
-16777216
102
RTVSPost2010PropOp51
 70
     0
102
RTVSPost2010Prop52
140
1.0
102
RTVSPost2010PropOp52
 70
     0
102
RTVSPost2010Prop53
 90
        2
102
RTVSPost2010PropOp53
 70
     1
102
RTVSPost2010Prop54
  1
strokes_ogs.tif
102
RTVSPost2010PropOp54
 70
     1
102
RTVSPost2010Prop55
280
     0
102
RTVSPost2010PropOp55
 70
     1
102
RTVSPost2010Prop56
140
1.0
102
RTVSPost2010PropOp56
 70
     1
102
RTVSPost2010Prop57
140
1.0
102
RTVSPost2010PropOp57
 70
     1
102
RTVSPropertyOp0
 70
     1
102
RTVSPropertyOp1
 70
     1
102
RTVSPropertyOp2
 70
     1
102
RTVSPropertyOp3
 70
     1
102
RTVSPropertyOp4
 70
     1
102
RTVSPropertyOp5
 70
     1
102
RTVSPropertyOp6
 70
     1
102
RTVSPropertyOp7
 70
     1
102
RTVSPropertyOp8
 70
     1
102
RTVSPropertyOp9
 70
     1
102
RTVSPropertyOp10
 70
     1
102
RTVSPropertyOp11
 70
     1
102
RTVSPropertyOp12
 70
     1
102
RTVSPropertyOp13
 70
     1
102
RTVSPropertyOp14
 70
     1
102
RTVSPropertyOp15
 70
     1
102
RTVSPropertyOp16
 70
     1
102
RTVSPropertyOp17
 70
     1
102
RTVSPropertyOp18
 70
     1
102
RTVSPropertyOp19
 70
     1
102
RTVSPropertyOp20
 70
     1
102
RTVSPropertyOp21
 70
     1
102
RTVSPropertyOp22
 70
     1
102
RTVSPropertyOp23
 70
     1
102
RTVSPropertyOp24
 70
     1
102
RTVSPropertyOp25
 70
     1
102
RTVSPropertyOp26
 70
     1
102
RTVSPropertyOp27
 70
     1
102
RTVSPropertyOp28
 70
     1
102
RTVSPropertyOp29
 70
     1
102
RTVSPropertyOp30
 70
     1
102
RTVSPropertyOp31
 70
     1
102
RTVSPropertyOp32
 70
     1
102
RTVSPropertyOp33
 70
     1
102
RTVSPropertyOp34
 70
     1
102
RTVSPropertyOp35
 70
     1
102
RTVSPropertyOp36
 70
     1
102
RTVSPropertyOp37
 70
     1
102
RTVSPropertyOp38
 70
     1
102
RTVSPropertyOp39
 70
     1
102
RTVSPropertyOp40
 70
     1
102
RTVSPropertyOp41
 70
     1
102
RTVSPropertyOp42
 70
     1
102
RTVSPropertyOp43
 70
     1
102
RTVSPropertyOp44
 70
     1
102
RTVSPropertyOp45
 70
     1
102
RTVSPropertyOp46
 70
     1
102
RTVSPropertyOp47
 70
     1
102
RTVSPropertyOp48
 70
     1
102
RTVSPropertyOp49
 70
     1
102
RTVSPropertyOp50
 70
     1
102
RTVSPropertyOp51
 70
     0
102
RTVSPropertyOp52
 70
     0
102
RTVSPropertyOp53
 70
     1
102
RTVSPropertyOp54
 70
     1
102
RTVSPropertyOp55
 70
     1
102
RTVSPropertyOp56
 70
     1
102
RTVSPropertyOp57
 70
     1
102
RTVSPropertyOp58
 70
     1
102
RTVSPropertyOp59
 70
     1
102
RTVSPropertyOp60
 70
     1
102
RTVSPropertyOp61
 70
     1
102
RTVSPropertyOp62
 70
     1
  0
XRECORD
  5
552B
102
{ACAD_REACTORS
330
552A
102
}
330
552A
100
AcDbXrecord
280
     1
102
RTVSPost2010Prop28
280
     0
102
RTVSPost2010PropOp28
 70
     1
102
RTVSPost2010Prop29
280
     1
102
RTVSPost2010PropOp29
 70
     1
102
RTVSPost2010Prop30
280
     1
102
RTVSPost2010PropOp30
 70
     1
102
RTVSPost2010Prop31
280
     0
102
RTVSPost2010PropOp31
 70
     1
102
RTVSPost2010Prop32
280
     0
102
RTVSPost2010PropOp32
 70
     1
102
RTVSPost2010Prop33
280
     0
102
RTVSPost2010PropOp33
 70
     1
102
RTVSPost2010Prop34
280
     0
102
RTVSPost2010PropOp34
 70
     1
102
RTVSPost2010Prop35
280
     0
102
RTVSPost2010PropOp35
 70
     1
102
RTVSPost2010Prop36
280
     0
102
RTVSPost2010PropOp36
 70
     1
102
RTVSPost2010Prop37
 90
       50
102
RTVSPost2010PropOp37
 70
     1
102
RTVSPost2010Prop38
140
0.0
102
RTVSPost2010PropOp38
 70
     1
102
RTVSPost2010Prop39
140
1.0
102
RTVSPost2010PropOp39
 70
     1
102
RTVSPost2010Prop40
 90
        0
102
RTVSPost2010PropOp40
 70
     1
102
RTVSPost2010Prop41ColorIndex
 90
       18
102
RTVSPost2010Prop41ColorRGB
 90
        0
102
RTVSPost2010PropOp41
 70
     1
102
RTVSPost2010Prop42
 90
       50
102
RTVSPost2010PropOp42
 70
     1
102
RTVSPost2010Prop43
 90
        3
102
RTVSPost2010PropOp43
 70
     1
102
RTVSPost2010Prop44ColorIndex
 90
        5
102
RTVSPost2010Prop44ColorRGB
 90
      255
102
RTVSPost2010PropOp44
 70
     1
102
RTVSPost2010Prop45
280
     0
102
RTVSPost2010PropOp45
 70
     1
102
RTVSPost2010Prop46
 90
       50
102
RTVSPost2010PropOp46
 70
     1
102
RTVSPost2010Prop47
 90
       50
102
RTVSPost2010PropOp47
 70
     1
102
RTVSPost2010Prop48
 90
       50
102
RTVSPost2010PropOp48
 70
     1
102
RTVSPost2010Prop49
280
     0
102
RTVSPost2010PropOp49
 70
     1
102
RTVSPost2010Prop50
 90
       50
102
RTVSPost2010PropOp50
 70
     1
102
RTVSPost2010Prop51ColorIndex
 90
      256
102
RTVSPost2010Prop51ColorRGB
 90
-16777216
102
RTVSPost2010PropOp51
 70
     0
102
RTVSPost2010Prop52
140
1.0
102
RTVSPost2010PropOp52
 70
     0
102
RTVSPost2010Prop53
 90
        2
102
RTVSPost2010PropOp53
 70
     1
102
RTVSPost2010Prop54
  1
strokes_ogs.tif
102
RTVSPost2010PropOp54
 70
     1
102
RTVSPost2010Prop55
280
     0
102
RTVSPost2010PropOp55
 70
     1
102
RTVSPost2010Prop56
140
1.0
102
RTVSPost2010PropOp56
 70
     1
102
RTVSPost2010Prop57
140
1.0
102
RTVSPost2010PropOp57
 70
     1
102
RTVSPropertyOp0
 70
     1
102
RTVSPropertyOp1
 70
     1
102
RTVSPropertyOp2
 70
     1
102
RTVSPropertyOp3
 70
     1
102
RTVSPropertyOp4
 70
     1
102
RTVSPropertyOp5
 70
     1
102
RTVSPropertyOp6
 70
     1
102
RTVSPropertyOp7
 70
     1
102
RTVSPropertyOp8
 70
     1
102
RTVSPropertyOp9
 70
     1
102
RTVSPropertyOp10
 70
     1
102
RTVSPropertyOp11
 70
     1
102
RTVSPropertyOp12
 70
     1
102
RTVSPropertyOp13
 70
     1
102
RTVSPropertyOp14
 70
     1
102
RTVSPropertyOp15
 70
     1
102
RTVSPropertyOp16
 70
     1
102
RTVSPropertyOp17
 70
     1
102
RTVSPropertyOp18
 70
     1
102
RTVSPropertyOp19
 70
     1
102
RTVSPropertyOp20
 70
     1
102
RTVSPropertyOp21
 70
     1
102
RTVSPropertyOp22
 70
     1
102
RTVSPropertyOp23
 70
     1
102
RTVSPropertyOp24
 70
     1
102
RTVSPropertyOp25
 70
     1
102
RTVSPropertyOp26
 70
     1
102
RTVSPropertyOp27
 70
     1
102
RTVSPropertyOp28
 70
     1
102
RTVSPropertyOp29
 70
     1
102
RTVSPropertyOp30
 70
     1
102
RTVSPropertyOp31
 70
     1
102
RTVSPropertyOp32
 70
     1
102
RTVSPropertyOp33
 70
     1
102
RTVSPropertyOp34
 70
     1
102
RTVSPropertyOp35
 70
     1
102
RTVSPropertyOp36
 70
     1
102
RTVSPropertyOp37
 70
     1
102
RTVSPropertyOp38
 70
     1
102
RTVSPropertyOp39
 70
     1
102
RTVSPropertyOp40
 70
     1
102
RTVSPropertyOp41
 70
     1
102
RTVSPropertyOp42
 70
     1
102
RTVSPropertyOp43
 70
     1
102
RTVSPropertyOp44
 70
     1
102
RTVSPropertyOp45
 70
     1
102
RTVSPropertyOp46
 70
     1
102
RTVSPropertyOp47
 70
     1
102
RTVSPropertyOp48
 70
     1
102
RTVSPropertyOp49
 70
     1
102
RTVSPropertyOp50
 70
     1
102
RTVSPropertyOp51
 70
     0
102
RTVSPropertyOp52
 70
     0
102
RTVSPropertyOp53
 70
     1
102
RTVSPropertyOp54
 70
     1
102
RTVSPropertyOp55
 70
     1
102
RTVSPropertyOp56
 70
     1
102
RTVSPropertyOp57
 70
     1
102
RTVSPropertyOp58
 70
     1
102
RTVSPropertyOp59
 70
     1
102
RTVSPropertyOp60
 70
     1
102
RTVSPropertyOp61
 70
     1
102
RTVSPropertyOp62
 70
     1
  0
XRECORD
  5
5539
102
{ACAD_REACTORS
330
5538
102
}
330
5538
100
AcDbXrecord
280
     1
102
RTVSPost2010Prop28
280
     0
102
RTVSPost2010PropOp28
 70
     1
102
RTVSPost2010Prop29
280
     1
102
RTVSPost2010PropOp29
 70
     1
102
RTVSPost2010Prop30
280
     1
102
RTVSPost2010PropOp30
 70
     1
102
RTVSPost2010Prop31
280
     0
102
RTVSPost2010PropOp31
 70
     1
102
RTVSPost2010Prop32
280
     0
102
RTVSPost2010PropOp32
 70
     1
102
RTVSPost2010Prop33
280
     0
102
RTVSPost2010PropOp33
 70
     1
102
RTVSPost2010Prop34
280
     0
102
RTVSPost2010PropOp34
 70
     1
102
RTVSPost2010Prop35
280
     0
102
RTVSPost2010PropOp35
 70
     1
102
RTVSPost2010Prop36
280
     0
102
RTVSPost2010PropOp36
 70
     1
102
RTVSPost2010Prop37
 90
       50
102
RTVSPost2010PropOp37
 70
     1
102
RTVSPost2010Prop38
140
0.0
102
RTVSPost2010PropOp38
 70
     1
102
RTVSPost2010Prop39
140
1.0
102
RTVSPost2010PropOp39
 70
     1
102
RTVSPost2010Prop40
 90
        0
102
RTVSPost2010PropOp40
 70
     1
102
RTVSPost2010Prop41ColorIndex
 90
       18
102
RTVSPost2010Prop41ColorRGB
 90
        0
102
RTVSPost2010PropOp41
 70
     1
102
RTVSPost2010Prop42
 90
       50
102
RTVSPost2010PropOp42
 70
     1
102
RTVSPost2010Prop43
 90
        3
102
RTVSPost2010PropOp43
 70
     1
102
RTVSPost2010Prop44ColorIndex
 90
        5
102
RTVSPost2010Prop44ColorRGB
 90
      255
102
RTVSPost2010PropOp44
 70
     1
102
RTVSPost2010Prop45
280
     0
102
RTVSPost2010PropOp45
 70
     1
102
RTVSPost2010Prop46
 90
       50
102
RTVSPost2010PropOp46
 70
     1
102
RTVSPost2010Prop47
 90
       50
102
RTVSPost2010PropOp47
 70
     1
102
RTVSPost2010Prop48
 90
       50
102
RTVSPost2010PropOp48
 70
     1
102
RTVSPost2010Prop49
280
     0
102
RTVSPost2010PropOp49
 70
     1
102
RTVSPost2010Prop50
 90
       50
102
RTVSPost2010PropOp50
 70
     1
102
RTVSPost2010Prop51ColorIndex
 90
      256
102
RTVSPost2010Prop51ColorRGB
 90
-16777216
102
RTVSPost2010PropOp51
 70
     0
102
RTVSPost2010Prop52
140
1.0
102
RTVSPost2010PropOp52
 70
     0
102
RTVSPost2010Prop53
 90
        2
102
RTVSPost2010PropOp53
 70
     1
102
RTVSPost2010Prop54
  1
strokes_ogs.tif
102
RTVSPost2010PropOp54
 70
     1
102
RTVSPost2010Prop55
280
     0
102
RTVSPost2010PropOp55
 70
     1
102
RTVSPost2010Prop56
140
1.0
102
RTVSPost2010PropOp56
 70
     1
102
RTVSPost2010Prop57
140
1.0
102
RTVSPost2010PropOp57
 70
     1
102
RTVSPropertyOp0
 70
     1
102
RTVSPropertyOp1
 70
     1
102
RTVSPropertyOp2
 70
     1
102
RTVSPropertyOp3
 70
     1
102
RTVSPropertyOp4
 70
     1
102
RTVSPropertyOp5
 70
     1
102
RTVSPropertyOp6
 70
     1
102
RTVSPropertyOp7
 70
     1
102
RTVSPropertyOp8
 70
     1
102
RTVSPropertyOp9
 70
     1
102
RTVSPropertyOp10
 70
     1
102
RTVSPropertyOp11
 70
     1
102
RTVSPropertyOp12
 70
     1
102
RTVSPropertyOp13
 70
     1
102
RTVSPropertyOp14
 70
     1
102
RTVSPropertyOp15
 70
     1
102
RTVSPropertyOp16
 70
     1
102
RTVSPropertyOp17
 70
     1
102
RTVSPropertyOp18
 70
     1
102
RTVSPropertyOp19
 70
     1
102
RTVSPropertyOp20
 70
     1
102
RTVSPropertyOp21
 70
     1
102
RTVSPropertyOp22
 70
     1
102
RTVSPropertyOp23
 70
     1
102
RTVSPropertyOp24
 70
     1
102
RTVSPropertyOp25
 70
     1
102
RTVSPropertyOp26
 70
     1
102
RTVSPropertyOp27
 70
     1
102
RTVSPropertyOp28
 70
     1
102
RTVSPropertyOp29
 70
     1
102
RTVSPropertyOp30
 70
     1
102
RTVSPropertyOp31
 70
     1
102
RTVSPropertyOp32
 70
     1
102
RTVSPropertyOp33
 70
     1
102
RTVSPropertyOp34
 70
     1
102
RTVSPropertyOp35
 70
     1
102
RTVSPropertyOp36
 70
     1
102
RTVSPropertyOp37
 70
     1
102
RTVSPropertyOp38
 70
     1
102
RTVSPropertyOp39
 70
     1
102
RTVSPropertyOp40
 70
     1
102
RTVSPropertyOp41
 70
     1
102
RTVSPropertyOp42
 70
     1
102
RTVSPropertyOp43
 70
     1
102
RTVSPropertyOp44
 70
     1
102
RTVSPropertyOp45
 70
     1
102
RTVSPropertyOp46
 70
     1
102
RTVSPropertyOp47
 70
     1
102
RTVSPropertyOp48
 70
     1
102
RTVSPropertyOp49
 70
     1
102
RTVSPropertyOp50
 70
     1
102
RTVSPropertyOp51
 70
     0
102
RTVSPropertyOp52
 70
     0
102
RTVSPropertyOp53
 70
     1
102
RTVSPropertyOp54
 70
     1
102
RTVSPropertyOp55
 70
     1
102
RTVSPropertyOp56
 70
     1
102
RTVSPropertyOp57
 70
     1
102
RTVSPropertyOp58
 70
     1
102
RTVSPropertyOp59
 70
     1
102
RTVSPropertyOp60
 70
     1
102
RTVSPropertyOp61
 70
     1
102
RTVSPropertyOp62
 70
     1
  0
XRECORD
  5
5541
102
{ACAD_REACTORS
330
5540
102
}
330
5540
100
AcDbXrecord
280
     1
102
RTVSPost2010Prop28
280
     0
102
RTVSPost2010PropOp28
 70
     1
102
RTVSPost2010Prop29
280
     1
102
RTVSPost2010PropOp29
 70
     1
102
RTVSPost2010Prop30
280
     1
102
RTVSPost2010PropOp30
 70
     1
102
RTVSPost2010Prop31
280
     0
102
RTVSPost2010PropOp31
 70
     1
102
RTVSPost2010Prop32
280
     0
102
RTVSPost2010PropOp32
 70
     1
102
RTVSPost2010Prop33
280
     0
102
RTVSPost2010PropOp33
 70
     1
102
RTVSPost2010Prop34
280
     0
102
RTVSPost2010PropOp34
 70
     1
102
RTVSPost2010Prop35
280
     0
102
RTVSPost2010PropOp35
 70
     1
102
RTVSPost2010Prop36
280
     0
102
RTVSPost2010PropOp36
 70
     1
102
RTVSPost2010Prop37
 90
       50
102
RTVSPost2010PropOp37
 70
     1
102
RTVSPost2010Prop38
140
0.0
102
RTVSPost2010PropOp38
 70
     1
102
RTVSPost2010Prop39
140
1.0
102
RTVSPost2010PropOp39
 70
     1
102
RTVSPost2010Prop40
 90
        0
102
RTVSPost2010PropOp40
 70
     1
102
RTVSPost2010Prop41ColorIndex
 90
       18
102
RTVSPost2010Prop41ColorRGB
 90
        0
102
RTVSPost2010PropOp41
 70
     1
102
RTVSPost2010Prop42
 90
       50
102
RTVSPost2010PropOp42
 70
     1
102
RTVSPost2010Prop43
 90
        3
102
RTVSPost2010PropOp43
 70
     1
102
RTVSPost2010Prop44ColorIndex
 90
        5
102
RTVSPost2010Prop44ColorRGB
 90
      255
102
RTVSPost2010PropOp44
 70
     1
102
RTVSPost2010Prop45
280
     0
102
RTVSPost2010PropOp45
 70
     1
102
RTVSPost2010Prop46
 90
       50
102
RTVSPost2010PropOp46
 70
     1
102
RTVSPost2010Prop47
 90
       50
102
RTVSPost2010PropOp47
 70
     1
102
RTVSPost2010Prop48
 90
       50
102
RTVSPost2010PropOp48
 70
     1
102
RTVSPost2010Prop49
280
     0
102
RTVSPost2010PropOp49
 70
     1
102
RTVSPost2010Prop50
 90
       50
102
RTVSPost2010PropOp50
 70
     1
102
RTVSPost2010Prop51ColorIndex
 90
      256
102
RTVSPost2010Prop51ColorRGB
 90
-16777216
102
RTVSPost2010PropOp51
 70
     0
102
RTVSPost2010Prop52
140
1.0
102
RTVSPost2010PropOp52
 70
     0
102
RTVSPost2010Prop53
 90
        2
102
RTVSPost2010PropOp53
 70
     1
102
RTVSPost2010Prop54
  1
strokes_ogs.tif
102
RTVSPost2010PropOp54
 70
     1
102
RTVSPost2010Prop55
280
     0
102
RTVSPost2010PropOp55
 70
     1
102
RTVSPost2010Prop56
140
1.0
102
RTVSPost2010PropOp56
 70
     1
102
RTVSPost2010Prop57
140
1.0
102
RTVSPost2010PropOp57
 70
     1
102
RTVSPropertyOp0
 70
     1
102
RTVSPropertyOp1
 70
     1
102
RTVSPropertyOp2
 70
     1
102
RTVSPropertyOp3
 70
     1
102
RTVSPropertyOp4
 70
     1
102
RTVSPropertyOp5
 70
     1
102
RTVSPropertyOp6
 70
     1
102
RTVSPropertyOp7
 70
     1
102
RTVSPropertyOp8
 70
     1
102
RTVSPropertyOp9
 70
     1
102
RTVSPropertyOp10
 70
     1
102
RTVSPropertyOp11
 70
     1
102
RTVSPropertyOp12
 70
     1
102
RTVSPropertyOp13
 70
     1
102
RTVSPropertyOp14
 70
     1
102
RTVSPropertyOp15
 70
     1
102
RTVSPropertyOp16
 70
     1
102
RTVSPropertyOp17
 70
     1
102
RTVSPropertyOp18
 70
     1
102
RTVSPropertyOp19
 70
     1
102
RTVSPropertyOp20
 70
     1
102
RTVSPropertyOp21
 70
     1
102
RTVSPropertyOp22
 70
     1
102
RTVSPropertyOp23
 70
     1
102
RTVSPropertyOp24
 70
     1
102
RTVSPropertyOp25
 70
     1
102
RTVSPropertyOp26
 70
     1
102
RTVSPropertyOp27
 70
     1
102
RTVSPropertyOp28
 70
     1
102
RTVSPropertyOp29
 70
     1
102
RTVSPropertyOp30
 70
     1
102
RTVSPropertyOp31
 70
     1
102
RTVSPropertyOp32
 70
     1
102
RTVSPropertyOp33
 70
     1
102
RTVSPropertyOp34
 70
     1
102
RTVSPropertyOp35
 70
     1
102
RTVSPropertyOp36
 70
     1
102
RTVSPropertyOp37
 70
     1
102
RTVSPropertyOp38
 70
     1
102
RTVSPropertyOp39
 70
     1
102
RTVSPropertyOp40
 70
     1
102
RTVSPropertyOp41
 70
     1
102
RTVSPropertyOp42
 70
     1
102
RTVSPropertyOp43
 70
     1
102
RTVSPropertyOp44
 70
     1
102
RTVSPropertyOp45
 70
     1
102
RTVSPropertyOp46
 70
     1
102
RTVSPropertyOp47
 70
     1
102
RTVSPropertyOp48
 70
     1
102
RTVSPropertyOp49
 70
     1
102
RTVSPropertyOp50
 70
     1
102
RTVSPropertyOp51
 70
     0
102
RTVSPropertyOp52
 70
     0
102
RTVSPropertyOp53
 70
     1
102
RTVSPropertyOp54
 70
     1
102
RTVSPropertyOp55
 70
     1
102
RTVSPropertyOp56
 70
     1
102
RTVSPropertyOp57
 70
     1
102
RTVSPropertyOp58
 70
     1
102
RTVSPropertyOp59
 70
     1
102
RTVSPropertyOp60
 70
     1
102
RTVSPropertyOp61
 70
     1
102
RTVSPropertyOp62
 70
     1
  0
XRECORD
  5
5533
102
{ACAD_REACTORS
330
5532
102
}
330
5532
100
AcDbXrecord
280
     1
102
RTVSPost2010Prop28
280
     0
102
RTVSPost2010PropOp28
 70
     1
102
RTVSPost2010Prop29
280
     1
102
RTVSPost2010PropOp29
 70
     1
102
RTVSPost2010Prop30
280
     1
102
RTVSPost2010PropOp30
 70
     1
102
RTVSPost2010Prop31
280
     0
102
RTVSPost2010PropOp31
 70
     1
102
RTVSPost2010Prop32
280
     0
102
RTVSPost2010PropOp32
 70
     1
102
RTVSPost2010Prop33
280
     0
102
RTVSPost2010PropOp33
 70
     1
102
RTVSPost2010Prop34
280
     0
102
RTVSPost2010PropOp34
 70
     1
102
RTVSPost2010Prop35
280
     0
102
RTVSPost2010PropOp35
 70
     1
102
RTVSPost2010Prop36
280
     0
102
RTVSPost2010PropOp36
 70
     1
102
RTVSPost2010Prop37
 90
       50
102
RTVSPost2010PropOp37
 70
     1
102
RTVSPost2010Prop38
140
0.0
102
RTVSPost2010PropOp38
 70
     1
102
RTVSPost2010Prop39
140
1.0
102
RTVSPost2010PropOp39
 70
     1
102
RTVSPost2010Prop40
 90
        0
102
RTVSPost2010PropOp40
 70
     1
102
RTVSPost2010Prop41ColorIndex
 90
       18
102
RTVSPost2010Prop41ColorRGB
 90
        0
102
RTVSPost2010PropOp41
 70
     1
102
RTVSPost2010Prop42
 90
       50
102
RTVSPost2010PropOp42
 70
     1
102
RTVSPost2010Prop43
 90
        3
102
RTVSPost2010PropOp43
 70
     1
102
RTVSPost2010Prop44ColorIndex
 90
        5
102
RTVSPost2010Prop44ColorRGB
 90
      255
102
RTVSPost2010PropOp44
 70
     1
102
RTVSPost2010Prop45
280
     0
102
RTVSPost2010PropOp45
 70
     1
102
RTVSPost2010Prop46
 90
       50
102
RTVSPost2010PropOp46
 70
     1
102
RTVSPost2010Prop47
 90
       50
102
RTVSPost2010PropOp47
 70
     1
102
RTVSPost2010Prop48
 90
       50
102
RTVSPost2010PropOp48
 70
     1
102
RTVSPost2010Prop49
280
     0
102
RTVSPost2010PropOp49
 70
     1
102
RTVSPost2010Prop50
 90
       50
102
RTVSPost2010PropOp50
 70
     1
102
RTVSPost2010Prop51ColorIndex
 90
      256
102
RTVSPost2010Prop51ColorRGB
 90
-16777216
102
RTVSPost2010PropOp51
 70
     0
102
RTVSPost2010Prop52
140
1.0
102
RTVSPost2010PropOp52
 70
     0
102
RTVSPost2010Prop53
 90
        2
102
RTVSPost2010PropOp53
 70
     1
102
RTVSPost2010Prop54
  1
strokes_ogs.tif
102
RTVSPost2010PropOp54
 70
     1
102
RTVSPost2010Prop55
280
     0
102
RTVSPost2010PropOp55
 70
     1
102
RTVSPost2010Prop56
140
1.0
102
RTVSPost2010PropOp56
 70
     1
102
RTVSPost2010Prop57
140
1.0
102
RTVSPost2010PropOp57
 70
     1
102
RTVSPropertyOp0
 70
     1
102
RTVSPropertyOp1
 70
     1
102
RTVSPropertyOp2
 70
     1
102
RTVSPropertyOp3
 70
     1
102
RTVSPropertyOp4
 70
     1
102
RTVSPropertyOp5
 70
     1
102
RTVSPropertyOp6
 70
     1
102
RTVSPropertyOp7
 70
     1
102
RTVSPropertyOp8
 70
     1
102
RTVSPropertyOp9
 70
     1
102
RTVSPropertyOp10
 70
     1
102
RTVSPropertyOp11
 70
     1
102
RTVSPropertyOp12
 70
     1
102
RTVSPropertyOp13
 70
     1
102
RTVSPropertyOp14
 70
     1
102
RTVSPropertyOp15
 70
     1
102
RTVSPropertyOp16
 70
     1
102
RTVSPropertyOp17
 70
     1
102
RTVSPropertyOp18
 70
     1
102
RTVSPropertyOp19
 70
     1
102
RTVSPropertyOp20
 70
     1
102
RTVSPropertyOp21
 70
     1
102
RTVSPropertyOp22
 70
     1
102
RTVSPropertyOp23
 70
     1
102
RTVSPropertyOp24
 70
     1
102
RTVSPropertyOp25
 70
     1
102
RTVSPropertyOp26
 70
     1
102
RTVSPropertyOp27
 70
     1
102
RTVSPropertyOp28
 70
     1
102
RTVSPropertyOp29
 70
     1
102
RTVSPropertyOp30
 70
     1
102
RTVSPropertyOp31
 70
     1
102
RTVSPropertyOp32
 70
     1
102
RTVSPropertyOp33
 70
     1
102
RTVSPropertyOp34
 70
     1
102
RTVSPropertyOp35
 70
     1
102
RTVSPropertyOp36
 70
     1
102
RTVSPropertyOp37
 70
     1
102
RTVSPropertyOp38
 70
     1
102
RTVSPropertyOp39
 70
     1
102
RTVSPropertyOp40
 70
     1
102
RTVSPropertyOp41
 70
     1
102
RTVSPropertyOp42
 70
     1
102
RTVSPropertyOp43
 70
     1
102
RTVSPropertyOp44
 70
     1
102
RTVSPropertyOp45
 70
     1
102
RTVSPropertyOp46
 70
     1
102
RTVSPropertyOp47
 70
     1
102
RTVSPropertyOp48
 70
     1
102
RTVSPropertyOp49
 70
     1
102
RTVSPropertyOp50
 70
     1
102
RTVSPropertyOp51
 70
     0
102
RTVSPropertyOp52
 70
     0
102
RTVSPropertyOp53
 70
     1
102
RTVSPropertyOp54
 70
     1
102
RTVSPropertyOp55
 70
     1
102
RTVSPropertyOp56
 70
     1
102
RTVSPropertyOp57
 70
     1
102
RTVSPropertyOp58
 70
     1
102
RTVSPropertyOp59
 70
     1
102
RTVSPropertyOp60
 70
     1
102
RTVSPropertyOp61
 70
     1
102
RTVSPropertyOp62
 70
     1
  0
XRECORD
  5
5537
102
{ACAD_REACTORS
330
5536
102
}
330
5536
100
AcDbXrecord
280
     1
102
RTVSPost2010Prop28
280
     0
102
RTVSPost2010PropOp28
 70
     1
102
RTVSPost2010Prop29
280
     1
102
RTVSPost2010PropOp29
 70
     1
102
RTVSPost2010Prop30
280
     1
102
RTVSPost2010PropOp30
 70
     1
102
RTVSPost2010Prop31
280
     0
102
RTVSPost2010PropOp31
 70
     1
102
RTVSPost2010Prop32
280
     0
102
RTVSPost2010PropOp32
 70
     1
102
RTVSPost2010Prop33
280
     0
102
RTVSPost2010PropOp33
 70
     1
102
RTVSPost2010Prop34
280
     0
102
RTVSPost2010PropOp34
 70
     1
102
RTVSPost2010Prop35
280
     0
102
RTVSPost2010PropOp35
 70
     1
102
RTVSPost2010Prop36
280
     0
102
RTVSPost2010PropOp36
 70
     1
102
RTVSPost2010Prop37
 90
       50
102
RTVSPost2010PropOp37
 70
     1
102
RTVSPost2010Prop38
140
0.0
102
RTVSPost2010PropOp38
 70
     1
102
RTVSPost2010Prop39
140
1.0
102
RTVSPost2010PropOp39
 70
     1
102
RTVSPost2010Prop40
 90
        0
102
RTVSPost2010PropOp40
 70
     1
102
RTVSPost2010Prop41ColorIndex
 90
       18
102
RTVSPost2010Prop41ColorRGB
 90
        0
102
RTVSPost2010PropOp41
 70
     1
102
RTVSPost2010Prop42
 90
       50
102
RTVSPost2010PropOp42
 70
     1
102
RTVSPost2010Prop43
 90
        3
102
RTVSPost2010PropOp43
 70
     1
102
RTVSPost2010Prop44ColorIndex
 90
        5
102
RTVSPost2010Prop44ColorRGB
 90
      255
102
RTVSPost2010PropOp44
 70
     1
102
RTVSPost2010Prop45
280
     0
102
RTVSPost2010PropOp45
 70
     1
102
RTVSPost2010Prop46
 90
       50
102
RTVSPost2010PropOp46
 70
     1
102
RTVSPost2010Prop47
 90
       50
102
RTVSPost2010PropOp47
 70
     1
102
RTVSPost2010Prop48
 90
       50
102
RTVSPost2010PropOp48
 70
     1
102
RTVSPost2010Prop49
280
     0
102
RTVSPost2010PropOp49
 70
     1
102
RTVSPost2010Prop50
 90
       50
102
RTVSPost2010PropOp50
 70
     1
102
RTVSPost2010Prop51ColorIndex
 90
      256
102
RTVSPost2010Prop51ColorRGB
 90
-16777216
102
RTVSPost2010PropOp51
 70
     0
102
RTVSPost2010Prop52
140
1.0
102
RTVSPost2010PropOp52
 70
     0
102
RTVSPost2010Prop53
 90
        2
102
RTVSPost2010PropOp53
 70
     1
102
RTVSPost2010Prop54
  1
strokes_ogs.tif
102
RTVSPost2010PropOp54
 70
     1
102
RTVSPost2010Prop55
280
     0
102
RTVSPost2010PropOp55
 70
     1
102
RTVSPost2010Prop56
140
1.0
102
RTVSPost2010PropOp56
 70
     1
102
RTVSPost2010Prop57
140
1.0
102
RTVSPost2010PropOp57
 70
     1
102
RTVSPropertyOp0
 70
     1
102
RTVSPropertyOp1
 70
     1
102
RTVSPropertyOp2
 70
     1
102
RTVSPropertyOp3
 70
     1
102
RTVSPropertyOp4
 70
     1
102
RTVSPropertyOp5
 70
     1
102
RTVSPropertyOp6
 70
     1
102
RTVSPropertyOp7
 70
     1
102
RTVSPropertyOp8
 70
     1
102
RTVSPropertyOp9
 70
     1
102
RTVSPropertyOp10
 70
     1
102
RTVSPropertyOp11
 70
     1
102
RTVSPropertyOp12
 70
     1
102
RTVSPropertyOp13
 70
     1
102
RTVSPropertyOp14
 70
     1
102
RTVSPropertyOp15
 70
     1
102
RTVSPropertyOp16
 70
     1
102
RTVSPropertyOp17
 70
     1
102
RTVSPropertyOp18
 70
     1
102
RTVSPropertyOp19
 70
     1
102
RTVSPropertyOp20
 70
     1
102
RTVSPropertyOp21
 70
     1
102
RTVSPropertyOp22
 70
     1
102
RTVSPropertyOp23
 70
     1
102
RTVSPropertyOp24
 70
     1
102
RTVSPropertyOp25
 70
     1
102
RTVSPropertyOp26
 70
     1
102
RTVSPropertyOp27
 70
     1
102
RTVSPropertyOp28
 70
     1
102
RTVSPropertyOp29
 70
     1
102
RTVSPropertyOp30
 70
     1
102
RTVSPropertyOp31
 70
     1
102
RTVSPropertyOp32
 70
     1
102
RTVSPropertyOp33
 70
     1
102
RTVSPropertyOp34
 70
     1
102
RTVSPropertyOp35
 70
     1
102
RTVSPropertyOp36
 70
     1
102
RTVSPropertyOp37
 70
     1
102
RTVSPropertyOp38
 70
     1
102
RTVSPropertyOp39
 70
     1
102
RTVSPropertyOp40
 70
     1
102
RTVSPropertyOp41
 70
     1
102
RTVSPropertyOp42
 70
     1
102
RTVSPropertyOp43
 70
     1
102
RTVSPropertyOp44
 70
     1
102
RTVSPropertyOp45
 70
     1
102
RTVSPropertyOp46
 70
     1
102
RTVSPropertyOp47
 70
     1
102
RTVSPropertyOp48
 70
     1
102
RTVSPropertyOp49
 70
     1
102
RTVSPropertyOp50
 70
     1
102
RTVSPropertyOp51
 70
     0
102
RTVSPropertyOp52
 70
     0
102
RTVSPropertyOp53
 70
     1
102
RTVSPropertyOp54
 70
     1
102
RTVSPropertyOp55
 70
     1
102
RTVSPropertyOp56
 70
     1
102
RTVSPropertyOp57
 70
     1
102
RTVSPropertyOp58
 70
     1
102
RTVSPropertyOp59
 70
     1
102
RTVSPropertyOp60
 70
     1
102
RTVSPropertyOp61
 70
     1
102
RTVSPropertyOp62
 70
     1
  0
XRECORD
  5
5551
102
{ACAD_REACTORS
330
5550
102
}
330
5550
100
AcDbXrecord
280
     1
102
RTVSPost2010Prop28
280
     0
102
RTVSPost2010PropOp28
 70
     1
102
RTVSPost2010Prop29
280
     1
102
RTVSPost2010PropOp29
 70
     1
102
RTVSPost2010Prop30
280
     1
102
RTVSPost2010PropOp30
 70
     1
102
RTVSPost2010Prop31
280
     0
102
RTVSPost2010PropOp31
 70
     1
102
RTVSPost2010Prop32
280
     0
102
RTVSPost2010PropOp32
 70
     1
102
RTVSPost2010Prop33
280
     0
102
RTVSPost2010PropOp33
 70
     1
102
RTVSPost2010Prop34
280
     0
102
RTVSPost2010PropOp34
 70
     1
102
RTVSPost2010Prop35
280
     0
102
RTVSPost2010PropOp35
 70
     1
102
RTVSPost2010Prop36
280
     0
102
RTVSPost2010PropOp36
 70
     1
102
RTVSPost2010Prop37
 90
       50
102
RTVSPost2010PropOp37
 70
     0
102
RTVSPost2010Prop38
140
0.0
102
RTVSPost2010PropOp38
 70
     0
102
RTVSPost2010Prop39
140
1.0
102
RTVSPost2010PropOp39
 70
     0
102
RTVSPost2010Prop40
 90
        0
102
RTVSPost2010PropOp40
 70
     0
102
RTVSPost2010Prop41ColorIndex
 90
       18
102
RTVSPost2010Prop41ColorRGB
 90
        0
102
RTVSPost2010PropOp41
 70
     0
102
RTVSPost2010Prop42
 90
       50
102
RTVSPost2010PropOp42
 70
     0
102
RTVSPost2010Prop43
 90
        3
102
RTVSPost2010PropOp43
 70
     0
102
RTVSPost2010Prop44ColorIndex
 90
        5
102
RTVSPost2010Prop44ColorRGB
 90
      255
102
RTVSPost2010PropOp44
 70
     0
102
RTVSPost2010Prop45
280
     0
102
RTVSPost2010PropOp45
 70
     1
102
RTVSPost2010Prop46
 90
       50
102
RTVSPost2010PropOp46
 70
     0
102
RTVSPost2010Prop47
 90
       50
102
RTVSPost2010PropOp47
 70
     0
102
RTVSPost2010Prop48
 90
       50
102
RTVSPost2010PropOp48
 70
     0
102
RTVSPost2010Prop49
280
     0
102
RTVSPost2010PropOp49
 70
     1
102
RTVSPost2010Prop50
 90
       50
102
RTVSPost2010PropOp50
 70
     0
102
RTVSPost2010Prop51ColorIndex
 90
      256
102
RTVSPost2010Prop51ColorRGB
 90
-16777216
102
RTVSPost2010PropOp51
 70
     0
102
RTVSPost2010Prop52
140
1.0
102
RTVSPost2010PropOp52
 70
     0
102
RTVSPost2010Prop53
 90
        2
102
RTVSPost2010PropOp53
 70
     0
102
RTVSPost2010Prop54
  1
strokes_ogs.tif
102
RTVSPost2010PropOp54
 70
     0
102
RTVSPost2010Prop55
280
     0
102
RTVSPost2010PropOp55
 70
     1
102
RTVSPost2010Prop56
140
1.0
102
RTVSPost2010PropOp56
 70
     0
102
RTVSPost2010Prop57
140
1.0
102
RTVSPost2010PropOp57
 70
     0
102
RTVSPropertyOp0
 70
     0
102
RTVSPropertyOp1
 70
     0
102
RTVSPropertyOp2
 70
     0
102
RTVSPropertyOp3
 70
     0
102
RTVSPropertyOp4
 70
     0
102
RTVSPropertyOp5
 70
     0
102
RTVSPropertyOp6
 70
     0
102
RTVSPropertyOp7
 70
     0
102
RTVSPropertyOp8
 70
     0
102
RTVSPropertyOp9
 70
     0
102
RTVSPropertyOp10
 70
     0
102
RTVSPropertyOp11
 70
     0
102
RTVSPropertyOp12
 70
     0
102
RTVSPropertyOp13
 70
     0
102
RTVSPropertyOp14
 70
     2
102
RTVSPropertyOp15
 70
     0
102
RTVSPropertyOp16
 70
     0
102
RTVSPropertyOp17
 70
     0
102
RTVSPropertyOp18
 70
     0
102
RTVSPropertyOp19
 70
     0
102
RTVSPropertyOp20
 70
     0
102
RTVSPropertyOp21
 70
     0
102
RTVSPropertyOp22
 70
     0
102
RTVSPropertyOp23
 70
     0
102
RTVSPropertyOp24
 70
     0
102
RTVSPropertyOp25
 70
     0
102
RTVSPropertyOp26
 70
     0
102
RTVSPropertyOp27
 70
     0
102
RTVSPropertyOp28
 70
     1
102
RTVSPropertyOp29
 70
     1
102
RTVSPropertyOp30
 70
     1
102
RTVSPropertyOp31
 70
     1
102
RTVSPropertyOp32
 70
     1
102
RTVSPropertyOp33
 70
     1
102
RTVSPropertyOp34
 70
     1
102
RTVSPropertyOp35
 70
     1
102
RTVSPropertyOp36
 70
     1
102
RTVSPropertyOp37
 70
     0
102
RTVSPropertyOp38
 70
     0
102
RTVSPropertyOp39
 70
     0
102
RTVSPropertyOp40
 70
     0
102
RTVSPropertyOp41
 70
     0
102
RTVSPropertyOp42
 70
     0
102
RTVSPropertyOp43
 70
     0
102
RTVSPropertyOp44
 70
     0
102
RTVSPropertyOp45
 70
     1
102
RTVSPropertyOp46
 70
     0
102
RTVSPropertyOp47
 70
     0
102
RTVSPropertyOp48
 70
     0
102
RTVSPropertyOp49
 70
     1
102
RTVSPropertyOp50
 70
     0
102
RTVSPropertyOp51
 70
     0
102
RTVSPropertyOp52
 70
     0
102
RTVSPropertyOp53
 70
     0
102
RTVSPropertyOp54
 70
     0
102
RTVSPropertyOp55
 70
     1
102
RTVSPropertyOp56
 70
     0
102
RTVSPropertyOp57
 70
     0
102
RTVSPropertyOp58
 70
     0
102
RTVSPropertyOp59
 70
     0
102
RTVSPropertyOp60
 70
     0
102
RTVSPropertyOp61
 70
     0
102
RTVSPropertyOp62
 70
     0
  0
XRECORD
  5
553F
102
{ACAD_REACTORS
330
553E
102
}
330
553E
100
AcDbXrecord
280
     1
102
RTVSPost2010Prop28
280
     0
102
RTVSPost2010PropOp28
 70
     1
102
RTVSPost2010Prop29
280
     1
102
RTVSPost2010PropOp29
 70
     1
102
RTVSPost2010Prop30
280
     1
102
RTVSPost2010PropOp30
 70
     1
102
RTVSPost2010Prop31
280
     0
102
RTVSPost2010PropOp31
 70
     1
102
RTVSPost2010Prop32
280
     0
102
RTVSPost2010PropOp32
 70
     1
102
RTVSPost2010Prop33
280
     0
102
RTVSPost2010PropOp33
 70
     1
102
RTVSPost2010Prop34
280
     0
102
RTVSPost2010PropOp34
 70
     1
102
RTVSPost2010Prop35
280
     0
102
RTVSPost2010PropOp35
 70
     1
102
RTVSPost2010Prop36
280
     0
102
RTVSPost2010PropOp36
 70
     1
102
RTVSPost2010Prop37
 90
       50
102
RTVSPost2010PropOp37
 70
     1
102
RTVSPost2010Prop38
140
0.0
102
RTVSPost2010PropOp38
 70
     1
102
RTVSPost2010Prop39
140
1.0
102
RTVSPost2010PropOp39
 70
     1
102
RTVSPost2010Prop40
 90
        0
102
RTVSPost2010PropOp40
 70
     1
102
RTVSPost2010Prop41ColorIndex
 90
       18
102
RTVSPost2010Prop41ColorRGB
 90
        0
102
RTVSPost2010PropOp41
 70
     1
102
RTVSPost2010Prop42
 90
       50
102
RTVSPost2010PropOp42
 70
     1
102
RTVSPost2010Prop43
 90
        3
102
RTVSPost2010PropOp43
 70
     1
102
RTVSPost2010Prop44ColorIndex
 90
        5
102
RTVSPost2010Prop44ColorRGB
 90
      255
102
RTVSPost2010PropOp44
 70
     1
102
RTVSPost2010Prop45
280
     0
102
RTVSPost2010PropOp45
 70
     1
102
RTVSPost2010Prop46
 90
       50
102
RTVSPost2010PropOp46
 70
     1
102
RTVSPost2010Prop47
 90
       50
102
RTVSPost2010PropOp47
 70
     1
102
RTVSPost2010Prop48
 90
       50
102
RTVSPost2010PropOp48
 70
     1
102
RTVSPost2010Prop49
280
     0
102
RTVSPost2010PropOp49
 70
     1
102
RTVSPost2010Prop50
 90
       50
102
RTVSPost2010PropOp50
 70
     1
102
RTVSPost2010Prop51ColorIndex
 90
      256
102
RTVSPost2010Prop51ColorRGB
 90
-16777216
102
RTVSPost2010PropOp51
 70
     0
102
RTVSPost2010Prop52
140
1.0
102
RTVSPost2010PropOp52
 70
     0
102
RTVSPost2010Prop53
 90
        2
102
RTVSPost2010PropOp53
 70
     1
102
RTVSPost2010Prop54
  1
strokes_ogs.tif
102
RTVSPost2010PropOp54
 70
     1
102
RTVSPost2010Prop55
280
     0
102
RTVSPost2010PropOp55
 70
     1
102
RTVSPost2010Prop56
140
1.0
102
RTVSPost2010PropOp56
 70
     1
102
RTVSPost2010Prop57
140
1.0
102
RTVSPost2010PropOp57
 70
     1
102
RTVSPropertyOp0
 70
     1
102
RTVSPropertyOp1
 70
     1
102
RTVSPropertyOp2
 70
     1
102
RTVSPropertyOp3
 70
     1
102
RTVSPropertyOp4
 70
     1
102
RTVSPropertyOp5
 70
     1
102
RTVSPropertyOp6
 70
     1
102
RTVSPropertyOp7
 70
     1
102
RTVSPropertyOp8
 70
     1
102
RTVSPropertyOp9
 70
     1
102
RTVSPropertyOp10
 70
     1
102
RTVSPropertyOp11
 70
     1
102
RTVSPropertyOp12
 70
     1
102
RTVSPropertyOp13
 70
     1
102
RTVSPropertyOp14
 70
     1
102
RTVSPropertyOp15
 70
     1
102
RTVSPropertyOp16
 70
     1
102
RTVSPropertyOp17
 70
     1
102
RTVSPropertyOp18
 70
     1
102
RTVSPropertyOp19
 70
     1
102
RTVSPropertyOp20
 70
     1
102
RTVSPropertyOp21
 70
     1
102
RTVSPropertyOp22
 70
     1
102
RTVSPropertyOp23
 70
     1
102
RTVSPropertyOp24
 70
     1
102
RTVSPropertyOp25
 70
     1
102
RTVSPropertyOp26
 70
     1
102
RTVSPropertyOp27
 70
     1
102
RTVSPropertyOp28
 70
     1
102
RTVSPropertyOp29
 70
     1
102
RTVSPropertyOp30
 70
     1
102
RTVSPropertyOp31
 70
     1
102
RTVSPropertyOp32
 70
     1
102
RTVSPropertyOp33
 70
     1
102
RTVSPropertyOp34
 70
     1
102
RTVSPropertyOp35
 70
     1
102
RTVSPropertyOp36
 70
     1
102
RTVSPropertyOp37
 70
     1
102
RTVSPropertyOp38
 70
     1
102
RTVSPropertyOp39
 70
     1
102
RTVSPropertyOp40
 70
     1
102
RTVSPropertyOp41
 70
     1
102
RTVSPropertyOp42
 70
     1
102
RTVSPropertyOp43
 70
     1
102
RTVSPropertyOp44
 70
     1
102
RTVSPropertyOp45
 70
     1
102
RTVSPropertyOp46
 70
     1
102
RTVSPropertyOp47
 70
     1
102
RTVSPropertyOp48
 70
     1
102
RTVSPropertyOp49
 70
     1
102
RTVSPropertyOp50
 70
     1
102
RTVSPropertyOp51
 70
     0
102
RTVSPropertyOp52
 70
     0
102
RTVSPropertyOp53
 70
     1
102
RTVSPropertyOp54
 70
     1
102
RTVSPropertyOp55
 70
     1
102
RTVSPropertyOp56
 70
     1
102
RTVSPropertyOp57
 70
     1
102
RTVSPropertyOp58
 70
     1
102
RTVSPropertyOp59
 70
     1
102
RTVSPropertyOp60
 70
     1
102
RTVSPropertyOp61
 70
     1
102
RTVSPropertyOp62
 70
     1
  0
XRECORD
  5
5523
102
{ACAD_REACTORS
330
5522
102
}
330
5522
100
AcDbXrecord
280
     1
102
RTVSPost2010Prop28
280
     0
102
RTVSPost2010PropOp28
 70
     1
102
RTVSPost2010Prop29
280
     1
102
RTVSPost2010PropOp29
 70
     1
102
RTVSPost2010Prop30
280
     1
102
RTVSPost2010PropOp30
 70
     1
102
RTVSPost2010Prop31
280
     0
102
RTVSPost2010PropOp31
 70
     1
102
RTVSPost2010Prop32
280
     0
102
RTVSPost2010PropOp32
 70
     1
102
RTVSPost2010Prop33
280
     0
102
RTVSPost2010PropOp33
 70
     1
102
RTVSPost2010Prop34
280
     0
102
RTVSPost2010PropOp34
 70
     1
102
RTVSPost2010Prop35
280
     0
102
RTVSPost2010PropOp35
 70
     1
102
RTVSPost2010Prop36
280
     0
102
RTVSPost2010PropOp36
 70
     1
102
RTVSPost2010Prop37
 90
       50
102
RTVSPost2010PropOp37
 70
     1
102
RTVSPost2010Prop38
140
0.0
102
RTVSPost2010PropOp38
 70
     1
102
RTVSPost2010Prop39
140
1.0
102
RTVSPost2010PropOp39
 70
     1
102
RTVSPost2010Prop40
 90
        0
102
RTVSPost2010PropOp40
 70
     1
102
RTVSPost2010Prop41ColorIndex
 90
       18
102
RTVSPost2010Prop41ColorRGB
 90
        0
102
RTVSPost2010PropOp41
 70
     1
102
RTVSPost2010Prop42
 90
       50
102
RTVSPost2010PropOp42
 70
     1
102
RTVSPost2010Prop43
 90
        3
102
RTVSPost2010PropOp43
 70
     1
102
RTVSPost2010Prop44ColorIndex
 90
        5
102
RTVSPost2010Prop44ColorRGB
 90
      255
102
RTVSPost2010PropOp44
 70
     1
102
RTVSPost2010Prop45
280
     0
102
RTVSPost2010PropOp45
 70
     1
102
RTVSPost2010Prop46
 90
       50
102
RTVSPost2010PropOp46
 70
     1
102
RTVSPost2010Prop47
 90
       50
102
RTVSPost2010PropOp47
 70
     1
102
RTVSPost2010Prop48
 90
       50
102
RTVSPost2010PropOp48
 70
     1
102
RTVSPost2010Prop49
280
     0
102
RTVSPost2010PropOp49
 70
     1
102
RTVSPost2010Prop50
 90
       50
102
RTVSPost2010PropOp50
 70
     1
102
RTVSPost2010Prop51ColorIndex
 90
      256
102
RTVSPost2010Prop51ColorRGB
 90
-16777216
102
RTVSPost2010PropOp51
 70
     0
102
RTVSPost2010Prop52
140
1.0
102
RTVSPost2010PropOp52
 70
     0
102
RTVSPost2010Prop53
 90
        2
102
RTVSPost2010PropOp53
 70
     1
102
RTVSPost2010Prop54
  1
strokes_ogs.tif
102
RTVSPost2010PropOp54
 70
     1
102
RTVSPost2010Prop55
280
     0
102
RTVSPost2010PropOp55
 70
     1
102
RTVSPost2010Prop56
140
1.0
102
RTVSPost2010PropOp56
 70
     1
102
RTVSPost2010Prop57
140
1.0
102
RTVSPost2010PropOp57
 70
     1
102
RTVSPropertyOp0
 70
     1
102
RTVSPropertyOp1
 70
     1
102
RTVSPropertyOp2
 70
     1
102
RTVSPropertyOp3
 70
     1
102
RTVSPropertyOp4
 70
     1
102
RTVSPropertyOp5
 70
     1
102
RTVSPropertyOp6
 70
     1
102
RTVSPropertyOp7
 70
     1
102
RTVSPropertyOp8
 70
     1
102
RTVSPropertyOp9
 70
     1
102
RTVSPropertyOp10
 70
     1
102
RTVSPropertyOp11
 70
     1
102
RTVSPropertyOp12
 70
     1
102
RTVSPropertyOp13
 70
     1
102
RTVSPropertyOp14
 70
     1
102
RTVSPropertyOp15
 70
     1
102
RTVSPropertyOp16
 70
     1
102
RTVSPropertyOp17
 70
     1
102
RTVSPropertyOp18
 70
     1
102
RTVSPropertyOp19
 70
     1
102
RTVSPropertyOp20
 70
     1
102
RTVSPropertyOp21
 70
     1
102
RTVSPropertyOp22
 70
     1
102
RTVSPropertyOp23
 70
     1
102
RTVSPropertyOp24
 70
     1
102
RTVSPropertyOp25
 70
     1
102
RTVSPropertyOp26
 70
     1
102
RTVSPropertyOp27
 70
     1
102
RTVSPropertyOp28
 70
     1
102
RTVSPropertyOp29
 70
     1
102
RTVSPropertyOp30
 70
     1
102
RTVSPropertyOp31
 70
     1
102
RTVSPropertyOp32
 70
     1
102
RTVSPropertyOp33
 70
     1
102
RTVSPropertyOp34
 70
     1
102
RTVSPropertyOp35
 70
     1
102
RTVSPropertyOp36
 70
     1
102
RTVSPropertyOp37
 70
     1
102
RTVSPropertyOp38
 70
     1
102
RTVSPropertyOp39
 70
     1
102
RTVSPropertyOp40
 70
     1
102
RTVSPropertyOp41
 70
     1
102
RTVSPropertyOp42
 70
     1
102
RTVSPropertyOp43
 70
     1
102
RTVSPropertyOp44
 70
     1
102
RTVSPropertyOp45
 70
     1
102
RTVSPropertyOp46
 70
     1
102
RTVSPropertyOp47
 70
     1
102
RTVSPropertyOp48
 70
     1
102
RTVSPropertyOp49
 70
     1
102
RTVSPropertyOp50
 70
     1
102
RTVSPropertyOp51
 70
     0
102
RTVSPropertyOp52
 70
     0
102
RTVSPropertyOp53
 70
     1
102
RTVSPropertyOp54
 70
     1
102
RTVSPropertyOp55
 70
     1
102
RTVSPropertyOp56
 70
     1
102
RTVSPropertyOp57
 70
     1
102
RTVSPropertyOp58
 70
     1
102
RTVSPropertyOp59
 70
     1
102
RTVSPropertyOp60
 70
     1
102
RTVSPropertyOp61
 70
     1
102
RTVSPropertyOp62
 70
     1
  0
XRECORD
  5
5525
102
{ACAD_REACTORS
330
5524
102
}
330
5524
100
AcDbXrecord
280
     1
102
RTVSPost2010Prop28
280
     0
102
RTVSPost2010PropOp28
 70
     1
102
RTVSPost2010Prop29
280
     1
102
RTVSPost2010PropOp29
 70
     1
102
RTVSPost2010Prop30
280
     1
102
RTVSPost2010PropOp30
 70
     1
102
RTVSPost2010Prop31
280
     0
102
RTVSPost2010PropOp31
 70
     1
102
RTVSPost2010Prop32
280
     0
102
RTVSPost2010PropOp32
 70
     1
102
RTVSPost2010Prop33
280
     0
102
RTVSPost2010PropOp33
 70
     1
102
RTVSPost2010Prop34
280
     0
102
RTVSPost2010PropOp34
 70
     1
102
RTVSPost2010Prop35
280
     0
102
RTVSPost2010PropOp35
 70
     1
102
RTVSPost2010Prop36
280
     0
102
RTVSPost2010PropOp36
 70
     1
102
RTVSPost2010Prop37
 90
       50
102
RTVSPost2010PropOp37
 70
     1
102
RTVSPost2010Prop38
140
0.0
102
RTVSPost2010PropOp38
 70
     1
102
RTVSPost2010Prop39
140
1.0
102
RTVSPost2010PropOp39
 70
     1
102
RTVSPost2010Prop40
 90
        0
102
RTVSPost2010PropOp40
 70
     1
102
RTVSPost2010Prop41ColorIndex
 90
       18
102
RTVSPost2010Prop41ColorRGB
 90
        0
102
RTVSPost2010PropOp41
 70
     1
102
RTVSPost2010Prop42
 90
       50
102
RTVSPost2010PropOp42
 70
     1
102
RTVSPost2010Prop43
 90
        3
102
RTVSPost2010PropOp43
 70
     1
102
RTVSPost2010Prop44ColorIndex
 90
        5
102
RTVSPost2010Prop44ColorRGB
 90
      255
102
RTVSPost2010PropOp44
 70
     1
102
RTVSPost2010Prop45
280
     0
102
RTVSPost2010PropOp45
 70
     1
102
RTVSPost2010Prop46
 90
       50
102
RTVSPost2010PropOp46
 70
     1
102
RTVSPost2010Prop47
 90
       50
102
RTVSPost2010PropOp47
 70
     1
102
RTVSPost2010Prop48
 90
       50
102
RTVSPost2010PropOp48
 70
     1
102
RTVSPost2010Prop49
280
     0
102
RTVSPost2010PropOp49
 70
     1
102
RTVSPost2010Prop50
 90
       50
102
RTVSPost2010PropOp50
 70
     1
102
RTVSPost2010Prop51ColorIndex
 90
      256
102
RTVSPost2010Prop51ColorRGB
 90
-16777216
102
RTVSPost2010PropOp51
 70
     0
102
RTVSPost2010Prop52
140
1.0
102
RTVSPost2010PropOp52
 70
     0
102
RTVSPost2010Prop53
 90
        2
102
RTVSPost2010PropOp53
 70
     1
102
RTVSPost2010Prop54
  1
strokes_ogs.tif
102
RTVSPost2010PropOp54
 70
     1
102
RTVSPost2010Prop55
280
     0
102
RTVSPost2010PropOp55
 70
     1
102
RTVSPost2010Prop56
140
1.0
102
RTVSPost2010PropOp56
 70
     1
102
RTVSPost2010Prop57
140
1.0
102
RTVSPost2010PropOp57
 70
     1
102
RTVSPropertyOp0
 70
     1
102
RTVSPropertyOp1
 70
     1
102
RTVSPropertyOp2
 70
     1
102
RTVSPropertyOp3
 70
     1
102
RTVSPropertyOp4
 70
     1
102
RTVSPropertyOp5
 70
     1
102
RTVSPropertyOp6
 70
     1
102
RTVSPropertyOp7
 70
     1
102
RTVSPropertyOp8
 70
     1
102
RTVSPropertyOp9
 70
     1
102
RTVSPropertyOp10
 70
     1
102
RTVSPropertyOp11
 70
     1
102
RTVSPropertyOp12
 70
     1
102
RTVSPropertyOp13
 70
     1
102
RTVSPropertyOp14
 70
     1
102
RTVSPropertyOp15
 70
     1
102
RTVSPropertyOp16
 70
     1
102
RTVSPropertyOp17
 70
     1
102
RTVSPropertyOp18
 70
     1
102
RTVSPropertyOp19
 70
     1
102
RTVSPropertyOp20
 70
     1
102
RTVSPropertyOp21
 70
     1
102
RTVSPropertyOp22
 70
     1
102
RTVSPropertyOp23
 70
     1
102
RTVSPropertyOp24
 70
     1
102
RTVSPropertyOp25
 70
     1
102
RTVSPropertyOp26
 70
     1
102
RTVSPropertyOp27
 70
     1
102
RTVSPropertyOp28
 70
     1
102
RTVSPropertyOp29
 70
     1
102
RTVSPropertyOp30
 70
     1
102
RTVSPropertyOp31
 70
     1
102
RTVSPropertyOp32
 70
     1
102
RTVSPropertyOp33
 70
     1
102
RTVSPropertyOp34
 70
     1
102
RTVSPropertyOp35
 70
     1
102
RTVSPropertyOp36
 70
     1
102
RTVSPropertyOp37
 70
     1
102
RTVSPropertyOp38
 70
     1
102
RTVSPropertyOp39
 70
     1
102
RTVSPropertyOp40
 70
     1
102
RTVSPropertyOp41
 70
     1
102
RTVSPropertyOp42
 70
     1
102
RTVSPropertyOp43
 70
     1
102
RTVSPropertyOp44
 70
     1
102
RTVSPropertyOp45
 70
     1
102
RTVSPropertyOp46
 70
     1
102
RTVSPropertyOp47
 70
     1
102
RTVSPropertyOp48
 70
     1
102
RTVSPropertyOp49
 70
     1
102
RTVSPropertyOp50
 70
     1
102
RTVSPropertyOp51
 70
     0
102
RTVSPropertyOp52
 70
     0
102
RTVSPropertyOp53
 70
     1
102
RTVSPropertyOp54
 70
     1
102
RTVSPropertyOp55
 70
     1
102
RTVSPropertyOp56
 70
     1
102
RTVSPropertyOp57
 70
     1
102
RTVSPropertyOp58
 70
     1
102
RTVSPropertyOp59
 70
     1
102
RTVSPropertyOp60
 70
     1
102
RTVSPropertyOp61
 70
     1
102
RTVSPropertyOp62
 70
     1
  0
XRECORD
  5
5527
102
{ACAD_REACTORS
330
5526
102
}
330
5526
100
AcDbXrecord
280
     1
102
RTVSPost2010Prop28
280
     0
102
RTVSPost2010PropOp28
 70
     1
102
RTVSPost2010Prop29
280
     1
102
RTVSPost2010PropOp29
 70
     1
102
RTVSPost2010Prop30
280
     1
102
RTVSPost2010PropOp30
 70
     1
102
RTVSPost2010Prop31
280
     0
102
RTVSPost2010PropOp31
 70
     1
102
RTVSPost2010Prop32
280
     0
102
RTVSPost2010PropOp32
 70
     1
102
RTVSPost2010Prop33
280
     0
102
RTVSPost2010PropOp33
 70
     1
102
RTVSPost2010Prop34
280
     0
102
RTVSPost2010PropOp34
 70
     1
102
RTVSPost2010Prop35
280
     0
102
RTVSPost2010PropOp35
 70
     1
102
RTVSPost2010Prop36
280
     0
102
RTVSPost2010PropOp36
 70
     1
102
RTVSPost2010Prop37
 90
       50
102
RTVSPost2010PropOp37
 70
     1
102
RTVSPost2010Prop38
140
0.0
102
RTVSPost2010PropOp38
 70
     1
102
RTVSPost2010Prop39
140
1.0
102
RTVSPost2010PropOp39
 70
     1
102
RTVSPost2010Prop40
 90
        0
102
RTVSPost2010PropOp40
 70
     1
102
RTVSPost2010Prop41ColorIndex
 90
       18
102
RTVSPost2010Prop41ColorRGB
 90
        0
102
RTVSPost2010PropOp41
 70
     1
102
RTVSPost2010Prop42
 90
       50
102
RTVSPost2010PropOp42
 70
     1
102
RTVSPost2010Prop43
 90
        3
102
RTVSPost2010PropOp43
 70
     1
102
RTVSPost2010Prop44ColorIndex
 90
        5
102
RTVSPost2010Prop44ColorRGB
 90
      255
102
RTVSPost2010PropOp44
 70
     1
102
RTVSPost2010Prop45
280
     0
102
RTVSPost2010PropOp45
 70
     1
102
RTVSPost2010Prop46
 90
       50
102
RTVSPost2010PropOp46
 70
     1
102
RTVSPost2010Prop47
 90
       50
102
RTVSPost2010PropOp47
 70
     1
102
RTVSPost2010Prop48
 90
       50
102
RTVSPost2010PropOp48
 70
     1
102
RTVSPost2010Prop49
280
     0
102
RTVSPost2010PropOp49
 70
     1
102
RTVSPost2010Prop50
 90
       50
102
RTVSPost2010PropOp50
 70
     1
102
RTVSPost2010Prop51ColorIndex
 90
      256
102
RTVSPost2010Prop51ColorRGB
 90
-16777216
102
RTVSPost2010PropOp51
 70
     0
102
RTVSPost2010Prop52
140
1.0
102
RTVSPost2010PropOp52
 70
     0
102
RTVSPost2010Prop53
 90
        2
102
RTVSPost2010PropOp53
 70
     1
102
RTVSPost2010Prop54
  1
strokes_ogs.tif
102
RTVSPost2010PropOp54
 70
     1
102
RTVSPost2010Prop55
280
     0
102
RTVSPost2010PropOp55
 70
     1
102
RTVSPost2010Prop56
140
1.0
102
RTVSPost2010PropOp56
 70
     1
102
RTVSPost2010Prop57
140
1.0
102
RTVSPost2010PropOp57
 70
     1
102
RTVSPropertyOp0
 70
     1
102
RTVSPropertyOp1
 70
     1
102
RTVSPropertyOp2
 70
     1
102
RTVSPropertyOp3
 70
     1
102
RTVSPropertyOp4
 70
     1
102
RTVSPropertyOp5
 70
     1
102
RTVSPropertyOp6
 70
     1
102
RTVSPropertyOp7
 70
     1
102
RTVSPropertyOp8
 70
     1
102
RTVSPropertyOp9
 70
     1
102
RTVSPropertyOp10
 70
     1
102
RTVSPropertyOp11
 70
     1
102
RTVSPropertyOp12
 70
     1
102
RTVSPropertyOp13
 70
     1
102
RTVSPropertyOp14
 70
     1
102
RTVSPropertyOp15
 70
     1
102
RTVSPropertyOp16
 70
     1
102
RTVSPropertyOp17
 70
     1
102
RTVSPropertyOp18
 70
     1
102
RTVSPropertyOp19
 70
     1
102
RTVSPropertyOp20
 70
     1
102
RTVSPropertyOp21
 70
     1
102
RTVSPropertyOp22
 70
     1
102
RTVSPropertyOp23
 70
     1
102
RTVSPropertyOp24
 70
     1
102
RTVSPropertyOp25
 70
     1
102
RTVSPropertyOp26
 70
     1
102
RTVSPropertyOp27
 70
     1
102
RTVSPropertyOp28
 70
     1
102
RTVSPropertyOp29
 70
     1
102
RTVSPropertyOp30
 70
     1
102
RTVSPropertyOp31
 70
     1
102
RTVSPropertyOp32
 70
     1
102
RTVSPropertyOp33
 70
     1
102
RTVSPropertyOp34
 70
     1
102
RTVSPropertyOp35
 70
     1
102
RTVSPropertyOp36
 70
     1
102
RTVSPropertyOp37
 70
     1
102
RTVSPropertyOp38
 70
     1
102
RTVSPropertyOp39
 70
     1
102
RTVSPropertyOp40
 70
     1
102
RTVSPropertyOp41
 70
     1
102
RTVSPropertyOp42
 70
     1
102
RTVSPropertyOp43
 70
     1
102
RTVSPropertyOp44
 70
     1
102
RTVSPropertyOp45
 70
     1
102
RTVSPropertyOp46
 70
     1
102
RTVSPropertyOp47
 70
     1
102
RTVSPropertyOp48
 70
     1
102
RTVSPropertyOp49
 70
     1
102
RTVSPropertyOp50
 70
     1
102
RTVSPropertyOp51
 70
     0
102
RTVSPropertyOp52
 70
     0
102
RTVSPropertyOp53
 70
     1
102
RTVSPropertyOp54
 70
     1
102
RTVSPropertyOp55
 70
     1
102
RTVSPropertyOp56
 70
     1
102
RTVSPropertyOp57
 70
     1
102
RTVSPropertyOp58
 70
     1
102
RTVSPropertyOp59
 70
     1
102
RTVSPropertyOp60
 70
     1
102
RTVSPropertyOp61
 70
     1
102
RTVSPropertyOp62
 70
     1
  0
XRECORD
  5
5529
102
{ACAD_REACTORS
330
5528
102
}
330
5528
100
AcDbXrecord
280
     1
102
RTVSPost2010Prop28
280
     0
102
RTVSPost2010PropOp28
 70
     1
102
RTVSPost2010Prop29
280
     1
102
RTVSPost2010PropOp29
 70
     1
102
RTVSPost2010Prop30
280
     1
102
RTVSPost2010PropOp30
 70
     1
102
RTVSPost2010Prop31
280
     0
102
RTVSPost2010PropOp31
 70
     1
102
RTVSPost2010Prop32
280
     0
102
RTVSPost2010PropOp32
 70
     1
102
RTVSPost2010Prop33
280
     0
102
RTVSPost2010PropOp33
 70
     1
102
RTVSPost2010Prop34
280
     0
102
RTVSPost2010PropOp34
 70
     1
102
RTVSPost2010Prop35
280
     0
102
RTVSPost2010PropOp35
 70
     1
102
RTVSPost2010Prop36
280
     0
102
RTVSPost2010PropOp36
 70
     1
102
RTVSPost2010Prop37
 90
       50
102
RTVSPost2010PropOp37
 70
     1
102
RTVSPost2010Prop38
140
0.0
102
RTVSPost2010PropOp38
 70
     1
102
RTVSPost2010Prop39
140
1.0
102
RTVSPost2010PropOp39
 70
     1
102
RTVSPost2010Prop40
 90
        0
102
RTVSPost2010PropOp40
 70
     1
102
RTVSPost2010Prop41ColorIndex
 90
       18
102
RTVSPost2010Prop41ColorRGB
 90
        0
102
RTVSPost2010PropOp41
 70
     1
102
RTVSPost2010Prop42
 90
       50
102
RTVSPost2010PropOp42
 70
     1
102
RTVSPost2010Prop43
 90
        3
102
RTVSPost2010PropOp43
 70
     1
102
RTVSPost2010Prop44ColorIndex
 90
        5
102
RTVSPost2010Prop44ColorRGB
 90
      255
102
RTVSPost2010PropOp44
 70
     1
102
RTVSPost2010Prop45
280
     0
102
RTVSPost2010PropOp45
 70
     1
102
RTVSPost2010Prop46
 90
       50
102
RTVSPost2010PropOp46
 70
     1
102
RTVSPost2010Prop47
 90
       50
102
RTVSPost2010PropOp47
 70
     1
102
RTVSPost2010Prop48
 90
       50
102
RTVSPost2010PropOp48
 70
     1
102
RTVSPost2010Prop49
280
     0
102
RTVSPost2010PropOp49
 70
     1
102
RTVSPost2010Prop50
 90
       50
102
RTVSPost2010PropOp50
 70
     1
102
RTVSPost2010Prop51ColorIndex
 90
      256
102
RTVSPost2010Prop51ColorRGB
 90
-16777216
102
RTVSPost2010PropOp51
 70
     0
102
RTVSPost2010Prop52
140
1.0
102
RTVSPost2010PropOp52
 70
     0
102
RTVSPost2010Prop53
 90
        2
102
RTVSPost2010PropOp53
 70
     1
102
RTVSPost2010Prop54
  1
strokes_ogs.tif
102
RTVSPost2010PropOp54
 70
     1
102
RTVSPost2010Prop55
280
     0
102
RTVSPost2010PropOp55
 70
     1
102
RTVSPost2010Prop56
140
1.0
102
RTVSPost2010PropOp56
 70
     1
102
RTVSPost2010Prop57
140
1.0
102
RTVSPost2010PropOp57
 70
     1
102
RTVSPropertyOp0
 70
     1
102
RTVSPropertyOp1
 70
     1
102
RTVSPropertyOp2
 70
     1
102
RTVSPropertyOp3
 70
     1
102
RTVSPropertyOp4
 70
     1
102
RTVSPropertyOp5
 70
     1
102
RTVSPropertyOp6
 70
     1
102
RTVSPropertyOp7
 70
     1
102
RTVSPropertyOp8
 70
     1
102
RTVSPropertyOp9
 70
     1
102
RTVSPropertyOp10
 70
     1
102
RTVSPropertyOp11
 70
     1
102
RTVSPropertyOp12
 70
     1
102
RTVSPropertyOp13
 70
     1
102
RTVSPropertyOp14
 70
     1
102
RTVSPropertyOp15
 70
     1
102
RTVSPropertyOp16
 70
     1
102
RTVSPropertyOp17
 70
     1
102
RTVSPropertyOp18
 70
     1
102
RTVSPropertyOp19
 70
     1
102
RTVSPropertyOp20
 70
     1
102
RTVSPropertyOp21
 70
     1
102
RTVSPropertyOp22
 70
     1
102
RTVSPropertyOp23
 70
     1
102
RTVSPropertyOp24
 70
     1
102
RTVSPropertyOp25
 70
     1
102
RTVSPropertyOp26
 70
     1
102
RTVSPropertyOp27
 70
     1
102
RTVSPropertyOp28
 70
     1
102
RTVSPropertyOp29
 70
     1
102
RTVSPropertyOp30
 70
     1
102
RTVSPropertyOp31
 70
     1
102
RTVSPropertyOp32
 70
     1
102
RTVSPropertyOp33
 70
     1
102
RTVSPropertyOp34
 70
     1
102
RTVSPropertyOp35
 70
     1
102
RTVSPropertyOp36
 70
     1
102
RTVSPropertyOp37
 70
     1
102
RTVSPropertyOp38
 70
     1
102
RTVSPropertyOp39
 70
     1
102
RTVSPropertyOp40
 70
     1
102
RTVSPropertyOp41
 70
     1
102
RTVSPropertyOp42
 70
     1
102
RTVSPropertyOp43
 70
     1
102
RTVSPropertyOp44
 70
     1
102
RTVSPropertyOp45
 70
     1
102
RTVSPropertyOp46
 70
     1
102
RTVSPropertyOp47
 70
     1
102
RTVSPropertyOp48
 70
     1
102
RTVSPropertyOp49
 70
     1
102
RTVSPropertyOp50
 70
     1
102
RTVSPropertyOp51
 70
     0
102
RTVSPropertyOp52
 70
     0
102
RTVSPropertyOp53
 70
     1
102
RTVSPropertyOp54
 70
     1
102
RTVSPropertyOp55
 70
     1
102
RTVSPropertyOp56
 70
     1
102
RTVSPropertyOp57
 70
     1
102
RTVSPropertyOp58
 70
     1
102
RTVSPropertyOp59
 70
     1
102
RTVSPropertyOp60
 70
     1
102
RTVSPropertyOp61
 70
     1
102
RTVSPropertyOp62
 70
     1
  0
XRECORD
  5
5531
102
{ACAD_REACTORS
330
5530
102
}
330
5530
100
AcDbXrecord
280
     1
102
RTVSPost2010Prop28
280
     0
102
RTVSPost2010PropOp28
 70
     1
102
RTVSPost2010Prop29
280
     1
102
RTVSPost2010PropOp29
 70
     1
102
RTVSPost2010Prop30
280
     1
102
RTVSPost2010PropOp30
 70
     1
102
RTVSPost2010Prop31
280
     0
102
RTVSPost2010PropOp31
 70
     1
102
RTVSPost2010Prop32
280
     0
102
RTVSPost2010PropOp32
 70
     1
102
RTVSPost2010Prop33
280
     0
102
RTVSPost2010PropOp33
 70
     1
102
RTVSPost2010Prop34
280
     0
102
RTVSPost2010PropOp34
 70
     1
102
RTVSPost2010Prop35
280
     0
102
RTVSPost2010PropOp35
 70
     1
102
RTVSPost2010Prop36
280
     0
102
RTVSPost2010PropOp36
 70
     1
102
RTVSPost2010Prop37
 90
       50
102
RTVSPost2010PropOp37
 70
     1
102
RTVSPost2010Prop38
140
0.0
102
RTVSPost2010PropOp38
 70
     1
102
RTVSPost2010Prop39
140
1.0
102
RTVSPost2010PropOp39
 70
     1
102
RTVSPost2010Prop40
 90
        0
102
RTVSPost2010PropOp40
 70
     1
102
RTVSPost2010Prop41ColorIndex
 90
       18
102
RTVSPost2010Prop41ColorRGB
 90
        0
102
RTVSPost2010PropOp41
 70
     1
102
RTVSPost2010Prop42
 90
       50
102
RTVSPost2010PropOp42
 70
     1
102
RTVSPost2010Prop43
 90
        3
102
RTVSPost2010PropOp43
 70
     1
102
RTVSPost2010Prop44ColorIndex
 90
        5
102
RTVSPost2010Prop44ColorRGB
 90
      255
102
RTVSPost2010PropOp44
 70
     1
102
RTVSPost2010Prop45
280
     0
102
RTVSPost2010PropOp45
 70
     1
102
RTVSPost2010Prop46
 90
       50
102
RTVSPost2010PropOp46
 70
     1
102
RTVSPost2010Prop47
 90
       50
102
RTVSPost2010PropOp47
 70
     1
102
RTVSPost2010Prop48
 90
       50
102
RTVSPost2010PropOp48
 70
     1
102
RTVSPost2010Prop49
280
     0
102
RTVSPost2010PropOp49
 70
     1
102
RTVSPost2010Prop50
 90
       50
102
RTVSPost2010PropOp50
 70
     1
102
RTVSPost2010Prop51ColorIndex
 90
      256
102
RTVSPost2010Prop51ColorRGB
 90
-16777216
102
RTVSPost2010PropOp51
 70
     0
102
RTVSPost2010Prop52
140
1.0
102
RTVSPost2010PropOp52
 70
     0
102
RTVSPost2010Prop53
 90
        2
102
RTVSPost2010PropOp53
 70
     1
102
RTVSPost2010Prop54
  1
strokes_ogs.tif
102
RTVSPost2010PropOp54
 70
     1
102
RTVSPost2010Prop55
280
     0
102
RTVSPost2010PropOp55
 70
     1
102
RTVSPost2010Prop56
140
1.0
102
RTVSPost2010PropOp56
 70
     1
102
RTVSPost2010Prop57
140
1.0
102
RTVSPost2010PropOp57
 70
     1
102
RTVSPropertyOp0
 70
     1
102
RTVSPropertyOp1
 70
     1
102
RTVSPropertyOp2
 70
     1
102
RTVSPropertyOp3
 70
     1
102
RTVSPropertyOp4
 70
     1
102
RTVSPropertyOp5
 70
     1
102
RTVSPropertyOp6
 70
     1
102
RTVSPropertyOp7
 70
     1
102
RTVSPropertyOp8
 70
     1
102
RTVSPropertyOp9
 70
     1
102
RTVSPropertyOp10
 70
     1
102
RTVSPropertyOp11
 70
     1
102
RTVSPropertyOp12
 70
     1
102
RTVSPropertyOp13
 70
     1
102
RTVSPropertyOp14
 70
     1
102
RTVSPropertyOp15
 70
     1
102
RTVSPropertyOp16
 70
     1
102
RTVSPropertyOp17
 70
     1
102
RTVSPropertyOp18
 70
     1
102
RTVSPropertyOp19
 70
     1
102
RTVSPropertyOp20
 70
     1
102
RTVSPropertyOp21
 70
     1
102
RTVSPropertyOp22
 70
     1
102
RTVSPropertyOp23
 70
     1
102
RTVSPropertyOp24
 70
     1
102
RTVSPropertyOp25
 70
     1
102
RTVSPropertyOp26
 70
     1
102
RTVSPropertyOp27
 70
     1
102
RTVSPropertyOp28
 70
     1
102
RTVSPropertyOp29
 70
     1
102
RTVSPropertyOp30
 70
     1
102
RTVSPropertyOp31
 70
     1
102
RTVSPropertyOp32
 70
     1
102
RTVSPropertyOp33
 70
     1
102
RTVSPropertyOp34
 70
     1
102
RTVSPropertyOp35
 70
     1
102
RTVSPropertyOp36
 70
     1
102
RTVSPropertyOp37
 70
     1
102
RTVSPropertyOp38
 70
     1
102
RTVSPropertyOp39
 70
     1
102
RTVSPropertyOp40
 70
     1
102
RTVSPropertyOp41
 70
     1
102
RTVSPropertyOp42
 70
     1
102
RTVSPropertyOp43
 70
     1
102
RTVSPropertyOp44
 70
     1
102
RTVSPropertyOp45
 70
     1
102
RTVSPropertyOp46
 70
     1
102
RTVSPropertyOp47
 70
     1
102
RTVSPropertyOp48
 70
     1
102
RTVSPropertyOp49
 70
     1
102
RTVSPropertyOp50
 70
     1
102
RTVSPropertyOp51
 70
     0
102
RTVSPropertyOp52
 70
     0
102
RTVSPropertyOp53
 70
     1
102
RTVSPropertyOp54
 70
     1
102
RTVSPropertyOp55
 70
     1
102
RTVSPropertyOp56
 70
     1
102
RTVSPropertyOp57
 70
     1
102
RTVSPropertyOp58
 70
     1
102
RTVSPropertyOp59
 70
     1
102
RTVSPropertyOp60
 70
     1
102
RTVSPropertyOp61
 70
     1
102
RTVSPropertyOp62
 70
     1
  0
XRECORD
  5
554D
102
{ACAD_REACTORS
330
554C
102
}
330
554C
100
AcDbXrecord
280
     1
102
RTVSPost2010Prop28
280
     0
102
RTVSPost2010PropOp28
 70
     1
102
RTVSPost2010Prop29
280
     1
102
RTVSPost2010PropOp29
 70
     1
102
RTVSPost2010Prop30
280
     1
102
RTVSPost2010PropOp30
 70
     1
102
RTVSPost2010Prop31
280
     0
102
RTVSPost2010PropOp31
 70
     1
102
RTVSPost2010Prop32
280
     0
102
RTVSPost2010PropOp32
 70
     1
102
RTVSPost2010Prop33
280
     0
102
RTVSPost2010PropOp33
 70
     1
102
RTVSPost2010Prop34
280
     0
102
RTVSPost2010PropOp34
 70
     1
102
RTVSPost2010Prop35
280
     0
102
RTVSPost2010PropOp35
 70
     1
102
RTVSPost2010Prop36
280
     0
102
RTVSPost2010PropOp36
 70
     1
102
RTVSPost2010Prop37
 90
       50
102
RTVSPost2010PropOp37
 70
     0
102
RTVSPost2010Prop38
140
0.0
102
RTVSPost2010PropOp38
 70
     0
102
RTVSPost2010Prop39
140
1.0
102
RTVSPost2010PropOp39
 70
     0
102
RTVSPost2010Prop40
 90
        0
102
RTVSPost2010PropOp40
 70
     0
102
RTVSPost2010Prop41ColorIndex
 90
       18
102
RTVSPost2010Prop41ColorRGB
 90
        0
102
RTVSPost2010PropOp41
 70
     0
102
RTVSPost2010Prop42
 90
       50
102
RTVSPost2010PropOp42
 70
     0
102
RTVSPost2010Prop43
 90
        3
102
RTVSPost2010PropOp43
 70
     0
102
RTVSPost2010Prop44ColorIndex
 90
        5
102
RTVSPost2010Prop44ColorRGB
 90
      255
102
RTVSPost2010PropOp44
 70
     0
102
RTVSPost2010Prop45
280
     0
102
RTVSPost2010PropOp45
 70
     1
102
RTVSPost2010Prop46
 90
       50
102
RTVSPost2010PropOp46
 70
     0
102
RTVSPost2010Prop47
 90
       50
102
RTVSPost2010PropOp47
 70
     0
102
RTVSPost2010Prop48
 90
       50
102
RTVSPost2010PropOp48
 70
     0
102
RTVSPost2010Prop49
280
     0
102
RTVSPost2010PropOp49
 70
     1
102
RTVSPost2010Prop50
 90
       50
102
RTVSPost2010PropOp50
 70
     0
102
RTVSPost2010Prop51ColorIndex
 90
      256
102
RTVSPost2010Prop51ColorRGB
 90
-16777216
102
RTVSPost2010PropOp51
 70
     0
102
RTVSPost2010Prop52
140
1.0
102
RTVSPost2010PropOp52
 70
     0
102
RTVSPost2010Prop53
 90
        2
102
RTVSPost2010PropOp53
 70
     0
102
RTVSPost2010Prop54
  1
strokes_ogs.tif
102
RTVSPost2010PropOp54
 70
     0
102
RTVSPost2010Prop55
280
     0
102
RTVSPost2010PropOp55
 70
     1
102
RTVSPost2010Prop56
140
1.0
102
RTVSPost2010PropOp56
 70
     0
102
RTVSPost2010Prop57
140
1.0
102
RTVSPost2010PropOp57
 70
     0
102
RTVSPropertyOp0
 70
     0
102
RTVSPropertyOp1
 70
     0
102
RTVSPropertyOp2
 70
     0
102
RTVSPropertyOp3
 70
     0
102
RTVSPropertyOp4
 70
     0
102
RTVSPropertyOp5
 70
     0
102
RTVSPropertyOp6
 70
     0
102
RTVSPropertyOp7
 70
     0
102
RTVSPropertyOp8
 70
     0
102
RTVSPropertyOp9
 70
     0
102
RTVSPropertyOp10
 70
     0
102
RTVSPropertyOp11
 70
     0
102
RTVSPropertyOp12
 70
     0
102
RTVSPropertyOp13
 70
     0
102
RTVSPropertyOp14
 70
     2
102
RTVSPropertyOp15
 70
     0
102
RTVSPropertyOp16
 70
     0
102
RTVSPropertyOp17
 70
     0
102
RTVSPropertyOp18
 70
     0
102
RTVSPropertyOp19
 70
     0
102
RTVSPropertyOp20
 70
     0
102
RTVSPropertyOp21
 70
     0
102
RTVSPropertyOp22
 70
     0
102
RTVSPropertyOp23
 70
     0
102
RTVSPropertyOp24
 70
     0
102
RTVSPropertyOp25
 70
     0
102
RTVSPropertyOp26
 70
     0
102
RTVSPropertyOp27
 70
     0
102
RTVSPropertyOp28
 70
     1
102
RTVSPropertyOp29
 70
     1
102
RTVSPropertyOp30
 70
     1
102
RTVSPropertyOp31
 70
     1
102
RTVSPropertyOp32
 70
     1
102
RTVSPropertyOp33
 70
     1
102
RTVSPropertyOp34
 70
     1
102
RTVSPropertyOp35
 70
     1
102
RTVSPropertyOp36
 70
     1
102
RTVSPropertyOp37
 70
     0
102
RTVSPropertyOp38
 70
     0
102
RTVSPropertyOp39
 70
     0
102
RTVSPropertyOp40
 70
     0
102
RTVSPropertyOp41
 70
     0
102
RTVSPropertyOp42
 70
     0
102
RTVSPropertyOp43
 70
     0
102
RTVSPropertyOp44
 70
     0
102
RTVSPropertyOp45
 70
     1
102
RTVSPropertyOp46
 70
     0
102
RTVSPropertyOp47
 70
     0
102
RTVSPropertyOp48
 70
     0
102
RTVSPropertyOp49
 70
     1
102
RTVSPropertyOp50
 70
     0
102
RTVSPropertyOp51
 70
     0
102
RTVSPropertyOp52
 70
     0
102
RTVSPropertyOp53
 70
     0
102
RTVSPropertyOp54
 70
     0
102
RTVSPropertyOp55
 70
     1
102
RTVSPropertyOp56
 70
     0
102
RTVSPropertyOp57
 70
     0
102
RTVSPropertyOp58
 70
     0
102
RTVSPropertyOp59
 70
     0
102
RTVSPropertyOp60
 70
     0
102
RTVSPropertyOp61
 70
     0
102
RTVSPropertyOp62
 70
     0
  0
XRECORD
  5
553D
102
{ACAD_REACTORS
330
553C
102
}
330
553C
100
AcDbXrecord
280
     1
102
RTVSPost2010Prop28
280
     0
102
RTVSPost2010PropOp28
 70
     1
102
RTVSPost2010Prop29
280
     1
102
RTVSPost2010PropOp29
 70
     1
102
RTVSPost2010Prop30
280
     1
102
RTVSPost2010PropOp30
 70
     1
102
RTVSPost2010Prop31
280
     0
102
RTVSPost2010PropOp31
 70
     1
102
RTVSPost2010Prop32
280
     0
102
RTVSPost2010PropOp32
 70
     1
102
RTVSPost2010Prop33
280
     0
102
RTVSPost2010PropOp33
 70
     1
102
RTVSPost2010Prop34
280
     0
102
RTVSPost2010PropOp34
 70
     1
102
RTVSPost2010Prop35
280
     0
102
RTVSPost2010PropOp35
 70
     1
102
RTVSPost2010Prop36
280
     0
102
RTVSPost2010PropOp36
 70
     1
102
RTVSPost2010Prop37
 90
       50
102
RTVSPost2010PropOp37
 70
     1
102
RTVSPost2010Prop38
140
0.0
102
RTVSPost2010PropOp38
 70
     1
102
RTVSPost2010Prop39
140
1.0
102
RTVSPost2010PropOp39
 70
     1
102
RTVSPost2010Prop40
 90
        0
102
RTVSPost2010PropOp40
 70
     1
102
RTVSPost2010Prop41ColorIndex
 90
       18
102
RTVSPost2010Prop41ColorRGB
 90
        0
102
RTVSPost2010PropOp41
 70
     1
102
RTVSPost2010Prop42
 90
       50
102
RTVSPost2010PropOp42
 70
     1
102
RTVSPost2010Prop43
 90
        3
102
RTVSPost2010PropOp43
 70
     1
102
RTVSPost2010Prop44ColorIndex
 90
        5
102
RTVSPost2010Prop44ColorRGB
 90
      255
102
RTVSPost2010PropOp44
 70
     1
102
RTVSPost2010Prop45
280
     0
102
RTVSPost2010PropOp45
 70
     1
102
RTVSPost2010Prop46
 90
       50
102
RTVSPost2010PropOp46
 70
     1
102
RTVSPost2010Prop47
 90
       50
102
RTVSPost2010PropOp47
 70
     1
102
RTVSPost2010Prop48
 90
       50
102
RTVSPost2010PropOp48
 70
     1
102
RTVSPost2010Prop49
280
     0
102
RTVSPost2010PropOp49
 70
     1
102
RTVSPost2010Prop50
 90
       50
102
RTVSPost2010PropOp50
 70
     1
102
RTVSPost2010Prop51ColorIndex
 90
      256
102
RTVSPost2010Prop51ColorRGB
 90
-16777216
102
RTVSPost2010PropOp51
 70
     0
102
RTVSPost2010Prop52
140
1.0
102
RTVSPost2010PropOp52
 70
     0
102
RTVSPost2010Prop53
 90
        2
102
RTVSPost2010PropOp53
 70
     1
102
RTVSPost2010Prop54
  1
strokes_ogs.tif
102
RTVSPost2010PropOp54
 70
     1
102
RTVSPost2010Prop55
280
     0
102
RTVSPost2010PropOp55
 70
     1
102
RTVSPost2010Prop56
140
1.0
102
RTVSPost2010PropOp56
 70
     1
102
RTVSPost2010Prop57
140
1.0
102
RTVSPost2010PropOp57
 70
     1
102
RTVSPropertyOp0
 70
     1
102
RTVSPropertyOp1
 70
     1
102
RTVSPropertyOp2
 70
     1
102
RTVSPropertyOp3
 70
     1
102
RTVSPropertyOp4
 70
     1
102
RTVSPropertyOp5
 70
     1
102
RTVSPropertyOp6
 70
     1
102
RTVSPropertyOp7
 70
     1
102
RTVSPropertyOp8
 70
     1
102
RTVSPropertyOp9
 70
     1
102
RTVSPropertyOp10
 70
     1
102
RTVSPropertyOp11
 70
     1
102
RTVSPropertyOp12
 70
     1
102
RTVSPropertyOp13
 70
     1
102
RTVSPropertyOp14
 70
     1
102
RTVSPropertyOp15
 70
     1
102
RTVSPropertyOp16
 70
     1
102
RTVSPropertyOp17
 70
     1
102
RTVSPropertyOp18
 70
     1
102
RTVSPropertyOp19
 70
     1
102
RTVSPropertyOp20
 70
     1
102
RTVSPropertyOp21
 70
     1
102
RTVSPropertyOp22
 70
     1
102
RTVSPropertyOp23
 70
     1
102
RTVSPropertyOp24
 70
     1
102
RTVSPropertyOp25
 70
     1
102
RTVSPropertyOp26
 70
     1
102
RTVSPropertyOp27
 70
     1
102
RTVSPropertyOp28
 70
     1
102
RTVSPropertyOp29
 70
     1
102
RTVSPropertyOp30
 70
     1
102
RTVSPropertyOp31
 70
     1
102
RTVSPropertyOp32
 70
     1
102
RTVSPropertyOp33
 70
     1
102
RTVSPropertyOp34
 70
     1
102
RTVSPropertyOp35
 70
     1
102
RTVSPropertyOp36
 70
     1
102
RTVSPropertyOp37
 70
     1
102
RTVSPropertyOp38
 70
     1
102
RTVSPropertyOp39
 70
     1
102
RTVSPropertyOp40
 70
     1
102
RTVSPropertyOp41
 70
     1
102
RTVSPropertyOp42
 70
     1
102
RTVSPropertyOp43
 70
     1
102
RTVSPropertyOp44
 70
     1
102
RTVSPropertyOp45
 70
     1
102
RTVSPropertyOp46
 70
     1
102
RTVSPropertyOp47
 70
     1
102
RTVSPropertyOp48
 70
     1
102
RTVSPropertyOp49
 70
     1
102
RTVSPropertyOp50
 70
     1
102
RTVSPropertyOp51
 70
     0
102
RTVSPropertyOp52
 70
     0
102
RTVSPropertyOp53
 70
     1
102
RTVSPropertyOp54
 70
     1
102
RTVSPropertyOp55
 70
     1
102
RTVSPropertyOp56
 70
     1
102
RTVSPropertyOp57
 70
     1
102
RTVSPropertyOp58
 70
     1
102
RTVSPropertyOp59
 70
     1
102
RTVSPropertyOp60
 70
     1
102
RTVSPropertyOp61
 70
     1
102
RTVSPropertyOp62
 70
     1
  0
XRECORD
  5
554F
102
{ACAD_REACTORS
330
554E
102
}
330
554E
100
AcDbXrecord
280
     1
102
RTVSPost2010Prop28
280
     0
102
RTVSPost2010PropOp28
 70
     1
102
RTVSPost2010Prop29
280
     1
102
RTVSPost2010PropOp29
 70
     1
102
RTVSPost2010Prop30
280
     1
102
RTVSPost2010PropOp30
 70
     1
102
RTVSPost2010Prop31
280
     0
102
RTVSPost2010PropOp31
 70
     1
102
RTVSPost2010Prop32
280
     0
102
RTVSPost2010PropOp32
 70
     1
102
RTVSPost2010Prop33
280
     0
102
RTVSPost2010PropOp33
 70
     1
102
RTVSPost2010Prop34
280
     0
102
RTVSPost2010PropOp34
 70
     1
102
RTVSPost2010Prop35
280
     0
102
RTVSPost2010PropOp35
 70
     1
102
RTVSPost2010Prop36
280
     0
102
RTVSPost2010PropOp36
 70
     1
102
RTVSPost2010Prop37
 90
       50
102
RTVSPost2010PropOp37
 70
     0
102
RTVSPost2010Prop38
140
0.0
102
RTVSPost2010PropOp38
 70
     0
102
RTVSPost2010Prop39
140
1.0
102
RTVSPost2010PropOp39
 70
     0
102
RTVSPost2010Prop40
 90
        0
102
RTVSPost2010PropOp40
 70
     0
102
RTVSPost2010Prop41ColorIndex
 90
       18
102
RTVSPost2010Prop41ColorRGB
 90
        0
102
RTVSPost2010PropOp41
 70
     0
102
RTVSPost2010Prop42
 90
       50
102
RTVSPost2010PropOp42
 70
     0
102
RTVSPost2010Prop43
 90
        3
102
RTVSPost2010PropOp43
 70
     0
102
RTVSPost2010Prop44ColorIndex
 90
        5
102
RTVSPost2010Prop44ColorRGB
 90
      255
102
RTVSPost2010PropOp44
 70
     0
102
RTVSPost2010Prop45
280
     0
102
RTVSPost2010PropOp45
 70
     1
102
RTVSPost2010Prop46
 90
       50
102
RTVSPost2010PropOp46
 70
     0
102
RTVSPost2010Prop47
 90
       50
102
RTVSPost2010PropOp47
 70
     0
102
RTVSPost2010Prop48
 90
       50
102
RTVSPost2010PropOp48
 70
     0
102
RTVSPost2010Prop49
280
     0
102
RTVSPost2010PropOp49
 70
     1
102
RTVSPost2010Prop50
 90
       50
102
RTVSPost2010PropOp50
 70
     0
102
RTVSPost2010Prop51ColorIndex
 90
      256
102
RTVSPost2010Prop51ColorRGB
 90
-16777216
102
RTVSPost2010PropOp51
 70
     0
102
RTVSPost2010Prop52
140
1.0
102
RTVSPost2010PropOp52
 70
     0
102
RTVSPost2010Prop53
 90
        2
102
RTVSPost2010PropOp53
 70
     0
102
RTVSPost2010Prop54
  1
strokes_ogs.tif
102
RTVSPost2010PropOp54
 70
     0
102
RTVSPost2010Prop55
280
     0
102
RTVSPost2010PropOp55
 70
     1
102
RTVSPost2010Prop56
140
1.0
102
RTVSPost2010PropOp56
 70
     0
102
RTVSPost2010Prop57
140
1.0
102
RTVSPost2010PropOp57
 70
     0
102
RTVSPropertyOp0
 70
     0
102
RTVSPropertyOp1
 70
     0
102
RTVSPropertyOp2
 70
     0
102
RTVSPropertyOp3
 70
     0
102
RTVSPropertyOp4
 70
     0
102
RTVSPropertyOp5
 70
     0
102
RTVSPropertyOp6
 70
     0
102
RTVSPropertyOp7
 70
     0
102
RTVSPropertyOp8
 70
     0
102
RTVSPropertyOp9
 70
     0
102
RTVSPropertyOp10
 70
     0
102
RTVSPropertyOp11
 70
     0
102
RTVSPropertyOp12
 70
     0
102
RTVSPropertyOp13
 70
     0
102
RTVSPropertyOp14
 70
     2
102
RTVSPropertyOp15
 70
     0
102
RTVSPropertyOp16
 70
     0
102
RTVSPropertyOp17
 70
     0
102
RTVSPropertyOp18
 70
     0
102
RTVSPropertyOp19
 70
     0
102
RTVSPropertyOp20
 70
     0
102
RTVSPropertyOp21
 70
     0
102
RTVSPropertyOp22
 70
     0
102
RTVSPropertyOp23
 70
     0
102
RTVSPropertyOp24
 70
     0
102
RTVSPropertyOp25
 70
     0
102
RTVSPropertyOp26
 70
     0
102
RTVSPropertyOp27
 70
     0
102
RTVSPropertyOp28
 70
     1
102
RTVSPropertyOp29
 70
     1
102
RTVSPropertyOp30
 70
     1
102
RTVSPropertyOp31
 70
     1
102
RTVSPropertyOp32
 70
     1
102
RTVSPropertyOp33
 70
     1
102
RTVSPropertyOp34
 70
     1
102
RTVSPropertyOp35
 70
     1
102
RTVSPropertyOp36
 70
     1
102
RTVSPropertyOp37
 70
     0
102
RTVSPropertyOp38
 70
     0
102
RTVSPropertyOp39
 70
     0
102
RTVSPropertyOp40
 70
     0
102
RTVSPropertyOp41
 70
     0
102
RTVSPropertyOp42
 70
     0
102
RTVSPropertyOp43
 70
     0
102
RTVSPropertyOp44
 70
     0
102
RTVSPropertyOp45
 70
     1
102
RTVSPropertyOp46
 70
     0
102
RTVSPropertyOp47
 70
     0
102
RTVSPropertyOp48
 70
     0
102
RTVSPropertyOp49
 70
     1
102
RTVSPropertyOp50
 70
     0
102
RTVSPropertyOp51
 70
     0
102
RTVSPropertyOp52
 70
     0
102
RTVSPropertyOp53
 70
     0
102
RTVSPropertyOp54
 70
     0
102
RTVSPropertyOp55
 70
     1
102
RTVSPropertyOp56
 70
     0
102
RTVSPropertyOp57
 70
     0
102
RTVSPropertyOp58
 70
     0
102
RTVSPropertyOp59
 70
     0
102
RTVSPropertyOp60
 70
     0
102
RTVSPropertyOp61
 70
     0
102
RTVSPropertyOp62
 70
     0
  0
XRECORD
  5
5535
102
{ACAD_REACTORS
330
5534
102
}
330
5534
100
AcDbXrecord
280
     1
102
RTVSPost2010Prop28
280
     0
102
RTVSPost2010PropOp28
 70
     1
102
RTVSPost2010Prop29
280
     1
102
RTVSPost2010PropOp29
 70
     1
102
RTVSPost2010Prop30
280
     1
102
RTVSPost2010PropOp30
 70
     1
102
RTVSPost2010Prop31
280
     0
102
RTVSPost2010PropOp31
 70
     1
102
RTVSPost2010Prop32
280
     0
102
RTVSPost2010PropOp32
 70
     1
102
RTVSPost2010Prop33
280
     0
102
RTVSPost2010PropOp33
 70
     1
102
RTVSPost2010Prop34
280
     0
102
RTVSPost2010PropOp34
 70
     1
102
RTVSPost2010Prop35
280
     0
102
RTVSPost2010PropOp35
 70
     1
102
RTVSPost2010Prop36
280
     0
102
RTVSPost2010PropOp36
 70
     1
102
RTVSPost2010Prop37
 90
       50
102
RTVSPost2010PropOp37
 70
     1
102
RTVSPost2010Prop38
140
0.0
102
RTVSPost2010PropOp38
 70
     1
102
RTVSPost2010Prop39
140
1.0
102
RTVSPost2010PropOp39
 70
     1
102
RTVSPost2010Prop40
 90
        0
102
RTVSPost2010PropOp40
 70
     1
102
RTVSPost2010Prop41ColorIndex
 90
       18
102
RTVSPost2010Prop41ColorRGB
 90
        0
102
RTVSPost2010PropOp41
 70
     1
102
RTVSPost2010Prop42
 90
       50
102
RTVSPost2010PropOp42
 70
     1
102
RTVSPost2010Prop43
 90
        3
102
RTVSPost2010PropOp43
 70
     1
102
RTVSPost2010Prop44ColorIndex
 90
        5
102
RTVSPost2010Prop44ColorRGB
 90
      255
102
RTVSPost2010PropOp44
 70
     1
102
RTVSPost2010Prop45
280
     0
102
RTVSPost2010PropOp45
 70
     1
102
RTVSPost2010Prop46
 90
       50
102
RTVSPost2010PropOp46
 70
     1
102
RTVSPost2010Prop47
 90
       50
102
RTVSPost2010PropOp47
 70
     1
102
RTVSPost2010Prop48
 90
       50
102
RTVSPost2010PropOp48
 70
     1
102
RTVSPost2010Prop49
280
     0
102
RTVSPost2010PropOp49
 70
     1
102
RTVSPost2010Prop50
 90
       50
102
RTVSPost2010PropOp50
 70
     1
102
RTVSPost2010Prop51ColorIndex
 90
      256
102
RTVSPost2010Prop51ColorRGB
 90
-16777216
102
RTVSPost2010PropOp51
 70
     0
102
RTVSPost2010Prop52
140
1.0
102
RTVSPost2010PropOp52
 70
     0
102
RTVSPost2010Prop53
 90
        2
102
RTVSPost2010PropOp53
 70
     1
102
RTVSPost2010Prop54
  1
strokes_ogs.tif
102
RTVSPost2010PropOp54
 70
     1
102
RTVSPost2010Prop55
280
     0
102
RTVSPost2010PropOp55
 70
     1
102
RTVSPost2010Prop56
140
1.0
102
RTVSPost2010PropOp56
 70
     1
102
RTVSPost2010Prop57
140
1.0
102
RTVSPost2010PropOp57
 70
     1
102
RTVSPropertyOp0
 70
     1
102
RTVSPropertyOp1
 70
     1
102
RTVSPropertyOp2
 70
     1
102
RTVSPropertyOp3
 70
     1
102
RTVSPropertyOp4
 70
     1
102
RTVSPropertyOp5
 70
     1
102
RTVSPropertyOp6
 70
     1
102
RTVSPropertyOp7
 70
     1
102
RTVSPropertyOp8
 70
     1
102
RTVSPropertyOp9
 70
     1
102
RTVSPropertyOp10
 70
     1
102
RTVSPropertyOp11
 70
     1
102
RTVSPropertyOp12
 70
     1
102
RTVSPropertyOp13
 70
     1
102
RTVSPropertyOp14
 70
     1
102
RTVSPropertyOp15
 70
     1
102
RTVSPropertyOp16
 70
     1
102
RTVSPropertyOp17
 70
     1
102
RTVSPropertyOp18
 70
     1
102
RTVSPropertyOp19
 70
     1
102
RTVSPropertyOp20
 70
     1
102
RTVSPropertyOp21
 70
     1
102
RTVSPropertyOp22
 70
     1
102
RTVSPropertyOp23
 70
     1
102
RTVSPropertyOp24
 70
     1
102
RTVSPropertyOp25
 70
     1
102
RTVSPropertyOp26
 70
     1
102
RTVSPropertyOp27
 70
     1
102
RTVSPropertyOp28
 70
     1
102
RTVSPropertyOp29
 70
     1
102
RTVSPropertyOp30
 70
     1
102
RTVSPropertyOp31
 70
     1
102
RTVSPropertyOp32
 70
     1
102
RTVSPropertyOp33
 70
     1
102
RTVSPropertyOp34
 70
     1
102
RTVSPropertyOp35
 70
     1
102
RTVSPropertyOp36
 70
     1
102
RTVSPropertyOp37
 70
     1
102
RTVSPropertyOp38
 70
     1
102
RTVSPropertyOp39
 70
     1
102
RTVSPropertyOp40
 70
     1
102
RTVSPropertyOp41
 70
     1
102
RTVSPropertyOp42
 70
     1
102
RTVSPropertyOp43
 70
     1
102
RTVSPropertyOp44
 70
     1
102
RTVSPropertyOp45
 70
     1
102
RTVSPropertyOp46
 70
     1
102
RTVSPropertyOp47
 70
     1
102
RTVSPropertyOp48
 70
     1
102
RTVSPropertyOp49
 70
     1
102
RTVSPropertyOp50
 70
     1
102
RTVSPropertyOp51
 70
     0
102
RTVSPropertyOp52
 70
     0
102
RTVSPropertyOp53
 70
     1
102
RTVSPropertyOp54
 70
     1
102
RTVSPropertyOp55
 70
     1
102
RTVSPropertyOp56
 70
     1
102
RTVSPropertyOp57
 70
     1
102
RTVSPropertyOp58
 70
     1
102
RTVSPropertyOp59
 70
     1
102
RTVSPropertyOp60
 70
     1
102
RTVSPropertyOp61
 70
     1
102
RTVSPropertyOp62
 70
     1
  0
XRECORD
  5
554B
102
{ACAD_REACTORS
330
554A
102
}
330
554A
100
AcDbXrecord
280
     1
102
RTVSPost2010Prop28
280
     0
102
RTVSPost2010PropOp28
 70
     1
102
RTVSPost2010Prop29
280
     1
102
RTVSPost2010PropOp29
 70
     1
102
RTVSPost2010Prop30
280
     1
102
RTVSPost2010PropOp30
 70
     1
102
RTVSPost2010Prop31
280
     0
102
RTVSPost2010PropOp31
 70
     1
102
RTVSPost2010Prop32
280
     0
102
RTVSPost2010PropOp32
 70
     1
102
RTVSPost2010Prop33
280
     0
102
RTVSPost2010PropOp33
 70
     1
102
RTVSPost2010Prop34
280
     0
102
RTVSPost2010PropOp34
 70
     1
102
RTVSPost2010Prop35
280
     0
102
RTVSPost2010PropOp35
 70
     1
102
RTVSPost2010Prop36
280
     0
102
RTVSPost2010PropOp36
 70
     1
102
RTVSPost2010Prop37
 90
       50
102
RTVSPost2010PropOp37
 70
     1
102
RTVSPost2010Prop38
140
0.0
102
RTVSPost2010PropOp38
 70
     1
102
RTVSPost2010Prop39
140
1.0
102
RTVSPost2010PropOp39
 70
     1
102
RTVSPost2010Prop40
 90
        0
102
RTVSPost2010PropOp40
 70
     1
102
RTVSPost2010Prop41ColorIndex
 90
       18
102
RTVSPost2010Prop41ColorRGB
 90
        0
102
RTVSPost2010PropOp41
 70
     1
102
RTVSPost2010Prop42
 90
       50
102
RTVSPost2010PropOp42
 70
     1
102
RTVSPost2010Prop43
 90
        3
102
RTVSPost2010PropOp43
 70
     1
102
RTVSPost2010Prop44ColorIndex
 90
        5
102
RTVSPost2010Prop44ColorRGB
 90
      255
102
RTVSPost2010PropOp44
 70
     1
102
RTVSPost2010Prop45
280
     0
102
RTVSPost2010PropOp45
 70
     1
102
RTVSPost2010Prop46
 90
       50
102
RTVSPost2010PropOp46
 70
     1
102
RTVSPost2010Prop47
 90
       50
102
RTVSPost2010PropOp47
 70
     1
102
RTVSPost2010Prop48
 90
       50
102
RTVSPost2010PropOp48
 70
     1
102
RTVSPost2010Prop49
280
     0
102
RTVSPost2010PropOp49
 70
     1
102
RTVSPost2010Prop50
 90
       50
102
RTVSPost2010PropOp50
 70
     1
102
RTVSPost2010Prop51ColorIndex
 90
      256
102
RTVSPost2010Prop51ColorRGB
 90
-16777216
102
RTVSPost2010PropOp51
 70
     0
102
RTVSPost2010Prop52
140
1.0
102
RTVSPost2010PropOp52
 70
     0
102
RTVSPost2010Prop53
 90
        2
102
RTVSPost2010PropOp53
 70
     1
102
RTVSPost2010Prop54
  1
strokes_ogs.tif
102
RTVSPost2010PropOp54
 70
     1
102
RTVSPost2010Prop55
280
     0
102
RTVSPost2010PropOp55
 70
     1
102
RTVSPost2010Prop56
140
1.0
102
RTVSPost2010PropOp56
 70
     1
102
RTVSPost2010Prop57
140
1.0
102
RTVSPost2010PropOp57
 70
     1
102
RTVSPropertyOp0
 70
     1
102
RTVSPropertyOp1
 70
     1
102
RTVSPropertyOp2
 70
     1
102
RTVSPropertyOp3
 70
     1
102
RTVSPropertyOp4
 70
     1
102
RTVSPropertyOp5
 70
     1
102
RTVSPropertyOp6
 70
     1
102
RTVSPropertyOp7
 70
     1
102
RTVSPropertyOp8
 70
     1
102
RTVSPropertyOp9
 70
     1
102
RTVSPropertyOp10
 70
     1
102
RTVSPropertyOp11
 70
     1
102
RTVSPropertyOp12
 70
     1
102
RTVSPropertyOp13
 70
     1
102
RTVSPropertyOp14
 70
     1
102
RTVSPropertyOp15
 70
     1
102
RTVSPropertyOp16
 70
     1
102
RTVSPropertyOp17
 70
     1
102
RTVSPropertyOp18
 70
     1
102
RTVSPropertyOp19
 70
     1
102
RTVSPropertyOp20
 70
     1
102
RTVSPropertyOp21
 70
     1
102
RTVSPropertyOp22
 70
     1
102
RTVSPropertyOp23
 70
     1
102
RTVSPropertyOp24
 70
     1
102
RTVSPropertyOp25
 70
     1
102
RTVSPropertyOp26
 70
     1
102
RTVSPropertyOp27
 70
     1
102
RTVSPropertyOp28
 70
     1
102
RTVSPropertyOp29
 70
     1
102
RTVSPropertyOp30
 70
     1
102
RTVSPropertyOp31
 70
     1
102
RTVSPropertyOp32
 70
     1
102
RTVSPropertyOp33
 70
     1
102
RTVSPropertyOp34
 70
     1
102
RTVSPropertyOp35
 70
     1
102
RTVSPropertyOp36
 70
     1
102
RTVSPropertyOp37
 70
     1
102
RTVSPropertyOp38
 70
     1
102
RTVSPropertyOp39
 70
     1
102
RTVSPropertyOp40
 70
     1
102
RTVSPropertyOp41
 70
     1
102
RTVSPropertyOp42
 70
     1
102
RTVSPropertyOp43
 70
     1
102
RTVSPropertyOp44
 70
     1
102
RTVSPropertyOp45
 70
     1
102
RTVSPropertyOp46
 70
     1
102
RTVSPropertyOp47
 70
     1
102
RTVSPropertyOp48
 70
     1
102
RTVSPropertyOp49
 70
     1
102
RTVSPropertyOp50
 70
     1
102
RTVSPropertyOp51
 70
     0
102
RTVSPropertyOp52
 70
     0
102
RTVSPropertyOp53
 70
     1
102
RTVSPropertyOp54
 70
     1
102
RTVSPropertyOp55
 70
     1
102
RTVSPropertyOp56
 70
     1
102
RTVSPropertyOp57
 70
     1
102
RTVSPropertyOp58
 70
     1
102
RTVSPropertyOp59
 70
     1
102
RTVSPropertyOp60
 70
     1
102
RTVSPropertyOp61
 70
     1
102
RTVSPropertyOp62
 70
     1
  0
XRECORD
  5
5549
102
{ACAD_REACTORS
330
5548
102
}
330
5548
100
AcDbXrecord
280
     1
102
RTVSPost2010Prop28
280
     0
102
RTVSPost2010PropOp28
 70
     1
102
RTVSPost2010Prop29
280
     1
102
RTVSPost2010PropOp29
 70
     1
102
RTVSPost2010Prop30
280
     1
102
RTVSPost2010PropOp30
 70
     1
102
RTVSPost2010Prop31
280
     0
102
RTVSPost2010PropOp31
 70
     1
102
RTVSPost2010Prop32
280
     0
102
RTVSPost2010PropOp32
 70
     1
102
RTVSPost2010Prop33
280
     0
102
RTVSPost2010PropOp33
 70
     1
102
RTVSPost2010Prop34
280
     0
102
RTVSPost2010PropOp34
 70
     1
102
RTVSPost2010Prop35
280
     0
102
RTVSPost2010PropOp35
 70
     1
102
RTVSPost2010Prop36
280
     0
102
RTVSPost2010PropOp36
 70
     1
102
RTVSPost2010Prop37
 90
       50
102
RTVSPost2010PropOp37
 70
     1
102
RTVSPost2010Prop38
140
0.0
102
RTVSPost2010PropOp38
 70
     1
102
RTVSPost2010Prop39
140
1.0
102
RTVSPost2010PropOp39
 70
     1
102
RTVSPost2010Prop40
 90
        0
102
RTVSPost2010PropOp40
 70
     1
102
RTVSPost2010Prop41ColorIndex
 90
       18
102
RTVSPost2010Prop41ColorRGB
 90
        0
102
RTVSPost2010PropOp41
 70
     1
102
RTVSPost2010Prop42
 90
       50
102
RTVSPost2010PropOp42
 70
     1
102
RTVSPost2010Prop43
 90
        3
102
RTVSPost2010PropOp43
 70
     1
102
RTVSPost2010Prop44ColorIndex
 90
        5
102
RTVSPost2010Prop44ColorRGB
 90
      255
102
RTVSPost2010PropOp44
 70
     1
102
RTVSPost2010Prop45
280
     0
102
RTVSPost2010PropOp45
 70
     1
102
RTVSPost2010Prop46
 90
       50
102
RTVSPost2010PropOp46
 70
     1
102
RTVSPost2010Prop47
 90
       50
102
RTVSPost2010PropOp47
 70
     1
102
RTVSPost2010Prop48
 90
       50
102
RTVSPost2010PropOp48
 70
     1
102
RTVSPost2010Prop49
280
     0
102
RTVSPost2010PropOp49
 70
     1
102
RTVSPost2010Prop50
 90
       50
102
RTVSPost2010PropOp50
 70
     1
102
RTVSPost2010Prop51ColorIndex
 90
      256
102
RTVSPost2010Prop51ColorRGB
 90
-16777216
102
RTVSPost2010PropOp51
 70
     0
102
RTVSPost2010Prop52
140
1.0
102
RTVSPost2010PropOp52
 70
     0
102
RTVSPost2010Prop53
 90
        2
102
RTVSPost2010PropOp53
 70
     1
102
RTVSPost2010Prop54
  1
strokes_ogs.tif
102
RTVSPost2010PropOp54
 70
     1
102
RTVSPost2010Prop55
280
     0
102
RTVSPost2010PropOp55
 70
     1
102
RTVSPost2010Prop56
140
1.0
102
RTVSPost2010PropOp56
 70
     1
102
RTVSPost2010Prop57
140
1.0
102
RTVSPost2010PropOp57
 70
     1
102
RTVSPropertyOp0
 70
     1
102
RTVSPropertyOp1
 70
     1
102
RTVSPropertyOp2
 70
     1
102
RTVSPropertyOp3
 70
     1
102
RTVSPropertyOp4
 70
     1
102
RTVSPropertyOp5
 70
     1
102
RTVSPropertyOp6
 70
     1
102
RTVSPropertyOp7
 70
     1
102
RTVSPropertyOp8
 70
     1
102
RTVSPropertyOp9
 70
     1
102
RTVSPropertyOp10
 70
     1
102
RTVSPropertyOp11
 70
     1
102
RTVSPropertyOp12
 70
     1
102
RTVSPropertyOp13
 70
     1
102
RTVSPropertyOp14
 70
     1
102
RTVSPropertyOp15
 70
     1
102
RTVSPropertyOp16
 70
     1
102
RTVSPropertyOp17
 70
     1
102
RTVSPropertyOp18
 70
     1
102
RTVSPropertyOp19
 70
     1
102
RTVSPropertyOp20
 70
     1
102
RTVSPropertyOp21
 70
     1
102
RTVSPropertyOp22
 70
     1
102
RTVSPropertyOp23
 70
     1
102
RTVSPropertyOp24
 70
     1
102
RTVSPropertyOp25
 70
     1
102
RTVSPropertyOp26
 70
     1
102
RTVSPropertyOp27
 70
     1
102
RTVSPropertyOp28
 70
     1
102
RTVSPropertyOp29
 70
     1
102
RTVSPropertyOp30
 70
     1
102
RTVSPropertyOp31
 70
     1
102
RTVSPropertyOp32
 70
     1
102
RTVSPropertyOp33
 70
     1
102
RTVSPropertyOp34
 70
     1
102
RTVSPropertyOp35
 70
     1
102
RTVSPropertyOp36
 70
     1
102
RTVSPropertyOp37
 70
     1
102
RTVSPropertyOp38
 70
     1
102
RTVSPropertyOp39
 70
     1
102
RTVSPropertyOp40
 70
     1
102
RTVSPropertyOp41
 70
     1
102
RTVSPropertyOp42
 70
     1
102
RTVSPropertyOp43
 70
     1
102
RTVSPropertyOp44
 70
     1
102
RTVSPropertyOp45
 70
     1
102
RTVSPropertyOp46
 70
     1
102
RTVSPropertyOp47
 70
     1
102
RTVSPropertyOp48
 70
     1
102
RTVSPropertyOp49
 70
     1
102
RTVSPropertyOp50
 70
     1
102
RTVSPropertyOp51
 70
     0
102
RTVSPropertyOp52
 70
     0
102
RTVSPropertyOp53
 70
     1
102
RTVSPropertyOp54
 70
     1
102
RTVSPropertyOp55
 70
     1
102
RTVSPropertyOp56
 70
     1
102
RTVSPropertyOp57
 70
     1
102
RTVSPropertyOp58
 70
     1
102
RTVSPropertyOp59
 70
     1
102
RTVSPropertyOp60
 70
     1
102
RTVSPropertyOp61
 70
     1
102
RTVSPropertyOp62
 70
     1
  0
XRECORD
  5
5543
102
{ACAD_REACTORS
330
5542
102
}
330
5542
100
AcDbXrecord
280
     1
102
RTVSPost2010Prop28
280
     0
102
RTVSPost2010PropOp28
 70
     1
102
RTVSPost2010Prop29
280
     1
102
RTVSPost2010PropOp29
 70
     1
102
RTVSPost2010Prop30
280
     1
102
RTVSPost2010PropOp30
 70
     1
102
RTVSPost2010Prop31
280
     0
102
RTVSPost2010PropOp31
 70
     1
102
RTVSPost2010Prop32
280
     0
102
RTVSPost2010PropOp32
 70
     1
102
RTVSPost2010Prop33
280
     0
102
RTVSPost2010PropOp33
 70
     1
102
RTVSPost2010Prop34
280
     0
102
RTVSPost2010PropOp34
 70
     1
102
RTVSPost2010Prop35
280
     0
102
RTVSPost2010PropOp35
 70
     1
102
RTVSPost2010Prop36
280
     0
102
RTVSPost2010PropOp36
 70
     1
102
RTVSPost2010Prop37
 90
       50
102
RTVSPost2010PropOp37
 70
     1
102
RTVSPost2010Prop38
140
0.0
102
RTVSPost2010PropOp38
 70
     1
102
RTVSPost2010Prop39
140
1.0
102
RTVSPost2010PropOp39
 70
     1
102
RTVSPost2010Prop40
 90
        0
102
RTVSPost2010PropOp40
 70
     1
102
RTVSPost2010Prop41ColorIndex
 90
       18
102
RTVSPost2010Prop41ColorRGB
 90
        0
102
RTVSPost2010PropOp41
 70
     1
102
RTVSPost2010Prop42
 90
       50
102
RTVSPost2010PropOp42
 70
     1
102
RTVSPost2010Prop43
 90
        3
102
RTVSPost2010PropOp43
 70
     1
102
RTVSPost2010Prop44ColorIndex
 90
        5
102
RTVSPost2010Prop44ColorRGB
 90
      255
102
RTVSPost2010PropOp44
 70
     1
102
RTVSPost2010Prop45
280
     0
102
RTVSPost2010PropOp45
 70
     1
102
RTVSPost2010Prop46
 90
       50
102
RTVSPost2010PropOp46
 70
     1
102
RTVSPost2010Prop47
 90
       50
102
RTVSPost2010PropOp47
 70
     1
102
RTVSPost2010Prop48
 90
       50
102
RTVSPost2010PropOp48
 70
     1
102
RTVSPost2010Prop49
280
     0
102
RTVSPost2010PropOp49
 70
     1
102
RTVSPost2010Prop50
 90
       50
102
RTVSPost2010PropOp50
 70
     1
102
RTVSPost2010Prop51ColorIndex
 90
      256
102
RTVSPost2010Prop51ColorRGB
 90
-16777216
102
RTVSPost2010PropOp51
 70
     0
102
RTVSPost2010Prop52
140
1.0
102
RTVSPost2010PropOp52
 70
     0
102
RTVSPost2010Prop53
 90
        2
102
RTVSPost2010PropOp53
 70
     1
102
RTVSPost2010Prop54
  1
strokes_ogs.tif
102
RTVSPost2010PropOp54
 70
     1
102
RTVSPost2010Prop55
280
     0
102
RTVSPost2010PropOp55
 70
     1
102
RTVSPost2010Prop56
140
1.0
102
RTVSPost2010PropOp56
 70
     1
102
RTVSPost2010Prop57
140
1.0
102
RTVSPost2010PropOp57
 70
     1
102
RTVSPropertyOp0
 70
     1
102
RTVSPropertyOp1
 70
     1
102
RTVSPropertyOp2
 70
     1
102
RTVSPropertyOp3
 70
     1
102
RTVSPropertyOp4
 70
     1
102
RTVSPropertyOp5
 70
     1
102
RTVSPropertyOp6
 70
     1
102
RTVSPropertyOp7
 70
     1
102
RTVSPropertyOp8
 70
     1
102
RTVSPropertyOp9
 70
     1
102
RTVSPropertyOp10
 70
     1
102
RTVSPropertyOp11
 70
     1
102
RTVSPropertyOp12
 70
     1
102
RTVSPropertyOp13
 70
     1
102
RTVSPropertyOp14
 70
     1
102
RTVSPropertyOp15
 70
     1
102
RTVSPropertyOp16
 70
     1
102
RTVSPropertyOp17
 70
     1
102
RTVSPropertyOp18
 70
     1
102
RTVSPropertyOp19
 70
     1
102
RTVSPropertyOp20
 70
     1
102
RTVSPropertyOp21
 70
     1
102
RTVSPropertyOp22
 70
     1
102
RTVSPropertyOp23
 70
     1
102
RTVSPropertyOp24
 70
     1
102
RTVSPropertyOp25
 70
     1
102
RTVSPropertyOp26
 70
     1
102
RTVSPropertyOp27
 70
     1
102
RTVSPropertyOp28
 70
     1
102
RTVSPropertyOp29
 70
     1
102
RTVSPropertyOp30
 70
     1
102
RTVSPropertyOp31
 70
     1
102
RTVSPropertyOp32
 70
     1
102
RTVSPropertyOp33
 70
     1
102
RTVSPropertyOp34
 70
     1
102
RTVSPropertyOp35
 70
     1
102
RTVSPropertyOp36
 70
     1
102
RTVSPropertyOp37
 70
     1
102
RTVSPropertyOp38
 70
     1
102
RTVSPropertyOp39
 70
     1
102
RTVSPropertyOp40
 70
     1
102
RTVSPropertyOp41
 70
     1
102
RTVSPropertyOp42
 70
     1
102
RTVSPropertyOp43
 70
     1
102
RTVSPropertyOp44
 70
     1
102
RTVSPropertyOp45
 70
     1
102
RTVSPropertyOp46
 70
     1
102
RTVSPropertyOp47
 70
     1
102
RTVSPropertyOp48
 70
     1
102
RTVSPropertyOp49
 70
     1
102
RTVSPropertyOp50
 70
     1
102
RTVSPropertyOp51
 70
     0
102
RTVSPropertyOp52
 70
     0
102
RTVSPropertyOp53
 70
     1
102
RTVSPropertyOp54
 70
     1
102
RTVSPropertyOp55
 70
     1
102
RTVSPropertyOp56
 70
     1
102
RTVSPropertyOp57
 70
     1
102
RTVSPropertyOp58
 70
     1
102
RTVSPropertyOp59
 70
     1
102
RTVSPropertyOp60
 70
     1
102
RTVSPropertyOp61
 70
     1
102
RTVSPropertyOp62
 70
     1
  0
XRECORD
  5
5545
102
{ACAD_REACTORS
330
5544
102
}
330
5544
100
AcDbXrecord
280
     1
102
RTVSPost2010Prop28
280
     0
102
RTVSPost2010PropOp28
 70
     1
102
RTVSPost2010Prop29
280
     1
102
RTVSPost2010PropOp29
 70
     1
102
RTVSPost2010Prop30
280
     1
102
RTVSPost2010PropOp30
 70
     1
102
RTVSPost2010Prop31
280
     0
102
RTVSPost2010PropOp31
 70
     1
102
RTVSPost2010Prop32
280
     0
102
RTVSPost2010PropOp32
 70
     1
102
RTVSPost2010Prop33
280
     0
102
RTVSPost2010PropOp33
 70
     1
102
RTVSPost2010Prop34
280
     0
102
RTVSPost2010PropOp34
 70
     1
102
RTVSPost2010Prop35
280
     0
102
RTVSPost2010PropOp35
 70
     1
102
RTVSPost2010Prop36
280
     0
102
RTVSPost2010PropOp36
 70
     1
102
RTVSPost2010Prop37
 90
       50
102
RTVSPost2010PropOp37
 70
     1
102
RTVSPost2010Prop38
140
0.0
102
RTVSPost2010PropOp38
 70
     1
102
RTVSPost2010Prop39
140
1.0
102
RTVSPost2010PropOp39
 70
     1
102
RTVSPost2010Prop40
 90
        0
102
RTVSPost2010PropOp40
 70
     1
102
RTVSPost2010Prop41ColorIndex
 90
       18
102
RTVSPost2010Prop41ColorRGB
 90
        0
102
RTVSPost2010PropOp41
 70
     1
102
RTVSPost2010Prop42
 90
       50
102
RTVSPost2010PropOp42
 70
     1
102
RTVSPost2010Prop43
 90
        3
102
RTVSPost2010PropOp43
 70
     1
102
RTVSPost2010Prop44ColorIndex
 90
        5
102
RTVSPost2010Prop44ColorRGB
 90
      255
102
RTVSPost2010PropOp44
 70
     1
102
RTVSPost2010Prop45
280
     0
102
RTVSPost2010PropOp45
 70
     1
102
RTVSPost2010Prop46
 90
       50
102
RTVSPost2010PropOp46
 70
     1
102
RTVSPost2010Prop47
 90
       50
102
RTVSPost2010PropOp47
 70
     1
102
RTVSPost2010Prop48
 90
       50
102
RTVSPost2010PropOp48
 70
     1
102
RTVSPost2010Prop49
280
     0
102
RTVSPost2010PropOp49
 70
     1
102
RTVSPost2010Prop50
 90
       50
102
RTVSPost2010PropOp50
 70
     1
102
RTVSPost2010Prop51ColorIndex
 90
      256
102
RTVSPost2010Prop51ColorRGB
 90
-16777216
102
RTVSPost2010PropOp51
 70
     0
102
RTVSPost2010Prop52
140
1.0
102
RTVSPost2010PropOp52
 70
     0
102
RTVSPost2010Prop53
 90
        2
102
RTVSPost2010PropOp53
 70
     1
102
RTVSPost2010Prop54
  1
strokes_ogs.tif
102
RTVSPost2010PropOp54
 70
     1
102
RTVSPost2010Prop55
280
     0
102
RTVSPost2010PropOp55
 70
     1
102
RTVSPost2010Prop56
140
1.0
102
RTVSPost2010PropOp56
 70
     1
102
RTVSPost2010Prop57
140
1.0
102
RTVSPost2010PropOp57
 70
     1
102
RTVSPropertyOp0
 70
     1
102
RTVSPropertyOp1
 70
     1
102
RTVSPropertyOp2
 70
     1
102
RTVSPropertyOp3
 70
     1
102
RTVSPropertyOp4
 70
     1
102
RTVSPropertyOp5
 70
     1
102
RTVSPropertyOp6
 70
     1
102
RTVSPropertyOp7
 70
     1
102
RTVSPropertyOp8
 70
     1
102
RTVSPropertyOp9
 70
     1
102
RTVSPropertyOp10
 70
     1
102
RTVSPropertyOp11
 70
     1
102
RTVSPropertyOp12
 70
     1
102
RTVSPropertyOp13
 70
     1
102
RTVSPropertyOp14
 70
     1
102
RTVSPropertyOp15
 70
     1
102
RTVSPropertyOp16
 70
     1
102
RTVSPropertyOp17
 70
     1
102
RTVSPropertyOp18
 70
     1
102
RTVSPropertyOp19
 70
     1
102
RTVSPropertyOp20
 70
     1
102
RTVSPropertyOp21
 70
     1
102
RTVSPropertyOp22
 70
     1
102
RTVSPropertyOp23
 70
     1
102
RTVSPropertyOp24
 70
     1
102
RTVSPropertyOp25
 70
     1
102
RTVSPropertyOp26
 70
     1
102
RTVSPropertyOp27
 70
     1
102
RTVSPropertyOp28
 70
     1
102
RTVSPropertyOp29
 70
     1
102
RTVSPropertyOp30
 70
     1
102
RTVSPropertyOp31
 70
     1
102
RTVSPropertyOp32
 70
     1
102
RTVSPropertyOp33
 70
     1
102
RTVSPropertyOp34
 70
     1
102
RTVSPropertyOp35
 70
     1
102
RTVSPropertyOp36
 70
     1
102
RTVSPropertyOp37
 70
     1
102
RTVSPropertyOp38
 70
     1
102
RTVSPropertyOp39
 70
     1
102
RTVSPropertyOp40
 70
     1
102
RTVSPropertyOp41
 70
     1
102
RTVSPropertyOp42
 70
     1
102
RTVSPropertyOp43
 70
     1
102
RTVSPropertyOp44
 70
     1
102
RTVSPropertyOp45
 70
     1
102
RTVSPropertyOp46
 70
     1
102
RTVSPropertyOp47
 70
     1
102
RTVSPropertyOp48
 70
     1
102
RTVSPropertyOp49
 70
     1
102
RTVSPropertyOp50
 70
     1
102
RTVSPropertyOp51
 70
     0
102
RTVSPropertyOp52
 70
     0
102
RTVSPropertyOp53
 70
     1
102
RTVSPropertyOp54
 70
     1
102
RTVSPropertyOp55
 70
     1
102
RTVSPropertyOp56
 70
     1
102
RTVSPropertyOp57
 70
     1
102
RTVSPropertyOp58
 70
     1
102
RTVSPropertyOp59
 70
     1
102
RTVSPropertyOp60
 70
     1
102
RTVSPropertyOp61
 70
     1
102
RTVSPropertyOp62
 70
     1
  0
XRECORD
  5
553B
102
{ACAD_REACTORS
330
553A
102
}
330
553A
100
AcDbXrecord
280
     1
102
RTVSPost2010Prop28
280
     0
102
RTVSPost2010PropOp28
 70
     1
102
RTVSPost2010Prop29
280
     1
102
RTVSPost2010PropOp29
 70
     1
102
RTVSPost2010Prop30
280
     1
102
RTVSPost2010PropOp30
 70
     1
102
RTVSPost2010Prop31
280
     0
102
RTVSPost2010PropOp31
 70
     1
102
RTVSPost2010Prop32
280
     0
102
RTVSPost2010PropOp32
 70
     1
102
RTVSPost2010Prop33
280
     0
102
RTVSPost2010PropOp33
 70
     1
102
RTVSPost2010Prop34
280
     0
102
RTVSPost2010PropOp34
 70
     1
102
RTVSPost2010Prop35
280
     0
102
RTVSPost2010PropOp35
 70
     1
102
RTVSPost2010Prop36
280
     0
102
RTVSPost2010PropOp36
 70
     1
102
RTVSPost2010Prop37
 90
       50
102
RTVSPost2010PropOp37
 70
     1
102
RTVSPost2010Prop38
140
0.0
102
RTVSPost2010PropOp38
 70
     1
102
RTVSPost2010Prop39
140
1.0
102
RTVSPost2010PropOp39
 70
     1
102
RTVSPost2010Prop40
 90
        0
102
RTVSPost2010PropOp40
 70
     1
102
RTVSPost2010Prop41ColorIndex
 90
       18
102
RTVSPost2010Prop41ColorRGB
 90
        0
102
RTVSPost2010PropOp41
 70
     1
102
RTVSPost2010Prop42
 90
       50
102
RTVSPost2010PropOp42
 70
     1
102
RTVSPost2010Prop43
 90
        3
102
RTVSPost2010PropOp43
 70
     1
102
RTVSPost2010Prop44ColorIndex
 90
        5
102
RTVSPost2010Prop44ColorRGB
 90
      255
102
RTVSPost2010PropOp44
 70
     1
102
RTVSPost2010Prop45
280
     0
102
RTVSPost2010PropOp45
 70
     1
102
RTVSPost2010Prop46
 90
       50
102
RTVSPost2010PropOp46
 70
     1
102
RTVSPost2010Prop47
 90
       50
102
RTVSPost2010PropOp47
 70
     1
102
RTVSPost2010Prop48
 90
       50
102
RTVSPost2010PropOp48
 70
     1
102
RTVSPost2010Prop49
280
     0
102
RTVSPost2010PropOp49
 70
     1
102
RTVSPost2010Prop50
 90
       50
102
RTVSPost2010PropOp50
 70
     1
102
RTVSPost2010Prop51ColorIndex
 90
      256
102
RTVSPost2010Prop51ColorRGB
 90
-16777216
102
RTVSPost2010PropOp51
 70
     0
102
RTVSPost2010Prop52
140
1.0
102
RTVSPost2010PropOp52
 70
     0
102
RTVSPost2010Prop53
 90
        2
102
RTVSPost2010PropOp53
 70
     1
102
RTVSPost2010Prop54
  1
strokes_ogs.tif
102
RTVSPost2010PropOp54
 70
     1
102
RTVSPost2010Prop55
280
     0
102
RTVSPost2010PropOp55
 70
     1
102
RTVSPost2010Prop56
140
1.0
102
RTVSPost2010PropOp56
 70
     1
102
RTVSPost2010Prop57
140
1.0
102
RTVSPost2010PropOp57
 70
     1
102
RTVSPropertyOp0
 70
     1
102
RTVSPropertyOp1
 70
     1
102
RTVSPropertyOp2
 70
     1
102
RTVSPropertyOp3
 70
     1
102
RTVSPropertyOp4
 70
     1
102
RTVSPropertyOp5
 70
     1
102
RTVSPropertyOp6
 70
     1
102
RTVSPropertyOp7
 70
     1
102
RTVSPropertyOp8
 70
     1
102
RTVSPropertyOp9
 70
     1
102
RTVSPropertyOp10
 70
     1
102
RTVSPropertyOp11
 70
     1
102
RTVSPropertyOp12
 70
     1
102
RTVSPropertyOp13
 70
     1
102
RTVSPropertyOp14
 70
     1
102
RTVSPropertyOp15
 70
     1
102
RTVSPropertyOp16
 70
     1
102
RTVSPropertyOp17
 70
     1
102
RTVSPropertyOp18
 70
     1
102
RTVSPropertyOp19
 70
     1
102
RTVSPropertyOp20
 70
     1
102
RTVSPropertyOp21
 70
     1
102
RTVSPropertyOp22
 70
     1
102
RTVSPropertyOp23
 70
     1
102
RTVSPropertyOp24
 70
     1
102
RTVSPropertyOp25
 70
     1
102
RTVSPropertyOp26
 70
     1
102
RTVSPropertyOp27
 70
     1
102
RTVSPropertyOp28
 70
     1
102
RTVSPropertyOp29
 70
     1
102
RTVSPropertyOp30
 70
     1
102
RTVSPropertyOp31
 70
     1
102
RTVSPropertyOp32
 70
     1
102
RTVSPropertyOp33
 70
     1
102
RTVSPropertyOp34
 70
     1
102
RTVSPropertyOp35
 70
     1
102
RTVSPropertyOp36
 70
     1
102
RTVSPropertyOp37
 70
     1
102
RTVSPropertyOp38
 70
     1
102
RTVSPropertyOp39
 70
     1
102
RTVSPropertyOp40
 70
     1
102
RTVSPropertyOp41
 70
     1
102
RTVSPropertyOp42
 70
     1
102
RTVSPropertyOp43
 70
     1
102
RTVSPropertyOp44
 70
     1
102
RTVSPropertyOp45
 70
     1
102
RTVSPropertyOp46
 70
     1
102
RTVSPropertyOp47
 70
     1
102
RTVSPropertyOp48
 70
     1
102
RTVSPropertyOp49
 70
     1
102
RTVSPropertyOp50
 70
     1
102
RTVSPropertyOp51
 70
     0
102
RTVSPropertyOp52
 70
     0
102
RTVSPropertyOp53
 70
     1
102
RTVSPropertyOp54
 70
     1
102
RTVSPropertyOp55
 70
     1
102
RTVSPropertyOp56
 70
     1
102
RTVSPropertyOp57
 70
     1
102
RTVSPropertyOp58
 70
     1
102
RTVSPropertyOp59
 70
     1
102
RTVSPropertyOp60
 70
     1
102
RTVSPropertyOp61
 70
     1
102
RTVSPropertyOp62
 70
     1
  0
XRECORD
  5
552F
102
{ACAD_REACTORS
330
552E
102
}
330
552E
100
AcDbXrecord
280
     1
102
RTVSPost2010Prop28
280
     0
102
RTVSPost2010PropOp28
 70
     1
102
RTVSPost2010Prop29
280
     1
102
RTVSPost2010PropOp29
 70
     1
102
RTVSPost2010Prop30
280
     1
102
RTVSPost2010PropOp30
 70
     1
102
RTVSPost2010Prop31
280
     0
102
RTVSPost2010PropOp31
 70
     1
102
RTVSPost2010Prop32
280
     0
102
RTVSPost2010PropOp32
 70
     1
102
RTVSPost2010Prop33
280
     0
102
RTVSPost2010PropOp33
 70
     1
102
RTVSPost2010Prop34
280
     0
102
RTVSPost2010PropOp34
 70
     1
102
RTVSPost2010Prop35
280
     0
102
RTVSPost2010PropOp35
 70
     1
102
RTVSPost2010Prop36
280
     0
102
RTVSPost2010PropOp36
 70
     1
102
RTVSPost2010Prop37
 90
       50
102
RTVSPost2010PropOp37
 70
     1
102
RTVSPost2010Prop38
140
0.0
102
RTVSPost2010PropOp38
 70
     1
102
RTVSPost2010Prop39
140
1.0
102
RTVSPost2010PropOp39
 70
     1
102
RTVSPost2010Prop40
 90
        0
102
RTVSPost2010PropOp40
 70
     1
102
RTVSPost2010Prop41ColorIndex
 90
       18
102
RTVSPost2010Prop41ColorRGB
 90
        0
102
RTVSPost2010PropOp41
 70
     1
102
RTVSPost2010Prop42
 90
       50
102
RTVSPost2010PropOp42
 70
     1
102
RTVSPost2010Prop43
 90
        3
102
RTVSPost2010PropOp43
 70
     1
102
RTVSPost2010Prop44ColorIndex
 90
        5
102
RTVSPost2010Prop44ColorRGB
 90
      255
102
RTVSPost2010PropOp44
 70
     1
102
RTVSPost2010Prop45
280
     0
102
RTVSPost2010PropOp45
 70
     1
102
RTVSPost2010Prop46
 90
       50
102
RTVSPost2010PropOp46
 70
     1
102
RTVSPost2010Prop47
 90
       50
102
RTVSPost2010PropOp47
 70
     1
102
RTVSPost2010Prop48
 90
       50
102
RTVSPost2010PropOp48
 70
     1
102
RTVSPost2010Prop49
280
     0
102
RTVSPost2010PropOp49
 70
     1
102
RTVSPost2010Prop50
 90
       50
102
RTVSPost2010PropOp50
 70
     1
102
RTVSPost2010Prop51ColorIndex
 90
      256
102
RTVSPost2010Prop51ColorRGB
 90
-16777216
102
RTVSPost2010PropOp51
 70
     0
102
RTVSPost2010Prop52
140
1.0
102
RTVSPost2010PropOp52
 70
     0
102
RTVSPost2010Prop53
 90
        2
102
RTVSPost2010PropOp53
 70
     1
102
RTVSPost2010Prop54
  1
strokes_ogs.tif
102
RTVSPost2010PropOp54
 70
     1
102
RTVSPost2010Prop55
280
     0
102
RTVSPost2010PropOp55
 70
     1
102
RTVSPost2010Prop56
140
1.0
102
RTVSPost2010PropOp56
 70
     1
102
RTVSPost2010Prop57
140
1.0
102
RTVSPost2010PropOp57
 70
     1
102
RTVSPropertyOp0
 70
     1
102
RTVSPropertyOp1
 70
     1
102
RTVSPropertyOp2
 70
     1
102
RTVSPropertyOp3
 70
     1
102
RTVSPropertyOp4
 70
     1
102
RTVSPropertyOp5
 70
     1
102
RTVSPropertyOp6
 70
     1
102
RTVSPropertyOp7
 70
     1
102
RTVSPropertyOp8
 70
     1
102
RTVSPropertyOp9
 70
     1
102
RTVSPropertyOp10
 70
     1
102
RTVSPropertyOp11
 70
     1
102
RTVSPropertyOp12
 70
     1
102
RTVSPropertyOp13
 70
     1
102
RTVSPropertyOp14
 70
     1
102
RTVSPropertyOp15
 70
     1
102
RTVSPropertyOp16
 70
     1
102
RTVSPropertyOp17
 70
     1
102
RTVSPropertyOp18
 70
     1
102
RTVSPropertyOp19
 70
     1
102
RTVSPropertyOp20
 70
     1
102
RTVSPropertyOp21
 70
     1
102
RTVSPropertyOp22
 70
     1
102
RTVSPropertyOp23
 70
     1
102
RTVSPropertyOp24
 70
     1
102
RTVSPropertyOp25
 70
     1
102
RTVSPropertyOp26
 70
     1
102
RTVSPropertyOp27
 70
     1
102
RTVSPropertyOp28
 70
     1
102
RTVSPropertyOp29
 70
     1
102
RTVSPropertyOp30
 70
     1
102
RTVSPropertyOp31
 70
     1
102
RTVSPropertyOp32
 70
     1
102
RTVSPropertyOp33
 70
     1
102
RTVSPropertyOp34
 70
     1
102
RTVSPropertyOp35
 70
     1
102
RTVSPropertyOp36
 70
     1
102
RTVSPropertyOp37
 70
     1
102
RTVSPropertyOp38
 70
     1
102
RTVSPropertyOp39
 70
     1
102
RTVSPropertyOp40
 70
     1
102
RTVSPropertyOp41
 70
     1
102
RTVSPropertyOp42
 70
     1
102
RTVSPropertyOp43
 70
     1
102
RTVSPropertyOp44
 70
     1
102
RTVSPropertyOp45
 70
     1
102
RTVSPropertyOp46
 70
     1
102
RTVSPropertyOp47
 70
     1
102
RTVSPropertyOp48
 70
     1
102
RTVSPropertyOp49
 70
     1
102
RTVSPropertyOp50
 70
     1
102
RTVSPropertyOp51
 70
     0
102
RTVSPropertyOp52
 70
     0
102
RTVSPropertyOp53
 70
     1
102
RTVSPropertyOp54
 70
     1
102
RTVSPropertyOp55
 70
     1
102
RTVSPropertyOp56
 70
     1
102
RTVSPropertyOp57
 70
     1
102
RTVSPropertyOp58
 70
     1
102
RTVSPropertyOp59
 70
     1
102
RTVSPropertyOp60
 70
     1
102
RTVSPropertyOp61
 70
     1
102
RTVSPropertyOp62
 70
     1
  0
XRECORD
  5
5547
102
{ACAD_REACTORS
330
5546
102
}
330
5546
100
AcDbXrecord
280
     1
102
RTVSPost2010Prop28
280
     0
102
RTVSPost2010PropOp28
 70
     1
102
RTVSPost2010Prop29
280
     1
102
RTVSPost2010PropOp29
 70
     1
102
RTVSPost2010Prop30
280
     1
102
RTVSPost2010PropOp30
 70
     1
102
RTVSPost2010Prop31
280
     0
102
RTVSPost2010PropOp31
 70
     1
102
RTVSPost2010Prop32
280
     0
102
RTVSPost2010PropOp32
 70
     1
102
RTVSPost2010Prop33
280
     0
102
RTVSPost2010PropOp33
 70
     1
102
RTVSPost2010Prop34
280
     0
102
RTVSPost2010PropOp34
 70
     1
102
RTVSPost2010Prop35
280
     0
102
RTVSPost2010PropOp35
 70
     1
102
RTVSPost2010Prop36
280
     0
102
RTVSPost2010PropOp36
 70
     1
102
RTVSPost2010Prop37
 90
       50
102
RTVSPost2010PropOp37
 70
     1
102
RTVSPost2010Prop38
140
0.0
102
RTVSPost2010PropOp38
 70
     1
102
RTVSPost2010Prop39
140
1.0
102
RTVSPost2010PropOp39
 70
     1
102
RTVSPost2010Prop40
 90
        0
102
RTVSPost2010PropOp40
 70
     1
102
RTVSPost2010Prop41ColorIndex
 90
       18
102
RTVSPost2010Prop41ColorRGB
 90
        0
102
RTVSPost2010PropOp41
 70
     1
102
RTVSPost2010Prop42
 90
       50
102
RTVSPost2010PropOp42
 70
     1
102
RTVSPost2010Prop43
 90
        3
102
RTVSPost2010PropOp43
 70
     1
102
RTVSPost2010Prop44ColorIndex
 90
        5
102
RTVSPost2010Prop44ColorRGB
 90
      255
102
RTVSPost2010PropOp44
 70
     1
102
RTVSPost2010Prop45
280
     0
102
RTVSPost2010PropOp45
 70
     1
102
RTVSPost2010Prop46
 90
       50
102
RTVSPost2010PropOp46
 70
     1
102
RTVSPost2010Prop47
 90
       50
102
RTVSPost2010PropOp47
 70
     1
102
RTVSPost2010Prop48
 90
       50
102
RTVSPost2010PropOp48
 70
     1
102
RTVSPost2010Prop49
280
     0
102
RTVSPost2010PropOp49
 70
     1
102
RTVSPost2010Prop50
 90
       50
102
RTVSPost2010PropOp50
 70
     1
102
RTVSPost2010Prop51ColorIndex
 90
      256
102
RTVSPost2010Prop51ColorRGB
 90
-16777216
102
RTVSPost2010PropOp51
 70
     0
102
RTVSPost2010Prop52
140
1.0
102
RTVSPost2010PropOp52
 70
     0
102
RTVSPost2010Prop53
 90
        2
102
RTVSPost2010PropOp53
 70
     1
102
RTVSPost2010Prop54
  1
strokes_ogs.tif
102
RTVSPost2010PropOp54
 70
     1
102
RTVSPost2010Prop55
280
     0
102
RTVSPost2010PropOp55
 70
     1
102
RTVSPost2010Prop56
140
1.0
102
RTVSPost2010PropOp56
 70
     1
102
RTVSPost2010Prop57
140
1.0
102
RTVSPost2010PropOp57
 70
     1
102
RTVSPropertyOp0
 70
     1
102
RTVSPropertyOp1
 70
     1
102
RTVSPropertyOp2
 70
     1
102
RTVSPropertyOp3
 70
     1
102
RTVSPropertyOp4
 70
     1
102
RTVSPropertyOp5
 70
     1
102
RTVSPropertyOp6
 70
     1
102
RTVSPropertyOp7
 70
     1
102
RTVSPropertyOp8
 70
     1
102
RTVSPropertyOp9
 70
     1
102
RTVSPropertyOp10
 70
     1
102
RTVSPropertyOp11
 70
     1
102
RTVSPropertyOp12
 70
     1
102
RTVSPropertyOp13
 70
     1
102
RTVSPropertyOp14
 70
     1
102
RTVSPropertyOp15
 70
     1
102
RTVSPropertyOp16
 70
     1
102
RTVSPropertyOp17
 70
     1
102
RTVSPropertyOp18
 70
     1
102
RTVSPropertyOp19
 70
     1
102
RTVSPropertyOp20
 70
     1
102
RTVSPropertyOp21
 70
     1
102
RTVSPropertyOp22
 70
     1
102
RTVSPropertyOp23
 70
     1
102
RTVSPropertyOp24
 70
     1
102
RTVSPropertyOp25
 70
     1
102
RTVSPropertyOp26
 70
     1
102
RTVSPropertyOp27
 70
     1
102
RTVSPropertyOp28
 70
     1
102
RTVSPropertyOp29
 70
     1
102
RTVSPropertyOp30
 70
     1
102
RTVSPropertyOp31
 70
     1
102
RTVSPropertyOp32
 70
     1
102
RTVSPropertyOp33
 70
     1
102
RTVSPropertyOp34
 70
     1
102
RTVSPropertyOp35
 70
     1
102
RTVSPropertyOp36
 70
     1
102
RTVSPropertyOp37
 70
     1
102
RTVSPropertyOp38
 70
     1
102
RTVSPropertyOp39
 70
     1
102
RTVSPropertyOp40
 70
     1
102
RTVSPropertyOp41
 70
     1
102
RTVSPropertyOp42
 70
     1
102
RTVSPropertyOp43
 70
     1
102
RTVSPropertyOp44
 70
     1
102
RTVSPropertyOp45
 70
     1
102
RTVSPropertyOp46
 70
     1
102
RTVSPropertyOp47
 70
     1
102
RTVSPropertyOp48
 70
     1
102
RTVSPropertyOp49
 70
     1
102
RTVSPropertyOp50
 70
     1
102
RTVSPropertyOp51
 70
     0
102
RTVSPropertyOp52
 70
     0
102
RTVSPropertyOp53
 70
     1
102
RTVSPropertyOp54
 70
     1
102
RTVSPropertyOp55
 70
     1
102
RTVSPropertyOp56
 70
     1
102
RTVSPropertyOp57
 70
     1
102
RTVSPropertyOp58
 70
     1
102
RTVSPropertyOp59
 70
     1
102
RTVSPropertyOp60
 70
     1
102
RTVSPropertyOp61
 70
     1
102
RTVSPropertyOp62
 70
     1
  0
ENDSEC
  0
EOF
