  0
SECTION
  2
HEADER
  9
$ACADVER
  1
AC1015
  9
$ACADMAINTVER
 70
    20
  9
$DWGCODEPAGE
  3
ANSI_932
  9
$INSBASE
 10
0.0
 20
0.0
 30
0.0
  9
$EXTMIN
 10
9.999997999999999
 20
10.000001
 30
0.0
  9
$EXTMAX
 10
774.378737
 20
471.9886007649913
 30
0.0
  9
$LIMMIN
 10
0.000002
 20
0.0
  9
$LIMMAX
 10
792.0000019999998
 20
546.0
  9
$ORTHOMODE
 70
     1
  9
$REGENMODE
 70
     1
  9
$FILLMODE
 70
     1
  9
$QTEXTMODE
 70
     0
  9
$MIRRTEXT
 70
     1
  9
$LTSCALE
 40
1.0
  9
$ATTMODE
 70
     1
  9
$TEXTSIZE
 40
2.5
  9
$TRACEWID
 40
1.0
  9
$TEXTSTYLE
  7
STANDARD
  9
$CLAYER
  8
0
  9
$CELTYPE
  6
BYLAYER
  9
$CECOLOR
 62
   256
  9
$CELTSCALE
 40
1.0
  9
$DISPSILH
 70
     0
  9
$DIMSCALE
 40
1.0
  9
$DIMASZ
 40
3.0
  9
$DIMEXO
 40
1.0
  9
$DIMDLI
 40
10.0
  9
$DIMRND
 40
0.0
  9
$DIMDLE
 40
0.0
  9
$DIMEXE
 40
1.0
  9
$DIMTP
 40
0.0
  9
$DIMTM
 40
0.0
  9
$DIMTXT
 40
3.2
  9
$DIMCEN
 40
0.0
  9
$DIMTSZ
 40
0.0
  9
$DIMTOL
 70
     0
  9
$DIMLIM
 70
     0
  9
$DIMTIH
 70
     0
  9
$DIMTOH
 70
     0
  9
$DIMSE1
 70
     0
  9
$DIMSE2
 70
     0
  9
$DIMTAD
 70
     3
  9
$DIMZIN
 70
     8
  9
$DIMBLK
  1

  9
$DIMASO
 70
     1
  9
$DIMSHO
 70
     1
  9
$DIMPOST
  1

  9
$DIMAPOST
  1

  9
$DIMALT
 70
     0
  9
$DIMALTD
 70
     2
  9
$DIMALTF
 40
25.4
  9
$DIMLFAC
 40
1.0
  9
$DIMTOFL
 70
     1
  9
$DIMTVP
 40
0.0
  9
$DIMTIX
 70
     0
  9
$DIMSOXD
 70
     0
  9
$DIMSAH
 70
     1
  9
$DIMBLK1
  1
OPEN
  9
$DIMBLK2
  1
OPEN
  9
$DIMSTYLE
  2
STANDARD
  9
$DIMCLRD
 70
     0
  9
$DIMCLRE
 70
     0
  9
$DIMCLRT
 70
     0
  9
$DIMTFAC
 40
1.0
  9
$DIMGAP
 40
1.0
  9
$DIMJUST
 70
     0
  9
$DIMSD1
 70
     0
  9
$DIMSD2
 70
     0
  9
$DIMTOLJ
 70
     1
  9
$DIMTZIN
 70
     0
  9
$DIMALTZ
 70
     0
  9
$DIMALTTZ
 70
     0
  9
$DIMUPT
 70
     0
  9
$DIMDEC
 70
     4
  9
$DIMTDEC
 70
     4
  9
$DIMALTU
 70
     2
  9
$DIMALTTD
 70
     2
  9
$DIMTXSTY
  7
STANDARD
  9
$DIMAUNIT
 70
     0
  9
$DIMADEC
 70
     0
  9
$DIMALTRND
 40
0.0
  9
$DIMAZIN
 70
     0
  9
$DIMDSEP
 70
    46
  9
$DIMATFIT
 70
     3
  9
$DIMFRAC
 70
     0
  9
$DIMLDRBLK
  1
OPEN
  9
$DIMLUNIT
 70
     2
  9
$DIMLWD
 70
    -2
  9
$DIMLWE
 70
    -2
  9
$DIMTMOVE
 70
     0
  9
$LUNITS
 70
     2
  9
$LUPREC
 70
     4
  9
$SKETCHINC
 40
1.0
  9
$FILLETRAD
 40
1.0
  9
$AUNITS
 70
     0
  9
$AUPREC
 70
     0
  9
$MENU
  1
.
  9
$ELEVATION
 40
0.0
  9
$PELEVATION
 40
0.0
  9
$THICKNESS
 40
0.0
  9
$LIMCHECK
 70
     0
  9
$CHAMFERA
 40
1.5
  9
$CHAMFERB
 40
1.5
  9
$CHAMFERC
 40
0.0
  9
$CHAMFERD
 40
0.0
  9
$SKPOLY
 70
     0
  9
$TDCREATE
 40
2451652.414742002
  9
$TDUCREATE
 40
2451652.039742002
  9
$TDUPDATE
 40
2457192.641673380
  9
$TDUUPDATE
 40
2457192.266673380
  9
$TDINDWG
 40
0.2849015162
  9
$TDUSRTIMER
 40
0.2849011921
  9
$USRTIMER
 70
     1
  9
$ANGBASE
 50
0.0
  9
$ANGDIR
 70
     0
  9
$PDMODE
 70
     0
  9
$PDSIZE
 40
0.0
  9
$PLINEWID
 40
0.0
  9
$SPLFRAME
 70
     0
  9
$SPLINETYPE
 70
     6
  9
$SPLINESEGS
 70
     8
  9
$HANDSEED
  5
686B
  9
$SURFTAB1
 70
     6
  9
$SURFTAB2
 70
     6
  9
$SURFTYPE
 70
     6
  9
$SURFU
 70
     6
  9
$SURFV
 70
     6
  9
$UCSBASE
  2

  9
$UCSNAME
  2

  9
$UCSORG
 10
0.0
 20
0.0
 30
0.0
  9
$UCSXDIR
 10
1.0
 20
0.0
 30
0.0
  9
$UCSYDIR
 10
0.0
 20
1.0
 30
0.0
  9
$UCSORTHOREF
  2

  9
$UCSORTHOVIEW
 70
     0
  9
$UCSORGTOP
 10
0.0
 20
0.0
 30
0.0
  9
$UCSORGBOTTOM
 10
0.0
 20
0.0
 30
0.0
  9
$UCSORGLEFT
 10
0.0
 20
0.0
 30
0.0
  9
$UCSORGRIGHT
 10
0.0
 20
0.0
 30
0.0
  9
$UCSORGFRONT
 10
0.0
 20
0.0
 30
0.0
  9
$UCSORGBACK
 10
0.0
 20
0.0
 30
0.0
  9
$PUCSBASE
  2

  9
$PUCSNAME
  2

  9
$PUCSORG
 10
0.0
 20
0.0
 30
0.0
  9
$PUCSXDIR
 10
1.0
 20
0.0
 30
0.0
  9
$PUCSYDIR
 10
0.0
 20
1.0
 30
0.0
  9
$PUCSORTHOREF
  2

  9
$PUCSORTHOVIEW
 70
     0
  9
$PUCSORGTOP
 10
0.0
 20
0.0
 30
0.0
  9
$PUCSORGBOTTOM
 10
0.0
 20
0.0
 30
0.0
  9
$PUCSORGLEFT
 10
0.0
 20
0.0
 30
0.0
  9
$PUCSORGRIGHT
 10
0.0
 20
0.0
 30
0.0
  9
$PUCSORGFRONT
 10
0.0
 20
0.0
 30
0.0
  9
$PUCSORGBACK
 10
0.0
 20
0.0
 30
0.0
  9
$USERI1
 70
     0
  9
$USERI2
 70
     0
  9
$USERI3
 70
     0
  9
$USERI4
 70
     0
  9
$USERI5
 70
     0
  9
$USERR1
 40
0.0
  9
$USERR2
 40
0.0
  9
$USERR3
 40
0.0
  9
$USERR4
 40
0.0
  9
$USERR5
 40
0.0
  9
$WORLDVIEW
 70
     1
  9
$SHADEDGE
 70
     3
  9
$SHADEDIF
 70
    70
  9
$TILEMODE
 70
     1
  9
$MAXACTVP
 70
    48
  9
$PINSBASE
 10
0.0
 20
0.0
 30
0.0
  9
$PLIMCHECK
 70
     0
  9
$PEXTMIN
 10
1.000000000000000E+20
 20
1.000000000000000E+20
 30
1.000000000000000E+20
  9
$PEXTMAX
 10
-1.000000000000000E+20
 20
-1.000000000000000E+20
 30
-1.000000000000000E+20
  9
$PLIMMIN
 10
0.0
 20
0.0
  9
$PLIMMAX
 10
420.0
 20
297.0
  9
$UNITMODE
 70
     0
  9
$VISRETAIN
 70
     1
  9
$PLINEGEN
 70
     0
  9
$PSLTSCALE
 70
     1
  9
$TREEDEPTH
 70
  3020
  9
$CMLSTYLE
  2
STANDARD
  9
$CMLJUST
 70
     0
  9
$CMLSCALE
 40
1.0
  9
$PROXYGRAPHICS
 70
     1
  9
$MEASUREMENT
 70
     0
  9
$CELWEIGHT
370
    -1
  9
$ENDCAPS
280
     0
  9
$JOINSTYLE
280
     0
  9
$LWDISPLAY
290
     0
  9
$INSUNITS
 70
     0
  9
$HYPERLINKBASE
  1

  9
$STYLESHEET
  1

  9
$XEDIT
290
     1
  9
$CEPSNTYPE
380
     0
  9
$PSTYLEMODE
290
     1
  9
$FINGERPRINTGUID
  2
{A6F67B54-8469-442C-A417-44EBD45A048D}
  9
$VERSIONGUID
  2
{99E92171-B60D-4A53-8B33-1438B2B8050C}
  9
$EXTNAMES
290
     1
  9
$PSVPSCALE
 40
0.0
  9
$OLESTARTUP
290
     0
  0
ENDSEC
  0
SECTION
  2
CLASSES
  0
CLASS
  1
ACDBDICTIONARYWDFLT
  2
AcDbDictionaryWithDefault
  3
ObjectDBX Classes
 90
        0
280
     0
281
     0
  0
CLASS
  1
ACDBPLACEHOLDER
  2
AcDbPlaceHolder
  3
ObjectDBX Classes
 90
        0
280
     0
281
     0
  0
CLASS
  1
LAYOUT
  2
AcDbLayout
  3
ObjectDBX Classes
 90
        0
280
     0
281
     0
  0
CLASS
  1
DICTIONARYVAR
  2
AcDbDictionaryVar
  3
ObjectDBX Classes
 90
        0
280
     0
281
     0
  0
CLASS
  1
MATERIAL
  2
AcDbMaterial
  3
ObjectDBX Classes
 90
     1153
280
     0
281
     0
  0
CLASS
  1
VISUALSTYLE
  2
AcDbVisualStyle
  3
ObjectDBX Classes
 90
     4095
280
     0
281
     0
  0
CLASS
  1
TABLESTYLE
  2
AcDbTableStyle
  3
ObjectDBX Classes
 90
     4095
280
     0
281
     0
  0
CLASS
  1
SCALE
  2
AcDbScale
  3
ObjectDBX Classes
 90
     1153
280
     0
281
     0
  0
CLASS
  1
MLEADERSTYLE
  2
AcDbMLeaderStyle
  3
ACDB_MLEADERSTYLE_CLASS
 90
     4095
280
     0
281
     0
  0
CLASS
  1
ACDBSECTIONVIEWSTYLE
  2
AcDbSectionViewStyle
  3
ObjectDBX Classes
 90
     1025
280
     0
281
     0
  0
CLASS
  1
ACDBDETAILVIEWSTYLE
  2
AcDbDetailViewStyle
  3
ObjectDBX Classes
 90
     1025
280
     0
281
     0
  0
CLASS
  1
CELLSTYLEMAP
  2
AcDbCellStyleMap
  3
ObjectDBX Classes
 90
     1152
280
     0
281
     0
  0
ENDSEC
  0
SECTION
  2
TABLES
  0
TABLE
  2
VPORT
  5
5FC0
330
0
100
AcDbSymbolTable
 70
     1
  0
VPORT
  5
67B4
330
5FC0
100
AcDbSymbolTableRecord
100
AcDbViewportTableRecord
  2
*ACTIVE
 70
     0
 10
0.0
 20
0.0
 11
1.0
 21
1.0
 12
532.2243503405203
 22
241.1952679578624
 13
0.0
 23
0.0
 14
10.0
 24
10.0
 15
10.0
 25
10.0
 16
0.0
 26
0.0
 36
1.0
 17
0.0
 27
0.0
 37
0.0
 40
467.6007375488209
 41
1.899603698811096
 42
50.0
 43
0.0
 44
0.0
 50
0.0
 51
0.0
 71
     0
 72
   100
 73
     1
 74
     0
 75
     0
 76
     0
 77
     0
 78
     0
281
     0
 65
     1
110
0.0
120
0.0
130
0.0
111
1.0
121
0.0
131
0.0
112
0.0
122
1.0
132
0.0
 79
     0
146
0.0
1001
ACAD_NAV_VCDISPLAY
1070
     3
  0
ENDTAB
  0
TABLE
  2
LTYPE
  5
5FBD
330
0
100
AcDbSymbolTable
 70
     4
  0
LTYPE
  5
5FCB
330
5FBD
100
AcDbSymbolTableRecord
100
AcDbLinetypeTableRecord
  2
BYBLOCK
 70
     0
  3

 72
    65
 73
     0
 40
0.0
  0
LTYPE
  5
5FCC
330
5FBD
100
AcDbSymbolTableRecord
100
AcDbLinetypeTableRecord
  2
BYLAYER
 70
     0
  3

 72
    65
 73
     0
 40
0.0
  0
LTYPE
  5
5FCD
330
5FBD
100
AcDbSymbolTableRecord
100
AcDbLinetypeTableRecord
  2
CONTINUOUS
 70
     0
  3
Solid line
 72
    65
 73
     0
 40
0.0
  0
LTYPE
  5
5FDB
330
5FBD
100
AcDbSymbolTableRecord
100
AcDbLinetypeTableRecord
  2
DASHED
 70
     0
  3
Dashed __ __ __ __ __ __ __ __ __ __ __ __ __ _
 72
    65
 73
     2
 40
19.05
 49
12.7
 74
     0
 49
-6.349999999999997
 74
     0
  0
LTYPE
  5
5FDC
330
5FBD
100
AcDbSymbolTableRecord
100
AcDbLinetypeTableRecord
  2
CENTER
 70
     0
  3
Center ____ _ ____ _ ____ _ ____ _ ____ _ ____
 72
    65
 73
     4
 40
50.8
 49
31.75
 74
     0
 49
-6.349999999999997
 74
     0
 49
6.349999999999997
 74
     0
 49
-6.349999999999997
 74
     0
  0
LTYPE
  5
5FDD
330
5FBD
100
AcDbSymbolTableRecord
100
AcDbLinetypeTableRecord
  2
PHANTOM
 70
     0
  3
Phantom ______  __  __  ______  __  __  ______
 72
    65
 73
     6
 40
63.5
 49
31.75
 74
     0
 49
-6.349999999999997
 74
     0
 49
6.349999999999997
 74
     0
 49
-6.349999999999997
 74
     0
 49
6.349999999999997
 74
     0
 49
-6.349999999999997
 74
     0
  0
ENDTAB
  0
TABLE
  2
LAYER
  5
5FBA
330
0
100
AcDbSymbolTable
 70
     8
  0
LAYER
  5
5FC8
102
{ACAD_XDICTIONARY
360
680F
102
}
330
5FBA
100
AcDbSymbolTableRecord
100
AcDbLayerTableRecord
  2
0
 70
     0
 62
     7
  6
CONTINUOUS
370
    -3
390
67BD
  0
LAYER
  5
5FDE
102
{ACAD_XDICTIONARY
360
6811
102
}
330
5FBA
100
AcDbSymbolTableRecord
100
AcDbLayerTableRecord
  2
4
 70
     0
 62
     1
  6
CENTER
370
    -3
390
67BD
  0
LAYER
  5
5FDF
102
{ACAD_XDICTIONARY
360
6813
102
}
330
5FBA
100
AcDbSymbolTableRecord
100
AcDbLayerTableRecord
  2
5
 70
     0
 62
     6
  6
PHANTOM
370
    -3
390
67BD
  0
LAYER
  5
5FE0
102
{ACAD_XDICTIONARY
360
6815
102
}
330
5FBA
100
AcDbSymbolTableRecord
100
AcDbLayerTableRecord
  2
1
 70
     0
 62
     7
  6
CONTINUOUS
370
    -3
390
67BD
  0
LAYER
  5
5FE1
102
{ACAD_XDICTIONARY
360
6817
102
}
330
5FBA
100
AcDbSymbolTableRecord
100
AcDbLayerTableRecord
  2
2
 70
     0
 62
     4
  6
CONTINUOUS
370
    -3
390
67BD
  0
LAYER
  5
5FE2
102
{ACAD_XDICTIONARY
360
6819
102
}
330
5FBA
100
AcDbSymbolTableRecord
100
AcDbLayerTableRecord
  2
3
 70
     0
 62
     2
  6
DASHED
370
    -3
390
67BD
  0
LAYER
  5
5FE3
102
{ACAD_XDICTIONARY
360
681B
102
}
330
5FBA
100
AcDbSymbolTableRecord
100
AcDbLayerTableRecord
  2
6
 70
     0
 62
     5
  6
CONTINUOUS
370
    -3
390
67BD
  0
LAYER
  5
5FE4
102
{ACAD_XDICTIONARY
360
681D
102
}
330
5FBA
100
AcDbSymbolTableRecord
100
AcDbLayerTableRecord
  2
7
 70
     0
 62
     3
  6
CONTINUOUS
370
    -3
390
67BD
  0
ENDTAB
  0
TABLE
  2
STYLE
  5
5FBB
330
0
100
AcDbSymbolTable
 70
     1
  0
STYLE
  5
5FC9
330
5FBB
100
AcDbSymbolTableRecord
100
AcDbTextStyleTableRecord
  2
STANDARD
 70
     0
 40
0.0
 41
1.0
 50
0.0
 71
     0
 42
2.5
  3
txt
  4

  0
ENDTAB
  0
TABLE
  2
VIEW
  5
5FBE
330
0
100
AcDbSymbolTable
 70
     0
  0
ENDTAB
  0
TABLE
  2
UCS
  5
5FBF
330
0
100
AcDbSymbolTable
 70
     0
  0
ENDTAB
  0
TABLE
  2
APPID
  5
5FC1
330
0
100
AcDbSymbolTable
 70
     7
  0
APPID
  5
5FCA
330
5FC1
100
AcDbSymbolTableRecord
100
AcDbRegAppTableRecord
  2
ACAD
 70
     0
  0
APPID
  5
5FE5
330
5FC1
100
AcDbSymbolTableRecord
100
AcDbRegAppTableRecord
  2
CONTENTTABDATA
 70
     0
  0
APPID
  5
5FE6
330
5FC1
100
AcDbSymbolTableRecord
100
AcDbRegAppTableRecord
  2
CONTENTCURRENTTAB
 70
     0
  0
APPID
  5
5FE7
330
5FC1
100
AcDbSymbolTableRecord
100
AcDbRegAppTableRecord
  2
CONTENTBLOCKDESCRIPTION
 70
     0
  0
APPID
  5
5FE8
330
5FC1
100
AcDbSymbolTableRecord
100
AcDbRegAppTableRecord
  2
CONTENTBLOCKICON
 70
     0
  0
APPID
  5
6829
330
5FC1
100
AcDbSymbolTableRecord
100
AcDbRegAppTableRecord
  2
ACAD_NAV_VCDISPLAY
 70
     0
  0
APPID
  5
6862
330
5FC1
100
AcDbSymbolTableRecord
100
AcDbRegAppTableRecord
  2
ACAD_MLEADERVER
 70
     0
  0
ENDTAB
  0
TABLE
  2
DIMSTYLE
  5
5FC2
330
0
100
AcDbSymbolTable
 70
     1
100
AcDbDimStyleTable
 71
     0
  0
DIMSTYLE
105
5FE9
330
5FC2
100
AcDbSymbolTableRecord
100
AcDbDimStyleTableRecord
  2
STANDARD
 70
     0
 41
3.0
 42
1.0
 43
10.0
 44
1.0
 73
     0
 74
     0
 77
     3
 78
     8
140
3.2
141
0.0
147
1.0
172
     1
173
     1
284
     8
285
     8
286
     8
340
5FC9
  0
ENDTAB
  0
TABLE
  2
BLOCK_RECORD
  5
5FB9
330
0
100
AcDbSymbolTable
 70
     1
  0
BLOCK_RECORD
  5
5FD6
102
{ACAD_XDICTIONARY
360
67B7
102
}
330
5FB9
100
AcDbSymbolTableRecord
100
AcDbBlockTableRecord
  2
*MODEL_SPACE
340
680B
  0
BLOCK_RECORD
  5
5FD2
102
{ACAD_XDICTIONARY
360
67B5
102
}
330
5FB9
100
AcDbSymbolTableRecord
100
AcDbBlockTableRecord
  2
*PAPER_SPACE
340
680C
  0
BLOCK_RECORD
  5
5FF1
330
5FB9
100
AcDbSymbolTableRecord
100
AcDbBlockTableRecord
  2
_OPEN
340
0
  0
ENDTAB
  0
ENDSEC
  0
SECTION
  2
BLOCKS
  0
BLOCK
  5
5FD7
330
5FD6
100
AcDbEntity
  8
0
100
AcDbBlockBegin
  2
*MODEL_SPACE
 70
     0
 10
0.0
 20
0.0
 30
0.0
  3
*MODEL_SPACE
  1

  0
ENDBLK
  5
5FD8
330
5FD6
100
AcDbEntity
  8
0
100
AcDbBlockEnd
  0
BLOCK
  5
5FD3
330
5FD2
100
AcDbEntity
 67
     1
  8
0
100
AcDbBlockBegin
  2
*PAPER_SPACE
 70
     0
 10
0.0
 20
0.0
 30
0.0
  3
*PAPER_SPACE
  1

  0
ENDBLK
  5
5FD4
330
5FD2
100
AcDbEntity
 67
     1
  8
0
100
AcDbBlockEnd
  0
BLOCK
  5
5FF2
330
5FF1
100
AcDbEntity
  8
0
100
AcDbBlockBegin
  2
_OPEN
 70
     0
 10
0.0
 20
0.0
 30
0.0
  3
_OPEN
  1

  0
LINE
  5
5FF3
330
5FF1
100
AcDbEntity
  8
0
  6
ByBlock
 62
     0
100
AcDbLine
 10
-1.0
 20
0.166667
 30
0.0
 11
0.0
 21
0.0
 31
0.0
  0
LINE
  5
5FF4
330
5FF1
100
AcDbEntity
  8
0
  6
ByBlock
 62
     0
100
AcDbLine
 10
0.0
 20
0.0
 30
0.0
 11
-1.0
 21
-0.166667
 31
0.0
  0
LINE
  5
5FF5
330
5FF1
100
AcDbEntity
  8
0
  6
ByBlock
 62
     0
100
AcDbLine
 10
0.0
 20
0.0
 30
0.0
 11
-1.0
 21
0.0
 31
0.0
  0
ENDBLK
  5
5FF6
330
5FF1
100
AcDbEntity
  8
0
100
AcDbBlockEnd
  0
ENDSEC
  0
SECTION
  2
ENTITIES
  0
TEXT
  5
5FF7
330
5FD6
100
AcDbEntity
  8
4
  6
CENTER
100
AcDbText
 10
23.979509
 20
10.048738
 30
0.0
 40
1.399999999999999
  1
4
100
AcDbText
  0
TEXT
  5
5FF8
330
5FD6
100
AcDbEntity
  8
7
  6
Continuous
100
AcDbText
 10
9.999997999999999
 20
26.000001
 30
0.0
 40
3.0
  1
CODE No.13100
100
AcDbText
  0
TEXT
  5
5FF9
330
5FD6
100
AcDbEntity
  8
7
  6
Continuous
100
AcDbText
 10
9.999997999999999
 20
18.000001
 30
0.0
 40
3.0
  1
TYPE No.THA-330S-1K
100
AcDbText
  0
TEXT
  5
5FFA
330
5FD6
100
AcDbEntity
  8
1
  6
Continuous
100
AcDbText
 10
9.999997999999999
 20
10.000001
 30
0.0
 40
1.399999999999999
  1
LAYER
100
AcDbText
  0
TEXT
  5
5FFB
330
5FD6
100
AcDbEntity
  8
2
  6
Continuous
100
AcDbText
 10
19.979509
 20
10.048738
 30
0.0
 40
1.399999999999999
  1
2
100
AcDbText
  0
TEXT
  5
5FFC
330
5FD6
100
AcDbEntity
  8
3
  6
DASHED
100
AcDbText
 10
21.97950899999999
 20
10.048738
 30
0.0
 40
1.399999999999999
  1
3
100
AcDbText
  0
TEXT
  5
5FFD
330
5FD6
100
AcDbEntity
  8
1
  6
Continuous
100
AcDbText
 10
17.979509
 20
10.048738
 30
0.0
 40
1.399999999999999
  1
1
100
AcDbText
  0
TEXT
  5
5FFE
330
5FD6
100
AcDbEntity
  8
5
  6
PHANTOM
100
AcDbText
 10
25.979509
 20
10.048738
 30
0.0
 40
1.399999999999999
  1
5
100
AcDbText
  0
TEXT
  5
5FFF
330
5FD6
100
AcDbEntity
  8
6
  6
Continuous
100
AcDbText
 10
27.979509
 20
10.048738
 30
0.0
 40
1.399999999999999
  1
6
100
AcDbText
  0
TEXT
  5
6000
330
5FD6
100
AcDbEntity
  8
7
  6
Continuous
100
AcDbText
 10
29.97950900000001
 20
10.048738
 30
0.0
 40
1.399999999999999
  1
7
100
AcDbText
  0
LINE
  5
6001
330
5FD6
100
AcDbEntity
  8
1
  6
Continuous
100
AcDbLine
 10
325.320022
 20
312.0869237649912
 30
0.0
 11
325.320022
 21
252.0869237649912
 31
0.0
  0
LINE
  5
6002
330
5FD6
100
AcDbEntity
  8
1
  6
Continuous
100
AcDbLine
 10
327.3200219999998
 20
258.0869237649912
 30
0.0
 11
330.8200219999998
 21
258.0869237649912
 31
0.0
  0
LINE
  5
6003
330
5FD6
100
AcDbEntity
  8
1
  6
Continuous
100
AcDbLine
 10
327.3200219999998
 20
306.0869237649912
 30
0.0
 11
330.8200219999998
 21
306.0869237649912
 31
0.0
  0
LINE
  5
6004
330
5FD6
100
AcDbEntity
  8
1
  6
Continuous
100
AcDbLine
 10
327.3200219999998
 20
264.5869237649912
 30
0.0
 11
330.8200219999998
 21
264.5869237649912
 31
0.0
  0
LINE
  5
6005
330
5FD6
100
AcDbEntity
  8
1
  6
Continuous
100
AcDbLine
 10
327.3200219999998
 20
299.5869237649912
 30
0.0
 11
330.8200219999998
 21
299.5869237649912
 31
0.0
  0
LINE
  5
6006
330
5FD6
100
AcDbEntity
  8
1
  6
Continuous
100
AcDbLine
 10
327.3200219999998
 20
312.0869237649912
 30
0.0
 11
327.3200219999998
 21
252.0869237649912
 31
0.0
  0
LINE
  5
6007
330
5FD6
100
AcDbEntity
  8
1
  6
Continuous
100
AcDbLine
 10
348.670022
 20
291.5869237649912
 30
0.0
 11
348.670022
 21
272.5869237649912
 31
0.0
  0
LINE
  5
6008
330
5FD6
100
AcDbEntity
  8
1
  6
Continuous
100
AcDbLine
 10
347.170022
 20
292.0869237649913
 30
0.0
 11
347.170022
 21
272.0869237649913
 31
0.0
  0
LINE
  5
6009
330
5FD6
100
AcDbEntity
  8
1
  6
Continuous
100
AcDbLine
 10
330.8200219999998
 20
264.5869237649912
 30
0.0
 11
330.8200219999998
 21
258.0869237649912
 31
0.0
  0
LINE
  5
600A
330
5FD6
100
AcDbEntity
  8
1
  6
Continuous
100
AcDbLine
 10
330.8200219999998
 20
306.0869237649912
 30
0.0
 11
330.8200219999998
 21
299.5869237649912
 31
0.0
  0
ARC
  5
600B
330
5FD6
100
AcDbEntity
  8
1
  6
Continuous
100
AcDbCircle
 10
523.4993799999998
 20
262.0869237649912
 30
0.0
 40
4.0
100
AcDbArc
 50
152.571893
 51
27.428107
  0
ARC
  5
600C
330
5FD6
100
AcDbEntity
  8
1
  6
Continuous
100
AcDbCircle
 10
523.4993799999998
 20
302.0869237649912
 30
0.0
 40
4.0
100
AcDbArc
 50
332.571902
 51
207.428098
  0
ARC
  5
600D
330
5FD6
100
AcDbEntity
  8
1
  6
Continuous
100
AcDbCircle
 10
523.4993799999998
 20
302.0869237649912
 30
0.0
 40
4.25
100
AcDbArc
 50
332.420521
 51
207.579479
  0
ARC
  5
600E
330
5FD6
100
AcDbEntity
  8
1
  6
Continuous
100
AcDbCircle
 10
523.4993799999998
 20
262.0869237649912
 30
0.0
 40
4.25
100
AcDbArc
 50
152.4205119999998
 51
27.579488
  0
LINE
  5
600F
330
5FD6
100
AcDbEntity
  8
1
  6
Continuous
100
AcDbLine
 10
540.9993799999998
 20
292.1905537649913
 30
0.0
 11
540.9993799999998
 21
271.9832937649913
 31
0.0
  0
LINE
  5
6010
330
5FD6
100
AcDbEntity
  8
1
  6
Continuous
100
AcDbLine
 10
505.9993799999999
 20
292.1905537649913
 30
0.0
 11
505.9993799999999
 21
271.9832937649913
 31
0.0
  0
LINE
  5
6011
330
5FD6
100
AcDbEntity
  8
1
  6
Continuous
100
AcDbLine
 10
523.4993799999998
 20
302.2941837649913
 30
0.0
 11
540.9993799999998
 21
292.1905537649913
 31
0.0
  0
LINE
  5
6012
330
5FD6
100
AcDbEntity
  8
1
  6
Continuous
100
AcDbLine
 10
505.9993799999999
 20
271.9832937649913
 30
0.0
 11
523.4993799999998
 21
261.8796647649913
 31
0.0
  0
LINE
  5
6013
330
5FD6
100
AcDbEntity
  8
1
  6
Continuous
100
AcDbLine
 10
505.9993799999999
 20
292.1905537649913
 30
0.0
 11
523.4993799999998
 21
302.2941837649913
 31
0.0
  0
LINE
  5
6014
330
5FD6
100
AcDbEntity
  8
1
  6
Continuous
100
AcDbLine
 10
523.4993799999998
 20
261.8796647649913
 30
0.0
 11
540.9993799999998
 21
271.9832937649913
 31
0.0
  0
ARC
  5
6015
330
5FD6
100
AcDbEntity
  8
1
  6
Continuous
100
AcDbCircle
 10
131.4664339999999
 20
282.0869237649913
 30
0.0
 40
30.0
100
AcDbArc
 50
296.2191329999999
 51
243.7808669999999
  0
LINE
  5
6016
330
5FD6
100
AcDbEntity
  8
1
  6
Continuous
100
AcDbLine
 10
114.466434
 20
305.7301047649914
 30
0.0
 11
114.466434
 21
258.4437427649912
 31
0.0
  0
LINE
  5
6017
330
5FD6
100
AcDbEntity
  8
1
  6
Continuous
100
AcDbLine
 10
148.4664339999999
 20
305.7301047649914
 30
0.0
 11
148.4664339999999
 21
258.4437427649912
 31
0.0
  0
ARC
  5
6018
330
5FD6
100
AcDbEntity
  8
1
  6
Continuous
100
AcDbCircle
 10
116.466434
 20
305.7301047649914
 30
0.0
 40
2.0
100
AcDbArc
 50
122.3923649999999
 51
180.0
  0
ARC
  5
6019
330
5FD6
100
AcDbEntity
  8
1
  6
Continuous
100
AcDbCircle
 10
146.4664339999999
 20
305.7301047649914
 30
0.0
 40
2.0
100
AcDbArc
 50
0.0
 51
57.60763499999999
  0
ARC
  5
601A
330
5FD6
100
AcDbEntity
  8
1
  6
Continuous
100
AcDbCircle
 10
146.4664339999999
 20
258.4437427649912
 30
0.0
 40
2.0
100
AcDbArc
 50
302.3923649999999
 51
0.0
  0
ARC
  5
601B
330
5FD6
100
AcDbEntity
  8
1
  6
Continuous
100
AcDbCircle
 10
116.466434
 20
258.4437427649912
 30
0.0
 40
2.0
100
AcDbArc
 50
180.0
 51
237.607635
  0
LINE
  5
601C
330
5FD6
100
AcDbEntity
  8
1
  6
Continuous
100
AcDbLine
 10
117.966434
 20
293.2547627649913
 30
0.0
 11
114.7267879999999
 21
305.7973517649912
 31
0.0
  0
LINE
  5
601D
330
5FD6
100
AcDbEntity
  8
1
  6
Continuous
100
AcDbLine
 10
144.9664339999999
 20
293.2547627649913
 30
0.0
 11
148.20608
 21
305.7973517649912
 31
0.0
  0
LINE
  5
601E
330
5FD6
100
AcDbEntity
  8
1
  6
Continuous
100
AcDbLine
 10
144.9664339999999
 20
270.9190847649912
 30
0.0
 11
148.20608
 21
258.3764957649912
 31
0.0
  0
LINE
  5
601F
330
5FD6
100
AcDbEntity
  8
1
  6
Continuous
100
AcDbLine
 10
117.966434
 20
270.9190847649912
 30
0.0
 11
114.7267879999999
 21
258.3764957649912
 31
0.0
  0
LINE
  5
6020
330
5FD6
100
AcDbEntity
  8
1
  6
Continuous
100
AcDbLine
 10
321.320022
 20
305.7973517649912
 30
0.0
 11
321.320022
 21
258.3764957649912
 31
0.0
  0
LINE
  5
6021
330
5FD6
100
AcDbEntity
  8
1
  6
Continuous
100
AcDbLine
 10
322.4554669999998
 20
312.0869237649912
 30
0.0
 11
327.3200219999998
 21
312.0869237649912
 31
0.0
  0
LINE
  5
6022
330
5FD6
100
AcDbEntity
  8
1
  6
Continuous
100
AcDbLine
 10
320.7505569999999
 20
305.7973517649912
 30
0.0
 11
311.7816499999999
 21
292.3790657649912
 31
0.0
  0
LINE
  5
6023
330
5FD6
100
AcDbEntity
  8
1
  6
Continuous
100
AcDbLine
 10
320.7505569999999
 20
258.3764957649912
 30
0.0
 11
311.7816499999999
 21
271.7947817649914
 31
0.0
  0
LINE
  5
6024
330
5FD6
100
AcDbEntity
  8
1
  6
Continuous
100
AcDbLine
 10
321.320022
 20
310.7333637649912
 30
0.0
 11
321.320022
 21
306.6493217649912
 31
0.0
  0
CIRCLE
  5
6025
330
5FD6
100
AcDbEntity
  8
1
  6
Continuous
100
AcDbCircle
 10
523.4993799999998
 20
282.0869237649913
 30
0.0
 40
30.0
  0
CIRCLE
  5
6026
330
5FD6
100
AcDbEntity
  8
1
  6
Continuous
100
AcDbCircle
 10
523.4993799999998
 20
282.0869237649913
 30
0.0
 40
16.0
  0
CIRCLE
  5
6027
330
5FD6
100
AcDbEntity
  8
1
  6
Continuous
100
AcDbCircle
 10
523.4993799999998
 20
282.0869237649913
 30
0.0
 40
17.5
  0
LINE
  5
6028
330
5FD6
100
AcDbEntity
  8
4
  6
CENTER
100
AcDbLine
 10
558.4993799999998
 20
282.0869237649913
 30
0.0
 11
488.49938
 21
282.0869237649913
 31
0.0
  0
LINE
  5
6029
330
5FD6
100
AcDbEntity
  8
1
  6
Continuous
100
AcDbLine
 10
327.3200219999998
 20
292.0869237649913
 30
0.0
 11
348.170022
 21
292.0869237649913
 31
0.0
  0
LINE
  5
602A
330
5FD6
100
AcDbEntity
  8
1
  6
Continuous
100
AcDbLine
 10
327.3200219999998
 20
272.0869237649913
 30
0.0
 11
348.170022
 21
272.0869237649913
 31
0.0
  0
LINE
  5
602B
330
5FD6
100
AcDbEntity
  8
1
  6
Continuous
100
AcDbLine
 10
433.510886
 20
271.0869237649912
 30
0.0
 11
433.510886
 21
293.0869237649913
 31
0.0
  0
LINE
  5
602C
330
5FD6
100
AcDbEntity
  8
1
  6
Continuous
100
AcDbLine
 10
430.510886
 20
271.0869237649912
 30
0.0
 11
430.510886
 21
293.0869237649913
 31
0.0
  0
LINE
  5
602D
330
5FD6
100
AcDbEntity
  8
1
  6
Continuous
100
AcDbLine
 10
428.510886
 20
271.0869237649912
 30
0.0
 11
428.510886
 21
293.0869237649913
 31
0.0
  0
LINE
  5
602E
330
5FD6
100
AcDbEntity
  8
1
  6
Continuous
100
AcDbLine
 10
433.510886
 20
293.0869237649913
 30
0.0
 11
430.510886
 21
293.0869237649913
 31
0.0
  0
LINE
  5
602F
330
5FD6
100
AcDbEntity
  8
1
  6
Continuous
100
AcDbLine
 10
430.510886
 20
293.0869237649913
 30
0.0
 11
428.510886
 21
293.0869237649913
 31
0.0
  0
LINE
  5
6030
330
5FD6
100
AcDbEntity
  8
1
  6
Continuous
100
AcDbLine
 10
433.510886
 20
271.0869237649912
 30
0.0
 11
430.510886
 21
271.0869237649912
 31
0.0
  0
LINE
  5
6031
330
5FD6
100
AcDbEntity
  8
1
  6
Continuous
100
AcDbLine
 10
430.510886
 20
271.0869237649912
 30
0.0
 11
428.510886
 21
271.0869237649912
 31
0.0
  0
ARC
  5
6032
330
5FD6
100
AcDbEntity
  8
1
  6
Continuous
100
AcDbCircle
 10
449.285213
 20
286.4170507649912
 30
0.0
 40
2.164377999999997
100
AcDbArc
 50
180.0
 51
221.8265479999999
  0
LINE
  5
6033
330
5FD6
100
AcDbEntity
  8
1
  6
Continuous
100
AcDbLine
 10
447.6251519999998
 20
287.8604267649912
 30
0.0
 11
447.1208349999998
 21
286.9869237649913
 31
0.0
  0
ARC
  5
6034
330
5FD6
100
AcDbEntity
  8
1
  6
Continuous
100
AcDbCircle
 10
454.9510139999998
 20
282.0869237649913
 30
0.0
 40
7.83018
100
AcDbArc
 50
158.366392
 51
201.633608
  0
ARC
  5
6035
330
5FD6
100
AcDbEntity
  8
1
  6
Continuous
100
AcDbCircle
 10
449.285213
 20
277.7567967649912
 30
0.0
 40
2.164377999999997
100
AcDbArc
 50
138.1734519999999
 51
180.0
  0
LINE
  5
6036
330
5FD6
100
AcDbEntity
  8
1
  6
Continuous
100
AcDbLine
 10
447.6251519999998
 20
276.3134207649913
 30
0.0
 11
447.1208349999998
 21
277.1869237649913
 31
0.0
  0
LINE
  5
6037
330
5FD6
100
AcDbEntity
  8
1
  6
Continuous
100
AcDbLine
 10
444.0208349999998
 20
274.0869237649913
 30
0.0
 11
445.6208349999998
 21
274.0869237649913
 31
0.0
  0
LINE
  5
6038
330
5FD6
100
AcDbEntity
  8
1
  6
Continuous
100
AcDbLine
 10
444.0208349999998
 20
290.0869237649913
 30
0.0
 11
444.0208349999998
 21
274.0869237649913
 31
0.0
  0
LINE
  5
6039
330
5FD6
100
AcDbEntity
  8
1
  6
Continuous
100
AcDbLine
 10
444.0208349999998
 20
290.0869237649913
 30
0.0
 11
445.6208349999998
 21
290.0869237649913
 31
0.0
  0
LINE
  5
603A
330
5FD6
100
AcDbEntity
  8
1
  6
Continuous
100
AcDbLine
 10
445.6208349999998
 20
290.0869237649913
 30
0.0
 11
445.6208349999998
 21
274.0869237649913
 31
0.0
  0
LINE
  5
603B
330
5FD6
100
AcDbEntity
  8
4
  6
CENTER
100
AcDbLine
 10
528.9993799999998
 20
262.0869237649912
 30
0.0
 11
517.99938
 21
262.0869237649912
 31
0.0
  0
LINE
  5
603C
330
5FD6
100
AcDbEntity
  8
4
  6
CENTER
100
AcDbLine
 10
528.9993799999998
 20
302.0869237649912
 30
0.0
 11
517.99938
 21
302.0869237649912
 31
0.0
  0
LINE
  5
603D
330
5FD6
100
AcDbEntity
  8
1
  6
Continuous
100
AcDbLine
 10
311.840681
 20
296.2046817649913
 30
0.0
 11
320.7380999999998
 21
311.1119367649913
 31
0.0
  0
LINE
  5
603E
330
5FD6
100
AcDbEntity
  8
1
  6
Continuous
100
AcDbLine
 10
311.7700219999999
 20
268.2254157649913
 30
0.0
 11
311.7700219999999
 21
295.9484287649913
 31
0.0
  0
LINE
  5
603F
330
5FD6
100
AcDbEntity
  8
4
  6
CENTER
100
AcDbLine
 10
166.4664339999999
 20
282.0869237649913
 30
0.0
 11
96.46643400000002
 21
282.0869237649913
 31
0.0
  0
LINE
  5
6040
330
5FD6
100
AcDbEntity
  8
4
  6
CENTER
100
AcDbLine
 10
131.4664339999999
 20
321.6869237649912
 30
0.0
 11
131.4664339999999
 21
157.0869237649913
 31
0.0
  0
LINE
  5
6041
330
5FD6
100
AcDbEntity
  8
4
  6
CENTER
100
AcDbLine
 10
272.6200219999999
 20
282.0869237649913
 30
0.0
 11
361.7200219999999
 21
282.0869237649913
 31
0.0
  0
LINE
  5
6042
330
5FD6
100
AcDbEntity
  8
1
  6
Continuous
100
AcDbLine
 10
277.120022
 20
268.0869237649913
 30
0.0
 11
277.620022
 21
268.0869237649913
 31
0.0
  0
LINE
  5
6043
330
5FD6
100
AcDbEntity
  8
1
  6
Continuous
100
AcDbLine
 10
277.120022
 20
268.0869237649913
 30
0.0
 11
277.620022
 21
280.0869237649913
 31
0.0
  0
LINE
  5
6044
330
5FD6
100
AcDbEntity
  8
1
  6
Continuous
100
AcDbLine
 10
348.670022
 20
291.5869237649912
 30
0.0
 11
348.170022
 21
292.0869237649913
 31
0.0
  0
LINE
  5
6045
330
5FD6
100
AcDbEntity
  8
1
  6
Continuous
100
AcDbLine
 10
348.170022
 20
272.0869237649913
 30
0.0
 11
348.670022
 21
272.5869237649912
 31
0.0
  0
LINE
  5
6046
330
5FD6
100
AcDbEntity
  8
1
  6
Continuous
100
AcDbLine
 10
348.170022
 20
292.0869237649913
 30
0.0
 11
348.170022
 21
272.0869237649913
 31
0.0
  0
LINE
  5
6047
330
5FD6
100
AcDbEntity
  8
1
  6
Continuous
100
AcDbLine
 10
451.1208349999998
 20
277.1869237649913
 30
0.0
 11
451.1208349999998
 21
286.9869237649913
 31
0.0
  0
LINE
  5
6048
330
5FD6
100
AcDbEntity
  8
1
  6
Continuous
100
AcDbLine
 10
450.6165179999999
 20
287.8604267649912
 30
0.0
 11
447.6251519999998
 21
287.8604267649912
 31
0.0
  0
LINE
  5
6049
330
5FD6
100
AcDbEntity
  8
1
  6
Continuous
100
AcDbLine
 10
450.6165179999999
 20
276.3134207649913
 30
0.0
 11
447.6251519999998
 21
276.3134207649913
 31
0.0
  0
LINE
  5
604A
330
5FD6
100
AcDbEntity
  8
1
  6
Continuous
100
AcDbLine
 10
450.56928
 20
279.2001727649913
 30
0.0
 11
447.6723889999998
 21
279.2001727649913
 31
0.0
  0
LINE
  5
604B
330
5FD6
100
AcDbEntity
  8
1
  6
Continuous
100
AcDbLine
 10
450.56928
 20
284.9736747649913
 30
0.0
 11
447.6723889999998
 21
284.9736747649913
 31
0.0
  0
LINE
  5
604C
330
5FD6
100
AcDbEntity
  8
1
  6
Continuous
100
AcDbLine
 10
450.6165179999999
 20
287.8604267649912
 30
0.0
 11
451.1208349999998
 21
286.9869237649913
 31
0.0
  0
LINE
  5
604D
330
5FD6
100
AcDbEntity
  8
1
  6
Continuous
100
AcDbLine
 10
450.6165179999999
 20
276.3134207649913
 30
0.0
 11
451.1208349999998
 21
277.1869237649913
 31
0.0
  0
ARC
  5
604E
330
5FD6
100
AcDbEntity
  8
1
  6
Continuous
100
AcDbCircle
 10
443.2906549999998
 20
282.0869237649913
 30
0.0
 40
7.83018
100
AcDbArc
 50
338.366392
 51
21.63360799999999
  0
ARC
  5
604F
330
5FD6
100
AcDbEntity
  8
1
  6
Continuous
100
AcDbCircle
 10
448.956457
 20
277.7567967649912
 30
0.0
 40
2.164377999999997
100
AcDbArc
 50
0.0
 51
41.82654799999999
  0
ARC
  5
6050
330
5FD6
100
AcDbEntity
  8
1
  6
Continuous
100
AcDbCircle
 10
448.956457
 20
286.4170507649912
 30
0.0
 40
2.164377999999997
100
AcDbArc
 50
318.173452
 51
0.0
  0
LINE
  5
6051
330
5FD6
100
AcDbEntity
  8
1
  6
Continuous
100
AcDbLine
 10
447.1208349999998
 20
288.1869237649912
 30
0.0
 11
445.6208349999998
 21
288.1869237649912
 31
0.0
  0
LINE
  5
6052
330
5FD6
100
AcDbEntity
  8
1
  6
Continuous
100
AcDbLine
 10
447.1208349999998
 20
275.9869237649914
 30
0.0
 11
445.6208349999998
 21
275.9869237649914
 31
0.0
  0
LINE
  5
6053
330
5FD6
100
AcDbEntity
  8
1
  6
Continuous
100
AcDbLine
 10
447.1208349999998
 20
275.9869237649914
 30
0.0
 11
447.1208349999998
 21
288.1869237649912
 31
0.0
  0
LINE
  5
6054
330
5FD6
100
AcDbEntity
  8
1
  6
Continuous
100
AcDbLine
 10
447.1208349999998
 20
276.3134207649913
 30
0.0
 11
447.1208349999998
 21
287.8604267649912
 31
0.0
  0
LINE
  5
6055
330
5FD6
100
AcDbEntity
  8
4
  6
CENTER
100
AcDbLine
 10
458.147674
 20
282.0869237649913
 30
0.0
 11
389.3899059999998
 21
282.0869237649913
 31
0.0
  0
LINE
  5
6056
330
5FD6
100
AcDbEntity
  8
1
  6
Continuous
100
AcDbLine
 10
515.324965
 20
165.1742377649913
 30
0.0
 11
510.317778
 21
253.8060657649913
 31
0.0
  0
ARC
  5
6057
330
5FD6
100
AcDbEntity
  8
1
  6
Continuous
100
AcDbCircle
 10
517.820985
 20
165.3152487649912
 30
0.0
 40
2.5
100
AcDbArc
 50
183.233444
 51
255.382014
  0
ARC
  5
6058
330
5FD6
100
AcDbEntity
  8
1
  6
Continuous
100
AcDbCircle
 10
523.4993799999998
 20
187.0869237649913
 30
0.0
 40
25.0
100
AcDbArc
 50
255.382014
 51
284.6179859999999
  0
ARC
  5
6059
330
5FD6
100
AcDbEntity
  8
1
  6
Continuous
100
AcDbCircle
 10
529.177776
 20
165.3152487649912
 30
0.0
 40
2.5
100
AcDbArc
 50
284.6179859999999
 51
356.766556
  0
LINE
  5
605A
330
5FD6
100
AcDbEntity
  8
1
  6
Continuous
100
AcDbLine
 10
531.673796
 20
165.1742377649913
 30
0.0
 11
536.6809820000002
 21
253.8060657649913
 31
0.0
  0
ARC
  5
605B
330
5FD6
100
AcDbEntity
  8
1
  6
Continuous
100
AcDbCircle
 10
709.99938
 20
265.0869237649913
 30
0.0
 40
200.0
100
AcDbArc
 50
182.841123
 51
183.233444
  0
ARC
  5
605C
330
5FD6
100
AcDbEntity
  8
1
  6
Continuous
100
AcDbCircle
 10
336.9993799999999
 20
265.0869237649913
 30
0.0
 40
200.0
100
AcDbArc
 50
356.766556
 51
357.158877
  0
LINE
  5
605D
330
5FD6
100
AcDbEntity
  8
1
  6
Continuous
100
AcDbLine
 10
517.2410099999998
 20
184.4459127649913
 30
0.0
 11
513.3191169999999
 21
253.8670327649912
 31
0.0
  0
LINE
  5
605E
330
5FD6
100
AcDbEntity
  8
1
  6
Continuous
100
AcDbLine
 10
529.75775
 20
184.4459127649913
 30
0.0
 11
533.6796429999999
 21
253.8670327649912
 31
0.0
  0
LINE
  5
605F
330
5FD6
100
AcDbEntity
  8
1
  6
Continuous
100
AcDbLine
 10
515.9619229999998
 20
207.0869237649914
 30
0.0
 11
531.0368369999999
 21
207.0869237649914
 31
0.0
  0
LINE
  5
6060
330
5FD6
100
AcDbEntity
  8
1
  6
Continuous
100
AcDbLine
 10
516.3008889999998
 20
201.0869237649913
 30
0.0
 11
530.697871
 21
201.0869237649913
 31
0.0
  0
LINE
  5
6061
330
5FD6
100
AcDbEntity
  8
1
  6
Continuous
100
AcDbLine
 10
519.73703
 20
182.0869237649913
 30
0.0
 11
527.2617299999998
 21
182.0869237649913
 31
0.0
  0
ARC
  5
6062
330
5FD6
100
AcDbEntity
  8
1
  6
Continuous
100
AcDbCircle
 10
519.73703
 20
184.5869237649914
 30
0.0
 40
2.5
100
AcDbArc
 50
183.233444
 51
270.0
  0
ARC
  5
6063
330
5FD6
100
AcDbEntity
  8
1
  6
Continuous
100
AcDbCircle
 10
527.2617299999998
 20
184.5869237649914
 30
0.0
 40
2.5
100
AcDbArc
 50
270.0
 51
356.766556
  0
ARC
  5
6064
330
5FD6
100
AcDbEntity
  8
1
  6
Continuous
100
AcDbCircle
 10
523.4993799999998
 20
187.0869237649913
 30
0.0
 40
11.0
100
AcDbArc
 50
255.382014
 51
284.6179859999999
  0
LINE
  5
6065
330
5FD6
100
AcDbEntity
  8
4
  6
CENTER
100
AcDbLine
 10
523.4993799999998
 20
317.0869237649913
 30
0.0
 11
523.4993799999998
 21
157.0869237649913
 31
0.0
  0
LINE
  5
6066
330
5FD6
100
AcDbEntity
  8
1
  6
Continuous
100
AcDbLine
 10
285.920022
 20
299.0869237649913
 30
0.0
 11
285.920022
 21
265.0869237649913
 31
0.0
  0
LINE
  5
6067
330
5FD6
100
AcDbEntity
  8
1
  6
Continuous
100
AcDbLine
 10
285.820022
 20
297.4869237649913
 30
0.0
 11
285.920022
 21
297.4869237649913
 31
0.0
  0
LINE
  5
6068
330
5FD6
100
AcDbEntity
  8
1
  6
Continuous
100
AcDbLine
 10
285.920022
 20
299.0869237649913
 30
0.0
 11
291.262964
 21
299.0869237649913
 31
0.0
  0
LINE
  5
6069
330
5FD6
100
AcDbEntity
  8
1
  6
Continuous
100
AcDbLine
 10
311.7200219999999
 20
268.0869237649913
 30
0.0
 11
294.878274
 21
266.5787077649913
 31
0.0
  0
LINE
  5
606A
330
5FD6
100
AcDbEntity
  8
1
  6
Continuous
100
AcDbLine
 10
292.7684509999999
 20
298.9729497649913
 30
0.0
 11
311.7200219999999
 21
296.0869237649912
 31
0.0
  0
ARC
  5
606B
330
5FD6
100
AcDbEntity
  8
1
  6
Continuous
100
AcDbCircle
 10
291.262964
 20
289.0869237649912
 30
0.0
 40
10.0
100
AcDbArc
 50
81.34127900000001
 51
90.0
  0
LINE
  5
606C
330
5FD6
100
AcDbEntity
  8
1
  6
Continuous
100
AcDbLine
 10
311.7200219999999
 20
272.0869237649913
 30
0.0
 11
311.7700219999999
 21
272.0869237649913
 31
0.0
  0
LINE
  5
606D
330
5FD6
100
AcDbEntity
  8
1
  6
Continuous
100
AcDbLine
 10
311.7200219999999
 20
294.5869237649913
 30
0.0
 11
311.7700219999999
 21
294.5869237649913
 31
0.0
  0
LINE
  5
606E
330
5FD6
100
AcDbEntity
  8
1
  6
Continuous
100
AcDbLine
 10
311.7200219999999
 20
268.0869237649913
 30
0.0
 11
311.7200219999999
 21
296.0869237649912
 31
0.0
  0
LINE
  5
606F
330
5FD6
100
AcDbEntity
  8
1
  6
Continuous
100
AcDbLine
 10
356.7200219999999
 20
288.6630167649913
 30
0.0
 11
356.7200219999999
 21
275.5108307649912
 31
0.0
  0
ARC
  5
6070
330
5FD6
100
AcDbEntity
  8
1
  6
Continuous
100
AcDbCircle
 10
348.5200219999999
 20
289.8369237649912
 30
0.0
 40
0.2
100
AcDbArc
 50
0.0
 51
41.40962199999999
  0
ARC
  5
6071
330
5FD6
100
AcDbEntity
  8
1
  6
Continuous
100
AcDbCircle
 10
348.5200219999999
 20
274.3369237649913
 30
0.0
 40
0.2
100
AcDbArc
 50
318.5903779999998
 51
0.0
  0
LINE
  5
6072
330
5FD6
100
AcDbEntity
  8
1
  6
Continuous
100
AcDbLine
 10
356.420022
 20
288.9630167649913
 30
0.0
 11
348.7200219999999
 21
288.9630167649913
 31
0.0
  0
ARC
  5
6073
330
5FD6
100
AcDbEntity
  8
1
  6
Continuous
100
AcDbCircle
 10
356.420022
 20
288.6630167649913
 30
0.0
 40
0.3
100
AcDbArc
 50
0.0
 51
90.0
  0
LINE
  5
6074
330
5FD6
100
AcDbEntity
  8
1
  6
Continuous
100
AcDbLine
 10
356.420022
 20
275.2108307649912
 30
0.0
 11
348.7200219999999
 21
275.2108307649912
 31
0.0
  0
ARC
  5
6075
330
5FD6
100
AcDbEntity
  8
1
  6
Continuous
100
AcDbCircle
 10
356.420022
 20
275.5108307649912
 30
0.0
 40
0.3
100
AcDbArc
 50
270.0
 51
0.0
  0
LINE
  5
6076
330
5FD6
100
AcDbEntity
  8
1
  6
Continuous
100
AcDbLine
 10
348.7200219999999
 20
289.8369237649912
 30
0.0
 11
348.7200219999999
 21
274.3369237649913
 31
0.0
  0
LINE
  5
6077
330
5FD6
100
AcDbEntity
  8
1
  6
Continuous
100
AcDbLine
 10
288.0579529999998
 20
162.0869237649913
 30
0.0
 11
291.2200219999999
 21
162.0869237649913
 31
0.0
  0
ARC
  5
6078
330
5FD6
100
AcDbEntity
  8
1
  6
Continuous
100
AcDbCircle
 10
478.220022
 20
265.0869237649913
 30
0.0
 40
200.0
100
AcDbArc
 50
180.0
 51
184.8361309999999
  0
LINE
  5
6079
330
5FD6
100
AcDbEntity
  8
1
  6
Continuous
100
AcDbLine
 10
278.932043
 20
248.2256807649913
 30
0.0
 11
286.0650729999999
 21
163.9183117649912
 31
0.0
  0
LINE
  5
607A
330
5FD6
100
AcDbEntity
  8
1
  6
Continuous
100
AcDbLine
 10
299.2200219999999
 20
172.7732157649913
 30
0.0
 11
299.2200219999999
 21
170.0869237649913
 31
0.0
  0
LINE
  5
607B
330
5FD6
100
AcDbEntity
  8
1
  6
Continuous
100
AcDbLine
 10
296.8768759999999
 20
178.4300697649913
 30
0.0
 11
294.684488
 21
180.6224577649912
 31
0.0
  0
ARC
  5
607C
330
5FD6
100
AcDbEntity
  8
1
  6
Continuous
100
AcDbCircle
 10
288.0579529999998
 20
164.0869237649913
 30
0.0
 40
2.0
100
AcDbArc
 50
184.8361309999999
 51
270.0
  0
ARC
  5
607D
330
5FD6
100
AcDbEntity
  8
1
  6
Continuous
100
AcDbCircle
 10
291.2200219999999
 20
170.0869237649913
 30
0.0
 40
8.0
100
AcDbArc
 50
270.0
 51
0.0
  0
ARC
  5
607E
330
5FD6
100
AcDbEntity
  8
1
  6
Continuous
100
AcDbCircle
 10
291.2200219999999
 20
172.7732157649913
 30
0.0
 40
8.0
100
AcDbArc
 50
0.0
 51
45.0
  0
LINE
  5
607F
330
5FD6
100
AcDbEntity
  8
1
  6
Continuous
100
AcDbLine
 10
293.220022
 20
264.9435097649913
 30
0.0
 11
293.220022
 21
184.1579917649913
 31
0.0
  0
ARC
  5
6080
330
5FD6
100
AcDbEntity
  8
1
  6
Continuous
100
AcDbCircle
 10
298.2200219999999
 20
184.1579917649913
 30
0.0
 40
5.0
100
AcDbArc
 50
180.0
 51
225.0
  0
ARC
  5
6081
330
5FD6
100
AcDbEntity
  8
1
  6
Continuous
100
AcDbCircle
 10
296.2162039999999
 20
251.6384957649912
 30
0.0
 40
15.0
100
AcDbArc
 50
95.11731500000001
 51
100.851964
  0
LINE
  5
6082
330
5FD6
100
AcDbEntity
  8
1
  6
Continuous
100
AcDbLine
 10
311.7200219999999
 20
291.7563347649913
 30
0.0
 11
311.7700219999999
 21
291.7563347649913
 31
0.0
  0
LINE
  5
6083
330
5FD6
100
AcDbEntity
  8
1
  6
Continuous
100
AcDbLine
 10
356.420022
 20
282.0869237649913
 30
0.0
 11
348.7200219999999
 21
282.0869237649913
 31
0.0
  0
LINE
  5
6084
330
5FD6
100
AcDbEntity
  8
1
  6
Continuous
100
AcDbLine
 10
285.920022
 20
265.0869237649913
 30
0.0
 11
285.520022
 21
265.0869237649913
 31
0.0
  0
LINE
  5
6085
330
5FD6
100
AcDbEntity
  8
1
  6
Continuous
100
AcDbLine
 10
285.820022
 20
297.1568217649913
 30
0.0
 11
285.920022
 21
297.1568217649913
 31
0.0
  0
LINE
  5
6086
330
5FD6
100
AcDbEntity
  8
1
  6
Continuous
100
AcDbLine
 10
285.820022
 20
296.7512427649913
 30
0.0
 11
285.920022
 21
296.7512427649913
 31
0.0
  0
LINE
  5
6087
330
5FD6
100
AcDbEntity
  8
1
  6
Continuous
100
AcDbLine
 10
285.820022
 20
294.6924207649913
 30
0.0
 11
285.920022
 21
294.6924207649913
 31
0.0
  0
LINE
  5
6088
330
5FD6
100
AcDbEntity
  8
1
  6
Continuous
100
AcDbLine
 10
311.7200219999999
 20
272.0869237649913
 30
0.0
 11
298.6848499999999
 21
270.9195947649912
 31
0.0
  0
ARC
  5
6089
330
5FD6
100
AcDbEntity
  8
1
  6
Continuous
100
AcDbCircle
 10
299.2200219999999
 20
264.9435097649913
 30
0.0
 40
6.0
100
AcDbArc
 50
95.11731500000001
 51
180.0
  0
LINE
  5
608A
330
5FD6
100
AcDbEntity
  8
1
  6
Continuous
100
AcDbLine
 10
292.1793149999999
 20
295.1042917649914
 30
0.0
 11
311.1308859999998
 21
292.2182657649912
 31
0.0
  0
ARC
  5
608B
330
5FD6
100
AcDbEntity
  8
1
  6
Continuous
100
AcDbCircle
 10
291.262964
 20
289.0869237649912
 30
0.0
 40
6.086740999999999
100
AcDbArc
 50
81.34127900000001
 51
90.0
  0
LINE
  5
608C
330
5FD6
100
AcDbEntity
  8
1
  6
Continuous
100
AcDbLine
 10
285.920022
 20
295.1736647649913
 30
0.0
 11
291.262964
 21
295.1736647649913
 31
0.0
  0
LINE
  5
608D
330
5FD6
100
AcDbEntity
  8
2
  6
Continuous
100
AcDbLine
 10
356.420022
 20
288.9630167649913
 30
0.0
 11
348.7200219999999
 21
282.0869237649913
 31
0.0
  0
LINE
  5
608E
330
5FD6
100
AcDbEntity
  8
2
  6
Continuous
100
AcDbLine
 10
348.7200219999999
 20
282.0869237649913
 30
0.0
 11
356.420022
 21
275.2108307649912
 31
0.0
  0
LINE
  5
608F
330
5FD6
100
AcDbEntity
  8
2
  6
Continuous
100
AcDbLine
 10
348.7200219999999
 20
275.2108307649912
 30
0.0
 11
356.420022
 21
282.0869237649913
 31
0.0
  0
LINE
  5
6090
330
5FD6
100
AcDbEntity
  8
2
  6
Continuous
100
AcDbLine
 10
356.420022
 20
282.0869237649913
 30
0.0
 11
348.7200219999999
 21
288.9630167649913
 31
0.0
  0
LINE
  5
6091
330
5FD6
100
AcDbEntity
  8
1
  6
Continuous
100
AcDbLine
 10
285.820022
 20
299.0869237649913
 30
0.0
 11
285.820022
 21
265.3869237649913
 31
0.0
  0
LINE
  5
6092
330
5FD6
100
AcDbEntity
  8
1
  6
Continuous
100
AcDbLine
 10
277.620022
 20
298.0869237649912
 30
0.0
 11
277.620022
 21
265.0869237649913
 31
0.0
  0
LINE
  5
6093
330
5FD6
100
AcDbEntity
  8
1
  6
Continuous
100
AcDbLine
 10
278.620022
 20
299.0869237649913
 30
0.0
 11
285.820022
 21
299.0869237649913
 31
0.0
  0
LINE
  5
6094
330
5FD6
100
AcDbEntity
  8
1
  6
Continuous
100
AcDbLine
 10
277.620022
 20
265.0869237649913
 30
0.0
 11
285.520022
 21
265.0869237649913
 31
0.0
  0
ARC
  5
6095
330
5FD6
100
AcDbEntity
  8
1
  6
Continuous
100
AcDbCircle
 10
278.620022
 20
298.0869237649912
 30
0.0
 40
1.0
100
AcDbArc
 50
90.0
 51
180.0
  0
ARC
  5
6096
330
5FD6
100
AcDbEntity
  8
1
  6
Continuous
100
AcDbCircle
 10
285.520022
 20
265.3869237649913
 30
0.0
 40
0.3
100
AcDbArc
 50
270.0
 51
0.0
  0
LINE
  5
6097
330
5FD6
100
AcDbEntity
  8
1
  6
Continuous
100
AcDbLine
 10
117.966434
 20
265.0869237649913
 30
0.0
 11
117.966434
 21
294.1522977649913
 31
0.0
  0
LINE
  5
6098
330
5FD6
100
AcDbEntity
  8
1
  6
Continuous
100
AcDbLine
 10
144.9664339999999
 20
265.0869237649913
 30
0.0
 11
144.9664339999999
 21
294.1522977649913
 31
0.0
  0
LINE
  5
6099
330
5FD6
100
AcDbEntity
  8
1
  6
Continuous
100
AcDbLine
 10
119.9664339999998
 20
296.4053717649913
 30
0.0
 11
119.9664339999998
 21
265.0869237649913
 31
0.0
  0
LINE
  5
609A
330
5FD6
100
AcDbEntity
  8
1
  6
Continuous
100
AcDbLine
 10
142.9664339999999
 20
296.4053717649913
 30
0.0
 11
142.9664339999999
 21
265.0869237649913
 31
0.0
  0
ARC
  5
609B
330
5FD6
100
AcDbEntity
  8
1
  6
Continuous
100
AcDbCircle
 10
131.4664339999999
 20
264.0869237649912
 30
0.0
 40
8.0
100
AcDbArc
 50
12.83958799999999
 51
167.160412
  0
LINE
  5
609C
330
5FD6
100
AcDbEntity
  8
1
  6
Continuous
100
AcDbLine
 10
117.966434
 20
265.0869237649913
 30
0.0
 11
122.69147
 21
265.0869237649913
 31
0.0
  0
ARC
  5
609D
330
5FD6
100
AcDbEntity
  8
1
  6
Continuous
100
AcDbCircle
 10
122.69147
 20
266.0869237649913
 30
0.0
 40
1.0
100
AcDbArc
 50
270.0
 51
347.160412
  0
ARC
  5
609E
330
5FD6
100
AcDbEntity
  8
1
  6
Continuous
100
AcDbCircle
 10
140.241398
 20
266.0869237649913
 30
0.0
 40
1.0
100
AcDbArc
 50
192.839588
 51
270.0
  0
LINE
  5
609F
330
5FD6
100
AcDbEntity
  8
1
  6
Continuous
100
AcDbLine
 10
124.538231
 20
268.0869237649913
 30
0.0
 11
131.4664339999999
 21
280.0869237649913
 31
0.0
  0
LINE
  5
60A0
330
5FD6
100
AcDbEntity
  8
1
  6
Continuous
100
AcDbLine
 10
131.4664339999999
 20
280.0869237649913
 30
0.0
 11
138.3946369999999
 21
268.0869237649913
 31
0.0
  0
ARC
  5
60A1
330
5FD6
100
AcDbEntity
  8
1
  6
Continuous
100
AcDbCircle
 10
131.4664339999999
 20
273.0869237649912
 30
0.0
 40
26.0
100
AcDbArc
 50
61.36900999999999
 51
118.6309899999999
  0
ARC
  5
60A2
330
5FD6
100
AcDbEntity
  8
1
  6
Continuous
100
AcDbCircle
 10
142.9664339999999
 20
294.1522977649913
 30
0.0
 40
2.0
100
AcDbArc
 50
0.0
 51
61.36900999999999
  0
ARC
  5
60A3
330
5FD6
100
AcDbEntity
  8
1
  6
Continuous
100
AcDbCircle
 10
119.9664339999998
 20
294.1522977649913
 30
0.0
 40
2.0
100
AcDbArc
 50
118.6309899999999
 51
180.0
  0
ARC
  5
60A4
330
5FD6
100
AcDbEntity
  8
1
  6
Continuous
100
AcDbCircle
 10
131.4664339999999
 20
264.0869237649912
 30
0.0
 40
8.0
100
AcDbArc
 50
12.83958799999999
 51
167.160412
  0
ARC
  5
60A5
330
5FD6
100
AcDbEntity
  8
1
  6
Continuous
100
AcDbCircle
 10
122.69147
 20
266.0869237649913
 30
0.0
 40
1.0
100
AcDbArc
 50
270.0
 51
347.160412
  0
ARC
  5
60A6
330
5FD6
100
AcDbEntity
  8
1
  6
Continuous
100
AcDbCircle
 10
140.241398
 20
266.0869237649913
 30
0.0
 40
1.0
100
AcDbArc
 50
192.839588
 51
270.0
  0
LINE
  5
60A7
330
5FD6
100
AcDbEntity
  8
1
  6
Continuous
100
AcDbLine
 10
140.241398
 20
265.0869237649913
 30
0.0
 11
144.9664339999999
 21
265.0869237649913
 31
0.0
  0
ARC
  5
60A8
330
5FD6
100
AcDbEntity
  8
1
  6
Continuous
100
AcDbCircle
 10
-55.033566
 20
265.0869237649913
 30
0.0
 40
200.0
100
AcDbArc
 50
356.766556
 51
0.0
  0
LINE
  5
60A9
330
5FD6
100
AcDbEntity
  8
5
  6
PHANTOM
100
AcDbLine
 10
236.802998
 20
230.7098317649913
 30
0.0
 11
162.549177
 21
279.3620967649912
 31
0.0
  0
ARC
  5
60AA
330
5FD6
100
AcDbEntity
  8
5
  6
PHANTOM
100
AcDbCircle
 10
213.7388479999999
 20
234.5869237649913
 30
0.0
 40
25.0
100
AcDbArc
 50
315.382014
 51
344.6179859999999
  0
ARC
  5
60AB
330
5FD6
100
AcDbEntity
  8
5
  6
PHANTOM
100
AcDbCircle
 10
235.432869
 20
228.6187207649914
 30
0.0
 40
2.5
100
AcDbArc
 50
344.6179859999999
 51
56.76655600000001
  0
ARC
  5
60AC
330
5FD6
100
AcDbEntity
  8
5
  6
PHANTOM
100
AcDbCircle
 10
229.7544739999999
 20
218.7834517649914
 30
0.0
 40
2.5
100
AcDbArc
 50
243.233444
 51
315.382014
  0
LINE
  5
60AD
330
5FD6
100
AcDbEntity
  8
5
  6
PHANTOM
100
AcDbLine
 10
228.628583
 20
216.5513297649913
 30
0.0
 11
149.3675749999999
 21
256.5308927649914
 31
0.0
  0
ARC
  5
60AE
330
5FD6
100
AcDbEntity
  8
1
  6
Continuous
100
AcDbCircle
 10
317.9664339999998
 20
265.0869237649913
 30
0.0
 40
200.0
100
AcDbArc
 50
180.0
 51
183.233444
  0
LINE
  5
60AF
330
5FD6
100
AcDbEntity
  8
5
  6
PHANTOM
100
AcDbLine
 10
117.966434
 20
282.6869237649913
 30
0.0
 11
117.966434
 21
311.7522977649912
 31
0.0
  0
LINE
  5
60B0
330
5FD6
100
AcDbEntity
  8
5
  6
PHANTOM
100
AcDbLine
 10
144.9664339999999
 20
282.6869237649913
 30
0.0
 11
144.9664339999999
 21
311.7522977649912
 31
0.0
  0
LINE
  5
60B1
330
5FD6
100
AcDbEntity
  8
5
  6
PHANTOM
100
AcDbLine
 10
119.9664339999998
 20
314.0053717649913
 30
0.0
 11
119.9664339999998
 21
282.6869237649913
 31
0.0
  0
LINE
  5
60B2
330
5FD6
100
AcDbEntity
  8
5
  6
PHANTOM
100
AcDbLine
 10
142.9664339999999
 20
314.0053717649913
 30
0.0
 11
142.9664339999999
 21
282.6869237649913
 31
0.0
  0
ARC
  5
60B3
330
5FD6
100
AcDbEntity
  8
5
  6
PHANTOM
100
AcDbCircle
 10
131.4664339999999
 20
281.6869237649914
 30
0.0
 40
8.0
100
AcDbArc
 50
12.83958799999999
 51
167.160412
  0
LINE
  5
60B4
330
5FD6
100
AcDbEntity
  8
5
  6
PHANTOM
100
AcDbLine
 10
117.966434
 20
282.6869237649913
 30
0.0
 11
122.69147
 21
282.6869237649913
 31
0.0
  0
LINE
  5
60B5
330
5FD6
100
AcDbEntity
  8
5
  6
PHANTOM
100
AcDbLine
 10
140.241398
 20
282.6869237649913
 30
0.0
 11
144.9664339999999
 21
282.6869237649913
 31
0.0
  0
ARC
  5
60B6
330
5FD6
100
AcDbEntity
  8
5
  6
PHANTOM
100
AcDbCircle
 10
122.69147
 20
283.6869237649913
 30
0.0
 40
1.0
100
AcDbArc
 50
270.0
 51
347.160412
  0
ARC
  5
60B7
330
5FD6
100
AcDbEntity
  8
5
  6
PHANTOM
100
AcDbCircle
 10
140.241398
 20
283.6869237649913
 30
0.0
 40
1.0
100
AcDbArc
 50
192.839588
 51
270.0
  0
LINE
  5
60B8
330
5FD6
100
AcDbEntity
  8
5
  6
PHANTOM
100
AcDbLine
 10
124.538231
 20
285.6869237649913
 30
0.0
 11
131.4664339999999
 21
297.6869237649913
 31
0.0
  0
LINE
  5
60B9
330
5FD6
100
AcDbEntity
  8
5
  6
PHANTOM
100
AcDbLine
 10
131.4664339999999
 20
297.6869237649913
 30
0.0
 11
138.3946369999999
 21
285.6869237649913
 31
0.0
  0
ARC
  5
60BA
330
5FD6
100
AcDbEntity
  8
5
  6
PHANTOM
100
AcDbCircle
 10
131.4664339999999
 20
290.6869237649913
 30
0.0
 40
26.0
100
AcDbArc
 50
61.36900999999999
 51
118.6309899999999
  0
ARC
  5
60BB
330
5FD6
100
AcDbEntity
  8
5
  6
PHANTOM
100
AcDbCircle
 10
142.9664339999999
 20
311.7522977649912
 30
0.0
 40
2.0
100
AcDbArc
 50
0.0
 51
61.36900999999999
  0
ARC
  5
60BC
330
5FD6
100
AcDbEntity
  8
5
  6
PHANTOM
100
AcDbCircle
 10
119.9664339999998
 20
311.7522977649912
 30
0.0
 40
2.0
100
AcDbArc
 50
118.6309899999999
 51
180.0
  0
LINE
  5
60BD
330
5FD6
100
AcDbEntity
  8
3
  6
DASHED
100
AcDbLine
 10
132.4664339999999
 20
285.7369237649913
 30
0.0
 11
132.4664339999999
 21
278.7369237649913
 31
0.0
  0
LINE
  5
60BE
330
5FD6
100
AcDbEntity
  8
3
  6
DASHED
100
AcDbLine
 10
130.4664339999999
 20
285.7369237649913
 30
0.0
 11
130.4664339999999
 21
278.7369237649913
 31
0.0
  0
LINE
  5
60BF
330
5FD6
100
AcDbEntity
  8
3
  6
DASHED
100
AcDbLine
 10
132.4664339999999
 20
278.7369237649913
 30
0.0
 11
130.4664339999999
 21
278.7369237649913
 31
0.0
  0
LINE
  5
60C0
330
5FD6
100
AcDbEntity
  8
3
  6
DASHED
100
AcDbLine
 10
132.4664339999999
 20
285.7369237649913
 30
0.0
 11
130.4664339999999
 21
285.7369237649913
 31
0.0
  0
CIRCLE
  5
60C1
330
5FD6
100
AcDbEntity
  8
3
  6
DASHED
100
AcDbCircle
 10
131.4664339999999
 20
287.2369237649913
 30
0.0
 40
0.75
  0
LINE
  5
60C2
330
5FD6
100
AcDbEntity
  8
1
  6
Continuous
100
AcDbLine
 10
518.4993799999999
 20
354.7010767649912
 30
0.0
 11
523.4993799999998
 21
357.5880767649913
 31
0.0
  0
LINE
  5
60C3
330
5FD6
100
AcDbEntity
  8
1
  6
Continuous
100
AcDbLine
 10
523.4993799999998
 20
346.0410767649913
 30
0.0
 11
528.4993799999998
 21
348.9270767649912
 31
0.0
  0
LINE
  5
60C4
330
5FD6
100
AcDbEntity
  8
1
  6
Continuous
100
AcDbLine
 10
518.4993799999999
 20
354.7010767649912
 30
0.0
 11
518.4993799999999
 21
348.9270767649912
 31
0.0
  0
LINE
  5
60C5
330
5FD6
100
AcDbEntity
  8
1
  6
Continuous
100
AcDbLine
 10
528.4993799999998
 20
354.7010767649912
 30
0.0
 11
528.4993799999998
 21
348.9270767649912
 31
0.0
  0
LINE
  5
60C6
330
5FD6
100
AcDbEntity
  8
1
  6
Continuous
100
AcDbLine
 10
518.4993799999999
 20
348.9270767649912
 30
0.0
 11
523.4993799999998
 21
346.0400767649912
 31
0.0
  0
LINE
  5
60C7
330
5FD6
100
AcDbEntity
  8
1
  6
Continuous
100
AcDbLine
 10
523.4993799999998
 20
357.5880767649913
 30
0.0
 11
528.4993799999998
 21
354.7010767649912
 31
0.0
  0
LINE
  5
60C8
330
5FD6
100
AcDbEntity
  8
1
  6
Continuous
100
AcDbLine
 10
524.993496
 20
351.8147837649913
 30
0.0
 11
524.9984459999998
 21
351.8310467649913
 31
0.0
  0
LINE
  5
60C9
330
5FD6
100
AcDbEntity
  8
1
  6
Continuous
100
AcDbLine
 10
524.9984459999998
 20
351.8310467649913
 30
0.0
 11
526.3256849999997
 21
353.2049557649914
 31
0.0
  0
LINE
  5
60CA
330
5FD6
100
AcDbEntity
  8
1
  6
Continuous
100
AcDbLine
 10
523.500087
 20
353.3081937649913
 30
0.0
 11
523.5163499999998
 21
353.3131427649913
 31
0.0
  0
LINE
  5
60CB
330
5FD6
100
AcDbEntity
  8
1
  6
Continuous
100
AcDbLine
 10
523.5163499999998
 20
353.3131427649913
 30
0.0
 11
524.890259
 21
354.6403827649911
 31
0.0
  0
LINE
  5
60CC
330
5FD6
100
AcDbEntity
  8
1
  6
Continuous
100
AcDbLine
 10
522.00597
 20
351.8140767649912
 30
0.0
 11
522.00102
 21
351.8303397649913
 31
0.0
  0
LINE
  5
60CD
330
5FD6
100
AcDbEntity
  8
1
  6
Continuous
100
AcDbLine
 10
522.00102
 20
351.8303397649913
 30
0.0
 11
520.673074
 21
353.2049557649914
 31
0.0
  0
LINE
  5
60CE
330
5FD6
100
AcDbEntity
  8
1
  6
Continuous
100
AcDbLine
 10
523.483823
 20
353.3131427649913
 30
0.0
 11
522.1085009999998
 21
354.6403827649911
 31
0.0
  0
LINE
  5
60CF
330
5FD6
100
AcDbEntity
  8
1
  6
Continuous
100
AcDbLine
 10
523.500087
 20
353.3081937649913
 30
0.0
 11
523.483823
 21
353.3131427649913
 31
0.0
  0
LINE
  5
60D0
330
5FD6
100
AcDbEntity
  8
1
  6
Continuous
100
AcDbLine
 10
523.4993799999998
 20
350.3206667649913
 30
0.0
 11
523.4831159999998
 21
350.3157177649912
 31
0.0
  0
LINE
  5
60D1
330
5FD6
100
AcDbEntity
  8
1
  6
Continuous
100
AcDbLine
 10
523.4831159999998
 20
350.3157177649912
 30
0.0
 11
522.1085009999998
 21
348.9877707649913
 31
0.0
  0
LINE
  5
60D2
330
5FD6
100
AcDbEntity
  8
1
  6
Continuous
100
AcDbLine
 10
522.00102
 20
351.7978127649913
 30
0.0
 11
520.673074
 21
350.4231977649912
 31
0.0
  0
LINE
  5
60D3
330
5FD6
100
AcDbEntity
  8
1
  6
Continuous
100
AcDbLine
 10
522.00597
 20
351.8140767649912
 30
0.0
 11
522.00102
 21
351.7978127649913
 31
0.0
  0
LINE
  5
60D4
330
5FD6
100
AcDbEntity
  8
1
  6
Continuous
100
AcDbLine
 10
524.993496
 20
351.8147837649913
 30
0.0
 11
524.9984459999998
 21
351.7985207649914
 31
0.0
  0
LINE
  5
60D5
330
5FD6
100
AcDbEntity
  8
1
  6
Continuous
100
AcDbLine
 10
524.9984459999998
 20
351.7985207649914
 30
0.0
 11
526.3256849999997
 21
350.4231977649912
 31
0.0
  0
LINE
  5
60D6
330
5FD6
100
AcDbEntity
  8
1
  6
Continuous
100
AcDbLine
 10
523.5156429999998
 20
350.3157177649912
 30
0.0
 11
524.890259
 21
348.9877707649913
 31
0.0
  0
LINE
  5
60D7
330
5FD6
100
AcDbEntity
  8
1
  6
Continuous
100
AcDbLine
 10
523.4993799999998
 20
350.3206667649913
 30
0.0
 11
523.5156429999998
 21
350.3157177649912
 31
0.0
  0
CIRCLE
  5
60D8
330
5FD6
100
AcDbEntity
  8
1
  6
Continuous
100
AcDbCircle
 10
523.4993799999998
 20
351.8140767649912
 30
0.0
 40
8.0
  0
CIRCLE
  5
60D9
330
5FD6
100
AcDbEntity
  8
1
  6
Continuous
100
AcDbCircle
 10
523.4993799999998
 20
351.8140767649912
 30
0.0
 40
5.0
  0
CIRCLE
  5
60DA
330
5FD6
100
AcDbEntity
  8
1
  6
Continuous
100
AcDbCircle
 10
523.4993799999998
 20
351.8140767649912
 30
0.0
 40
6.099999999999997
  0
ARC
  5
60DB
330
5FD6
100
AcDbEntity
  8
1
  6
Continuous
100
AcDbCircle
 10
523.4993799999998
 20
351.8140767649912
 30
0.0
 40
3.149999999999999
100
AcDbArc
 50
26.20299999999999
 51
63.7974
  0
ARC
  5
60DC
330
5FD6
100
AcDbEntity
  8
1
  6
Continuous
100
AcDbCircle
 10
523.4993799999998
 20
351.8140767649912
 30
0.0
 40
3.149999999999999
100
AcDbArc
 50
116.2026
 51
153.797
  0
ARC
  5
60DD
330
5FD6
100
AcDbEntity
  8
1
  6
Continuous
100
AcDbCircle
 10
523.4993799999998
 20
351.8140767649912
 30
0.0
 40
3.149999999999999
100
AcDbArc
 50
206.203
 51
243.7969999999999
  0
ARC
  5
60DE
330
5FD6
100
AcDbEntity
  8
1
  6
Continuous
100
AcDbCircle
 10
523.4993799999998
 20
351.8140767649912
 30
0.0
 40
3.149999999999999
100
AcDbArc
 50
296.203
 51
333.7969999999998
  0
LINE
  5
60DF
330
5FD6
100
AcDbEntity
  8
1
  6
Continuous
100
AcDbLine
 10
522.8287799999999
 20
226.0945847649912
 30
0.0
 11
520.84518
 21
226.8648117649913
 31
0.0
  0
LINE
  5
60E0
330
5FD6
100
AcDbEntity
  8
1
  6
Continuous
100
AcDbLine
 10
521.39598
 20
226.6453847649913
 30
0.0
 11
521.39598
 21
225.5617847649913
 31
0.0
  0
LINE
  5
60E1
330
5FD6
100
AcDbEntity
  8
1
  6
Continuous
100
AcDbLine
 10
524.4736769999998
 20
227.2966867649912
 30
0.0
 11
524.3818769999998
 21
227.4136147649914
 31
0.0
  0
LINE
  5
60E2
330
5FD6
100
AcDbEntity
  8
1
  6
Continuous
100
AcDbLine
 10
526.0168169999998
 20
227.3584987649913
 30
0.0
 11
525.9148650000001
 21
227.2481227649912
 31
0.0
  0
LINE
  5
60E3
330
5FD6
100
AcDbEntity
  8
1
  6
Continuous
100
AcDbLine
 10
521.7984119999998
 20
216.1264437649913
 30
0.0
 11
521.7984119999998
 21
215.4274267649912
 31
0.0
  0
LINE
  5
6115
330
5FD6
100
AcDbEntity
  8
1
  6
Continuous
100
AcDbLine
 10
522.844246
 20
214.6217077649914
 30
0.0
 11
520.84518
 21
214.6217077649914
 31
0.0
  0
LINE
  5
6116
330
5FD6
100
AcDbEntity
  8
1
  6
Continuous
100
AcDbLine
 10
522.844246
 20
214.6217077649914
 30
0.0
 11
522.6305530000002
 21
214.8422947649913
 31
0.0
  0
LINE
  5
6149
330
5FD6
100
AcDbEntity
  8
1
  6
Continuous
100
AcDbLine
 10
521.7984119999998
 20
224.9120387649913
 30
0.0
 11
521.7984119999998
 21
224.2130207649913
 31
0.0
  0
LINE
  5
614A
330
5FD6
100
AcDbEntity
  8
1
  6
Continuous
100
AcDbLine
 10
522.8323799999998
 20
226.0945847649912
 30
0.0
 11
520.84518
 21
225.3594967649913
 31
0.0
  0
LINE
  5
6163
330
5FD6
100
AcDbEntity
  8
1
  6
Continuous
100
AcDbLine
 10
524.265777
 20
219.9759767649912
 30
0.0
 11
524.255121
 21
220.1077727649912
 31
0.0
  0
LINE
  5
6164
330
5FD6
100
AcDbEntity
  8
1
  6
Continuous
100
AcDbLine
 10
524.2973849999998
 20
219.8482127649913
 30
0.0
 11
524.265777
 21
219.9759767649912
 31
0.0
  0
LINE
  5
6165
330
5FD6
100
AcDbEntity
  8
1
  6
Continuous
100
AcDbLine
 10
524.349045
 20
219.7283327649913
 30
0.0
 11
524.2973849999998
 21
219.8482127649913
 31
0.0
  0
LINE
  5
6166
330
5FD6
100
AcDbEntity
  8
1
  6
Continuous
100
AcDbLine
 10
524.419137
 20
219.6199727649913
 30
0.0
 11
524.349045
 21
219.7283327649913
 31
0.0
  0
LINE
  5
6167
330
5FD6
100
AcDbEntity
  8
1
  6
Continuous
100
AcDbLine
 10
524.505537
 20
219.5264447649913
 30
0.0
 11
524.419137
 21
219.6199727649913
 31
0.0
  0
LINE
  5
6168
330
5FD6
100
AcDbEntity
  8
1
  6
Continuous
100
AcDbLine
 10
524.6056170000001
 20
219.4505567649913
 30
0.0
 11
524.505537
 21
219.5264447649913
 31
0.0
  0
LINE
  5
6169
330
5FD6
100
AcDbEntity
  8
1
  6
Continuous
100
AcDbLine
 10
524.716353
 20
219.3946487649913
 30
0.0
 11
524.6056170000001
 21
219.4505567649913
 31
0.0
  0
LINE
  5
616A
330
5FD6
100
AcDbEntity
  8
1
  6
Continuous
100
AcDbLine
 10
524.8343969999998
 20
219.3604127649913
 30
0.0
 11
524.716353
 21
219.3946487649913
 31
0.0
  0
LINE
  5
616B
330
5FD6
100
AcDbEntity
  8
1
  6
Continuous
100
AcDbLine
 10
524.956113
 20
219.3488927649913
 30
0.0
 11
524.8343969999998
 21
219.3604127649913
 31
0.0
  0
LINE
  5
616C
330
5FD6
100
AcDbEntity
  8
1
  6
Continuous
100
AcDbLine
 10
525.0464369999998
 20
220.8593807649913
 30
0.0
 11
525.212721
 21
220.8709727649913
 31
0.0
  0
LINE
  5
616D
330
5FD6
100
AcDbEntity
  8
1
  6
Continuous
100
AcDbLine
 10
524.8851929999998
 20
220.8249287649912
 30
0.0
 11
525.0464369999998
 21
220.8593807649913
 31
0.0
  0
LINE
  5
616E
330
5FD6
100
AcDbEntity
  8
1
  6
Continuous
100
AcDbLine
 10
524.7339209999998
 20
220.7687327649913
 30
0.0
 11
524.8851929999998
 21
220.8249287649912
 31
0.0
  0
LINE
  5
616F
330
5FD6
100
AcDbEntity
  8
1
  6
Continuous
100
AcDbLine
 10
524.597157
 20
220.6924127649913
 30
0.0
 11
524.7339209999998
 21
220.7687327649913
 31
0.0
  0
LINE
  5
6170
330
5FD6
100
AcDbEntity
  8
1
  6
Continuous
100
AcDbLine
 10
524.4791489999999
 20
220.5983447649912
 30
0.0
 11
524.597157
 21
220.6924127649913
 31
0.0
  0
LINE
  5
6171
330
5FD6
100
AcDbEntity
  8
1
  6
Continuous
100
AcDbLine
 10
524.3834249999999
 20
220.4893727649912
 30
0.0
 11
524.4791489999999
 21
220.5983447649912
 31
0.0
  0
LINE
  5
6172
330
5FD6
100
AcDbEntity
  8
1
  6
Continuous
100
AcDbLine
 10
524.312865
 20
220.3688087649913
 30
0.0
 11
524.3834249999999
 21
220.4893727649912
 31
0.0
  0
LINE
  5
6173
330
5FD6
100
AcDbEntity
  8
1
  6
Continuous
100
AcDbLine
 10
524.269665
 20
220.2402887649913
 30
0.0
 11
524.312865
 21
220.3688087649913
 31
0.0
  0
LINE
  5
6174
330
5FD6
100
AcDbEntity
  8
1
  6
Continuous
100
AcDbLine
 10
524.255121
 20
220.1077727649912
 30
0.0
 11
524.269665
 21
220.2402887649913
 31
0.0
  0
LINE
  5
6175
330
5FD6
100
AcDbEntity
  8
1
  6
Continuous
100
AcDbLine
 10
525.380013
 20
220.8593807649913
 30
0.0
 11
525.2137289999998
 21
220.8709727649913
 31
0.0
  0
LINE
  5
6176
330
5FD6
100
AcDbEntity
  8
1
  6
Continuous
100
AcDbLine
 10
525.5412569999998
 20
220.8249287649912
 30
0.0
 11
525.380013
 21
220.8593807649913
 31
0.0
  0
LINE
  5
6177
330
5FD6
100
AcDbEntity
  8
1
  6
Continuous
100
AcDbLine
 10
525.692529
 20
220.7687327649913
 30
0.0
 11
525.5412569999998
 21
220.8249287649912
 31
0.0
  0
LINE
  5
6178
330
5FD6
100
AcDbEntity
  8
1
  6
Continuous
100
AcDbLine
 10
525.829293
 20
220.6924127649913
 30
0.0
 11
525.692529
 21
220.7687327649913
 31
0.0
  0
LINE
  5
6179
330
5FD6
100
AcDbEntity
  8
1
  6
Continuous
100
AcDbLine
 10
525.9473009999998
 20
220.5983447649912
 30
0.0
 11
525.829293
 21
220.6924127649913
 31
0.0
  0
LINE
  5
617A
330
5FD6
100
AcDbEntity
  8
1
  6
Continuous
100
AcDbLine
 10
526.0430249999997
 20
220.4893727649912
 30
0.0
 11
525.9473009999998
 21
220.5983447649912
 31
0.0
  0
LINE
  5
617B
330
5FD6
100
AcDbEntity
  8
1
  6
Continuous
100
AcDbLine
 10
526.1135849999998
 20
220.3688087649913
 30
0.0
 11
526.0430249999997
 21
220.4893727649912
 31
0.0
  0
LINE
  5
617C
330
5FD6
100
AcDbEntity
  8
1
  6
Continuous
100
AcDbLine
 10
526.156785
 20
220.2402887649913
 30
0.0
 11
526.1135849999998
 21
220.3688087649913
 31
0.0
  0
LINE
  5
617D
330
5FD6
100
AcDbEntity
  8
1
  6
Continuous
100
AcDbLine
 10
526.171329
 20
220.1077727649912
 30
0.0
 11
526.156785
 21
220.2402887649913
 31
0.0
  0
LINE
  5
617E
330
5FD6
100
AcDbEntity
  8
1
  6
Continuous
100
AcDbLine
 10
526.1640929999998
 20
219.9999527649914
 30
0.0
 11
526.171329
 21
220.1149727649913
 31
0.0
  0
LINE
  5
617F
330
5FD6
100
AcDbEntity
  8
1
  6
Continuous
100
AcDbLine
 10
526.1426730000001
 20
219.8884247649913
 30
0.0
 11
526.1640929999998
 21
219.9999527649914
 31
0.0
  0
LINE
  5
6180
330
5FD6
100
AcDbEntity
  8
1
  6
Continuous
100
AcDbLine
 10
526.107645
 20
219.7837727649913
 30
0.0
 11
526.1426730000001
 21
219.8884247649913
 31
0.0
  0
LINE
  5
6181
330
5FD6
100
AcDbEntity
  8
1
  6
Continuous
100
AcDbLine
 10
526.060161
 20
219.6892007649913
 30
0.0
 11
526.107645
 21
219.7837727649913
 31
0.0
  0
LINE
  5
6182
330
5FD6
100
AcDbEntity
  8
1
  6
Continuous
100
AcDbLine
 10
526.001589
 20
219.6075527649913
 30
0.0
 11
526.060161
 21
219.6892007649913
 31
0.0
  0
LINE
  5
6183
330
5FD6
100
AcDbEntity
  8
1
  6
Continuous
100
AcDbLine
 10
525.9337289999998
 20
219.5413127649913
 30
0.0
 11
526.001589
 21
219.6075527649913
 31
0.0
  0
LINE
  5
6184
330
5FD6
100
AcDbEntity
  8
1
  6
Continuous
100
AcDbLine
 10
525.8586689999998
 20
219.4925327649912
 30
0.0
 11
525.9337289999998
 21
219.5413127649913
 31
0.0
  0
LINE
  5
6185
330
5FD6
100
AcDbEntity
  8
1
  6
Continuous
100
AcDbLine
 10
525.778641
 20
219.4626527649913
 30
0.0
 11
525.8586689999998
 21
219.4925327649912
 31
0.0
  0
LINE
  5
6186
330
5FD6
100
AcDbEntity
  8
1
  6
Continuous
100
AcDbLine
 10
525.696129
 20
219.4525727649912
 30
0.0
 11
525.778641
 21
219.4626527649913
 31
0.0
  0
LINE
  5
6187
330
5FD6
100
AcDbEntity
  8
1
  6
Continuous
100
AcDbLine
 10
525.070629
 20
226.3436107649913
 30
0.0
 11
525.2369129999998
 21
226.3552027649913
 31
0.0
  0
LINE
  5
6188
330
5FD6
100
AcDbEntity
  8
1
  6
Continuous
100
AcDbLine
 10
524.9093849999998
 20
226.3091587649912
 30
0.0
 11
525.070629
 21
226.3436107649913
 31
0.0
  0
LINE
  5
6189
330
5FD6
100
AcDbEntity
  8
1
  6
Continuous
100
AcDbLine
 10
524.7581129999998
 20
226.2529627649913
 30
0.0
 11
524.9093849999998
 21
226.3091587649912
 31
0.0
  0
LINE
  5
618A
330
5FD6
100
AcDbEntity
  8
1
  6
Continuous
100
AcDbLine
 10
524.621349
 20
226.1766427649912
 30
0.0
 11
524.7581129999998
 21
226.2529627649913
 31
0.0
  0
LINE
  5
618B
330
5FD6
100
AcDbEntity
  8
1
  6
Continuous
100
AcDbLine
 10
524.5033409999998
 20
226.0825747649913
 30
0.0
 11
524.621349
 21
226.1766427649912
 31
0.0
  0
LINE
  5
618C
330
5FD6
100
AcDbEntity
  8
1
  6
Continuous
100
AcDbLine
 10
524.4076169999998
 20
225.9736027649913
 30
0.0
 11
524.5033409999998
 21
226.0825747649913
 31
0.0
  0
LINE
  5
618D
330
5FD6
100
AcDbEntity
  8
1
  6
Continuous
100
AcDbLine
 10
524.3370569999998
 20
225.8530387649912
 30
0.0
 11
524.4076169999998
 21
225.9736027649913
 31
0.0
  0
LINE
  5
618E
330
5FD6
100
AcDbEntity
  8
1
  6
Continuous
100
AcDbLine
 10
524.2938569999998
 20
225.7245187649913
 30
0.0
 11
524.3370569999998
 21
225.8530387649912
 31
0.0
  0
LINE
  5
618F
330
5FD6
100
AcDbEntity
  8
1
  6
Continuous
100
AcDbLine
 10
524.2793129999999
 20
225.5920027649913
 30
0.0
 11
524.2938569999998
 21
225.7245187649913
 31
0.0
  0
LINE
  5
6190
330
5FD6
100
AcDbEntity
  8
1
  6
Continuous
100
AcDbLine
 10
524.286549
 20
225.4769827649912
 30
0.0
 11
524.2793129999999
 21
225.5920027649913
 31
0.0
  0
LINE
  5
6191
330
5FD6
100
AcDbEntity
  8
1
  6
Continuous
100
AcDbLine
 10
524.307969
 20
225.3654547649913
 30
0.0
 11
524.286549
 21
225.4769827649912
 31
0.0
  0
LINE
  5
6192
330
5FD6
100
AcDbEntity
  8
1
  6
Continuous
100
AcDbLine
 10
524.342997
 20
225.2608027649913
 30
0.0
 11
524.307969
 21
225.3654547649913
 31
0.0
  0
LINE
  5
6193
330
5FD6
100
AcDbEntity
  8
1
  6
Continuous
100
AcDbLine
 10
524.3904809999998
 20
225.1662307649914
 30
0.0
 11
524.342997
 21
225.2608027649913
 31
0.0
  0
LINE
  5
6194
330
5FD6
100
AcDbEntity
  8
1
  6
Continuous
100
AcDbLine
 10
524.449053
 20
225.0845827649913
 30
0.0
 11
524.3904809999998
 21
225.1662307649914
 31
0.0
  0
LINE
  5
6195
330
5FD6
100
AcDbEntity
  8
1
  6
Continuous
100
AcDbLine
 10
524.516913
 20
225.0183427649912
 30
0.0
 11
524.449053
 21
225.0845827649913
 31
0.0
  0
LINE
  5
6196
330
5FD6
100
AcDbEntity
  8
1
  6
Continuous
100
AcDbLine
 10
524.591973
 20
224.9695627649913
 30
0.0
 11
524.516913
 21
225.0183427649912
 31
0.0
  0
LINE
  5
6197
330
5FD6
100
AcDbEntity
  8
1
  6
Continuous
100
AcDbLine
 10
524.672001
 20
224.9396827649912
 30
0.0
 11
524.591973
 21
224.9695627649913
 31
0.0
  0
LINE
  5
6198
330
5FD6
100
AcDbEntity
  8
1
  6
Continuous
100
AcDbLine
 10
524.7545129999998
 20
224.9296027649914
 30
0.0
 11
524.672001
 21
224.9396827649912
 31
0.0
  0
LINE
  5
6199
330
5FD6
100
AcDbEntity
  8
1
  6
Continuous
100
AcDbLine
 10
525.4042049999998
 20
226.3436107649913
 30
0.0
 11
525.2379209999998
 21
226.3552027649913
 31
0.0
  0
LINE
  5
619A
330
5FD6
100
AcDbEntity
  8
1
  6
Continuous
100
AcDbLine
 10
525.5654489999998
 20
226.3091587649912
 30
0.0
 11
525.4042049999998
 21
226.3436107649913
 31
0.0
  0
LINE
  5
619B
330
5FD6
100
AcDbEntity
  8
1
  6
Continuous
100
AcDbLine
 10
525.716721
 20
226.2529627649913
 30
0.0
 11
525.5654489999998
 21
226.3091587649912
 31
0.0
  0
LINE
  5
619C
330
5FD6
100
AcDbEntity
  8
1
  6
Continuous
100
AcDbLine
 10
525.853485
 20
226.1766427649912
 30
0.0
 11
525.716721
 21
226.2529627649913
 31
0.0
  0
LINE
  5
619D
330
5FD6
100
AcDbEntity
  8
1
  6
Continuous
100
AcDbLine
 10
525.971493
 20
226.0825747649913
 30
0.0
 11
525.853485
 21
226.1766427649912
 31
0.0
  0
LINE
  5
619E
330
5FD6
100
AcDbEntity
  8
1
  6
Continuous
100
AcDbLine
 10
526.067217
 20
225.9736027649913
 30
0.0
 11
525.971493
 21
226.0825747649913
 31
0.0
  0
LINE
  5
619F
330
5FD6
100
AcDbEntity
  8
1
  6
Continuous
100
AcDbLine
 10
526.1377769999998
 20
225.8530387649912
 30
0.0
 11
526.067217
 21
225.9736027649913
 31
0.0
  0
LINE
  5
61A0
330
5FD6
100
AcDbEntity
  8
1
  6
Continuous
100
AcDbLine
 10
526.180977
 20
225.7245187649913
 30
0.0
 11
526.1377769999998
 21
225.8530387649912
 31
0.0
  0
LINE
  5
61A1
330
5FD6
100
AcDbEntity
  8
1
  6
Continuous
100
AcDbLine
 10
526.1955209999999
 20
225.5920027649913
 30
0.0
 11
526.180977
 21
225.7245187649913
 31
0.0
  0
LINE
  5
61A2
330
5FD6
100
AcDbEntity
  8
1
  6
Continuous
100
AcDbLine
 10
526.1882849999998
 20
225.4841827649913
 30
0.0
 11
526.1955209999999
 21
225.5992027649913
 31
0.0
  0
LINE
  5
61A3
330
5FD6
100
AcDbEntity
  8
1
  6
Continuous
100
AcDbLine
 10
526.166865
 20
225.3726547649913
 30
0.0
 11
526.1882849999998
 21
225.4841827649913
 31
0.0
  0
LINE
  5
61A4
330
5FD6
100
AcDbEntity
  8
1
  6
Continuous
100
AcDbLine
 10
526.131837
 20
225.2680027649913
 30
0.0
 11
526.166865
 21
225.3726547649913
 31
0.0
  0
LINE
  5
61A5
330
5FD6
100
AcDbEntity
  8
1
  6
Continuous
100
AcDbLine
 10
526.0843529999998
 20
225.1734307649913
 30
0.0
 11
526.131837
 21
225.2680027649913
 31
0.0
  0
LINE
  5
61A6
330
5FD6
100
AcDbEntity
  8
1
  6
Continuous
100
AcDbLine
 10
526.0257809999999
 20
225.0917827649913
 30
0.0
 11
526.0843529999998
 21
225.1734307649913
 31
0.0
  0
LINE
  5
61A7
330
5FD6
100
AcDbEntity
  8
1
  6
Continuous
100
AcDbLine
 10
525.9579209999999
 20
225.0255427649913
 30
0.0
 11
526.0257809999999
 21
225.0917827649913
 31
0.0
  0
LINE
  5
61A8
330
5FD6
100
AcDbEntity
  8
1
  6
Continuous
100
AcDbLine
 10
525.8828610000001
 20
224.9767627649913
 30
0.0
 11
525.9579209999999
 21
225.0255427649913
 31
0.0
  0
LINE
  5
61A9
330
5FD6
100
AcDbEntity
  8
1
  6
Continuous
100
AcDbLine
 10
525.802833
 20
224.9468827649912
 30
0.0
 11
525.8828610000001
 21
224.9767627649913
 31
0.0
  0
LINE
  5
61AA
330
5FD6
100
AcDbEntity
  8
1
  6
Continuous
100
AcDbLine
 10
525.720321
 20
224.9368027649913
 30
0.0
 11
525.802833
 21
224.9468827649912
 31
0.0
  0
LINE
  5
61AB
330
5FD6
100
AcDbEntity
  8
1
  6
Continuous
100
AcDbLine
 10
524.586897
 20
227.1949147649913
 30
0.0
 11
524.4736769999998
 21
227.2966867649912
 31
0.0
  0
LINE
  5
61AC
330
5FD6
100
AcDbEntity
  8
1
  6
Continuous
100
AcDbLine
 10
524.7182969999999
 20
227.1112147649913
 30
0.0
 11
524.586897
 21
227.1949147649913
 31
0.0
  0
LINE
  5
61AD
330
5FD6
100
AcDbEntity
  8
1
  6
Continuous
100
AcDbLine
 10
524.864025
 20
227.0479987649912
 30
0.0
 11
524.7182969999999
 21
227.1112147649913
 31
0.0
  0
LINE
  5
61AE
330
5FD6
100
AcDbEntity
  8
1
  6
Continuous
100
AcDbLine
 10
525.0199769999998
 20
227.0070667649913
 30
0.0
 11
524.864025
 21
227.0479987649912
 31
0.0
  0
LINE
  5
61AF
330
5FD6
100
AcDbEntity
  8
1
  6
Continuous
100
AcDbLine
 10
525.181653
 20
226.9896067649913
 30
0.0
 11
525.0199769999998
 21
227.0070667649913
 31
0.0
  0
LINE
  5
61B0
330
5FD6
100
AcDbEntity
  8
1
  6
Continuous
100
AcDbLine
 10
525.3443729999998
 20
226.9961227649913
 30
0.0
 11
525.181653
 21
226.9896067649913
 31
0.0
  0
LINE
  5
61B1
330
5FD6
100
AcDbEntity
  8
1
  6
Continuous
100
AcDbLine
 10
525.5034929999998
 20
227.0264347649912
 30
0.0
 11
525.3443729999998
 21
226.9961227649913
 31
0.0
  0
LINE
  5
61B2
330
5FD6
100
AcDbEntity
  8
1
  6
Continuous
100
AcDbLine
 10
525.6544769999997
 20
227.0796787649913
 30
0.0
 11
525.5034929999998
 21
227.0264347649912
 31
0.0
  0
LINE
  5
61B3
330
5FD6
100
AcDbEntity
  8
1
  6
Continuous
100
AcDbLine
 10
525.7928969999998
 20
227.1542707649913
 30
0.0
 11
525.6544769999997
 21
227.0796787649913
 31
0.0
  0
LINE
  5
61B4
330
5FD6
100
AcDbEntity
  8
1
  6
Continuous
100
AcDbLine
 10
525.9148650000001
 20
227.2481227649912
 30
0.0
 11
525.7928969999998
 21
227.1542707649913
 31
0.0
  0
LINE
  5
61B5
330
5FD6
100
AcDbEntity
  8
1
  6
Continuous
100
AcDbLine
 10
526.1657129999998
 20
221.7051847649912
 30
0.0
 11
524.164113
 21
221.7051847649912
 31
0.0
  0
LINE
  5
61B6
330
5FD6
100
AcDbEntity
  8
1
  6
Continuous
100
AcDbLine
 10
526.1657129999998
 20
218.3516617649912
 30
0.0
 11
524.164113
 21
218.3516617649912
 31
0.0
  0
LINE
  5
61B7
330
5FD6
100
AcDbEntity
  8
1
  6
Continuous
100
AcDbLine
 10
524.768913
 20
215.8497437649913
 30
0.0
 11
524.768913
 21
214.7661437649913
 31
0.0
  0
LINE
  5
61B8
330
5FD6
100
AcDbEntity
  8
1
  6
Continuous
100
AcDbLine
 10
526.2053129999998
 20
215.2989437649913
 30
0.0
 11
524.1713129999999
 21
214.5465437649913
 31
0.0
  0
LINE
  5
61B9
330
5FD6
100
AcDbEntity
  8
1
  6
Continuous
100
AcDbLine
 10
526.201713
 20
215.2989437649913
 30
0.0
 11
524.1713129999999
 21
216.0873437649915
 31
0.0
  0
LINE
  5
61BA
330
5FD6
100
AcDbEntity
  8
1
  6
Continuous
100
AcDbLine
 10
526.1657129999998
 20
222.7081437649913
 30
0.0
 11
524.164113
 21
222.7081437649913
 31
0.0
  0
LINE
  5
61BB
330
5FD6
100
AcDbEntity
  8
1
  6
Continuous
100
AcDbLine
 10
526.1657129999998
 20
223.9969437649913
 30
0.0
 11
524.164113
 21
223.9969437649913
 31
0.0
  0
LINE
  5
61BC
330
5FD6
100
AcDbEntity
  8
1
  6
Continuous
100
AcDbLine
 10
525.208113
 20
223.9969437649913
 30
0.0
 11
525.208113
 21
222.7081437649913
 31
0.0
  0
LINE
  5
61BD
330
5FD6
100
AcDbEntity
  8
1
  6
Continuous
100
AcDbLine
 10
525.1037129999998
 20
217.0336417649913
 30
0.0
 11
526.1657129999998
 21
217.6448897649913
 31
0.0
  0
LINE
  5
61BE
330
5FD6
100
AcDbEntity
  8
1
  6
Continuous
100
AcDbLine
 10
525.1001129999998
 20
217.0336417649913
 30
0.0
 11
526.1657129999998
 21
216.4184107649913
 31
0.0
  0
LINE
  5
61BF
330
5FD6
100
AcDbEntity
  8
1
  6
Continuous
100
AcDbLine
 10
525.1073129999999
 20
219.3416927649912
 30
0.0
 11
524.1785129999998
 21
219.3416927649912
 31
0.0
  0
LINE
  5
61C0
330
5FD6
100
AcDbEntity
  8
1
  6
Continuous
100
AcDbLine
 10
525.1001129999998
 20
217.0336417649913
 30
0.0
 11
524.164113
 21
217.0336417649913
 31
0.0
  0
LINE
  5
61C1
330
5FD6
100
AcDbEntity
  8
1
  6
Continuous
100
AcDbLine
 10
525.1073129999999
 20
220.0400927649913
 30
0.0
 11
525.1073129999999
 21
219.3416927649912
 31
0.0
  0
LINE
  5
61C2
330
5FD6
100
AcDbEntity
  8
1
  6
Continuous
100
AcDbLine
 10
522.8323799999998
 20
230.2583177649913
 30
0.0
 11
520.84518
 21
230.2583177649913
 31
0.0
  0
LINE
  5
61C3
330
5FD6
100
AcDbEntity
  8
1
  6
Continuous
100
AcDbLine
 10
522.8323799999998
 20
231.0683177649912
 30
0.0
 11
522.8323799999998
 21
229.4483177649912
 31
0.0
  0
LINE
  5
61C4
330
5FD6
100
AcDbEntity
  8
1
  6
Continuous
100
AcDbLine
 10
522.8323799999998
 20
228.6289847649912
 30
0.0
 11
520.84518
 21
228.6289847649912
 31
0.0
  0
LINE
  5
61C5
330
5FD6
100
AcDbEntity
  8
1
  6
Continuous
100
AcDbLine
 10
522.8323799999998
 20
227.3401847649913
 30
0.0
 11
520.84518
 21
227.3401847649913
 31
0.0
  0
LINE
  5
61C6
330
5FD6
100
AcDbEntity
  8
1
  6
Continuous
100
AcDbLine
 10
521.78838
 20
228.6289847649912
 30
0.0
 11
521.78838
 21
227.3401847649913
 31
0.0
  0
LINE
  5
61C7
330
5FD6
100
AcDbEntity
  8
1
  6
Continuous
100
AcDbLine
 10
524.2723289999998
 20
227.6791507649913
 30
0.0
 11
524.2577129999999
 21
227.8241947649913
 31
0.0
  0
LINE
  5
61C8
330
5FD6
100
AcDbEntity
  8
1
  6
Continuous
100
AcDbLine
 10
524.3140889999998
 20
227.5423507649914
 30
0.0
 11
524.2723289999998
 21
227.6791507649913
 31
0.0
  0
LINE
  5
61C9
330
5FD6
100
AcDbEntity
  8
1
  6
Continuous
100
AcDbLine
 10
524.3818769999998
 20
227.4136147649914
 30
0.0
 11
524.3140889999998
 21
227.5423507649914
 31
0.0
  0
LINE
  5
61CA
330
5FD6
100
AcDbEntity
  8
1
  6
Continuous
100
AcDbLine
 10
526.0958730000001
 20
227.4822667649913
 30
0.0
 11
526.0168169999998
 21
227.3584987649913
 31
0.0
  0
LINE
  5
61CB
330
5FD6
100
AcDbEntity
  8
1
  6
Continuous
100
AcDbLine
 10
526.149729
 20
227.6158627649913
 30
0.0
 11
526.0958730000001
 21
227.4822667649913
 31
0.0
  0
LINE
  5
61CC
330
5FD6
100
AcDbEntity
  8
1
  6
Continuous
100
AcDbLine
 10
526.1768369999998
 20
227.7554347649914
 30
0.0
 11
526.149729
 21
227.6158627649913
 31
0.0
  0
LINE
  5
61CD
330
5FD6
100
AcDbEntity
  8
1
  6
Continuous
100
AcDbLine
 10
526.1764409999998
 20
227.8969867649913
 30
0.0
 11
526.1768369999998
 21
227.7554347649914
 31
0.0
  0
LINE
  5
61CE
330
5FD6
100
AcDbEntity
  8
1
  6
Continuous
100
AcDbLine
 10
526.148541
 20
228.0364507649913
 30
0.0
 11
526.1764409999998
 21
227.8969867649913
 31
0.0
  0
LINE
  5
61CF
330
5FD6
100
AcDbEntity
  8
1
  6
Continuous
100
AcDbLine
 10
526.093965
 20
228.1697947649912
 30
0.0
 11
526.148541
 21
228.0364507649913
 31
0.0
  0
LINE
  5
61D0
330
5FD6
100
AcDbEntity
  8
1
  6
Continuous
100
AcDbLine
 10
526.014225
 20
228.2932387649913
 30
0.0
 11
526.093965
 21
228.1697947649912
 31
0.0
  0
LINE
  5
61D1
330
5FD6
100
AcDbEntity
  8
1
  6
Continuous
100
AcDbLine
 10
525.9116249999998
 20
228.4032187649913
 30
0.0
 11
526.014225
 21
228.2932387649913
 31
0.0
  0
LINE
  5
61D2
330
5FD6
100
AcDbEntity
  8
1
  6
Continuous
100
AcDbLine
 10
525.7891530000001
 20
228.4965307649912
 30
0.0
 11
525.9116249999998
 21
228.4032187649913
 31
0.0
  0
LINE
  5
61D3
330
5FD6
100
AcDbEntity
  8
1
  6
Continuous
100
AcDbLine
 10
525.650301
 20
228.5705467649912
 30
0.0
 11
525.7891530000001
 21
228.4965307649912
 31
0.0
  0
LINE
  5
61D4
330
5FD6
100
AcDbEntity
  8
1
  6
Continuous
100
AcDbLine
 10
525.4990649999998
 20
228.6231427649913
 30
0.0
 11
525.650301
 21
228.5705467649912
 31
0.0
  0
LINE
  5
61D5
330
5FD6
100
AcDbEntity
  8
1
  6
Continuous
100
AcDbLine
 10
525.3397650000001
 20
228.6527707649913
 30
0.0
 11
525.4990649999998
 21
228.6231427649913
 31
0.0
  0
LINE
  5
61D6
330
5FD6
100
AcDbEntity
  8
1
  6
Continuous
100
AcDbLine
 10
525.1770089999999
 20
228.6586027649913
 30
0.0
 11
525.3397650000001
 21
228.6527707649913
 31
0.0
  0
LINE
  5
61D7
330
5FD6
100
AcDbEntity
  8
1
  6
Continuous
100
AcDbLine
 10
525.015441
 20
228.6404587649913
 30
0.0
 11
525.1770089999999
 21
228.6586027649913
 31
0.0
  0
LINE
  5
61D8
330
5FD6
100
AcDbEntity
  8
1
  6
Continuous
100
AcDbLine
 10
524.8597049999998
 20
228.5988787649913
 30
0.0
 11
525.015441
 21
228.6404587649913
 31
0.0
  0
LINE
  5
61D9
330
5FD6
100
AcDbEntity
  8
1
  6
Continuous
100
AcDbLine
 10
524.714301
 20
228.5350507649913
 30
0.0
 11
524.8597049999998
 21
228.5988787649913
 31
0.0
  0
LINE
  5
61DA
330
5FD6
100
AcDbEntity
  8
1
  6
Continuous
100
AcDbLine
 10
524.583405
 20
228.4508107649914
 30
0.0
 11
524.714301
 21
228.5350507649913
 31
0.0
  0
LINE
  5
61DB
330
5FD6
100
AcDbEntity
  8
1
  6
Continuous
100
AcDbLine
 10
524.470761
 20
228.3485347649912
 30
0.0
 11
524.583405
 21
228.4508107649914
 31
0.0
  0
LINE
  5
61DC
330
5FD6
100
AcDbEntity
  8
1
  6
Continuous
100
AcDbLine
 10
524.379609
 20
228.2312467649912
 30
0.0
 11
524.470761
 21
228.3485347649912
 31
0.0
  0
LINE
  5
61DD
330
5FD6
100
AcDbEntity
  8
1
  6
Continuous
100
AcDbLine
 10
524.312541
 20
228.1022227649912
 30
0.0
 11
524.379609
 21
228.2312467649912
 31
0.0
  0
LINE
  5
61DE
330
5FD6
100
AcDbEntity
  8
1
  6
Continuous
100
AcDbLine
 10
524.2715369999998
 20
227.9652427649913
 30
0.0
 11
524.312541
 21
228.1022227649912
 31
0.0
  0
LINE
  5
61DF
330
5FD6
100
AcDbEntity
  8
1
  6
Continuous
100
AcDbLine
 10
524.2577129999999
 20
227.8241947649913
 30
0.0
 11
524.2715369999998
 21
227.9652427649913
 31
0.0
  0
LINE
  5
61E0
330
5FD6
100
AcDbEntity
  8
1
  6
Continuous
100
AcDbLine
 10
526.1657129999998
 20
230.1629657649913
 30
0.0
 11
524.1785129999998
 21
230.1629657649913
 31
0.0
  0
LINE
  5
61E1
330
5FD6
100
AcDbEntity
  8
1
  6
Continuous
100
AcDbLine
 10
526.1657129999998
 20
230.9693657649913
 30
0.0
 11
526.1657129999998
 21
229.3493657649913
 31
0.0
  0
LINE
  5
61E2
330
5FD6
100
AcDbEntity
  8
1
  6
Continuous
100
AcDbLine
 10
526.2085899999998
 20
211.0869237649914
 30
0.0
 11
526.2085899999998
 21
209.0869237649914
 31
0.0
  0
CIRCLE
  5
61E3
330
5FD6
100
AcDbEntity
  8
1
  6
Continuous
100
AcDbCircle
 10
525.481654
 20
209.1269237649913
 30
0.0
 40
0.04
  0
LINE
  5
61E4
330
5FD6
100
AcDbEntity
  8
1
  6
Continuous
100
AcDbLine
 10
524.0151559999998
 20
211.0869237649914
 30
0.0
 11
524.0151559999998
 21
209.0869237649914
 31
0.0
  0
LINE
  5
61E5
330
5FD6
100
AcDbEntity
  8
1
  6
Continuous
100
AcDbLine
 10
522.4083189999999
 20
211.0851637649913
 30
0.0
 11
521.6330189999998
 21
209.0886737649912
 31
0.0
  0
LINE
  5
61E6
330
5FD6
100
AcDbEntity
  8
1
  6
Continuous
100
AcDbLine
 10
522.4083189999999
 20
211.0886787649913
 30
0.0
 11
523.148169
 21
209.0886737649912
 31
0.0
  0
LINE
  5
61E7
330
5FD6
100
AcDbEntity
  8
1
  6
Continuous
100
AcDbLine
 10
521.872819
 20
209.6921237649912
 30
0.0
 11
522.926319
 21
209.6921237649912
 31
0.0
  0
LINE
  5
61E8
330
5FD6
100
AcDbEntity
  8
1
  6
Continuous
100
AcDbLine
 10
520.360225
 20
211.0869237649914
 30
0.0
 11
520.360225
 21
209.0869237649914
 31
0.0
  0
LINE
  5
61E9
330
5FD6
100
AcDbEntity
  8
1
  6
Continuous
100
AcDbLine
 10
520.360225
 20
211.0869237649914
 30
0.0
 11
520.970025
 21
211.0869237649914
 31
0.0
  0
LINE
  5
61EA
330
5FD6
100
AcDbEntity
  8
1
  6
Continuous
100
AcDbLine
 10
523.2311509999998
 20
211.0869237649914
 30
0.0
 11
524.8061259999998
 21
211.0869237649914
 31
0.0
  0
LINE
  5
61EB
330
5FD6
100
AcDbEntity
  8
1
  6
Continuous
100
AcDbLine
 10
520.360225
 20
210.0869237649913
 30
0.0
 11
520.970025
 21
210.0869237649913
 31
0.0
  0
ARC
  5
61EC
330
5FD6
100
AcDbEntity
  8
1
  6
Continuous
100
AcDbCircle
 10
520.970025
 20
210.5869237649913
 30
0.0
 40
0.5
100
AcDbArc
 50
270.0
 51
90.0
  0
ARC
  5
61ED
330
5FD6
100
AcDbEntity
  8
1
  6
Continuous
100
AcDbCircle
 10
526.81839
 20
210.5869237649913
 30
0.0
 40
0.5
100
AcDbArc
 50
270.0
 51
90.0
  0
LINE
  5
61EE
330
5FD6
100
AcDbEntity
  8
1
  6
Continuous
100
AcDbLine
 10
526.2085899999998
 20
210.0869237649913
 30
0.0
 11
526.81839
 21
210.0869237649913
 31
0.0
  0
LINE
  5
61EF
330
5FD6
100
AcDbEntity
  8
1
  6
Continuous
100
AcDbLine
 10
526.2085899999998
 20
211.0869237649914
 30
0.0
 11
526.81839
 21
211.0869237649914
 31
0.0
  0
ARC
  5
61F0
330
5FD6
100
AcDbEntity
  8
1
  6
Continuous
100
AcDbCircle
 10
524.017275
 20
236.6081277649913
 30
0.0
 40
0.222261
100
AcDbArc
 50
90.0
 51
164.7419999999999
  0
ARC
  5
61F1
330
5FD6
100
AcDbEntity
  8
1
  6
Continuous
100
AcDbCircle
 10
526.326048
 20
236.6081277649913
 30
0.0
 40
0.222261
100
AcDbArc
 50
15.2575
 51
90.0
  0
ARC
  5
61F2
330
5FD6
100
AcDbEntity
  8
1
  6
Continuous
100
AcDbCircle
 10
528.9045849999999
 20
235.2755527649913
 30
0.0
 40
5.732929999999998
100
AcDbArc
 50
144.462
 51
215.5379999999999
  0
ARC
  5
61F3
330
5FD6
100
AcDbEntity
  8
1
  6
Continuous
100
AcDbCircle
 10
521.4387389999999
 20
235.2755527649913
 30
0.0
 40
5.732929999999998
100
AcDbArc
 50
324.4619999999998
 51
35.5377
  0
ARC
  5
61F4
330
5FD6
100
AcDbEntity
  8
1
  6
Continuous
100
AcDbCircle
 10
528.9045849999999
 20
235.2755527649913
 30
0.0
 40
5.288524999999999
100
AcDbArc
 50
153.986
 51
157.056
  0
ARC
  5
61F5
330
5FD6
100
AcDbEntity
  8
1
  6
Continuous
100
AcDbCircle
 10
524.075919
 20
237.3190747649912
 30
0.0
 40
0.044452
100
AcDbArc
 50
157.056
 51
270.0
  0
LINE
  5
61F6
330
5FD6
100
AcDbEntity
  8
1
  6
Continuous
100
AcDbLine
 10
526.326048
 20
236.8309747649912
 30
0.0
 11
524.017275
 21
236.8309747649912
 31
0.0
  0
ARC
  5
61F7
330
5FD6
100
AcDbEntity
  8
1
  6
Continuous
100
AcDbCircle
 10
524.3519980000002
 20
237.4968107649913
 30
0.0
 40
0.222261
100
AcDbArc
 50
90.0
 51
153.986
  0
ARC
  5
61F8
330
5FD6
100
AcDbEntity
  8
1
  6
Continuous
100
AcDbCircle
 10
526.268307
 20
237.3190747649912
 30
0.0
 40
0.044452
100
AcDbArc
 50
270.0
 51
22.94399999999999
  0
ARC
  5
61F9
330
5FD6
100
AcDbEntity
  8
1
  6
Continuous
100
AcDbCircle
 10
521.4387389999999
 20
235.2755527649913
 30
0.0
 40
5.288524999999999
100
AcDbArc
 50
22.94399999999999
 51
26.0144
  0
ARC
  5
61FA
330
5FD6
100
AcDbEntity
  8
1
  6
Continuous
100
AcDbCircle
 10
525.9913259999998
 20
237.4968107649913
 30
0.0
 40
0.222261
100
AcDbArc
 50
26.0144
 51
90.0
  0
LINE
  5
61FB
330
5FD6
100
AcDbEntity
  8
1
  6
Continuous
100
AcDbLine
 10
526.268307
 20
237.2748657649913
 30
0.0
 11
524.075919
 21
237.2748657649913
 31
0.0
  0
LINE
  5
61FC
330
5FD6
100
AcDbEntity
  8
1
  6
Continuous
100
AcDbLine
 10
524.3519980000002
 20
237.7196587649913
 30
0.0
 11
525.9913259999998
 21
237.7196587649913
 31
0.0
  0
ARC
  5
61FD
330
5FD6
100
AcDbEntity
  8
1
  6
Continuous
100
AcDbCircle
 10
525.1721129999999
 20
237.9416037649912
 30
0.0
 40
1.145318999999998
100
AcDbArc
 50
90.0
 51
144.462
  0
ARC
  5
61FE
330
5FD6
100
AcDbEntity
  8
1
  6
Continuous
100
AcDbCircle
 10
525.1721129999999
 20
237.9416037649912
 30
0.0
 40
1.145318999999998
100
AcDbArc
 50
35.5377
 51
76.5374
  0
LINE
  5
61FF
330
5FD6
100
AcDbEntity
  8
1
  6
Continuous
100
AcDbLine
 10
526.391008
 20
238.1635497649913
 30
0.0
 11
524.474699
 21
238.1635497649913
 31
0.0
  0
ARC
  5
6200
330
5FD6
100
AcDbEntity
  8
1
  6
Continuous
100
AcDbCircle
 10
525.394058
 20
233.0533927649913
 30
0.0
 40
0.222261
100
AcDbArc
 50
90.0
 51
270.0
  0
LINE
  5
6201
330
5FD6
100
AcDbEntity
  8
1
  6
Continuous
100
AcDbLine
 10
526.6328019999998
 20
233.7201307649913
 30
0.0
 11
523.850365
 21
233.7201307649913
 31
0.0
  0
LINE
  5
6202
330
5FD6
100
AcDbEntity
  8
1
  6
Continuous
100
AcDbLine
 10
523.917129
 20
234.1640217649914
 30
0.0
 11
525.1721129999999
 21
234.1640217649914
 31
0.0
  0
LINE
  5
6203
330
5FD6
100
AcDbEntity
  8
1
  6
Continuous
100
AcDbLine
 10
526.6346069999998
 20
234.6088147649914
 30
0.0
 11
523.7087169999998
 21
234.6088147649914
 31
0.0
  0
ARC
  5
6204
330
5FD6
100
AcDbEntity
  8
1
  6
Continuous
100
AcDbCircle
 10
528.9045849999999
 20
235.2755527649913
 30
0.0
 40
5.288524999999999
100
AcDbArc
 50
187.793
 51
190.1039999999999
  0
ARC
  5
6205
330
5FD6
100
AcDbEntity
  8
1
  6
Continuous
100
AcDbCircle
 10
523.7087169999998
 20
234.5637037649913
 30
0.0
 40
0.044452
100
AcDbArc
 50
90.0
 51
187.793
  0
ARC
  5
6206
330
5FD6
100
AcDbEntity
  8
1
  6
Continuous
100
AcDbCircle
 10
523.917129
 20
234.3859667649914
 30
0.0
 40
0.222261
100
AcDbArc
 50
190.1039999999999
 51
270.0
  0
ARC
  5
6207
330
5FD6
100
AcDbEntity
  8
1
  6
Continuous
100
AcDbCircle
 10
526.6346069999998
 20
234.5637037649913
 30
0.0
 40
0.044452
100
AcDbArc
 50
352.2069999999998
 51
90.0
  0
ARC
  5
6208
330
5FD6
100
AcDbEntity
  8
1
  6
Continuous
100
AcDbCircle
 10
521.4387389999999
 20
235.2755527649913
 30
0.0
 40
5.288524999999999
100
AcDbArc
 50
349.8959999999998
 51
352.2069999999998
  0
ARC
  5
6209
330
5FD6
100
AcDbEntity
  8
1
  6
Continuous
100
AcDbCircle
 10
526.4261949999998
 20
234.3859667649914
 30
0.0
 40
0.222261
100
AcDbArc
 50
270.0
 51
349.8959999999998
  0
LINE
  5
620A
330
5FD6
100
AcDbEntity
  8
1
  6
Continuous
100
AcDbLine
 10
526.423488
 20
233.2753377649913
 30
0.0
 11
525.394058
 21
233.2753377649913
 31
0.0
  0
LINE
  5
620B
330
5FD6
100
AcDbEntity
  8
1
  6
Continuous
100
AcDbLine
 10
525.1721129999999
 20
234.1640217649914
 30
0.0
 11
525.1721129999999
 21
234.3859667649914
 31
0.0
  0
LINE
  5
620C
330
5FD6
100
AcDbEntity
  8
1
  6
Continuous
100
AcDbLine
 10
525.705323
 20
234.1640217649914
 30
0.0
 11
526.4261949999998
 21
234.1640217649914
 31
0.0
  0
LINE
  5
620D
330
5FD6
100
AcDbEntity
  8
1
  6
Continuous
100
AcDbLine
 10
526.722122
 20
235.4974987649912
 30
0.0
 11
523.6212019999998
 21
235.4974987649912
 31
0.0
  0
LINE
  5
620E
330
5FD6
100
AcDbEntity
  8
1
  6
Continuous
100
AcDbLine
 10
526.6851309999998
 20
235.9413887649912
 30
0.0
 11
523.6581929999998
 21
235.9413887649912
 31
0.0
  0
LINE
  5
620F
330
5FD6
100
AcDbEntity
  8
1
  6
Continuous
100
AcDbLine
 10
523.7899159999998
 20
236.3861817649912
 30
0.0
 11
524.638903
 21
236.3861817649912
 31
0.0
  0
ARC
  5
6210
330
5FD6
100
AcDbEntity
  8
1
  6
Continuous
100
AcDbCircle
 10
523.7899159999998
 20
236.4303907649913
 30
0.0
 40
0.044452
100
AcDbArc
 50
167.2709999999999
 51
270.0
  0
ARC
  5
6211
330
5FD6
100
AcDbEntity
  8
1
  6
Continuous
100
AcDbCircle
 10
528.9045849999999
 20
235.2755527649913
 30
0.0
 40
5.288524999999999
100
AcDbArc
 50
164.794
 51
167.2709999999999
  0
ARC
  5
6212
330
5FD6
100
AcDbEntity
  8
1
  6
Continuous
100
AcDbCircle
 10
528.9045849999999
 20
235.2755527649913
 30
0.0
 40
5.288524999999999
100
AcDbArc
 50
164.7419999999999
 51
164.794
  0
ARC
  5
6213
330
5FD6
100
AcDbEntity
  8
1
  6
Continuous
100
AcDbCircle
 10
521.4387389999999
 20
235.2755527649913
 30
0.0
 40
5.288524999999999
100
AcDbArc
 50
13.2681
 51
15.2575
  0
ARC
  5
6214
330
5FD6
100
AcDbEntity
  8
1
  6
Continuous
100
AcDbCircle
 10
521.4387389999999
 20
235.2755527649913
 30
0.0
 40
5.288524999999999
100
AcDbArc
 50
12.7289
 51
13.2681
  0
ARC
  5
6215
330
5FD6
100
AcDbEntity
  8
1
  6
Continuous
100
AcDbCircle
 10
526.553407
 20
236.4303907649913
 30
0.0
 40
0.044452
100
AcDbArc
 50
270.0
 51
12.7289
  0
LINE
  5
6216
330
5FD6
100
AcDbEntity
  8
1
  6
Continuous
100
AcDbLine
 10
525.1721129999999
 20
235.4974987649912
 30
0.0
 11
525.1721129999999
 21
235.9413887649912
 31
0.0
  0
LINE
  5
6217
330
5FD6
100
AcDbEntity
  8
1
  6
Continuous
100
AcDbLine
 10
525.705323
 20
236.3861817649912
 30
0.0
 11
526.553407
 21
236.3861817649912
 31
0.0
  0
LINE
  5
6218
330
5FD6
100
AcDbEntity
  8
1
  6
Continuous
100
AcDbLine
 10
526.722122
 20
235.0527057649912
 30
0.0
 11
523.6212019999998
 21
235.0527057649912
 31
0.0
  0
ARC
  5
6219
330
5FD6
100
AcDbEntity
  8
1
  6
Continuous
100
AcDbCircle
 10
525.1721129999999
 20
232.6085997649913
 30
0.0
 40
1.145318999999998
100
AcDbArc
 50
215.5379999999999
 51
225.699
  0
ARC
  5
621A
330
5FD6
100
AcDbEntity
  8
1
  6
Continuous
100
AcDbCircle
 10
525.1721129999999
 20
232.6085997649913
 30
0.0
 40
1.145318999999998
100
AcDbArc
 50
242.2499999999998
 51
324.4619999999998
  0
LINE
  5
621B
330
5FD6
100
AcDbEntity
  8
1
  6
Continuous
100
AcDbLine
 10
525.1721129999999
 20
231.4636857649913
 30
0.0
 11
525.1721129999999
 21
232.3821427649913
 31
0.0
  0
LINE
  5
621C
330
5FD6
100
AcDbEntity
  8
1
  6
Continuous
100
AcDbLine
 10
524.340269
 20
232.6049907649913
 30
0.0
 11
526.2132709999998
 21
232.1024557649912
 31
0.0
  0
LINE
  5
621D
330
5FD6
100
AcDbEntity
  8
1
  6
Continuous
100
AcDbLine
 10
525.1721129999999
 20
233.0533927649913
 30
0.0
 11
524.105692
 21
233.0533927649913
 31
0.0
  0
LINE
  5
621E
330
5FD6
100
AcDbEntity
  8
1
  6
Continuous
100
AcDbLine
 10
525.394058
 20
232.8305447649912
 30
0.0
 11
526.343191
 21
232.8305447649912
 31
0.0
  0
ARC
  5
6268
330
5FD6
100
AcDbEntity
  8
1
  6
Continuous
100
AcDbCircle
 10
522.3582269999999
 20
217.6961687649913
 30
0.0
 40
0.333333
100
AcDbArc
 50
57.37477900000001
 51
153.4349489999998
  0
ARC
  5
6269
330
5FD6
100
AcDbEntity
  8
1
  6
Continuous
100
AcDbCircle
 10
521.511846
 20
217.4154297649913
 30
0.0
 40
0.666667
100
AcDbArc
 50
90.0
 51
237.3747789999999
  0
ARC
  5
626A
330
5FD6
100
AcDbEntity
  8
1
  6
Continuous
100
AcDbCircle
 10
521.332132
 20
217.1346917649914
 30
0.0
 40
0.333333
100
AcDbArc
 50
237.3747789999999
 51
333.434949
  0
LINE
  5
626B
330
5FD6
100
AcDbEntity
  8
1
  6
Continuous
100
AcDbLine
 10
522.0600839999998
 20
217.8452397649913
 30
0.0
 11
521.6302749999998
 21
216.9856207649913
 31
0.0
  0
ARC
  5
626C
330
5FD6
100
AcDbEntity
  8
1
  6
Continuous
100
AcDbCircle
 10
522.1785129999998
 20
217.4154297649913
 30
0.0
 40
0.666667
100
AcDbArc
 50
270.0
 51
57.37477900000001
  0
LINE
  5
626D
330
5FD6
100
AcDbEntity
  8
1
  6
Continuous
100
AcDbLine
 10
522.844246
 20
213.7773627649913
 30
0.0
 11
520.84518
 21
213.7773627649913
 31
0.0
  0
LINE
  5
626E
330
5FD6
100
AcDbEntity
  8
1
  6
Continuous
100
AcDbLine
 10
522.844246
 20
212.2773627649913
 30
0.0
 11
521.344946
 21
213.7773627649913
 31
0.0
  0
LINE
  5
626F
330
5FD6
100
AcDbEntity
  8
1
  6
Continuous
100
AcDbLine
 10
520.84518
 20
212.2773627649913
 30
0.0
 11
521.9875029999998
 21
213.1345047649913
 31
0.0
  0
LINE
  5
6270
330
5FD6
100
AcDbEntity
  8
1
  6
Continuous
100
AcDbLine
 10
447.1208349999998
 20
283.5869237649912
 30
0.0
 11
445.6208349999998
 21
282.0869237649913
 31
0.0
  0
LINE
  5
6271
330
5FD6
100
AcDbEntity
  8
1
  6
Continuous
100
AcDbLine
 10
447.1208349999998
 20
282.0829657649913
 30
0.0
 11
445.6208349999998
 21
280.5829657649912
 31
0.0
  0
CIRCLE
  5
6272
330
5FD6
100
AcDbEntity
  8
3
  6
DASHED
100
AcDbCircle
 10
131.4664339999999
 20
282.0869237649913
 30
0.0
 40
7.65
  0
LINE
  5
6273
330
5FD6
100
AcDbEntity
  8
1
  6
Continuous
100
AcDbLine
 10
410.3645839999998
 20
298.0869237649912
 30
0.0
 11
410.3645839999998
 21
266.0869237649913
 31
0.0
  0
LINE
  5
6274
330
5FD6
100
AcDbEntity
  8
1
  6
Continuous
100
AcDbLine
 10
408.8645839999998
 20
298.0869237649912
 30
0.0
 11
408.8645839999998
 21
266.0869237649913
 31
0.0
  0
LINE
  5
6275
330
5FD6
100
AcDbEntity
  8
1
  6
Continuous
100
AcDbLine
 10
417.3645839999998
 20
298.0869237649912
 30
0.0
 11
417.3645839999998
 21
266.0869237649913
 31
0.0
  0
LINE
  5
6276
330
5FD6
100
AcDbEntity
  8
1
  6
Continuous
100
AcDbLine
 10
418.8645839999998
 20
298.0869237649912
 30
0.0
 11
418.8645839999998
 21
266.0869237649913
 31
0.0
  0
ARC
  5
6277
330
5FD6
100
AcDbEntity
  8
1
  6
Continuous
100
AcDbCircle
 10
456.204584
 20
282.0869237649913
 30
0.0
 40
45.8402
100
AcDbArc
 50
167.267
 51
192.7329999999998
  0
ARC
  5
6278
330
5FD6
100
AcDbEntity
  8
1
  6
Continuous
100
AcDbCircle
 10
371.524584
 20
282.0869237649913
 30
0.0
 40
45.8402
100
AcDbArc
 50
347.2669999999998
 51
12.7331
  0
LINE
  5
6279
330
5FD6
100
AcDbEntity
  8
1
  6
Continuous
100
AcDbLine
 10
397.5923620000001
 20
299.5869237649912
 30
0.0
 11
397.5923620000001
 21
264.5869237649912
 31
0.0
  0
LINE
  5
627A
330
5FD6
100
AcDbEntity
  8
1
  6
Continuous
100
AcDbLine
 10
398.992362
 20
299.5869237649912
 30
0.0
 11
398.992362
 21
264.5869237649912
 31
0.0
  0
LINE
  5
627B
330
5FD6
100
AcDbEntity
  8
1
  6
Continuous
100
AcDbLine
 10
410.3645839999998
 20
266.0869237649913
 30
0.0
 11
411.491584
 21
261.8799237649912
 31
0.0
  0
LINE
  5
627C
330
5FD6
100
AcDbEntity
  8
1
  6
Continuous
100
AcDbLine
 10
417.3645839999998
 20
266.0869237649913
 30
0.0
 11
416.2365839999997
 21
261.8799237649912
 31
0.0
  0
LINE
  5
627D
330
5FD6
100
AcDbEntity
  8
1
  6
Continuous
100
AcDbLine
 10
411.491584
 20
261.8799237649912
 30
0.0
 11
416.2365839999997
 21
261.8799237649912
 31
0.0
  0
LINE
  5
627E
330
5FD6
100
AcDbEntity
  8
1
  6
Continuous
100
AcDbLine
 10
397.292362
 20
275.3274137649913
 30
0.0
 11
397.5923620000001
 21
275.0274137649913
 31
0.0
  0
LINE
  5
627F
330
5FD6
100
AcDbEntity
  8
1
  6
Continuous
100
AcDbLine
 10
398.992362
 20
275.0274137649913
 30
0.0
 11
399.292362
 21
275.3274137649913
 31
0.0
  0
LINE
  5
6280
330
5FD6
100
AcDbEntity
  8
1
  6
Continuous
100
AcDbLine
 10
397.292362
 20
271.1497737649913
 30
0.0
 11
397.5923620000001
 21
269.9916237649913
 31
0.0
  0
LINE
  5
6281
330
5FD6
100
AcDbEntity
  8
1
  6
Continuous
100
AcDbLine
 10
399.292362
 20
271.1497737649913
 30
0.0
 11
398.992362
 21
269.9916237649913
 31
0.0
  0
LINE
  5
6282
330
5FD6
100
AcDbEntity
  8
1
  6
Continuous
100
AcDbLine
 10
397.5923620000001
 20
264.5869237649912
 30
0.0
 11
398.992362
 21
264.5869237649912
 31
0.0
  0
LINE
  5
6283
330
5FD6
100
AcDbEntity
  8
1
  6
Continuous
100
AcDbLine
 10
397.5923620000001
 20
271.1497737649913
 30
0.0
 11
397.292362
 21
271.1497737649913
 31
0.0
  0
LINE
  5
6284
330
5FD6
100
AcDbEntity
  8
1
  6
Continuous
100
AcDbLine
 10
398.992362
 20
271.1497737649913
 30
0.0
 11
399.292362
 21
271.1497737649913
 31
0.0
  0
LINE
  5
6285
330
5FD6
100
AcDbEntity
  8
1
  6
Continuous
100
AcDbLine
 10
397.292362
 20
282.0969537649912
 30
0.0
 11
397.5923620000001
 21
281.7969537649913
 31
0.0
  0
LINE
  5
6286
330
5FD6
100
AcDbEntity
  8
1
  6
Continuous
100
AcDbLine
 10
397.292362
 20
275.3274137649913
 30
0.0
 11
397.5923620000001
 21
275.6274237649912
 31
0.0
  0
LINE
  5
6287
330
5FD6
100
AcDbEntity
  8
1
  6
Continuous
100
AcDbLine
 10
397.292362
 20
282.0969537649912
 30
0.0
 11
397.5923620000001
 21
282.3969537649912
 31
0.0
  0
LINE
  5
6288
330
5FD6
100
AcDbEntity
  8
1
  6
Continuous
100
AcDbLine
 10
399.292362
 20
282.0768737649913
 30
0.0
 11
398.992362
 21
281.7768737649913
 31
0.0
  0
LINE
  5
6289
330
5FD6
100
AcDbEntity
  8
1
  6
Continuous
100
AcDbLine
 10
399.292362
 20
275.3274137649913
 30
0.0
 11
398.992362
 21
275.6274237649912
 31
0.0
  0
LINE
  5
628A
330
5FD6
100
AcDbEntity
  8
1
  6
Continuous
100
AcDbLine
 10
398.992362
 20
282.3768737649913
 30
0.0
 11
399.292362
 21
282.0768737649913
 31
0.0
  0
LINE
  5
628B
330
5FD6
100
AcDbEntity
  8
1
  6
Continuous
100
AcDbLine
 10
408.8645839999998
 20
266.0869237649913
 30
0.0
 11
410.3645839999998
 21
266.0869237649913
 31
0.0
  0
LINE
  5
628C
330
5FD6
100
AcDbEntity
  8
1
  6
Continuous
100
AcDbLine
 10
418.8645839999998
 20
266.0869237649913
 30
0.0
 11
417.3645839999998
 21
266.0869237649913
 31
0.0
  0
LINE
  5
628D
330
5FD6
100
AcDbEntity
  8
1
  6
Continuous
100
AcDbLine
 10
411.491584
 20
271.9829237649913
 30
0.0
 11
416.2365839999997
 21
271.9829237649913
 31
0.0
  0
ARC
  5
628E
330
5FD6
100
AcDbEntity
  8
1
  6
Continuous
100
AcDbCircle
 10
421.930584
 20
266.9319237649913
 30
0.0
 40
11.5972
100
AcDbArc
 50
154.176
 51
184.1759999999999
  0
ARC
  5
628F
330
5FD6
100
AcDbEntity
  8
1
  6
Continuous
100
AcDbCircle
 10
405.797584
 20
266.9319237649913
 30
0.0
 40
11.5972
100
AcDbArc
 50
355.824
 51
25.8238
  0
LINE
  5
62A0
330
5FD6
100
AcDbEntity
  8
1
  6
Continuous
100
AcDbLine
 10
397.292362
 20
293.0240737649913
 30
0.0
 11
397.5923620000001
 21
294.1822237649913
 31
0.0
  0
LINE
  5
62A1
330
5FD6
100
AcDbEntity
  8
1
  6
Continuous
100
AcDbLine
 10
397.5923620000001
 20
293.0240737649913
 30
0.0
 11
397.292362
 21
293.0240737649913
 31
0.0
  0
LINE
  5
62A2
330
5FD6
100
AcDbEntity
  8
1
  6
Continuous
100
AcDbLine
 10
399.292362
 20
293.0240737649913
 30
0.0
 11
398.992362
 21
294.1822237649913
 31
0.0
  0
LINE
  5
62A3
330
5FD6
100
AcDbEntity
  8
1
  6
Continuous
100
AcDbLine
 10
398.992362
 20
293.0240737649913
 30
0.0
 11
399.292362
 21
293.0240737649913
 31
0.0
  0
LINE
  5
62A4
330
5FD6
100
AcDbEntity
  8
1
  6
Continuous
100
AcDbLine
 10
397.5923620000001
 20
299.5869237649912
 30
0.0
 11
398.992362
 21
299.5869237649912
 31
0.0
  0
ARC
  5
62A5
330
5FD6
100
AcDbEntity
  8
1
  6
Continuous
100
AcDbCircle
 10
421.930584
 20
297.2429237649912
 30
0.0
 40
11.5972
100
AcDbArc
 50
175.824
 51
205.824
  0
ARC
  5
62A6
330
5FD6
100
AcDbEntity
  8
1
  6
Continuous
100
AcDbCircle
 10
405.797584
 20
297.2429237649912
 30
0.0
 40
11.5972
100
AcDbArc
 50
334.1759999999998
 51
4.176219999999998
  0
LINE
  5
62A7
330
5FD6
100
AcDbEntity
  8
1
  6
Continuous
100
AcDbLine
 10
411.491584
 20
292.1909237649914
 30
0.0
 11
416.2365839999997
 21
292.1909237649914
 31
0.0
  0
LINE
  5
62A8
330
5FD6
100
AcDbEntity
  8
1
  6
Continuous
100
AcDbLine
 10
408.8645839999998
 20
298.0869237649912
 30
0.0
 11
410.3645839999998
 21
298.0869237649912
 31
0.0
  0
LINE
  5
62A9
330
5FD6
100
AcDbEntity
  8
1
  6
Continuous
100
AcDbLine
 10
410.3645839999998
 20
298.0869237649912
 30
0.0
 11
411.491584
 21
302.2939237649913
 31
0.0
  0
LINE
  5
62AA
330
5FD6
100
AcDbEntity
  8
1
  6
Continuous
100
AcDbLine
 10
418.8645839999998
 20
298.0869237649912
 30
0.0
 11
417.3645839999998
 21
298.0869237649912
 31
0.0
  0
LINE
  5
62AB
330
5FD6
100
AcDbEntity
  8
1
  6
Continuous
100
AcDbLine
 10
417.3645839999998
 20
298.0869237649912
 30
0.0
 11
416.2365839999997
 21
302.2939237649913
 31
0.0
  0
LINE
  5
62AC
330
5FD6
100
AcDbEntity
  8
1
  6
Continuous
100
AcDbLine
 10
411.491584
 20
302.2939237649913
 30
0.0
 11
416.2365839999997
 21
302.2939237649913
 31
0.0
  0
LINE
  5
62AD
330
5FD6
100
AcDbEntity
  8
1
  6
Continuous
100
AcDbLine
 10
133.055911
 20
441.4886007649912
 30
0.0
 11
155.827357
 21
441.4886007649912
 31
0.0
  0
LINE
  5
62AE
330
5FD6
100
AcDbEntity
  8
1
  6
Continuous
100
AcDbLine
 10
133.055911
 20
442.6886007649913
 30
0.0
 11
156.4631809999999
 21
442.6886007649913
 31
0.0
  0
LINE
  5
62AF
330
5FD6
100
AcDbEntity
  8
1
  6
Continuous
100
AcDbLine
 10
136.555911
 20
445.0886007649914
 30
0.0
 11
154.055911
 21
445.0886007649914
 31
0.0
  0
LINE
  5
62B0
330
5FD6
100
AcDbEntity
  8
1
  6
Continuous
100
AcDbLine
 10
136.555911
 20
438.8886007649912
 30
0.0
 11
153.055911
 21
438.8886007649912
 31
0.0
  0
LINE
  5
62B1
330
5FD6
100
AcDbEntity
  8
4
  6
CENTER
100
AcDbLine
 10
103.5559109999999
 20
441.9916557649913
 30
0.0
 11
161.398006
 21
442.0239477649912
 31
0.0
  0
LINE
  5
62B2
330
5FD6
100
AcDbEntity
  8
1
  6
Continuous
100
AcDbLine
 10
113.794228
 20
431.4339007649913
 30
0.0
 11
109.723861
 21
437.5394517649911
 31
0.0
  0
LINE
  5
62B3
330
5FD6
100
AcDbEntity
  8
1
  6
Continuous
100
AcDbLine
 10
108.89181
 20
436.9847517649913
 30
0.0
 11
112.9621779999999
 21
430.8792007649913
 31
0.0
  0
LINE
  5
62B4
330
5FD6
100
AcDbEntity
  8
1
  6
Continuous
100
AcDbLine
 10
111.055911
 20
445.9886007649912
 30
0.0
 11
114.0559109999999
 21
445.9886007649912
 31
0.0
  0
LINE
  5
62B5
330
5FD6
100
AcDbEntity
  8
1
  6
Continuous
100
AcDbLine
 10
111.055911
 20
437.9886007649913
 30
0.0
 11
114.0559109999999
 21
437.9886007649913
 31
0.0
  0
LINE
  5
62B6
330
5FD6
100
AcDbEntity
  8
1
  6
Continuous
100
AcDbLine
 10
113.794228
 20
452.5433007649914
 30
0.0
 11
109.723861
 21
446.4377497649913
 31
0.0
  0
LINE
  5
62B7
330
5FD6
100
AcDbEntity
  8
1
  6
Continuous
100
AcDbLine
 10
108.89181
 20
446.9924497649913
 30
0.0
 11
112.9621779999999
 21
453.0980007649913
 31
0.0
  0
ARC
  5
62B8
330
5FD6
100
AcDbEntity
  8
1
  6
Continuous
100
AcDbCircle
 10
110.5559109999999
 20
445.8830497649914
 30
0.0
 40
1.0
100
AcDbArc
 50
146.3099319999998
 51
180.0
  0
LINE
  5
62B9
330
5FD6
100
AcDbEntity
  8
1
  6
Continuous
100
AcDbLine
 10
109.5559109999999
 20
438.0941517649913
 30
0.0
 11
109.5559109999999
 21
445.8830497649914
 31
0.0
  0
ARC
  5
62BA
330
5FD6
100
AcDbEntity
  8
1
  6
Continuous
100
AcDbCircle
 10
110.5559109999999
 20
438.0941517649913
 30
0.0
 40
1.0
100
AcDbArc
 50
180.0
 51
213.690068
  0
ARC
  5
62BB
330
5FD6
100
AcDbEntity
  8
1
  6
Continuous
100
AcDbCircle
 10
111.055911
 20
445.4886007649912
 30
0.0
 40
0.5
100
AcDbArc
 50
90.0
 51
180.0
  0
ARC
  5
62BC
330
5FD6
100
AcDbEntity
  8
1
  6
Continuous
100
AcDbCircle
 10
110.5559109999999
 20
438.0941517649913
 30
0.0
 40
2.0
100
AcDbArc
 50
180.0
 51
213.690068
  0
ARC
  5
62BD
330
5FD6
100
AcDbEntity
  8
1
  6
Continuous
100
AcDbCircle
 10
110.5559109999999
 20
445.8830497649914
 30
0.0
 40
2.0
100
AcDbArc
 50
146.3099319999998
 51
180.0
  0
ARC
  5
62BE
330
5FD6
100
AcDbEntity
  8
1
  6
Continuous
100
AcDbCircle
 10
111.055911
 20
438.4886007649913
 30
0.0
 40
0.5
100
AcDbArc
 50
180.0
 51
270.0
  0
LINE
  5
62BF
330
5FD6
100
AcDbEntity
  8
1
  6
Continuous
100
AcDbLine
 10
110.5559109999999
 20
445.4886007649912
 30
0.0
 11
110.5559109999999
 21
438.4886007649913
 31
0.0
  0
LINE
  5
62C0
330
5FD6
100
AcDbEntity
  8
1
  6
Continuous
100
AcDbLine
 10
108.5559109999999
 20
445.8830497649914
 30
0.0
 11
108.5559109999999
 21
438.0941517649913
 31
0.0
  0
LINE
  5
62C1
330
5FD6
100
AcDbEntity
  8
1
  6
Continuous
100
AcDbLine
 10
129.555911
 20
438.7386007649912
 30
0.0
 11
119.489244
 21
431.1886007649913
 31
0.0
  0
LINE
  5
62C2
330
5FD6
100
AcDbEntity
  8
1
  6
Continuous
100
AcDbLine
 10
120.089244
 20
430.3886007649913
 30
0.0
 11
129.555911
 21
437.4886007649912
 31
0.0
  0
ARC
  5
62C3
330
5FD6
100
AcDbEntity
  8
1
  6
Continuous
100
AcDbCircle
 10
113.023296
 20
441.9886007649913
 30
0.0
 40
10.032628
100
AcDbArc
 50
324.4619999999998
 51
35.53799999999999
  0
ARC
  5
62C4
330
5FD6
100
AcDbEntity
  8
1
  6
Continuous
100
AcDbCircle
 10
126.088526
 20
441.9886007649913
 30
0.0
 40
10.032628
100
AcDbArc
 50
144.462
 51
215.5377
  0
ARC
  5
62C5
330
5FD6
100
AcDbEntity
  8
1
  6
Continuous
100
AcDbCircle
 10
118.8892439999999
 20
431.9886007649913
 30
0.0
 40
1.0
100
AcDbArc
 50
270.0
 51
306.8698979999999
  0
ARC
  5
62C6
330
5FD6
100
AcDbEntity
  8
1
  6
Continuous
100
AcDbCircle
 10
118.8892439999999
 20
431.9886007649913
 30
0.0
 40
2.0
100
AcDbArc
 50
270.0
 51
306.8698979999999
  0
ARC
  5
62C7
330
5FD6
100
AcDbEntity
  8
1
  6
Continuous
100
AcDbCircle
 10
119.555121
 20
437.3230107649913
 30
0.0
 40
2.004309
100
AcDbArc
 50
270.0
 51
324.4619999999998
  0
ARC
  5
62C8
330
5FD6
100
AcDbEntity
  8
1
  6
Continuous
100
AcDbCircle
 10
119.555121
 20
437.3230107649913
 30
0.0
 40
2.004309
100
AcDbArc
 50
215.5377
 51
256.5374
  0
ARC
  5
62C9
330
5FD6
100
AcDbEntity
  8
1
  6
Continuous
100
AcDbCircle
 10
114.626278
 20
431.9886007649913
 30
0.0
 40
1.0
100
AcDbArc
 50
213.690068
 51
270.0
  0
ARC
  5
62CA
330
5FD6
100
AcDbEntity
  8
1
  6
Continuous
100
AcDbCircle
 10
114.626278
 20
431.9886007649913
 30
0.0
 40
2.0
100
AcDbArc
 50
213.690068
 51
270.0
  0
LINE
  5
62CB
330
5FD6
100
AcDbEntity
  8
1
  6
Continuous
100
AcDbLine
 10
118.8892439999999
 20
430.9886007649913
 30
0.0
 11
114.626278
 21
430.9886007649913
 31
0.0
  0
LINE
  5
62CC
330
5FD6
100
AcDbEntity
  8
1
  6
Continuous
100
AcDbLine
 10
114.626278
 20
429.9886007649913
 30
0.0
 11
118.8892439999999
 21
429.9886007649913
 31
0.0
  0
LINE
  5
62CD
330
5FD6
100
AcDbEntity
  8
1
  6
Continuous
100
AcDbLine
 10
119.489244
 20
452.7886007649914
 30
0.0
 11
129.555911
 21
445.2386007649913
 31
0.0
  0
LINE
  5
62CE
330
5FD6
100
AcDbEntity
  8
1
  6
Continuous
100
AcDbLine
 10
120.089244
 20
453.5886007649914
 30
0.0
 11
129.555911
 21
446.4886007649913
 31
0.0
  0
ARC
  5
62CF
330
5FD6
100
AcDbEntity
  8
1
  6
Continuous
100
AcDbCircle
 10
118.8892439999999
 20
451.9886007649913
 30
0.0
 40
1.0
100
AcDbArc
 50
53.130102
 51
90.0
  0
ARC
  5
62D0
330
5FD6
100
AcDbEntity
  8
1
  6
Continuous
100
AcDbCircle
 10
118.8892439999999
 20
451.9886007649913
 30
0.0
 40
2.0
100
AcDbArc
 50
53.130102
 51
90.0
  0
LINE
  5
62D1
330
5FD6
100
AcDbEntity
  8
1
  6
Continuous
100
AcDbLine
 10
116.842606
 20
442.3785837649911
 30
0.0
 11
122.2692159999999
 21
442.3785837649911
 31
0.0
  0
LINE
  5
62D2
330
5FD6
100
AcDbEntity
  8
1
  6
Continuous
100
AcDbLine
 10
117.422055
 20
436.9346067649913
 30
0.0
 11
120.7755949999999
 21
436.9346067649913
 31
0.0
  0
LINE
  5
62D3
330
5FD6
100
AcDbEntity
  8
1
  6
Continuous
100
AcDbLine
 10
120.990323
 20
437.7114157649914
 30
0.0
 11
118.1214989999999
 21
437.7114157649914
 31
0.0
  0
LINE
  5
62D4
330
5FD6
100
AcDbEntity
  8
1
  6
Continuous
100
AcDbLine
 10
117.636782
 20
438.4898027649913
 30
0.0
 11
121.47346
 21
438.4898027649913
 31
0.0
  0
LINE
  5
62D5
330
5FD6
100
AcDbEntity
  8
1
  6
Continuous
100
AcDbLine
 10
118.622003
 20
440.0449997649912
 30
0.0
 11
117.1378559999999
 21
440.0449997649912
 31
0.0
  0
LINE
  5
62D6
330
5FD6
100
AcDbEntity
  8
1
  6
Continuous
100
AcDbLine
 10
119.555121
 20
441.6001957649913
 30
0.0
 11
119.555121
 21
440.8233877649912
 31
0.0
  0
ARC
  5
62D7
330
5FD6
100
AcDbEntity
  8
1
  6
Continuous
100
AcDbCircle
 10
118.1214989999999
 20
438.1013987649913
 30
0.0
 40
0.388957
100
AcDbArc
 50
206.0144
 51
270.0
  0
ARC
  5
62D8
330
5FD6
100
AcDbEntity
  8
1
  6
Continuous
100
AcDbCircle
 10
126.088526
 20
441.9886007649913
 30
0.0
 40
9.254918999999999
100
AcDbArc
 50
202.944
 51
206.0144
  0
ARC
  5
62D9
330
5FD6
100
AcDbEntity
  8
1
  6
Continuous
100
AcDbCircle
 10
117.636782
 20
438.4124377649913
 30
0.0
 40
0.077791
100
AcDbArc
 50
90.0
 51
202.944
  0
ARC
  5
62DA
330
5FD6
100
AcDbEntity
  8
1
  6
Continuous
100
AcDbCircle
 10
120.990323
 20
438.1013987649913
 30
0.0
 40
0.388957
100
AcDbArc
 50
270.0
 51
333.9859999999998
  0
ARC
  5
62DB
330
5FD6
100
AcDbEntity
  8
1
  6
Continuous
100
AcDbCircle
 10
117.1378559999999
 20
439.9676347649913
 30
0.0
 40
0.077791
100
AcDbArc
 50
90.0
 51
192.7289
  0
ARC
  5
62DC
330
5FD6
100
AcDbEntity
  8
1
  6
Continuous
100
AcDbCircle
 10
126.088526
 20
441.9886007649913
 30
0.0
 40
9.254918999999999
100
AcDbArc
 50
192.7289
 51
193.2680999999999
  0
ARC
  5
62DD
330
5FD6
100
AcDbEntity
  8
1
  6
Continuous
100
AcDbCircle
 10
126.088526
 20
441.9886007649913
 30
0.0
 40
9.254918999999999
100
AcDbArc
 50
193.2680999999999
 51
195.2574999999999
  0
ARC
  5
62DE
330
5FD6
100
AcDbEntity
  8
1
  6
Continuous
100
AcDbCircle
 10
117.535734
 20
439.6565957649912
 30
0.0
 40
0.388957
100
AcDbArc
 50
195.2574999999999
 51
270.0
  0
ARC
  5
62DF
330
5FD6
100
AcDbEntity
  8
1
  6
Continuous
100
AcDbCircle
 10
121.576087
 20
439.6565957649912
 30
0.0
 40
0.388957
100
AcDbArc
 50
270.0
 51
344.7419999999998
  0
ARC
  5
62E0
330
5FD6
100
AcDbEntity
  8
1
  6
Continuous
100
AcDbCircle
 10
113.023296
 20
441.9886007649913
 30
0.0
 40
9.254918999999999
100
AcDbArc
 50
344.7419999999998
 51
344.794
  0
ARC
  5
62E1
330
5FD6
100
AcDbEntity
  8
1
  6
Continuous
100
AcDbCircle
 10
113.023296
 20
441.9886007649913
 30
0.0
 40
9.254918999999999
100
AcDbArc
 50
344.794
 51
347.2709999999998
  0
ARC
  5
62E2
330
5FD6
100
AcDbEntity
  8
1
  6
Continuous
100
AcDbCircle
 10
121.9739649999998
 20
439.9676347649913
 30
0.0
 40
0.077791
100
AcDbArc
 50
347.2709999999998
 51
90.0
  0
LINE
  5
62E3
330
5FD6
100
AcDbEntity
  8
1
  6
Continuous
100
AcDbLine
 10
117.535734
 20
439.2666117649913
 30
0.0
 11
121.576087
 21
439.2666117649913
 31
0.0
  0
LINE
  5
62E4
330
5FD6
100
AcDbEntity
  8
1
  6
Continuous
100
AcDbLine
 10
121.9739649999998
 20
440.0449997649912
 30
0.0
 11
120.4882389999998
 21
440.0449997649912
 31
0.0
  0
LINE
  5
62E5
330
5FD6
100
AcDbEntity
  8
1
  6
Continuous
100
AcDbLine
 10
116.90734
 20
440.8233877649912
 30
0.0
 11
122.204482
 21
440.8233877649912
 31
0.0
  0
LINE
  5
62E6
330
5FD6
100
AcDbEntity
  8
1
  6
Continuous
100
AcDbLine
 10
116.842606
 20
441.6001957649913
 30
0.0
 11
122.2692159999999
 21
441.6001957649913
 31
0.0
  0
ARC
  5
62E7
330
5FD6
100
AcDbEntity
  8
1
  6
Continuous
100
AcDbCircle
 10
121.47346
 20
438.4124377649913
 30
0.0
 40
0.077791
100
AcDbArc
 50
337.0559999999999
 51
90.0
  0
ARC
  5
62E8
330
5FD6
100
AcDbEntity
  8
1
  6
Continuous
100
AcDbCircle
 10
113.023296
 20
441.9886007649913
 30
0.0
 40
9.254918999999999
100
AcDbArc
 50
333.9859999999998
 51
337.0559999999999
  0
LINE
  5
62E9
330
5FD6
100
AcDbEntity
  8
1
  6
Continuous
100
AcDbLine
 10
118.622003
 20
443.9337807649913
 30
0.0
 11
117.3604789999999
 21
443.9337807649913
 31
0.0
  0
LINE
  5
62EA
330
5FD6
100
AcDbEntity
  8
1
  6
Continuous
100
AcDbLine
 10
119.555121
 20
443.9337807649913
 30
0.0
 11
119.555121
 21
443.5453757649913
 31
0.0
  0
LINE
  5
62EB
330
5FD6
100
AcDbEntity
  8
1
  6
Continuous
100
AcDbLine
 10
117.3652149999999
 20
445.4889767649913
 30
0.0
 11
119.1667169999999
 21
445.4889767649913
 31
0.0
  0
LINE
  5
62EC
330
5FD6
100
AcDbEntity
  8
1
  6
Continuous
100
AcDbLine
 10
119.1667169999999
 20
446.2673647649912
 30
0.0
 11
117.505735
 21
446.2673647649912
 31
0.0
  0
LINE
  5
62ED
330
5FD6
100
AcDbEntity
  8
1
  6
Continuous
100
AcDbLine
 10
119.555121
 20
445.8773817649912
 30
0.0
 11
121.421357
 21
445.8773817649912
 31
0.0
  0
LINE
  5
62EE
330
5FD6
100
AcDbEntity
  8
1
  6
Continuous
100
AcDbLine
 10
121.0108479999999
 20
446.6620847649912
 30
0.0
 11
117.733094
 21
447.5415207649914
 31
0.0
  0
LINE
  5
62EF
330
5FD6
100
AcDbEntity
  8
1
  6
Continuous
100
AcDbLine
 10
119.555121
 20
448.6593677649914
 30
0.0
 11
119.555121
 21
447.0520677649913
 31
0.0
  0
ARC
  5
62F0
330
5FD6
100
AcDbEntity
  8
1
  6
Continuous
100
AcDbCircle
 10
119.1667169999999
 20
445.8773817649912
 30
0.0
 40
0.388957
100
AcDbArc
 50
270.0
 51
90.0
  0
ARC
  5
62F1
330
5FD6
100
AcDbEntity
  8
1
  6
Continuous
100
AcDbCircle
 10
119.555121
 20
446.6557687649912
 30
0.0
 40
2.004309
100
AcDbArc
 50
62.24999999999999
 51
144.462
  0
ARC
  5
62F2
330
5FD6
100
AcDbEntity
  8
1
  6
Continuous
100
AcDbCircle
 10
119.555121
 20
446.6557687649912
 30
0.0
 40
2.004309
100
AcDbArc
 50
35.53799999999999
 51
45.69899999999999
  0
ARC
  5
62F3
330
5FD6
100
AcDbEntity
  8
1
  6
Continuous
100
AcDbCircle
 10
117.3604789999999
 20
443.5453757649913
 30
0.0
 40
0.388957
100
AcDbArc
 50
90.0
 51
169.896
  0
ARC
  5
62F4
330
5FD6
100
AcDbEntity
  8
1
  6
Continuous
100
AcDbCircle
 10
126.088526
 20
441.9886007649913
 30
0.0
 40
9.254918999999999
100
AcDbArc
 50
169.896
 51
172.2069999999999
  0
ARC
  5
62F5
330
5FD6
100
AcDbEntity
  8
1
  6
Continuous
100
AcDbCircle
 10
116.995757
 20
443.2343367649911
 30
0.0
 40
0.077791
100
AcDbArc
 50
172.2069999999999
 51
270.0
  0
ARC
  5
62F6
330
5FD6
100
AcDbEntity
  8
1
  6
Continuous
100
AcDbCircle
 10
121.7513429999999
 20
443.5453757649913
 30
0.0
 40
0.388957
100
AcDbArc
 50
10.10399999999999
 51
90.0
  0
ARC
  5
62F7
330
5FD6
100
AcDbEntity
  8
1
  6
Continuous
100
AcDbCircle
 10
122.1160639999998
 20
443.2343367649911
 30
0.0
 40
0.077791
100
AcDbArc
 50
270.0
 51
7.792999999999999
  0
ARC
  5
62F8
330
5FD6
100
AcDbEntity
  8
1
  6
Continuous
100
AcDbCircle
 10
113.023296
 20
441.9886007649913
 30
0.0
 40
9.254918999999999
100
AcDbArc
 50
7.792999999999999
 51
10.10399999999999
  0
LINE
  5
62F9
330
5FD6
100
AcDbEntity
  8
1
  6
Continuous
100
AcDbLine
 10
116.995757
 20
443.1553927649913
 30
0.0
 11
122.1160639999998
 21
443.1553927649913
 31
0.0
  0
LINE
  5
62FA
330
5FD6
100
AcDbEntity
  8
1
  6
Continuous
100
AcDbLine
 10
121.7513429999999
 20
443.9337807649913
 30
0.0
 11
119.555121
 21
443.9337807649913
 31
0.0
  0
LINE
  5
62FB
330
5FD6
100
AcDbEntity
  8
1
  6
Continuous
100
AcDbLine
 10
116.9989149999999
 20
444.7105897649914
 30
0.0
 11
121.86818
 21
444.7105897649914
 31
0.0
  0
ARC
  5
62FC
330
5FD6
100
AcDbEntity
  8
1
  6
Continuous
100
AcDbCircle
 10
114.626278
 20
451.9886007649913
 30
0.0
 40
1.0
100
AcDbArc
 50
90.0
 51
146.3099319999998
  0
ARC
  5
62FD
330
5FD6
100
AcDbEntity
  8
1
  6
Continuous
100
AcDbCircle
 10
114.626278
 20
451.9886007649913
 30
0.0
 40
2.0
100
AcDbArc
 50
90.0
 51
146.3099319999998
  0
ARC
  5
62FE
330
5FD6
100
AcDbEntity
  8
1
  6
Continuous
100
AcDbCircle
 10
114.0559109999999
 20
445.4886007649912
 30
0.0
 40
0.5
100
AcDbArc
 50
0.0
 51
90.0
  0
ARC
  5
62FF
330
5FD6
100
AcDbEntity
  8
1
  6
Continuous
100
AcDbCircle
 10
114.0559109999999
 20
438.4886007649913
 30
0.0
 40
0.5
100
AcDbArc
 50
270.0
 51
0.0
  0
LINE
  5
6300
330
5FD6
100
AcDbEntity
  8
1
  6
Continuous
100
AcDbLine
 10
114.5559109999999
 20
445.4886007649912
 30
0.0
 11
114.5559109999999
 21
438.4886007649913
 31
0.0
  0
LINE
  5
6301
330
5FD6
100
AcDbEntity
  8
1
  6
Continuous
100
AcDbLine
 10
114.626278
 20
452.9886007649913
 30
0.0
 11
118.8892439999999
 21
452.9886007649913
 31
0.0
  0
LINE
  5
6302
330
5FD6
100
AcDbEntity
  8
1
  6
Continuous
100
AcDbLine
 10
114.626278
 20
453.9886007649912
 30
0.0
 11
118.8892439999999
 21
453.9886007649912
 31
0.0
  0
ARC
  5
6303
330
5FD6
100
AcDbEntity
  8
1
  6
Continuous
100
AcDbCircle
 10
136.255911
 20
437.7886007649912
 30
0.0
 40
0.3
100
AcDbArc
 50
270.0
 51
0.0
  0
ARC
  5
6304
330
5FD6
100
AcDbEntity
  8
1
  6
Continuous
100
AcDbCircle
 10
136.255911
 20
446.1886007649913
 30
0.0
 40
0.3
100
AcDbArc
 50
0.0
 51
90.0
  0
LINE
  5
6305
330
5FD6
100
AcDbEntity
  8
1
  6
Continuous
100
AcDbLine
 10
136.555911
 20
438.8886007649912
 30
0.0
 11
136.555911
 21
437.7886007649912
 31
0.0
  0
LINE
  5
6306
330
5FD6
100
AcDbEntity
  8
1
  6
Continuous
100
AcDbLine
 10
136.555911
 20
446.1886007649913
 30
0.0
 11
136.555911
 21
445.0886007649914
 31
0.0
  0
LINE
  5
6307
330
5FD6
100
AcDbEntity
  8
1
  6
Continuous
100
AcDbLine
 10
133.055911
 20
442.6886007649913
 30
0.0
 11
133.055911
 21
441.4886007649912
 31
0.0
  0
LINE
  5
6308
330
5FD6
100
AcDbEntity
  8
1
  6
Continuous
100
AcDbLine
 10
129.555911
 20
438.7386007649912
 30
0.0
 11
129.555911
 21
445.2386007649913
 31
0.0
  0
LINE
  5
6309
330
5FD6
100
AcDbEntity
  8
1
  6
Continuous
100
AcDbLine
 10
129.555911
 20
446.4886007649913
 30
0.0
 11
136.255911
 21
446.4886007649913
 31
0.0
  0
LINE
  5
630A
330
5FD6
100
AcDbEntity
  8
1
  6
Continuous
100
AcDbLine
 10
129.555911
 20
437.4886007649912
 30
0.0
 11
136.255911
 21
437.4886007649912
 31
0.0
  0
LINE
  5
630B
330
5FD6
100
AcDbEntity
  8
1
  6
Continuous
100
AcDbLine
 10
153.055911
 20
438.8886007649912
 30
0.0
 11
156.398005
 21
442.0239477649912
 31
0.0
  0
LINE
  5
630C
330
5FD6
100
AcDbEntity
  8
1
  6
Continuous
100
AcDbLine
 10
154.055911
 20
445.0886007649914
 30
0.0
 11
156.408929
 21
442.7426887649914
 31
0.0
  0
ARC
  5
630D
330
5FD6
100
AcDbEntity
  8
1
  6
Continuous
100
AcDbCircle
 10
156.0559109999998
 20
442.3886007649914
 30
0.0
 40
0.5
100
AcDbArc
 50
313.1718549999998
 51
45.08664600000001
  0
LINE
  5
630E
330
5FD6
100
AcDbEntity
  8
1
  6
Continuous
100
AcDbLine
 10
139.6408489999998
 20
165.1742377649913
 30
0.0
 11
144.6480359999999
 21
253.8060657649913
 31
0.0
  0
ARC
  5
630F
330
5FD6
100
AcDbEntity
  8
1
  6
Continuous
100
AcDbCircle
 10
137.1448289999999
 20
165.3152487649912
 30
0.0
 40
2.5
100
AcDbArc
 50
284.6179859999999
 51
356.766556
  0
ARC
  5
6310
330
5FD6
100
AcDbEntity
  8
1
  6
Continuous
100
AcDbCircle
 10
131.4664339999999
 20
187.0869237649913
 30
0.0
 40
25.0
100
AcDbArc
 50
255.382014
 51
284.6179859999999
  0
LINE
  5
6311
330
5FD6
100
AcDbEntity
  8
1
  6
Continuous
100
AcDbLine
 10
123.2920189999999
 20
165.1742377649913
 30
0.0
 11
118.2848319999999
 21
253.8060657649913
 31
0.0
  0
ARC
  5
6312
330
5FD6
100
AcDbEntity
  8
1
  6
Continuous
100
AcDbCircle
 10
125.7880389999999
 20
165.3152487649912
 30
0.0
 40
2.5
100
AcDbArc
 50
183.233444
 51
255.382014
  0
LINE
  5
6313
330
5FD6
100
AcDbEntity
  8
4
  6
CENTER
100
AcDbLine
 10
117.966434
 20
289.8811517649912
 30
0.0
 11
239.7196099999999
 21
219.5869237649914
 31
0.0
  0
LINE
  5
6314
330
5FD6
100
AcDbEntity
  8
4
  6
CENTER
100
AcDbLine
 10
144.9664339999999
 20
289.8811517649912
 30
0.0
 11
23.213259
 21
219.5869237649914
 31
0.0
  0
LINE
  5
6315
330
5FD6
100
AcDbEntity
  8
5
  6
PHANTOM
100
AcDbLine
 10
34.30428599999999
 20
216.5513297649913
 30
0.0
 11
113.5652939999998
 21
256.5308927649914
 31
0.0
  0
ARC
  5
6316
330
5FD6
100
AcDbEntity
  8
5
  6
PHANTOM
100
AcDbCircle
 10
49.194021
 20
234.5869237649913
 30
0.0
 40
25.0
100
AcDbArc
 50
195.3820139999998
 51
224.6179859999998
  0
ARC
  5
6317
330
5FD6
100
AcDbEntity
  8
5
  6
PHANTOM
100
AcDbCircle
 10
33.178395
 20
218.7834517649914
 30
0.0
 40
2.5
100
AcDbArc
 50
224.6179859999998
 51
296.766556
  0
LINE
  5
6318
330
5FD6
100
AcDbEntity
  8
5
  6
PHANTOM
100
AcDbLine
 10
26.12987099999999
 20
230.7098317649913
 30
0.0
 11
100.383692
 21
279.3620967649912
 31
0.0
  0
ARC
  5
6319
330
5FD6
100
AcDbEntity
  8
5
  6
PHANTOM
100
AcDbCircle
 10
27.5
 20
228.6187207649914
 30
0.0
 40
2.5
100
AcDbArc
 50
123.233444
 51
195.3820139999998
  0
LINE
  5
631A
330
5FD6
100
AcDbEntity
  8
4
  6
CENTER
100
AcDbLine
 10
272.6200219999999
 20
441.9886007649913
 30
0.0
 11
361.7200219999999
 21
441.9886007649913
 31
0.0
  0
LINE
  5
631B
330
5FD6
100
AcDbEntity
  8
1
  6
Continuous
100
AcDbLine
 10
410.3645839999998
 20
459.4886007649913
 30
0.0
 11
410.3645839999998
 21
424.4886007649912
 31
0.0
  0
LINE
  5
631C
330
5FD6
100
AcDbEntity
  8
1
  6
Continuous
100
AcDbLine
 10
417.3645839999998
 20
459.4886007649913
 30
0.0
 11
417.3645839999998
 21
424.4886007649912
 31
0.0
  0
ARC
  5
631D
330
5FD6
100
AcDbEntity
  8
1
  6
Continuous
100
AcDbCircle
 10
444.8865839999998
 20
450.7386007649913
 30
0.0
 40
34.5223
100
AcDbArc
 50
165.3179999999998
 51
194.6819999999999
  0
ARC
  5
631E
330
5FD6
100
AcDbEntity
  8
1
  6
Continuous
100
AcDbCircle
 10
382.841584
 20
450.7386007649913
 30
0.0
 40
34.5223
100
AcDbArc
 50
345.3179999999999
 51
14.6823
  0
LINE
  5
631F
330
5FD6
100
AcDbEntity
  8
1
  6
Continuous
100
AcDbLine
 10
397.5923620000001
 20
459.4886007649913
 30
0.0
 11
397.5923620000001
 21
424.4886007649912
 31
0.0
  0
LINE
  5
6320
330
5FD6
100
AcDbEntity
  8
1
  6
Continuous
100
AcDbLine
 10
398.992362
 20
459.4886007649913
 30
0.0
 11
398.992362
 21
424.4886007649912
 31
0.0
  0
LINE
  5
6321
330
5FD6
100
AcDbEntity
  8
1
  6
Continuous
100
AcDbLine
 10
447.1208349999998
 20
448.0886007649911
 30
0.0
 11
445.6208349999998
 21
448.0886007649911
 31
0.0
  0
LINE
  5
6322
330
5FD6
100
AcDbEntity
  8
1
  6
Continuous
100
AcDbLine
 10
447.1208349999998
 20
443.4886007649913
 30
0.0
 11
445.6208349999998
 21
441.9886007649913
 31
0.0
  0
LINE
  5
6323
330
5FD6
100
AcDbEntity
  8
1
  6
Continuous
100
AcDbLine
 10
447.1208349999998
 20
442.0746007649912
 30
0.0
 11
445.6208349999998
 21
440.5746007649913
 31
0.0
  0
LINE
  5
6324
330
5FD6
100
AcDbEntity
  8
1
  6
Continuous
100
AcDbLine
 10
447.1208349999998
 20
435.8886007649912
 30
0.0
 11
445.6208349999998
 21
435.8886007649912
 31
0.0
  0
LINE
  5
6325
330
5FD6
100
AcDbEntity
  8
4
  6
CENTER
100
AcDbLine
 10
392.292362
 20
441.9886007649913
 30
0.0
 11
456.1298349999998
 21
441.9886007649913
 31
0.0
  0
LINE
  5
6326
330
5FD6
100
AcDbEntity
  8
1
  6
Continuous
100
AcDbLine
 10
444.0208349999998
 20
449.9886007649912
 30
0.0
 11
444.0208349999998
 21
433.9886007649913
 31
0.0
  0
LINE
  5
6327
330
5FD6
100
AcDbEntity
  8
1
  6
Continuous
100
AcDbLine
 10
433.510886
 20
430.9886007649913
 30
0.0
 11
433.510886
 21
452.9886007649913
 31
0.0
  0
LINE
  5
6328
330
5FD6
100
AcDbEntity
  8
1
  6
Continuous
100
AcDbLine
 10
430.510886
 20
430.9886007649913
 30
0.0
 11
430.510886
 21
452.9886007649913
 31
0.0
  0
LINE
  5
6329
330
5FD6
100
AcDbEntity
  8
1
  6
Continuous
100
AcDbLine
 10
428.510886
 20
430.9886007649913
 30
0.0
 11
428.510886
 21
452.9886007649913
 31
0.0
  0
LINE
  5
632A
330
5FD6
100
AcDbEntity
  8
1
  6
Continuous
100
AcDbLine
 10
445.6208349999998
 20
449.9886007649912
 30
0.0
 11
445.6208349999998
 21
433.9886007649913
 31
0.0
  0
LINE
  5
632B
330
5FD6
100
AcDbEntity
  8
1
  6
Continuous
100
AcDbLine
 10
408.8645839999998
 20
457.9886007649912
 30
0.0
 11
408.8645839999998
 21
425.9886007649913
 31
0.0
  0
LINE
  5
632C
330
5FD6
100
AcDbEntity
  8
1
  6
Continuous
100
AcDbLine
 10
418.8645839999998
 20
457.9886007649912
 30
0.0
 11
418.8645839999998
 21
425.9886007649913
 31
0.0
  0
ARC
  5
632D
330
5FD6
100
AcDbEntity
  8
1
  6
Continuous
100
AcDbCircle
 10
444.8865839999998
 20
433.2386007649913
 30
0.0
 40
34.5223
100
AcDbArc
 50
165.3179999999998
 51
194.6819999999999
  0
ARC
  5
632E
330
5FD6
100
AcDbEntity
  8
1
  6
Continuous
100
AcDbCircle
 10
382.841584
 20
433.2386007649913
 30
0.0
 40
34.5223
100
AcDbArc
 50
345.3179999999999
 51
14.6823
  0
LINE
  5
632F
330
5FD6
100
AcDbEntity
  8
1
  6
Continuous
100
AcDbLine
 10
397.5923620000001
 20
424.4886007649912
 30
0.0
 11
398.992362
 21
424.4886007649912
 31
0.0
  0
LINE
  5
6330
330
5FD6
100
AcDbEntity
  8
1
  6
Continuous
100
AcDbLine
 10
397.292362
 20
435.2290907649911
 30
0.0
 11
397.5923620000001
 21
435.5291007649912
 31
0.0
  0
LINE
  5
6331
330
5FD6
100
AcDbEntity
  8
1
  6
Continuous
100
AcDbLine
 10
397.292362
 20
435.2290907649911
 30
0.0
 11
397.5923620000001
 21
434.9290907649914
 31
0.0
  0
LINE
  5
6332
330
5FD6
100
AcDbEntity
  8
1
  6
Continuous
100
AcDbLine
 10
397.5923620000001
 20
431.0514507649913
 30
0.0
 11
397.292362
 21
431.0514507649913
 31
0.0
  0
LINE
  5
6333
330
5FD6
100
AcDbEntity
  8
1
  6
Continuous
100
AcDbLine
 10
397.292362
 20
431.0514507649913
 30
0.0
 11
397.5923620000001
 21
429.8933007649913
 31
0.0
  0
LINE
  5
6334
330
5FD6
100
AcDbEntity
  8
1
  6
Continuous
100
AcDbLine
 10
398.992362
 20
434.9290907649914
 30
0.0
 11
399.292362
 21
435.2290907649911
 31
0.0
  0
LINE
  5
6335
330
5FD6
100
AcDbEntity
  8
1
  6
Continuous
100
AcDbLine
 10
399.292362
 20
435.2290907649911
 30
0.0
 11
398.992362
 21
435.5291007649912
 31
0.0
  0
LINE
  5
6336
330
5FD6
100
AcDbEntity
  8
1
  6
Continuous
100
AcDbLine
 10
398.992362
 20
431.0514507649913
 30
0.0
 11
399.292362
 21
431.0514507649913
 31
0.0
  0
LINE
  5
6337
330
5FD6
100
AcDbEntity
  8
1
  6
Continuous
100
AcDbLine
 10
399.292362
 20
431.0514507649913
 30
0.0
 11
398.992362
 21
429.8933007649913
 31
0.0
  0
LINE
  5
6338
330
5FD6
100
AcDbEntity
  8
1
  6
Continuous
100
AcDbLine
 10
410.3645839999998
 20
424.4886007649912
 30
0.0
 11
417.3645839999998
 21
424.4886007649912
 31
0.0
  0
LINE
  5
6339
330
5FD6
100
AcDbEntity
  8
1
  6
Continuous
100
AcDbLine
 10
408.8645839999998
 20
425.9886007649913
 30
0.0
 11
410.3645839999998
 21
425.9886007649913
 31
0.0
  0
LINE
  5
633A
330
5FD6
100
AcDbEntity
  8
1
  6
Continuous
100
AcDbLine
 10
418.8645839999998
 20
425.9886007649913
 30
0.0
 11
417.3645839999998
 21
425.9886007649913
 31
0.0
  0
LINE
  5
633B
330
5FD6
100
AcDbEntity
  8
1
  6
Continuous
100
AcDbLine
 10
444.0208349999998
 20
433.9886007649913
 30
0.0
 11
445.6208349999998
 21
433.9886007649913
 31
0.0
  0
LINE
  5
633C
330
5FD6
100
AcDbEntity
  8
1
  6
Continuous
100
AcDbLine
 10
428.510886
 20
430.9886007649913
 30
0.0
 11
433.510886
 21
430.9886007649913
 31
0.0
  0
LINE
  5
633D
330
5FD6
100
AcDbEntity
  8
1
  6
Continuous
100
AcDbLine
 10
397.292362
 20
441.9986307649913
 30
0.0
 11
397.5923620000001
 21
441.6986307649914
 31
0.0
  0
LINE
  5
633E
330
5FD6
100
AcDbEntity
  8
1
  6
Continuous
100
AcDbLine
 10
397.292362
 20
441.9986307649913
 30
0.0
 11
397.5923620000001
 21
442.2986307649913
 31
0.0
  0
LINE
  5
633F
330
5FD6
100
AcDbEntity
  8
1
  6
Continuous
100
AcDbLine
 10
399.292362
 20
441.9785507649914
 30
0.0
 11
398.992362
 21
441.6785507649914
 31
0.0
  0
LINE
  5
6340
330
5FD6
100
AcDbEntity
  8
1
  6
Continuous
100
AcDbLine
 10
398.992362
 20
442.2785507649914
 30
0.0
 11
399.292362
 21
441.9785507649914
 31
0.0
  0
LINE
  5
6349
330
5FD6
100
AcDbEntity
  8
1
  6
Continuous
100
AcDbLine
 10
397.292362
 20
452.9257507649911
 30
0.0
 11
397.5923620000001
 21
454.0839007649913
 31
0.0
  0
LINE
  5
634A
330
5FD6
100
AcDbEntity
  8
1
  6
Continuous
100
AcDbLine
 10
397.5923620000001
 20
452.9257507649911
 30
0.0
 11
397.292362
 21
452.9257507649911
 31
0.0
  0
LINE
  5
6353
330
5FD6
100
AcDbEntity
  8
1
  6
Continuous
100
AcDbLine
 10
399.292362
 20
452.9257507649911
 30
0.0
 11
398.992362
 21
454.0839007649913
 31
0.0
  0
LINE
  5
6354
330
5FD6
100
AcDbEntity
  8
1
  6
Continuous
100
AcDbLine
 10
398.992362
 20
452.9257507649911
 30
0.0
 11
399.292362
 21
452.9257507649911
 31
0.0
  0
LINE
  5
6355
330
5FD6
100
AcDbEntity
  8
1
  6
Continuous
100
AcDbLine
 10
411.491584
 20
441.9886007649913
 30
0.0
 11
416.2365839999997
 21
441.9886007649913
 31
0.0
  0
LINE
  5
6356
330
5FD6
100
AcDbEntity
  8
1
  6
Continuous
100
AcDbLine
 10
408.8645839999998
 20
457.9886007649912
 30
0.0
 11
410.3645839999998
 21
457.9886007649912
 31
0.0
  0
LINE
  5
6357
330
5FD6
100
AcDbEntity
  8
1
  6
Continuous
100
AcDbLine
 10
418.8645839999998
 20
457.9886007649912
 30
0.0
 11
417.3645839999998
 21
457.9886007649912
 31
0.0
  0
LINE
  5
6358
330
5FD6
100
AcDbEntity
  8
1
  6
Continuous
100
AcDbLine
 10
444.0208349999998
 20
449.9886007649912
 30
0.0
 11
445.6208349999998
 21
449.9886007649912
 31
0.0
  0
LINE
  5
6359
330
5FD6
100
AcDbEntity
  8
1
  6
Continuous
100
AcDbLine
 10
428.510886
 20
452.9886007649913
 30
0.0
 11
433.510886
 21
452.9886007649913
 31
0.0
  0
LINE
  5
635A
330
5FD6
100
AcDbEntity
  8
1
  6
Continuous
100
AcDbLine
 10
447.1208349999998
 20
448.0886007649911
 30
0.0
 11
447.1208349999998
 21
435.8886007649912
 31
0.0
  0
LINE
  5
635B
330
5FD6
100
AcDbEntity
  8
1
  6
Continuous
100
AcDbLine
 10
451.1208349999998
 20
446.9886007649913
 30
0.0
 11
451.1208349999998
 21
436.9886007649912
 31
0.0
  0
LINE
  5
635C
330
5FD6
100
AcDbEntity
  8
1
  6
Continuous
100
AcDbLine
 10
451.1208349999998
 20
446.9886007649913
 30
0.0
 11
447.1208349999998
 21
446.9886007649913
 31
0.0
  0
LINE
  5
635D
330
5FD6
100
AcDbEntity
  8
1
  6
Continuous
100
AcDbLine
 10
451.1208349999998
 20
436.9886007649912
 30
0.0
 11
447.1208349999998
 21
436.9886007649912
 31
0.0
  0
LINE
  5
635E
330
5FD6
100
AcDbEntity
  8
1
  6
Continuous
100
AcDbLine
 10
450.5748349999998
 20
441.9886007649913
 30
0.0
 11
447.1208349999998
 21
441.9886007649913
 31
0.0
  0
ARC
  5
635F
330
5FD6
100
AcDbEntity
  8
1
  6
Continuous
100
AcDbCircle
 10
443.8998349999998
 20
444.4886007649913
 30
0.0
 40
7.220389999999997
100
AcDbArc
 50
339.7419999999998
 51
20.2576
  0
ARC
  5
6360
330
5FD6
100
AcDbEntity
  8
1
  6
Continuous
100
AcDbCircle
 10
443.8998349999998
 20
439.4886007649913
 30
0.0
 40
7.220389999999997
100
AcDbArc
 50
339.7419999999998
 51
20.2576
  0
LINE
  5
6361
330
5FD6
100
AcDbEntity
  8
1
  6
Continuous
100
AcDbLine
 10
397.5923620000001
 20
459.4886007649913
 30
0.0
 11
398.992362
 21
459.4886007649913
 31
0.0
  0
LINE
  5
6362
330
5FD6
100
AcDbEntity
  8
1
  6
Continuous
100
AcDbLine
 10
410.3645839999998
 20
459.4886007649913
 30
0.0
 11
417.3645839999998
 21
459.4886007649913
 31
0.0
  0
ARC
  5
6363
330
5FD6
100
AcDbEntity
  8
1
  6
Continuous
100
AcDbCircle
 10
312.270022
 20
295.9484287649913
 30
0.0
 40
0.5
100
AcDbArc
 50
149.1690669999998
 51
180.0
  0
ARC
  5
6364
330
5FD6
100
AcDbEntity
  8
1
  6
Continuous
100
AcDbCircle
 10
322.4554669999998
 20
310.0869237649912
 30
0.0
 40
2.0
100
AcDbArc
 50
90.0
 51
149.1690669999998
  0
LINE
  5
6365
330
5FD6
100
AcDbEntity
  8
1
  6
Continuous
100
AcDbLine
 10
311.840681
 20
267.9691657649913
 30
0.0
 11
320.7380999999998
 21
253.0619107649913
 31
0.0
  0
ARC
  5
6366
330
5FD6
100
AcDbEntity
  8
1
  6
Continuous
100
AcDbCircle
 10
322.4554669999998
 20
254.0869237649912
 30
0.0
 40
2.0
100
AcDbArc
 50
210.8309329999999
 51
270.0
  0
LINE
  5
6367
330
5FD6
100
AcDbEntity
  8
1
  6
Continuous
100
AcDbLine
 10
322.4554669999998
 20
252.0869237649912
 30
0.0
 11
327.3200219999998
 21
252.0869237649912
 31
0.0
  0
LINE
  5
6368
330
5FD6
100
AcDbEntity
  8
1
  6
Continuous
100
AcDbLine
 10
321.320022
 20
253.4404827649913
 30
0.0
 11
321.320022
 21
257.5245257649914
 31
0.0
  0
ARC
  5
6369
330
5FD6
100
AcDbEntity
  8
1
  6
Continuous
100
AcDbCircle
 10
312.270022
 20
268.2254187649913
 30
0.0
 40
0.5
100
AcDbArc
 50
180.0
 51
210.8309329999999
  0
LINE
  5
636A
330
5FD6
100
AcDbEntity
  8
4
  6
CENTER
100
AcDbLine
 10
588.851085
 20
282.0869237649913
 30
0.0
 11
657.6088539999998
 21
282.0869237649913
 31
0.0
  0
ARC
  5
636B
330
5FD6
100
AcDbEntity
  8
1
  6
Continuous
100
AcDbCircle
 10
755.7787369999998
 20
170.0869237649913
 30
0.0
 40
8.0
100
AcDbArc
 50
180.0
 51
270.0
  0
LINE
  5
636C
330
5FD6
100
AcDbEntity
  8
1
  6
Continuous
100
AcDbLine
 10
768.066716
 20
248.2256807649913
 30
0.0
 11
760.9336859999999
 21
163.9183117649912
 31
0.0
  0
ARC
  5
636D
330
5FD6
100
AcDbEntity
  8
1
  6
Continuous
100
AcDbCircle
 10
758.9408059999997
 20
164.0869237649913
 30
0.0
 40
2.0
100
AcDbArc
 50
270.0
 51
355.1638689999998
  0
LINE
  5
636E
330
5FD6
100
AcDbEntity
  8
1
  6
Continuous
100
AcDbLine
 10
758.9408059999997
 20
162.0869237649913
 30
0.0
 11
755.7787369999998
 21
162.0869237649913
 31
0.0
  0
LINE
  5
636F
330
5FD6
100
AcDbEntity
  8
4
  6
CENTER
100
AcDbLine
 10
774.378737
 20
282.0869237649913
 30
0.0
 11
685.2787369999997
 21
282.0869237649913
 31
0.0
  0
LINE
  5
6370
330
5FD6
100
AcDbEntity
  8
1
  6
Continuous
100
AcDbLine
 10
735.158078
 20
267.9691657649913
 30
0.0
 11
726.260659
 21
253.0619107649913
 31
0.0
  0
LINE
  5
6371
330
5FD6
100
AcDbEntity
  8
1
  6
Continuous
100
AcDbLine
 10
753.778737
 20
264.9435097649913
 30
0.0
 11
753.778737
 21
184.1579917649913
 31
0.0
  0
ARC
  5
6372
330
5FD6
100
AcDbEntity
  8
1
  6
Continuous
100
AcDbCircle
 10
568.7787369999997
 20
265.0869237649913
 30
0.0
 40
200.0
100
AcDbArc
 50
355.1638689999998
 51
0.0
  0
LINE
  5
6373
330
5FD6
100
AcDbEntity
  8
1
  6
Continuous
100
AcDbLine
 10
726.248202
 20
258.3764957649912
 30
0.0
 11
735.2171089999997
 21
271.7947817649914
 31
0.0
  0
LINE
  5
6374
330
5FD6
100
AcDbEntity
  8
1
  6
Continuous
100
AcDbLine
 10
725.6787369999997
 20
305.7973517649912
 30
0.0
 11
725.6787369999997
 21
258.3764957649912
 31
0.0
  0
LINE
  5
6375
330
5FD6
100
AcDbEntity
  8
1
  6
Continuous
100
AcDbLine
 10
716.1787369999998
 20
264.5869237649912
 30
0.0
 11
716.1787369999998
 21
258.0869237649912
 31
0.0
  0
LINE
  5
6376
330
5FD6
100
AcDbEntity
  8
1
  6
Continuous
100
AcDbLine
 10
719.6787369999997
 20
312.0869237649912
 30
0.0
 11
719.6787369999997
 21
252.0869237649912
 31
0.0
  0
LINE
  5
6377
330
5FD6
100
AcDbEntity
  8
1
  6
Continuous
100
AcDbLine
 10
721.6787369999997
 20
312.0869237649912
 30
0.0
 11
721.6787369999997
 21
252.0869237649912
 31
0.0
  0
ARC
  5
6378
330
5FD6
100
AcDbEntity
  8
1
  6
Continuous
100
AcDbCircle
 10
748.7787369999997
 20
184.1579917649913
 30
0.0
 40
5.0
100
AcDbArc
 50
315.0
 51
0.0
  0
ARC
  5
6379
330
5FD6
100
AcDbEntity
  8
1
  6
Continuous
100
AcDbCircle
 10
755.7787369999998
 20
172.7732157649913
 30
0.0
 40
8.0
100
AcDbArc
 50
135.0
 51
180.0
  0
LINE
  5
637A
330
5FD6
100
AcDbEntity
  8
1
  6
Continuous
100
AcDbLine
 10
750.121883
 20
178.4300697649913
 30
0.0
 11
752.3142709999997
 21
180.6224577649912
 31
0.0
  0
LINE
  5
637B
330
5FD6
100
AcDbEntity
  8
1
  6
Continuous
100
AcDbLine
 10
747.7787369999997
 20
172.7732157649913
 30
0.0
 11
747.7787369999997
 21
170.0869237649913
 31
0.0
  0
ARC
  5
637C
330
5FD6
100
AcDbEntity
  8
1
  6
Continuous
100
AcDbCircle
 10
724.5432929999997
 20
254.0869237649912
 30
0.0
 40
2.0
100
AcDbArc
 50
270.0
 51
329.1690669999999
  0
LINE
  5
637D
330
5FD6
100
AcDbEntity
  8
1
  6
Continuous
100
AcDbLine
 10
725.6787369999997
 20
253.4404827649913
 30
0.0
 11
725.6787369999997
 21
257.5245257649914
 31
0.0
  0
LINE
  5
637E
330
5FD6
100
AcDbEntity
  8
1
  6
Continuous
100
AcDbLine
 10
724.5432929999997
 20
252.0869237649912
 30
0.0
 11
719.6787369999997
 21
252.0869237649912
 31
0.0
  0
LINE
  5
637F
330
5FD6
100
AcDbEntity
  8
1
  6
Continuous
100
AcDbLine
 10
719.6787369999997
 20
258.0869237649912
 30
0.0
 11
716.1787369999998
 21
258.0869237649912
 31
0.0
  0
LINE
  5
6380
330
5FD6
100
AcDbEntity
  8
1
  6
Continuous
100
AcDbLine
 10
769.8787369999998
 20
268.0869237649913
 30
0.0
 11
769.3787369999999
 21
280.0869237649913
 31
0.0
  0
LINE
  5
6381
330
5FD6
100
AcDbEntity
  8
1
  6
Continuous
100
AcDbLine
 10
769.8787369999998
 20
268.0869237649913
 30
0.0
 11
769.3787369999999
 21
268.0869237649913
 31
0.0
  0
LINE
  5
6382
330
5FD6
100
AcDbEntity
  8
1
  6
Continuous
100
AcDbLine
 10
735.158078
 20
296.2046817649913
 30
0.0
 11
726.260659
 21
311.1119367649913
 31
0.0
  0
LINE
  5
6383
330
5FD6
100
AcDbEntity
  8
1
  6
Continuous
100
AcDbLine
 10
725.6787369999997
 20
310.7333637649912
 30
0.0
 11
725.6787369999997
 21
306.6493217649912
 31
0.0
  0
LINE
  5
6384
330
5FD6
100
AcDbEntity
  8
1
  6
Continuous
100
AcDbLine
 10
754.8194440000003
 20
295.1042917649914
 30
0.0
 11
735.867873
 21
292.2182657649912
 31
0.0
  0
LINE
  5
6385
330
5FD6
100
AcDbEntity
  8
1
  6
Continuous
100
AcDbLine
 10
735.2787369999997
 20
272.0869237649913
 30
0.0
 11
748.3139089999997
 21
270.9195947649912
 31
0.0
  0
LINE
  5
6386
330
5FD6
100
AcDbEntity
  8
1
  6
Continuous
100
AcDbLine
 10
754.230308
 20
298.9729497649913
 30
0.0
 11
735.2787369999997
 21
296.0869237649912
 31
0.0
  0
LINE
  5
6387
330
5FD6
100
AcDbEntity
  8
1
  6
Continuous
100
AcDbLine
 10
735.2787369999997
 20
268.0869237649913
 30
0.0
 11
752.1204849999996
 21
266.5787077649913
 31
0.0
  0
LINE
  5
6388
330
5FD6
100
AcDbEntity
  8
1
  6
Continuous
100
AcDbLine
 10
769.3787369999999
 20
298.0869237649912
 30
0.0
 11
769.3787369999999
 21
265.0869237649913
 31
0.0
  0
LINE
  5
6389
330
5FD6
100
AcDbEntity
  8
1
  6
Continuous
100
AcDbLine
 10
761.1787369999997
 20
299.0869237649913
 30
0.0
 11
761.1787369999997
 21
265.3869237649913
 31
0.0
  0
LINE
  5
638A
330
5FD6
100
AcDbEntity
  8
1
  6
Continuous
100
AcDbLine
 10
761.078737
 20
299.0869237649913
 30
0.0
 11
761.078737
 21
265.0869237649913
 31
0.0
  0
ARC
  5
638B
330
5FD6
100
AcDbEntity
  8
1
  6
Continuous
100
AcDbCircle
 10
747.7787369999997
 20
264.9435097649913
 30
0.0
 40
6.0
100
AcDbArc
 50
0.0
 51
84.88268499999998
  0
ARC
  5
638C
330
5FD6
100
AcDbEntity
  8
1
  6
Continuous
100
AcDbCircle
 10
761.478737
 20
265.3869237649913
 30
0.0
 40
0.3
100
AcDbArc
 50
180.0
 51
270.0
  0
LINE
  5
638D
330
5FD6
100
AcDbEntity
  8
1
  6
Continuous
100
AcDbLine
 10
769.3787369999999
 20
265.0869237649913
 30
0.0
 11
761.478737
 21
265.0869237649913
 31
0.0
  0
LINE
  5
638E
330
5FD6
100
AcDbEntity
  8
1
  6
Continuous
100
AcDbLine
 10
761.078737
 20
265.0869237649913
 30
0.0
 11
761.478737
 21
265.0869237649913
 31
0.0
  0
ARC
  5
638F
330
5FD6
100
AcDbEntity
  8
1
  6
Continuous
100
AcDbCircle
 10
750.7825549999998
 20
251.6384957649912
 30
0.0
 40
15.0
100
AcDbArc
 50
79.148036
 51
84.88268499999998
  0
ARC
  5
6390
330
5FD6
100
AcDbEntity
  8
1
  6
Continuous
100
AcDbCircle
 10
755.735795
 20
289.0869237649912
 30
0.0
 40
6.086740999999999
100
AcDbArc
 50
90.0
 51
98.65872100000002
  0
ARC
  5
6391
330
5FD6
100
AcDbEntity
  8
1
  6
Continuous
100
AcDbCircle
 10
755.735795
 20
289.0869237649912
 30
0.0
 40
10.0
100
AcDbArc
 50
90.0
 51
98.65872100000002
  0
ARC
  5
6392
330
5FD6
100
AcDbEntity
  8
1
  6
Continuous
100
AcDbCircle
 10
768.378737
 20
298.0869237649912
 30
0.0
 40
1.0
100
AcDbArc
 50
0.0
 51
90.0
  0
LINE
  5
6393
330
5FD6
100
AcDbEntity
  8
1
  6
Continuous
100
AcDbLine
 10
768.378737
 20
299.0869237649913
 30
0.0
 11
761.1787369999997
 21
299.0869237649913
 31
0.0
  0
LINE
  5
6394
330
5FD6
100
AcDbEntity
  8
1
  6
Continuous
100
AcDbLine
 10
761.078737
 20
295.1736647649913
 30
0.0
 11
755.735795
 21
295.1736647649913
 31
0.0
  0
LINE
  5
6395
330
5FD6
100
AcDbEntity
  8
1
  6
Continuous
100
AcDbLine
 10
761.1787369999997
 20
294.6924207649913
 30
0.0
 11
761.078737
 21
294.6924207649913
 31
0.0
  0
LINE
  5
6396
330
5FD6
100
AcDbEntity
  8
1
  6
Continuous
100
AcDbLine
 10
761.1787369999997
 20
296.7512427649913
 30
0.0
 11
761.078737
 21
296.7512427649913
 31
0.0
  0
LINE
  5
6397
330
5FD6
100
AcDbEntity
  8
1
  6
Continuous
100
AcDbLine
 10
761.1787369999997
 20
297.1568217649913
 30
0.0
 11
761.078737
 21
297.1568217649913
 31
0.0
  0
LINE
  5
6398
330
5FD6
100
AcDbEntity
  8
1
  6
Continuous
100
AcDbLine
 10
761.078737
 20
299.0869237649913
 30
0.0
 11
755.735795
 21
299.0869237649913
 31
0.0
  0
LINE
  5
6399
330
5FD6
100
AcDbEntity
  8
1
  6
Continuous
100
AcDbLine
 10
761.1787369999997
 20
297.4869237649913
 30
0.0
 11
761.078737
 21
297.4869237649913
 31
0.0
  0
LINE
  5
639A
330
5FD6
100
AcDbEntity
  8
1
  6
Continuous
100
AcDbLine
 10
735.2787369999997
 20
268.0869237649913
 30
0.0
 11
735.2787369999997
 21
296.0869237649912
 31
0.0
  0
LINE
  5
639B
330
5FD6
100
AcDbEntity
  8
1
  6
Continuous
100
AcDbLine
 10
735.2287369999997
 20
268.2254157649913
 30
0.0
 11
735.2287369999997
 21
295.9484287649913
 31
0.0
  0
ARC
  5
639C
330
5FD6
100
AcDbEntity
  8
1
  6
Continuous
100
AcDbCircle
 10
734.728737
 20
268.2254187649913
 30
0.0
 40
0.5
100
AcDbArc
 50
329.1690669999999
 51
0.0
  0
LINE
  5
639D
330
5FD6
100
AcDbEntity
  8
1
  6
Continuous
100
AcDbLine
 10
735.2787369999997
 20
272.0869237649913
 30
0.0
 11
735.2287369999997
 21
272.0869237649913
 31
0.0
  0
LINE
  5
639E
330
5FD6
100
AcDbEntity
  8
1
  6
Continuous
100
AcDbLine
 10
719.6787369999997
 20
264.5869237649912
 30
0.0
 11
716.1787369999998
 21
264.5869237649912
 31
0.0
  0
ARC
  5
639F
330
5FD6
100
AcDbEntity
  8
1
  6
Continuous
100
AcDbCircle
 10
734.728737
 20
295.9484287649913
 30
0.0
 40
0.5
100
AcDbArc
 50
0.0
 51
30.830933
  0
LINE
  5
63A0
330
5FD6
100
AcDbEntity
  8
1
  6
Continuous
100
AcDbLine
 10
735.2787369999997
 20
291.7563347649913
 30
0.0
 11
735.2287369999997
 21
291.7563347649913
 31
0.0
  0
LINE
  5
63A1
330
5FD6
100
AcDbEntity
  8
1
  6
Continuous
100
AcDbLine
 10
735.2787369999997
 20
294.5869237649913
 30
0.0
 11
735.2287369999997
 21
294.5869237649913
 31
0.0
  0
LINE
  5
63A2
330
5FD6
100
AcDbEntity
  8
1
  6
Continuous
100
AcDbLine
 10
726.248202
 20
305.7973517649912
 30
0.0
 11
735.2171089999997
 21
292.3790657649912
 31
0.0
  0
LINE
  5
63A3
330
5FD6
100
AcDbEntity
  8
1
  6
Continuous
100
AcDbLine
 10
716.1787369999998
 20
306.0869237649912
 30
0.0
 11
716.1787369999998
 21
299.5869237649912
 31
0.0
  0
LINE
  5
63A4
330
5FD6
100
AcDbEntity
  8
1
  6
Continuous
100
AcDbLine
 10
719.6787369999997
 20
299.5869237649912
 30
0.0
 11
716.1787369999998
 21
299.5869237649912
 31
0.0
  0
LINE
  5
63A5
330
5FD6
100
AcDbEntity
  8
1
  6
Continuous
100
AcDbLine
 10
719.6787369999997
 20
306.0869237649912
 30
0.0
 11
716.1787369999998
 21
306.0869237649912
 31
0.0
  0
ARC
  5
63A6
330
5FD6
100
AcDbEntity
  8
1
  6
Continuous
100
AcDbCircle
 10
724.5432929999997
 20
310.0869237649912
 30
0.0
 40
2.0
100
AcDbArc
 50
30.830933
 51
90.0
  0
LINE
  5
63A7
330
5FD6
100
AcDbEntity
  8
1
  6
Continuous
100
AcDbLine
 10
724.5432929999997
 20
312.0869237649912
 30
0.0
 11
719.6787369999997
 21
312.0869237649912
 31
0.0
  0
LINE
  5
63A8
330
5FD6
100
AcDbEntity
  8
1
  6
Continuous
100
AcDbLine
 10
629.634175
 20
266.0869237649913
 30
0.0
 11
630.762175
 21
261.8799237649912
 31
0.0
  0
LINE
  5
63A9
330
5FD6
100
AcDbEntity
  8
1
  6
Continuous
100
AcDbLine
 10
636.634175
 20
266.0869237649913
 30
0.0
 11
635.5071749999997
 21
261.8799237649912
 31
0.0
  0
LINE
  5
63AA
330
5FD6
100
AcDbEntity
  8
1
  6
Continuous
100
AcDbLine
 10
635.5071749999997
 20
261.8799237649912
 30
0.0
 11
630.762175
 21
261.8799237649912
 31
0.0
  0
LINE
  5
63AB
330
5FD6
100
AcDbEntity
  8
1
  6
Continuous
100
AcDbLine
 10
648.0063969999998
 20
299.5869237649912
 30
0.0
 11
648.0063969999998
 21
264.5869237649912
 31
0.0
  0
LINE
  5
63AC
330
5FD6
100
AcDbEntity
  8
1
  6
Continuous
100
AcDbLine
 10
649.406397
 20
299.5869237649912
 30
0.0
 11
649.406397
 21
264.5869237649912
 31
0.0
  0
ARC
  5
63AD
330
5FD6
100
AcDbEntity
  8
1
  6
Continuous
100
AcDbCircle
 10
675.4741749999998
 20
282.0869237649913
 30
0.0
 40
45.8402
100
AcDbArc
 50
167.2668999999999
 51
192.7329999999998
  0
ARC
  5
63AE
330
5FD6
100
AcDbEntity
  8
1
  6
Continuous
100
AcDbCircle
 10
590.7941749999999
 20
282.0869237649913
 30
0.0
 40
45.8402
100
AcDbArc
 50
347.2669999999998
 51
12.73299999999998
  0
LINE
  5
63AF
330
5FD6
100
AcDbEntity
  8
1
  6
Continuous
100
AcDbLine
 10
628.134175
 20
298.0869237649912
 30
0.0
 11
628.134175
 21
266.0869237649913
 31
0.0
  0
LINE
  5
63B0
330
5FD6
100
AcDbEntity
  8
1
  6
Continuous
100
AcDbLine
 10
629.634175
 20
298.0869237649912
 30
0.0
 11
629.634175
 21
266.0869237649913
 31
0.0
  0
LINE
  5
63B1
330
5FD6
100
AcDbEntity
  8
1
  6
Continuous
100
AcDbLine
 10
638.134175
 20
298.0869237649912
 30
0.0
 11
638.134175
 21
266.0869237649913
 31
0.0
  0
LINE
  5
63B2
330
5FD6
100
AcDbEntity
  8
1
  6
Continuous
100
AcDbLine
 10
636.634175
 20
298.0869237649912
 30
0.0
 11
636.634175
 21
266.0869237649913
 31
0.0
  0
LINE
  5
63B3
330
5FD6
100
AcDbEntity
  8
1
  6
Continuous
100
AcDbLine
 10
638.134175
 20
266.0869237649913
 30
0.0
 11
636.634175
 21
266.0869237649913
 31
0.0
  0
LINE
  5
63B4
330
5FD6
100
AcDbEntity
  8
1
  6
Continuous
100
AcDbLine
 10
648.0063969999998
 20
282.3768737649913
 30
0.0
 11
647.7063969999997
 21
282.0768737649913
 31
0.0
  0
LINE
  5
63B5
330
5FD6
100
AcDbEntity
  8
1
  6
Continuous
100
AcDbLine
 10
647.7063969999997
 20
275.3274137649913
 30
0.0
 11
648.0063969999998
 21
275.6274237649912
 31
0.0
  0
LINE
  5
63B6
330
5FD6
100
AcDbEntity
  8
1
  6
Continuous
100
AcDbLine
 10
647.7063969999997
 20
282.0768737649913
 30
0.0
 11
648.0063969999998
 21
281.7768737649913
 31
0.0
  0
LINE
  5
63B7
330
5FD6
100
AcDbEntity
  8
1
  6
Continuous
100
AcDbLine
 10
649.7063969999998
 20
282.0969537649912
 30
0.0
 11
649.406397
 21
282.3969537649912
 31
0.0
  0
LINE
  5
63B8
330
5FD6
100
AcDbEntity
  8
1
  6
Continuous
100
AcDbLine
 10
649.7063969999998
 20
275.3274137649913
 30
0.0
 11
649.406397
 21
275.6274237649912
 31
0.0
  0
LINE
  5
63B9
330
5FD6
100
AcDbEntity
  8
1
  6
Continuous
100
AcDbLine
 10
649.7063969999998
 20
282.0969537649912
 30
0.0
 11
649.406397
 21
281.7969537649913
 31
0.0
  0
LINE
  5
63BA
330
5FD6
100
AcDbEntity
  8
1
  6
Continuous
100
AcDbLine
 10
648.0063969999998
 20
271.1497737649913
 30
0.0
 11
647.7063969999997
 21
271.1497737649913
 31
0.0
  0
LINE
  5
63BB
330
5FD6
100
AcDbEntity
  8
1
  6
Continuous
100
AcDbLine
 10
649.406397
 20
271.1497737649913
 30
0.0
 11
649.7063969999998
 21
271.1497737649913
 31
0.0
  0
LINE
  5
63BC
330
5FD6
100
AcDbEntity
  8
1
  6
Continuous
100
AcDbLine
 10
649.406397
 20
264.5869237649912
 30
0.0
 11
648.0063969999998
 21
264.5869237649912
 31
0.0
  0
LINE
  5
63BD
330
5FD6
100
AcDbEntity
  8
1
  6
Continuous
100
AcDbLine
 10
647.7063969999997
 20
271.1497737649913
 30
0.0
 11
648.0063969999998
 21
269.9916237649913
 31
0.0
  0
LINE
  5
63BE
330
5FD6
100
AcDbEntity
  8
1
  6
Continuous
100
AcDbLine
 10
649.7063969999998
 20
271.1497737649913
 30
0.0
 11
649.406397
 21
269.9916237649913
 31
0.0
  0
LINE
  5
63BF
330
5FD6
100
AcDbEntity
  8
1
  6
Continuous
100
AcDbLine
 10
648.0063969999998
 20
275.0274137649913
 30
0.0
 11
647.7063969999997
 21
275.3274137649913
 31
0.0
  0
LINE
  5
63C0
330
5FD6
100
AcDbEntity
  8
1
  6
Continuous
100
AcDbLine
 10
649.7063969999998
 20
275.3274137649913
 30
0.0
 11
649.406397
 21
275.0274137649913
 31
0.0
  0
ARC
  5
63C1
330
5FD6
100
AcDbEntity
  8
1
  6
Continuous
100
AcDbCircle
 10
641.201175
 20
266.9319237649913
 30
0.0
 40
11.5972
100
AcDbArc
 50
154.1762
 51
184.1759999999999
  0
ARC
  5
63C2
330
5FD6
100
AcDbEntity
  8
1
  6
Continuous
100
AcDbCircle
 10
625.068175
 20
266.9319237649913
 30
0.0
 40
11.5972
100
AcDbArc
 50
355.824
 51
25.824
  0
LINE
  5
63C3
330
5FD6
100
AcDbEntity
  8
1
  6
Continuous
100
AcDbLine
 10
635.5071749999997
 20
271.9829237649913
 30
0.0
 11
630.762175
 21
271.9829237649913
 31
0.0
  0
LINE
  5
63C4
330
5FD6
100
AcDbEntity
  8
1
  6
Continuous
100
AcDbLine
 10
628.134175
 20
266.0869237649913
 30
0.0
 11
629.634175
 21
266.0869237649913
 31
0.0
  0
LINE
  5
63C5
330
5FD6
100
AcDbEntity
  8
1
  6
Continuous
100
AcDbLine
 10
638.134175
 20
298.0869237649912
 30
0.0
 11
636.634175
 21
298.0869237649912
 31
0.0
  0
LINE
  5
63C6
330
5FD6
100
AcDbEntity
  8
1
  6
Continuous
100
AcDbLine
 10
649.406397
 20
299.5869237649912
 30
0.0
 11
648.0063969999998
 21
299.5869237649912
 31
0.0
  0
LINE
  5
63C7
330
5FD6
100
AcDbEntity
  8
1
  6
Continuous
100
AcDbLine
 10
648.0063969999998
 20
293.0240737649913
 30
0.0
 11
647.7063969999997
 21
293.0240737649913
 31
0.0
  0
LINE
  5
63C8
330
5FD6
100
AcDbEntity
  8
1
  6
Continuous
100
AcDbLine
 10
647.7063969999997
 20
293.0240737649913
 30
0.0
 11
648.0063969999998
 21
294.1822237649913
 31
0.0
  0
LINE
  5
63C9
330
5FD6
100
AcDbEntity
  8
1
  6
Continuous
100
AcDbLine
 10
649.406397
 20
293.0240737649913
 30
0.0
 11
649.7063969999998
 21
293.0240737649913
 31
0.0
  0
LINE
  5
63CA
330
5FD6
100
AcDbEntity
  8
1
  6
Continuous
100
AcDbLine
 10
649.7063969999998
 20
293.0240737649913
 30
0.0
 11
649.406397
 21
294.1822237649913
 31
0.0
  0
LINE
  5
63DB
330
5FD6
100
AcDbEntity
  8
1
  6
Continuous
100
AcDbLine
 10
635.5071749999997
 20
302.2939237649913
 30
0.0
 11
630.762175
 21
302.2939237649913
 31
0.0
  0
LINE
  5
63DC
330
5FD6
100
AcDbEntity
  8
1
  6
Continuous
100
AcDbLine
 10
629.634175
 20
298.0869237649912
 30
0.0
 11
630.762175
 21
302.2939237649913
 31
0.0
  0
LINE
  5
63DD
330
5FD6
100
AcDbEntity
  8
1
  6
Continuous
100
AcDbLine
 10
628.134175
 20
298.0869237649912
 30
0.0
 11
629.634175
 21
298.0869237649912
 31
0.0
  0
LINE
  5
63DE
330
5FD6
100
AcDbEntity
  8
1
  6
Continuous
100
AcDbLine
 10
636.634175
 20
298.0869237649912
 30
0.0
 11
635.5071749999997
 21
302.2939237649913
 31
0.0
  0
LINE
  5
63DF
330
5FD6
100
AcDbEntity
  8
1
  6
Continuous
100
AcDbLine
 10
635.5071749999997
 20
292.1909237649914
 30
0.0
 11
630.762175
 21
292.1909237649914
 31
0.0
  0
ARC
  5
63E0
330
5FD6
100
AcDbEntity
  8
1
  6
Continuous
100
AcDbCircle
 10
641.201175
 20
297.2429237649912
 30
0.0
 40
11.5972
100
AcDbArc
 50
175.82378
 51
205.824
  0
ARC
  5
63E1
330
5FD6
100
AcDbEntity
  8
1
  6
Continuous
100
AcDbCircle
 10
625.068175
 20
297.2429237649912
 30
0.0
 40
11.5972
100
AcDbArc
 50
334.1759999999998
 51
4.176
  0
LINE
  5
63E2
330
5FD6
100
AcDbEntity
  8
1
  6
Continuous
100
AcDbLine
 10
599.877925
 20
276.3134207649913
 30
0.0
 11
599.877925
 21
287.8604267649912
 31
0.0
  0
LINE
  5
63E3
330
5FD6
100
AcDbEntity
  8
1
  6
Continuous
100
AcDbLine
 10
599.877925
 20
275.9869237649914
 30
0.0
 11
599.877925
 21
288.1869237649912
 31
0.0
  0
ARC
  5
63E4
330
5FD6
100
AcDbEntity
  8
1
  6
Continuous
100
AcDbCircle
 10
598.0423029999998
 20
286.4170507649912
 30
0.0
 40
2.164377999999997
100
AcDbArc
 50
180.0
 51
221.8265479999999
  0
LINE
  5
63E5
330
5FD6
100
AcDbEntity
  8
1
  6
Continuous
100
AcDbLine
 10
595.877925
 20
277.1869237649913
 30
0.0
 11
595.877925
 21
286.9869237649913
 31
0.0
  0
LINE
  5
63E6
330
5FD6
100
AcDbEntity
  8
1
  6
Continuous
100
AcDbLine
 10
601.3779249999998
 20
290.0869237649913
 30
0.0
 11
601.3779249999998
 21
274.0869237649913
 31
0.0
  0
LINE
  5
63E7
330
5FD6
100
AcDbEntity
  8
1
  6
Continuous
100
AcDbLine
 10
602.977925
 20
290.0869237649913
 30
0.0
 11
602.977925
 21
274.0869237649913
 31
0.0
  0
ARC
  5
63E8
330
5FD6
100
AcDbEntity
  8
1
  6
Continuous
100
AcDbCircle
 10
597.7135469999998
 20
286.4170507649912
 30
0.0
 40
2.164377999999997
100
AcDbArc
 50
318.173452
 51
0.0
  0
LINE
  5
63E9
330
5FD6
100
AcDbEntity
  8
1
  6
Continuous
100
AcDbLine
 10
618.487873
 20
271.0869237649912
 30
0.0
 11
618.487873
 21
293.0869237649913
 31
0.0
  0
LINE
  5
63EA
330
5FD6
100
AcDbEntity
  8
1
  6
Continuous
100
AcDbLine
 10
616.487873
 20
271.0869237649912
 30
0.0
 11
616.487873
 21
293.0869237649913
 31
0.0
  0
LINE
  5
63EB
330
5FD6
100
AcDbEntity
  8
1
  6
Continuous
100
AcDbLine
 10
613.487873
 20
271.0869237649912
 30
0.0
 11
613.487873
 21
293.0869237649913
 31
0.0
  0
LINE
  5
63EC
330
5FD6
100
AcDbEntity
  8
1
  6
Continuous
100
AcDbLine
 10
616.487873
 20
271.0869237649912
 30
0.0
 11
618.487873
 21
271.0869237649912
 31
0.0
  0
LINE
  5
63ED
330
5FD6
100
AcDbEntity
  8
1
  6
Continuous
100
AcDbLine
 10
613.487873
 20
271.0869237649912
 30
0.0
 11
616.487873
 21
271.0869237649912
 31
0.0
  0
LINE
  5
63EE
330
5FD6
100
AcDbEntity
  8
1
  6
Continuous
100
AcDbLine
 10
599.877925
 20
282.0908807649913
 30
0.0
 11
601.3779249999998
 21
283.5908807649912
 31
0.0
  0
LINE
  5
63EF
330
5FD6
100
AcDbEntity
  8
1
  6
Continuous
100
AcDbLine
 10
599.877925
 20
280.5869237649913
 30
0.0
 11
601.3779249999998
 21
282.0869237649913
 31
0.0
  0
LINE
  5
63F0
330
5FD6
100
AcDbEntity
  8
1
  6
Continuous
100
AcDbLine
 10
599.877925
 20
275.9869237649914
 30
0.0
 11
601.3779249999998
 21
275.9869237649914
 31
0.0
  0
ARC
  5
63F1
330
5FD6
100
AcDbEntity
  8
1
  6
Continuous
100
AcDbCircle
 10
598.0423029999998
 20
277.7567967649912
 30
0.0
 40
2.164377999999997
100
AcDbArc
 50
138.1734519999999
 51
180.0
  0
ARC
  5
63F2
330
5FD6
100
AcDbEntity
  8
1
  6
Continuous
100
AcDbCircle
 10
603.7081049999998
 20
282.0869237649913
 30
0.0
 40
7.83018
100
AcDbArc
 50
158.366392
 51
201.633608
  0
LINE
  5
63F3
330
5FD6
100
AcDbEntity
  8
1
  6
Continuous
100
AcDbLine
 10
596.382242
 20
276.3134207649913
 30
0.0
 11
595.877925
 21
277.1869237649913
 31
0.0
  0
LINE
  5
63F4
330
5FD6
100
AcDbEntity
  8
1
  6
Continuous
100
AcDbLine
 10
596.42948
 20
284.9736747649913
 30
0.0
 11
599.3263709999999
 21
284.9736747649913
 31
0.0
  0
LINE
  5
63F5
330
5FD6
100
AcDbEntity
  8
1
  6
Continuous
100
AcDbLine
 10
596.42948
 20
279.2001727649913
 30
0.0
 11
599.3263709999999
 21
279.2001727649913
 31
0.0
  0
LINE
  5
63F6
330
5FD6
100
AcDbEntity
  8
1
  6
Continuous
100
AcDbLine
 10
596.382242
 20
276.3134207649913
 30
0.0
 11
599.3736079999997
 21
276.3134207649913
 31
0.0
  0
LINE
  5
63F7
330
5FD6
100
AcDbEntity
  8
1
  6
Continuous
100
AcDbLine
 10
602.977925
 20
274.0869237649913
 30
0.0
 11
601.3779249999998
 21
274.0869237649913
 31
0.0
  0
LINE
  5
63F8
330
5FD6
100
AcDbEntity
  8
1
  6
Continuous
100
AcDbLine
 10
599.3736079999997
 20
276.3134207649913
 30
0.0
 11
599.877925
 21
277.1869237649913
 31
0.0
  0
ARC
  5
63F9
330
5FD6
100
AcDbEntity
  8
1
  6
Continuous
100
AcDbCircle
 10
597.7135469999998
 20
277.7567967649912
 30
0.0
 40
2.164377999999997
100
AcDbArc
 50
0.0
 51
41.82654799999999
  0
ARC
  5
63FA
330
5FD6
100
AcDbEntity
  8
1
  6
Continuous
100
AcDbCircle
 10
592.0477459999997
 20
282.0869237649913
 30
0.0
 40
7.83018
100
AcDbArc
 50
338.366392
 51
21.63360799999999
  0
LINE
  5
63FB
330
5FD6
100
AcDbEntity
  8
1
  6
Continuous
100
AcDbLine
 10
616.487873
 20
293.0869237649913
 30
0.0
 11
618.487873
 21
293.0869237649913
 31
0.0
  0
LINE
  5
63FC
330
5FD6
100
AcDbEntity
  8
1
  6
Continuous
100
AcDbLine
 10
613.487873
 20
293.0869237649913
 30
0.0
 11
616.487873
 21
293.0869237649913
 31
0.0
  0
LINE
  5
63FD
330
5FD6
100
AcDbEntity
  8
1
  6
Continuous
100
AcDbLine
 10
599.877925
 20
288.1869237649912
 30
0.0
 11
601.3779249999998
 21
288.1869237649912
 31
0.0
  0
LINE
  5
63FE
330
5FD6
100
AcDbEntity
  8
1
  6
Continuous
100
AcDbLine
 10
596.382242
 20
287.8604267649912
 30
0.0
 11
595.877925
 21
286.9869237649913
 31
0.0
  0
LINE
  5
63FF
330
5FD6
100
AcDbEntity
  8
1
  6
Continuous
100
AcDbLine
 10
596.382242
 20
287.8604267649912
 30
0.0
 11
599.3736079999997
 21
287.8604267649912
 31
0.0
  0
LINE
  5
6400
330
5FD6
100
AcDbEntity
  8
1
  6
Continuous
100
AcDbLine
 10
602.977925
 20
290.0869237649913
 30
0.0
 11
601.3779249999998
 21
290.0869237649913
 31
0.0
  0
LINE
  5
6401
330
5FD6
100
AcDbEntity
  8
1
  6
Continuous
100
AcDbLine
 10
599.3736079999997
 20
287.8604267649912
 30
0.0
 11
599.877925
 21
286.9869237649913
 31
0.0
  0
LINE
  5
6402
330
5FD6
100
AcDbEntity
  8
1
  6
Continuous
100
AcDbLine
 10
325.320022
 20
471.9886007649913
 30
0.0
 11
325.320022
 21
411.9886007649912
 31
0.0
  0
LINE
  5
6403
330
5FD6
100
AcDbEntity
  8
1
  6
Continuous
100
AcDbLine
 10
321.320022
 20
469.9886007649912
 30
0.0
 11
321.320022
 21
413.9886007649913
 31
0.0
  0
LINE
  5
6404
330
5FD6
100
AcDbEntity
  8
1
  6
Continuous
100
AcDbLine
 10
311.7700219999999
 20
429.0794317649911
 30
0.0
 11
311.7700219999999
 21
454.8977687649911
 31
0.0
  0
LINE
  5
6405
330
5FD6
100
AcDbEntity
  8
1
  6
Continuous
100
AcDbLine
 10
311.7200219999999
 20
428.4886007649912
 30
0.0
 11
311.7200219999999
 21
455.4886007649913
 31
0.0
  0
LINE
  5
6406
330
5FD6
100
AcDbEntity
  8
1
  6
Continuous
100
AcDbLine
 10
327.3200219999998
 20
471.9886007649913
 30
0.0
 11
327.3200219999998
 21
411.9886007649912
 31
0.0
  0
LINE
  5
6407
330
5FD6
100
AcDbEntity
  8
1
  6
Continuous
100
AcDbLine
 10
356.420022
 20
448.8646937649911
 30
0.0
 11
348.7200219999999
 21
448.8646937649911
 31
0.0
  0
LINE
  5
6408
330
5FD6
100
AcDbEntity
  8
1
  6
Continuous
100
AcDbLine
 10
356.420022
 20
435.1125077649912
 30
0.0
 11
348.7200219999999
 21
435.1125077649912
 31
0.0
  0
LINE
  5
6409
330
5FD6
100
AcDbEntity
  8
1
  6
Continuous
100
AcDbLine
 10
356.7200219999999
 20
441.9886007649913
 30
0.0
 11
348.7200219999999
 21
441.9886007649913
 31
0.0
  0
LINE
  5
640A
330
5FD6
100
AcDbEntity
  8
2
  6
Continuous
100
AcDbLine
 10
348.7200219999999
 20
441.9886007649913
 30
0.0
 11
356.420022
 21
435.1125077649912
 31
0.0
  0
LINE
  5
640B
330
5FD6
100
AcDbEntity
  8
2
  6
Continuous
100
AcDbLine
 10
348.7200219999999
 20
435.1125077649912
 30
0.0
 11
356.420022
 21
441.9886007649913
 31
0.0
  0
LINE
  5
640C
330
5FD6
100
AcDbEntity
  8
2
  6
Continuous
100
AcDbLine
 10
356.420022
 20
448.8646937649911
 30
0.0
 11
348.7200219999999
 21
441.9886007649913
 31
0.0
  0
LINE
  5
640D
330
5FD6
100
AcDbEntity
  8
2
  6
Continuous
100
AcDbLine
 10
356.420022
 20
441.9886007649913
 30
0.0
 11
348.7200219999999
 21
448.8646937649911
 31
0.0
  0
LINE
  5
640E
330
5FD6
100
AcDbEntity
  8
1
  6
Continuous
100
AcDbLine
 10
348.670022
 20
451.4886007649913
 30
0.0
 11
348.670022
 21
432.4886007649912
 31
0.0
  0
LINE
  5
640F
330
5FD6
100
AcDbEntity
  8
1
  6
Continuous
100
AcDbLine
 10
348.7200219999999
 20
449.7386007649913
 30
0.0
 11
348.7200219999999
 21
434.2386007649913
 31
0.0
  0
LINE
  5
6410
330
5FD6
100
AcDbEntity
  8
1
  6
Continuous
100
AcDbLine
 10
327.3200219999998
 20
430.9886007649914
 30
0.0
 11
347.170022
 21
430.9886007649913
 31
0.0
  0
ARC
  5
6411
330
5FD6
100
AcDbEntity
  8
1
  6
Continuous
100
AcDbCircle
 10
348.5200219999999
 20
434.2386007649913
 30
0.0
 40
0.2
100
AcDbArc
 50
318.5903779999998
 51
0.0
  0
LINE
  5
6412
330
5FD6
100
AcDbEntity
  8
1
  6
Continuous
100
AcDbLine
 10
327.3200219999998
 20
452.9886007649913
 30
0.0
 11
347.170022
 21
452.9886007649913
 31
0.0
  0
LINE
  5
6413
330
5FD6
100
AcDbEntity
  8
1
  6
Continuous
100
AcDbLine
 10
327.3200219999998
 20
445.9886007649911
 30
0.0
 11
330.8200219999998
 21
445.9886007649912
 31
0.0
  0
LINE
  5
6414
330
5FD6
100
AcDbEntity
  8
1
  6
Continuous
100
AcDbLine
 10
330.8200219999998
 20
445.9886007649912
 30
0.0
 11
330.8200219999998
 21
437.9886007649913
 31
0.0
  0
ARC
  5
6415
330
5FD6
100
AcDbEntity
  8
1
  6
Continuous
100
AcDbCircle
 10
348.5200219999999
 20
449.7386007649913
 30
0.0
 40
0.2
100
AcDbArc
 50
0.0
 51
41.40962199999999
  0
LINE
  5
6416
330
5FD6
100
AcDbEntity
  8
1
  6
Continuous
100
AcDbLine
 10
356.7200219999999
 20
448.5646937649913
 30
0.0
 11
356.7200219999999
 21
435.4125077649912
 31
0.0
  0
ARC
  5
6417
330
5FD6
100
AcDbEntity
  8
1
  6
Continuous
100
AcDbCircle
 10
356.420022
 20
435.4125077649912
 30
0.0
 40
0.3
100
AcDbArc
 50
270.0
 51
0.0
  0
ARC
  5
6418
330
5FD6
100
AcDbEntity
  8
1
  6
Continuous
100
AcDbCircle
 10
356.420022
 20
448.5646937649913
 30
0.0
 40
0.3
100
AcDbArc
 50
0.0
 51
90.0
  0
LINE
  5
6419
330
5FD6
100
AcDbEntity
  8
1
  6
Continuous
100
AcDbLine
 10
327.3200219999998
 20
437.9886007649911
 30
0.0
 11
330.8200219999998
 21
437.9886007649913
 31
0.0
  0
LINE
  5
641A
330
5FD6
100
AcDbEntity
  8
1
  6
Continuous
100
AcDbLine
 10
323.320022
 20
471.9886007649913
 30
0.0
 11
327.3200219999998
 21
471.9886007649913
 31
0.0
  0
LINE
  5
641B
330
5FD6
100
AcDbEntity
  8
1
  6
Continuous
100
AcDbLine
 10
323.320022
 20
411.9886007649912
 30
0.0
 11
327.3200219999998
 21
411.9886007649913
 31
0.0
  0
ARC
  5
641C
330
5FD6
100
AcDbEntity
  8
1
  6
Continuous
100
AcDbCircle
 10
323.320022
 20
413.9886007649913
 30
0.0
 40
2.0
100
AcDbArc
 50
180.0
 51
270.0
  0
ARC
  5
641D
330
5FD6
100
AcDbEntity
  8
1
  6
Continuous
100
AcDbCircle
 10
323.320022
 20
469.9886007649912
 30
0.0
 40
2.0
100
AcDbArc
 50
90.0
 51
180.0
  0
LINE
  5
641E
330
5FD6
100
AcDbEntity
  8
1
  6
Continuous
100
AcDbLine
 10
312.0872719999999
 20
455.3631747649912
 30
0.0
 11
320.0510259999999
 21
458.4903027649911
 31
0.0
  0
LINE
  5
641F
330
5FD6
100
AcDbEntity
  8
1
  6
Continuous
100
AcDbLine
 10
312.0872719999999
 20
428.6140257649913
 30
0.0
 11
320.0510259999999
 21
425.4868977649913
 31
0.0
  0
ARC
  5
6420
330
5FD6
100
AcDbEntity
  8
1
  6
Continuous
100
AcDbCircle
 10
319.320022
 20
460.3519247649914
 30
0.0
 40
2.0
100
AcDbArc
 50
291.4384549999999
 51
0.0
  0
ARC
  5
6421
330
5FD6
100
AcDbEntity
  8
1
  6
Continuous
100
AcDbCircle
 10
319.320022
 20
423.6252757649912
 30
0.0
 40
2.0
100
AcDbArc
 50
0.0
 51
68.56154499999999
  0
ARC
  5
6422
330
5FD6
100
AcDbEntity
  8
1
  6
Continuous
100
AcDbCircle
 10
312.270022
 20
454.8977687649911
 30
0.0
 40
0.5
100
AcDbArc
 50
111.438455
 51
180.0
  0
ARC
  5
6423
330
5FD6
100
AcDbEntity
  8
1
  6
Continuous
100
AcDbCircle
 10
312.270022
 20
429.0794317649911
 30
0.0
 40
0.5
100
AcDbArc
 50
180.0
 51
248.561545
  0
LINE
  5
6424
330
5FD6
100
AcDbEntity
  8
1
  6
Continuous
100
AcDbLine
 10
280.459377
 20
455.4886007649913
 30
0.0
 11
311.7200219999999
 21
455.4886007649913
 31
0.0
  0
LINE
  5
6425
330
5FD6
100
AcDbEntity
  8
1
  6
Continuous
100
AcDbLine
 10
280.459377
 20
428.4886007649912
 30
0.0
 11
311.7200219999999
 21
428.4886007649912
 31
0.0
  0
LINE
  5
6426
330
5FD6
100
AcDbEntity
  8
1
  6
Continuous
100
AcDbLine
 10
285.820022
 20
455.4886007649913
 30
0.0
 11
285.820022
 21
428.4886007649912
 31
0.0
  0
LINE
  5
6427
330
5FD6
100
AcDbEntity
  8
1
  6
Continuous
100
AcDbLine
 10
285.920022
 20
455.4886007649913
 30
0.0
 11
285.920022
 21
428.4886007649912
 31
0.0
  0
LINE
  5
6428
330
5FD6
100
AcDbEntity
  8
1
  6
Continuous
100
AcDbLine
 10
277.6468879999999
 20
449.9886007649912
 30
0.0
 11
278.1512809999999
 21
449.9886007649912
 31
0.0
  0
LINE
  5
6429
330
5FD6
100
AcDbEntity
  8
1
  6
Continuous
100
AcDbLine
 10
277.6468879999999
 20
433.9886007649913
 30
0.0
 11
278.1512809999999
 21
433.9886007649913
 31
0.0
  0
ARC
  5
642A
330
5FD6
100
AcDbEntity
  8
1
  6
Continuous
100
AcDbCircle
 10
338.120022
 20
441.9886007649913
 30
0.0
 40
60.5
100
AcDbArc
 50
169.042393
 51
190.957607
  0
ARC
  5
642B
330
5FD6
100
AcDbEntity
  8
1
  6
Continuous
100
AcDbCircle
 10
338.120022
 20
441.9886007649913
 30
0.0
 40
61.0
100
AcDbArc
 50
172.4640909999999
 51
187.535909
  0
ARC
  5
642C
330
5FD6
100
AcDbEntity
  8
1
  6
Continuous
100
AcDbCircle
 10
338.120022
 20
441.9886007649913
 30
0.0
 40
60.0
100
AcDbArc
 50
167.7683659999999
 51
168.949935
  0
LINE
  5
642D
330
5FD6
100
AcDbEntity
  8
1
  6
Continuous
100
AcDbLine
 10
278.7230529999998
 20
453.4886007649912
 30
0.0
 11
279.232418
 21
453.4886007649912
 31
0.0
  0
ARC
  5
642E
330
5FD6
100
AcDbEntity
  8
1
  6
Continuous
100
AcDbCircle
 10
280.459377
 20
454.4886007649913
 30
0.0
 40
1.0
100
AcDbArc
 50
90.0
 51
167.7683659999999
  0
ARC
  5
642F
330
5FD6
100
AcDbEntity
  8
1
  6
Continuous
100
AcDbCircle
 10
280.459377
 20
429.4886007649913
 30
0.0
 40
1.0
100
AcDbArc
 50
192.231634
 51
270.0
  0
LINE
  5
6430
330
5FD6
100
AcDbEntity
  8
1
  6
Continuous
100
AcDbLine
 10
278.7230529999998
 20
430.4886007649913
 30
0.0
 11
279.232418
 21
430.4886007649913
 31
0.0
  0
ARC
  5
6431
330
5FD6
100
AcDbEntity
  8
1
  6
Continuous
100
AcDbCircle
 10
338.120022
 20
441.9886007649913
 30
0.0
 40
60.0
100
AcDbArc
 50
191.0500649999999
 51
192.231634
  0
LINE
  5
6432
330
5FD6
100
AcDbEntity
  8
1
  6
Continuous
100
AcDbLine
 10
347.170022
 20
452.9886007649913
 30
0.0
 11
348.670022
 21
451.4886007649913
 31
0.0
  0
LINE
  5
6433
330
5FD6
100
AcDbEntity
  8
1
  6
Continuous
100
AcDbLine
 10
348.670022
 20
432.4886007649912
 30
0.0
 11
347.170022
 21
430.9886007649913
 31
0.0
  0
LINE
  5
6434
330
5FD6
100
AcDbEntity
  8
2
  6
Continuous
100
AcDbLine
 10
328.3200219999999
 20
452.1766007649913
 30
0.0
 11
327.3200219999998
 21
452.753951139167
 31
0.0
  0
LINE
  5
6435
330
5FD6
100
AcDbEntity
  8
2
  6
Continuous
100
AcDbLine
 10
328.3200219999999
 20
431.8006007649914
 30
0.0
 11
347.9820219999999
 21
431.8006007649914
 31
0.0
  0
LINE
  5
6436
330
5FD6
100
AcDbEntity
  8
1
  6
Continuous
100
AcDbLine
 10
347.170022
 20
452.9886007649913
 30
0.0
 11
347.170022
 21
446.5711757649914
 31
0.0
  0
LINE
  5
6437
330
5FD6
100
AcDbEntity
  8
1
  6
Continuous
100
AcDbLine
 10
328.3200219999999
 20
452.9886007649913
 30
0.0
 11
328.3200219999999
 21
446.5711757649914
 31
0.0
  0
LINE
  5
6438
330
5FD6
100
AcDbEntity
  8
2
  6
Continuous
100
AcDbLine
 10
328.3200219999999
 20
431.8006007649914
 30
0.0
 11
327.3200219999998
 21
431.2232503908156
 31
0.0
  0
LINE
  5
6439
330
5FD6
100
AcDbEntity
  8
2
  6
Continuous
100
AcDbLine
 10
328.3200219999999
 20
452.1766007649913
 30
0.0
 11
347.9820219999999
 21
452.1766007649913
 31
0.0
  0
LINE
  5
643A
330
5FD6
100
AcDbEntity
  8
1
  6
Continuous
100
AcDbLine
 10
328.3200219999999
 20
437.4060247649913
 30
0.0
 11
328.3200219999999
 21
430.9886007649913
 31
0.0
  0
LINE
  5
643B
330
5FD6
100
AcDbEntity
  8
1
  6
Continuous
100
AcDbLine
 10
347.170022
 20
446.5711757649914
 30
0.0
 11
327.3200219999998
 21
446.5711757649914
 31
0.0
  0
LINE
  5
643C
330
5FD6
100
AcDbEntity
  8
1
  6
Continuous
100
AcDbLine
 10
347.170022
 20
437.4060247649913
 30
0.0
 11
327.3200219999998
 21
437.4060247649913
 31
0.0
  0
LINE
  5
643F
330
5FD6
100
AcDbEntity
  8
1
  6
Continuous
100
AcDbLine
 10
444.0208349999998
 20
63.0906314262727
 30
0.0
 11
445.6208349999998
 21
63.0906314262727
 31
0.0
  0
LINE
  5
6440
330
5FD6
100
AcDbEntity
  8
1
  6
Continuous
100
AcDbLine
 10
444.0208349999998
 20
79.09063142627269
 30
0.0
 11
445.6208349999998
 21
79.09063142627269
 31
0.0
  0
LINE
  5
6441
330
5FD6
100
AcDbEntity
  8
4
  6
CENTER
100
AcDbLine
 10
392.292362
 20
71.09063142627269
 30
0.0
 11
456.1298349999998
 21
71.09063142627269
 31
0.0
  0
LINE
  5
6442
330
5FD6
100
AcDbEntity
  8
4
  6
CENTER
100
AcDbLine
 10
272.6200219999999
 20
71.09063142627269
 30
0.0
 11
361.7200219999999
 21
71.09063142627269
 31
0.0
  0
LINE
  5
6443
330
5FD6
100
AcDbEntity
  8
1
  6
Continuous
100
AcDbLine
 10
323.320022
 20
41.09063142627269
 30
0.0
 11
327.3200219999998
 21
41.09063142627269
 31
0.0
  0
LINE
  5
6444
330
5FD6
100
AcDbEntity
  8
1
  6
Continuous
100
AcDbLine
 10
323.320022
 20
101.0906314262727
 30
0.0
 11
327.3200219999998
 21
101.0906314262727
 31
0.0
  0
ARC
  5
6445
330
5FD6
100
AcDbEntity
  8
1
  6
Continuous
100
AcDbCircle
 10
338.120022
 20
71.09063142627269
 30
0.0
 40
60.5
100
AcDbArc
 50
169.042393
 51
190.957607
  0
LINE
  5
6446
330
5FD6
100
AcDbEntity
  8
1
  6
Continuous
100
AcDbLine
 10
311.7200219999999
 20
84.5906314262727
 30
0.0
 11
311.7200219999999
 21
57.59063142627269
 31
0.0
  0
LINE
  5
6447
330
5FD6
100
AcDbEntity
  8
1
  6
Continuous
100
AcDbLine
 10
311.7700219999999
 20
83.99980042627268
 30
0.0
 11
311.7700219999999
 21
58.18146242627271
 31
0.0
  0
LINE
  5
6448
330
5FD6
100
AcDbEntity
  8
1
  6
Continuous
100
AcDbLine
 10
321.320022
 20
43.09063142627269
 30
0.0
 11
321.320022
 21
99.09063142627267
 31
0.0
  0
LINE
  5
6449
330
5FD6
100
AcDbEntity
  8
1
  6
Continuous
100
AcDbLine
 10
325.320022
 20
41.09063142627269
 30
0.0
 11
325.320022
 21
101.0906314262727
 31
0.0
  0
LINE
  5
644A
330
5FD6
100
AcDbEntity
  8
1
  6
Continuous
100
AcDbLine
 10
280.5593769999999
 20
84.5906314262727
 30
0.0
 11
311.7200219999999
 21
84.5906314262727
 31
0.0
  0
ARC
  5
644B
330
5FD6
100
AcDbEntity
  8
1
  6
Continuous
100
AcDbCircle
 10
338.120022
 20
71.09063142627269
 30
0.0
 40
60.0
100
AcDbArc
 50
167.7683659999999
 51
168.949935
  0
LINE
  5
644C
330
5FD6
100
AcDbEntity
  8
1
  6
Continuous
100
AcDbLine
 10
278.7230529999998
 20
82.59063142627269
 30
0.0
 11
279.232418
 21
82.59063142627269
 31
0.0
  0
ARC
  5
644D
330
5FD6
100
AcDbEntity
  8
1
  6
Continuous
100
AcDbCircle
 10
280.459377
 20
83.59063142627269
 30
0.0
 40
1.0
100
AcDbArc
 50
90.0
 51
167.7683659999999
  0
ARC
  5
644E
330
5FD6
100
AcDbEntity
  8
1
  6
Continuous
100
AcDbCircle
 10
338.120022
 20
71.09063142627269
 30
0.0
 40
61.0
100
AcDbArc
 50
172.4640909999999
 51
187.535909
  0
LINE
  5
644F
330
5FD6
100
AcDbEntity
  8
1
  6
Continuous
100
AcDbLine
 10
277.6468879999999
 20
63.0906314262727
 30
0.0
 11
278.1512809999999
 21
63.0906314262727
 31
0.0
  0
LINE
  5
6450
330
5FD6
100
AcDbEntity
  8
1
  6
Continuous
100
AcDbLine
 10
277.6468879999999
 20
79.09063142627269
 30
0.0
 11
278.1512809999999
 21
79.09063142627269
 31
0.0
  0
LINE
  5
6451
330
5FD6
100
AcDbEntity
  8
1
  6
Continuous
100
AcDbLine
 10
312.0872719999999
 20
84.46520542627267
 30
0.0
 11
320.0510259999999
 21
87.59233442627268
 31
0.0
  0
ARC
  5
6452
330
5FD6
100
AcDbEntity
  8
1
  6
Continuous
100
AcDbCircle
 10
319.320022
 20
89.4539554262727
 30
0.0
 40
2.0
100
AcDbArc
 50
291.4384549999999
 51
0.0
  0
ARC
  5
6453
330
5FD6
100
AcDbEntity
  8
1
  6
Continuous
100
AcDbCircle
 10
323.320022
 20
99.09063142627267
 30
0.0
 40
2.0
100
AcDbArc
 50
90.0
 51
180.0
  0
ARC
  5
6454
330
5FD6
100
AcDbEntity
  8
1
  6
Continuous
100
AcDbCircle
 10
312.270022
 20
83.99980042627268
 30
0.0
 40
0.5
100
AcDbArc
 50
111.438455
 51
180.0
  0
LINE
  5
6455
330
5FD6
100
AcDbEntity
  8
1
  6
Continuous
100
AcDbLine
 10
280.5593769999999
 20
57.59063142627269
 30
0.0
 11
311.7200219999999
 21
57.59063142627269
 31
0.0
  0
LINE
  5
6456
330
5FD6
100
AcDbEntity
  8
1
  6
Continuous
100
AcDbLine
 10
278.7230529999998
 20
59.59063142627268
 30
0.0
 11
279.232418
 21
59.59063142627268
 31
0.0
  0
ARC
  5
6457
330
5FD6
100
AcDbEntity
  8
1
  6
Continuous
100
AcDbCircle
 10
280.459377
 20
58.59063142627269
 30
0.0
 40
1.0
100
AcDbArc
 50
192.231634
 51
270.0
  0
ARC
  5
6458
330
5FD6
100
AcDbEntity
  8
1
  6
Continuous
100
AcDbCircle
 10
323.320022
 20
43.09063142627269
 30
0.0
 40
2.0
100
AcDbArc
 50
180.0
 51
270.0
  0
ARC
  5
6459
330
5FD6
100
AcDbEntity
  8
1
  6
Continuous
100
AcDbCircle
 10
312.270022
 20
58.18146242627271
 30
0.0
 40
0.5
100
AcDbArc
 50
180.0
 51
248.561545
  0
LINE
  5
645A
330
5FD6
100
AcDbEntity
  8
1
  6
Continuous
100
AcDbLine
 10
312.0872719999999
 20
57.71605742627269
 30
0.0
 11
320.0510259999999
 21
54.58892842627268
 31
0.0
  0
ARC
  5
645B
330
5FD6
100
AcDbEntity
  8
1
  6
Continuous
100
AcDbCircle
 10
319.320022
 20
52.72730742627269
 30
0.0
 40
2.0
100
AcDbArc
 50
0.0
 51
68.56154499999999
  0
LINE
  5
645C
330
5FD6
100
AcDbEntity
  8
1
  6
Continuous
100
AcDbLine
 10
348.670022
 20
61.59063142627268
 30
0.0
 11
348.670022
 21
80.59063142627271
 31
0.0
  0
LINE
  5
645D
330
5FD6
100
AcDbEntity
  8
1
  6
Continuous
100
AcDbLine
 10
327.3200219999998
 20
41.09063142627269
 30
0.0
 11
327.3200219999998
 21
101.0906314262727
 31
0.0
  0
ARC
  5
645E
330
5FD6
100
AcDbEntity
  8
1
  6
Continuous
100
AcDbCircle
 10
356.420022
 20
64.5145384262727
 30
0.0
 40
0.3
100
AcDbArc
 50
270.0
 51
0.0
  0
LINE
  5
645F
330
5FD6
100
AcDbEntity
  8
2
  6
Continuous
100
AcDbLine
 10
356.420022
 20
64.21453842627268
 30
0.0
 11
348.7200219999999
 21
71.09063142627269
 31
0.0
  0
LINE
  5
6460
330
5FD6
100
AcDbEntity
  8
2
  6
Continuous
100
AcDbLine
 10
356.420022
 20
71.09063142627269
 30
0.0
 11
348.7200219999999
 21
64.21453842627268
 31
0.0
  0
LINE
  5
6461
330
5FD6
100
AcDbEntity
  8
1
  6
Continuous
100
AcDbLine
 10
348.7200219999999
 20
63.34063142627268
 30
0.0
 11
348.7200219999999
 21
78.84063142627269
 31
0.0
  0
LINE
  5
6462
330
5FD6
100
AcDbEntity
  8
1
  6
Continuous
100
AcDbLine
 10
410.3645839999998
 20
53.59063142627269
 30
0.0
 11
410.3645839999998
 21
88.59063142627269
 31
0.0
  0
LINE
  5
6463
330
5FD6
100
AcDbEntity
  8
1
  6
Continuous
100
AcDbLine
 10
417.3645839999998
 20
53.59063142627269
 30
0.0
 11
417.3645839999998
 21
88.59063142627269
 31
0.0
  0
ARC
  5
6464
330
5FD6
100
AcDbEntity
  8
1
  6
Continuous
100
AcDbCircle
 10
444.8865839999998
 20
62.34063142627269
 30
0.0
 40
34.5223
100
AcDbArc
 50
165.3179999999998
 51
194.6819999999999
  0
ARC
  5
6465
330
5FD6
100
AcDbEntity
  8
1
  6
Continuous
100
AcDbCircle
 10
382.841584
 20
62.34063142627269
 30
0.0
 40
34.5223
100
AcDbArc
 50
345.3177
 51
14.682
  0
LINE
  5
6466
330
5FD6
100
AcDbEntity
  8
1
  6
Continuous
100
AcDbLine
 10
397.5923620000001
 20
53.59063142627269
 30
0.0
 11
397.5923620000001
 21
88.59063142627269
 31
0.0
  0
LINE
  5
6467
330
5FD6
100
AcDbEntity
  8
1
  6
Continuous
100
AcDbLine
 10
398.992362
 20
53.59063142627269
 30
0.0
 11
398.992362
 21
88.59063142627269
 31
0.0
  0
LINE
  5
6468
330
5FD6
100
AcDbEntity
  8
1
  6
Continuous
100
AcDbLine
 10
444.0208349999998
 20
63.0906314262727
 30
0.0
 11
444.0208349999998
 21
79.09063142627269
 31
0.0
  0
LINE
  5
6469
330
5FD6
100
AcDbEntity
  8
1
  6
Continuous
100
AcDbLine
 10
433.510886
 20
82.0906314262727
 30
0.0
 11
433.510886
 21
60.09063142627269
 31
0.0
  0
LINE
  5
646A
330
5FD6
100
AcDbEntity
  8
1
  6
Continuous
100
AcDbLine
 10
430.510886
 20
82.0906314262727
 30
0.0
 11
430.510886
 21
60.09063142627269
 31
0.0
  0
LINE
  5
646B
330
5FD6
100
AcDbEntity
  8
1
  6
Continuous
100
AcDbLine
 10
428.510886
 20
82.0906314262727
 30
0.0
 11
428.510886
 21
60.09063142627269
 31
0.0
  0
LINE
  5
646C
330
5FD6
100
AcDbEntity
  8
1
  6
Continuous
100
AcDbLine
 10
408.8645839999998
 20
55.09063142627269
 30
0.0
 11
408.8645839999998
 21
87.0906314262727
 31
0.0
  0
LINE
  5
646D
330
5FD6
100
AcDbEntity
  8
1
  6
Continuous
100
AcDbLine
 10
418.8645839999998
 20
55.09063142627269
 30
0.0
 11
418.8645839999998
 21
87.0906314262727
 31
0.0
  0
LINE
  5
6476
330
5FD6
100
AcDbEntity
  8
1
  6
Continuous
100
AcDbLine
 10
356.7200219999999
 20
71.09063142627269
 30
0.0
 11
348.7200219999999
 21
71.09063142627269
 31
0.0
  0
LINE
  5
6477
330
5FD6
100
AcDbEntity
  8
1
  6
Continuous
100
AcDbLine
 10
356.420022
 20
77.96672442627272
 30
0.0
 11
348.7200219999999
 21
77.96672442627272
 31
0.0
  0
LINE
  5
6478
330
5FD6
100
AcDbEntity
  8
2
  6
Continuous
100
AcDbLine
 10
348.7200219999999
 20
71.09063142627269
 30
0.0
 11
356.420022
 21
77.96672442627272
 31
0.0
  0
LINE
  5
6479
330
5FD6
100
AcDbEntity
  8
2
  6
Continuous
100
AcDbLine
 10
348.7200219999999
 20
77.96672442627272
 30
0.0
 11
356.420022
 21
71.09063142627269
 31
0.0
  0
LINE
  5
647A
330
5FD6
100
AcDbEntity
  8
2
  6
Continuous
100
AcDbLine
 10
328.3200219999999
 20
81.27863142627267
 30
0.0
 11
347.9820219999999
 21
81.27863142627267
 31
0.0
  0
LINE
  5
647B
330
5FD6
100
AcDbEntity
  8
1
  6
Continuous
100
AcDbLine
 10
327.3200219999998
 20
82.0906314262727
 30
0.0
 11
347.170022
 21
82.0906314262727
 31
0.0
  0
LINE
  5
647C
330
5FD6
100
AcDbEntity
  8
2
  6
Continuous
100
AcDbLine
 10
328.3200219999999
 20
81.27863142627267
 30
0.0
 11
327.3200219999998
 21
81.8559818004484
 31
0.0
  0
LINE
  5
647D
330
5FD6
100
AcDbEntity
  8
1
  6
Continuous
100
AcDbLine
 10
327.3200219999998
 20
75.09063142627269
 30
0.0
 11
330.8200219999998
 21
75.09063142627269
 31
0.0
  0
LINE
  5
647E
330
5FD6
100
AcDbEntity
  8
1
  6
Continuous
100
AcDbLine
 10
330.8200219999998
 20
67.09063142627269
 30
0.0
 11
330.8200219999998
 21
75.09063142627269
 31
0.0
  0
LINE
  5
647F
330
5FD6
100
AcDbEntity
  8
1
  6
Continuous
100
AcDbLine
 10
327.3200219999998
 20
67.09063142627269
 30
0.0
 11
330.8200219999998
 21
67.09063142627269
 31
0.0
  0
LINE
  5
6480
330
5FD6
100
AcDbEntity
  8
1
  6
Continuous
100
AcDbLine
 10
348.670022
 20
80.59063142627271
 30
0.0
 11
347.170022
 21
82.0906314262727
 31
0.0
  0
ARC
  5
6481
330
5FD6
100
AcDbEntity
  8
1
  6
Continuous
100
AcDbCircle
 10
348.5200219999999
 20
78.84063142627269
 30
0.0
 40
0.2
100
AcDbArc
 50
0.0
 51
41.40962199999999
  0
ARC
  5
6482
330
5FD6
100
AcDbEntity
  8
1
  6
Continuous
100
AcDbCircle
 10
356.420022
 20
77.66672442627269
 30
0.0
 40
0.3
100
AcDbArc
 50
0.0
 51
90.0
  0
LINE
  5
6483
330
5FD6
100
AcDbEntity
  8
1
  6
Continuous
100
AcDbLine
 10
356.7200219999999
 20
64.5145384262727
 30
0.0
 11
356.7200219999999
 21
77.66672442627269
 31
0.0
  0
LINE
  5
6484
330
5FD6
100
AcDbEntity
  8
1
  6
Continuous
100
AcDbLine
 10
411.491584
 20
71.09063142627269
 30
0.0
 11
416.2365839999997
 21
71.09063142627269
 31
0.0
  0
LINE
  5
6485
330
5FD6
100
AcDbEntity
  8
1
  6
Continuous
100
AcDbLine
 10
410.3645839999998
 20
88.59063142627269
 30
0.0
 11
417.3645839999998
 21
88.59063142627269
 31
0.0
  0
ARC
  5
6486
330
5FD6
100
AcDbEntity
  8
1
  6
Continuous
100
AcDbCircle
 10
444.8865839999998
 20
79.84063142627269
 30
0.0
 40
34.5223
100
AcDbArc
 50
165.3179999999998
 51
194.6819999999999
  0
LINE
  5
6487
330
5FD6
100
AcDbEntity
  8
1
  6
Continuous
100
AcDbLine
 10
397.5923620000001
 20
88.59063142627269
 30
0.0
 11
398.992362
 21
88.59063142627269
 31
0.0
  0
LINE
  5
6488
330
5FD6
100
AcDbEntity
  8
1
  6
Continuous
100
AcDbLine
 10
397.292362
 20
77.85014142627267
 30
0.0
 11
397.5923620000001
 21
77.55013142627269
 31
0.0
  0
LINE
  5
6489
330
5FD6
100
AcDbEntity
  8
1
  6
Continuous
100
AcDbLine
 10
397.292362
 20
77.85014142627267
 30
0.0
 11
397.5923620000001
 21
78.15014142627268
 31
0.0
  0
LINE
  5
648A
330
5FD6
100
AcDbEntity
  8
1
  6
Continuous
100
AcDbLine
 10
397.5923620000001
 20
82.02778142627272
 30
0.0
 11
397.292362
 21
82.02778142627272
 31
0.0
  0
LINE
  5
648B
330
5FD6
100
AcDbEntity
  8
1
  6
Continuous
100
AcDbLine
 10
397.292362
 20
82.02778142627272
 30
0.0
 11
397.5923620000001
 21
83.18593142627269
 31
0.0
  0
LINE
  5
648C
330
5FD6
100
AcDbEntity
  8
1
  6
Continuous
100
AcDbLine
 10
398.992362
 20
78.15014142627268
 30
0.0
 11
399.292362
 21
77.85014142627267
 31
0.0
  0
LINE
  5
648D
330
5FD6
100
AcDbEntity
  8
1
  6
Continuous
100
AcDbLine
 10
399.292362
 20
77.85014142627267
 30
0.0
 11
398.992362
 21
77.55013142627269
 31
0.0
  0
LINE
  5
648E
330
5FD6
100
AcDbEntity
  8
1
  6
Continuous
100
AcDbLine
 10
398.992362
 20
82.02778142627272
 30
0.0
 11
399.292362
 21
82.02778142627272
 31
0.0
  0
LINE
  5
648F
330
5FD6
100
AcDbEntity
  8
1
  6
Continuous
100
AcDbLine
 10
399.292362
 20
82.02778142627272
 30
0.0
 11
398.992362
 21
83.18593142627269
 31
0.0
  0
LINE
  5
6490
330
5FD6
100
AcDbEntity
  8
1
  6
Continuous
100
AcDbLine
 10
397.292362
 20
71.0806014262727
 30
0.0
 11
397.5923620000001
 21
71.38060142627269
 31
0.0
  0
LINE
  5
6491
330
5FD6
100
AcDbEntity
  8
1
  6
Continuous
100
AcDbLine
 10
397.292362
 20
71.0806014262727
 30
0.0
 11
397.5923620000001
 21
70.78060142627268
 31
0.0
  0
LINE
  5
6492
330
5FD6
100
AcDbEntity
  8
1
  6
Continuous
100
AcDbLine
 10
399.292362
 20
71.1006814262727
 30
0.0
 11
398.992362
 21
71.40068142627271
 31
0.0
  0
LINE
  5
6493
330
5FD6
100
AcDbEntity
  8
1
  6
Continuous
100
AcDbLine
 10
398.992362
 20
70.80068142627268
 30
0.0
 11
399.292362
 21
71.1006814262727
 31
0.0
  0
LINE
  5
649C
330
5FD6
100
AcDbEntity
  8
1
  6
Continuous
100
AcDbLine
 10
408.8645839999998
 20
87.0906314262727
 30
0.0
 11
410.3645839999998
 21
87.0906314262727
 31
0.0
  0
ARC
  5
649D
330
5FD6
100
AcDbEntity
  8
1
  6
Continuous
100
AcDbCircle
 10
382.841584
 20
79.84063142627269
 30
0.0
 40
34.5223
100
AcDbArc
 50
345.3177
 51
14.682
  0
LINE
  5
649E
330
5FD6
100
AcDbEntity
  8
1
  6
Continuous
100
AcDbLine
 10
428.510886
 20
82.0906314262727
 30
0.0
 11
433.510886
 21
82.0906314262727
 31
0.0
  0
LINE
  5
649F
330
5FD6
100
AcDbEntity
  8
1
  6
Continuous
100
AcDbLine
 10
418.8645839999998
 20
87.0906314262727
 30
0.0
 11
417.3645839999998
 21
87.0906314262727
 31
0.0
  0
LINE
  5
64A0
330
5FD6
100
AcDbEntity
  8
1
  6
Continuous
100
AcDbLine
 10
356.420022
 20
64.21453842627268
 30
0.0
 11
348.7200219999999
 21
64.21453842627268
 31
0.0
  0
LINE
  5
64A1
330
5FD6
100
AcDbEntity
  8
2
  6
Continuous
100
AcDbLine
 10
328.3200219999999
 20
60.90263142627268
 30
0.0
 11
347.9820219999999
 21
60.90263142627268
 31
0.0
  0
LINE
  5
64A2
330
5FD6
100
AcDbEntity
  8
1
  6
Continuous
100
AcDbLine
 10
327.3200219999998
 20
60.09063142627269
 30
0.0
 11
347.170022
 21
60.09063142627269
 31
0.0
  0
LINE
  5
64A3
330
5FD6
100
AcDbEntity
  8
2
  6
Continuous
100
AcDbLine
 10
328.3200219999999
 20
60.90263142627268
 30
0.0
 11
327.3200219999998
 21
60.32528105209697
 31
0.0
  0
LINE
  5
64A4
330
5FD6
100
AcDbEntity
  8
1
  6
Continuous
100
AcDbLine
 10
347.170022
 20
60.09063142627269
 30
0.0
 11
348.670022
 21
61.59063142627268
 31
0.0
  0
ARC
  5
64A5
330
5FD6
100
AcDbEntity
  8
1
  6
Continuous
100
AcDbCircle
 10
348.5200219999999
 20
63.34063142627268
 30
0.0
 40
0.2
100
AcDbArc
 50
318.5903779999998
 51
0.0
  0
LINE
  5
64A6
330
5FD6
100
AcDbEntity
  8
1
  6
Continuous
100
AcDbLine
 10
410.3645839999998
 20
53.59063142627269
 30
0.0
 11
417.3645839999998
 21
53.59063142627269
 31
0.0
  0
LINE
  5
64A7
330
5FD6
100
AcDbEntity
  8
1
  6
Continuous
100
AcDbLine
 10
397.292362
 20
60.15348142627269
 30
0.0
 11
397.5923620000001
 21
58.99533142627269
 31
0.0
  0
LINE
  5
64A8
330
5FD6
100
AcDbEntity
  8
1
  6
Continuous
100
AcDbLine
 10
397.5923620000001
 20
60.15348142627269
 30
0.0
 11
397.292362
 21
60.15348142627269
 31
0.0
  0
LINE
  5
64A9
330
5FD6
100
AcDbEntity
  8
1
  6
Continuous
100
AcDbLine
 10
399.292362
 20
60.15348142627269
 30
0.0
 11
398.992362
 21
58.99533142627269
 31
0.0
  0
LINE
  5
64AA
330
5FD6
100
AcDbEntity
  8
1
  6
Continuous
100
AcDbLine
 10
398.992362
 20
60.15348142627269
 30
0.0
 11
399.292362
 21
60.15348142627269
 31
0.0
  0
LINE
  5
64AB
330
5FD6
100
AcDbEntity
  8
1
  6
Continuous
100
AcDbLine
 10
397.5923620000001
 20
53.59063142627269
 30
0.0
 11
398.992362
 21
53.59063142627269
 31
0.0
  0
LINE
  5
64AC
330
5FD6
100
AcDbEntity
  8
1
  6
Continuous
100
AcDbLine
 10
408.8645839999998
 20
55.09063142627269
 30
0.0
 11
410.3645839999998
 21
55.09063142627269
 31
0.0
  0
LINE
  5
64AD
330
5FD6
100
AcDbEntity
  8
1
  6
Continuous
100
AcDbLine
 10
428.510886
 20
60.09063142627269
 30
0.0
 11
433.510886
 21
60.09063142627269
 31
0.0
  0
LINE
  5
64AE
330
5FD6
100
AcDbEntity
  8
1
  6
Continuous
100
AcDbLine
 10
418.8645839999998
 20
55.09063142627269
 30
0.0
 11
417.3645839999998
 21
55.09063142627269
 31
0.0
  0
LINE
  5
64AF
330
5FD6
100
AcDbEntity
  8
1
  6
Continuous
100
AcDbLine
 10
445.6208349999998
 20
63.0906314262727
 30
0.0
 11
445.6208349999998
 21
79.09063142627269
 31
0.0
  0
LINE
  5
64B0
330
5FD6
100
AcDbEntity
  8
1
  6
Continuous
100
AcDbLine
 10
447.1208349999998
 20
64.99063142627271
 30
0.0
 11
445.6208349999998
 21
64.99063142627271
 31
0.0
  0
LINE
  5
64B1
330
5FD6
100
AcDbEntity
  8
1
  6
Continuous
100
AcDbLine
 10
447.1208349999998
 20
72.59063142627269
 30
0.0
 11
445.6208349999998
 21
71.09063142627269
 31
0.0
  0
LINE
  5
64B2
330
5FD6
100
AcDbEntity
  8
1
  6
Continuous
100
AcDbLine
 10
447.1208349999998
 20
71.17663142627269
 30
0.0
 11
445.6208349999998
 21
69.67663142627269
 31
0.0
  0
LINE
  5
64B3
330
5FD6
100
AcDbEntity
  8
1
  6
Continuous
100
AcDbLine
 10
447.1208349999998
 20
77.19063142627267
 30
0.0
 11
445.6208349999998
 21
77.19063142627267
 31
0.0
  0
LINE
  5
64B4
330
5FD6
100
AcDbEntity
  8
1
  6
Continuous
100
AcDbLine
 10
447.1208349999998
 20
64.99063142627271
 30
0.0
 11
447.1208349999998
 21
77.19063142627267
 31
0.0
  0
LINE
  5
64B5
330
5FD6
100
AcDbEntity
  8
1
  6
Continuous
100
AcDbLine
 10
451.1208349999998
 20
66.09063142627269
 30
0.0
 11
451.1208349999998
 21
76.09063142627269
 31
0.0
  0
LINE
  5
64B6
330
5FD6
100
AcDbEntity
  8
1
  6
Continuous
100
AcDbLine
 10
451.1208349999998
 20
66.09063142627269
 30
0.0
 11
447.1208349999998
 21
66.09063142627269
 31
0.0
  0
LINE
  5
64B7
330
5FD6
100
AcDbEntity
  8
1
  6
Continuous
100
AcDbLine
 10
451.1208349999998
 20
76.09063142627269
 30
0.0
 11
447.1208349999998
 21
76.09063142627269
 31
0.0
  0
LINE
  5
64B8
330
5FD6
100
AcDbEntity
  8
1
  6
Continuous
100
AcDbLine
 10
450.5748349999998
 20
71.09063142627269
 30
0.0
 11
447.1208349999998
 21
71.09063142627269
 31
0.0
  0
ARC
  5
64B9
330
5FD6
100
AcDbEntity
  8
1
  6
Continuous
100
AcDbCircle
 10
443.8998349999998
 20
68.59063142627269
 30
0.0
 40
7.220389999999997
100
AcDbArc
 50
339.7423999999999
 51
20.25799999999998
  0
ARC
  5
64BA
330
5FD6
100
AcDbEntity
  8
1
  6
Continuous
100
AcDbCircle
 10
443.8998349999998
 20
73.59063142627269
 30
0.0
 40
7.220389999999997
100
AcDbArc
 50
339.7423999999999
 51
20.25799999999998
  0
LINE
  5
64BB
330
5FD6
100
AcDbEntity
  8
1
  6
Continuous
100
AcDbLine
 10
299.2200219999999
 20
70.09063142627269
 30
0.0
 11
299.2200219999999
 21
72.09063142627269
 31
0.0
  0
LINE
  5
64BC
330
5FD6
100
AcDbEntity
  8
1
  6
Continuous
100
AcDbLine
 10
287.636748
 20
79.09063142627269
 30
0.0
 11
292.2200219999999
 21
79.09063142627269
 31
0.0
  0
LINE
  5
64BD
330
5FD6
100
AcDbEntity
  8
1
  6
Continuous
100
AcDbLine
 10
287.636748
 20
63.0906314262727
 30
0.0
 11
292.2200219999999
 21
63.0906314262727
 31
0.0
  0
ARC
  5
64BE
330
5FD6
100
AcDbEntity
  8
1
  6
Continuous
100
AcDbCircle
 10
292.2200219999999
 20
72.09063142627269
 30
0.0
 40
7.0
100
AcDbArc
 50
0.0
 51
90.0
  0
ARC
  5
64BF
330
5FD6
100
AcDbEntity
  8
1
  6
Continuous
100
AcDbCircle
 10
292.2200219999999
 20
70.09063142627269
 30
0.0
 40
7.0
100
AcDbArc
 50
270.0
 51
0.0
  0
ARC
  5
64C0
330
5FD6
100
AcDbEntity
  8
1
  6
Continuous
100
AcDbCircle
 10
346.2200219999999
 20
71.09063142627269
 30
0.0
 40
60.0
100
AcDbArc
 50
173.186146
 51
186.813854
  0
ARC
  5
64C1
330
5FD6
100
AcDbEntity
  8
1
  6
Continuous
100
AcDbCircle
 10
287.636748
 20
78.0906314262727
 30
0.0
 40
1.0
100
AcDbArc
 50
90.0
 51
173.186146
  0
ARC
  5
64C2
330
5FD6
100
AcDbEntity
  8
1
  6
Continuous
100
AcDbCircle
 10
287.636748
 20
64.09063142627269
 30
0.0
 40
1.0
100
AcDbArc
 50
186.813854
 51
270.0
  0
LINE
  5
64C3
330
5FD6
100
AcDbEntity
  8
1
  6
Continuous
100
AcDbLine
 10
293.220022
 20
79.83659842627268
 30
0.0
 11
293.220022
 21
81.2350474262727
 31
0.0
  0
LINE
  5
64C4
330
5FD6
100
AcDbEntity
  8
1
  6
Continuous
100
AcDbLine
 10
294.642641
 20
82.14135542627268
 30
0.0
 11
299.4991069999999
 21
79.8767474262727
 31
0.0
  0
ARC
  5
64C5
330
5FD6
100
AcDbEntity
  8
1
  6
Continuous
100
AcDbCircle
 10
294.2200219999999
 20
79.83659842627268
 30
0.0
 40
1.0
100
AcDbArc
 50
180.0
 51
255.522488
  0
ARC
  5
64C6
330
5FD6
100
AcDbEntity
  8
1
  6
Continuous
100
AcDbCircle
 10
294.2200219999999
 20
62.34466442627269
 30
0.0
 40
1.0
100
AcDbArc
 50
104.477512
 51
180.0
  0
ARC
  5
64C7
330
5FD6
100
AcDbEntity
  8
1
  6
Continuous
100
AcDbCircle
 10
294.2200219999999
 20
81.2350474262727
 30
0.0
 40
1.0
100
AcDbArc
 50
65.0
 51
180.0
  0
ARC
  5
64C8
330
5FD6
100
AcDbEntity
  8
1
  6
Continuous
100
AcDbCircle
 10
294.2200219999999
 20
60.94621542627269
 30
0.0
 40
1.0
100
AcDbArc
 50
180.0
 51
295.0
  0
LINE
  5
64C9
330
5FD6
100
AcDbEntity
  8
1
  6
Continuous
100
AcDbLine
 10
294.642641
 20
60.03990742627269
 30
0.0
 11
299.4991069999999
 21
62.30451542627271
 31
0.0
  0
LINE
  5
64CA
330
5FD6
100
AcDbEntity
  8
1
  6
Continuous
100
AcDbLine
 10
293.220022
 20
62.34466442627269
 30
0.0
 11
293.220022
 21
60.94621542627269
 31
0.0
  0
ARC
  5
64CB
330
5FD6
100
AcDbEntity
  8
1
  6
Continuous
100
AcDbCircle
 10
337.170022
 20
441.9886007649913
 30
0.0
 40
11.0
100
AcDbArc
 50
335.380023
 51
24.61997699999999
  0
LINE
  5
64CC
330
5FD6
100
AcDbEntity
  8
1
  6
Continuous
100
AcDbLine
 10
347.170022
 20
437.4060247649913
 30
0.0
 11
347.170022
 21
430.9886007649913
 31
0.0
  0
ARC
  5
64CD
330
5FD6
100
AcDbEntity
  8
1
  6
Continuous
100
AcDbCircle
 10
338.2200219999999
 20
71.09063142627269
 30
0.0
 40
60.0
100
AcDbArc
 50
167.7683659999999
 51
192.231634
  0
ARC
  5
64CE
330
5FD6
100
AcDbEntity
  8
1
  6
Continuous
100
AcDbCircle
 10
280.5593769999999
 20
58.59063142627269
 30
0.0
 40
1.0
100
AcDbArc
 50
192.231634
 51
270.0
  0
ARC
  5
64CF
330
5FD6
100
AcDbEntity
  8
1
  6
Continuous
100
AcDbCircle
 10
280.5593769999999
 20
83.59063142627269
 30
0.0
 40
1.0
100
AcDbArc
 50
90.0
 51
167.7683659999999
  0
ARC
  5
64D0
330
5FD6
100
AcDbEntity
  8
1
  6
Continuous
100
AcDbCircle
 10
338.120022
 20
71.09063142627269
 30
0.0
 40
60.0
100
AcDbArc
 50
191.0500649999999
 51
192.231634
  0
LINE
  5
64D1
330
5FD6
100
AcDbEntity
  8
1
  6
Continuous
100
AcDbLine
 10
280.5593769999999
 20
83.59063142627269
 30
0.0
 11
286.847146
 21
78.70425042627269
 31
0.0
  0
LINE
  5
64D2
330
5FD6
100
AcDbEntity
  8
1
  6
Continuous
100
AcDbLine
 10
280.5593769999999
 20
58.59063142627269
 30
0.0
 11
286.847146
 21
63.4770124262727
 31
0.0
  0
CIRCLE
  5
64D3
330
5FD6
100
AcDbEntity
  8
1
  6
Continuous
100
AcDbCircle
 10
523.4993799999998
 20
282.0869237649913
 30
0.0
 40
7.95
  0
CIRCLE
  5
64D4
330
5FD6
100
AcDbEntity
  8
1
  6
Continuous
100
AcDbCircle
 10
523.4993799999998
 20
282.0869237649913
 30
0.0
 40
11.5
  0
ARC
  5
64D5
330
5FD6
100
AcDbEntity
  8
1
  6
Continuous
100
AcDbCircle
 10
523.4993799999998
 20
282.0869237649913
 30
0.0
 40
11.0
100
AcDbArc
 50
294.619977
 51
65.38002299999999
  0
ARC
  5
64D6
330
5FD6
100
AcDbEntity
  8
1
  6
Continuous
100
AcDbCircle
 10
523.4993799999998
 20
282.0869237649913
 30
0.0
 40
11.0
100
AcDbArc
 50
114.619977
 51
245.380023
  0
LINE
  5
64D7
330
5FD6
100
AcDbEntity
  8
1
  6
Continuous
100
AcDbLine
 10
516.7111549999998
 20
281.8747917649913
 30
0.0
 11
523.2872480000001
 21
275.2986987649913
 31
0.0
  0
LINE
  5
64D8
330
5FD6
100
AcDbEntity
  8
1
  6
Continuous
100
AcDbLine
 10
523.7115119999998
 20
275.2986987649913
 30
0.0
 11
530.287605
 21
281.8747917649913
 31
0.0
  0
ARC
  5
64D9
330
5FD6
100
AcDbEntity
  8
2
  6
Continuous
100
AcDbCircle
 10
523.4993799999998
 20
282.0869237649913
 30
0.0
 40
11.0
100
AcDbArc
 50
245.380023
 51
294.619977
  0
LINE
  5
64DA
330
5FD6
100
AcDbEntity
  8
1
  6
Continuous
100
AcDbLine
 10
528.081955
 20
272.0869237649913
 30
0.0
 11
518.9168039999998
 21
272.0869237649913
 31
0.0
  0
ARC
  5
64DB
330
5FD6
100
AcDbEntity
  8
1
  6
Continuous
100
AcDbCircle
 10
523.4993799999998
 20
275.5108307649912
 30
0.0
 40
0.3
100
AcDbArc
 50
225.0
 51
315.0
  0
ARC
  5
64DC
330
5FD6
100
AcDbEntity
  8
1
  6
Continuous
100
AcDbCircle
 10
516.923287
 20
282.0869237649913
 30
0.0
 40
0.3
100
AcDbArc
 50
135.0
 51
225.0
  0
ARC
  5
64DD
330
5FD6
100
AcDbEntity
  8
2
  6
Continuous
100
AcDbCircle
 10
523.4993799999998
 20
282.0869237649913
 30
0.0
 40
11.0
100
AcDbArc
 50
65.38002299999999
 51
114.619977
  0
LINE
  5
64DE
330
5FD6
100
AcDbEntity
  8
1
  6
Continuous
100
AcDbLine
 10
528.081955
 20
292.0869237649913
 30
0.0
 11
518.9168039999998
 21
292.0869237649913
 31
0.0
  0
LINE
  5
64DF
330
5FD6
100
AcDbEntity
  8
1
  6
Continuous
100
AcDbLine
 10
523.7115119999998
 20
288.8751487649912
 30
0.0
 11
530.287605
 21
282.2990557649912
 31
0.0
  0
CIRCLE
  5
64E0
330
5FD6
100
AcDbEntity
  8
2
  6
Continuous
100
AcDbCircle
 10
523.4993799999998
 20
282.0869237649913
 30
0.0
 40
3.0
  0
LINE
  5
64E1
330
5FD6
100
AcDbEntity
  8
1
  6
Continuous
100
AcDbLine
 10
516.7111549999998
 20
282.2990557649912
 30
0.0
 11
523.2872480000001
 21
288.8751487649912
 31
0.0
  0
ARC
  5
64E2
330
5FD6
100
AcDbEntity
  8
1
  6
Continuous
100
AcDbCircle
 10
523.4993799999998
 20
288.6630167649913
 30
0.0
 40
0.3
100
AcDbArc
 50
45.0
 51
135.0
  0
ARC
  5
64E3
330
5FD6
100
AcDbEntity
  8
1
  6
Continuous
100
AcDbCircle
 10
530.075473
 20
282.0869237649913
 30
0.0
 40
0.3
100
AcDbArc
 50
315.0
 51
45.0
  0
CIRCLE
  5
64E4
330
5FD6
100
AcDbEntity
  8
1
  6
Continuous
100
AcDbCircle
 10
523.4993799999998
 20
351.8140767649912
 30
0.0
 40
11.0
  0
LINE
  5
64E5
330
5FD6
100
AcDbEntity
  8
4
  6
CENTER
100
AcDbLine
 10
523.4993799999998
 20
367.8140767649912
 30
0.0
 11
523.4993799999998
 21
335.8140767649913
 31
0.0
  0
LINE
  5
64E6
330
5FD6
100
AcDbEntity
  8
4
  6
CENTER
100
AcDbLine
 10
539.4993799999999
 20
351.8140767649912
 30
0.0
 11
507.4993799999998
 21
351.8140767649912
 31
0.0
  0
CIRCLE
  5
64E7
330
5FD6
100
AcDbEntity
  8
1
  6
Continuous
100
AcDbCircle
 10
523.4993799999998
 20
282.0869237649913
 30
0.0
 40
2.458499999999999
  0
ARC
  5
64E8
330
5FD6
100
AcDbEntity
  8
2
  6
Continuous
100
AcDbCircle
 10
523.4993799999998
 20
282.0869237649913
 30
0.0
 40
10.18799999999999
100
AcDbArc
 50
101.0240759999999
 51
258.975924
  0
ARC
  5
64E9
330
5FD6
100
AcDbEntity
  8
2
  6
Continuous
100
AcDbCircle
 10
523.4993799999998
 20
282.0869237649913
 30
0.0
 40
10.18799999999999
100
AcDbArc
 50
281.0240759999999
 51
78.97592399999997
  0
ARC
  5
64EA
330
5FD6
100
AcDbEntity
  8
1
  6
Continuous
100
AcDbCircle
 10
523.4993799999998
 20
282.0869237649913
 30
0.0
 40
10.18799999999999
100
AcDbArc
 50
78.97592399999997
 51
101.0240759999999
  0
ARC
  5
64EB
330
5FD6
100
AcDbEntity
  8
1
  6
Continuous
100
AcDbCircle
 10
523.4993799999998
 20
282.0869237649913
 30
0.0
 40
10.18799999999999
100
AcDbArc
 50
258.975924
 51
281.0240759999999
  0
CIRCLE
  5
64EC
330
5FD6
100
AcDbEntity
  8
1
  6
Continuous
100
AcDbCircle
 10
523.4993799999998
 20
282.0869237649913
 30
0.0
 40
9.5
  0
LINE
  5
64ED
330
5FD6
100
AcDbEntity
  8
2
  6
Continuous
100
AcDbLine
 10
330.8200219999998
 20
444.5930857649913
 30
0.0
 11
347.170022
 21
437.4060247649913
 31
0.0
  0
LINE
  5
64EE
330
5FD6
100
AcDbEntity
  8
2
  6
Continuous
100
AcDbLine
 10
330.8200219999998
 20
439.3841147649912
 30
0.0
 11
347.170022
 21
446.5711757649914
 31
0.0
  0
LINE
  5
64F1
330
5FD6
100
AcDbEntity
  8
1
  6
Continuous
100
AcDbLine
 10
347.170022
 20
75.67320742627271
 30
0.0
 11
327.3200219999998
 21
75.67320742627271
 31
0.0
  0
LINE
  5
64F2
330
5FD6
100
AcDbEntity
  8
1
  6
Continuous
100
AcDbLine
 10
347.170022
 20
66.50805542627269
 30
0.0
 11
327.3200219999998
 21
66.50805542627269
 31
0.0
  0
LINE
  5
64F3
330
5FD6
100
AcDbEntity
  8
1
  6
Continuous
100
AcDbLine
 10
328.3200219999999
 20
82.0906314262727
 30
0.0
 11
328.3200219999999
 21
75.67320742627271
 31
0.0
  0
LINE
  5
64F4
330
5FD6
100
AcDbEntity
  8
1
  6
Continuous
100
AcDbLine
 10
328.3200219999999
 20
66.50805542627269
 30
0.0
 11
328.3200219999999
 21
60.09063142627269
 31
0.0
  0
LINE
  5
64F5
330
5FD6
100
AcDbEntity
  8
1
  6
Continuous
100
AcDbLine
 10
347.170022
 20
82.0906314262727
 30
0.0
 11
347.170022
 21
75.67320742627271
 31
0.0
  0
ARC
  5
64F6
330
5FD6
100
AcDbEntity
  8
1
  6
Continuous
100
AcDbCircle
 10
337.170022
 20
71.09063142627269
 30
0.0
 40
11.0
100
AcDbArc
 50
335.380023
 51
24.61997699999999
  0
LINE
  5
64F7
330
5FD6
100
AcDbEntity
  8
1
  6
Continuous
100
AcDbLine
 10
347.170022
 20
66.50805542627269
 30
0.0
 11
347.170022
 21
60.09063142627269
 31
0.0
  0
LINE
  5
64F8
330
5FD6
100
AcDbEntity
  8
2
  6
Continuous
100
AcDbLine
 10
330.8200219999998
 20
73.69511642627266
 30
0.0
 11
347.170022
 21
66.50805542627269
 31
0.0
  0
LINE
  5
64F9
330
5FD6
100
AcDbEntity
  8
2
  6
Continuous
100
AcDbLine
 10
330.8200219999998
 20
68.48614642627271
 30
0.0
 11
347.170022
 21
75.67320742627271
 31
0.0
  0
LINE
  5
64FA
330
5FD6
100
AcDbEntity
  8
1
  6
Continuous
100
AcDbLine
 10
719.6787369999997
 20
292.0869237649913
 30
0.0
 11
698.8287370000001
 21
292.0869237649913
 31
0.0
  0
LINE
  5
64FB
330
5FD6
100
AcDbEntity
  8
1
  6
Continuous
100
AcDbLine
 10
719.6787369999997
 20
272.0869237649913
 30
0.0
 11
698.8287370000001
 21
272.0869237649913
 31
0.0
  0
LINE
  5
64FC
330
5FD6
100
AcDbEntity
  8
1
  6
Continuous
100
AcDbLine
 10
699.8287370000001
 20
292.0869237649913
 30
0.0
 11
699.8287370000001
 21
272.0869237649913
 31
0.0
  0
LINE
  5
64FD
330
5FD6
100
AcDbEntity
  8
1
  6
Continuous
100
AcDbLine
 10
698.3287370000001
 20
291.5869237649912
 30
0.0
 11
698.3287370000001
 21
272.5869237649912
 31
0.0
  0
LINE
  5
64FE
330
5FD6
100
AcDbEntity
  8
1
  6
Continuous
100
AcDbLine
 10
698.8287370000001
 20
292.0869237649913
 30
0.0
 11
698.8287370000001
 21
272.0869237649913
 31
0.0
  0
LINE
  5
64FF
330
5FD6
100
AcDbEntity
  8
2
  6
Continuous
100
AcDbLine
 10
698.2787369999997
 20
275.2108307649912
 30
0.0
 11
690.5787370000001
 21
282.0869237649913
 31
0.0
  0
LINE
  5
6500
330
5FD6
100
AcDbEntity
  8
2
  6
Continuous
100
AcDbLine
 10
698.2787369999997
 20
282.0869237649913
 30
0.0
 11
690.5787370000001
 21
275.2108307649912
 31
0.0
  0
LINE
  5
6501
330
5FD6
100
AcDbEntity
  8
1
  6
Continuous
100
AcDbLine
 10
698.2787369999997
 20
289.8369237649912
 30
0.0
 11
698.2787369999997
 21
274.3369237649913
 31
0.0
  0
LINE
  5
6502
330
5FD6
100
AcDbEntity
  8
1
  6
Continuous
100
AcDbLine
 10
690.2787369999997
 20
288.6630167649913
 30
0.0
 11
690.2787369999997
 21
275.5108307649912
 31
0.0
  0
LINE
  5
6503
330
5FD6
100
AcDbEntity
  8
1
  6
Continuous
100
AcDbLine
 10
690.5787370000001
 20
275.2108307649912
 30
0.0
 11
698.2787369999997
 21
275.2108307649912
 31
0.0
  0
LINE
  5
6504
330
5FD6
100
AcDbEntity
  8
1
  6
Continuous
100
AcDbLine
 10
698.8287370000001
 20
272.0869237649913
 30
0.0
 11
698.3287370000001
 21
272.5869237649912
 31
0.0
  0
ARC
  5
6505
330
5FD6
100
AcDbEntity
  8
1
  6
Continuous
100
AcDbCircle
 10
698.478737
 20
274.3369237649913
 30
0.0
 40
0.2
100
AcDbArc
 50
180.0
 51
221.409622
  0
ARC
  5
6506
330
5FD6
100
AcDbEntity
  8
1
  6
Continuous
100
AcDbCircle
 10
690.5787370000001
 20
275.5108307649912
 30
0.0
 40
0.3
100
AcDbArc
 50
180.0
 51
270.0
  0
LINE
  5
6507
330
5FD6
100
AcDbEntity
  8
2
  6
Continuous
100
AcDbLine
 10
690.5787370000001
 20
282.0869237649913
 30
0.0
 11
698.2787369999997
 21
288.9630167649913
 31
0.0
  0
LINE
  5
6508
330
5FD6
100
AcDbEntity
  8
2
  6
Continuous
100
AcDbLine
 10
690.5787370000001
 20
288.9630167649913
 30
0.0
 11
698.2787369999997
 21
282.0869237649913
 31
0.0
  0
LINE
  5
6509
330
5FD6
100
AcDbEntity
  8
1
  6
Continuous
100
AcDbLine
 10
690.5787370000001
 20
282.0869237649913
 30
0.0
 11
698.2787369999997
 21
282.0869237649913
 31
0.0
  0
LINE
  5
650A
330
5FD6
100
AcDbEntity
  8
1
  6
Continuous
100
AcDbLine
 10
690.5787370000001
 20
288.9630167649913
 30
0.0
 11
698.2787369999997
 21
288.9630167649913
 31
0.0
  0
LINE
  5
650B
330
5FD6
100
AcDbEntity
  8
1
  6
Continuous
100
AcDbLine
 10
698.3287370000001
 20
291.5869237649912
 30
0.0
 11
698.8287370000001
 21
292.0869237649913
 31
0.0
  0
ARC
  5
650C
330
5FD6
100
AcDbEntity
  8
1
  6
Continuous
100
AcDbCircle
 10
698.478737
 20
289.8369237649912
 30
0.0
 40
0.2
100
AcDbArc
 50
138.5903779999999
 51
180.0
  0
ARC
  5
650D
330
5FD6
100
AcDbEntity
  8
1
  6
Continuous
100
AcDbCircle
 10
690.5787370000001
 20
288.6630167649913
 30
0.0
 40
0.3
100
AcDbArc
 50
90.0
 51
180.0
  0
LINE
  5
6728
330
5FD6
100
AcDbEntity
  8
1
  6
Continuous
100
AcDbLine
 10
399.292362
 20
448.7481107649915
 30
0.0
 11
398.992362
 21
448.4481007649913
 31
0.0
  0
LINE
  5
6729
330
5FD6
100
AcDbEntity
  8
1
  6
Continuous
100
AcDbLine
 10
398.992362
 20
449.0481107649911
 30
0.0
 11
399.292362
 21
448.7481107649915
 31
0.0
  0
LINE
  5
672A
330
5FD6
100
AcDbEntity
  8
1
  6
Continuous
100
AcDbLine
 10
397.292362
 20
448.7481107649915
 30
0.0
 11
397.5923620000001
 21
449.0481107649911
 31
0.0
  0
LINE
  5
672B
330
5FD6
100
AcDbEntity
  8
1
  6
Continuous
100
AcDbLine
 10
397.292362
 20
448.7481107649915
 30
0.0
 11
397.5923620000001
 21
448.4481007649913
 31
0.0
  0
LINE
  5
672C
330
5FD6
100
AcDbEntity
  8
1
  6
Continuous
100
AcDbLine
 10
399.292362
 20
288.8464337649913
 30
0.0
 11
398.992362
 21
288.5464237649914
 31
0.0
  0
LINE
  5
672D
330
5FD6
100
AcDbEntity
  8
1
  6
Continuous
100
AcDbLine
 10
397.292362
 20
288.8464337649913
 30
0.0
 11
397.5923620000001
 21
288.5464237649914
 31
0.0
  0
LINE
  5
672E
330
5FD6
100
AcDbEntity
  8
1
  6
Continuous
100
AcDbLine
 10
398.992362
 20
289.1464337649913
 30
0.0
 11
399.292362
 21
288.8464337649913
 31
0.0
  0
LINE
  5
672F
330
5FD6
100
AcDbEntity
  8
1
  6
Continuous
100
AcDbLine
 10
397.292362
 20
288.8464337649913
 30
0.0
 11
397.5923620000001
 21
289.1464337649913
 31
0.0
  0
LINE
  5
6730
330
5FD6
100
AcDbEntity
  8
1
  6
Continuous
100
AcDbLine
 10
649.7063969999998
 20
288.8464337649913
 30
0.0
 11
649.406397
 21
289.1464337649913
 31
0.0
  0
LINE
  5
6731
330
5FD6
100
AcDbEntity
  8
1
  6
Continuous
100
AcDbLine
 10
648.0063969999998
 20
289.1464337649913
 30
0.0
 11
647.7063969999997
 21
288.8464337649913
 31
0.0
  0
LINE
  5
6732
330
5FD6
100
AcDbEntity
  8
1
  6
Continuous
100
AcDbLine
 10
649.7063969999998
 20
288.8464337649913
 30
0.0
 11
649.406397
 21
288.5464237649914
 31
0.0
  0
LINE
  5
6733
330
5FD6
100
AcDbEntity
  8
1
  6
Continuous
100
AcDbLine
 10
647.7063969999997
 20
288.8464337649913
 30
0.0
 11
648.0063969999998
 21
288.5464237649914
 31
0.0
  0
ARC
  5
6767
330
5FD6
100
AcDbEntity
  8
1
  6
Continuous
100
AcDbCircle
 10
521.3493691663606
 20
219.4346365993266
 30
0.0
 40
0.5
100
AcDbArc
 50
89.99999999999998
 51
270.0
  0
ARC
  5
676B
330
5FD6
100
AcDbEntity
  8
1
  6
Continuous
100
AcDbCircle
 10
521.3493691663606
 20
222.9886376353586
 30
0.0
 40
0.5000000000000005
100
AcDbArc
 50
89.99999999999998
 51
0.0
  0
LINE
  5
6773
330
5FD6
100
AcDbEntity
  8
1
  6
Continuous
100
AcDbLine
 10
521.8493691663605
 20
222.9886376353586
 30
0.0
 11
521.8493691663605
 21
223.1388009542817
 31
0.0
  0
ARC
  5
6774
330
5FD6
100
AcDbEntity
  8
1
  6
Continuous
100
AcDbCircle
 10
522.3493691663605
 20
222.9886376353586
 30
0.0
 40
0.5
100
AcDbArc
 50
180.0
 51
89.99999999999998
  0
LINE
  5
677F
330
5FD6
100
AcDbEntity
  8
1
  6
Continuous
100
AcDbLine
 10
522.3493691663605
 20
218.9346365993265
 30
0.0
 11
521.3493691663606
 21
218.9346365993265
 31
0.0
  0
LINE
  5
6780
330
5FD6
100
AcDbEntity
  8
1
  6
Continuous
100
AcDbLine
 10
522.3493691663605
 20
219.9346365993266
 30
0.0
 11
521.3493691663606
 21
219.9346365993266
 31
0.0
  0
ARC
  5
6781
330
5FD6
100
AcDbEntity
  8
1
  6
Continuous
100
AcDbCircle
 10
522.3493691663605
 20
219.4346365993266
 30
0.0
 40
0.5
100
AcDbArc
 50
270.0
 51
89.99999999999998
  0
ARC
  5
67A6
330
5FD6
100
AcDbEntity
  8
1
  6
Continuous
100
AcDbCircle
 10
521.3493691663606
 20
221.245313099699
 30
0.0
 40
0.5000000000000005
100
AcDbArc
 50
89.99999999999998
 51
0.0
  0
LINE
  5
67A7
330
5FD6
100
AcDbEntity
  8
1
  6
Continuous
100
AcDbLine
 10
521.8493691663605
 20
221.245313099699
 30
0.0
 11
521.8493691663605
 21
221.395476418622
 31
0.0
  0
ARC
  5
67A8
330
5FD6
100
AcDbEntity
  8
1
  6
Continuous
100
AcDbCircle
 10
522.3493691663605
 20
221.245313099699
 30
0.0
 40
0.5
100
AcDbArc
 50
180.0
 51
89.99999999999998
  0
LINE
  5
67AA
330
5FD6
100
AcDbEntity
  8
1
  6
Continuous
100
AcDbLine
 10
399.292362
 20
64.33112142627272
 30
0.0
 11
398.992362
 21
64.63113142627268
 31
0.0
  0
LINE
  5
67AB
330
5FD6
100
AcDbEntity
  8
1
  6
Continuous
100
AcDbLine
 10
398.992362
 20
64.03112142627269
 30
0.0
 11
399.292362
 21
64.33112142627272
 31
0.0
  0
LINE
  5
67AC
330
5FD6
100
AcDbEntity
  8
1
  6
Continuous
100
AcDbLine
 10
397.292362
 20
64.33112142627272
 30
0.0
 11
397.5923620000001
 21
64.03112142627269
 31
0.0
  0
LINE
  5
67AD
330
5FD6
100
AcDbEntity
  8
1
  6
Continuous
100
AcDbLine
 10
397.292362
 20
64.33112142627272
 30
0.0
 11
397.5923620000001
 21
64.63113142627268
 31
0.0
  0
ENDSEC
  0
SECTION
  2
OBJECTS
  0
DICTIONARY
  5
5FC4
330
0
100
AcDbDictionary
281
     1
  3
ACAD_CIP_PREVIOUS_PRODUCT_INFO
350
680E
  3
ACAD_COLOR
350
67F0
  3
ACAD_DETAILVIEWSTYLE
350
6809
  3
ACAD_GROUP
350
5FC5
  3
ACAD_LAYOUT
350
5FD1
  3
ACAD_MATERIAL
350
67BE
  3
ACAD_MLEADERSTYLE
350
6805
  3
ACAD_MLINESTYLE
350
5FCE
  3
ACAD_PLOTSETTINGS
350
5FD0
  3
ACAD_PLOTSTYLENAME
350
67BC
  3
ACAD_SCALELIST
350
67F3
  3
ACAD_SECTIONVIEWSTYLE
350
6807
  3
ACAD_TABLESTYLE
350
67F1
  3
ACAD_VISUALSTYLE
350
67D7
  3
ACDB_RECOMPOSE_DATA
350
682C
  3
AcDbVariableDictionary
350
681F
  3
DWGPROPS
350
682D
  0
DICTIONARY
  5
680F
330
5FC8
100
AcDbDictionary
280
     1
281
     1
  3
ADSK_XREC_LAYER_RECONCILED
360
6810
  0
DICTIONARY
  5
6811
330
5FDE
100
AcDbDictionary
280
     1
281
     1
  3
ADSK_XREC_LAYER_RECONCILED
360
6812
  0
DICTIONARY
  5
6813
330
5FDF
100
AcDbDictionary
280
     1
281
     1
  3
ADSK_XREC_LAYER_RECONCILED
360
6814
  0
DICTIONARY
  5
6815
330
5FE0
100
AcDbDictionary
280
     1
281
     1
  3
ADSK_XREC_LAYER_RECONCILED
360
6816
  0
DICTIONARY
  5
6817
330
5FE1
100
AcDbDictionary
280
     1
281
     1
  3
ADSK_XREC_LAYER_RECONCILED
360
6818
  0
DICTIONARY
  5
6819
330
5FE2
100
AcDbDictionary
280
     1
281
     1
  3
ADSK_XREC_LAYER_RECONCILED
360
681A
  0
DICTIONARY
  5
681B
330
5FE3
100
AcDbDictionary
280
     1
281
     1
  3
ADSK_XREC_LAYER_RECONCILED
360
681C
  0
DICTIONARY
  5
681D
330
5FE4
100
AcDbDictionary
280
     1
281
     1
  3
ADSK_XREC_LAYER_RECONCILED
360
681E
  0
DICTIONARY
  5
67B7
330
5FD6
100
AcDbDictionary
281
     1
  3
ACAD_LAYOUTSELFREF
350
67B8
  0
DICTIONARY
  5
67B5
330
5FD2
100
AcDbDictionary
281
     1
  3
ACAD_LAYOUTSELFREF
350
67B6
  0
XRECORD
  5
680E
102
{ACAD_REACTORS
330
5FC4
102
}
330
5FC4
100
AcDbXrecord
280
     1
300
ACDLT
300
2014
300
ACDLT_F_S
  0
DICTIONARY
  5
67F0
102
{ACAD_REACTORS
330
5FC4
102
}
330
5FC4
100
AcDbDictionary
281
     1
  0
DICTIONARY
  5
6809
102
{ACAD_REACTORS
330
5FC4
102
}
330
5FC4
100
AcDbDictionary
281
     1
  3
Imperial24
350
680A
  0
DICTIONARY
  5
5FC5
102
{ACAD_REACTORS
330
5FC4
102
}
330
5FC4
100
AcDbDictionary
281
     1
  0
DICTIONARY
  5
5FD1
102
{ACAD_REACTORS
330
5FC4
102
}
330
5FC4
100
AcDbDictionary
281
     1
  3
Model
350
680B
  3
レイアウト1
350
680C
  0
DICTIONARY
  5
67BE
102
{ACAD_REACTORS
330
5FC4
102
}
330
5FC4
100
AcDbDictionary
281
     1
  3
ByBlock
350
67C7
  3
ByLayer
350
67BF
  3
Global
350
67CF
  0
DICTIONARY
  5
6805
102
{ACAD_REACTORS
330
5FC4
102
}
330
5FC4
100
AcDbDictionary
281
     1
  3
Standard
350
6806
  0
DICTIONARY
  5
5FCE
102
{ACAD_REACTORS
330
5FC4
102
}
330
5FC4
100
AcDbDictionary
281
     1
  3
STANDARD
350
5FCF
  0
DICTIONARY
  5
5FD0
102
{ACAD_REACTORS
330
5FC4
102
}
330
5FC4
100
AcDbDictionary
281
     1
  0
ACDBDICTIONARYWDFLT
  5
67BC
102
{ACAD_REACTORS
330
5FC4
102
}
330
5FC4
100
AcDbDictionary
281
     1
  3
Normal
350
67BD
100
AcDbDictionaryWithDefault
340
67BD
  0
DICTIONARY
  5
67F3
102
{ACAD_REACTORS
330
5FC4
102
}
330
5FC4
100
AcDbDictionary
281
     1
  3
A0
350
67F4
  3
A1
350
67F5
  3
A2
350
67F6
  3
A3
350
67F7
  3
A4
350
67F8
  3
A5
350
67F9
  3
A6
350
67FA
  3
A7
350
67FB
  3
A8
350
67FC
  3
A9
350
67FD
  3
B0
350
67FE
  3
B1
350
67FF
  3
B2
350
6800
  3
B3
350
6801
  3
B4
350
6802
  3
B5
350
6803
  3
B6
350
6804
  0
DICTIONARY
  5
6807
102
{ACAD_REACTORS
330
5FC4
102
}
330
5FC4
100
AcDbDictionary
281
     1
  3
Imperial24
350
6808
  0
DICTIONARY
  5
67F1
102
{ACAD_REACTORS
330
5FC4
102
}
330
5FC4
100
AcDbDictionary
281
     1
  3
Standard
350
67F2
  0
DICTIONARY
  5
67D7
102
{ACAD_REACTORS
330
5FC4
102
}
330
5FC4
100
AcDbDictionary
281
     1
  3
2dWireframe
350
67DD
  3
Basic
350
67DC
  3
Brighten
350
67E3
  3
ColorChange
350
67E7
  3
Conceptual
350
67E0
  3
Dim
350
67E2
  3
EdgeColorOff
350
67EF
  3
Facepattern
350
67E6
  3
Flat
350
67D8
  3
FlatWithEdges
350
67D9
  3
Gouraud
350
67DA
  3
GouraudWithEdges
350
67DB
  3
Hidden
350
67DF
  3
JitterOff
350
67ED
  3
Linepattern
350
67E5
  3
OverhangOff
350
67EE
  3
Realistic
350
67E1
  3
Shaded
350
67EC
  3
Shaded with edges
350
67EB
  3
Shades of Gray
350
67E8
  3
Sketchy
350
67E9
  3
Thicken
350
67E4
  3
Wireframe
350
67DE
  3
X-Ray
350
67EA
  0
XRECORD
  5
682C
102
{ACAD_REACTORS
330
5FC4
102
}
330
5FC4
100
AcDbXrecord
280
     1
 90
        1
330
67F2
  0
DICTIONARY
  5
681F
102
{ACAD_REACTORS
330
5FC4
102
}
330
5FC4
100
AcDbDictionary
281
     1
  3
CANNOSCALE
350
6824
  3
CMLEADERSTYLE
350
6821
  3
CTABLESTYLE
350
6820
  3
CVIEWDETAILSTYLE
350
6822
  3
CVIEWSECTIONSTYLE
350
6823
  3
DIMASSOC
350
6827
  3
INDEXCTL
350
6826
  3
SORTENTS
350
6825
  3
XCLIPFRAME
350
6828
  0
XRECORD
  5
682D
102
{ACAD_REACTORS
330
5FC4
102
}
330
5FC4
100
AcDbXrecord
280
     1
  1
DWGPROPS COOKIE
  2

  3

  4

  6

  7

  8
Yoshitsune
  9

300
=
301
=
302
=
303
=
304
=
305
=
306
=
307
=
308
=
309
=
 40
0.2849008217592592
 41
2451652.414742002
 42
2457192.64167338
  1

 90
        0
  0
XRECORD
  5
6810
102
{ACAD_REACTORS
330
680F
102
}
330
680F
100
AcDbXrecord
280
     1
290
     1
  0
XRECORD
  5
6812
102
{ACAD_REACTORS
330
6811
102
}
330
6811
100
AcDbXrecord
280
     1
290
     1
  0
XRECORD
  5
6814
102
{ACAD_REACTORS
330
6813
102
}
330
6813
100
AcDbXrecord
280
     1
290
     1
  0
XRECORD
  5
6816
102
{ACAD_REACTORS
330
6815
102
}
330
6815
100
AcDbXrecord
280
     1
290
     1
  0
XRECORD
  5
6818
102
{ACAD_REACTORS
330
6817
102
}
330
6817
100
AcDbXrecord
280
     1
290
     1
  0
XRECORD
  5
681A
102
{ACAD_REACTORS
330
6819
102
}
330
6819
100
AcDbXrecord
280
     1
290
     1
  0
XRECORD
  5
681C
102
{ACAD_REACTORS
330
681B
102
}
330
681B
100
AcDbXrecord
280
     1
290
     1
  0
XRECORD
  5
681E
102
{ACAD_REACTORS
330
681D
102
}
330
681D
100
AcDbXrecord
280
     1
290
     1
  0
XRECORD
  5
67B8
102
{ACAD_REACTORS
330
67B7
102
}
330
67B7
100
AcDbXrecord
280
     1
340
5FD6
  0
XRECORD
  5
67B6
102
{ACAD_REACTORS
330
67B5
102
}
330
67B5
100
AcDbXrecord
280
     1
340
5FD2
  0
ACDBDETAILVIEWSTYLE
  5
680A
102
{ACAD_XDICTIONARY
360
6865
102
}
102
{ACAD_REACTORS
330
6809
102
}
330
6809
100
AcDbModelDocViewStyle
 70
     0
  3
Imperial24
290
     0
100
AcDbDetailViewStyle
 70
     0
 71
     0
 90
        3
 71
     1
340
5FC9
 40
0.24
340
0
 40
0.24
300

 40
0.36
280
     3
 71
     2
340
5FCD
 90
       25
 71
     3
340
5FC9
 40
0.24
 90
        1
 40
0.75
 90
        1
300
%<\AcVar ViewType \f "%tc1">% %<\AcVar ViewDetailId>%\PSCALE %<\AcVar ViewScale \f "%sn">%
 71
     4
340
5FCD
 90
       25
340
5FCD
 90
       25
280
     0
  0
LAYOUT
  5
680B
102
{ACAD_XDICTIONARY
360
6867
102
}
102
{ACAD_REACTORS
330
5FD1
102
}
330
5FD1
100
AcDbPlotSettings
  1

  2
Canon LBP9100C
  4

  6

 40
0.0
 41
0.0
 42
0.0
 43
0.0
 44
0.0
 45
0.0
 46
0.0
 47
0.0
 48
0.0
 49
0.0
140
0.0
141
0.0
142
1.0
143
1.0
 70
  1712
 72
     0
 73
     0
 74
     0
  7

 75
     0
147
1.0
148
0.0
149
0.0
100
AcDbLayout
  1
Model
 70
     1
 71
     0
 10
0.0
 20
0.0
 11
12.0
 21
9.0
 12
0.0
 22
0.0
 32
0.0
 14
0.0
 24
0.0
 34
0.0
 15
0.0
 25
0.0
 35
0.0
146
0.0
 13
0.0
 23
0.0
 33
0.0
 16
1.0
 26
0.0
 36
0.0
 17
0.0
 27
1.0
 37
0.0
 76
     0
330
5FD6
331
67B4
  0
LAYOUT
  5
680C
102
{ACAD_XDICTIONARY
360
6869
102
}
102
{ACAD_REACTORS
330
5FD1
102
}
330
5FD1
100
AcDbPlotSettings
  1

  2
Canon LBP9100C
  4

  6

 40
0.0
 41
0.0
 42
0.0
 43
0.0
 44
0.0
 45
0.0
 46
0.0
 47
0.0
 48
0.0
 49
0.0
140
0.0
141
0.0
142
1.0
143
1.0
 70
   688
 72
     0
 73
     0
 74
     5
  7

 75
    16
147
1.0
148
0.0
149
0.0
100
AcDbLayout
  1
レイアウト1
 70
     1
 71
     1
 10
0.0
 20
0.0
 11
420.0
 21
297.0
 12
0.0
 22
0.0
 32
0.0
 14
1.000000000000000E+20
 24
1.000000000000000E+20
 34
1.000000000000000E+20
 15
-1.000000000000000E+20
 25
-1.000000000000000E+20
 35
-1.000000000000000E+20
146
0.0
 13
0.0
 23
0.0
 33
0.0
 16
1.0
 26
0.0
 36
0.0
 17
0.0
 27
1.0
 37
0.0
 76
     0
330
5FD2
  0
MATERIAL
  5
67C7
102
{ACAD_XDICTIONARY
360
67C8
102
}
102
{ACAD_REACTORS
330
67BE
102
}
330
67BE
100
AcDbMaterial
  1
ByBlock
 72
     0
 43
0.0208333333333333
 43
0.0
 43
0.0
 43
0.0
 43
0.0
 43
0.0208333333333333
 43
0.0
 43
0.0
 43
0.0
 43
0.0
 43
1.0
 43
0.0
 43
0.0
 43
0.0
 43
0.0
 43
1.0
 77
     0
 47
0.0208333333333333
 47
0.0
 47
0.0
 47
0.0
 47
0.0
 47
0.0208333333333333
 47
0.0
 47
0.0
 47
0.0
 47
0.0
 47
1.0
 47
0.0
 47
0.0
 47
0.0
 47
0.0
 47
1.0
171
     0
 49
0.0208333333333333
 49
0.0
 49
0.0
 49
0.0
 49
0.0
 49
0.0208333333333333
 49
0.0
 49
0.0
 49
0.0
 49
0.0
 49
1.0
 49
0.0
 49
0.0
 49
0.0
 49
0.0
 49
1.0
175
     0
142
0.0208333333333333
142
0.0
142
0.0
142
0.0
142
0.0
142
0.0208333333333333
142
0.0
142
0.0
142
0.0
142
0.0
142
1.0
142
0.0
142
0.0
142
0.0
142
0.0
142
1.0
179
     0
144
0.0208333333333333
144
0.0
144
0.0
144
0.0
144
0.0
144
0.0208333333333333
144
0.0
144
0.0
144
0.0
144
0.0
144
1.0
144
0.0
144
0.0
144
0.0
144
0.0
144
1.0
147
0.0208333333333333
147
0.0
147
0.0
147
0.0
147
0.0
147
0.0208333333333333
147
0.0
147
0.0
147
0.0
147
0.0
147
1.0
147
0.0
147
0.0
147
0.0
147
0.0
147
1.0
  0
MATERIAL
  5
67BF
102
{ACAD_XDICTIONARY
360
67C0
102
}
102
{ACAD_REACTORS
330
67BE
102
}
330
67BE
100
AcDbMaterial
  1
ByLayer
 72
     0
 43
0.0208333333333333
 43
0.0
 43
0.0
 43
0.0
 43
0.0
 43
0.0208333333333333
 43
0.0
 43
0.0
 43
0.0
 43
0.0
 43
1.0
 43
0.0
 43
0.0
 43
0.0
 43
0.0
 43
1.0
 77
     0
 47
0.0208333333333333
 47
0.0
 47
0.0
 47
0.0
 47
0.0
 47
0.0208333333333333
 47
0.0
 47
0.0
 47
0.0
 47
0.0
 47
1.0
 47
0.0
 47
0.0
 47
0.0
 47
0.0
 47
1.0
171
     0
 49
0.0208333333333333
 49
0.0
 49
0.0
 49
0.0
 49
0.0
 49
0.0208333333333333
 49
0.0
 49
0.0
 49
0.0
 49
0.0
 49
1.0
 49
0.0
 49
0.0
 49
0.0
 49
0.0
 49
1.0
175
     0
142
0.0208333333333333
142
0.0
142
0.0
142
0.0
142
0.0
142
0.0208333333333333
142
0.0
142
0.0
142
0.0
142
0.0
142
1.0
142
0.0
142
0.0
142
0.0
142
0.0
142
1.0
179
     0
144
0.0208333333333333
144
0.0
144
0.0
144
0.0
144
0.0
144
0.0208333333333333
144
0.0
144
0.0
144
0.0
144
0.0
144
1.0
144
0.0
144
0.0
144
0.0
144
0.0
144
1.0
147
0.0208333333333333
147
0.0
147
0.0
147
0.0
147
0.0
147
0.0208333333333333
147
0.0
147
0.0
147
0.0
147
0.0
147
1.0
147
0.0
147
0.0
147
0.0
147
0.0
147
1.0
  0
MATERIAL
  5
67CF
102
{ACAD_XDICTIONARY
360
67D0
102
}
102
{ACAD_REACTORS
330
67BE
102
}
330
67BE
100
AcDbMaterial
  1
Global
 72
     0
 43
0.0208333333333333
 43
0.0
 43
0.0
 43
0.0
 43
0.0
 43
0.0208333333333333
 43
0.0
 43
0.0
 43
0.0
 43
0.0
 43
1.0
 43
0.0
 43
0.0
 43
0.0
 43
0.0
 43
1.0
 77
     0
 47
0.0208333333333333
 47
0.0
 47
0.0
 47
0.0
 47
0.0
 47
0.0208333333333333
 47
0.0
 47
0.0
 47
0.0
 47
0.0
 47
1.0
 47
0.0
 47
0.0
 47
0.0
 47
0.0
 47
1.0
171
     0
 49
0.0208333333333333
 49
0.0
 49
0.0
 49
0.0
 49
0.0
 49
0.0208333333333333
 49
0.0
 49
0.0
 49
0.0
 49
0.0
 49
1.0
 49
0.0
 49
0.0
 49
0.0
 49
0.0
 49
1.0
175
     0
142
0.0208333333333333
142
0.0
142
0.0
142
0.0
142
0.0
142
0.0208333333333333
142
0.0
142
0.0
142
0.0
142
0.0
142
1.0
142
0.0
142
0.0
142
0.0
142
0.0
142
1.0
179
     0
144
0.0208333333333333
144
0.0
144
0.0
144
0.0
144
0.0
144
0.0208333333333333
144
0.0
144
0.0
144
0.0
144
0.0
144
1.0
144
0.0
144
0.0
144
0.0
144
0.0
144
1.0
147
0.0208333333333333
147
0.0
147
0.0
147
0.0
147
0.0
147
0.0208333333333333
147
0.0
147
0.0
147
0.0
147
0.0
147
1.0
147
0.0
147
0.0
147
0.0
147
0.0
147
1.0
  0
MLEADERSTYLE
  5
6806
102
{ACAD_REACTORS
330
6805
102
}
330
6805
100
AcDbMLeaderStyle
170
     2
171
     1
172
     0
 90
        2
 40
0.0
 41
0.0
173
     1
 91
-1056964608
340
5FCB
 92
       -2
290
     1
 42
0.09
291
     1
 43
0.36
  3
Standard
 44
0.18
300

342
5FC9
174
     1
178
     6
175
     1
176
     0
 93
-1056964608
 45
0.18
292
     0
297
     0
 46
0.18
 94
-1056964608
 47
1.0
 49
1.0
140
1.0
293
     1
141
0.0
294
     1
177
     0
142
1.0
295
     0
296
     0
143
0.125
1001
ACAD_MLEADERVER
1070
     2
  0
MLINESTYLE
  5
5FCF
102
{ACAD_REACTORS
330
5FCE
102
}
330
5FCE
100
AcDbMlineStyle
  2
STANDARD
 70
     0
  3

 62
   256
 51
90.0
 52
90.0
 71
     2
 49
0.5
 62
   256
  6
BYLAYER
 49
-0.5
 62
   256
  6
BYLAYER
  0
ACDBPLACEHOLDER
  5
67BD
102
{ACAD_REACTORS
330
67BC
102
}
330
67BC
  0
SCALE
  5
67F4
102
{ACAD_REACTORS
330
67F3
102
}
330
67F3
100
AcDbScale
 70
     0
300
1:1
140
1.0
141
1.0
290
     1
  0
SCALE
  5
67F5
102
{ACAD_REACTORS
330
67F3
102
}
330
67F3
100
AcDbScale
 70
     0
300
1/128" = 1'-0"
140
0.0078125
141
12.0
290
     0
  0
SCALE
  5
67F6
102
{ACAD_REACTORS
330
67F3
102
}
330
67F3
100
AcDbScale
 70
     0
300
1/64" = 1'-0"
140
0.015625
141
12.0
290
     0
  0
SCALE
  5
67F7
102
{ACAD_REACTORS
330
67F3
102
}
330
67F3
100
AcDbScale
 70
     0
300
1/32" = 1'-0"
140
0.03125
141
12.0
290
     0
  0
SCALE
  5
67F8
102
{ACAD_REACTORS
330
67F3
102
}
330
67F3
100
AcDbScale
 70
     0
300
1/16" = 1'-0"
140
0.0625
141
12.0
290
     0
  0
SCALE
  5
67F9
102
{ACAD_REACTORS
330
67F3
102
}
330
67F3
100
AcDbScale
 70
     0
300
3/32" = 1'-0"
140
0.09375
141
12.0
290
     0
  0
SCALE
  5
67FA
102
{ACAD_REACTORS
330
67F3
102
}
330
67F3
100
AcDbScale
 70
     0
300
1/8" = 1'-0"
140
0.125
141
12.0
290
     0
  0
SCALE
  5
67FB
102
{ACAD_REACTORS
330
67F3
102
}
330
67F3
100
AcDbScale
 70
     0
300
3/16" = 1'-0"
140
0.1875
141
12.0
290
     0
  0
SCALE
  5
67FC
102
{ACAD_REACTORS
330
67F3
102
}
330
67F3
100
AcDbScale
 70
     0
300
1/4" = 1'-0"
140
0.25
141
12.0
290
     0
  0
SCALE
  5
67FD
102
{ACAD_REACTORS
330
67F3
102
}
330
67F3
100
AcDbScale
 70
     0
300
3/8" = 1'-0"
140
0.375
141
12.0
290
     0
  0
SCALE
  5
67FE
102
{ACAD_REACTORS
330
67F3
102
}
330
67F3
100
AcDbScale
 70
     0
300
1/2" = 1'-0"
140
0.5
141
12.0
290
     0
  0
SCALE
  5
67FF
102
{ACAD_REACTORS
330
67F3
102
}
330
67F3
100
AcDbScale
 70
     0
300
3/4" = 1'-0"
140
0.75
141
12.0
290
     0
  0
SCALE
  5
6800
102
{ACAD_REACTORS
330
67F3
102
}
330
67F3
100
AcDbScale
 70
     0
300
1" = 1'-0"
140
1.0
141
12.0
290
     0
  0
SCALE
  5
6801
102
{ACAD_REACTORS
330
67F3
102
}
330
67F3
100
AcDbScale
 70
     0
300
1-1/2" = 1'-0"
140
1.5
141
12.0
290
     0
  0
SCALE
  5
6802
102
{ACAD_REACTORS
330
67F3
102
}
330
67F3
100
AcDbScale
 70
     0
300
3" = 1'-0"
140
3.0
141
12.0
290
     0
  0
SCALE
  5
6803
102
{ACAD_REACTORS
330
67F3
102
}
330
67F3
100
AcDbScale
 70
     0
300
6" = 1'-0"
140
6.0
141
12.0
290
     0
  0
SCALE
  5
6804
102
{ACAD_REACTORS
330
67F3
102
}
330
67F3
100
AcDbScale
 70
     0
300
1'-0" = 1'-0"
140
12.0
141
12.0
290
     0
  0
ACDBSECTIONVIEWSTYLE
  5
6808
102
{ACAD_XDICTIONARY
360
6863
102
}
102
{ACAD_REACTORS
330
6807
102
}
330
6807
100
AcDbModelDocViewStyle
 70
     0
  3
Imperial24
290
     0
100
AcDbSectionViewStyle
 70
     0
 71
     0
 90
       78
 71
     1
340
5FC9
 40
0.24
340
0
340
0
 40
0.24
300
I, O, Q, S, X, Z
 40
0.48
 90
        3
 40
0.18
 90
        1
 71
     2
340
5FCD
 90
       25
340
5FCD
 90
       50
 40
0.24
 40
0.0
 40
0.24
 71
     3
340
5FC9
 40
0.24
 90
        1
 40
0.75
 90
        1
300
%<\AcVar ViewType \f "%tc1">% %<\AcVar ViewSectionStartId>%-%<\AcVar ViewSectionEndId>%\PSCALE %<\AcVar ViewScale \f "%sn">%
 71
     4
300
ANSI31
 40
1.0
 90
        0
290
     0
290
     0
 90
        6
 40
0.0
 40
1.570796326794896
 40
0.2617993877991494
 40
1.308996938995747
 40
-0.2617993877991494
 40
1.832595714594046
  0
TABLESTYLE
  5
67F2
102
{ACAD_XDICTIONARY
360
682A
102
}
102
{ACAD_REACTORS
330
67F1
102
}
330
67F1
100
AcDbTableStyle
  3
Standard
 70
     0
 71
     0
 40
0.06
 41
0.06
280
     0
281
     0
  7
STANDARD
140
0.18
170
     2
 62
     0
 63
     7
283
     0
274
    -2
284
     1
 64
     0
275
    -2
285
     1
 65
     0
276
    -2
286
     1
 66
     0
277
    -2
287
     1
 67
     0
278
    -2
288
     1
 68
     0
279
    -2
289
     1
 69
     0
  7
STANDARD
140
0.25
170
     5
 62
     0
 63
     7
283
     0
274
    -2
284
     1
 64
     0
275
    -2
285
     1
 65
     0
276
    -2
286
     1
 66
     0
277
    -2
287
     1
 67
     0
278
    -2
288
     1
 68
     0
279
    -2
289
     1
 69
     0
  7
STANDARD
140
0.18
170
     5
 62
     0
 63
     7
283
     0
274
    -2
284
     1
 64
     0
275
    -2
285
     1
 65
     0
276
    -2
286
     1
 66
     0
277
    -2
287
     1
 67
     0
278
    -2
288
     1
 68
     0
279
    -2
289
     1
 69
     0
  0
VISUALSTYLE
  5
67DD
102
{ACAD_XDICTIONARY
360
683B
102
}
102
{ACAD_REACTORS
330
67D7
102
}
330
67D7
100
AcDbVisualStyle
  2
2dWireframe
 70
     4
 71
     0
 72
     2
 73
     0
 90
        0
 40
-0.6
 41
-30.0
 62
     5
 63
     7
 74
     1
 91
        4
 64
     7
 65
   257
 75
     1
175
     1
 42
1.0
 92
        0
 66
   257
 43
1.0
 76
     1
 77
     6
 78
     2
 67
     7
 79
     5
170
     0
171
     0
290
     0
174
     0
 93
        1
 44
0.0
173
     0
291
     0
 45
0.0
1001
ACAD
1000
AcDbSavedByObjectVersion
1070
     0
  0
VISUALSTYLE
  5
67DC
102
{ACAD_XDICTIONARY
360
6839
102
}
102
{ACAD_REACTORS
330
67D7
102
}
330
67D7
100
AcDbVisualStyle
  2
Basic
 70
     7
 71
     1
 72
     0
 73
     1
 90
        0
 40
-0.6
 41
-30.0
 62
     5
 63
     7
 74
     0
 91
        4
 64
     7
 65
   257
 75
     1
175
     1
 42
1.0
 92
        8
 66
     7
 43
1.0
 76
     1
 77
     6
 78
     2
 67
     7
 79
     5
170
     0
171
     0
290
     0
174
     0
 93
        1
 44
0.0
173
     0
291
     1
 45
0.0
1001
ACAD
1000
AcDbSavedByObjectVersion
1070
     0
  0
VISUALSTYLE
  5
67E3
102
{ACAD_XDICTIONARY
360
6847
102
}
102
{ACAD_REACTORS
330
67D7
102
}
330
67D7
100
AcDbVisualStyle
  2
Brighten
 70
    12
 71
     2
 72
     2
 73
     0
 90
        0
 40
-0.6
 41
-30.0
 62
     5
 63
     7
 74
     1
 91
        4
 64
     7
 65
   257
 75
     1
175
     1
 42
1.0
 92
        8
 66
     7
 43
1.0
 76
     1
 77
     6
 78
     2
 67
     7
 79
     5
170
     0
171
     0
290
     0
174
     0
 93
        1
 44
50.0
173
     0
291
     1
 45
0.0
1001
ACAD
1000
AcDbSavedByObjectVersion
1070
     0
  0
VISUALSTYLE
  5
67E7
102
{ACAD_XDICTIONARY
360
684F
102
}
102
{ACAD_REACTORS
330
67D7
102
}
330
67D7
100
AcDbVisualStyle
  2
ColorChange
 70
    16
 71
     2
 72
     2
 73
     3
 90
        0
 40
-0.6
 41
-30.0
 62
     5
 63
     8
 74
     1
 91
        4
 64
     7
 65
   257
 75
     1
175
     1
 42
1.0
 92
        8
 66
     8
 43
1.0
 76
     1
 77
     6
 78
     2
 67
     7
 79
     5
170
     0
171
     0
290
     0
174
     0
 93
        1
 44
0.0
173
     0
291
     1
 45
0.0
1001
ACAD
1000
AcDbSavedByObjectVersion
1070
     0
  0
VISUALSTYLE
  5
67E0
102
{ACAD_XDICTIONARY
360
6841
102
}
102
{ACAD_REACTORS
330
67D7
102
}
330
67D7
100
AcDbVisualStyle
  2
Conceptual
 70
     9
 71
     3
 72
     2
 73
     0
 90
        0
 40
-0.6
 41
-30.0
 62
     5
 63
     7
 74
     2
 91
        2
 64
     7
 65
   257
 75
     1
175
     1
 42
179.0
 92
        8
 66
     7
 43
1.0
 76
     1
 77
     6
 78
     2
 67
     7
 79
     3
170
     0
171
     0
290
     0
174
     0
 93
        1
 44
0.0
173
     0
291
     0
 45
0.0
1001
ACAD
1000
AcDbSavedByObjectVersion
1070
     0
  0
VISUALSTYLE
  5
67E2
102
{ACAD_XDICTIONARY
360
6845
102
}
102
{ACAD_REACTORS
330
67D7
102
}
330
67D7
100
AcDbVisualStyle
  2
Dim
 70
    11
 71
     2
 72
     2
 73
     0
 90
        0
 40
-0.6
 41
-30.0
 62
     5
 63
     7
 74
     1
 91
        4
 64
     7
 65
   257
 75
     1
175
     1
 42
1.0
 92
        8
 66
     7
 43
1.0
 76
     1
 77
     6
 78
     2
 67
     7
 79
     5
170
     0
171
     0
290
     0
174
     0
 93
        1
 44
-50.0
173
     0
291
     1
 45
0.0
1001
ACAD
1000
AcDbSavedByObjectVersion
1070
     0
  0
VISUALSTYLE
  5
67EF
102
{ACAD_XDICTIONARY
360
685F
102
}
102
{ACAD_REACTORS
330
67D7
102
}
330
67D7
100
AcDbVisualStyle
  2
EdgeColorOff
 70
    22
 71
     2
 72
     2
 73
     0
 90
        0
 40
-0.6
 41
-30.0
 62
     5
 63
     7
 74
     1
 91
        4
 64
     7
 65
   257
 75
     1
175
     1
 42
1.0
 92
        8
 66
     7
 43
1.0
 76
     1
 77
     6
 78
     2
 67
     7
 79
     5
170
     0
171
     0
290
     0
174
     0
 93
        1
 44
0.0
173
     0
291
     1
 45
0.0
1001
ACAD
1000
AcDbSavedByObjectVersion
1070
     0
  0
VISUALSTYLE
  5
67E6
102
{ACAD_XDICTIONARY
360
684D
102
}
102
{ACAD_REACTORS
330
67D7
102
}
330
67D7
100
AcDbVisualStyle
  2
Facepattern
 70
    15
 71
     2
 72
     2
 73
     0
 90
        0
 40
-0.6
 41
-30.0
 62
     5
 63
     7
 74
     1
 91
        4
 64
     7
 65
   257
 75
     1
175
     1
 42
1.0
 92
        8
 66
     7
 43
1.0
 76
     1
 77
     6
 78
     2
 67
     7
 79
     5
170
     0
171
     0
290
     0
174
     0
 93
        1
 44
0.0
173
     0
291
     1
 45
0.0
1001
ACAD
1000
AcDbSavedByObjectVersion
1070
     0
  0
VISUALSTYLE
  5
67D8
102
{ACAD_XDICTIONARY
360
6831
102
}
102
{ACAD_REACTORS
330
67D7
102
}
330
67D7
100
AcDbVisualStyle
  2
Flat
 70
     0
 71
     2
 72
     1
 73
     1
 90
        2
 40
-0.6
 41
30.0
 62
     5
 63
     7
 74
     0
 91
        0
 64
     7
 65
   257
 75
     1
175
     1
 42
1.0
 92
        8
 66
     7
 43
1.0
 76
     1
 77
     6
 78
     2
 67
     7
 79
     5
170
     0
171
     0
290
     0
174
     0
 93
       13
 44
0.0
173
     0
291
     1
 45
0.0
1001
ACAD
1000
AcDbSavedByObjectVersion
1070
     0
  0
VISUALSTYLE
  5
67D9
102
{ACAD_XDICTIONARY
360
6833
102
}
102
{ACAD_REACTORS
330
67D7
102
}
330
67D7
100
AcDbVisualStyle
  2
FlatWithEdges
 70
     1
 71
     2
 72
     1
 73
     1
 90
        2
 40
-0.6
 41
30.0
 62
     5
 63
     7
 74
     1
 91
        0
 64
     7
 65
   257
 75
     1
175
     1
 42
1.0
 92
        0
 66
   257
 43
1.0
 76
     1
 77
     6
 78
     2
 67
     7
 79
     5
170
     0
171
     0
290
     0
174
     0
 93
       13
 44
0.0
173
     0
291
     1
 45
0.0
1001
ACAD
1000
AcDbSavedByObjectVersion
1070
     0
  0
VISUALSTYLE
  5
67DA
102
{ACAD_XDICTIONARY
360
6835
102
}
102
{ACAD_REACTORS
330
67D7
102
}
330
67D7
100
AcDbVisualStyle
  2
Gouraud
 70
     2
 71
     2
 72
     2
 73
     1
 90
        2
 40
-0.6
 41
30.0
 62
     5
 63
     7
 74
     0
 91
        0
 64
     7
 65
   257
 75
     1
175
     1
 42
1.0
 92
        0
 66
     7
 43
1.0
 76
     1
 77
     6
 78
     2
 67
     7
 79
     5
170
     0
171
     0
290
     0
174
     0
 93
       13
 44
0.0
173
     0
291
     1
 45
0.0
1001
ACAD
1000
AcDbSavedByObjectVersion
1070
     0
  0
VISUALSTYLE
  5
67DB
102
{ACAD_XDICTIONARY
360
6837
102
}
102
{ACAD_REACTORS
330
67D7
102
}
330
67D7
100
AcDbVisualStyle
  2
GouraudWithEdges
 70
     3
 71
     2
 72
     2
 73
     1
 90
        2
 40
-0.6
 41
30.0
 62
     5
 63
     7
 74
     1
 91
        0
 64
     7
 65
   257
 75
     1
175
     1
 42
1.0
 92
        0
 66
   257
 43
1.0
 76
     1
 77
     6
 78
     2
 67
     7
 79
     5
170
     0
171
     0
290
     0
174
     0
 93
       13
 44
0.0
173
     0
291
     1
 45
0.0
1001
ACAD
1000
AcDbSavedByObjectVersion
1070
     0
  0
VISUALSTYLE
  5
67DF
102
{ACAD_XDICTIONARY
360
683F
102
}
102
{ACAD_REACTORS
330
67D7
102
}
330
67D7
100
AcDbVisualStyle
  2
Hidden
 70
     6
 71
     1
 72
     2
 73
     2
 90
        0
 40
-0.6
 41
-30.0
 62
     5
 63
     7
 74
     2
 91
        2
 64
     7
 65
   257
 75
     2
175
     1
 42
40.0
 92
        0
 66
   257
 43
1.0
 76
     1
 77
     6
 78
     2
 67
     7
 79
     3
170
     0
171
     0
290
     0
174
     0
 93
        1
 44
0.0
173
     0
291
     0
 45
0.0
1001
ACAD
1000
AcDbSavedByObjectVersion
1070
     0
  0
VISUALSTYLE
  5
67ED
102
{ACAD_XDICTIONARY
360
685B
102
}
102
{ACAD_REACTORS
330
67D7
102
}
330
67D7
100
AcDbVisualStyle
  2
JitterOff
 70
    20
 71
     2
 72
     2
 73
     0
 90
        0
 40
-0.6
 41
-30.0
 62
     5
 63
     7
 74
     1
 91
        4
 64
     7
 65
   257
 75
     1
175
     1
 42
1.0
 92
       10
 66
     7
 43
1.0
 76
     1
 77
     6
 78
     2
 67
     7
 79
     5
170
     0
171
     0
290
     0
174
     0
 93
        1
 44
0.0
173
     0
291
     1
 45
0.0
1001
ACAD
1000
AcDbSavedByObjectVersion
1070
     0
  0
VISUALSTYLE
  5
67E5
102
{ACAD_XDICTIONARY
360
684B
102
}
102
{ACAD_REACTORS
330
67D7
102
}
330
67D7
100
AcDbVisualStyle
  2
Linepattern
 70
    14
 71
     2
 72
     2
 73
     0
 90
        0
 40
-0.6
 41
-30.0
 62
     5
 63
     7
 74
     1
 91
        4
 64
     7
 65
   257
 75
     7
175
     7
 42
1.0
 92
        8
 66
     7
 43
1.0
 76
     1
 77
     6
 78
     2
 67
     7
 79
     5
170
     0
171
     0
290
     0
174
     0
 93
        1
 44
0.0
173
     0
291
     1
 45
0.0
1001
ACAD
1000
AcDbSavedByObjectVersion
1070
     0
  0
VISUALSTYLE
  5
67EE
102
{ACAD_XDICTIONARY
360
685D
102
}
102
{ACAD_REACTORS
330
67D7
102
}
330
67D7
100
AcDbVisualStyle
  2
OverhangOff
 70
    21
 71
     2
 72
     2
 73
     0
 90
        0
 40
-0.6
 41
-30.0
 62
     5
 63
     7
 74
     1
 91
        4
 64
     7
 65
   257
 75
     1
175
     1
 42
1.0
 92
        9
 66
     7
 43
1.0
 76
     1
 77
     6
 78
     2
 67
     7
 79
     5
170
     0
171
     0
290
     0
174
     0
 93
        1
 44
0.0
173
     0
291
     1
 45
0.0
1001
ACAD
1000
AcDbSavedByObjectVersion
1070
     0
  0
VISUALSTYLE
  5
67E1
102
{ACAD_XDICTIONARY
360
6843
102
}
102
{ACAD_REACTORS
330
67D7
102
}
330
67D7
100
AcDbVisualStyle
  2
Realistic
 70
     8
 71
     2
 72
     3
 73
     0
 90
        2
 40
-0.6
 41
30.0
 62
     5
 63
     7
 74
     0
 91
        0
 64
     7
 65
   257
 75
     1
175
     1
 42
1.0
 92
        8
 66
   257
 43
1.0
 76
     1
 77
     6
 78
     2
 67
     7
 79
     3
170
     0
171
     0
290
     0
174
     0
 93
       13
 44
0.0
173
     0
291
     0
 45
0.0
1001
ACAD
1000
AcDbSavedByObjectVersion
1070
     0
  0
VISUALSTYLE
  5
67EC
102
{ACAD_XDICTIONARY
360
6859
102
}
102
{ACAD_REACTORS
330
67D7
102
}
330
67D7
100
AcDbVisualStyle
  2
Shaded
 70
    27
 71
     2
 72
     2
 73
     1
 90
        2
 40
-0.6
 41
30.0
 62
     5
 63
     7
 74
     0
 91
        4
 64
     7
 65
   257
 75
     1
175
     1
 42
1.0
 92
        8
 66
   257
 43
1.0
 76
     1
 77
     6
 78
     2
 67
     8
 79
     3
170
     0
171
     0
290
     0
174
     0
 93
        5
 44
0.0
173
     0
291
     0
 45
0.0
1001
ACAD
1000
AcDbSavedByObjectVersion
1070
     0
  0
VISUALSTYLE
  5
67EB
102
{ACAD_XDICTIONARY
360
6857
102
}
102
{ACAD_REACTORS
330
67D7
102
}
330
67D7
100
AcDbVisualStyle
  2
Shaded with edges
 70
    26
 71
     2
 72
     2
 73
     1
 90
        2
 40
-0.6
 41
30.0
 62
     5
 63
     7
 74
     1
 91
       10
 64
     7
 65
   257
 75
     2
175
     1
 42
1.0
 92
        8
 66
   257
 43
1.0
 76
     1
 77
     6
 78
     2
 67
     7
 79
     3
170
     0
171
     0
290
     0
174
     0
 93
        5
 44
0.0
173
     0
291
     0
 45
0.0
1001
ACAD
1000
AcDbSavedByObjectVersion
1070
     0
  0
VISUALSTYLE
  5
67E8
102
{ACAD_XDICTIONARY
360
6851
102
}
102
{ACAD_REACTORS
330
67D7
102
}
330
67D7
100
AcDbVisualStyle
  2
Shades of Gray
 70
    23
 71
     2
 72
     2
 73
     3
 90
        0
 40
-0.6
 41
-30.0
 62
     5
 63
     7
 74
     2
 91
        2
 64
     7
 65
     7
 75
     1
175
     1
 42
40.0
 92
        8
 66
     7
 43
1.0
 76
     1
 77
     6
 78
     2
 67
     7
 79
     3
170
     0
171
     0
290
     0
174
     0
 93
        1
 44
0.0
173
     0
291
     0
 45
0.0
1001
ACAD
1000
AcDbSavedByObjectVersion
1070
     0
  0
VISUALSTYLE
  5
67E9
102
{ACAD_XDICTIONARY
360
6853
102
}
102
{ACAD_REACTORS
330
67D7
102
}
330
67D7
100
AcDbVisualStyle
  2
Sketchy
 70
    24
 71
     1
 72
     2
 73
     2
 90
        0
 40
-0.6
 41
-30.0
 62
     5
 63
     7
 74
     2
 91
        2
 64
     7
 65
     7
 75
     1
175
     1
 42
40.0
 92
       11
 66
     7
 43
1.0
 76
     1
 77
     6
 78
     2
 67
     7
 79
     6
170
     0
171
     0
290
     0
174
     0
 93
        1
 44
0.0
173
     0
291
     0
 45
0.0
1001
ACAD
1000
AcDbSavedByObjectVersion
1070
     0
  0
VISUALSTYLE
  5
67E4
102
{ACAD_XDICTIONARY
360
6849
102
}
102
{ACAD_REACTORS
330
67D7
102
}
330
67D7
100
AcDbVisualStyle
  2
Thicken
 70
    13
 71
     2
 72
     2
 73
     0
 90
        0
 40
-0.6
 41
-30.0
 62
     5
 63
     7
 74
     1
 91
        4
 64
     7
 65
   257
 75
     1
175
     1
 42
1.0
 92
       12
 66
     7
 43
1.0
 76
     1
 77
     6
 78
     2
 67
     7
 79
     5
170
     0
171
     0
290
     0
174
     0
 93
        1
 44
0.0
173
     0
291
     1
 45
0.0
1001
ACAD
1000
AcDbSavedByObjectVersion
1070
     0
  0
VISUALSTYLE
  5
67DE
102
{ACAD_XDICTIONARY
360
683D
102
}
102
{ACAD_REACTORS
330
67D7
102
}
330
67D7
100
AcDbVisualStyle
  2
Wireframe
 70
     5
 71
     0
 72
     2
 73
     0
 90
        0
 40
-0.6
 41
-30.0
 62
     5
 63
     7
 74
     1
 91
        4
 64
     7
 65
   257
 75
     1
175
     1
 42
1.0
 92
        0
 66
   257
 43
1.0
 76
     1
 77
     6
 78
     2
 67
     7
 79
     3
170
     0
171
     0
290
     0
174
     0
 93
        1
 44
0.0
173
     0
291
     0
 45
0.0
1001
ACAD
1000
AcDbSavedByObjectVersion
1070
     0
  0
VISUALSTYLE
  5
67EA
102
{ACAD_XDICTIONARY
360
6855
102
}
102
{ACAD_REACTORS
330
67D7
102
}
330
67D7
100
AcDbVisualStyle
  2
X-Ray
 70
    25
 71
     2
 72
     2
 73
     1
 90
        1
 40
0.5
 41
-30.0
 62
     5
 63
     7
 74
     1
 91
        0
 64
     7
 65
   257
 75
     1
175
     1
 42
1.0
 92
        8
 66
     7
 43
1.0
 76
     1
 77
     6
 78
     2
 67
     7
 79
     3
170
     0
171
     0
290
     0
174
     0
 93
       13
 44
0.0
173
     0
291
     0
 45
0.0
1001
ACAD
1000
AcDbSavedByObjectVersion
1070
     0
  0
DICTIONARYVAR
  5
6824
102
{ACAD_REACTORS
330
681F
102
}
330
681F
100
DictionaryVariables
280
     0
  1
1:1
  0
DICTIONARYVAR
  5
6821
102
{ACAD_REACTORS
330
681F
102
}
330
681F
100
DictionaryVariables
280
     0
  1
STANDARD
  0
DICTIONARYVAR
  5
6820
102
{ACAD_REACTORS
330
681F
102
}
330
681F
100
DictionaryVariables
280
     0
  1
STANDARD
  0
DICTIONARYVAR
  5
6822
102
{ACAD_REACTORS
330
681F
102
}
330
681F
100
DictionaryVariables
280
     0
  1
Imperial24
  0
DICTIONARYVAR
  5
6823
102
{ACAD_REACTORS
330
681F
102
}
330
681F
100
DictionaryVariables
280
     0
  1
Imperial24
  0
DICTIONARYVAR
  5
6827
102
{ACAD_REACTORS
330
681F
102
}
330
681F
100
DictionaryVariables
280
     0
  1
1
  0
DICTIONARYVAR
  5
6826
102
{ACAD_REACTORS
330
681F
102
}
330
681F
100
DictionaryVariables
280
     0
  1
0
  0
DICTIONARYVAR
  5
6825
102
{ACAD_REACTORS
330
681F
102
}
330
681F
100
DictionaryVariables
280
     0
  1
127
  0
DICTIONARYVAR
  5
6828
102
{ACAD_REACTORS
330
681F
102
}
330
681F
100
DictionaryVariables
280
     0
  1
2
  0
DICTIONARY
  5
6865
330
680A
100
AcDbDictionary
280
     1
281
     1
  3
ACAD_XREC_ROUNDTRIP
360
6866
  0
DICTIONARY
  5
6867
330
680B
100
AcDbDictionary
280
     1
281
     1
  3
ACAD_XREC_ROUNDTRIP
360
6868
  0
DICTIONARY
  5
6869
330
680C
100
AcDbDictionary
280
     1
281
     1
  3
ACAD_XREC_ROUNDTRIP
360
686A
  0
DICTIONARY
  5
67C8
330
67C7
100
AcDbDictionary
280
     1
281
     1
  3
ACAD_XREC_ROUNDTRIP
360
682F
  3
BUMPTILE
360
67CA
  3
DIFFUSETILE
360
67C9
  3
OPACITYTILE
360
67CD
  3
REFLECTIONTILE
360
67CC
  3
REFRACTIONTILE
360
67CE
  3
SPECULARTILE
360
67CB
  0
DICTIONARY
  5
67C0
330
67BF
100
AcDbDictionary
280
     1
281
     1
  3
ACAD_XREC_ROUNDTRIP
360
682E
  3
BUMPTILE
360
67C2
  3
DIFFUSETILE
360
67C1
  3
OPACITYTILE
360
67C5
  3
REFLECTIONTILE
360
67C4
  3
REFRACTIONTILE
360
67C6
  3
SPECULARTILE
360
67C3
  0
DICTIONARY
  5
67D0
330
67CF
100
AcDbDictionary
280
     1
281
     1
  3
ACAD_XREC_ROUNDTRIP
360
6830
  3
BUMPTILE
360
67D2
  3
DIFFUSETILE
360
67D1
  3
OPACITYTILE
360
67D5
  3
REFLECTIONTILE
360
67D4
  3
REFRACTIONTILE
360
67D6
  3
SPECULARTILE
360
67D3
  0
DICTIONARY
  5
6863
330
6808
100
AcDbDictionary
280
     1
281
     1
  3
ACAD_XREC_ROUNDTRIP
360
6864
  0
DICTIONARY
  5
682A
330
67F2
100
AcDbDictionary
280
     1
281
     1
  3
ACAD_ROUNDTRIP_2008_TABLESTYLE_CELLSTYLEMAP
360
682B
  3
ACAD_XREC_ROUNDTRIP
360
6861
  0
DICTIONARY
  5
683B
330
67DD
100
AcDbDictionary
280
     1
281
     1
  3
ACAD_XREC_ROUNDTRIP
360
683C
  0
DICTIONARY
  5
6839
330
67DC
100
AcDbDictionary
280
     1
281
     1
  3
ACAD_XREC_ROUNDTRIP
360
683A
  0
DICTIONARY
  5
6847
330
67E3
100
AcDbDictionary
280
     1
281
     1
  3
ACAD_XREC_ROUNDTRIP
360
6848
  0
DICTIONARY
  5
684F
330
67E7
100
AcDbDictionary
280
     1
281
     1
  3
ACAD_XREC_ROUNDTRIP
360
6850
  0
DICTIONARY
  5
6841
330
67E0
100
AcDbDictionary
280
     1
281
     1
  3
ACAD_XREC_ROUNDTRIP
360
6842
  0
DICTIONARY
  5
6845
330
67E2
100
AcDbDictionary
280
     1
281
     1
  3
ACAD_XREC_ROUNDTRIP
360
6846
  0
DICTIONARY
  5
685F
330
67EF
100
AcDbDictionary
280
     1
281
     1
  3
ACAD_XREC_ROUNDTRIP
360
6860
  0
DICTIONARY
  5
684D
330
67E6
100
AcDbDictionary
280
     1
281
     1
  3
ACAD_XREC_ROUNDTRIP
360
684E
  0
DICTIONARY
  5
6831
330
67D8
100
AcDbDictionary
280
     1
281
     1
  3
ACAD_XREC_ROUNDTRIP
360
6832
  0
DICTIONARY
  5
6833
330
67D9
100
AcDbDictionary
280
     1
281
     1
  3
ACAD_XREC_ROUNDTRIP
360
6834
  0
DICTIONARY
  5
6835
330
67DA
100
AcDbDictionary
280
     1
281
     1
  3
ACAD_XREC_ROUNDTRIP
360
6836
  0
DICTIONARY
  5
6837
330
67DB
100
AcDbDictionary
280
     1
281
     1
  3
ACAD_XREC_ROUNDTRIP
360
6838
  0
DICTIONARY
  5
683F
330
67DF
100
AcDbDictionary
280
     1
281
     1
  3
ACAD_XREC_ROUNDTRIP
360
6840
  0
DICTIONARY
  5
685B
330
67ED
100
AcDbDictionary
280
     1
281
     1
  3
ACAD_XREC_ROUNDTRIP
360
685C
  0
DICTIONARY
  5
684B
330
67E5
100
AcDbDictionary
280
     1
281
     1
  3
ACAD_XREC_ROUNDTRIP
360
684C
  0
DICTIONARY
  5
685D
330
67EE
100
AcDbDictionary
280
     1
281
     1
  3
ACAD_XREC_ROUNDTRIP
360
685E
  0
DICTIONARY
  5
6843
330
67E1
100
AcDbDictionary
280
     1
281
     1
  3
ACAD_XREC_ROUNDTRIP
360
6844
  0
DICTIONARY
  5
6859
330
67EC
100
AcDbDictionary
280
     1
281
     1
  3
ACAD_XREC_ROUNDTRIP
360
685A
  0
DICTIONARY
  5
6857
330
67EB
100
AcDbDictionary
280
     1
281
     1
  3
ACAD_XREC_ROUNDTRIP
360
6858
  0
DICTIONARY
  5
6851
330
67E8
100
AcDbDictionary
280
     1
281
     1
  3
ACAD_XREC_ROUNDTRIP
360
6852
  0
DICTIONARY
  5
6853
330
67E9
100
AcDbDictionary
280
     1
281
     1
  3
ACAD_XREC_ROUNDTRIP
360
6854
  0
DICTIONARY
  5
6849
330
67E4
100
AcDbDictionary
280
     1
281
     1
  3
ACAD_XREC_ROUNDTRIP
360
684A
  0
DICTIONARY
  5
683D
330
67DE
100
AcDbDictionary
280
     1
281
     1
  3
ACAD_XREC_ROUNDTRIP
360
683E
  0
DICTIONARY
  5
6855
330
67EA
100
AcDbDictionary
280
     1
281
     1
  3
ACAD_XREC_ROUNDTRIP
360
6856
  0
XRECORD
  5
6866
102
{ACAD_REACTORS
330
6865
102
}
330
6865
100
AcDbXrecord
280
     1
102
DISPLAYNAME
  1
Imperial24
102
FLAGS
 90
        0
  0
XRECORD
  5
6868
102
{ACAD_REACTORS
330
6867
102
}
330
6867
100
AcDbXrecord
280
     1
102
SHADEPLOT
 70
     0
102
SHADEPLOTRESLEVEL
 70
     2
102
SHADEPLOTCUSTOMDPI
 70
   300
  0
XRECORD
  5
686A
102
{ACAD_REACTORS
330
6869
102
}
330
6869
100
AcDbXrecord
280
     1
102
SHADEPLOT
 70
     0
102
SHADEPLOTRESLEVEL
 70
     2
102
SHADEPLOTCUSTOMDPI
 70
   300
  0
XRECORD
  5
682F
102
{ACAD_REACTORS
330
67C8
102
}
330
67C8
100
AcDbXrecord
280
     1
102
MATERIAL
148
0.0
149
0.0
149
0.0
 93
        0
 94
      127
282
     0
 72
     0
 77
     0
171
     0
175
     0
179
     0
273
     0
  0
XRECORD
  5
67CA
102
{ACAD_REACTORS
330
67C8
102
}
330
67C8
100
AcDbXrecord
280
     1
270
     1
271
     1
  0
XRECORD
  5
67C9
102
{ACAD_REACTORS
330
67C8
102
}
330
67C8
100
AcDbXrecord
280
     1
270
     1
271
     1
  0
XRECORD
  5
67CD
102
{ACAD_REACTORS
330
67C8
102
}
330
67C8
100
AcDbXrecord
280
     1
270
     1
271
     1
  0
XRECORD
  5
67CC
102
{ACAD_REACTORS
330
67C8
102
}
330
67C8
100
AcDbXrecord
280
     1
270
     1
271
     1
  0
XRECORD
  5
67CE
102
{ACAD_REACTORS
330
67C8
102
}
330
67C8
100
AcDbXrecord
280
     1
270
     1
271
     1
  0
XRECORD
  5
67CB
102
{ACAD_REACTORS
330
67C8
102
}
330
67C8
100
AcDbXrecord
280
     1
270
     1
271
     1
  0
XRECORD
  5
682E
102
{ACAD_REACTORS
330
67C0
102
}
330
67C0
100
AcDbXrecord
280
     1
102
MATERIAL
148
0.0
149
0.0
149
0.0
 93
        0
 94
      127
282
     0
 72
     0
 77
     0
171
     0
175
     0
179
     0
273
     0
  0
XRECORD
  5
67C2
102
{ACAD_REACTORS
330
67C0
102
}
330
67C0
100
AcDbXrecord
280
     1
270
     1
271
     1
  0
XRECORD
  5
67C1
102
{ACAD_REACTORS
330
67C0
102
}
330
67C0
100
AcDbXrecord
280
     1
270
     1
271
     1
  0
XRECORD
  5
67C5
102
{ACAD_REACTORS
330
67C0
102
}
330
67C0
100
AcDbXrecord
280
     1
270
     1
271
     1
  0
XRECORD
  5
67C4
102
{ACAD_REACTORS
330
67C0
102
}
330
67C0
100
AcDbXrecord
280
     1
270
     1
271
     1
  0
XRECORD
  5
67C6
102
{ACAD_REACTORS
330
67C0
102
}
330
67C0
100
AcDbXrecord
280
     1
270
     1
271
     1
  0
XRECORD
  5
67C3
102
{ACAD_REACTORS
330
67C0
102
}
330
67C0
100
AcDbXrecord
280
     1
270
     1
271
     1
  0
XRECORD
  5
6830
102
{ACAD_REACTORS
330
67D0
102
}
330
67D0
100
AcDbXrecord
280
     1
102
MATERIAL
148
0.0
149
0.0
149
0.0
 93
        0
 94
      127
282
     0
 72
     0
 77
     0
171
     0
175
     0
179
     0
273
     0
  0
XRECORD
  5
67D2
102
{ACAD_REACTORS
330
67D0
102
}
330
67D0
100
AcDbXrecord
280
     1
270
     1
271
     1
  0
XRECORD
  5
67D1
102
{ACAD_REACTORS
330
67D0
102
}
330
67D0
100
AcDbXrecord
280
     1
270
     1
271
     1
  0
XRECORD
  5
67D5
102
{ACAD_REACTORS
330
67D0
102
}
330
67D0
100
AcDbXrecord
280
     1
270
     1
271
     1
  0
XRECORD
  5
67D4
102
{ACAD_REACTORS
330
67D0
102
}
330
67D0
100
AcDbXrecord
280
     1
270
     1
271
     1
  0
XRECORD
  5
67D6
102
{ACAD_REACTORS
330
67D0
102
}
330
67D0
100
AcDbXrecord
280
     1
270
     1
271
     1
  0
XRECORD
  5
67D3
102
{ACAD_REACTORS
330
67D0
102
}
330
67D0
100
AcDbXrecord
280
     1
270
     1
271
     1
  0
XRECORD
  5
6864
102
{ACAD_REACTORS
330
6863
102
}
330
6863
100
AcDbXrecord
280
     1
102
DISPLAYNAME
  1
Imperial24
102
FLAGS
 90
        0
  0
CELLSTYLEMAP
  5
682B
102
{ACAD_REACTORS
330
682A
102
}
330
682A
100
AcDbCellStyleMap
 90
        3
300
CELLSTYLE
  1
TABLEFORMAT_BEGIN
 90
        5
170
     1
 91
        0
 92
    32768
 62
   257
 93
        1
300
CONTENTFORMAT
  1
CONTENTFORMAT_BEGIN
 90
        0
 91
        0
 92
      512
 93
        0
300

 40
0.0
140
1.0
 94
        5
 62
     0
340
5FC9
144
0.25
309
CONTENTFORMAT_END
171
     0
 94
        0
309
TABLEFORMAT_END
  1
CELLSTYLE_BEGIN
 90
        1
 91
        1
300
_TITLE
309
CELLSTYLE_END
300
CELLSTYLE
  1
TABLEFORMAT_BEGIN
 90
        5
170
     1
 91
        0
 92
        0
 62
   257
 93
        1
300
CONTENTFORMAT
  1
CONTENTFORMAT_BEGIN
 90
        0
 91
        0
 92
      512
 93
        0
300

 40
0.0
140
1.0
 94
        5
 62
     0
340
5FC9
144
0.18
309
CONTENTFORMAT_END
171
     0
 94
        0
309
TABLEFORMAT_END
  1
CELLSTYLE_BEGIN
 90
        2
 91
        1
300
_HEADER
309
CELLSTYLE_END
300
CELLSTYLE
  1
TABLEFORMAT_BEGIN
 90
        5
170
     1
 91
        0
 92
        0
 62
   257
 93
        1
300
CONTENTFORMAT
  1
CONTENTFORMAT_BEGIN
 90
        0
 91
        0
 92
      512
 93
        0
300

 40
0.0
140
1.0
 94
        2
 62
     0
340
5FC9
144
0.18
309
CONTENTFORMAT_END
171
     0
 94
        0
309
TABLEFORMAT_END
  1
CELLSTYLE_BEGIN
 90
        3
 91
        2
300
_DATA
309
CELLSTYLE_END
  0
XRECORD
  5
6861
102
{ACAD_REACTORS
330
682A
102
}
330
682A
100
AcDbXrecord
280
     1
102
ACAD_ROUNDTRIP_PRE2007_TABLESTYLE
 90
      512
 91
        0
  1

 92
      512
 93
        0
  2

 94
      512
 95
        0
  3

  0
XRECORD
  5
683C
102
{ACAD_REACTORS
330
683B
102
}
330
683B
100
AcDbXrecord
280
     1
102
RTVSPost2010Prop28
280
     1
102
RTVSPost2010PropOp28
 70
     1
102
RTVSPost2010Prop29
280
     1
102
RTVSPost2010PropOp29
 70
     1
102
RTVSPost2010Prop30
280
     0
102
RTVSPost2010PropOp30
 70
     1
102
RTVSPost2010Prop31
280
     0
102
RTVSPost2010PropOp31
 70
     1
102
RTVSPost2010Prop32
280
     0
102
RTVSPost2010PropOp32
 70
     1
102
RTVSPost2010Prop33
280
     0
102
RTVSPost2010PropOp33
 70
     1
102
RTVSPost2010Prop34
280
     0
102
RTVSPost2010PropOp34
 70
     1
102
RTVSPost2010Prop35
280
     0
102
RTVSPost2010PropOp35
 70
     1
102
RTVSPost2010Prop36
280
     0
102
RTVSPost2010PropOp36
 70
     1
102
RTVSPost2010Prop37
 90
       50
102
RTVSPost2010PropOp37
 70
     1
102
RTVSPost2010Prop38
140
0.0
102
RTVSPost2010PropOp38
 70
     1
102
RTVSPost2010Prop39
140
1.0
102
RTVSPost2010PropOp39
 70
     1
102
RTVSPost2010Prop40
 90
        0
102
RTVSPost2010PropOp40
 70
     1
102
RTVSPost2010Prop41ColorIndex
 90
       18
102
RTVSPost2010Prop41ColorRGB
 90
        0
102
RTVSPost2010PropOp41
 70
     1
102
RTVSPost2010Prop42
 90
       50
102
RTVSPost2010PropOp42
 70
     1
102
RTVSPost2010Prop43
 90
        3
102
RTVSPost2010PropOp43
 70
     1
102
RTVSPost2010Prop44ColorIndex
 90
        5
102
RTVSPost2010Prop44ColorRGB
 90
      255
102
RTVSPost2010PropOp44
 70
     1
102
RTVSPost2010Prop45
280
     0
102
RTVSPost2010PropOp45
 70
     1
102
RTVSPost2010Prop46
 90
       50
102
RTVSPost2010PropOp46
 70
     1
102
RTVSPost2010Prop47
 90
       50
102
RTVSPost2010PropOp47
 70
     1
102
RTVSPost2010Prop48
 90
       50
102
RTVSPost2010PropOp48
 70
     1
102
RTVSPost2010Prop49
280
     0
102
RTVSPost2010PropOp49
 70
     1
102
RTVSPost2010Prop50
 90
       50
102
RTVSPost2010PropOp50
 70
     1
102
RTVSPost2010Prop51ColorIndex
 90
      256
102
RTVSPost2010Prop51ColorRGB
 90
-16777216
102
RTVSPost2010PropOp51
 70
     0
102
RTVSPost2010Prop52
140
1.0
102
RTVSPost2010PropOp52
 70
     0
102
RTVSPost2010Prop53
 90
        2
102
RTVSPost2010PropOp53
 70
     1
102
RTVSPost2010Prop54
  1
strokes_ogs.tif
102
RTVSPost2010PropOp54
 70
     1
102
RTVSPost2010Prop55
280
     0
102
RTVSPost2010PropOp55
 70
     1
102
RTVSPost2010Prop56
140
1.0
102
RTVSPost2010PropOp56
 70
     1
102
RTVSPost2010Prop57
140
1.0
102
RTVSPost2010PropOp57
 70
     1
102
RTVSPropertyOp0
 70
     1
102
RTVSPropertyOp1
 70
     1
102
RTVSPropertyOp2
 70
     1
102
RTVSPropertyOp3
 70
     1
102
RTVSPropertyOp4
 70
     1
102
RTVSPropertyOp5
 70
     1
102
RTVSPropertyOp6
 70
     1
102
RTVSPropertyOp7
 70
     1
102
RTVSPropertyOp8
 70
     1
102
RTVSPropertyOp9
 70
     1
102
RTVSPropertyOp10
 70
     1
102
RTVSPropertyOp11
 70
     1
102
RTVSPropertyOp12
 70
     1
102
RTVSPropertyOp13
 70
     1
102
RTVSPropertyOp14
 70
     1
102
RTVSPropertyOp15
 70
     1
102
RTVSPropertyOp16
 70
     1
102
RTVSPropertyOp17
 70
     1
102
RTVSPropertyOp18
 70
     1
102
RTVSPropertyOp19
 70
     1
102
RTVSPropertyOp20
 70
     1
102
RTVSPropertyOp21
 70
     1
102
RTVSPropertyOp22
 70
     1
102
RTVSPropertyOp23
 70
     1
102
RTVSPropertyOp24
 70
     1
102
RTVSPropertyOp25
 70
     1
102
RTVSPropertyOp26
 70
     1
102
RTVSPropertyOp27
 70
     1
102
RTVSPropertyOp28
 70
     1
102
RTVSPropertyOp29
 70
     1
102
RTVSPropertyOp30
 70
     1
102
RTVSPropertyOp31
 70
     1
102
RTVSPropertyOp32
 70
     1
102
RTVSPropertyOp33
 70
     1
102
RTVSPropertyOp34
 70
     1
102
RTVSPropertyOp35
 70
     1
102
RTVSPropertyOp36
 70
     1
102
RTVSPropertyOp37
 70
     1
102
RTVSPropertyOp38
 70
     1
102
RTVSPropertyOp39
 70
     1
102
RTVSPropertyOp40
 70
     1
102
RTVSPropertyOp41
 70
     1
102
RTVSPropertyOp42
 70
     1
102
RTVSPropertyOp43
 70
     1
102
RTVSPropertyOp44
 70
     1
102
RTVSPropertyOp45
 70
     1
102
RTVSPropertyOp46
 70
     1
102
RTVSPropertyOp47
 70
     1
102
RTVSPropertyOp48
 70
     1
102
RTVSPropertyOp49
 70
     1
102
RTVSPropertyOp50
 70
     1
102
RTVSPropertyOp51
 70
     0
102
RTVSPropertyOp52
 70
     0
102
RTVSPropertyOp53
 70
     1
102
RTVSPropertyOp54
 70
     1
102
RTVSPropertyOp55
 70
     1
102
RTVSPropertyOp56
 70
     1
102
RTVSPropertyOp57
 70
     1
102
RTVSPropertyOp58
 70
     1
102
RTVSPropertyOp59
 70
     1
102
RTVSPropertyOp60
 70
     1
102
RTVSPropertyOp61
 70
     1
102
RTVSPropertyOp62
 70
     1
  0
XRECORD
  5
683A
102
{ACAD_REACTORS
330
6839
102
}
330
6839
100
AcDbXrecord
280
     1
102
RTVSPost2010Prop28
280
     0
102
RTVSPost2010PropOp28
 70
     1
102
RTVSPost2010Prop29
280
     1
102
RTVSPost2010PropOp29
 70
     1
102
RTVSPost2010Prop30
280
     1
102
RTVSPost2010PropOp30
 70
     1
102
RTVSPost2010Prop31
280
     0
102
RTVSPost2010PropOp31
 70
     1
102
RTVSPost2010Prop32
280
     0
102
RTVSPost2010PropOp32
 70
     1
102
RTVSPost2010Prop33
280
     0
102
RTVSPost2010PropOp33
 70
     1
102
RTVSPost2010Prop34
280
     0
102
RTVSPost2010PropOp34
 70
     1
102
RTVSPost2010Prop35
280
     0
102
RTVSPost2010PropOp35
 70
     1
102
RTVSPost2010Prop36
280
     0
102
RTVSPost2010PropOp36
 70
     1
102
RTVSPost2010Prop37
 90
       50
102
RTVSPost2010PropOp37
 70
     1
102
RTVSPost2010Prop38
140
0.0
102
RTVSPost2010PropOp38
 70
     1
102
RTVSPost2010Prop39
140
1.0
102
RTVSPost2010PropOp39
 70
     1
102
RTVSPost2010Prop40
 90
        0
102
RTVSPost2010PropOp40
 70
     1
102
RTVSPost2010Prop41ColorIndex
 90
       18
102
RTVSPost2010Prop41ColorRGB
 90
        0
102
RTVSPost2010PropOp41
 70
     1
102
RTVSPost2010Prop42
 90
       50
102
RTVSPost2010PropOp42
 70
     1
102
RTVSPost2010Prop43
 90
        3
102
RTVSPost2010PropOp43
 70
     1
102
RTVSPost2010Prop44ColorIndex
 90
        5
102
RTVSPost2010Prop44ColorRGB
 90
      255
102
RTVSPost2010PropOp44
 70
     1
102
RTVSPost2010Prop45
280
     0
102
RTVSPost2010PropOp45
 70
     1
102
RTVSPost2010Prop46
 90
       50
102
RTVSPost2010PropOp46
 70
     1
102
RTVSPost2010Prop47
 90
       50
102
RTVSPost2010PropOp47
 70
     1
102
RTVSPost2010Prop48
 90
       50
102
RTVSPost2010PropOp48
 70
     1
102
RTVSPost2010Prop49
280
     0
102
RTVSPost2010PropOp49
 70
     1
102
RTVSPost2010Prop50
 90
       50
102
RTVSPost2010PropOp50
 70
     1
102
RTVSPost2010Prop51ColorIndex
 90
      256
102
RTVSPost2010Prop51ColorRGB
 90
-16777216
102
RTVSPost2010PropOp51
 70
     0
102
RTVSPost2010Prop52
140
1.0
102
RTVSPost2010PropOp52
 70
     0
102
RTVSPost2010Prop53
 90
        2
102
RTVSPost2010PropOp53
 70
     1
102
RTVSPost2010Prop54
  1
strokes_ogs.tif
102
RTVSPost2010PropOp54
 70
     1
102
RTVSPost2010Prop55
280
     0
102
RTVSPost2010PropOp55
 70
     1
102
RTVSPost2010Prop56
140
1.0
102
RTVSPost2010PropOp56
 70
     1
102
RTVSPost2010Prop57
140
1.0
102
RTVSPost2010PropOp57
 70
     1
102
RTVSPropertyOp0
 70
     1
102
RTVSPropertyOp1
 70
     1
102
RTVSPropertyOp2
 70
     1
102
RTVSPropertyOp3
 70
     1
102
RTVSPropertyOp4
 70
     1
102
RTVSPropertyOp5
 70
     1
102
RTVSPropertyOp6
 70
     1
102
RTVSPropertyOp7
 70
     1
102
RTVSPropertyOp8
 70
     1
102
RTVSPropertyOp9
 70
     1
102
RTVSPropertyOp10
 70
     1
102
RTVSPropertyOp11
 70
     1
102
RTVSPropertyOp12
 70
     1
102
RTVSPropertyOp13
 70
     1
102
RTVSPropertyOp14
 70
     1
102
RTVSPropertyOp15
 70
     1
102
RTVSPropertyOp16
 70
     1
102
RTVSPropertyOp17
 70
     1
102
RTVSPropertyOp18
 70
     1
102
RTVSPropertyOp19
 70
     1
102
RTVSPropertyOp20
 70
     1
102
RTVSPropertyOp21
 70
     1
102
RTVSPropertyOp22
 70
     1
102
RTVSPropertyOp23
 70
     1
102
RTVSPropertyOp24
 70
     1
102
RTVSPropertyOp25
 70
     1
102
RTVSPropertyOp26
 70
     1
102
RTVSPropertyOp27
 70
     1
102
RTVSPropertyOp28
 70
     1
102
RTVSPropertyOp29
 70
     1
102
RTVSPropertyOp30
 70
     1
102
RTVSPropertyOp31
 70
     1
102
RTVSPropertyOp32
 70
     1
102
RTVSPropertyOp33
 70
     1
102
RTVSPropertyOp34
 70
     1
102
RTVSPropertyOp35
 70
     1
102
RTVSPropertyOp36
 70
     1
102
RTVSPropertyOp37
 70
     1
102
RTVSPropertyOp38
 70
     1
102
RTVSPropertyOp39
 70
     1
102
RTVSPropertyOp40
 70
     1
102
RTVSPropertyOp41
 70
     1
102
RTVSPropertyOp42
 70
     1
102
RTVSPropertyOp43
 70
     1
102
RTVSPropertyOp44
 70
     1
102
RTVSPropertyOp45
 70
     1
102
RTVSPropertyOp46
 70
     1
102
RTVSPropertyOp47
 70
     1
102
RTVSPropertyOp48
 70
     1
102
RTVSPropertyOp49
 70
     1
102
RTVSPropertyOp50
 70
     1
102
RTVSPropertyOp51
 70
     0
102
RTVSPropertyOp52
 70
     0
102
RTVSPropertyOp53
 70
     1
102
RTVSPropertyOp54
 70
     1
102
RTVSPropertyOp55
 70
     1
102
RTVSPropertyOp56
 70
     1
102
RTVSPropertyOp57
 70
     1
102
RTVSPropertyOp58
 70
     1
102
RTVSPropertyOp59
 70
     1
102
RTVSPropertyOp60
 70
     1
102
RTVSPropertyOp61
 70
     1
102
RTVSPropertyOp62
 70
     1
  0
XRECORD
  5
6848
102
{ACAD_REACTORS
330
6847
102
}
330
6847
100
AcDbXrecord
280
     1
102
RTVSPost2010Prop28
280
     0
102
RTVSPost2010PropOp28
 70
     1
102
RTVSPost2010Prop29
280
     1
102
RTVSPost2010PropOp29
 70
     1
102
RTVSPost2010Prop30
280
     1
102
RTVSPost2010PropOp30
 70
     1
102
RTVSPost2010Prop31
280
     0
102
RTVSPost2010PropOp31
 70
     1
102
RTVSPost2010Prop32
280
     0
102
RTVSPost2010PropOp32
 70
     1
102
RTVSPost2010Prop33
280
     0
102
RTVSPost2010PropOp33
 70
     1
102
RTVSPost2010Prop34
280
     0
102
RTVSPost2010PropOp34
 70
     1
102
RTVSPost2010Prop35
280
     0
102
RTVSPost2010PropOp35
 70
     1
102
RTVSPost2010Prop36
280
     0
102
RTVSPost2010PropOp36
 70
     1
102
RTVSPost2010Prop37
 90
       50
102
RTVSPost2010PropOp37
 70
     1
102
RTVSPost2010Prop38
140
0.0
102
RTVSPost2010PropOp38
 70
     1
102
RTVSPost2010Prop39
140
1.0
102
RTVSPost2010PropOp39
 70
     1
102
RTVSPost2010Prop40
 90
        0
102
RTVSPost2010PropOp40
 70
     1
102
RTVSPost2010Prop41ColorIndex
 90
       18
102
RTVSPost2010Prop41ColorRGB
 90
        0
102
RTVSPost2010PropOp41
 70
     1
102
RTVSPost2010Prop42
 90
       50
102
RTVSPost2010PropOp42
 70
     1
102
RTVSPost2010Prop43
 90
        3
102
RTVSPost2010PropOp43
 70
     1
102
RTVSPost2010Prop44ColorIndex
 90
        5
102
RTVSPost2010Prop44ColorRGB
 90
      255
102
RTVSPost2010PropOp44
 70
     1
102
RTVSPost2010Prop45
280
     0
102
RTVSPost2010PropOp45
 70
     1
102
RTVSPost2010Prop46
 90
       50
102
RTVSPost2010PropOp46
 70
     1
102
RTVSPost2010Prop47
 90
       50
102
RTVSPost2010PropOp47
 70
     1
102
RTVSPost2010Prop48
 90
       50
102
RTVSPost2010PropOp48
 70
     1
102
RTVSPost2010Prop49
280
     0
102
RTVSPost2010PropOp49
 70
     1
102
RTVSPost2010Prop50
 90
       50
102
RTVSPost2010PropOp50
 70
     1
102
RTVSPost2010Prop51ColorIndex
 90
      256
102
RTVSPost2010Prop51ColorRGB
 90
-16777216
102
RTVSPost2010PropOp51
 70
     0
102
RTVSPost2010Prop52
140
1.0
102
RTVSPost2010PropOp52
 70
     0
102
RTVSPost2010Prop53
 90
        2
102
RTVSPost2010PropOp53
 70
     1
102
RTVSPost2010Prop54
  1
strokes_ogs.tif
102
RTVSPost2010PropOp54
 70
     1
102
RTVSPost2010Prop55
280
     0
102
RTVSPost2010PropOp55
 70
     1
102
RTVSPost2010Prop56
140
1.0
102
RTVSPost2010PropOp56
 70
     1
102
RTVSPost2010Prop57
140
1.0
102
RTVSPost2010PropOp57
 70
     1
102
RTVSPropertyOp0
 70
     1
102
RTVSPropertyOp1
 70
     1
102
RTVSPropertyOp2
 70
     1
102
RTVSPropertyOp3
 70
     1
102
RTVSPropertyOp4
 70
     1
102
RTVSPropertyOp5
 70
     1
102
RTVSPropertyOp6
 70
     1
102
RTVSPropertyOp7
 70
     1
102
RTVSPropertyOp8
 70
     1
102
RTVSPropertyOp9
 70
     1
102
RTVSPropertyOp10
 70
     1
102
RTVSPropertyOp11
 70
     1
102
RTVSPropertyOp12
 70
     1
102
RTVSPropertyOp13
 70
     1
102
RTVSPropertyOp14
 70
     1
102
RTVSPropertyOp15
 70
     1
102
RTVSPropertyOp16
 70
     1
102
RTVSPropertyOp17
 70
     1
102
RTVSPropertyOp18
 70
     1
102
RTVSPropertyOp19
 70
     1
102
RTVSPropertyOp20
 70
     1
102
RTVSPropertyOp21
 70
     1
102
RTVSPropertyOp22
 70
     1
102
RTVSPropertyOp23
 70
     1
102
RTVSPropertyOp24
 70
     1
102
RTVSPropertyOp25
 70
     1
102
RTVSPropertyOp26
 70
     1
102
RTVSPropertyOp27
 70
     1
102
RTVSPropertyOp28
 70
     1
102
RTVSPropertyOp29
 70
     1
102
RTVSPropertyOp30
 70
     1
102
RTVSPropertyOp31
 70
     1
102
RTVSPropertyOp32
 70
     1
102
RTVSPropertyOp33
 70
     1
102
RTVSPropertyOp34
 70
     1
102
RTVSPropertyOp35
 70
     1
102
RTVSPropertyOp36
 70
     1
102
RTVSPropertyOp37
 70
     1
102
RTVSPropertyOp38
 70
     1
102
RTVSPropertyOp39
 70
     1
102
RTVSPropertyOp40
 70
     1
102
RTVSPropertyOp41
 70
     1
102
RTVSPropertyOp42
 70
     1
102
RTVSPropertyOp43
 70
     1
102
RTVSPropertyOp44
 70
     1
102
RTVSPropertyOp45
 70
     1
102
RTVSPropertyOp46
 70
     1
102
RTVSPropertyOp47
 70
     1
102
RTVSPropertyOp48
 70
     1
102
RTVSPropertyOp49
 70
     1
102
RTVSPropertyOp50
 70
     1
102
RTVSPropertyOp51
 70
     0
102
RTVSPropertyOp52
 70
     0
102
RTVSPropertyOp53
 70
     1
102
RTVSPropertyOp54
 70
     1
102
RTVSPropertyOp55
 70
     1
102
RTVSPropertyOp56
 70
     1
102
RTVSPropertyOp57
 70
     1
102
RTVSPropertyOp58
 70
     1
102
RTVSPropertyOp59
 70
     1
102
RTVSPropertyOp60
 70
     1
102
RTVSPropertyOp61
 70
     1
102
RTVSPropertyOp62
 70
     1
  0
XRECORD
  5
6850
102
{ACAD_REACTORS
330
684F
102
}
330
684F
100
AcDbXrecord
280
     1
102
RTVSPost2010Prop28
280
     0
102
RTVSPost2010PropOp28
 70
     1
102
RTVSPost2010Prop29
280
     1
102
RTVSPost2010PropOp29
 70
     1
102
RTVSPost2010Prop30
280
     1
102
RTVSPost2010PropOp30
 70
     1
102
RTVSPost2010Prop31
280
     0
102
RTVSPost2010PropOp31
 70
     1
102
RTVSPost2010Prop32
280
     0
102
RTVSPost2010PropOp32
 70
     1
102
RTVSPost2010Prop33
280
     0
102
RTVSPost2010PropOp33
 70
     1
102
RTVSPost2010Prop34
280
     0
102
RTVSPost2010PropOp34
 70
     1
102
RTVSPost2010Prop35
280
     0
102
RTVSPost2010PropOp35
 70
     1
102
RTVSPost2010Prop36
280
     0
102
RTVSPost2010PropOp36
 70
     1
102
RTVSPost2010Prop37
 90
       50
102
RTVSPost2010PropOp37
 70
     1
102
RTVSPost2010Prop38
140
0.0
102
RTVSPost2010PropOp38
 70
     1
102
RTVSPost2010Prop39
140
1.0
102
RTVSPost2010PropOp39
 70
     1
102
RTVSPost2010Prop40
 90
        0
102
RTVSPost2010PropOp40
 70
     1
102
RTVSPost2010Prop41ColorIndex
 90
       18
102
RTVSPost2010Prop41ColorRGB
 90
        0
102
RTVSPost2010PropOp41
 70
     1
102
RTVSPost2010Prop42
 90
       50
102
RTVSPost2010PropOp42
 70
     1
102
RTVSPost2010Prop43
 90
        3
102
RTVSPost2010PropOp43
 70
     1
102
RTVSPost2010Prop44ColorIndex
 90
        5
102
RTVSPost2010Prop44ColorRGB
 90
      255
102
RTVSPost2010PropOp44
 70
     1
102
RTVSPost2010Prop45
280
     0
102
RTVSPost2010PropOp45
 70
     1
102
RTVSPost2010Prop46
 90
       50
102
RTVSPost2010PropOp46
 70
     1
102
RTVSPost2010Prop47
 90
       50
102
RTVSPost2010PropOp47
 70
     1
102
RTVSPost2010Prop48
 90
       50
102
RTVSPost2010PropOp48
 70
     1
102
RTVSPost2010Prop49
280
     0
102
RTVSPost2010PropOp49
 70
     1
102
RTVSPost2010Prop50
 90
       50
102
RTVSPost2010PropOp50
 70
     1
102
RTVSPost2010Prop51ColorIndex
 90
      256
102
RTVSPost2010Prop51ColorRGB
 90
-16777216
102
RTVSPost2010PropOp51
 70
     0
102
RTVSPost2010Prop52
140
1.0
102
RTVSPost2010PropOp52
 70
     0
102
RTVSPost2010Prop53
 90
        2
102
RTVSPost2010PropOp53
 70
     1
102
RTVSPost2010Prop54
  1
strokes_ogs.tif
102
RTVSPost2010PropOp54
 70
     1
102
RTVSPost2010Prop55
280
     0
102
RTVSPost2010PropOp55
 70
     1
102
RTVSPost2010Prop56
140
1.0
102
RTVSPost2010PropOp56
 70
     1
102
RTVSPost2010Prop57
140
1.0
102
RTVSPost2010PropOp57
 70
     1
102
RTVSPropertyOp0
 70
     1
102
RTVSPropertyOp1
 70
     1
102
RTVSPropertyOp2
 70
     1
102
RTVSPropertyOp3
 70
     1
102
RTVSPropertyOp4
 70
     1
102
RTVSPropertyOp5
 70
     1
102
RTVSPropertyOp6
 70
     1
102
RTVSPropertyOp7
 70
     1
102
RTVSPropertyOp8
 70
     1
102
RTVSPropertyOp9
 70
     1
102
RTVSPropertyOp10
 70
     1
102
RTVSPropertyOp11
 70
     1
102
RTVSPropertyOp12
 70
     1
102
RTVSPropertyOp13
 70
     1
102
RTVSPropertyOp14
 70
     1
102
RTVSPropertyOp15
 70
     1
102
RTVSPropertyOp16
 70
     1
102
RTVSPropertyOp17
 70
     1
102
RTVSPropertyOp18
 70
     1
102
RTVSPropertyOp19
 70
     1
102
RTVSPropertyOp20
 70
     1
102
RTVSPropertyOp21
 70
     1
102
RTVSPropertyOp22
 70
     1
102
RTVSPropertyOp23
 70
     1
102
RTVSPropertyOp24
 70
     1
102
RTVSPropertyOp25
 70
     1
102
RTVSPropertyOp26
 70
     1
102
RTVSPropertyOp27
 70
     1
102
RTVSPropertyOp28
 70
     1
102
RTVSPropertyOp29
 70
     1
102
RTVSPropertyOp30
 70
     1
102
RTVSPropertyOp31
 70
     1
102
RTVSPropertyOp32
 70
     1
102
RTVSPropertyOp33
 70
     1
102
RTVSPropertyOp34
 70
     1
102
RTVSPropertyOp35
 70
     1
102
RTVSPropertyOp36
 70
     1
102
RTVSPropertyOp37
 70
     1
102
RTVSPropertyOp38
 70
     1
102
RTVSPropertyOp39
 70
     1
102
RTVSPropertyOp40
 70
     1
102
RTVSPropertyOp41
 70
     1
102
RTVSPropertyOp42
 70
     1
102
RTVSPropertyOp43
 70
     1
102
RTVSPropertyOp44
 70
     1
102
RTVSPropertyOp45
 70
     1
102
RTVSPropertyOp46
 70
     1
102
RTVSPropertyOp47
 70
     1
102
RTVSPropertyOp48
 70
     1
102
RTVSPropertyOp49
 70
     1
102
RTVSPropertyOp50
 70
     1
102
RTVSPropertyOp51
 70
     0
102
RTVSPropertyOp52
 70
     0
102
RTVSPropertyOp53
 70
     1
102
RTVSPropertyOp54
 70
     1
102
RTVSPropertyOp55
 70
     1
102
RTVSPropertyOp56
 70
     1
102
RTVSPropertyOp57
 70
     1
102
RTVSPropertyOp58
 70
     1
102
RTVSPropertyOp59
 70
     1
102
RTVSPropertyOp60
 70
     1
102
RTVSPropertyOp61
 70
     1
102
RTVSPropertyOp62
 70
     1
  0
XRECORD
  5
6842
102
{ACAD_REACTORS
330
6841
102
}
330
6841
100
AcDbXrecord
280
     1
102
RTVSPost2010Prop28
280
     0
102
RTVSPost2010PropOp28
 70
     1
102
RTVSPost2010Prop29
280
     1
102
RTVSPost2010PropOp29
 70
     1
102
RTVSPost2010Prop30
280
     1
102
RTVSPost2010PropOp30
 70
     1
102
RTVSPost2010Prop31
280
     0
102
RTVSPost2010PropOp31
 70
     1
102
RTVSPost2010Prop32
280
     0
102
RTVSPost2010PropOp32
 70
     1
102
RTVSPost2010Prop33
280
     0
102
RTVSPost2010PropOp33
 70
     1
102
RTVSPost2010Prop34
280
     0
102
RTVSPost2010PropOp34
 70
     1
102
RTVSPost2010Prop35
280
     0
102
RTVSPost2010PropOp35
 70
     1
102
RTVSPost2010Prop36
280
     0
102
RTVSPost2010PropOp36
 70
     1
102
RTVSPost2010Prop37
 90
       50
102
RTVSPost2010PropOp37
 70
     1
102
RTVSPost2010Prop38
140
0.0
102
RTVSPost2010PropOp38
 70
     1
102
RTVSPost2010Prop39
140
1.0
102
RTVSPost2010PropOp39
 70
     1
102
RTVSPost2010Prop40
 90
        0
102
RTVSPost2010PropOp40
 70
     1
102
RTVSPost2010Prop41ColorIndex
 90
       18
102
RTVSPost2010Prop41ColorRGB
 90
        0
102
RTVSPost2010PropOp41
 70
     1
102
RTVSPost2010Prop42
 90
       50
102
RTVSPost2010PropOp42
 70
     1
102
RTVSPost2010Prop43
 90
        3
102
RTVSPost2010PropOp43
 70
     1
102
RTVSPost2010Prop44ColorIndex
 90
        5
102
RTVSPost2010Prop44ColorRGB
 90
      255
102
RTVSPost2010PropOp44
 70
     1
102
RTVSPost2010Prop45
280
     0
102
RTVSPost2010PropOp45
 70
     1
102
RTVSPost2010Prop46
 90
       50
102
RTVSPost2010PropOp46
 70
     1
102
RTVSPost2010Prop47
 90
       50
102
RTVSPost2010PropOp47
 70
     1
102
RTVSPost2010Prop48
 90
       50
102
RTVSPost2010PropOp48
 70
     1
102
RTVSPost2010Prop49
280
     0
102
RTVSPost2010PropOp49
 70
     1
102
RTVSPost2010Prop50
 90
       50
102
RTVSPost2010PropOp50
 70
     1
102
RTVSPost2010Prop51ColorIndex
 90
      256
102
RTVSPost2010Prop51ColorRGB
 90
-16777216
102
RTVSPost2010PropOp51
 70
     0
102
RTVSPost2010Prop52
140
1.0
102
RTVSPost2010PropOp52
 70
     0
102
RTVSPost2010Prop53
 90
        2
102
RTVSPost2010PropOp53
 70
     1
102
RTVSPost2010Prop54
  1
strokes_ogs.tif
102
RTVSPost2010PropOp54
 70
     1
102
RTVSPost2010Prop55
280
     0
102
RTVSPost2010PropOp55
 70
     1
102
RTVSPost2010Prop56
140
1.0
102
RTVSPost2010PropOp56
 70
     1
102
RTVSPost2010Prop57
140
1.0
102
RTVSPost2010PropOp57
 70
     1
102
RTVSPropertyOp0
 70
     1
102
RTVSPropertyOp1
 70
     1
102
RTVSPropertyOp2
 70
     1
102
RTVSPropertyOp3
 70
     1
102
RTVSPropertyOp4
 70
     1
102
RTVSPropertyOp5
 70
     1
102
RTVSPropertyOp6
 70
     1
102
RTVSPropertyOp7
 70
     1
102
RTVSPropertyOp8
 70
     1
102
RTVSPropertyOp9
 70
     1
102
RTVSPropertyOp10
 70
     1
102
RTVSPropertyOp11
 70
     1
102
RTVSPropertyOp12
 70
     1
102
RTVSPropertyOp13
 70
     1
102
RTVSPropertyOp14
 70
     1
102
RTVSPropertyOp15
 70
     1
102
RTVSPropertyOp16
 70
     1
102
RTVSPropertyOp17
 70
     1
102
RTVSPropertyOp18
 70
     1
102
RTVSPropertyOp19
 70
     1
102
RTVSPropertyOp20
 70
     1
102
RTVSPropertyOp21
 70
     1
102
RTVSPropertyOp22
 70
     1
102
RTVSPropertyOp23
 70
     1
102
RTVSPropertyOp24
 70
     1
102
RTVSPropertyOp25
 70
     1
102
RTVSPropertyOp26
 70
     1
102
RTVSPropertyOp27
 70
     1
102
RTVSPropertyOp28
 70
     1
102
RTVSPropertyOp29
 70
     1
102
RTVSPropertyOp30
 70
     1
102
RTVSPropertyOp31
 70
     1
102
RTVSPropertyOp32
 70
     1
102
RTVSPropertyOp33
 70
     1
102
RTVSPropertyOp34
 70
     1
102
RTVSPropertyOp35
 70
     1
102
RTVSPropertyOp36
 70
     1
102
RTVSPropertyOp37
 70
     1
102
RTVSPropertyOp38
 70
     1
102
RTVSPropertyOp39
 70
     1
102
RTVSPropertyOp40
 70
     1
102
RTVSPropertyOp41
 70
     1
102
RTVSPropertyOp42
 70
     1
102
RTVSPropertyOp43
 70
     1
102
RTVSPropertyOp44
 70
     1
102
RTVSPropertyOp45
 70
     1
102
RTVSPropertyOp46
 70
     1
102
RTVSPropertyOp47
 70
     1
102
RTVSPropertyOp48
 70
     1
102
RTVSPropertyOp49
 70
     1
102
RTVSPropertyOp50
 70
     1
102
RTVSPropertyOp51
 70
     0
102
RTVSPropertyOp52
 70
     0
102
RTVSPropertyOp53
 70
     1
102
RTVSPropertyOp54
 70
     1
102
RTVSPropertyOp55
 70
     1
102
RTVSPropertyOp56
 70
     1
102
RTVSPropertyOp57
 70
     1
102
RTVSPropertyOp58
 70
     1
102
RTVSPropertyOp59
 70
     1
102
RTVSPropertyOp60
 70
     1
102
RTVSPropertyOp61
 70
     1
102
RTVSPropertyOp62
 70
     1
  0
XRECORD
  5
6846
102
{ACAD_REACTORS
330
6845
102
}
330
6845
100
AcDbXrecord
280
     1
102
RTVSPost2010Prop28
280
     0
102
RTVSPost2010PropOp28
 70
     1
102
RTVSPost2010Prop29
280
     1
102
RTVSPost2010PropOp29
 70
     1
102
RTVSPost2010Prop30
280
     1
102
RTVSPost2010PropOp30
 70
     1
102
RTVSPost2010Prop31
280
     0
102
RTVSPost2010PropOp31
 70
     1
102
RTVSPost2010Prop32
280
     0
102
RTVSPost2010PropOp32
 70
     1
102
RTVSPost2010Prop33
280
     0
102
RTVSPost2010PropOp33
 70
     1
102
RTVSPost2010Prop34
280
     0
102
RTVSPost2010PropOp34
 70
     1
102
RTVSPost2010Prop35
280
     0
102
RTVSPost2010PropOp35
 70
     1
102
RTVSPost2010Prop36
280
     0
102
RTVSPost2010PropOp36
 70
     1
102
RTVSPost2010Prop37
 90
       50
102
RTVSPost2010PropOp37
 70
     1
102
RTVSPost2010Prop38
140
0.0
102
RTVSPost2010PropOp38
 70
     1
102
RTVSPost2010Prop39
140
1.0
102
RTVSPost2010PropOp39
 70
     1
102
RTVSPost2010Prop40
 90
        0
102
RTVSPost2010PropOp40
 70
     1
102
RTVSPost2010Prop41ColorIndex
 90
       18
102
RTVSPost2010Prop41ColorRGB
 90
        0
102
RTVSPost2010PropOp41
 70
     1
102
RTVSPost2010Prop42
 90
       50
102
RTVSPost2010PropOp42
 70
     1
102
RTVSPost2010Prop43
 90
        3
102
RTVSPost2010PropOp43
 70
     1
102
RTVSPost2010Prop44ColorIndex
 90
        5
102
RTVSPost2010Prop44ColorRGB
 90
      255
102
RTVSPost2010PropOp44
 70
     1
102
RTVSPost2010Prop45
280
     0
102
RTVSPost2010PropOp45
 70
     1
102
RTVSPost2010Prop46
 90
       50
102
RTVSPost2010PropOp46
 70
     1
102
RTVSPost2010Prop47
 90
       50
102
RTVSPost2010PropOp47
 70
     1
102
RTVSPost2010Prop48
 90
       50
102
RTVSPost2010PropOp48
 70
     1
102
RTVSPost2010Prop49
280
     0
102
RTVSPost2010PropOp49
 70
     1
102
RTVSPost2010Prop50
 90
       50
102
RTVSPost2010PropOp50
 70
     1
102
RTVSPost2010Prop51ColorIndex
 90
      256
102
RTVSPost2010Prop51ColorRGB
 90
-16777216
102
RTVSPost2010PropOp51
 70
     0
102
RTVSPost2010Prop52
140
1.0
102
RTVSPost2010PropOp52
 70
     0
102
RTVSPost2010Prop53
 90
        2
102
RTVSPost2010PropOp53
 70
     1
102
RTVSPost2010Prop54
  1
strokes_ogs.tif
102
RTVSPost2010PropOp54
 70
     1
102
RTVSPost2010Prop55
280
     0
102
RTVSPost2010PropOp55
 70
     1
102
RTVSPost2010Prop56
140
1.0
102
RTVSPost2010PropOp56
 70
     1
102
RTVSPost2010Prop57
140
1.0
102
RTVSPost2010PropOp57
 70
     1
102
RTVSPropertyOp0
 70
     1
102
RTVSPropertyOp1
 70
     1
102
RTVSPropertyOp2
 70
     1
102
RTVSPropertyOp3
 70
     1
102
RTVSPropertyOp4
 70
     1
102
RTVSPropertyOp5
 70
     1
102
RTVSPropertyOp6
 70
     1
102
RTVSPropertyOp7
 70
     1
102
RTVSPropertyOp8
 70
     1
102
RTVSPropertyOp9
 70
     1
102
RTVSPropertyOp10
 70
     1
102
RTVSPropertyOp11
 70
     1
102
RTVSPropertyOp12
 70
     1
102
RTVSPropertyOp13
 70
     1
102
RTVSPropertyOp14
 70
     1
102
RTVSPropertyOp15
 70
     1
102
RTVSPropertyOp16
 70
     1
102
RTVSPropertyOp17
 70
     1
102
RTVSPropertyOp18
 70
     1
102
RTVSPropertyOp19
 70
     1
102
RTVSPropertyOp20
 70
     1
102
RTVSPropertyOp21
 70
     1
102
RTVSPropertyOp22
 70
     1
102
RTVSPropertyOp23
 70
     1
102
RTVSPropertyOp24
 70
     1
102
RTVSPropertyOp25
 70
     1
102
RTVSPropertyOp26
 70
     1
102
RTVSPropertyOp27
 70
     1
102
RTVSPropertyOp28
 70
     1
102
RTVSPropertyOp29
 70
     1
102
RTVSPropertyOp30
 70
     1
102
RTVSPropertyOp31
 70
     1
102
RTVSPropertyOp32
 70
     1
102
RTVSPropertyOp33
 70
     1
102
RTVSPropertyOp34
 70
     1
102
RTVSPropertyOp35
 70
     1
102
RTVSPropertyOp36
 70
     1
102
RTVSPropertyOp37
 70
     1
102
RTVSPropertyOp38
 70
     1
102
RTVSPropertyOp39
 70
     1
102
RTVSPropertyOp40
 70
     1
102
RTVSPropertyOp41
 70
     1
102
RTVSPropertyOp42
 70
     1
102
RTVSPropertyOp43
 70
     1
102
RTVSPropertyOp44
 70
     1
102
RTVSPropertyOp45
 70
     1
102
RTVSPropertyOp46
 70
     1
102
RTVSPropertyOp47
 70
     1
102
RTVSPropertyOp48
 70
     1
102
RTVSPropertyOp49
 70
     1
102
RTVSPropertyOp50
 70
     1
102
RTVSPropertyOp51
 70
     0
102
RTVSPropertyOp52
 70
     0
102
RTVSPropertyOp53
 70
     1
102
RTVSPropertyOp54
 70
     1
102
RTVSPropertyOp55
 70
     1
102
RTVSPropertyOp56
 70
     1
102
RTVSPropertyOp57
 70
     1
102
RTVSPropertyOp58
 70
     1
102
RTVSPropertyOp59
 70
     1
102
RTVSPropertyOp60
 70
     1
102
RTVSPropertyOp61
 70
     1
102
RTVSPropertyOp62
 70
     1
  0
XRECORD
  5
6860
102
{ACAD_REACTORS
330
685F
102
}
330
685F
100
AcDbXrecord
280
     1
102
RTVSPost2010Prop28
280
     0
102
RTVSPost2010PropOp28
 70
     1
102
RTVSPost2010Prop29
280
     1
102
RTVSPost2010PropOp29
 70
     1
102
RTVSPost2010Prop30
280
     1
102
RTVSPost2010PropOp30
 70
     1
102
RTVSPost2010Prop31
280
     0
102
RTVSPost2010PropOp31
 70
     1
102
RTVSPost2010Prop32
280
     0
102
RTVSPost2010PropOp32
 70
     1
102
RTVSPost2010Prop33
280
     0
102
RTVSPost2010PropOp33
 70
     1
102
RTVSPost2010Prop34
280
     0
102
RTVSPost2010PropOp34
 70
     1
102
RTVSPost2010Prop35
280
     0
102
RTVSPost2010PropOp35
 70
     1
102
RTVSPost2010Prop36
280
     0
102
RTVSPost2010PropOp36
 70
     1
102
RTVSPost2010Prop37
 90
       50
102
RTVSPost2010PropOp37
 70
     0
102
RTVSPost2010Prop38
140
0.0
102
RTVSPost2010PropOp38
 70
     0
102
RTVSPost2010Prop39
140
1.0
102
RTVSPost2010PropOp39
 70
     0
102
RTVSPost2010Prop40
 90
        0
102
RTVSPost2010PropOp40
 70
     0
102
RTVSPost2010Prop41ColorIndex
 90
       18
102
RTVSPost2010Prop41ColorRGB
 90
        0
102
RTVSPost2010PropOp41
 70
     0
102
RTVSPost2010Prop42
 90
       50
102
RTVSPost2010PropOp42
 70
     0
102
RTVSPost2010Prop43
 90
        3
102
RTVSPost2010PropOp43
 70
     0
102
RTVSPost2010Prop44ColorIndex
 90
        5
102
RTVSPost2010Prop44ColorRGB
 90
      255
102
RTVSPost2010PropOp44
 70
     0
102
RTVSPost2010Prop45
280
     0
102
RTVSPost2010PropOp45
 70
     1
102
RTVSPost2010Prop46
 90
       50
102
RTVSPost2010PropOp46
 70
     0
102
RTVSPost2010Prop47
 90
       50
102
RTVSPost2010PropOp47
 70
     0
102
RTVSPost2010Prop48
 90
       50
102
RTVSPost2010PropOp48
 70
     0
102
RTVSPost2010Prop49
280
     0
102
RTVSPost2010PropOp49
 70
     1
102
RTVSPost2010Prop50
 90
       50
102
RTVSPost2010PropOp50
 70
     0
102
RTVSPost2010Prop51ColorIndex
 90
      256
102
RTVSPost2010Prop51ColorRGB
 90
-16777216
102
RTVSPost2010PropOp51
 70
     0
102
RTVSPost2010Prop52
140
1.0
102
RTVSPost2010PropOp52
 70
     0
102
RTVSPost2010Prop53
 90
        2
102
RTVSPost2010PropOp53
 70
     0
102
RTVSPost2010Prop54
  1
strokes_ogs.tif
102
RTVSPost2010PropOp54
 70
     0
102
RTVSPost2010Prop55
280
     0
102
RTVSPost2010PropOp55
 70
     1
102
RTVSPost2010Prop56
140
1.0
102
RTVSPost2010PropOp56
 70
     0
102
RTVSPost2010Prop57
140
1.0
102
RTVSPost2010PropOp57
 70
     0
102
RTVSPropertyOp0
 70
     0
102
RTVSPropertyOp1
 70
     0
102
RTVSPropertyOp2
 70
     0
102
RTVSPropertyOp3
 70
     0
102
RTVSPropertyOp4
 70
     0
102
RTVSPropertyOp5
 70
     0
102
RTVSPropertyOp6
 70
     0
102
RTVSPropertyOp7
 70
     0
102
RTVSPropertyOp8
 70
     0
102
RTVSPropertyOp9
 70
     0
102
RTVSPropertyOp10
 70
     0
102
RTVSPropertyOp11
 70
     0
102
RTVSPropertyOp12
 70
     0
102
RTVSPropertyOp13
 70
     0
102
RTVSPropertyOp14
 70
     2
102
RTVSPropertyOp15
 70
     0
102
RTVSPropertyOp16
 70
     0
102
RTVSPropertyOp17
 70
     0
102
RTVSPropertyOp18
 70
     0
102
RTVSPropertyOp19
 70
     0
102
RTVSPropertyOp20
 70
     0
102
RTVSPropertyOp21
 70
     0
102
RTVSPropertyOp22
 70
     0
102
RTVSPropertyOp23
 70
     0
102
RTVSPropertyOp24
 70
     0
102
RTVSPropertyOp25
 70
     0
102
RTVSPropertyOp26
 70
     0
102
RTVSPropertyOp27
 70
     0
102
RTVSPropertyOp28
 70
     1
102
RTVSPropertyOp29
 70
     1
102
RTVSPropertyOp30
 70
     1
102
RTVSPropertyOp31
 70
     1
102
RTVSPropertyOp32
 70
     1
102
RTVSPropertyOp33
 70
     1
102
RTVSPropertyOp34
 70
     1
102
RTVSPropertyOp35
 70
     1
102
RTVSPropertyOp36
 70
     1
102
RTVSPropertyOp37
 70
     0
102
RTVSPropertyOp38
 70
     0
102
RTVSPropertyOp39
 70
     0
102
RTVSPropertyOp40
 70
     0
102
RTVSPropertyOp41
 70
     0
102
RTVSPropertyOp42
 70
     0
102
RTVSPropertyOp43
 70
     0
102
RTVSPropertyOp44
 70
     0
102
RTVSPropertyOp45
 70
     1
102
RTVSPropertyOp46
 70
     0
102
RTVSPropertyOp47
 70
     0
102
RTVSPropertyOp48
 70
     0
102
RTVSPropertyOp49
 70
     1
102
RTVSPropertyOp50
 70
     0
102
RTVSPropertyOp51
 70
     0
102
RTVSPropertyOp52
 70
     0
102
RTVSPropertyOp53
 70
     0
102
RTVSPropertyOp54
 70
     0
102
RTVSPropertyOp55
 70
     1
102
RTVSPropertyOp56
 70
     0
102
RTVSPropertyOp57
 70
     0
102
RTVSPropertyOp58
 70
     0
102
RTVSPropertyOp59
 70
     0
102
RTVSPropertyOp60
 70
     0
102
RTVSPropertyOp61
 70
     0
102
RTVSPropertyOp62
 70
     0
  0
XRECORD
  5
684E
102
{ACAD_REACTORS
330
684D
102
}
330
684D
100
AcDbXrecord
280
     1
102
RTVSPost2010Prop28
280
     0
102
RTVSPost2010PropOp28
 70
     1
102
RTVSPost2010Prop29
280
     1
102
RTVSPost2010PropOp29
 70
     1
102
RTVSPost2010Prop30
280
     1
102
RTVSPost2010PropOp30
 70
     1
102
RTVSPost2010Prop31
280
     0
102
RTVSPost2010PropOp31
 70
     1
102
RTVSPost2010Prop32
280
     0
102
RTVSPost2010PropOp32
 70
     1
102
RTVSPost2010Prop33
280
     0
102
RTVSPost2010PropOp33
 70
     1
102
RTVSPost2010Prop34
280
     0
102
RTVSPost2010PropOp34
 70
     1
102
RTVSPost2010Prop35
280
     0
102
RTVSPost2010PropOp35
 70
     1
102
RTVSPost2010Prop36
280
     0
102
RTVSPost2010PropOp36
 70
     1
102
RTVSPost2010Prop37
 90
       50
102
RTVSPost2010PropOp37
 70
     1
102
RTVSPost2010Prop38
140
0.0
102
RTVSPost2010PropOp38
 70
     1
102
RTVSPost2010Prop39
140
1.0
102
RTVSPost2010PropOp39
 70
     1
102
RTVSPost2010Prop40
 90
        0
102
RTVSPost2010PropOp40
 70
     1
102
RTVSPost2010Prop41ColorIndex
 90
       18
102
RTVSPost2010Prop41ColorRGB
 90
        0
102
RTVSPost2010PropOp41
 70
     1
102
RTVSPost2010Prop42
 90
       50
102
RTVSPost2010PropOp42
 70
     1
102
RTVSPost2010Prop43
 90
        3
102
RTVSPost2010PropOp43
 70
     1
102
RTVSPost2010Prop44ColorIndex
 90
        5
102
RTVSPost2010Prop44ColorRGB
 90
      255
102
RTVSPost2010PropOp44
 70
     1
102
RTVSPost2010Prop45
280
     0
102
RTVSPost2010PropOp45
 70
     1
102
RTVSPost2010Prop46
 90
       50
102
RTVSPost2010PropOp46
 70
     1
102
RTVSPost2010Prop47
 90
       50
102
RTVSPost2010PropOp47
 70
     1
102
RTVSPost2010Prop48
 90
       50
102
RTVSPost2010PropOp48
 70
     1
102
RTVSPost2010Prop49
280
     0
102
RTVSPost2010PropOp49
 70
     1
102
RTVSPost2010Prop50
 90
       50
102
RTVSPost2010PropOp50
 70
     1
102
RTVSPost2010Prop51ColorIndex
 90
      256
102
RTVSPost2010Prop51ColorRGB
 90
-16777216
102
RTVSPost2010PropOp51
 70
     0
102
RTVSPost2010Prop52
140
1.0
102
RTVSPost2010PropOp52
 70
     0
102
RTVSPost2010Prop53
 90
        2
102
RTVSPost2010PropOp53
 70
     1
102
RTVSPost2010Prop54
  1
strokes_ogs.tif
102
RTVSPost2010PropOp54
 70
     1
102
RTVSPost2010Prop55
280
     0
102
RTVSPost2010PropOp55
 70
     1
102
RTVSPost2010Prop56
140
1.0
102
RTVSPost2010PropOp56
 70
     1
102
RTVSPost2010Prop57
140
1.0
102
RTVSPost2010PropOp57
 70
     1
102
RTVSPropertyOp0
 70
     1
102
RTVSPropertyOp1
 70
     1
102
RTVSPropertyOp2
 70
     1
102
RTVSPropertyOp3
 70
     1
102
RTVSPropertyOp4
 70
     1
102
RTVSPropertyOp5
 70
     1
102
RTVSPropertyOp6
 70
     1
102
RTVSPropertyOp7
 70
     1
102
RTVSPropertyOp8
 70
     1
102
RTVSPropertyOp9
 70
     1
102
RTVSPropertyOp10
 70
     1
102
RTVSPropertyOp11
 70
     1
102
RTVSPropertyOp12
 70
     1
102
RTVSPropertyOp13
 70
     1
102
RTVSPropertyOp14
 70
     1
102
RTVSPropertyOp15
 70
     1
102
RTVSPropertyOp16
 70
     1
102
RTVSPropertyOp17
 70
     1
102
RTVSPropertyOp18
 70
     1
102
RTVSPropertyOp19
 70
     1
102
RTVSPropertyOp20
 70
     1
102
RTVSPropertyOp21
 70
     1
102
RTVSPropertyOp22
 70
     1
102
RTVSPropertyOp23
 70
     1
102
RTVSPropertyOp24
 70
     1
102
RTVSPropertyOp25
 70
     1
102
RTVSPropertyOp26
 70
     1
102
RTVSPropertyOp27
 70
     1
102
RTVSPropertyOp28
 70
     1
102
RTVSPropertyOp29
 70
     1
102
RTVSPropertyOp30
 70
     1
102
RTVSPropertyOp31
 70
     1
102
RTVSPropertyOp32
 70
     1
102
RTVSPropertyOp33
 70
     1
102
RTVSPropertyOp34
 70
     1
102
RTVSPropertyOp35
 70
     1
102
RTVSPropertyOp36
 70
     1
102
RTVSPropertyOp37
 70
     1
102
RTVSPropertyOp38
 70
     1
102
RTVSPropertyOp39
 70
     1
102
RTVSPropertyOp40
 70
     1
102
RTVSPropertyOp41
 70
     1
102
RTVSPropertyOp42
 70
     1
102
RTVSPropertyOp43
 70
     1
102
RTVSPropertyOp44
 70
     1
102
RTVSPropertyOp45
 70
     1
102
RTVSPropertyOp46
 70
     1
102
RTVSPropertyOp47
 70
     1
102
RTVSPropertyOp48
 70
     1
102
RTVSPropertyOp49
 70
     1
102
RTVSPropertyOp50
 70
     1
102
RTVSPropertyOp51
 70
     0
102
RTVSPropertyOp52
 70
     0
102
RTVSPropertyOp53
 70
     1
102
RTVSPropertyOp54
 70
     1
102
RTVSPropertyOp55
 70
     1
102
RTVSPropertyOp56
 70
     1
102
RTVSPropertyOp57
 70
     1
102
RTVSPropertyOp58
 70
     1
102
RTVSPropertyOp59
 70
     1
102
RTVSPropertyOp60
 70
     1
102
RTVSPropertyOp61
 70
     1
102
RTVSPropertyOp62
 70
     1
  0
XRECORD
  5
6832
102
{ACAD_REACTORS
330
6831
102
}
330
6831
100
AcDbXrecord
280
     1
102
RTVSPost2010Prop28
280
     0
102
RTVSPost2010PropOp28
 70
     1
102
RTVSPost2010Prop29
280
     1
102
RTVSPost2010PropOp29
 70
     1
102
RTVSPost2010Prop30
280
     1
102
RTVSPost2010PropOp30
 70
     1
102
RTVSPost2010Prop31
280
     0
102
RTVSPost2010PropOp31
 70
     1
102
RTVSPost2010Prop32
280
     0
102
RTVSPost2010PropOp32
 70
     1
102
RTVSPost2010Prop33
280
     0
102
RTVSPost2010PropOp33
 70
     1
102
RTVSPost2010Prop34
280
     0
102
RTVSPost2010PropOp34
 70
     1
102
RTVSPost2010Prop35
280
     0
102
RTVSPost2010PropOp35
 70
     1
102
RTVSPost2010Prop36
280
     0
102
RTVSPost2010PropOp36
 70
     1
102
RTVSPost2010Prop37
 90
       50
102
RTVSPost2010PropOp37
 70
     1
102
RTVSPost2010Prop38
140
0.0
102
RTVSPost2010PropOp38
 70
     1
102
RTVSPost2010Prop39
140
1.0
102
RTVSPost2010PropOp39
 70
     1
102
RTVSPost2010Prop40
 90
        0
102
RTVSPost2010PropOp40
 70
     1
102
RTVSPost2010Prop41ColorIndex
 90
       18
102
RTVSPost2010Prop41ColorRGB
 90
        0
102
RTVSPost2010PropOp41
 70
     1
102
RTVSPost2010Prop42
 90
       50
102
RTVSPost2010PropOp42
 70
     1
102
RTVSPost2010Prop43
 90
        3
102
RTVSPost2010PropOp43
 70
     1
102
RTVSPost2010Prop44ColorIndex
 90
        5
102
RTVSPost2010Prop44ColorRGB
 90
      255
102
RTVSPost2010PropOp44
 70
     1
102
RTVSPost2010Prop45
280
     0
102
RTVSPost2010PropOp45
 70
     1
102
RTVSPost2010Prop46
 90
       50
102
RTVSPost2010PropOp46
 70
     1
102
RTVSPost2010Prop47
 90
       50
102
RTVSPost2010PropOp47
 70
     1
102
RTVSPost2010Prop48
 90
       50
102
RTVSPost2010PropOp48
 70
     1
102
RTVSPost2010Prop49
280
     0
102
RTVSPost2010PropOp49
 70
     1
102
RTVSPost2010Prop50
 90
       50
102
RTVSPost2010PropOp50
 70
     1
102
RTVSPost2010Prop51ColorIndex
 90
      256
102
RTVSPost2010Prop51ColorRGB
 90
-16777216
102
RTVSPost2010PropOp51
 70
     0
102
RTVSPost2010Prop52
140
1.0
102
RTVSPost2010PropOp52
 70
     0
102
RTVSPost2010Prop53
 90
        2
102
RTVSPost2010PropOp53
 70
     1
102
RTVSPost2010Prop54
  1
strokes_ogs.tif
102
RTVSPost2010PropOp54
 70
     1
102
RTVSPost2010Prop55
280
     0
102
RTVSPost2010PropOp55
 70
     1
102
RTVSPost2010Prop56
140
1.0
102
RTVSPost2010PropOp56
 70
     1
102
RTVSPost2010Prop57
140
1.0
102
RTVSPost2010PropOp57
 70
     1
102
RTVSPropertyOp0
 70
     1
102
RTVSPropertyOp1
 70
     1
102
RTVSPropertyOp2
 70
     1
102
RTVSPropertyOp3
 70
     1
102
RTVSPropertyOp4
 70
     1
102
RTVSPropertyOp5
 70
     1
102
RTVSPropertyOp6
 70
     1
102
RTVSPropertyOp7
 70
     1
102
RTVSPropertyOp8
 70
     1
102
RTVSPropertyOp9
 70
     1
102
RTVSPropertyOp10
 70
     1
102
RTVSPropertyOp11
 70
     1
102
RTVSPropertyOp12
 70
     1
102
RTVSPropertyOp13
 70
     1
102
RTVSPropertyOp14
 70
     1
102
RTVSPropertyOp15
 70
     1
102
RTVSPropertyOp16
 70
     1
102
RTVSPropertyOp17
 70
     1
102
RTVSPropertyOp18
 70
     1
102
RTVSPropertyOp19
 70
     1
102
RTVSPropertyOp20
 70
     1
102
RTVSPropertyOp21
 70
     1
102
RTVSPropertyOp22
 70
     1
102
RTVSPropertyOp23
 70
     1
102
RTVSPropertyOp24
 70
     1
102
RTVSPropertyOp25
 70
     1
102
RTVSPropertyOp26
 70
     1
102
RTVSPropertyOp27
 70
     1
102
RTVSPropertyOp28
 70
     1
102
RTVSPropertyOp29
 70
     1
102
RTVSPropertyOp30
 70
     1
102
RTVSPropertyOp31
 70
     1
102
RTVSPropertyOp32
 70
     1
102
RTVSPropertyOp33
 70
     1
102
RTVSPropertyOp34
 70
     1
102
RTVSPropertyOp35
 70
     1
102
RTVSPropertyOp36
 70
     1
102
RTVSPropertyOp37
 70
     1
102
RTVSPropertyOp38
 70
     1
102
RTVSPropertyOp39
 70
     1
102
RTVSPropertyOp40
 70
     1
102
RTVSPropertyOp41
 70
     1
102
RTVSPropertyOp42
 70
     1
102
RTVSPropertyOp43
 70
     1
102
RTVSPropertyOp44
 70
     1
102
RTVSPropertyOp45
 70
     1
102
RTVSPropertyOp46
 70
     1
102
RTVSPropertyOp47
 70
     1
102
RTVSPropertyOp48
 70
     1
102
RTVSPropertyOp49
 70
     1
102
RTVSPropertyOp50
 70
     1
102
RTVSPropertyOp51
 70
     0
102
RTVSPropertyOp52
 70
     0
102
RTVSPropertyOp53
 70
     1
102
RTVSPropertyOp54
 70
     1
102
RTVSPropertyOp55
 70
     1
102
RTVSPropertyOp56
 70
     1
102
RTVSPropertyOp57
 70
     1
102
RTVSPropertyOp58
 70
     1
102
RTVSPropertyOp59
 70
     1
102
RTVSPropertyOp60
 70
     1
102
RTVSPropertyOp61
 70
     1
102
RTVSPropertyOp62
 70
     1
  0
XRECORD
  5
6834
102
{ACAD_REACTORS
330
6833
102
}
330
6833
100
AcDbXrecord
280
     1
102
RTVSPost2010Prop28
280
     0
102
RTVSPost2010PropOp28
 70
     1
102
RTVSPost2010Prop29
280
     1
102
RTVSPost2010PropOp29
 70
     1
102
RTVSPost2010Prop30
280
     1
102
RTVSPost2010PropOp30
 70
     1
102
RTVSPost2010Prop31
280
     0
102
RTVSPost2010PropOp31
 70
     1
102
RTVSPost2010Prop32
280
     0
102
RTVSPost2010PropOp32
 70
     1
102
RTVSPost2010Prop33
280
     0
102
RTVSPost2010PropOp33
 70
     1
102
RTVSPost2010Prop34
280
     0
102
RTVSPost2010PropOp34
 70
     1
102
RTVSPost2010Prop35
280
     0
102
RTVSPost2010PropOp35
 70
     1
102
RTVSPost2010Prop36
280
     0
102
RTVSPost2010PropOp36
 70
     1
102
RTVSPost2010Prop37
 90
       50
102
RTVSPost2010PropOp37
 70
     1
102
RTVSPost2010Prop38
140
0.0
102
RTVSPost2010PropOp38
 70
     1
102
RTVSPost2010Prop39
140
1.0
102
RTVSPost2010PropOp39
 70
     1
102
RTVSPost2010Prop40
 90
        0
102
RTVSPost2010PropOp40
 70
     1
102
RTVSPost2010Prop41ColorIndex
 90
       18
102
RTVSPost2010Prop41ColorRGB
 90
        0
102
RTVSPost2010PropOp41
 70
     1
102
RTVSPost2010Prop42
 90
       50
102
RTVSPost2010PropOp42
 70
     1
102
RTVSPost2010Prop43
 90
        3
102
RTVSPost2010PropOp43
 70
     1
102
RTVSPost2010Prop44ColorIndex
 90
        5
102
RTVSPost2010Prop44ColorRGB
 90
      255
102
RTVSPost2010PropOp44
 70
     1
102
RTVSPost2010Prop45
280
     0
102
RTVSPost2010PropOp45
 70
     1
102
RTVSPost2010Prop46
 90
       50
102
RTVSPost2010PropOp46
 70
     1
102
RTVSPost2010Prop47
 90
       50
102
RTVSPost2010PropOp47
 70
     1
102
RTVSPost2010Prop48
 90
       50
102
RTVSPost2010PropOp48
 70
     1
102
RTVSPost2010Prop49
280
     0
102
RTVSPost2010PropOp49
 70
     1
102
RTVSPost2010Prop50
 90
       50
102
RTVSPost2010PropOp50
 70
     1
102
RTVSPost2010Prop51ColorIndex
 90
      256
102
RTVSPost2010Prop51ColorRGB
 90
-16777216
102
RTVSPost2010PropOp51
 70
     0
102
RTVSPost2010Prop52
140
1.0
102
RTVSPost2010PropOp52
 70
     0
102
RTVSPost2010Prop53
 90
        2
102
RTVSPost2010PropOp53
 70
     1
102
RTVSPost2010Prop54
  1
strokes_ogs.tif
102
RTVSPost2010PropOp54
 70
     1
102
RTVSPost2010Prop55
280
     0
102
RTVSPost2010PropOp55
 70
     1
102
RTVSPost2010Prop56
140
1.0
102
RTVSPost2010PropOp56
 70
     1
102
RTVSPost2010Prop57
140
1.0
102
RTVSPost2010PropOp57
 70
     1
102
RTVSPropertyOp0
 70
     1
102
RTVSPropertyOp1
 70
     1
102
RTVSPropertyOp2
 70
     1
102
RTVSPropertyOp3
 70
     1
102
RTVSPropertyOp4
 70
     1
102
RTVSPropertyOp5
 70
     1
102
RTVSPropertyOp6
 70
     1
102
RTVSPropertyOp7
 70
     1
102
RTVSPropertyOp8
 70
     1
102
RTVSPropertyOp9
 70
     1
102
RTVSPropertyOp10
 70
     1
102
RTVSPropertyOp11
 70
     1
102
RTVSPropertyOp12
 70
     1
102
RTVSPropertyOp13
 70
     1
102
RTVSPropertyOp14
 70
     1
102
RTVSPropertyOp15
 70
     1
102
RTVSPropertyOp16
 70
     1
102
RTVSPropertyOp17
 70
     1
102
RTVSPropertyOp18
 70
     1
102
RTVSPropertyOp19
 70
     1
102
RTVSPropertyOp20
 70
     1
102
RTVSPropertyOp21
 70
     1
102
RTVSPropertyOp22
 70
     1
102
RTVSPropertyOp23
 70
     1
102
RTVSPropertyOp24
 70
     1
102
RTVSPropertyOp25
 70
     1
102
RTVSPropertyOp26
 70
     1
102
RTVSPropertyOp27
 70
     1
102
RTVSPropertyOp28
 70
     1
102
RTVSPropertyOp29
 70
     1
102
RTVSPropertyOp30
 70
     1
102
RTVSPropertyOp31
 70
     1
102
RTVSPropertyOp32
 70
     1
102
RTVSPropertyOp33
 70
     1
102
RTVSPropertyOp34
 70
     1
102
RTVSPropertyOp35
 70
     1
102
RTVSPropertyOp36
 70
     1
102
RTVSPropertyOp37
 70
     1
102
RTVSPropertyOp38
 70
     1
102
RTVSPropertyOp39
 70
     1
102
RTVSPropertyOp40
 70
     1
102
RTVSPropertyOp41
 70
     1
102
RTVSPropertyOp42
 70
     1
102
RTVSPropertyOp43
 70
     1
102
RTVSPropertyOp44
 70
     1
102
RTVSPropertyOp45
 70
     1
102
RTVSPropertyOp46
 70
     1
102
RTVSPropertyOp47
 70
     1
102
RTVSPropertyOp48
 70
     1
102
RTVSPropertyOp49
 70
     1
102
RTVSPropertyOp50
 70
     1
102
RTVSPropertyOp51
 70
     0
102
RTVSPropertyOp52
 70
     0
102
RTVSPropertyOp53
 70
     1
102
RTVSPropertyOp54
 70
     1
102
RTVSPropertyOp55
 70
     1
102
RTVSPropertyOp56
 70
     1
102
RTVSPropertyOp57
 70
     1
102
RTVSPropertyOp58
 70
     1
102
RTVSPropertyOp59
 70
     1
102
RTVSPropertyOp60
 70
     1
102
RTVSPropertyOp61
 70
     1
102
RTVSPropertyOp62
 70
     1
  0
XRECORD
  5
6836
102
{ACAD_REACTORS
330
6835
102
}
330
6835
100
AcDbXrecord
280
     1
102
RTVSPost2010Prop28
280
     0
102
RTVSPost2010PropOp28
 70
     1
102
RTVSPost2010Prop29
280
     1
102
RTVSPost2010PropOp29
 70
     1
102
RTVSPost2010Prop30
280
     1
102
RTVSPost2010PropOp30
 70
     1
102
RTVSPost2010Prop31
280
     0
102
RTVSPost2010PropOp31
 70
     1
102
RTVSPost2010Prop32
280
     0
102
RTVSPost2010PropOp32
 70
     1
102
RTVSPost2010Prop33
280
     0
102
RTVSPost2010PropOp33
 70
     1
102
RTVSPost2010Prop34
280
     0
102
RTVSPost2010PropOp34
 70
     1
102
RTVSPost2010Prop35
280
     0
102
RTVSPost2010PropOp35
 70
     1
102
RTVSPost2010Prop36
280
     0
102
RTVSPost2010PropOp36
 70
     1
102
RTVSPost2010Prop37
 90
       50
102
RTVSPost2010PropOp37
 70
     1
102
RTVSPost2010Prop38
140
0.0
102
RTVSPost2010PropOp38
 70
     1
102
RTVSPost2010Prop39
140
1.0
102
RTVSPost2010PropOp39
 70
     1
102
RTVSPost2010Prop40
 90
        0
102
RTVSPost2010PropOp40
 70
     1
102
RTVSPost2010Prop41ColorIndex
 90
       18
102
RTVSPost2010Prop41ColorRGB
 90
        0
102
RTVSPost2010PropOp41
 70
     1
102
RTVSPost2010Prop42
 90
       50
102
RTVSPost2010PropOp42
 70
     1
102
RTVSPost2010Prop43
 90
        3
102
RTVSPost2010PropOp43
 70
     1
102
RTVSPost2010Prop44ColorIndex
 90
        5
102
RTVSPost2010Prop44ColorRGB
 90
      255
102
RTVSPost2010PropOp44
 70
     1
102
RTVSPost2010Prop45
280
     0
102
RTVSPost2010PropOp45
 70
     1
102
RTVSPost2010Prop46
 90
       50
102
RTVSPost2010PropOp46
 70
     1
102
RTVSPost2010Prop47
 90
       50
102
RTVSPost2010PropOp47
 70
     1
102
RTVSPost2010Prop48
 90
       50
102
RTVSPost2010PropOp48
 70
     1
102
RTVSPost2010Prop49
280
     0
102
RTVSPost2010PropOp49
 70
     1
102
RTVSPost2010Prop50
 90
       50
102
RTVSPost2010PropOp50
 70
     1
102
RTVSPost2010Prop51ColorIndex
 90
      256
102
RTVSPost2010Prop51ColorRGB
 90
-16777216
102
RTVSPost2010PropOp51
 70
     0
102
RTVSPost2010Prop52
140
1.0
102
RTVSPost2010PropOp52
 70
     0
102
RTVSPost2010Prop53
 90
        2
102
RTVSPost2010PropOp53
 70
     1
102
RTVSPost2010Prop54
  1
strokes_ogs.tif
102
RTVSPost2010PropOp54
 70
     1
102
RTVSPost2010Prop55
280
     0
102
RTVSPost2010PropOp55
 70
     1
102
RTVSPost2010Prop56
140
1.0
102
RTVSPost2010PropOp56
 70
     1
102
RTVSPost2010Prop57
140
1.0
102
RTVSPost2010PropOp57
 70
     1
102
RTVSPropertyOp0
 70
     1
102
RTVSPropertyOp1
 70
     1
102
RTVSPropertyOp2
 70
     1
102
RTVSPropertyOp3
 70
     1
102
RTVSPropertyOp4
 70
     1
102
RTVSPropertyOp5
 70
     1
102
RTVSPropertyOp6
 70
     1
102
RTVSPropertyOp7
 70
     1
102
RTVSPropertyOp8
 70
     1
102
RTVSPropertyOp9
 70
     1
102
RTVSPropertyOp10
 70
     1
102
RTVSPropertyOp11
 70
     1
102
RTVSPropertyOp12
 70
     1
102
RTVSPropertyOp13
 70
     1
102
RTVSPropertyOp14
 70
     1
102
RTVSPropertyOp15
 70
     1
102
RTVSPropertyOp16
 70
     1
102
RTVSPropertyOp17
 70
     1
102
RTVSPropertyOp18
 70
     1
102
RTVSPropertyOp19
 70
     1
102
RTVSPropertyOp20
 70
     1
102
RTVSPropertyOp21
 70
     1
102
RTVSPropertyOp22
 70
     1
102
RTVSPropertyOp23
 70
     1
102
RTVSPropertyOp24
 70
     1
102
RTVSPropertyOp25
 70
     1
102
RTVSPropertyOp26
 70
     1
102
RTVSPropertyOp27
 70
     1
102
RTVSPropertyOp28
 70
     1
102
RTVSPropertyOp29
 70
     1
102
RTVSPropertyOp30
 70
     1
102
RTVSPropertyOp31
 70
     1
102
RTVSPropertyOp32
 70
     1
102
RTVSPropertyOp33
 70
     1
102
RTVSPropertyOp34
 70
     1
102
RTVSPropertyOp35
 70
     1
102
RTVSPropertyOp36
 70
     1
102
RTVSPropertyOp37
 70
     1
102
RTVSPropertyOp38
 70
     1
102
RTVSPropertyOp39
 70
     1
102
RTVSPropertyOp40
 70
     1
102
RTVSPropertyOp41
 70
     1
102
RTVSPropertyOp42
 70
     1
102
RTVSPropertyOp43
 70
     1
102
RTVSPropertyOp44
 70
     1
102
RTVSPropertyOp45
 70
     1
102
RTVSPropertyOp46
 70
     1
102
RTVSPropertyOp47
 70
     1
102
RTVSPropertyOp48
 70
     1
102
RTVSPropertyOp49
 70
     1
102
RTVSPropertyOp50
 70
     1
102
RTVSPropertyOp51
 70
     0
102
RTVSPropertyOp52
 70
     0
102
RTVSPropertyOp53
 70
     1
102
RTVSPropertyOp54
 70
     1
102
RTVSPropertyOp55
 70
     1
102
RTVSPropertyOp56
 70
     1
102
RTVSPropertyOp57
 70
     1
102
RTVSPropertyOp58
 70
     1
102
RTVSPropertyOp59
 70
     1
102
RTVSPropertyOp60
 70
     1
102
RTVSPropertyOp61
 70
     1
102
RTVSPropertyOp62
 70
     1
  0
XRECORD
  5
6838
102
{ACAD_REACTORS
330
6837
102
}
330
6837
100
AcDbXrecord
280
     1
102
RTVSPost2010Prop28
280
     0
102
RTVSPost2010PropOp28
 70
     1
102
RTVSPost2010Prop29
280
     1
102
RTVSPost2010PropOp29
 70
     1
102
RTVSPost2010Prop30
280
     1
102
RTVSPost2010PropOp30
 70
     1
102
RTVSPost2010Prop31
280
     0
102
RTVSPost2010PropOp31
 70
     1
102
RTVSPost2010Prop32
280
     0
102
RTVSPost2010PropOp32
 70
     1
102
RTVSPost2010Prop33
280
     0
102
RTVSPost2010PropOp33
 70
     1
102
RTVSPost2010Prop34
280
     0
102
RTVSPost2010PropOp34
 70
     1
102
RTVSPost2010Prop35
280
     0
102
RTVSPost2010PropOp35
 70
     1
102
RTVSPost2010Prop36
280
     0
102
RTVSPost2010PropOp36
 70
     1
102
RTVSPost2010Prop37
 90
       50
102
RTVSPost2010PropOp37
 70
     1
102
RTVSPost2010Prop38
140
0.0
102
RTVSPost2010PropOp38
 70
     1
102
RTVSPost2010Prop39
140
1.0
102
RTVSPost2010PropOp39
 70
     1
102
RTVSPost2010Prop40
 90
        0
102
RTVSPost2010PropOp40
 70
     1
102
RTVSPost2010Prop41ColorIndex
 90
       18
102
RTVSPost2010Prop41ColorRGB
 90
        0
102
RTVSPost2010PropOp41
 70
     1
102
RTVSPost2010Prop42
 90
       50
102
RTVSPost2010PropOp42
 70
     1
102
RTVSPost2010Prop43
 90
        3
102
RTVSPost2010PropOp43
 70
     1
102
RTVSPost2010Prop44ColorIndex
 90
        5
102
RTVSPost2010Prop44ColorRGB
 90
      255
102
RTVSPost2010PropOp44
 70
     1
102
RTVSPost2010Prop45
280
     0
102
RTVSPost2010PropOp45
 70
     1
102
RTVSPost2010Prop46
 90
       50
102
RTVSPost2010PropOp46
 70
     1
102
RTVSPost2010Prop47
 90
       50
102
RTVSPost2010PropOp47
 70
     1
102
RTVSPost2010Prop48
 90
       50
102
RTVSPost2010PropOp48
 70
     1
102
RTVSPost2010Prop49
280
     0
102
RTVSPost2010PropOp49
 70
     1
102
RTVSPost2010Prop50
 90
       50
102
RTVSPost2010PropOp50
 70
     1
102
RTVSPost2010Prop51ColorIndex
 90
      256
102
RTVSPost2010Prop51ColorRGB
 90
-16777216
102
RTVSPost2010PropOp51
 70
     0
102
RTVSPost2010Prop52
140
1.0
102
RTVSPost2010PropOp52
 70
     0
102
RTVSPost2010Prop53
 90
        2
102
RTVSPost2010PropOp53
 70
     1
102
RTVSPost2010Prop54
  1
strokes_ogs.tif
102
RTVSPost2010PropOp54
 70
     1
102
RTVSPost2010Prop55
280
     0
102
RTVSPost2010PropOp55
 70
     1
102
RTVSPost2010Prop56
140
1.0
102
RTVSPost2010PropOp56
 70
     1
102
RTVSPost2010Prop57
140
1.0
102
RTVSPost2010PropOp57
 70
     1
102
RTVSPropertyOp0
 70
     1
102
RTVSPropertyOp1
 70
     1
102
RTVSPropertyOp2
 70
     1
102
RTVSPropertyOp3
 70
     1
102
RTVSPropertyOp4
 70
     1
102
RTVSPropertyOp5
 70
     1
102
RTVSPropertyOp6
 70
     1
102
RTVSPropertyOp7
 70
     1
102
RTVSPropertyOp8
 70
     1
102
RTVSPropertyOp9
 70
     1
102
RTVSPropertyOp10
 70
     1
102
RTVSPropertyOp11
 70
     1
102
RTVSPropertyOp12
 70
     1
102
RTVSPropertyOp13
 70
     1
102
RTVSPropertyOp14
 70
     1
102
RTVSPropertyOp15
 70
     1
102
RTVSPropertyOp16
 70
     1
102
RTVSPropertyOp17
 70
     1
102
RTVSPropertyOp18
 70
     1
102
RTVSPropertyOp19
 70
     1
102
RTVSPropertyOp20
 70
     1
102
RTVSPropertyOp21
 70
     1
102
RTVSPropertyOp22
 70
     1
102
RTVSPropertyOp23
 70
     1
102
RTVSPropertyOp24
 70
     1
102
RTVSPropertyOp25
 70
     1
102
RTVSPropertyOp26
 70
     1
102
RTVSPropertyOp27
 70
     1
102
RTVSPropertyOp28
 70
     1
102
RTVSPropertyOp29
 70
     1
102
RTVSPropertyOp30
 70
     1
102
RTVSPropertyOp31
 70
     1
102
RTVSPropertyOp32
 70
     1
102
RTVSPropertyOp33
 70
     1
102
RTVSPropertyOp34
 70
     1
102
RTVSPropertyOp35
 70
     1
102
RTVSPropertyOp36
 70
     1
102
RTVSPropertyOp37
 70
     1
102
RTVSPropertyOp38
 70
     1
102
RTVSPropertyOp39
 70
     1
102
RTVSPropertyOp40
 70
     1
102
RTVSPropertyOp41
 70
     1
102
RTVSPropertyOp42
 70
     1
102
RTVSPropertyOp43
 70
     1
102
RTVSPropertyOp44
 70
     1
102
RTVSPropertyOp45
 70
     1
102
RTVSPropertyOp46
 70
     1
102
RTVSPropertyOp47
 70
     1
102
RTVSPropertyOp48
 70
     1
102
RTVSPropertyOp49
 70
     1
102
RTVSPropertyOp50
 70
     1
102
RTVSPropertyOp51
 70
     0
102
RTVSPropertyOp52
 70
     0
102
RTVSPropertyOp53
 70
     1
102
RTVSPropertyOp54
 70
     1
102
RTVSPropertyOp55
 70
     1
102
RTVSPropertyOp56
 70
     1
102
RTVSPropertyOp57
 70
     1
102
RTVSPropertyOp58
 70
     1
102
RTVSPropertyOp59
 70
     1
102
RTVSPropertyOp60
 70
     1
102
RTVSPropertyOp61
 70
     1
102
RTVSPropertyOp62
 70
     1
  0
XRECORD
  5
6840
102
{ACAD_REACTORS
330
683F
102
}
330
683F
100
AcDbXrecord
280
     1
102
RTVSPost2010Prop28
280
     0
102
RTVSPost2010PropOp28
 70
     1
102
RTVSPost2010Prop29
280
     1
102
RTVSPost2010PropOp29
 70
     1
102
RTVSPost2010Prop30
280
     1
102
RTVSPost2010PropOp30
 70
     1
102
RTVSPost2010Prop31
280
     0
102
RTVSPost2010PropOp31
 70
     1
102
RTVSPost2010Prop32
280
     0
102
RTVSPost2010PropOp32
 70
     1
102
RTVSPost2010Prop33
280
     0
102
RTVSPost2010PropOp33
 70
     1
102
RTVSPost2010Prop34
280
     0
102
RTVSPost2010PropOp34
 70
     1
102
RTVSPost2010Prop35
280
     0
102
RTVSPost2010PropOp35
 70
     1
102
RTVSPost2010Prop36
280
     0
102
RTVSPost2010PropOp36
 70
     1
102
RTVSPost2010Prop37
 90
       50
102
RTVSPost2010PropOp37
 70
     1
102
RTVSPost2010Prop38
140
0.0
102
RTVSPost2010PropOp38
 70
     1
102
RTVSPost2010Prop39
140
1.0
102
RTVSPost2010PropOp39
 70
     1
102
RTVSPost2010Prop40
 90
        0
102
RTVSPost2010PropOp40
 70
     1
102
RTVSPost2010Prop41ColorIndex
 90
       18
102
RTVSPost2010Prop41ColorRGB
 90
        0
102
RTVSPost2010PropOp41
 70
     1
102
RTVSPost2010Prop42
 90
       50
102
RTVSPost2010PropOp42
 70
     1
102
RTVSPost2010Prop43
 90
        3
102
RTVSPost2010PropOp43
 70
     1
102
RTVSPost2010Prop44ColorIndex
 90
        5
102
RTVSPost2010Prop44ColorRGB
 90
      255
102
RTVSPost2010PropOp44
 70
     1
102
RTVSPost2010Prop45
280
     0
102
RTVSPost2010PropOp45
 70
     1
102
RTVSPost2010Prop46
 90
       50
102
RTVSPost2010PropOp46
 70
     1
102
RTVSPost2010Prop47
 90
       50
102
RTVSPost2010PropOp47
 70
     1
102
RTVSPost2010Prop48
 90
       50
102
RTVSPost2010PropOp48
 70
     1
102
RTVSPost2010Prop49
280
     0
102
RTVSPost2010PropOp49
 70
     1
102
RTVSPost2010Prop50
 90
       50
102
RTVSPost2010PropOp50
 70
     1
102
RTVSPost2010Prop51ColorIndex
 90
      256
102
RTVSPost2010Prop51ColorRGB
 90
-16777216
102
RTVSPost2010PropOp51
 70
     0
102
RTVSPost2010Prop52
140
1.0
102
RTVSPost2010PropOp52
 70
     0
102
RTVSPost2010Prop53
 90
        2
102
RTVSPost2010PropOp53
 70
     1
102
RTVSPost2010Prop54
  1
strokes_ogs.tif
102
RTVSPost2010PropOp54
 70
     1
102
RTVSPost2010Prop55
280
     0
102
RTVSPost2010PropOp55
 70
     1
102
RTVSPost2010Prop56
140
1.0
102
RTVSPost2010PropOp56
 70
     1
102
RTVSPost2010Prop57
140
1.0
102
RTVSPost2010PropOp57
 70
     1
102
RTVSPropertyOp0
 70
     1
102
RTVSPropertyOp1
 70
     1
102
RTVSPropertyOp2
 70
     1
102
RTVSPropertyOp3
 70
     1
102
RTVSPropertyOp4
 70
     1
102
RTVSPropertyOp5
 70
     1
102
RTVSPropertyOp6
 70
     1
102
RTVSPropertyOp7
 70
     1
102
RTVSPropertyOp8
 70
     1
102
RTVSPropertyOp9
 70
     1
102
RTVSPropertyOp10
 70
     1
102
RTVSPropertyOp11
 70
     1
102
RTVSPropertyOp12
 70
     1
102
RTVSPropertyOp13
 70
     1
102
RTVSPropertyOp14
 70
     1
102
RTVSPropertyOp15
 70
     1
102
RTVSPropertyOp16
 70
     1
102
RTVSPropertyOp17
 70
     1
102
RTVSPropertyOp18
 70
     1
102
RTVSPropertyOp19
 70
     1
102
RTVSPropertyOp20
 70
     1
102
RTVSPropertyOp21
 70
     1
102
RTVSPropertyOp22
 70
     1
102
RTVSPropertyOp23
 70
     1
102
RTVSPropertyOp24
 70
     1
102
RTVSPropertyOp25
 70
     1
102
RTVSPropertyOp26
 70
     1
102
RTVSPropertyOp27
 70
     1
102
RTVSPropertyOp28
 70
     1
102
RTVSPropertyOp29
 70
     1
102
RTVSPropertyOp30
 70
     1
102
RTVSPropertyOp31
 70
     1
102
RTVSPropertyOp32
 70
     1
102
RTVSPropertyOp33
 70
     1
102
RTVSPropertyOp34
 70
     1
102
RTVSPropertyOp35
 70
     1
102
RTVSPropertyOp36
 70
     1
102
RTVSPropertyOp37
 70
     1
102
RTVSPropertyOp38
 70
     1
102
RTVSPropertyOp39
 70
     1
102
RTVSPropertyOp40
 70
     1
102
RTVSPropertyOp41
 70
     1
102
RTVSPropertyOp42
 70
     1
102
RTVSPropertyOp43
 70
     1
102
RTVSPropertyOp44
 70
     1
102
RTVSPropertyOp45
 70
     1
102
RTVSPropertyOp46
 70
     1
102
RTVSPropertyOp47
 70
     1
102
RTVSPropertyOp48
 70
     1
102
RTVSPropertyOp49
 70
     1
102
RTVSPropertyOp50
 70
     1
102
RTVSPropertyOp51
 70
     0
102
RTVSPropertyOp52
 70
     0
102
RTVSPropertyOp53
 70
     1
102
RTVSPropertyOp54
 70
     1
102
RTVSPropertyOp55
 70
     1
102
RTVSPropertyOp56
 70
     1
102
RTVSPropertyOp57
 70
     1
102
RTVSPropertyOp58
 70
     1
102
RTVSPropertyOp59
 70
     1
102
RTVSPropertyOp60
 70
     1
102
RTVSPropertyOp61
 70
     1
102
RTVSPropertyOp62
 70
     1
  0
XRECORD
  5
685C
102
{ACAD_REACTORS
330
685B
102
}
330
685B
100
AcDbXrecord
280
     1
102
RTVSPost2010Prop28
280
     0
102
RTVSPost2010PropOp28
 70
     1
102
RTVSPost2010Prop29
280
     1
102
RTVSPost2010PropOp29
 70
     1
102
RTVSPost2010Prop30
280
     1
102
RTVSPost2010PropOp30
 70
     1
102
RTVSPost2010Prop31
280
     0
102
RTVSPost2010PropOp31
 70
     1
102
RTVSPost2010Prop32
280
     0
102
RTVSPost2010PropOp32
 70
     1
102
RTVSPost2010Prop33
280
     0
102
RTVSPost2010PropOp33
 70
     1
102
RTVSPost2010Prop34
280
     0
102
RTVSPost2010PropOp34
 70
     1
102
RTVSPost2010Prop35
280
     0
102
RTVSPost2010PropOp35
 70
     1
102
RTVSPost2010Prop36
280
     0
102
RTVSPost2010PropOp36
 70
     1
102
RTVSPost2010Prop37
 90
       50
102
RTVSPost2010PropOp37
 70
     0
102
RTVSPost2010Prop38
140
0.0
102
RTVSPost2010PropOp38
 70
     0
102
RTVSPost2010Prop39
140
1.0
102
RTVSPost2010PropOp39
 70
     0
102
RTVSPost2010Prop40
 90
        0
102
RTVSPost2010PropOp40
 70
     0
102
RTVSPost2010Prop41ColorIndex
 90
       18
102
RTVSPost2010Prop41ColorRGB
 90
        0
102
RTVSPost2010PropOp41
 70
     0
102
RTVSPost2010Prop42
 90
       50
102
RTVSPost2010PropOp42
 70
     0
102
RTVSPost2010Prop43
 90
        3
102
RTVSPost2010PropOp43
 70
     0
102
RTVSPost2010Prop44ColorIndex
 90
        5
102
RTVSPost2010Prop44ColorRGB
 90
      255
102
RTVSPost2010PropOp44
 70
     0
102
RTVSPost2010Prop45
280
     0
102
RTVSPost2010PropOp45
 70
     1
102
RTVSPost2010Prop46
 90
       50
102
RTVSPost2010PropOp46
 70
     0
102
RTVSPost2010Prop47
 90
       50
102
RTVSPost2010PropOp47
 70
     0
102
RTVSPost2010Prop48
 90
       50
102
RTVSPost2010PropOp48
 70
     0
102
RTVSPost2010Prop49
280
     0
102
RTVSPost2010PropOp49
 70
     1
102
RTVSPost2010Prop50
 90
       50
102
RTVSPost2010PropOp50
 70
     0
102
RTVSPost2010Prop51ColorIndex
 90
      256
102
RTVSPost2010Prop51ColorRGB
 90
-16777216
102
RTVSPost2010PropOp51
 70
     0
102
RTVSPost2010Prop52
140
1.0
102
RTVSPost2010PropOp52
 70
     0
102
RTVSPost2010Prop53
 90
        2
102
RTVSPost2010PropOp53
 70
     0
102
RTVSPost2010Prop54
  1
strokes_ogs.tif
102
RTVSPost2010PropOp54
 70
     0
102
RTVSPost2010Prop55
280
     0
102
RTVSPost2010PropOp55
 70
     1
102
RTVSPost2010Prop56
140
1.0
102
RTVSPost2010PropOp56
 70
     0
102
RTVSPost2010Prop57
140
1.0
102
RTVSPost2010PropOp57
 70
     0
102
RTVSPropertyOp0
 70
     0
102
RTVSPropertyOp1
 70
     0
102
RTVSPropertyOp2
 70
     0
102
RTVSPropertyOp3
 70
     0
102
RTVSPropertyOp4
 70
     0
102
RTVSPropertyOp5
 70
     0
102
RTVSPropertyOp6
 70
     0
102
RTVSPropertyOp7
 70
     0
102
RTVSPropertyOp8
 70
     0
102
RTVSPropertyOp9
 70
     0
102
RTVSPropertyOp10
 70
     0
102
RTVSPropertyOp11
 70
     0
102
RTVSPropertyOp12
 70
     0
102
RTVSPropertyOp13
 70
     0
102
RTVSPropertyOp14
 70
     2
102
RTVSPropertyOp15
 70
     0
102
RTVSPropertyOp16
 70
     0
102
RTVSPropertyOp17
 70
     0
102
RTVSPropertyOp18
 70
     0
102
RTVSPropertyOp19
 70
     0
102
RTVSPropertyOp20
 70
     0
102
RTVSPropertyOp21
 70
     0
102
RTVSPropertyOp22
 70
     0
102
RTVSPropertyOp23
 70
     0
102
RTVSPropertyOp24
 70
     0
102
RTVSPropertyOp25
 70
     0
102
RTVSPropertyOp26
 70
     0
102
RTVSPropertyOp27
 70
     0
102
RTVSPropertyOp28
 70
     1
102
RTVSPropertyOp29
 70
     1
102
RTVSPropertyOp30
 70
     1
102
RTVSPropertyOp31
 70
     1
102
RTVSPropertyOp32
 70
     1
102
RTVSPropertyOp33
 70
     1
102
RTVSPropertyOp34
 70
     1
102
RTVSPropertyOp35
 70
     1
102
RTVSPropertyOp36
 70
     1
102
RTVSPropertyOp37
 70
     0
102
RTVSPropertyOp38
 70
     0
102
RTVSPropertyOp39
 70
     0
102
RTVSPropertyOp40
 70
     0
102
RTVSPropertyOp41
 70
     0
102
RTVSPropertyOp42
 70
     0
102
RTVSPropertyOp43
 70
     0
102
RTVSPropertyOp44
 70
     0
102
RTVSPropertyOp45
 70
     1
102
RTVSPropertyOp46
 70
     0
102
RTVSPropertyOp47
 70
     0
102
RTVSPropertyOp48
 70
     0
102
RTVSPropertyOp49
 70
     1
102
RTVSPropertyOp50
 70
     0
102
RTVSPropertyOp51
 70
     0
102
RTVSPropertyOp52
 70
     0
102
RTVSPropertyOp53
 70
     0
102
RTVSPropertyOp54
 70
     0
102
RTVSPropertyOp55
 70
     1
102
RTVSPropertyOp56
 70
     0
102
RTVSPropertyOp57
 70
     0
102
RTVSPropertyOp58
 70
     0
102
RTVSPropertyOp59
 70
     0
102
RTVSPropertyOp60
 70
     0
102
RTVSPropertyOp61
 70
     0
102
RTVSPropertyOp62
 70
     0
  0
XRECORD
  5
684C
102
{ACAD_REACTORS
330
684B
102
}
330
684B
100
AcDbXrecord
280
     1
102
RTVSPost2010Prop28
280
     0
102
RTVSPost2010PropOp28
 70
     1
102
RTVSPost2010Prop29
280
     1
102
RTVSPost2010PropOp29
 70
     1
102
RTVSPost2010Prop30
280
     1
102
RTVSPost2010PropOp30
 70
     1
102
RTVSPost2010Prop31
280
     0
102
RTVSPost2010PropOp31
 70
     1
102
RTVSPost2010Prop32
280
     0
102
RTVSPost2010PropOp32
 70
     1
102
RTVSPost2010Prop33
280
     0
102
RTVSPost2010PropOp33
 70
     1
102
RTVSPost2010Prop34
280
     0
102
RTVSPost2010PropOp34
 70
     1
102
RTVSPost2010Prop35
280
     0
102
RTVSPost2010PropOp35
 70
     1
102
RTVSPost2010Prop36
280
     0
102
RTVSPost2010PropOp36
 70
     1
102
RTVSPost2010Prop37
 90
       50
102
RTVSPost2010PropOp37
 70
     1
102
RTVSPost2010Prop38
140
0.0
102
RTVSPost2010PropOp38
 70
     1
102
RTVSPost2010Prop39
140
1.0
102
RTVSPost2010PropOp39
 70
     1
102
RTVSPost2010Prop40
 90
        0
102
RTVSPost2010PropOp40
 70
     1
102
RTVSPost2010Prop41ColorIndex
 90
       18
102
RTVSPost2010Prop41ColorRGB
 90
        0
102
RTVSPost2010PropOp41
 70
     1
102
RTVSPost2010Prop42
 90
       50
102
RTVSPost2010PropOp42
 70
     1
102
RTVSPost2010Prop43
 90
        3
102
RTVSPost2010PropOp43
 70
     1
102
RTVSPost2010Prop44ColorIndex
 90
        5
102
RTVSPost2010Prop44ColorRGB
 90
      255
102
RTVSPost2010PropOp44
 70
     1
102
RTVSPost2010Prop45
280
     0
102
RTVSPost2010PropOp45
 70
     1
102
RTVSPost2010Prop46
 90
       50
102
RTVSPost2010PropOp46
 70
     1
102
RTVSPost2010Prop47
 90
       50
102
RTVSPost2010PropOp47
 70
     1
102
RTVSPost2010Prop48
 90
       50
102
RTVSPost2010PropOp48
 70
     1
102
RTVSPost2010Prop49
280
     0
102
RTVSPost2010PropOp49
 70
     1
102
RTVSPost2010Prop50
 90
       50
102
RTVSPost2010PropOp50
 70
     1
102
RTVSPost2010Prop51ColorIndex
 90
      256
102
RTVSPost2010Prop51ColorRGB
 90
-16777216
102
RTVSPost2010PropOp51
 70
     0
102
RTVSPost2010Prop52
140
1.0
102
RTVSPost2010PropOp52
 70
     0
102
RTVSPost2010Prop53
 90
        2
102
RTVSPost2010PropOp53
 70
     1
102
RTVSPost2010Prop54
  1
strokes_ogs.tif
102
RTVSPost2010PropOp54
 70
     1
102
RTVSPost2010Prop55
280
     0
102
RTVSPost2010PropOp55
 70
     1
102
RTVSPost2010Prop56
140
1.0
102
RTVSPost2010PropOp56
 70
     1
102
RTVSPost2010Prop57
140
1.0
102
RTVSPost2010PropOp57
 70
     1
102
RTVSPropertyOp0
 70
     1
102
RTVSPropertyOp1
 70
     1
102
RTVSPropertyOp2
 70
     1
102
RTVSPropertyOp3
 70
     1
102
RTVSPropertyOp4
 70
     1
102
RTVSPropertyOp5
 70
     1
102
RTVSPropertyOp6
 70
     1
102
RTVSPropertyOp7
 70
     1
102
RTVSPropertyOp8
 70
     1
102
RTVSPropertyOp9
 70
     1
102
RTVSPropertyOp10
 70
     1
102
RTVSPropertyOp11
 70
     1
102
RTVSPropertyOp12
 70
     1
102
RTVSPropertyOp13
 70
     1
102
RTVSPropertyOp14
 70
     1
102
RTVSPropertyOp15
 70
     1
102
RTVSPropertyOp16
 70
     1
102
RTVSPropertyOp17
 70
     1
102
RTVSPropertyOp18
 70
     1
102
RTVSPropertyOp19
 70
     1
102
RTVSPropertyOp20
 70
     1
102
RTVSPropertyOp21
 70
     1
102
RTVSPropertyOp22
 70
     1
102
RTVSPropertyOp23
 70
     1
102
RTVSPropertyOp24
 70
     1
102
RTVSPropertyOp25
 70
     1
102
RTVSPropertyOp26
 70
     1
102
RTVSPropertyOp27
 70
     1
102
RTVSPropertyOp28
 70
     1
102
RTVSPropertyOp29
 70
     1
102
RTVSPropertyOp30
 70
     1
102
RTVSPropertyOp31
 70
     1
102
RTVSPropertyOp32
 70
     1
102
RTVSPropertyOp33
 70
     1
102
RTVSPropertyOp34
 70
     1
102
RTVSPropertyOp35
 70
     1
102
RTVSPropertyOp36
 70
     1
102
RTVSPropertyOp37
 70
     1
102
RTVSPropertyOp38
 70
     1
102
RTVSPropertyOp39
 70
     1
102
RTVSPropertyOp40
 70
     1
102
RTVSPropertyOp41
 70
     1
102
RTVSPropertyOp42
 70
     1
102
RTVSPropertyOp43
 70
     1
102
RTVSPropertyOp44
 70
     1
102
RTVSPropertyOp45
 70
     1
102
RTVSPropertyOp46
 70
     1
102
RTVSPropertyOp47
 70
     1
102
RTVSPropertyOp48
 70
     1
102
RTVSPropertyOp49
 70
     1
102
RTVSPropertyOp50
 70
     1
102
RTVSPropertyOp51
 70
     0
102
RTVSPropertyOp52
 70
     0
102
RTVSPropertyOp53
 70
     1
102
RTVSPropertyOp54
 70
     1
102
RTVSPropertyOp55
 70
     1
102
RTVSPropertyOp56
 70
     1
102
RTVSPropertyOp57
 70
     1
102
RTVSPropertyOp58
 70
     1
102
RTVSPropertyOp59
 70
     1
102
RTVSPropertyOp60
 70
     1
102
RTVSPropertyOp61
 70
     1
102
RTVSPropertyOp62
 70
     1
  0
XRECORD
  5
685E
102
{ACAD_REACTORS
330
685D
102
}
330
685D
100
AcDbXrecord
280
     1
102
RTVSPost2010Prop28
280
     0
102
RTVSPost2010PropOp28
 70
     1
102
RTVSPost2010Prop29
280
     1
102
RTVSPost2010PropOp29
 70
     1
102
RTVSPost2010Prop30
280
     1
102
RTVSPost2010PropOp30
 70
     1
102
RTVSPost2010Prop31
280
     0
102
RTVSPost2010PropOp31
 70
     1
102
RTVSPost2010Prop32
280
     0
102
RTVSPost2010PropOp32
 70
     1
102
RTVSPost2010Prop33
280
     0
102
RTVSPost2010PropOp33
 70
     1
102
RTVSPost2010Prop34
280
     0
102
RTVSPost2010PropOp34
 70
     1
102
RTVSPost2010Prop35
280
     0
102
RTVSPost2010PropOp35
 70
     1
102
RTVSPost2010Prop36
280
     0
102
RTVSPost2010PropOp36
 70
     1
102
RTVSPost2010Prop37
 90
       50
102
RTVSPost2010PropOp37
 70
     0
102
RTVSPost2010Prop38
140
0.0
102
RTVSPost2010PropOp38
 70
     0
102
RTVSPost2010Prop39
140
1.0
102
RTVSPost2010PropOp39
 70
     0
102
RTVSPost2010Prop40
 90
        0
102
RTVSPost2010PropOp40
 70
     0
102
RTVSPost2010Prop41ColorIndex
 90
       18
102
RTVSPost2010Prop41ColorRGB
 90
        0
102
RTVSPost2010PropOp41
 70
     0
102
RTVSPost2010Prop42
 90
       50
102
RTVSPost2010PropOp42
 70
     0
102
RTVSPost2010Prop43
 90
        3
102
RTVSPost2010PropOp43
 70
     0
102
RTVSPost2010Prop44ColorIndex
 90
        5
102
RTVSPost2010Prop44ColorRGB
 90
      255
102
RTVSPost2010PropOp44
 70
     0
102
RTVSPost2010Prop45
280
     0
102
RTVSPost2010PropOp45
 70
     1
102
RTVSPost2010Prop46
 90
       50
102
RTVSPost2010PropOp46
 70
     0
102
RTVSPost2010Prop47
 90
       50
102
RTVSPost2010PropOp47
 70
     0
102
RTVSPost2010Prop48
 90
       50
102
RTVSPost2010PropOp48
 70
     0
102
RTVSPost2010Prop49
280
     0
102
RTVSPost2010PropOp49
 70
     1
102
RTVSPost2010Prop50
 90
       50
102
RTVSPost2010PropOp50
 70
     0
102
RTVSPost2010Prop51ColorIndex
 90
      256
102
RTVSPost2010Prop51ColorRGB
 90
-16777216
102
RTVSPost2010PropOp51
 70
     0
102
RTVSPost2010Prop52
140
1.0
102
RTVSPost2010PropOp52
 70
     0
102
RTVSPost2010Prop53
 90
        2
102
RTVSPost2010PropOp53
 70
     0
102
RTVSPost2010Prop54
  1
strokes_ogs.tif
102
RTVSPost2010PropOp54
 70
     0
102
RTVSPost2010Prop55
280
     0
102
RTVSPost2010PropOp55
 70
     1
102
RTVSPost2010Prop56
140
1.0
102
RTVSPost2010PropOp56
 70
     0
102
RTVSPost2010Prop57
140
1.0
102
RTVSPost2010PropOp57
 70
     0
102
RTVSPropertyOp0
 70
     0
102
RTVSPropertyOp1
 70
     0
102
RTVSPropertyOp2
 70
     0
102
RTVSPropertyOp3
 70
     0
102
RTVSPropertyOp4
 70
     0
102
RTVSPropertyOp5
 70
     0
102
RTVSPropertyOp6
 70
     0
102
RTVSPropertyOp7
 70
     0
102
RTVSPropertyOp8
 70
     0
102
RTVSPropertyOp9
 70
     0
102
RTVSPropertyOp10
 70
     0
102
RTVSPropertyOp11
 70
     0
102
RTVSPropertyOp12
 70
     0
102
RTVSPropertyOp13
 70
     0
102
RTVSPropertyOp14
 70
     2
102
RTVSPropertyOp15
 70
     0
102
RTVSPropertyOp16
 70
     0
102
RTVSPropertyOp17
 70
     0
102
RTVSPropertyOp18
 70
     0
102
RTVSPropertyOp19
 70
     0
102
RTVSPropertyOp20
 70
     0
102
RTVSPropertyOp21
 70
     0
102
RTVSPropertyOp22
 70
     0
102
RTVSPropertyOp23
 70
     0
102
RTVSPropertyOp24
 70
     0
102
RTVSPropertyOp25
 70
     0
102
RTVSPropertyOp26
 70
     0
102
RTVSPropertyOp27
 70
     0
102
RTVSPropertyOp28
 70
     1
102
RTVSPropertyOp29
 70
     1
102
RTVSPropertyOp30
 70
     1
102
RTVSPropertyOp31
 70
     1
102
RTVSPropertyOp32
 70
     1
102
RTVSPropertyOp33
 70
     1
102
RTVSPropertyOp34
 70
     1
102
RTVSPropertyOp35
 70
     1
102
RTVSPropertyOp36
 70
     1
102
RTVSPropertyOp37
 70
     0
102
RTVSPropertyOp38
 70
     0
102
RTVSPropertyOp39
 70
     0
102
RTVSPropertyOp40
 70
     0
102
RTVSPropertyOp41
 70
     0
102
RTVSPropertyOp42
 70
     0
102
RTVSPropertyOp43
 70
     0
102
RTVSPropertyOp44
 70
     0
102
RTVSPropertyOp45
 70
     1
102
RTVSPropertyOp46
 70
     0
102
RTVSPropertyOp47
 70
     0
102
RTVSPropertyOp48
 70
     0
102
RTVSPropertyOp49
 70
     1
102
RTVSPropertyOp50
 70
     0
102
RTVSPropertyOp51
 70
     0
102
RTVSPropertyOp52
 70
     0
102
RTVSPropertyOp53
 70
     0
102
RTVSPropertyOp54
 70
     0
102
RTVSPropertyOp55
 70
     1
102
RTVSPropertyOp56
 70
     0
102
RTVSPropertyOp57
 70
     0
102
RTVSPropertyOp58
 70
     0
102
RTVSPropertyOp59
 70
     0
102
RTVSPropertyOp60
 70
     0
102
RTVSPropertyOp61
 70
     0
102
RTVSPropertyOp62
 70
     0
  0
XRECORD
  5
6844
102
{ACAD_REACTORS
330
6843
102
}
330
6843
100
AcDbXrecord
280
     1
102
RTVSPost2010Prop28
280
     0
102
RTVSPost2010PropOp28
 70
     1
102
RTVSPost2010Prop29
280
     1
102
RTVSPost2010PropOp29
 70
     1
102
RTVSPost2010Prop30
280
     1
102
RTVSPost2010PropOp30
 70
     1
102
RTVSPost2010Prop31
280
     0
102
RTVSPost2010PropOp31
 70
     1
102
RTVSPost2010Prop32
280
     0
102
RTVSPost2010PropOp32
 70
     1
102
RTVSPost2010Prop33
280
     0
102
RTVSPost2010PropOp33
 70
     1
102
RTVSPost2010Prop34
280
     0
102
RTVSPost2010PropOp34
 70
     1
102
RTVSPost2010Prop35
280
     0
102
RTVSPost2010PropOp35
 70
     1
102
RTVSPost2010Prop36
280
     0
102
RTVSPost2010PropOp36
 70
     1
102
RTVSPost2010Prop37
 90
       50
102
RTVSPost2010PropOp37
 70
     1
102
RTVSPost2010Prop38
140
0.0
102
RTVSPost2010PropOp38
 70
     1
102
RTVSPost2010Prop39
140
1.0
102
RTVSPost2010PropOp39
 70
     1
102
RTVSPost2010Prop40
 90
        0
102
RTVSPost2010PropOp40
 70
     1
102
RTVSPost2010Prop41ColorIndex
 90
       18
102
RTVSPost2010Prop41ColorRGB
 90
        0
102
RTVSPost2010PropOp41
 70
     1
102
RTVSPost2010Prop42
 90
       50
102
RTVSPost2010PropOp42
 70
     1
102
RTVSPost2010Prop43
 90
        3
102
RTVSPost2010PropOp43
 70
     1
102
RTVSPost2010Prop44ColorIndex
 90
        5
102
RTVSPost2010Prop44ColorRGB
 90
      255
102
RTVSPost2010PropOp44
 70
     1
102
RTVSPost2010Prop45
280
     0
102
RTVSPost2010PropOp45
 70
     1
102
RTVSPost2010Prop46
 90
       50
102
RTVSPost2010PropOp46
 70
     1
102
RTVSPost2010Prop47
 90
       50
102
RTVSPost2010PropOp47
 70
     1
102
RTVSPost2010Prop48
 90
       50
102
RTVSPost2010PropOp48
 70
     1
102
RTVSPost2010Prop49
280
     0
102
RTVSPost2010PropOp49
 70
     1
102
RTVSPost2010Prop50
 90
       50
102
RTVSPost2010PropOp50
 70
     1
102
RTVSPost2010Prop51ColorIndex
 90
      256
102
RTVSPost2010Prop51ColorRGB
 90
-16777216
102
RTVSPost2010PropOp51
 70
     0
102
RTVSPost2010Prop52
140
1.0
102
RTVSPost2010PropOp52
 70
     0
102
RTVSPost2010Prop53
 90
        2
102
RTVSPost2010PropOp53
 70
     1
102
RTVSPost2010Prop54
  1
strokes_ogs.tif
102
RTVSPost2010PropOp54
 70
     1
102
RTVSPost2010Prop55
280
     0
102
RTVSPost2010PropOp55
 70
     1
102
RTVSPost2010Prop56
140
1.0
102
RTVSPost2010PropOp56
 70
     1
102
RTVSPost2010Prop57
140
1.0
102
RTVSPost2010PropOp57
 70
     1
102
RTVSPropertyOp0
 70
     1
102
RTVSPropertyOp1
 70
     1
102
RTVSPropertyOp2
 70
     1
102
RTVSPropertyOp3
 70
     1
102
RTVSPropertyOp4
 70
     1
102
RTVSPropertyOp5
 70
     1
102
RTVSPropertyOp6
 70
     1
102
RTVSPropertyOp7
 70
     1
102
RTVSPropertyOp8
 70
     1
102
RTVSPropertyOp9
 70
     1
102
RTVSPropertyOp10
 70
     1
102
RTVSPropertyOp11
 70
     1
102
RTVSPropertyOp12
 70
     1
102
RTVSPropertyOp13
 70
     1
102
RTVSPropertyOp14
 70
     1
102
RTVSPropertyOp15
 70
     1
102
RTVSPropertyOp16
 70
     1
102
RTVSPropertyOp17
 70
     1
102
RTVSPropertyOp18
 70
     1
102
RTVSPropertyOp19
 70
     1
102
RTVSPropertyOp20
 70
     1
102
RTVSPropertyOp21
 70
     1
102
RTVSPropertyOp22
 70
     1
102
RTVSPropertyOp23
 70
     1
102
RTVSPropertyOp24
 70
     1
102
RTVSPropertyOp25
 70
     1
102
RTVSPropertyOp26
 70
     1
102
RTVSPropertyOp27
 70
     1
102
RTVSPropertyOp28
 70
     1
102
RTVSPropertyOp29
 70
     1
102
RTVSPropertyOp30
 70
     1
102
RTVSPropertyOp31
 70
     1
102
RTVSPropertyOp32
 70
     1
102
RTVSPropertyOp33
 70
     1
102
RTVSPropertyOp34
 70
     1
102
RTVSPropertyOp35
 70
     1
102
RTVSPropertyOp36
 70
     1
102
RTVSPropertyOp37
 70
     1
102
RTVSPropertyOp38
 70
     1
102
RTVSPropertyOp39
 70
     1
102
RTVSPropertyOp40
 70
     1
102
RTVSPropertyOp41
 70
     1
102
RTVSPropertyOp42
 70
     1
102
RTVSPropertyOp43
 70
     1
102
RTVSPropertyOp44
 70
     1
102
RTVSPropertyOp45
 70
     1
102
RTVSPropertyOp46
 70
     1
102
RTVSPropertyOp47
 70
     1
102
RTVSPropertyOp48
 70
     1
102
RTVSPropertyOp49
 70
     1
102
RTVSPropertyOp50
 70
     1
102
RTVSPropertyOp51
 70
     0
102
RTVSPropertyOp52
 70
     0
102
RTVSPropertyOp53
 70
     1
102
RTVSPropertyOp54
 70
     1
102
RTVSPropertyOp55
 70
     1
102
RTVSPropertyOp56
 70
     1
102
RTVSPropertyOp57
 70
     1
102
RTVSPropertyOp58
 70
     1
102
RTVSPropertyOp59
 70
     1
102
RTVSPropertyOp60
 70
     1
102
RTVSPropertyOp61
 70
     1
102
RTVSPropertyOp62
 70
     1
  0
XRECORD
  5
685A
102
{ACAD_REACTORS
330
6859
102
}
330
6859
100
AcDbXrecord
280
     1
102
RTVSPost2010Prop28
280
     0
102
RTVSPost2010PropOp28
 70
     1
102
RTVSPost2010Prop29
280
     1
102
RTVSPost2010PropOp29
 70
     1
102
RTVSPost2010Prop30
280
     1
102
RTVSPost2010PropOp30
 70
     1
102
RTVSPost2010Prop31
280
     0
102
RTVSPost2010PropOp31
 70
     1
102
RTVSPost2010Prop32
280
     0
102
RTVSPost2010PropOp32
 70
     1
102
RTVSPost2010Prop33
280
     0
102
RTVSPost2010PropOp33
 70
     1
102
RTVSPost2010Prop34
280
     0
102
RTVSPost2010PropOp34
 70
     1
102
RTVSPost2010Prop35
280
     0
102
RTVSPost2010PropOp35
 70
     1
102
RTVSPost2010Prop36
280
     0
102
RTVSPost2010PropOp36
 70
     1
102
RTVSPost2010Prop37
 90
       50
102
RTVSPost2010PropOp37
 70
     1
102
RTVSPost2010Prop38
140
0.0
102
RTVSPost2010PropOp38
 70
     1
102
RTVSPost2010Prop39
140
1.0
102
RTVSPost2010PropOp39
 70
     1
102
RTVSPost2010Prop40
 90
        0
102
RTVSPost2010PropOp40
 70
     1
102
RTVSPost2010Prop41ColorIndex
 90
       18
102
RTVSPost2010Prop41ColorRGB
 90
        0
102
RTVSPost2010PropOp41
 70
     1
102
RTVSPost2010Prop42
 90
       50
102
RTVSPost2010PropOp42
 70
     1
102
RTVSPost2010Prop43
 90
        3
102
RTVSPost2010PropOp43
 70
     1
102
RTVSPost2010Prop44ColorIndex
 90
        5
102
RTVSPost2010Prop44ColorRGB
 90
      255
102
RTVSPost2010PropOp44
 70
     1
102
RTVSPost2010Prop45
280
     0
102
RTVSPost2010PropOp45
 70
     1
102
RTVSPost2010Prop46
 90
       50
102
RTVSPost2010PropOp46
 70
     1
102
RTVSPost2010Prop47
 90
       50
102
RTVSPost2010PropOp47
 70
     1
102
RTVSPost2010Prop48
 90
       50
102
RTVSPost2010PropOp48
 70
     1
102
RTVSPost2010Prop49
280
     0
102
RTVSPost2010PropOp49
 70
     1
102
RTVSPost2010Prop50
 90
       50
102
RTVSPost2010PropOp50
 70
     1
102
RTVSPost2010Prop51ColorIndex
 90
      256
102
RTVSPost2010Prop51ColorRGB
 90
-16777216
102
RTVSPost2010PropOp51
 70
     0
102
RTVSPost2010Prop52
140
1.0
102
RTVSPost2010PropOp52
 70
     0
102
RTVSPost2010Prop53
 90
        2
102
RTVSPost2010PropOp53
 70
     1
102
RTVSPost2010Prop54
  1
strokes_ogs.tif
102
RTVSPost2010PropOp54
 70
     1
102
RTVSPost2010Prop55
280
     0
102
RTVSPost2010PropOp55
 70
     1
102
RTVSPost2010Prop56
140
1.0
102
RTVSPost2010PropOp56
 70
     1
102
RTVSPost2010Prop57
140
1.0
102
RTVSPost2010PropOp57
 70
     1
102
RTVSPropertyOp0
 70
     1
102
RTVSPropertyOp1
 70
     1
102
RTVSPropertyOp2
 70
     1
102
RTVSPropertyOp3
 70
     1
102
RTVSPropertyOp4
 70
     1
102
RTVSPropertyOp5
 70
     1
102
RTVSPropertyOp6
 70
     1
102
RTVSPropertyOp7
 70
     1
102
RTVSPropertyOp8
 70
     1
102
RTVSPropertyOp9
 70
     1
102
RTVSPropertyOp10
 70
     1
102
RTVSPropertyOp11
 70
     1
102
RTVSPropertyOp12
 70
     1
102
RTVSPropertyOp13
 70
     1
102
RTVSPropertyOp14
 70
     1
102
RTVSPropertyOp15
 70
     1
102
RTVSPropertyOp16
 70
     1
102
RTVSPropertyOp17
 70
     1
102
RTVSPropertyOp18
 70
     1
102
RTVSPropertyOp19
 70
     1
102
RTVSPropertyOp20
 70
     1
102
RTVSPropertyOp21
 70
     1
102
RTVSPropertyOp22
 70
     1
102
RTVSPropertyOp23
 70
     1
102
RTVSPropertyOp24
 70
     1
102
RTVSPropertyOp25
 70
     1
102
RTVSPropertyOp26
 70
     1
102
RTVSPropertyOp27
 70
     1
102
RTVSPropertyOp28
 70
     1
102
RTVSPropertyOp29
 70
     1
102
RTVSPropertyOp30
 70
     1
102
RTVSPropertyOp31
 70
     1
102
RTVSPropertyOp32
 70
     1
102
RTVSPropertyOp33
 70
     1
102
RTVSPropertyOp34
 70
     1
102
RTVSPropertyOp35
 70
     1
102
RTVSPropertyOp36
 70
     1
102
RTVSPropertyOp37
 70
     1
102
RTVSPropertyOp38
 70
     1
102
RTVSPropertyOp39
 70
     1
102
RTVSPropertyOp40
 70
     1
102
RTVSPropertyOp41
 70
     1
102
RTVSPropertyOp42
 70
     1
102
RTVSPropertyOp43
 70
     1
102
RTVSPropertyOp44
 70
     1
102
RTVSPropertyOp45
 70
     1
102
RTVSPropertyOp46
 70
     1
102
RTVSPropertyOp47
 70
     1
102
RTVSPropertyOp48
 70
     1
102
RTVSPropertyOp49
 70
     1
102
RTVSPropertyOp50
 70
     1
102
RTVSPropertyOp51
 70
     0
102
RTVSPropertyOp52
 70
     0
102
RTVSPropertyOp53
 70
     1
102
RTVSPropertyOp54
 70
     1
102
RTVSPropertyOp55
 70
     1
102
RTVSPropertyOp56
 70
     1
102
RTVSPropertyOp57
 70
     1
102
RTVSPropertyOp58
 70
     1
102
RTVSPropertyOp59
 70
     1
102
RTVSPropertyOp60
 70
     1
102
RTVSPropertyOp61
 70
     1
102
RTVSPropertyOp62
 70
     1
  0
XRECORD
  5
6858
102
{ACAD_REACTORS
330
6857
102
}
330
6857
100
AcDbXrecord
280
     1
102
RTVSPost2010Prop28
280
     0
102
RTVSPost2010PropOp28
 70
     1
102
RTVSPost2010Prop29
280
     1
102
RTVSPost2010PropOp29
 70
     1
102
RTVSPost2010Prop30
280
     1
102
RTVSPost2010PropOp30
 70
     1
102
RTVSPost2010Prop31
280
     0
102
RTVSPost2010PropOp31
 70
     1
102
RTVSPost2010Prop32
280
     0
102
RTVSPost2010PropOp32
 70
     1
102
RTVSPost2010Prop33
280
     0
102
RTVSPost2010PropOp33
 70
     1
102
RTVSPost2010Prop34
280
     0
102
RTVSPost2010PropOp34
 70
     1
102
RTVSPost2010Prop35
280
     0
102
RTVSPost2010PropOp35
 70
     1
102
RTVSPost2010Prop36
280
     0
102
RTVSPost2010PropOp36
 70
     1
102
RTVSPost2010Prop37
 90
       50
102
RTVSPost2010PropOp37
 70
     1
102
RTVSPost2010Prop38
140
0.0
102
RTVSPost2010PropOp38
 70
     1
102
RTVSPost2010Prop39
140
1.0
102
RTVSPost2010PropOp39
 70
     1
102
RTVSPost2010Prop40
 90
        0
102
RTVSPost2010PropOp40
 70
     1
102
RTVSPost2010Prop41ColorIndex
 90
       18
102
RTVSPost2010Prop41ColorRGB
 90
        0
102
RTVSPost2010PropOp41
 70
     1
102
RTVSPost2010Prop42
 90
       50
102
RTVSPost2010PropOp42
 70
     1
102
RTVSPost2010Prop43
 90
        3
102
RTVSPost2010PropOp43
 70
     1
102
RTVSPost2010Prop44ColorIndex
 90
        5
102
RTVSPost2010Prop44ColorRGB
 90
      255
102
RTVSPost2010PropOp44
 70
     1
102
RTVSPost2010Prop45
280
     0
102
RTVSPost2010PropOp45
 70
     1
102
RTVSPost2010Prop46
 90
       50
102
RTVSPost2010PropOp46
 70
     1
102
RTVSPost2010Prop47
 90
       50
102
RTVSPost2010PropOp47
 70
     1
102
RTVSPost2010Prop48
 90
       50
102
RTVSPost2010PropOp48
 70
     1
102
RTVSPost2010Prop49
280
     0
102
RTVSPost2010PropOp49
 70
     1
102
RTVSPost2010Prop50
 90
       50
102
RTVSPost2010PropOp50
 70
     1
102
RTVSPost2010Prop51ColorIndex
 90
      256
102
RTVSPost2010Prop51ColorRGB
 90
-16777216
102
RTVSPost2010PropOp51
 70
     0
102
RTVSPost2010Prop52
140
1.0
102
RTVSPost2010PropOp52
 70
     0
102
RTVSPost2010Prop53
 90
        2
102
RTVSPost2010PropOp53
 70
     1
102
RTVSPost2010Prop54
  1
strokes_ogs.tif
102
RTVSPost2010PropOp54
 70
     1
102
RTVSPost2010Prop55
280
     0
102
RTVSPost2010PropOp55
 70
     1
102
RTVSPost2010Prop56
140
1.0
102
RTVSPost2010PropOp56
 70
     1
102
RTVSPost2010Prop57
140
1.0
102
RTVSPost2010PropOp57
 70
     1
102
RTVSPropertyOp0
 70
     1
102
RTVSPropertyOp1
 70
     1
102
RTVSPropertyOp2
 70
     1
102
RTVSPropertyOp3
 70
     1
102
RTVSPropertyOp4
 70
     1
102
RTVSPropertyOp5
 70
     1
102
RTVSPropertyOp6
 70
     1
102
RTVSPropertyOp7
 70
     1
102
RTVSPropertyOp8
 70
     1
102
RTVSPropertyOp9
 70
     1
102
RTVSPropertyOp10
 70
     1
102
RTVSPropertyOp11
 70
     1
102
RTVSPropertyOp12
 70
     1
102
RTVSPropertyOp13
 70
     1
102
RTVSPropertyOp14
 70
     1
102
RTVSPropertyOp15
 70
     1
102
RTVSPropertyOp16
 70
     1
102
RTVSPropertyOp17
 70
     1
102
RTVSPropertyOp18
 70
     1
102
RTVSPropertyOp19
 70
     1
102
RTVSPropertyOp20
 70
     1
102
RTVSPropertyOp21
 70
     1
102
RTVSPropertyOp22
 70
     1
102
RTVSPropertyOp23
 70
     1
102
RTVSPropertyOp24
 70
     1
102
RTVSPropertyOp25
 70
     1
102
RTVSPropertyOp26
 70
     1
102
RTVSPropertyOp27
 70
     1
102
RTVSPropertyOp28
 70
     1
102
RTVSPropertyOp29
 70
     1
102
RTVSPropertyOp30
 70
     1
102
RTVSPropertyOp31
 70
     1
102
RTVSPropertyOp32
 70
     1
102
RTVSPropertyOp33
 70
     1
102
RTVSPropertyOp34
 70
     1
102
RTVSPropertyOp35
 70
     1
102
RTVSPropertyOp36
 70
     1
102
RTVSPropertyOp37
 70
     1
102
RTVSPropertyOp38
 70
     1
102
RTVSPropertyOp39
 70
     1
102
RTVSPropertyOp40
 70
     1
102
RTVSPropertyOp41
 70
     1
102
RTVSPropertyOp42
 70
     1
102
RTVSPropertyOp43
 70
     1
102
RTVSPropertyOp44
 70
     1
102
RTVSPropertyOp45
 70
     1
102
RTVSPropertyOp46
 70
     1
102
RTVSPropertyOp47
 70
     1
102
RTVSPropertyOp48
 70
     1
102
RTVSPropertyOp49
 70
     1
102
RTVSPropertyOp50
 70
     1
102
RTVSPropertyOp51
 70
     0
102
RTVSPropertyOp52
 70
     0
102
RTVSPropertyOp53
 70
     1
102
RTVSPropertyOp54
 70
     1
102
RTVSPropertyOp55
 70
     1
102
RTVSPropertyOp56
 70
     1
102
RTVSPropertyOp57
 70
     1
102
RTVSPropertyOp58
 70
     1
102
RTVSPropertyOp59
 70
     1
102
RTVSPropertyOp60
 70
     1
102
RTVSPropertyOp61
 70
     1
102
RTVSPropertyOp62
 70
     1
  0
XRECORD
  5
6852
102
{ACAD_REACTORS
330
6851
102
}
330
6851
100
AcDbXrecord
280
     1
102
RTVSPost2010Prop28
280
     0
102
RTVSPost2010PropOp28
 70
     1
102
RTVSPost2010Prop29
280
     1
102
RTVSPost2010PropOp29
 70
     1
102
RTVSPost2010Prop30
280
     1
102
RTVSPost2010PropOp30
 70
     1
102
RTVSPost2010Prop31
280
     0
102
RTVSPost2010PropOp31
 70
     1
102
RTVSPost2010Prop32
280
     0
102
RTVSPost2010PropOp32
 70
     1
102
RTVSPost2010Prop33
280
     0
102
RTVSPost2010PropOp33
 70
     1
102
RTVSPost2010Prop34
280
     0
102
RTVSPost2010PropOp34
 70
     1
102
RTVSPost2010Prop35
280
     0
102
RTVSPost2010PropOp35
 70
     1
102
RTVSPost2010Prop36
280
     0
102
RTVSPost2010PropOp36
 70
     1
102
RTVSPost2010Prop37
 90
       50
102
RTVSPost2010PropOp37
 70
     1
102
RTVSPost2010Prop38
140
0.0
102
RTVSPost2010PropOp38
 70
     1
102
RTVSPost2010Prop39
140
1.0
102
RTVSPost2010PropOp39
 70
     1
102
RTVSPost2010Prop40
 90
        0
102
RTVSPost2010PropOp40
 70
     1
102
RTVSPost2010Prop41ColorIndex
 90
       18
102
RTVSPost2010Prop41ColorRGB
 90
        0
102
RTVSPost2010PropOp41
 70
     1
102
RTVSPost2010Prop42
 90
       50
102
RTVSPost2010PropOp42
 70
     1
102
RTVSPost2010Prop43
 90
        3
102
RTVSPost2010PropOp43
 70
     1
102
RTVSPost2010Prop44ColorIndex
 90
        5
102
RTVSPost2010Prop44ColorRGB
 90
      255
102
RTVSPost2010PropOp44
 70
     1
102
RTVSPost2010Prop45
280
     0
102
RTVSPost2010PropOp45
 70
     1
102
RTVSPost2010Prop46
 90
       50
102
RTVSPost2010PropOp46
 70
     1
102
RTVSPost2010Prop47
 90
       50
102
RTVSPost2010PropOp47
 70
     1
102
RTVSPost2010Prop48
 90
       50
102
RTVSPost2010PropOp48
 70
     1
102
RTVSPost2010Prop49
280
     0
102
RTVSPost2010PropOp49
 70
     1
102
RTVSPost2010Prop50
 90
       50
102
RTVSPost2010PropOp50
 70
     1
102
RTVSPost2010Prop51ColorIndex
 90
      256
102
RTVSPost2010Prop51ColorRGB
 90
-16777216
102
RTVSPost2010PropOp51
 70
     0
102
RTVSPost2010Prop52
140
1.0
102
RTVSPost2010PropOp52
 70
     0
102
RTVSPost2010Prop53
 90
        2
102
RTVSPost2010PropOp53
 70
     1
102
RTVSPost2010Prop54
  1
strokes_ogs.tif
102
RTVSPost2010PropOp54
 70
     1
102
RTVSPost2010Prop55
280
     0
102
RTVSPost2010PropOp55
 70
     1
102
RTVSPost2010Prop56
140
1.0
102
RTVSPost2010PropOp56
 70
     1
102
RTVSPost2010Prop57
140
1.0
102
RTVSPost2010PropOp57
 70
     1
102
RTVSPropertyOp0
 70
     1
102
RTVSPropertyOp1
 70
     1
102
RTVSPropertyOp2
 70
     1
102
RTVSPropertyOp3
 70
     1
102
RTVSPropertyOp4
 70
     1
102
RTVSPropertyOp5
 70
     1
102
RTVSPropertyOp6
 70
     1
102
RTVSPropertyOp7
 70
     1
102
RTVSPropertyOp8
 70
     1
102
RTVSPropertyOp9
 70
     1
102
RTVSPropertyOp10
 70
     1
102
RTVSPropertyOp11
 70
     1
102
RTVSPropertyOp12
 70
     1
102
RTVSPropertyOp13
 70
     1
102
RTVSPropertyOp14
 70
     1
102
RTVSPropertyOp15
 70
     1
102
RTVSPropertyOp16
 70
     1
102
RTVSPropertyOp17
 70
     1
102
RTVSPropertyOp18
 70
     1
102
RTVSPropertyOp19
 70
     1
102
RTVSPropertyOp20
 70
     1
102
RTVSPropertyOp21
 70
     1
102
RTVSPropertyOp22
 70
     1
102
RTVSPropertyOp23
 70
     1
102
RTVSPropertyOp24
 70
     1
102
RTVSPropertyOp25
 70
     1
102
RTVSPropertyOp26
 70
     1
102
RTVSPropertyOp27
 70
     1
102
RTVSPropertyOp28
 70
     1
102
RTVSPropertyOp29
 70
     1
102
RTVSPropertyOp30
 70
     1
102
RTVSPropertyOp31
 70
     1
102
RTVSPropertyOp32
 70
     1
102
RTVSPropertyOp33
 70
     1
102
RTVSPropertyOp34
 70
     1
102
RTVSPropertyOp35
 70
     1
102
RTVSPropertyOp36
 70
     1
102
RTVSPropertyOp37
 70
     1
102
RTVSPropertyOp38
 70
     1
102
RTVSPropertyOp39
 70
     1
102
RTVSPropertyOp40
 70
     1
102
RTVSPropertyOp41
 70
     1
102
RTVSPropertyOp42
 70
     1
102
RTVSPropertyOp43
 70
     1
102
RTVSPropertyOp44
 70
     1
102
RTVSPropertyOp45
 70
     1
102
RTVSPropertyOp46
 70
     1
102
RTVSPropertyOp47
 70
     1
102
RTVSPropertyOp48
 70
     1
102
RTVSPropertyOp49
 70
     1
102
RTVSPropertyOp50
 70
     1
102
RTVSPropertyOp51
 70
     0
102
RTVSPropertyOp52
 70
     0
102
RTVSPropertyOp53
 70
     1
102
RTVSPropertyOp54
 70
     1
102
RTVSPropertyOp55
 70
     1
102
RTVSPropertyOp56
 70
     1
102
RTVSPropertyOp57
 70
     1
102
RTVSPropertyOp58
 70
     1
102
RTVSPropertyOp59
 70
     1
102
RTVSPropertyOp60
 70
     1
102
RTVSPropertyOp61
 70
     1
102
RTVSPropertyOp62
 70
     1
  0
XRECORD
  5
6854
102
{ACAD_REACTORS
330
6853
102
}
330
6853
100
AcDbXrecord
280
     1
102
RTVSPost2010Prop28
280
     0
102
RTVSPost2010PropOp28
 70
     1
102
RTVSPost2010Prop29
280
     1
102
RTVSPost2010PropOp29
 70
     1
102
RTVSPost2010Prop30
280
     1
102
RTVSPost2010PropOp30
 70
     1
102
RTVSPost2010Prop31
280
     0
102
RTVSPost2010PropOp31
 70
     1
102
RTVSPost2010Prop32
280
     0
102
RTVSPost2010PropOp32
 70
     1
102
RTVSPost2010Prop33
280
     0
102
RTVSPost2010PropOp33
 70
     1
102
RTVSPost2010Prop34
280
     0
102
RTVSPost2010PropOp34
 70
     1
102
RTVSPost2010Prop35
280
     0
102
RTVSPost2010PropOp35
 70
     1
102
RTVSPost2010Prop36
280
     0
102
RTVSPost2010PropOp36
 70
     1
102
RTVSPost2010Prop37
 90
       50
102
RTVSPost2010PropOp37
 70
     1
102
RTVSPost2010Prop38
140
0.0
102
RTVSPost2010PropOp38
 70
     1
102
RTVSPost2010Prop39
140
1.0
102
RTVSPost2010PropOp39
 70
     1
102
RTVSPost2010Prop40
 90
        0
102
RTVSPost2010PropOp40
 70
     1
102
RTVSPost2010Prop41ColorIndex
 90
       18
102
RTVSPost2010Prop41ColorRGB
 90
        0
102
RTVSPost2010PropOp41
 70
     1
102
RTVSPost2010Prop42
 90
       50
102
RTVSPost2010PropOp42
 70
     1
102
RTVSPost2010Prop43
 90
        3
102
RTVSPost2010PropOp43
 70
     1
102
RTVSPost2010Prop44ColorIndex
 90
        5
102
RTVSPost2010Prop44ColorRGB
 90
      255
102
RTVSPost2010PropOp44
 70
     1
102
RTVSPost2010Prop45
280
     0
102
RTVSPost2010PropOp45
 70
     1
102
RTVSPost2010Prop46
 90
       50
102
RTVSPost2010PropOp46
 70
     1
102
RTVSPost2010Prop47
 90
       50
102
RTVSPost2010PropOp47
 70
     1
102
RTVSPost2010Prop48
 90
       50
102
RTVSPost2010PropOp48
 70
     1
102
RTVSPost2010Prop49
280
     0
102
RTVSPost2010PropOp49
 70
     1
102
RTVSPost2010Prop50
 90
       50
102
RTVSPost2010PropOp50
 70
     1
102
RTVSPost2010Prop51ColorIndex
 90
      256
102
RTVSPost2010Prop51ColorRGB
 90
-16777216
102
RTVSPost2010PropOp51
 70
     0
102
RTVSPost2010Prop52
140
1.0
102
RTVSPost2010PropOp52
 70
     0
102
RTVSPost2010Prop53
 90
        2
102
RTVSPost2010PropOp53
 70
     1
102
RTVSPost2010Prop54
  1
strokes_ogs.tif
102
RTVSPost2010PropOp54
 70
     1
102
RTVSPost2010Prop55
280
     0
102
RTVSPost2010PropOp55
 70
     1
102
RTVSPost2010Prop56
140
1.0
102
RTVSPost2010PropOp56
 70
     1
102
RTVSPost2010Prop57
140
1.0
102
RTVSPost2010PropOp57
 70
     1
102
RTVSPropertyOp0
 70
     1
102
RTVSPropertyOp1
 70
     1
102
RTVSPropertyOp2
 70
     1
102
RTVSPropertyOp3
 70
     1
102
RTVSPropertyOp4
 70
     1
102
RTVSPropertyOp5
 70
     1
102
RTVSPropertyOp6
 70
     1
102
RTVSPropertyOp7
 70
     1
102
RTVSPropertyOp8
 70
     1
102
RTVSPropertyOp9
 70
     1
102
RTVSPropertyOp10
 70
     1
102
RTVSPropertyOp11
 70
     1
102
RTVSPropertyOp12
 70
     1
102
RTVSPropertyOp13
 70
     1
102
RTVSPropertyOp14
 70
     1
102
RTVSPropertyOp15
 70
     1
102
RTVSPropertyOp16
 70
     1
102
RTVSPropertyOp17
 70
     1
102
RTVSPropertyOp18
 70
     1
102
RTVSPropertyOp19
 70
     1
102
RTVSPropertyOp20
 70
     1
102
RTVSPropertyOp21
 70
     1
102
RTVSPropertyOp22
 70
     1
102
RTVSPropertyOp23
 70
     1
102
RTVSPropertyOp24
 70
     1
102
RTVSPropertyOp25
 70
     1
102
RTVSPropertyOp26
 70
     1
102
RTVSPropertyOp27
 70
     1
102
RTVSPropertyOp28
 70
     1
102
RTVSPropertyOp29
 70
     1
102
RTVSPropertyOp30
 70
     1
102
RTVSPropertyOp31
 70
     1
102
RTVSPropertyOp32
 70
     1
102
RTVSPropertyOp33
 70
     1
102
RTVSPropertyOp34
 70
     1
102
RTVSPropertyOp35
 70
     1
102
RTVSPropertyOp36
 70
     1
102
RTVSPropertyOp37
 70
     1
102
RTVSPropertyOp38
 70
     1
102
RTVSPropertyOp39
 70
     1
102
RTVSPropertyOp40
 70
     1
102
RTVSPropertyOp41
 70
     1
102
RTVSPropertyOp42
 70
     1
102
RTVSPropertyOp43
 70
     1
102
RTVSPropertyOp44
 70
     1
102
RTVSPropertyOp45
 70
     1
102
RTVSPropertyOp46
 70
     1
102
RTVSPropertyOp47
 70
     1
102
RTVSPropertyOp48
 70
     1
102
RTVSPropertyOp49
 70
     1
102
RTVSPropertyOp50
 70
     1
102
RTVSPropertyOp51
 70
     0
102
RTVSPropertyOp52
 70
     0
102
RTVSPropertyOp53
 70
     1
102
RTVSPropertyOp54
 70
     1
102
RTVSPropertyOp55
 70
     1
102
RTVSPropertyOp56
 70
     1
102
RTVSPropertyOp57
 70
     1
102
RTVSPropertyOp58
 70
     1
102
RTVSPropertyOp59
 70
     1
102
RTVSPropertyOp60
 70
     1
102
RTVSPropertyOp61
 70
     1
102
RTVSPropertyOp62
 70
     1
  0
XRECORD
  5
684A
102
{ACAD_REACTORS
330
6849
102
}
330
6849
100
AcDbXrecord
280
     1
102
RTVSPost2010Prop28
280
     0
102
RTVSPost2010PropOp28
 70
     1
102
RTVSPost2010Prop29
280
     1
102
RTVSPost2010PropOp29
 70
     1
102
RTVSPost2010Prop30
280
     1
102
RTVSPost2010PropOp30
 70
     1
102
RTVSPost2010Prop31
280
     0
102
RTVSPost2010PropOp31
 70
     1
102
RTVSPost2010Prop32
280
     0
102
RTVSPost2010PropOp32
 70
     1
102
RTVSPost2010Prop33
280
     0
102
RTVSPost2010PropOp33
 70
     1
102
RTVSPost2010Prop34
280
     0
102
RTVSPost2010PropOp34
 70
     1
102
RTVSPost2010Prop35
280
     0
102
RTVSPost2010PropOp35
 70
     1
102
RTVSPost2010Prop36
280
     0
102
RTVSPost2010PropOp36
 70
     1
102
RTVSPost2010Prop37
 90
       50
102
RTVSPost2010PropOp37
 70
     1
102
RTVSPost2010Prop38
140
0.0
102
RTVSPost2010PropOp38
 70
     1
102
RTVSPost2010Prop39
140
1.0
102
RTVSPost2010PropOp39
 70
     1
102
RTVSPost2010Prop40
 90
        0
102
RTVSPost2010PropOp40
 70
     1
102
RTVSPost2010Prop41ColorIndex
 90
       18
102
RTVSPost2010Prop41ColorRGB
 90
        0
102
RTVSPost2010PropOp41
 70
     1
102
RTVSPost2010Prop42
 90
       50
102
RTVSPost2010PropOp42
 70
     1
102
RTVSPost2010Prop43
 90
        3
102
RTVSPost2010PropOp43
 70
     1
102
RTVSPost2010Prop44ColorIndex
 90
        5
102
RTVSPost2010Prop44ColorRGB
 90
      255
102
RTVSPost2010PropOp44
 70
     1
102
RTVSPost2010Prop45
280
     0
102
RTVSPost2010PropOp45
 70
     1
102
RTVSPost2010Prop46
 90
       50
102
RTVSPost2010PropOp46
 70
     1
102
RTVSPost2010Prop47
 90
       50
102
RTVSPost2010PropOp47
 70
     1
102
RTVSPost2010Prop48
 90
       50
102
RTVSPost2010PropOp48
 70
     1
102
RTVSPost2010Prop49
280
     0
102
RTVSPost2010PropOp49
 70
     1
102
RTVSPost2010Prop50
 90
       50
102
RTVSPost2010PropOp50
 70
     1
102
RTVSPost2010Prop51ColorIndex
 90
      256
102
RTVSPost2010Prop51ColorRGB
 90
-16777216
102
RTVSPost2010PropOp51
 70
     0
102
RTVSPost2010Prop52
140
1.0
102
RTVSPost2010PropOp52
 70
     0
102
RTVSPost2010Prop53
 90
        2
102
RTVSPost2010PropOp53
 70
     1
102
RTVSPost2010Prop54
  1
strokes_ogs.tif
102
RTVSPost2010PropOp54
 70
     1
102
RTVSPost2010Prop55
280
     0
102
RTVSPost2010PropOp55
 70
     1
102
RTVSPost2010Prop56
140
1.0
102
RTVSPost2010PropOp56
 70
     1
102
RTVSPost2010Prop57
140
1.0
102
RTVSPost2010PropOp57
 70
     1
102
RTVSPropertyOp0
 70
     1
102
RTVSPropertyOp1
 70
     1
102
RTVSPropertyOp2
 70
     1
102
RTVSPropertyOp3
 70
     1
102
RTVSPropertyOp4
 70
     1
102
RTVSPropertyOp5
 70
     1
102
RTVSPropertyOp6
 70
     1
102
RTVSPropertyOp7
 70
     1
102
RTVSPropertyOp8
 70
     1
102
RTVSPropertyOp9
 70
     1
102
RTVSPropertyOp10
 70
     1
102
RTVSPropertyOp11
 70
     1
102
RTVSPropertyOp12
 70
     1
102
RTVSPropertyOp13
 70
     1
102
RTVSPropertyOp14
 70
     1
102
RTVSPropertyOp15
 70
     1
102
RTVSPropertyOp16
 70
     1
102
RTVSPropertyOp17
 70
     1
102
RTVSPropertyOp18
 70
     1
102
RTVSPropertyOp19
 70
     1
102
RTVSPropertyOp20
 70
     1
102
RTVSPropertyOp21
 70
     1
102
RTVSPropertyOp22
 70
     1
102
RTVSPropertyOp23
 70
     1
102
RTVSPropertyOp24
 70
     1
102
RTVSPropertyOp25
 70
     1
102
RTVSPropertyOp26
 70
     1
102
RTVSPropertyOp27
 70
     1
102
RTVSPropertyOp28
 70
     1
102
RTVSPropertyOp29
 70
     1
102
RTVSPropertyOp30
 70
     1
102
RTVSPropertyOp31
 70
     1
102
RTVSPropertyOp32
 70
     1
102
RTVSPropertyOp33
 70
     1
102
RTVSPropertyOp34
 70
     1
102
RTVSPropertyOp35
 70
     1
102
RTVSPropertyOp36
 70
     1
102
RTVSPropertyOp37
 70
     1
102
RTVSPropertyOp38
 70
     1
102
RTVSPropertyOp39
 70
     1
102
RTVSPropertyOp40
 70
     1
102
RTVSPropertyOp41
 70
     1
102
RTVSPropertyOp42
 70
     1
102
RTVSPropertyOp43
 70
     1
102
RTVSPropertyOp44
 70
     1
102
RTVSPropertyOp45
 70
     1
102
RTVSPropertyOp46
 70
     1
102
RTVSPropertyOp47
 70
     1
102
RTVSPropertyOp48
 70
     1
102
RTVSPropertyOp49
 70
     1
102
RTVSPropertyOp50
 70
     1
102
RTVSPropertyOp51
 70
     0
102
RTVSPropertyOp52
 70
     0
102
RTVSPropertyOp53
 70
     1
102
RTVSPropertyOp54
 70
     1
102
RTVSPropertyOp55
 70
     1
102
RTVSPropertyOp56
 70
     1
102
RTVSPropertyOp57
 70
     1
102
RTVSPropertyOp58
 70
     1
102
RTVSPropertyOp59
 70
     1
102
RTVSPropertyOp60
 70
     1
102
RTVSPropertyOp61
 70
     1
102
RTVSPropertyOp62
 70
     1
  0
XRECORD
  5
683E
102
{ACAD_REACTORS
330
683D
102
}
330
683D
100
AcDbXrecord
280
     1
102
RTVSPost2010Prop28
280
     0
102
RTVSPost2010PropOp28
 70
     1
102
RTVSPost2010Prop29
280
     1
102
RTVSPost2010PropOp29
 70
     1
102
RTVSPost2010Prop30
280
     1
102
RTVSPost2010PropOp30
 70
     1
102
RTVSPost2010Prop31
280
     0
102
RTVSPost2010PropOp31
 70
     1
102
RTVSPost2010Prop32
280
     0
102
RTVSPost2010PropOp32
 70
     1
102
RTVSPost2010Prop33
280
     0
102
RTVSPost2010PropOp33
 70
     1
102
RTVSPost2010Prop34
280
     0
102
RTVSPost2010PropOp34
 70
     1
102
RTVSPost2010Prop35
280
     0
102
RTVSPost2010PropOp35
 70
     1
102
RTVSPost2010Prop36
280
     0
102
RTVSPost2010PropOp36
 70
     1
102
RTVSPost2010Prop37
 90
       50
102
RTVSPost2010PropOp37
 70
     1
102
RTVSPost2010Prop38
140
0.0
102
RTVSPost2010PropOp38
 70
     1
102
RTVSPost2010Prop39
140
1.0
102
RTVSPost2010PropOp39
 70
     1
102
RTVSPost2010Prop40
 90
        0
102
RTVSPost2010PropOp40
 70
     1
102
RTVSPost2010Prop41ColorIndex
 90
       18
102
RTVSPost2010Prop41ColorRGB
 90
        0
102
RTVSPost2010PropOp41
 70
     1
102
RTVSPost2010Prop42
 90
       50
102
RTVSPost2010PropOp42
 70
     1
102
RTVSPost2010Prop43
 90
        3
102
RTVSPost2010PropOp43
 70
     1
102
RTVSPost2010Prop44ColorIndex
 90
        5
102
RTVSPost2010Prop44ColorRGB
 90
      255
102
RTVSPost2010PropOp44
 70
     1
102
RTVSPost2010Prop45
280
     0
102
RTVSPost2010PropOp45
 70
     1
102
RTVSPost2010Prop46
 90
       50
102
RTVSPost2010PropOp46
 70
     1
102
RTVSPost2010Prop47
 90
       50
102
RTVSPost2010PropOp47
 70
     1
102
RTVSPost2010Prop48
 90
       50
102
RTVSPost2010PropOp48
 70
     1
102
RTVSPost2010Prop49
280
     0
102
RTVSPost2010PropOp49
 70
     1
102
RTVSPost2010Prop50
 90
       50
102
RTVSPost2010PropOp50
 70
     1
102
RTVSPost2010Prop51ColorIndex
 90
      256
102
RTVSPost2010Prop51ColorRGB
 90
-16777216
102
RTVSPost2010PropOp51
 70
     0
102
RTVSPost2010Prop52
140
1.0
102
RTVSPost2010PropOp52
 70
     0
102
RTVSPost2010Prop53
 90
        2
102
RTVSPost2010PropOp53
 70
     1
102
RTVSPost2010Prop54
  1
strokes_ogs.tif
102
RTVSPost2010PropOp54
 70
     1
102
RTVSPost2010Prop55
280
     0
102
RTVSPost2010PropOp55
 70
     1
102
RTVSPost2010Prop56
140
1.0
102
RTVSPost2010PropOp56
 70
     1
102
RTVSPost2010Prop57
140
1.0
102
RTVSPost2010PropOp57
 70
     1
102
RTVSPropertyOp0
 70
     1
102
RTVSPropertyOp1
 70
     1
102
RTVSPropertyOp2
 70
     1
102
RTVSPropertyOp3
 70
     1
102
RTVSPropertyOp4
 70
     1
102
RTVSPropertyOp5
 70
     1
102
RTVSPropertyOp6
 70
     1
102
RTVSPropertyOp7
 70
     1
102
RTVSPropertyOp8
 70
     1
102
RTVSPropertyOp9
 70
     1
102
RTVSPropertyOp10
 70
     1
102
RTVSPropertyOp11
 70
     1
102
RTVSPropertyOp12
 70
     1
102
RTVSPropertyOp13
 70
     1
102
RTVSPropertyOp14
 70
     1
102
RTVSPropertyOp15
 70
     1
102
RTVSPropertyOp16
 70
     1
102
RTVSPropertyOp17
 70
     1
102
RTVSPropertyOp18
 70
     1
102
RTVSPropertyOp19
 70
     1
102
RTVSPropertyOp20
 70
     1
102
RTVSPropertyOp21
 70
     1
102
RTVSPropertyOp22
 70
     1
102
RTVSPropertyOp23
 70
     1
102
RTVSPropertyOp24
 70
     1
102
RTVSPropertyOp25
 70
     1
102
RTVSPropertyOp26
 70
     1
102
RTVSPropertyOp27
 70
     1
102
RTVSPropertyOp28
 70
     1
102
RTVSPropertyOp29
 70
     1
102
RTVSPropertyOp30
 70
     1
102
RTVSPropertyOp31
 70
     1
102
RTVSPropertyOp32
 70
     1
102
RTVSPropertyOp33
 70
     1
102
RTVSPropertyOp34
 70
     1
102
RTVSPropertyOp35
 70
     1
102
RTVSPropertyOp36
 70
     1
102
RTVSPropertyOp37
 70
     1
102
RTVSPropertyOp38
 70
     1
102
RTVSPropertyOp39
 70
     1
102
RTVSPropertyOp40
 70
     1
102
RTVSPropertyOp41
 70
     1
102
RTVSPropertyOp42
 70
     1
102
RTVSPropertyOp43
 70
     1
102
RTVSPropertyOp44
 70
     1
102
RTVSPropertyOp45
 70
     1
102
RTVSPropertyOp46
 70
     1
102
RTVSPropertyOp47
 70
     1
102
RTVSPropertyOp48
 70
     1
102
RTVSPropertyOp49
 70
     1
102
RTVSPropertyOp50
 70
     1
102
RTVSPropertyOp51
 70
     0
102
RTVSPropertyOp52
 70
     0
102
RTVSPropertyOp53
 70
     1
102
RTVSPropertyOp54
 70
     1
102
RTVSPropertyOp55
 70
     1
102
RTVSPropertyOp56
 70
     1
102
RTVSPropertyOp57
 70
     1
102
RTVSPropertyOp58
 70
     1
102
RTVSPropertyOp59
 70
     1
102
RTVSPropertyOp60
 70
     1
102
RTVSPropertyOp61
 70
     1
102
RTVSPropertyOp62
 70
     1
  0
XRECORD
  5
6856
102
{ACAD_REACTORS
330
6855
102
}
330
6855
100
AcDbXrecord
280
     1
102
RTVSPost2010Prop28
280
     0
102
RTVSPost2010PropOp28
 70
     1
102
RTVSPost2010Prop29
280
     1
102
RTVSPost2010PropOp29
 70
     1
102
RTVSPost2010Prop30
280
     1
102
RTVSPost2010PropOp30
 70
     1
102
RTVSPost2010Prop31
280
     0
102
RTVSPost2010PropOp31
 70
     1
102
RTVSPost2010Prop32
280
     0
102
RTVSPost2010PropOp32
 70
     1
102
RTVSPost2010Prop33
280
     0
102
RTVSPost2010PropOp33
 70
     1
102
RTVSPost2010Prop34
280
     0
102
RTVSPost2010PropOp34
 70
     1
102
RTVSPost2010Prop35
280
     0
102
RTVSPost2010PropOp35
 70
     1
102
RTVSPost2010Prop36
280
     0
102
RTVSPost2010PropOp36
 70
     1
102
RTVSPost2010Prop37
 90
       50
102
RTVSPost2010PropOp37
 70
     1
102
RTVSPost2010Prop38
140
0.0
102
RTVSPost2010PropOp38
 70
     1
102
RTVSPost2010Prop39
140
1.0
102
RTVSPost2010PropOp39
 70
     1
102
RTVSPost2010Prop40
 90
        0
102
RTVSPost2010PropOp40
 70
     1
102
RTVSPost2010Prop41ColorIndex
 90
       18
102
RTVSPost2010Prop41ColorRGB
 90
        0
102
RTVSPost2010PropOp41
 70
     1
102
RTVSPost2010Prop42
 90
       50
102
RTVSPost2010PropOp42
 70
     1
102
RTVSPost2010Prop43
 90
        3
102
RTVSPost2010PropOp43
 70
     1
102
RTVSPost2010Prop44ColorIndex
 90
        5
102
RTVSPost2010Prop44ColorRGB
 90
      255
102
RTVSPost2010PropOp44
 70
     1
102
RTVSPost2010Prop45
280
     0
102
RTVSPost2010PropOp45
 70
     1
102
RTVSPost2010Prop46
 90
       50
102
RTVSPost2010PropOp46
 70
     1
102
RTVSPost2010Prop47
 90
       50
102
RTVSPost2010PropOp47
 70
     1
102
RTVSPost2010Prop48
 90
       50
102
RTVSPost2010PropOp48
 70
     1
102
RTVSPost2010Prop49
280
     0
102
RTVSPost2010PropOp49
 70
     1
102
RTVSPost2010Prop50
 90
       50
102
RTVSPost2010PropOp50
 70
     1
102
RTVSPost2010Prop51ColorIndex
 90
      256
102
RTVSPost2010Prop51ColorRGB
 90
-16777216
102
RTVSPost2010PropOp51
 70
     0
102
RTVSPost2010Prop52
140
1.0
102
RTVSPost2010PropOp52
 70
     0
102
RTVSPost2010Prop53
 90
        2
102
RTVSPost2010PropOp53
 70
     1
102
RTVSPost2010Prop54
  1
strokes_ogs.tif
102
RTVSPost2010PropOp54
 70
     1
102
RTVSPost2010Prop55
280
     0
102
RTVSPost2010PropOp55
 70
     1
102
RTVSPost2010Prop56
140
1.0
102
RTVSPost2010PropOp56
 70
     1
102
RTVSPost2010Prop57
140
1.0
102
RTVSPost2010PropOp57
 70
     1
102
RTVSPropertyOp0
 70
     1
102
RTVSPropertyOp1
 70
     1
102
RTVSPropertyOp2
 70
     1
102
RTVSPropertyOp3
 70
     1
102
RTVSPropertyOp4
 70
     1
102
RTVSPropertyOp5
 70
     1
102
RTVSPropertyOp6
 70
     1
102
RTVSPropertyOp7
 70
     1
102
RTVSPropertyOp8
 70
     1
102
RTVSPropertyOp9
 70
     1
102
RTVSPropertyOp10
 70
     1
102
RTVSPropertyOp11
 70
     1
102
RTVSPropertyOp12
 70
     1
102
RTVSPropertyOp13
 70
     1
102
RTVSPropertyOp14
 70
     1
102
RTVSPropertyOp15
 70
     1
102
RTVSPropertyOp16
 70
     1
102
RTVSPropertyOp17
 70
     1
102
RTVSPropertyOp18
 70
     1
102
RTVSPropertyOp19
 70
     1
102
RTVSPropertyOp20
 70
     1
102
RTVSPropertyOp21
 70
     1
102
RTVSPropertyOp22
 70
     1
102
RTVSPropertyOp23
 70
     1
102
RTVSPropertyOp24
 70
     1
102
RTVSPropertyOp25
 70
     1
102
RTVSPropertyOp26
 70
     1
102
RTVSPropertyOp27
 70
     1
102
RTVSPropertyOp28
 70
     1
102
RTVSPropertyOp29
 70
     1
102
RTVSPropertyOp30
 70
     1
102
RTVSPropertyOp31
 70
     1
102
RTVSPropertyOp32
 70
     1
102
RTVSPropertyOp33
 70
     1
102
RTVSPropertyOp34
 70
     1
102
RTVSPropertyOp35
 70
     1
102
RTVSPropertyOp36
 70
     1
102
RTVSPropertyOp37
 70
     1
102
RTVSPropertyOp38
 70
     1
102
RTVSPropertyOp39
 70
     1
102
RTVSPropertyOp40
 70
     1
102
RTVSPropertyOp41
 70
     1
102
RTVSPropertyOp42
 70
     1
102
RTVSPropertyOp43
 70
     1
102
RTVSPropertyOp44
 70
     1
102
RTVSPropertyOp45
 70
     1
102
RTVSPropertyOp46
 70
     1
102
RTVSPropertyOp47
 70
     1
102
RTVSPropertyOp48
 70
     1
102
RTVSPropertyOp49
 70
     1
102
RTVSPropertyOp50
 70
     1
102
RTVSPropertyOp51
 70
     0
102
RTVSPropertyOp52
 70
     0
102
RTVSPropertyOp53
 70
     1
102
RTVSPropertyOp54
 70
     1
102
RTVSPropertyOp55
 70
     1
102
RTVSPropertyOp56
 70
     1
102
RTVSPropertyOp57
 70
     1
102
RTVSPropertyOp58
 70
     1
102
RTVSPropertyOp59
 70
     1
102
RTVSPropertyOp60
 70
     1
102
RTVSPropertyOp61
 70
     1
102
RTVSPropertyOp62
 70
     1
  0
ENDSEC
  0
EOF
