  0
SECTION
  2
HEADER
  9
$ACADVER
  1
AC1015
  9
$ACADMAINTVER
 70
    20
  9
$DWGCODEPAGE
  3
ANSI_932
  9
$INSBASE
 10
0.0
 20
0.0
 30
0.0
  9
$EXTMIN
 10
9.999999
 20
10.000001
 30
0.0
  9
$EXTMAX
 10
754.842002
 20
402.500962
 30
0.0
  9
$LIMMIN
 10
0.0
 20
0.0
  9
$LIMMAX
 10
792.0
 20
546.0
  9
$ORTHOMODE
 70
     1
  9
$REGENMODE
 70
     1
  9
$FILLMODE
 70
     1
  9
$QTEXTMODE
 70
     0
  9
$MIRRTEXT
 70
     1
  9
$LTSCALE
 40
20.0
  9
$ATTMODE
 70
     1
  9
$TEXTSIZE
 40
5.0
  9
$TRACEWID
 40
1.0
  9
$TEXTSTYLE
  7
STANDARD
  9
$CLAYER
  8
0
  9
$CELTYPE
  6
BYLAYER
  9
$CECOLOR
 62
   256
  9
$CELTSCALE
 40
1.0
  9
$DISPSILH
 70
     0
  9
$DIMSCALE
 40
1.0
  9
$DIMASZ
 40
2.5
  9
$DIMEXO
 40
1.0
  9
$DIMDLI
 40
10.0
  9
$DIMRND
 40
0.0
  9
$DIMDLE
 40
0.0
  9
$DIMEXE
 40
1.0
  9
$DIMTP
 40
0.0
  9
$DIMTM
 40
0.0
  9
$DIMTXT
 40
3.2
  9
$DIMCEN
 40
0.0
  9
$DIMTSZ
 40
0.0
  9
$DIMTOL
 70
     0
  9
$DIMLIM
 70
     0
  9
$DIMTIH
 70
     0
  9
$DIMTOH
 70
     0
  9
$DIMSE1
 70
     0
  9
$DIMSE2
 70
     0
  9
$DIMTAD
 70
     3
  9
$DIMZIN
 70
     8
  9
$DIMBLK
  1

  9
$DIMASO
 70
     1
  9
$DIMSHO
 70
     1
  9
$DIMPOST
  1

  9
$DIMAPOST
  1

  9
$DIMALT
 70
     0
  9
$DIMALTD
 70
     2
  9
$DIMALTF
 40
25.4
  9
$DIMLFAC
 40
1.0
  9
$DIMTOFL
 70
     1
  9
$DIMTVP
 40
0.0
  9
$DIMTIX
 70
     0
  9
$DIMSOXD
 70
     0
  9
$DIMSAH
 70
     1
  9
$DIMBLK1
  1

  9
$DIMBLK2
  1

  9
$DIMSTYLE
  2
STANDARD
  9
$DIMCLRD
 70
     0
  9
$DIMCLRE
 70
     0
  9
$DIMCLRT
 70
     0
  9
$DIMTFAC
 40
1.0
  9
$DIMGAP
 40
1.0
  9
$DIMJUST
 70
     0
  9
$DIMSD1
 70
     0
  9
$DIMSD2
 70
     0
  9
$DIMTOLJ
 70
     1
  9
$DIMTZIN
 70
     0
  9
$DIMALTZ
 70
     0
  9
$DIMALTTZ
 70
     0
  9
$DIMUPT
 70
     0
  9
$DIMDEC
 70
     4
  9
$DIMTDEC
 70
     4
  9
$DIMALTU
 70
     2
  9
$DIMALTTD
 70
     2
  9
$DIMTXSTY
  7
STANDARD
  9
$DIMAUNIT
 70
     0
  9
$DIMADEC
 70
     0
  9
$DIMALTRND
 40
0.0
  9
$DIMAZIN
 70
     0
  9
$DIMDSEP
 70
    46
  9
$DIMATFIT
 70
     3
  9
$DIMFRAC
 70
     0
  9
$DIMLDRBLK
  1

  9
$DIMLUNIT
 70
     2
  9
$DIMLWD
 70
    -2
  9
$DIMLWE
 70
    -2
  9
$DIMTMOVE
 70
     0
  9
$LUNITS
 70
     2
  9
$LUPREC
 70
     4
  9
$SKETCHINC
 40
1.0
  9
$FILLETRAD
 40
0.5
  9
$AUNITS
 70
     0
  9
$AUPREC
 70
     2
  9
$MENU
  1
.
  9
$ELEVATION
 40
0.0
  9
$PELEVATION
 40
0.0
  9
$THICKNESS
 40
0.0
  9
$LIMCHECK
 70
     0
  9
$CHAMFERA
 40
10.0
  9
$CHAMFERB
 40
10.0
  9
$CHAMFERC
 40
0.0
  9
$CHAMFERD
 40
0.0
  9
$SKPOLY
 70
     0
  9
$TDCREATE
 40
2451439.578398495
  9
$TDUCREATE
 40
2451439.203398495
  9
$TDUPDATE
 40
2457192.641703032
  9
$TDUUPDATE
 40
2457192.266703033
  9
$TDINDWG
 40
0.0084468750
  9
$TDUSRTIMER
 40
0.0084463889
  9
$USRTIMER
 70
     1
  9
$ANGBASE
 50
0.0
  9
$ANGDIR
 70
     0
  9
$PDMODE
 70
     0
  9
$PDSIZE
 40
0.0
  9
$PLINEWID
 40
0.0
  9
$SPLFRAME
 70
     0
  9
$SPLINETYPE
 70
     6
  9
$SPLINESEGS
 70
     8
  9
$HANDSEED
  5
C034
  9
$SURFTAB1
 70
     6
  9
$SURFTAB2
 70
     6
  9
$SURFTYPE
 70
     6
  9
$SURFU
 70
     6
  9
$SURFV
 70
     6
  9
$UCSBASE
  2

  9
$UCSNAME
  2

  9
$UCSORG
 10
0.0
 20
0.0
 30
0.0
  9
$UCSXDIR
 10
1.0
 20
0.0
 30
0.0
  9
$UCSYDIR
 10
0.0
 20
1.0
 30
0.0
  9
$UCSORTHOREF
  2

  9
$UCSORTHOVIEW
 70
     0
  9
$UCSORGTOP
 10
0.0
 20
0.0
 30
0.0
  9
$UCSORGBOTTOM
 10
0.0
 20
0.0
 30
0.0
  9
$UCSORGLEFT
 10
0.0
 20
0.0
 30
0.0
  9
$UCSORGRIGHT
 10
0.0
 20
0.0
 30
0.0
  9
$UCSORGFRONT
 10
0.0
 20
0.0
 30
0.0
  9
$UCSORGBACK
 10
0.0
 20
0.0
 30
0.0
  9
$PUCSBASE
  2

  9
$PUCSNAME
  2

  9
$PUCSORG
 10
0.0
 20
0.0
 30
0.0
  9
$PUCSXDIR
 10
1.0
 20
0.0
 30
0.0
  9
$PUCSYDIR
 10
0.0
 20
1.0
 30
0.0
  9
$PUCSORTHOREF
  2

  9
$PUCSORTHOVIEW
 70
     0
  9
$PUCSORGTOP
 10
0.0
 20
0.0
 30
0.0
  9
$PUCSORGBOTTOM
 10
0.0
 20
0.0
 30
0.0
  9
$PUCSORGLEFT
 10
0.0
 20
0.0
 30
0.0
  9
$PUCSORGRIGHT
 10
0.0
 20
0.0
 30
0.0
  9
$PUCSORGFRONT
 10
0.0
 20
0.0
 30
0.0
  9
$PUCSORGBACK
 10
0.0
 20
0.0
 30
0.0
  9
$USERI1
 70
     0
  9
$USERI2
 70
     0
  9
$USERI3
 70
     0
  9
$USERI4
 70
     0
  9
$USERI5
 70
     0
  9
$USERR1
 40
0.0
  9
$USERR2
 40
0.0
  9
$USERR3
 40
0.0
  9
$USERR4
 40
0.0
  9
$USERR5
 40
0.0
  9
$WORLDVIEW
 70
     1
  9
$SHADEDGE
 70
     3
  9
$SHADEDIF
 70
    70
  9
$TILEMODE
 70
     1
  9
$MAXACTVP
 70
    16
  9
$PINSBASE
 10
0.0
 20
0.0
 30
0.0
  9
$PLIMCHECK
 70
     0
  9
$PEXTMIN
 10
1.000000000000000E+20
 20
1.000000000000000E+20
 30
1.000000000000000E+20
  9
$PEXTMAX
 10
-1.000000000000000E+20
 20
-1.000000000000000E+20
 30
-1.000000000000000E+20
  9
$PLIMMIN
 10
0.0
 20
0.0
  9
$PLIMMAX
 10
420.0
 20
297.0
  9
$UNITMODE
 70
     0
  9
$VISRETAIN
 70
     0
  9
$PLINEGEN
 70
     0
  9
$PSLTSCALE
 70
     0
  9
$TREEDEPTH
 70
  3020
  9
$CMLSTYLE
  2
STANDARD
  9
$CMLJUST
 70
     0
  9
$CMLSCALE
 40
1.0
  9
$PROXYGRAPHICS
 70
     1
  9
$MEASUREMENT
 70
     0
  9
$CELWEIGHT
370
    -1
  9
$ENDCAPS
280
     0
  9
$JOINSTYLE
280
     0
  9
$LWDISPLAY
290
     0
  9
$INSUNITS
 70
     0
  9
$HYPERLINKBASE
  1

  9
$STYLESHEET
  1

  9
$XEDIT
290
     1
  9
$CEPSNTYPE
380
     0
  9
$PSTYLEMODE
290
     1
  9
$FINGERPRINTGUID
  2
{F0809A41-C69F-4329-912D-F74EA42B669B}
  9
$VERSIONGUID
  2
{304245D7-F382-46CC-9626-67FEBFC0041E}
  9
$EXTNAMES
290
     1
  9
$PSVPSCALE
 40
0.0
  9
$OLESTARTUP
290
     0
  0
ENDSEC
  0
SECTION
  2
CLASSES
  0
CLASS
  1
ACDBDICTIONARYWDFLT
  2
AcDbDictionaryWithDefault
  3
ObjectDBX Classes
 90
        0
280
     0
281
     0
  0
CLASS
  1
ACDBPLACEHOLDER
  2
AcDbPlaceHolder
  3
ObjectDBX Classes
 90
        0
280
     0
281
     0
  0
CLASS
  1
LAYOUT
  2
AcDbLayout
  3
ObjectDBX Classes
 90
        0
280
     0
281
     0
  0
CLASS
  1
DICTIONARYVAR
  2
AcDbDictionaryVar
  3
ObjectDBX Classes
 90
        0
280
     0
281
     0
  0
CLASS
  1
MATERIAL
  2
AcDbMaterial
  3
ObjectDBX Classes
 90
     1153
280
     0
281
     0
  0
CLASS
  1
VISUALSTYLE
  2
AcDbVisualStyle
  3
ObjectDBX Classes
 90
     4095
280
     0
281
     0
  0
CLASS
  1
TABLESTYLE
  2
AcDbTableStyle
  3
ObjectDBX Classes
 90
     4095
280
     0
281
     0
  0
CLASS
  1
SCALE
  2
AcDbScale
  3
ObjectDBX Classes
 90
     1153
280
     0
281
     0
  0
CLASS
  1
MLEADERSTYLE
  2
AcDbMLeaderStyle
  3
ACDB_MLEADERSTYLE_CLASS
 90
     4095
280
     0
281
     0
  0
CLASS
  1
ACDBSECTIONVIEWSTYLE
  2
AcDbSectionViewStyle
  3
ObjectDBX Classes
 90
     1025
280
     0
281
     0
  0
CLASS
  1
ACDBDETAILVIEWSTYLE
  2
AcDbDetailViewStyle
  3
ObjectDBX Classes
 90
     1025
280
     0
281
     0
  0
CLASS
  1
CELLSTYLEMAP
  2
AcDbCellStyleMap
  3
ObjectDBX Classes
 90
     1152
280
     0
281
     0
  0
ENDSEC
  0
SECTION
  2
TABLES
  0
TABLE
  2
VPORT
  5
BBC6
330
0
100
AcDbSymbolTable
 70
     1
  0
VPORT
  5
BF7D
330
BBC6
100
AcDbSymbolTableRecord
100
AcDbViewportTableRecord
  2
*ACTIVE
 70
     0
 10
0.0
 20
0.0
 11
1.0
 21
1.0
 12
510.6593234310224
 22
206.2454693331911
 13
0.0
 23
0.0
 14
10.0
 24
10.0
 15
10.0
 25
10.0
 16
0.0
 26
0.0
 36
1.0
 17
0.0
 27
0.0
 37
0.0
 40
428.1845008486397
 41
1.899603698811096
 42
50.0
 43
0.0
 44
0.0
 50
0.0
 51
0.0
 71
     0
 72
   100
 73
     1
 74
     0
 75
     0
 76
     0
 77
     0
 78
     0
281
     0
 65
     1
110
0.0
120
0.0
130
0.0
111
1.0
121
0.0
131
0.0
112
0.0
122
1.0
132
0.0
 79
     0
146
0.0
1001
ACAD_NAV_VCDISPLAY
1070
     3
  0
ENDTAB
  0
TABLE
  2
LTYPE
  5
BBC3
330
0
100
AcDbSymbolTable
 70
     4
  0
LTYPE
  5
BBD1
330
BBC3
100
AcDbSymbolTableRecord
100
AcDbLinetypeTableRecord
  2
BYBLOCK
 70
     0
  3

 72
    65
 73
     0
 40
0.0
  0
LTYPE
  5
BBD2
330
BBC3
100
AcDbSymbolTableRecord
100
AcDbLinetypeTableRecord
  2
BYLAYER
 70
     0
  3

 72
    65
 73
     0
 40
0.0
  0
LTYPE
  5
BBD3
330
BBC3
100
AcDbSymbolTableRecord
100
AcDbLinetypeTableRecord
  2
CONTINUOUS
 70
     0
  3
Solid line
 72
    65
 73
     0
 40
0.0
  0
LTYPE
  5
BBE1
330
BBC3
100
AcDbSymbolTableRecord
100
AcDbLinetypeTableRecord
  2
DASHED
 70
     0
  3
__ __ __ __ __ __ __ __ __ __ __ __ __ __ __ __
 72
    65
 73
     2
 40
0.75
 49
0.5
 74
     0
 49
-0.25
 74
     0
  0
LTYPE
  5
BBE2
330
BBC3
100
AcDbSymbolTableRecord
100
AcDbLinetypeTableRecord
  2
CENTER
 70
     0
  3
____ _ ____ _ ____ _ ____ _ ____ _ ____ _ ____ 
 72
    65
 73
     4
 40
2.0
 49
1.25
 74
     0
 49
-0.25
 74
     0
 49
0.25
 74
     0
 49
-0.25
 74
     0
  0
LTYPE
  5
BBE3
330
BBC3
100
AcDbSymbolTableRecord
100
AcDbLinetypeTableRecord
  2
PHANTOM
 70
     0
  3
______  __  __  ______  __  __  ______  __  __ 
 72
    65
 73
     6
 40
2.5
 49
1.25
 74
     0
 49
-0.25
 74
     0
 49
0.25
 74
     0
 49
-0.25
 74
     0
 49
0.25
 74
     0
 49
-0.25
 74
     0
  0
ENDTAB
  0
TABLE
  2
LAYER
  5
BBC0
330
0
100
AcDbSymbolTable
 70
     8
  0
LAYER
  5
BBCE
102
{ACAD_XDICTIONARY
360
BFD8
102
}
330
BBC0
100
AcDbSymbolTableRecord
100
AcDbLayerTableRecord
  2
0
 70
     0
 62
     7
  6
CONTINUOUS
370
    -3
390
BF86
  0
LAYER
  5
BBE4
102
{ACAD_XDICTIONARY
360
BFDA
102
}
330
BBC0
100
AcDbSymbolTableRecord
100
AcDbLayerTableRecord
  2
7
 70
     0
 62
     3
  6
CONTINUOUS
370
    -3
390
BF86
  0
LAYER
  5
BBE5
102
{ACAD_XDICTIONARY
360
BFDC
102
}
330
BBC0
100
AcDbSymbolTableRecord
100
AcDbLayerTableRecord
  2
4
 70
     0
 62
     1
  6
CENTER
370
    -3
390
BF86
  0
LAYER
  5
BBE6
102
{ACAD_XDICTIONARY
360
BFDE
102
}
330
BBC0
100
AcDbSymbolTableRecord
100
AcDbLayerTableRecord
  2
5
 70
     0
 62
     6
  6
PHANTOM
370
    -3
390
BF86
  0
LAYER
  5
BBE7
102
{ACAD_XDICTIONARY
360
BFE0
102
}
330
BBC0
100
AcDbSymbolTableRecord
100
AcDbLayerTableRecord
  2
1
 70
     0
 62
     7
  6
CONTINUOUS
370
    -3
390
BF86
  0
LAYER
  5
BBE8
102
{ACAD_XDICTIONARY
360
BFE2
102
}
330
BBC0
100
AcDbSymbolTableRecord
100
AcDbLayerTableRecord
  2
2
 70
     0
 62
     4
  6
CONTINUOUS
370
    -3
390
BF86
  0
LAYER
  5
BBE9
102
{ACAD_XDICTIONARY
360
BFE4
102
}
330
BBC0
100
AcDbSymbolTableRecord
100
AcDbLayerTableRecord
  2
3
 70
     0
 62
     2
  6
DASHED
370
    -3
390
BF86
  0
LAYER
  5
BBEA
102
{ACAD_XDICTIONARY
360
BFE6
102
}
330
BBC0
100
AcDbSymbolTableRecord
100
AcDbLayerTableRecord
  2
6
 70
     0
 62
     5
  6
CONTINUOUS
370
    -3
390
BF86
  0
ENDTAB
  0
TABLE
  2
STYLE
  5
BBC1
330
0
100
AcDbSymbolTable
 70
     1
  0
STYLE
  5
BBCF
330
BBC1
100
AcDbSymbolTableRecord
100
AcDbTextStyleTableRecord
  2
STANDARD
 70
     0
 40
0.0
 41
1.0
 50
0.0
 71
     0
 42
5.0
  3
txt
  4

  0
ENDTAB
  0
TABLE
  2
VIEW
  5
BBC4
330
0
100
AcDbSymbolTable
 70
     0
  0
ENDTAB
  0
TABLE
  2
UCS
  5
BBC5
330
0
100
AcDbSymbolTable
 70
     0
  0
ENDTAB
  0
TABLE
  2
APPID
  5
BBC7
330
0
100
AcDbSymbolTable
 70
     3
  0
APPID
  5
BBD0
330
BBC7
100
AcDbSymbolTableRecord
100
AcDbRegAppTableRecord
  2
ACAD
 70
     0
  0
APPID
  5
BFF2
330
BBC7
100
AcDbSymbolTableRecord
100
AcDbRegAppTableRecord
  2
ACAD_NAV_VCDISPLAY
 70
     0
  0
APPID
  5
C02B
330
BBC7
100
AcDbSymbolTableRecord
100
AcDbRegAppTableRecord
  2
ACAD_MLEADERVER
 70
     0
  0
ENDTAB
  0
TABLE
  2
DIMSTYLE
  5
BBC8
330
0
100
AcDbSymbolTable
 70
     1
100
AcDbDimStyleTable
 71
     0
  0
DIMSTYLE
105
BBEC
330
BBC8
100
AcDbSymbolTableRecord
100
AcDbDimStyleTableRecord
  2
STANDARD
 70
     0
 41
2.5
 42
1.0
 43
10.0
 44
1.0
 73
     0
 74
     0
 77
     3
 78
     8
140
3.2
141
0.0
147
1.0
172
     1
173
     1
284
     8
285
     8
286
     8
340
BBCF
  0
ENDTAB
  0
TABLE
  2
BLOCK_RECORD
  5
BBBF
330
0
100
AcDbSymbolTable
 70
     0
  0
BLOCK_RECORD
  5
BBDC
102
{ACAD_XDICTIONARY
360
BF80
102
}
330
BBBF
100
AcDbSymbolTableRecord
100
AcDbBlockTableRecord
  2
*MODEL_SPACE
340
BFD4
  0
BLOCK_RECORD
  5
BBD8
102
{ACAD_XDICTIONARY
360
BF7E
102
}
330
BBBF
100
AcDbSymbolTableRecord
100
AcDbBlockTableRecord
  2
*PAPER_SPACE
340
BFD5
  0
ENDTAB
  0
ENDSEC
  0
SECTION
  2
BLOCKS
  0
BLOCK
  5
BBDD
330
BBDC
100
AcDbEntity
  8
0
100
AcDbBlockBegin
  2
*MODEL_SPACE
 70
     0
 10
0.0
 20
0.0
 30
0.0
  3
*MODEL_SPACE
  1

  0
ENDBLK
  5
BBDE
330
BBDC
100
AcDbEntity
  8
0
100
AcDbBlockEnd
  0
BLOCK
  5
BBD9
330
BBD8
100
AcDbEntity
 67
     1
  8
0
100
AcDbBlockBegin
  2
*PAPER_SPACE
 70
     0
 10
0.0
 20
0.0
 30
0.0
  3
*PAPER_SPACE
  1

  0
ENDBLK
  5
BBDA
330
BBD8
100
AcDbEntity
 67
     1
  8
0
100
AcDbBlockEnd
  0
ENDSEC
  0
SECTION
  2
ENTITIES
  0
TEXT
  5
BBF4
330
BBDC
100
AcDbEntity
  8
7
  6
Continuous
100
AcDbText
 10
9.999999
 20
26.000001
 30
0.0
 40
3.0
  1
CODE No.13185
100
AcDbText
  0
TEXT
  5
BBF5
330
BBDC
100
AcDbEntity
  8
7
  6
Continuous
100
AcDbText
 10
9.999999
 20
18.000001
 30
0.0
 40
3.0
  1
TYPE No.THA-330S-3
100
AcDbText
  0
TEXT
  5
BBF6
330
BBDC
100
AcDbEntity
  8
1
  6
Continuous
100
AcDbText
 10
9.999999
 20
10.000001
 30
0.0
 40
1.399999999999999
  1
LAYER
100
AcDbText
  0
TEXT
  5
BBF7
330
BBDC
100
AcDbEntity
  8
5
  6
PHANTOM
100
AcDbText
 10
25.97951
 20
10.048738
 30
0.0
 40
1.399999999999999
  1
5
100
AcDbText
  0
TEXT
  5
BBF8
330
BBDC
100
AcDbEntity
  8
6
  6
Continuous
100
AcDbText
 10
27.97950999999999
 20
10.048738
 30
0.0
 40
1.399999999999999
  1
6
100
AcDbText
  0
TEXT
  5
BBF9
330
BBDC
100
AcDbEntity
  8
2
  6
Continuous
100
AcDbText
 10
19.97951
 20
10.048738
 30
0.0
 40
1.399999999999999
  1
2
100
AcDbText
  0
TEXT
  5
BBFA
330
BBDC
100
AcDbEntity
  8
3
  6
DASHED
100
AcDbText
 10
21.97951
 20
10.048738
 30
0.0
 40
1.399999999999999
  1
3
100
AcDbText
  0
TEXT
  5
BBFB
330
BBDC
100
AcDbEntity
  8
4
  6
CENTER
100
AcDbText
 10
23.97951
 20
10.048738
 30
0.0
 40
1.399999999999999
  1
4
100
AcDbText
  0
TEXT
  5
BBFC
330
BBDC
100
AcDbEntity
  8
7
  6
Continuous
100
AcDbText
 10
29.97951
 20
10.048738
 30
0.0
 40
1.399999999999999
  1
7
100
AcDbText
  0
TEXT
  5
BBFD
330
BBDC
100
AcDbEntity
  8
1
  6
Continuous
100
AcDbText
 10
17.97951
 20
10.048738
 30
0.0
 40
1.399999999999999
  1
1
100
AcDbText
  0
LINE
  5
BBFE
330
BBDC
100
AcDbEntity
  8
1
  6
Continuous
100
AcDbLine
 10
217.5077669999998
 20
95.553562
 30
0.0
 11
217.5077669999998
 21
49.553562
 31
0.0
  0
LINE
  5
BBFF
330
BBDC
100
AcDbEntity
  8
1
  6
Continuous
100
AcDbLine
 10
216.507767
 20
95.553562
 30
0.0
 11
216.507767
 21
49.553562
 31
0.0
  0
LINE
  5
BC00
330
BBDC
100
AcDbEntity
  8
1
  6
Continuous
100
AcDbLine
 10
213.0077669999999
 20
93.55356200000001
 30
0.0
 11
213.0077669999999
 21
51.55356199999999
 31
0.0
  0
LINE
  5
BC01
330
BBDC
100
AcDbEntity
  8
1
  6
Continuous
100
AcDbLine
 10
205.187276
 20
84.05356199999998
 30
0.0
 11
175.3496059999999
 21
84.05356199999998
 31
0.0
  0
LINE
  5
BC02
330
BBDC
100
AcDbEntity
  8
1
  6
Continuous
100
AcDbLine
 10
205.187276
 20
61.053562
 30
0.0
 11
175.3496059999999
 21
61.053562
 31
0.0
  0
LINE
  5
BC03
330
BBDC
100
AcDbEntity
  8
4
  6
CENTER
100
AcDbLine
 10
245.054306
 20
72.553573
 30
0.0
 11
167.9077669999998
 21
72.553573
 31
0.0
  0
LINE
  5
BC04
330
BBDC
100
AcDbEntity
  8
1
  6
Continuous
100
AcDbLine
 10
185.007767
 20
66.35013599999999
 30
0.0
 11
185.007767
 21
61.053562
 31
0.0
  0
ARC
  5
BC05
330
BBDC
100
AcDbEntity
  8
1
  6
Continuous
100
AcDbCircle
 10
184.507767
 20
71.325073
 30
0.0
 40
5.0
100
AcDbArc
 50
270.0
 51
0.0
  0
LINE
  5
BC06
330
BBDC
100
AcDbEntity
  8
1
  6
Continuous
100
AcDbLine
 10
185.007767
 20
76.553573
 30
0.0
 11
185.007767
 21
68.553573
 31
0.0
  0
ARC
  5
BC07
330
BBDC
100
AcDbEntity
  8
1
  6
Continuous
100
AcDbCircle
 10
184.507767
 20
73.78207299999998
 30
0.0
 40
5.0
100
AcDbArc
 50
0.0
 51
90.0
  0
LINE
  5
BC08
330
BBDC
100
AcDbEntity
  8
1
  6
Continuous
100
AcDbLine
 10
184.507767
 20
66.325073
 30
0.0
 11
180.7662949999999
 21
66.325073
 31
0.0
  0
LINE
  5
BC09
330
BBDC
100
AcDbEntity
  8
1
  6
Continuous
100
AcDbLine
 10
184.507767
 20
78.78207299999998
 30
0.0
 11
180.7662949999999
 21
78.78207299999998
 31
0.0
  0
LINE
  5
BC0A
330
BBDC
100
AcDbEntity
  8
1
  6
Continuous
100
AcDbLine
 10
185.007767
 20
84.05356199999998
 30
0.0
 11
185.007767
 21
78.757011
 31
0.0
  0
LINE
  5
BC0B
330
BBDC
100
AcDbEntity
  8
1
  6
Continuous
100
AcDbLine
 10
189.507767
 20
73.78207299999998
 30
0.0
 11
189.507767
 21
71.325073
 31
0.0
  0
LINE
  5
BC0C
330
BBDC
100
AcDbEntity
  8
1
  6
Continuous
100
AcDbLine
 10
230.7077669999999
 20
83.55356200000001
 30
0.0
 11
218.507767
 21
83.55356200000001
 31
0.0
  0
LINE
  5
BC0D
330
BBDC
100
AcDbEntity
  8
1
  6
Continuous
100
AcDbLine
 10
230.7077669999999
 20
61.55356199999999
 30
0.0
 11
218.507767
 21
61.55356199999999
 31
0.0
  0
LINE
  5
BC0E
330
BBDC
100
AcDbEntity
  8
2
  6
Continuous
100
AcDbLine
 10
231.5197669999998
 20
82.741562
 30
0.0
 11
219.4077669999999
 21
82.741562
 31
0.0
  0
LINE
  5
BC0F
330
BBDC
100
AcDbEntity
  8
2
  6
Continuous
100
AcDbLine
 10
231.5197669999998
 20
62.36556199999998
 30
0.0
 11
219.4077669999999
 21
62.36556199999998
 31
0.0
  0
LINE
  5
BC10
330
BBDC
100
AcDbEntity
  8
1
  6
Continuous
100
AcDbLine
 10
230.7077669999999
 20
77.646462
 30
0.0
 11
217.5077669999998
 21
77.646462
 31
0.0
  0
LINE
  5
BC11
330
BBDC
100
AcDbEntity
  8
1
  6
Continuous
100
AcDbLine
 10
230.7077669999999
 20
67.460662
 30
0.0
 11
217.5077669999998
 21
67.460662
 31
0.0
  0
LINE
  5
BC12
330
BBDC
100
AcDbEntity
  8
2
  6
Continuous
100
AcDbLine
 10
217.5077669999998
 20
77.646462
 30
0.0
 11
230.7077669999999
 21
67.460662
 31
0.0
  0
LINE
  5
BC13
330
BBDC
100
AcDbEntity
  8
2
  6
Continuous
100
AcDbLine
 10
230.7077669999999
 20
77.646462
 30
0.0
 11
217.5077669999998
 21
67.460662
 31
0.0
  0
LINE
  5
BC14
330
BBDC
100
AcDbEntity
  8
1
  6
Continuous
100
AcDbLine
 10
219.4077669999999
 20
67.460662
 30
0.0
 11
219.4077669999999
 21
61.55356199999999
 31
0.0
  0
LINE
  5
BC15
330
BBDC
100
AcDbEntity
  8
1
  6
Continuous
100
AcDbLine
 10
205.057767
 20
84.05356199999998
 30
0.0
 11
205.057767
 21
61.053562
 31
0.0
  0
LINE
  5
BC16
330
BBDC
100
AcDbEntity
  8
1
  6
Continuous
100
AcDbLine
 10
205.0077669999998
 20
61.053562
 30
0.0
 11
205.0077669999998
 21
84.05356199999998
 31
0.0
  0
LINE
  5
BC17
330
BBDC
100
AcDbEntity
  8
1
  6
Continuous
100
AcDbLine
 10
205.187276
 20
61.053562
 30
0.0
 11
213.0077669999999
 21
57.553562
 31
0.0
  0
ARC
  5
BC18
330
BBDC
100
AcDbEntity
  8
1
  6
Continuous
100
AcDbCircle
 10
218.507767
 20
60.553562
 30
0.0
 40
1.0
100
AcDbArc
 50
90.0
 51
180.0
  0
LINE
  5
BC19
330
BBDC
100
AcDbEntity
  8
2
  6
Continuous
100
AcDbLine
 10
218.001341
 20
61.55356199999999
 30
0.0
 11
219.4077669999999
 21
62.36556199999998
 31
0.0
  0
ARC
  5
BC1A
330
BBDC
100
AcDbEntity
  8
1
  6
Continuous
100
AcDbCircle
 10
215.0077669999999
 20
51.55356199999999
 30
0.0
 40
2.0
100
AcDbArc
 50
180.0
 51
270.0
  0
LINE
  5
BC1B
330
BBDC
100
AcDbEntity
  8
1
  6
Continuous
100
AcDbLine
 10
215.0077669999999
 20
49.553562
 30
0.0
 11
217.5077669999998
 21
49.553562
 31
0.0
  0
LINE
  5
BC1C
330
BBDC
100
AcDbEntity
  8
1
  6
Continuous
100
AcDbLine
 10
205.187276
 20
84.05356199999998
 30
0.0
 11
213.0077669999999
 21
87.55356199999999
 31
0.0
  0
ARC
  5
BC1D
330
BBDC
100
AcDbEntity
  8
1
  6
Continuous
100
AcDbCircle
 10
218.507767
 20
84.553562
 30
0.0
 40
1.0
100
AcDbArc
 50
180.0
 51
270.0
  0
LINE
  5
BC1E
330
BBDC
100
AcDbEntity
  8
2
  6
Continuous
100
AcDbLine
 10
218.001341
 20
83.55356200000001
 30
0.0
 11
219.4077669999999
 21
82.741562
 31
0.0
  0
LINE
  5
BC1F
330
BBDC
100
AcDbEntity
  8
1
  6
Continuous
100
AcDbLine
 10
219.4077669999999
 20
83.55356200000001
 30
0.0
 11
219.4077669999999
 21
77.646462
 31
0.0
  0
LINE
  5
BC20
330
BBDC
100
AcDbEntity
  8
1
  6
Continuous
100
AcDbLine
 10
219.0077669999999
 20
74.803562
 30
0.0
 11
217.5077669999998
 21
74.803562
 31
0.0
  0
LINE
  5
BC21
330
BBDC
100
AcDbEntity
  8
1
  6
Continuous
100
AcDbLine
 10
219.0077669999999
 20
70.30356199999999
 30
0.0
 11
217.5077669999998
 21
70.30356199999999
 31
0.0
  0
LINE
  5
BC22
330
BBDC
100
AcDbEntity
  8
1
  6
Continuous
100
AcDbLine
 10
219.0077669999999
 20
70.30356199999999
 30
0.0
 11
219.0077669999999
 21
74.803562
 31
0.0
  0
LINE
  5
BC23
330
BBDC
100
AcDbEntity
  8
1
  6
Continuous
100
AcDbLine
 10
232.207767
 20
82.053562
 30
0.0
 11
232.207767
 21
63.053562
 31
0.0
  0
LINE
  5
BC24
330
BBDC
100
AcDbEntity
  8
1
  6
Continuous
100
AcDbLine
 10
232.3077669999999
 20
65.753562
 30
0.0
 11
232.3077669999999
 21
79.35356199999998
 31
0.0
  0
LINE
  5
BC25
330
BBDC
100
AcDbEntity
  8
1
  6
Continuous
100
AcDbLine
 10
230.7077669999999
 20
67.460662
 30
0.0
 11
230.7077669999999
 21
61.55356199999999
 31
0.0
  0
ARC
  5
BC26
330
BBDC
100
AcDbEntity
  8
1
  6
Continuous
100
AcDbCircle
 10
232.107767
 20
65.753562
 30
0.0
 40
0.2
100
AcDbArc
 50
300.0
 51
0.0
  0
LINE
  5
BC27
330
BBDC
100
AcDbEntity
  8
1
  6
Continuous
100
AcDbLine
 10
230.7077669999999
 20
61.55356199999999
 30
0.0
 11
232.207767
 21
63.053562
 31
0.0
  0
LINE
  5
BC28
330
BBDC
100
AcDbEntity
  8
1
  6
Continuous
100
AcDbLine
 10
237.007767
 20
78.01544199999998
 30
0.0
 11
232.3077669999999
 21
78.01544199999998
 31
0.0
  0
LINE
  5
BC29
330
BBDC
100
AcDbEntity
  8
2
  6
Continuous
100
AcDbLine
 10
232.3077669999999
 20
67.09168299999999
 30
0.0
 11
237.007767
 21
72.553562
 31
0.0
  0
LINE
  5
BC2A
330
BBDC
100
AcDbEntity
  8
2
  6
Continuous
100
AcDbLine
 10
232.3077669999999
 20
72.553562
 30
0.0
 11
237.007767
 21
67.09168299999999
 31
0.0
  0
LINE
  5
BC2B
330
BBDC
100
AcDbEntity
  8
1
  6
Continuous
100
AcDbLine
 10
237.007767
 20
72.553562
 30
0.0
 11
232.3077669999999
 21
72.553562
 31
0.0
  0
LINE
  5
BC2C
330
BBDC
100
AcDbEntity
  8
1
  6
Continuous
100
AcDbLine
 10
237.007767
 20
67.09168299999999
 30
0.0
 11
232.3077669999999
 21
67.09168299999999
 31
0.0
  0
LINE
  5
BC2D
330
BBDC
100
AcDbEntity
  8
2
  6
Continuous
100
AcDbLine
 10
237.007767
 20
78.01544199999998
 30
0.0
 11
232.3077669999999
 21
72.553562
 31
0.0
  0
LINE
  5
BC2E
330
BBDC
100
AcDbEntity
  8
2
  6
Continuous
100
AcDbLine
 10
237.007767
 20
72.553562
 30
0.0
 11
232.3077669999999
 21
78.01544199999998
 31
0.0
  0
ARC
  5
BC2F
330
BBDC
100
AcDbEntity
  8
1
  6
Continuous
100
AcDbCircle
 10
237.007767
 20
77.71544200000002
 30
0.0
 40
0.3
100
AcDbArc
 50
0.0
 51
90.0
  0
ARC
  5
BC30
330
BBDC
100
AcDbEntity
  8
1
  6
Continuous
100
AcDbCircle
 10
237.007767
 20
67.391683
 30
0.0
 40
0.3
100
AcDbArc
 50
270.0
 51
0.0
  0
LINE
  5
BC31
330
BBDC
100
AcDbEntity
  8
1
  6
Continuous
100
AcDbLine
 10
237.3077669999999
 20
77.71544200000002
 30
0.0
 11
237.3077669999999
 21
67.391683
 31
0.0
  0
ARC
  5
BC32
330
BBDC
100
AcDbEntity
  8
1
  6
Continuous
100
AcDbCircle
 10
232.107767
 20
79.35356199999998
 30
0.0
 40
0.2
100
AcDbArc
 50
0.0
 51
60.0
  0
LINE
  5
BC33
330
BBDC
100
AcDbEntity
  8
1
  6
Continuous
100
AcDbLine
 10
230.7077669999999
 20
83.55356200000001
 30
0.0
 11
232.207767
 21
82.053562
 31
0.0
  0
LINE
  5
BC34
330
BBDC
100
AcDbEntity
  8
1
  6
Continuous
100
AcDbLine
 10
230.7077669999999
 20
83.55356200000001
 30
0.0
 11
230.7077669999999
 21
77.646462
 31
0.0
  0
ARC
  5
BC35
330
BBDC
100
AcDbEntity
  8
1
  6
Continuous
100
AcDbCircle
 10
222.8118899999997
 20
72.553562
 30
0.0
 40
9.395877
100
AcDbArc
 50
327.177679
 51
32.822321
  0
LINE
  5
BC36
330
BBDC
100
AcDbEntity
  8
1
  6
Continuous
100
AcDbLine
 10
215.0077669999999
 20
95.553562
 30
0.0
 11
217.5077669999998
 21
95.553562
 31
0.0
  0
ARC
  5
BC37
330
BBDC
100
AcDbEntity
  8
1
  6
Continuous
100
AcDbCircle
 10
215.0077669999999
 20
93.55356200000001
 30
0.0
 40
2.0
100
AcDbArc
 50
90.0
 51
180.0
  0
LINE
  5
BC38
330
BBDC
100
AcDbEntity
  8
4
  6
CENTER
100
AcDbLine
 10
124.2004529999999
 20
220.9843259999999
 30
0.0
 11
26.339583
 21
277.4843259999999
 31
0.0
  0
LINE
  5
BC39
330
BBDC
100
AcDbEntity
  8
1
  6
Continuous
100
AcDbLine
 10
65.58829399999999
 20
279.9767489999999
 30
0.0
 11
65.58829399999999
 21
246.991904
 31
0.0
  0
LINE
  5
BC3A
330
BBDC
100
AcDbEntity
  8
1
  6
Continuous
100
AcDbLine
 10
62.08829399999999
 20
246.4843259999999
 30
0.0
 11
62.08829399999999
 21
276.3274609999999
 31
0.0
  0
LINE
  5
BC3B
330
BBDC
100
AcDbEntity
  8
1
  6
Continuous
100
AcDbLine
 10
60.338294
 20
278.4146129999999
 30
0.0
 11
60.338294
 21
246.9843259999999
 31
0.0
  0
LINE
  5
BC3C
330
BBDC
100
AcDbEntity
  8
1
  6
Continuous
100
AcDbLine
 10
35.588294
 20
279.9767489999999
 30
0.0
 11
35.588294
 21
246.991904
 31
0.0
  0
LINE
  5
BC3D
330
BBDC
100
AcDbEntity
  8
1
  6
Continuous
100
AcDbLine
 10
39.088294
 20
246.4843259999999
 30
0.0
 11
39.088294
 21
276.3274609999999
 31
0.0
  0
LINE
  5
BC3E
330
BBDC
100
AcDbEntity
  8
1
  6
Continuous
100
AcDbLine
 10
40.83829399999999
 20
278.4146129999999
 30
0.0
 11
40.83829399999999
 21
246.9843259999999
 31
0.0
  0
ARC
  5
BC3F
330
BBDC
100
AcDbEntity
  8
1
  6
Continuous
100
AcDbCircle
 10
50.588294
 20
263.4843259999997
 30
0.0
 40
23.0
100
AcDbArc
 50
299.938239
 51
240.0617609999999
  0
LINE
  5
BC40
330
BBDC
100
AcDbEntity
  8
4
  6
CENTER
100
AcDbLine
 10
50.588294
 20
178.484326
 30
0.0
 11
50.588294
 21
291.4843259999999
 31
0.0
  0
ARC
  5
BC41
330
BBDC
100
AcDbEntity
  8
5
  6
PHANTOM
100
AcDbCircle
 10
159.5607259999999
 20
418.2301149999998
 30
0.0
 40
200.0
100
AcDbArc
 50
240.839691
 51
245.973223
  0
LINE
  5
BC42
330
BBDC
100
AcDbEntity
  8
1
  6
Continuous
100
AcDbLine
 10
62.08829399999999
 20
254.121258
 30
0.0
 11
65.310046
 21
246.690492
 31
0.0
  0
LINE
  5
BC43
330
BBDC
100
AcDbEntity
  8
4
  6
CENTER
100
AcDbLine
 10
78.58829399999997
 20
263.4843259999997
 30
0.0
 11
22.588294
 21
263.4843259999997
 31
0.0
  0
LINE
  5
BC44
330
BBDC
100
AcDbEntity
  8
1
  6
Continuous
100
AcDbLine
 10
56.81701799999999
 20
185.6703159999999
 30
0.0
 11
61.002422
 21
225.671593
 31
0.0
  0
LINE
  5
BC45
330
BBDC
100
AcDbEntity
  8
1
  6
Continuous
100
AcDbLine
 10
40.174167
 20
225.671593
 30
0.0
 11
44.35957
 21
185.6703159999999
 31
0.0
  0
ARC
  5
BC46
330
BBDC
100
AcDbEntity
  8
1
  6
Continuous
100
AcDbCircle
 10
50.588294
 20
208.4843259999999
 30
0.0
 40
25.0
100
AcDbArc
 50
259.3779459999999
 51
280.6220539999998
  0
ARC
  5
BC47
330
BBDC
100
AcDbEntity
  8
1
  6
Continuous
100
AcDbCircle
 10
46.348711
 20
185.878443
 30
0.0
 40
2.0
100
AcDbArc
 50
185.9732229999999
 51
259.3779459999999
  0
ARC
  5
BC48
330
BBDC
100
AcDbEntity
  8
1
  6
Continuous
100
AcDbCircle
 10
54.827877
 20
185.878443
 30
0.0
 40
2.0
100
AcDbArc
 50
280.6220539999998
 51
354.0267769999999
  0
ARC
  5
BC49
330
BBDC
100
AcDbEntity
  8
1
  6
Continuous
100
AcDbCircle
 10
-137.911706
 20
246.4843259999999
 30
0.0
 40
200.0
100
AcDbArc
 50
354.0267769999999
 51
0.0
  0
ARC
  5
BC4A
330
BBDC
100
AcDbEntity
  8
1
  6
Continuous
100
AcDbCircle
 10
239.088294
 20
246.4843259999999
 30
0.0
 40
200.0
100
AcDbArc
 50
180.0
 51
185.9732229999999
  0
LINE
  5
BC4B
330
BBDC
100
AcDbEntity
  8
1
  6
Continuous
100
AcDbLine
 10
47.701543
 20
256.4843259999999
 30
0.0
 11
53.47504499999999
 21
256.4843259999999
 31
0.0
  0
LINE
  5
BC4C
330
BBDC
100
AcDbEntity
  8
1
  6
Continuous
100
AcDbLine
 10
47.412868
 20
255.984326
 30
0.0
 11
53.763721
 21
255.984326
 31
0.0
  0
LINE
  5
BC4D
330
BBDC
100
AcDbEntity
  8
1
  6
Continuous
100
AcDbLine
 10
47.124192
 20
255.4843259999999
 30
0.0
 11
54.05239599999998
 21
255.4843259999999
 31
0.0
  0
LINE
  5
BC4E
330
BBDC
100
AcDbEntity
  8
1
  6
Continuous
100
AcDbLine
 10
46.83551699999997
 20
254.9843259999999
 30
0.0
 11
54.341071
 21
254.9843259999999
 31
0.0
  0
LINE
  5
BC4F
330
BBDC
100
AcDbEntity
  8
1
  6
Continuous
100
AcDbLine
 10
46.546842
 20
254.4843259999999
 30
0.0
 11
54.62974599999999
 21
254.4843259999999
 31
0.0
  0
LINE
  5
BC50
330
BBDC
100
AcDbEntity
  8
1
  6
Continuous
100
AcDbLine
 10
46.258167
 20
253.984326
 30
0.0
 11
54.91842099999999
 21
253.984326
 31
0.0
  0
LINE
  5
BC51
330
BBDC
100
AcDbEntity
  8
1
  6
Continuous
100
AcDbLine
 10
45.969492
 20
253.4843259999999
 30
0.0
 11
50.588294
 21
253.4843259999999
 31
0.0
  0
ARC
  5
BC52
330
BBDC
100
AcDbEntity
  8
1
  6
Continuous
100
AcDbCircle
 10
50.588294
 20
245.484326
 30
0.0
 40
8.0
100
AcDbArc
 50
12.83958799999999
 51
167.160412
  0
LINE
  5
BC53
330
BBDC
100
AcDbEntity
  8
1
  6
Continuous
100
AcDbLine
 10
43.66009099999998
 20
249.4843259999999
 30
0.0
 11
50.588294
 21
261.4843259999997
 31
0.0
  0
LINE
  5
BC54
330
BBDC
100
AcDbEntity
  8
1
  6
Continuous
100
AcDbLine
 10
45.68081699999999
 20
252.9843259999999
 30
0.0
 11
47.804412
 21
252.9843259999999
 31
0.0
  0
LINE
  5
BC55
330
BBDC
100
AcDbEntity
  8
1
  6
Continuous
100
AcDbLine
 10
45.39214199999999
 20
252.4843259999999
 30
0.0
 11
46.715311
 21
252.4843259999999
 31
0.0
  0
LINE
  5
BC56
330
BBDC
100
AcDbEntity
  8
1
  6
Continuous
100
AcDbLine
 10
45.10346699999998
 20
251.984326
 30
0.0
 11
45.924605
 21
251.984326
 31
0.0
  0
ARC
  5
BC57
330
BBDC
100
AcDbEntity
  8
1
  6
Continuous
100
AcDbCircle
 10
41.81333
 20
247.4843259999999
 30
0.0
 40
1.0
100
AcDbArc
 50
270.0
 51
347.160412
  0
ARC
  5
BC58
330
BBDC
100
AcDbEntity
  8
1
  6
Continuous
100
AcDbCircle
 10
37.58829399999999
 20
246.991904
 30
0.0
 40
2.0
100
AcDbArc
 50
180.0
 51
231.75338
  0
LINE
  5
BC59
330
BBDC
100
AcDbEntity
  8
1
  6
Continuous
100
AcDbLine
 10
41.33829399999997
 20
246.4843259999999
 30
0.0
 11
41.81333
 21
246.4843259999999
 31
0.0
  0
LINE
  5
BC5A
330
BBDC
100
AcDbEntity
  8
1
  6
Continuous
100
AcDbLine
 10
44.814791
 20
251.4843259999999
 30
0.0
 11
45.296791
 21
251.4843259999999
 31
0.0
  0
LINE
  5
BC5B
330
BBDC
100
AcDbEntity
  8
1
  6
Continuous
100
AcDbLine
 10
44.526116
 20
250.9843259999999
 30
0.0
 11
44.77881899999998
 21
250.9843259999999
 31
0.0
  0
LINE
  5
BC5C
330
BBDC
100
AcDbEntity
  8
1
  6
Continuous
100
AcDbLine
 10
44.23744099999999
 20
250.4843259999999
 30
0.0
 11
44.343296
 21
250.4843259999999
 31
0.0
  0
LINE
  5
BC5D
330
BBDC
100
AcDbEntity
  8
1
  6
Continuous
100
AcDbLine
 10
43.94876599999999
 20
249.984326
 30
0.0
 11
43.97391599999997
 21
249.984326
 31
0.0
  0
LINE
  5
BC5E
330
BBDC
100
AcDbEntity
  8
1
  6
Continuous
100
AcDbLine
 10
39.088294
 20
254.121258
 30
0.0
 11
35.86654199999999
 21
246.690492
 31
0.0
  0
LINE
  5
BC5F
330
BBDC
100
AcDbEntity
  8
1
  6
Continuous
100
AcDbLine
 10
50.29961899999999
 20
260.9843259999997
 30
0.0
 11
50.876969
 21
260.9843259999997
 31
0.0
  0
LINE
  5
BC60
330
BBDC
100
AcDbEntity
  8
1
  6
Continuous
100
AcDbLine
 10
50.010944
 20
260.4843259999999
 30
0.0
 11
51.165644
 21
260.4843259999999
 31
0.0
  0
LINE
  5
BC61
330
BBDC
100
AcDbEntity
  8
1
  6
Continuous
100
AcDbLine
 10
49.72226899999999
 20
259.9843259999999
 30
0.0
 11
51.454319
 21
259.9843259999999
 31
0.0
  0
LINE
  5
BC62
330
BBDC
100
AcDbEntity
  8
1
  6
Continuous
100
AcDbLine
 10
49.433594
 20
259.4843259999997
 30
0.0
 11
51.742995
 21
259.4843259999997
 31
0.0
  0
LINE
  5
BC63
330
BBDC
100
AcDbEntity
  8
1
  6
Continuous
100
AcDbLine
 10
49.144918
 20
258.9843259999997
 30
0.0
 11
52.03167
 21
258.9843259999997
 31
0.0
  0
LINE
  5
BC64
330
BBDC
100
AcDbEntity
  8
1
  6
Continuous
100
AcDbLine
 10
48.85624299999999
 20
258.4843259999999
 30
0.0
 11
52.32034500000001
 21
258.4843259999999
 31
0.0
  0
LINE
  5
BC65
330
BBDC
100
AcDbEntity
  8
1
  6
Continuous
100
AcDbLine
 10
48.567568
 20
257.9843259999999
 30
0.0
 11
52.60901999999999
 21
257.9843259999999
 31
0.0
  0
LINE
  5
BC66
330
BBDC
100
AcDbEntity
  8
1
  6
Continuous
100
AcDbLine
 10
48.27889299999998
 20
257.4843259999997
 30
0.0
 11
52.897695
 21
257.4843259999997
 31
0.0
  0
LINE
  5
BC67
330
BBDC
100
AcDbEntity
  8
1
  6
Continuous
100
AcDbLine
 10
47.990218
 20
256.9843259999997
 30
0.0
 11
53.18636999999998
 21
256.9843259999997
 31
0.0
  0
LINE
  5
BC68
330
BBDC
100
AcDbEntity
  8
1
  6
Continuous
100
AcDbLine
 10
50.588294
 20
253.4843259999999
 30
0.0
 11
55.20709599999999
 21
253.4843259999999
 31
0.0
  0
LINE
  5
BC69
330
BBDC
100
AcDbEntity
  8
1
  6
Continuous
100
AcDbLine
 10
53.372176
 20
252.9843259999999
 30
0.0
 11
55.495771
 21
252.9843259999999
 31
0.0
  0
LINE
  5
BC6A
330
BBDC
100
AcDbEntity
  8
1
  6
Continuous
100
AcDbLine
 10
54.461277
 20
252.4843259999999
 30
0.0
 11
55.784447
 21
252.4843259999999
 31
0.0
  0
LINE
  5
BC6B
330
BBDC
100
AcDbEntity
  8
1
  6
Continuous
100
AcDbLine
 10
55.251984
 20
251.984326
 30
0.0
 11
56.07312199999999
 21
251.984326
 31
0.0
  0
LINE
  5
BC6C
330
BBDC
100
AcDbEntity
  8
1
  6
Continuous
100
AcDbLine
 10
59.36325799999998
 20
246.4843259999999
 30
0.0
 11
59.838294
 21
246.4843259999999
 31
0.0
  0
ARC
  5
BC6D
330
BBDC
100
AcDbEntity
  8
1
  6
Continuous
100
AcDbCircle
 10
59.36325799999998
 20
247.4843259999999
 30
0.0
 40
1.0
100
AcDbArc
 50
192.839588
 51
270.0
  0
LINE
  5
BC6E
330
BBDC
100
AcDbEntity
  8
1
  6
Continuous
100
AcDbLine
 10
55.87979699999999
 20
251.4843259999999
 30
0.0
 11
56.36179699999999
 21
251.4843259999999
 31
0.0
  0
LINE
  5
BC6F
330
BBDC
100
AcDbEntity
  8
1
  6
Continuous
100
AcDbLine
 10
56.397769
 20
250.9843259999999
 30
0.0
 11
56.650472
 21
250.9843259999999
 31
0.0
  0
LINE
  5
BC70
330
BBDC
100
AcDbEntity
  8
1
  6
Continuous
100
AcDbLine
 10
56.83329200000001
 20
250.4843259999999
 30
0.0
 11
56.939147
 21
250.4843259999999
 31
0.0
  0
LINE
  5
BC71
330
BBDC
100
AcDbEntity
  8
1
  6
Continuous
100
AcDbLine
 10
57.202672
 20
249.984326
 30
0.0
 11
57.22782200000001
 21
249.984326
 31
0.0
  0
LINE
  5
BC72
330
BBDC
100
AcDbEntity
  8
1
  6
Continuous
100
AcDbLine
 10
57.36601499999999
 20
249.734326
 30
0.0
 11
57.37216
 21
249.734326
 31
0.0
  0
LINE
  5
BC73
330
BBDC
100
AcDbEntity
  8
5
  6
PHANTOM
100
AcDbLine
 10
78.12801800000002
 20
235.5590609999999
 30
0.0
 11
114.8628409999999
 21
219.1830879999999
 31
0.0
  0
ARC
  5
BC74
330
BBDC
100
AcDbEntity
  8
5
  6
PHANTOM
100
AcDbCircle
 10
98.219691
 20
235.9843259999999
 30
0.0
 40
25.0
100
AcDbArc
 50
319.377946
 51
340.622054
  0
ARC
  5
BC75
330
BBDC
100
AcDbEntity
  8
5
  6
PHANTOM
100
AcDbCircle
 10
115.677169
 20
221.009798
 30
0.0
 40
2.0
100
AcDbArc
 50
245.973223
 51
319.377946
  0
LINE
  5
BC76
330
BBDC
100
AcDbEntity
  8
5
  6
PHANTOM
100
AcDbLine
 10
121.091565
 20
229.971554
 30
0.0
 11
88.54214499999995
 21
253.5968589999999
 31
0.0
  0
ARC
  5
BC77
330
BBDC
100
AcDbEntity
  8
5
  6
PHANTOM
100
AcDbCircle
 10
-28.93927399999999
 20
91.738537
 30
0.0
 40
200.0
100
AcDbArc
 50
54.026777
 51
59.16030899999999
  0
ARC
  5
BC78
330
BBDC
100
AcDbEntity
  8
1
  6
Continuous
100
AcDbCircle
 10
63.588294
 20
246.991904
 30
0.0
 40
2.0
100
AcDbArc
 50
308.24662
 51
0.0
  0
ARC
  5
BC79
330
BBDC
100
AcDbEntity
  8
5
  6
PHANTOM
100
AcDbCircle
 10
119.916752
 20
228.3529709999999
 30
0.0
 40
2.0
100
AcDbArc
 50
340.622054
 51
54.026777
  0
LINE
  5
BC7A
330
BBDC
100
AcDbEntity
  8
1
  6
Continuous
100
AcDbLine
 10
62.08829399999999
 20
272.847394
 30
0.0
 11
65.310046
 21
280.27816
 31
0.0
  0
ARC
  5
BC7B
330
BBDC
100
AcDbEntity
  8
1
  6
Continuous
100
AcDbCircle
 10
50.588294
 20
256.4843259999999
 30
0.0
 40
24.0
100
AcDbArc
 50
64.41699799999999
 51
115.583002
  0
ARC
  5
BC7C
330
BBDC
100
AcDbEntity
  8
1
  6
Continuous
100
AcDbCircle
 10
37.58829399999999
 20
279.9767489999999
 30
0.0
 40
2.0
100
AcDbArc
 50
128.24662
 51
180.0
  0
ARC
  5
BC7D
330
BBDC
100
AcDbEntity
  8
1
  6
Continuous
100
AcDbCircle
 10
41.088294
 20
276.3274609999999
 30
0.0
 40
2.0
100
AcDbArc
 50
115.583002
 51
180.0
  0
LINE
  5
BC7E
330
BBDC
100
AcDbEntity
  8
1
  6
Continuous
100
AcDbLine
 10
39.088294
 20
272.847394
 30
0.0
 11
35.86654199999999
 21
280.27816
 31
0.0
  0
ARC
  5
BC7F
330
BBDC
100
AcDbEntity
  8
1
  6
Continuous
100
AcDbCircle
 10
60.08829399999999
 20
276.3274609999999
 30
0.0
 40
2.0
100
AcDbArc
 50
0.0
 51
64.41699799999999
  0
ARC
  5
BC80
330
BBDC
100
AcDbEntity
  8
1
  6
Continuous
100
AcDbCircle
 10
63.588294
 20
279.9767489999999
 30
0.0
 40
2.0
100
AcDbArc
 50
0.0
 51
51.75337999999999
  0
LINE
  5
BC81
330
BBDC
100
AcDbEntity
  8
1
  6
Continuous
100
AcDbLine
 10
232.207767
 20
272.9843259999999
 30
0.0
 11
232.207767
 21
253.984326
 31
0.0
  0
LINE
  5
BC82
330
BBDC
100
AcDbEntity
  8
1
  6
Continuous
100
AcDbLine
 10
232.3077669999999
 20
256.684326
 30
0.0
 11
232.3077669999999
 21
270.2843259999997
 31
0.0
  0
LINE
  5
BC83
330
BBDC
100
AcDbEntity
  8
1
  6
Continuous
100
AcDbLine
 10
205.057767
 20
276.291455
 30
0.0
 11
205.057767
 21
250.6771969999999
 31
0.0
  0
LINE
  5
BC84
330
BBDC
100
AcDbEntity
  8
1
  6
Continuous
100
AcDbLine
 10
205.0077669999998
 20
250.4843259999999
 30
0.0
 11
205.0077669999998
 21
276.4843259999997
 31
0.0
  0
LINE
  5
BC85
330
BBDC
100
AcDbEntity
  8
1
  6
Continuous
100
AcDbLine
 10
213.0077669999999
 20
284.4843259999997
 30
0.0
 11
213.0077669999999
 21
242.4843259999999
 31
0.0
  0
LINE
  5
BC86
330
BBDC
100
AcDbEntity
  8
1
  6
Continuous
100
AcDbLine
 10
216.507767
 20
286.4843259999997
 30
0.0
 11
216.507767
 21
240.4843259999999
 31
0.0
  0
LINE
  5
BC87
330
BBDC
100
AcDbEntity
  8
1
  6
Continuous
100
AcDbLine
 10
217.5077669999998
 20
286.4843259999997
 30
0.0
 11
217.5077669999998
 21
240.4843259999999
 31
0.0
  0
LINE
  5
BC88
330
BBDC
100
AcDbEntity
  8
2
  6
Continuous
100
AcDbLine
 10
237.007767
 20
268.946206
 30
0.0
 11
232.3077669999999
 21
263.4843259999997
 31
0.0
  0
LINE
  5
BC89
330
BBDC
100
AcDbEntity
  8
2
  6
Continuous
100
AcDbLine
 10
237.007767
 20
263.4843259999997
 30
0.0
 11
232.3077669999999
 21
268.946206
 31
0.0
  0
LINE
  5
BC8A
330
BBDC
100
AcDbEntity
  8
1
  6
Continuous
100
AcDbLine
 10
237.3077669999999
 20
268.646206
 30
0.0
 11
237.3077669999999
 21
258.322447
 31
0.0
  0
LINE
  5
BC8B
330
BBDC
100
AcDbEntity
  8
1
  6
Continuous
100
AcDbLine
 10
189.377905
 20
252.1365139999999
 30
0.0
 11
204.5532639999999
 21
254.063543
 31
0.0
  0
LINE
  5
BC8C
330
BBDC
100
AcDbEntity
  8
1
  6
Continuous
100
AcDbLine
 10
185.0683509999998
 20
247.9523369999999
 30
0.0
 11
205.0077669999998
 21
250.4843259999999
 31
0.0
  0
LINE
  5
BC8D
330
BBDC
100
AcDbEntity
  8
4
  6
CENTER
100
AcDbLine
 10
167.9077669999998
 20
263.4843259999997
 30
0.0
 11
240.8336779999999
 21
263.4843259999997
 31
0.0
  0
LINE
  5
BC8E
330
BBDC
100
AcDbEntity
  8
1
  6
Continuous
100
AcDbLine
 10
179.301221
 20
185.2522439999999
 30
0.0
 11
174.8588819999999
 21
223.2761329999999
 31
0.0
  0
LINE
  5
BC8F
330
BBDC
100
AcDbEntity
  8
1
  6
Continuous
100
AcDbLine
 10
185.007767
 20
247.176345
 30
0.0
 11
185.007767
 21
197.6411799999999
 31
0.0
  0
LINE
  5
BC90
330
BBDC
100
AcDbEntity
  8
1
  6
Continuous
100
AcDbLine
 10
189.507767
 20
189.827472
 30
0.0
 11
189.507767
 21
188.484326
 31
0.0
  0
ARC
  5
BC91
330
BBDC
100
AcDbEntity
  8
1
  6
Continuous
100
AcDbCircle
 10
185.507767
 20
189.827472
 30
0.0
 40
4.0
100
AcDbArc
 50
0.0
 51
45.0
  0
ARC
  5
BC92
330
BBDC
100
AcDbEntity
  8
1
  6
Continuous
100
AcDbCircle
 10
189.007767
 20
197.6411799999999
 30
0.0
 40
4.0
100
AcDbArc
 50
180.0
 51
225.0
  0
LINE
  5
BC93
330
BBDC
100
AcDbEntity
  8
1
  6
Continuous
100
AcDbLine
 10
188.336195
 20
192.655899
 30
0.0
 11
186.1793399999999
 21
194.8127529999999
 31
0.0
  0
ARC
  5
BC94
330
BBDC
100
AcDbEntity
  8
1
  6
Continuous
100
AcDbCircle
 10
181.28771
 20
185.484326
 30
0.0
 40
2.0
100
AcDbArc
 50
186.6636699999999
 51
270.0
  0
LINE
  5
BC95
330
BBDC
100
AcDbEntity
  8
1
  6
Continuous
100
AcDbLine
 10
181.28771
 20
183.484326
 30
0.0
 11
184.507767
 21
183.484326
 31
0.0
  0
ARC
  5
BC96
330
BBDC
100
AcDbEntity
  8
1
  6
Continuous
100
AcDbCircle
 10
184.507767
 20
188.484326
 30
0.0
 40
5.0
100
AcDbArc
 50
270.0
 51
0.0
  0
ARC
  5
BC97
330
BBDC
100
AcDbEntity
  8
1
  6
Continuous
100
AcDbCircle
 10
373.5077669999999
 20
246.4843259999999
 30
0.0
 40
200.0
100
AcDbArc
 50
180.0
 51
186.6636699999999
  0
ARC
  5
BC98
330
BBDC
100
AcDbEntity
  8
1
  6
Continuous
100
AcDbCircle
 10
190.0077669999998
 20
247.176345
 30
0.0
 40
5.0
100
AcDbArc
 50
97.23692200000002
 51
180.0
  0
LINE
  5
BC99
330
BBDC
100
AcDbEntity
  8
1
  6
Continuous
100
AcDbLine
 10
231.957767
 20
253.7343259999999
 30
0.0
 11
217.5077669999998
 21
253.7343259999999
 31
0.0
  0
LINE
  5
BC9A
330
BBDC
100
AcDbEntity
  8
1
  6
Continuous
100
AcDbLine
 10
213.5258639999999
 20
241.1412089999998
 30
0.0
 11
205.187292
 21
250.341418
 31
0.0
  0
ARC
  5
BC9B
330
BBDC
100
AcDbEntity
  8
1
  6
Continuous
100
AcDbCircle
 10
215.0077669999999
 20
242.4843259999999
 30
0.0
 40
2.0
100
AcDbArc
 50
180.0
 51
270.0
  0
LINE
  5
BC9C
330
BBDC
100
AcDbEntity
  8
1
  6
Continuous
100
AcDbLine
 10
215.0077669999999
 20
240.4843259999999
 30
0.0
 11
217.5077669999998
 21
240.4843259999999
 31
0.0
  0
LINE
  5
BC9D
330
BBDC
100
AcDbEntity
  8
1
  6
Continuous
100
AcDbLine
 10
205.0077669999998
 20
254.4843259999999
 30
0.0
 11
205.057767
 21
254.4843259999999
 31
0.0
  0
ARC
  5
BC9E
330
BBDC
100
AcDbEntity
  8
1
  6
Continuous
100
AcDbCircle
 10
205.5577669999999
 20
250.6771969999999
 30
0.0
 40
0.5
100
AcDbArc
 50
180.0
 51
222.187464
  0
LINE
  5
BC9F
330
BBDC
100
AcDbEntity
  8
1
  6
Continuous
100
AcDbLine
 10
219.0077669999999
 20
243.9843259999999
 30
0.0
 11
219.0077669999999
 21
248.4843259999999
 31
0.0
  0
LINE
  5
BCA0
330
BBDC
100
AcDbEntity
  8
1
  6
Continuous
100
AcDbLine
 10
219.0077669999999
 20
243.9843259999999
 30
0.0
 11
217.5077669999998
 21
243.9843259999999
 31
0.0
  0
LINE
  5
BCA1
330
BBDC
100
AcDbEntity
  8
1
  6
Continuous
100
AcDbLine
 10
219.0077669999999
 20
248.4843259999999
 30
0.0
 11
217.5077669999998
 21
248.4843259999999
 31
0.0
  0
ARC
  5
BCA2
330
BBDC
100
AcDbEntity
  8
1
  6
Continuous
100
AcDbCircle
 10
237.007767
 20
258.322447
 30
0.0
 40
0.3
100
AcDbArc
 50
270.0
 51
0.0
  0
LINE
  5
BCA3
330
BBDC
100
AcDbEntity
  8
1
  6
Continuous
100
AcDbLine
 10
231.957767
 20
253.7343259999999
 30
0.0
 11
232.207767
 21
253.984326
 31
0.0
  0
ARC
  5
BCA4
330
BBDC
100
AcDbEntity
  8
1
  6
Continuous
100
AcDbCircle
 10
232.107767
 20
256.684326
 30
0.0
 40
0.2
100
AcDbArc
 50
300.0
 51
0.0
  0
LINE
  5
BCA5
330
BBDC
100
AcDbEntity
  8
2
  6
Continuous
100
AcDbLine
 10
232.3077669999999
 20
258.022447
 30
0.0
 11
237.007767
 21
263.4843259999997
 31
0.0
  0
LINE
  5
BCA6
330
BBDC
100
AcDbEntity
  8
2
  6
Continuous
100
AcDbLine
 10
232.3077669999999
 20
263.4843259999997
 30
0.0
 11
237.007767
 21
258.022447
 31
0.0
  0
LINE
  5
BCA7
330
BBDC
100
AcDbEntity
  8
1
  6
Continuous
100
AcDbLine
 10
237.007767
 20
263.4843259999997
 30
0.0
 11
232.3077669999999
 21
263.4843259999997
 31
0.0
  0
LINE
  5
BCA8
330
BBDC
100
AcDbEntity
  8
1
  6
Continuous
100
AcDbLine
 10
237.007767
 20
258.022447
 30
0.0
 11
232.3077669999999
 21
258.022447
 31
0.0
  0
LINE
  5
BCA9
330
BBDC
100
AcDbEntity
  8
1
  6
Continuous
100
AcDbLine
 10
205.0077669999998
 20
276.4843259999997
 30
0.0
 11
186.7789169999998
 21
280.2748919999999
 31
0.0
  0
LINE
  5
BCAA
330
BBDC
100
AcDbEntity
  8
1
  6
Continuous
100
AcDbLine
 10
204.5611189999999
 20
273.5798019999999
 30
0.0
 11
186.181462
 21
277.4017279999998
 31
0.0
  0
LINE
  5
BCAB
330
BBDC
100
AcDbEntity
  8
1
  6
Continuous
100
AcDbLine
 10
231.957767
 20
273.2343259999999
 30
0.0
 11
217.5077669999998
 21
273.2343259999999
 31
0.0
  0
ARC
  5
BCAC
330
BBDC
100
AcDbEntity
  8
1
  6
Continuous
100
AcDbCircle
 10
215.0077669999999
 20
284.4843259999997
 30
0.0
 40
2.0
100
AcDbArc
 50
90.0
 51
180.0
  0
LINE
  5
BCAD
330
BBDC
100
AcDbEntity
  8
1
  6
Continuous
100
AcDbLine
 10
213.5258639999999
 20
285.827443
 30
0.0
 11
205.187292
 21
276.6272339999998
 31
0.0
  0
ARC
  5
BCAE
330
BBDC
100
AcDbEntity
  8
1
  6
Continuous
100
AcDbCircle
 10
205.5577669999999
 20
276.291455
 30
0.0
 40
0.5
100
AcDbArc
 50
137.812536
 51
180.0
  0
LINE
  5
BCAF
330
BBDC
100
AcDbEntity
  8
1
  6
Continuous
100
AcDbLine
 10
205.057767
 20
274.8343259999999
 30
0.0
 11
205.0077669999998
 21
274.8343259999999
 31
0.0
  0
LINE
  5
BCB0
330
BBDC
100
AcDbEntity
  8
1
  6
Continuous
100
AcDbLine
 10
219.0077669999999
 20
282.9843259999999
 30
0.0
 11
219.0077669999999
 21
278.4843259999997
 31
0.0
  0
LINE
  5
BCB1
330
BBDC
100
AcDbEntity
  8
1
  6
Continuous
100
AcDbLine
 10
219.0077669999999
 20
278.4843259999997
 30
0.0
 11
217.5077669999998
 21
278.4843259999997
 31
0.0
  0
LINE
  5
BCB2
330
BBDC
100
AcDbEntity
  8
1
  6
Continuous
100
AcDbLine
 10
219.0077669999999
 20
282.9843259999999
 30
0.0
 11
217.5077669999998
 21
282.9843259999999
 31
0.0
  0
LINE
  5
BCB3
330
BBDC
100
AcDbEntity
  8
1
  6
Continuous
100
AcDbLine
 10
215.0077669999999
 20
286.4843259999997
 30
0.0
 11
217.5077669999998
 21
286.4843259999997
 31
0.0
  0
ARC
  5
BCB4
330
BBDC
100
AcDbEntity
  8
1
  6
Continuous
100
AcDbCircle
 10
237.007767
 20
268.646206
 30
0.0
 40
0.3
100
AcDbArc
 50
0.0
 51
90.0
  0
LINE
  5
BCB5
330
BBDC
100
AcDbEntity
  8
1
  6
Continuous
100
AcDbLine
 10
232.207767
 20
272.9843259999999
 30
0.0
 11
231.957767
 21
273.2343259999999
 31
0.0
  0
ARC
  5
BCB6
330
BBDC
100
AcDbEntity
  8
1
  6
Continuous
100
AcDbCircle
 10
232.107767
 20
270.2843259999997
 30
0.0
 40
0.2
100
AcDbArc
 50
0.0
 51
60.0
  0
LINE
  5
BCB7
330
BBDC
100
AcDbEntity
  8
1
  6
Continuous
100
AcDbLine
 10
237.007767
 20
268.946206
 30
0.0
 11
232.3077669999999
 21
268.946206
 31
0.0
  0
LINE
  5
BCB8
330
BBDC
100
AcDbEntity
  8
4
  6
CENTER
100
AcDbLine
 10
327.515077
 20
72.553574
 30
0.0
 11
312.8764799999999
 21
72.553574
 31
0.0
  0
ARC
  5
BCB9
330
BBDC
100
AcDbEntity
  8
1
  6
Continuous
100
AcDbCircle
 10
304.959338
 20
65.053574
 30
0.0
 40
32.055667
100
AcDbArc
 50
166.4692029999999
 51
193.530797
  0
ARC
  5
BCBA
330
BBDC
100
AcDbEntity
  8
1
  6
Continuous
100
AcDbCircle
 10
244.8480029999998
 20
65.053574
 30
0.0
 40
32.055667
100
AcDbArc
 50
346.469203
 51
13.530797
  0
LINE
  5
BCBB
330
BBDC
100
AcDbEntity
  8
1
  6
Continuous
100
AcDbLine
 10
271.4036699999999
 20
86.55357399999996
 30
0.0
 11
271.4036699999999
 21
58.55357399999999
 31
0.0
  0
LINE
  5
BCBC
330
BBDC
100
AcDbEntity
  8
1
  6
Continuous
100
AcDbLine
 10
272.9036699999999
 20
57.553574
 30
0.0
 11
272.9036699999999
 21
87.55357399999999
 31
0.0
  0
LINE
  5
BCBD
330
BBDC
100
AcDbEntity
  8
1
  6
Continuous
100
AcDbLine
 10
276.90367
 20
57.553574
 30
0.0
 11
276.90367
 21
87.55357399999999
 31
0.0
  0
LINE
  5
BCBE
330
BBDC
100
AcDbEntity
  8
1
  6
Continuous
100
AcDbLine
 10
269.9036699999999
 20
84.553574
 30
0.0
 11
269.9036699999999
 21
60.553573
 31
0.0
  0
LINE
  5
BCBF
330
BBDC
100
AcDbEntity
  8
1
  6
Continuous
100
AcDbLine
 10
278.4036699999999
 20
58.55357399999999
 30
0.0
 11
278.4036699999999
 21
86.55357399999996
 31
0.0
  0
ARC
  5
BCC0
330
BBDC
100
AcDbEntity
  8
1
  6
Continuous
100
AcDbCircle
 10
270.65367
 20
60.553573
 30
0.0
 40
0.75
100
AcDbArc
 50
180.0
 51
0.0
  0
LINE
  5
BCC1
330
BBDC
100
AcDbEntity
  8
1
  6
Continuous
100
AcDbLine
 10
276.90367
 20
58.55357399999999
 30
0.0
 11
278.4036699999999
 21
58.55357399999999
 31
0.0
  0
LINE
  5
BCC2
330
BBDC
100
AcDbEntity
  8
1
  6
Continuous
100
AcDbLine
 10
278.4036699999999
 20
61.20458000000001
 30
0.0
 11
276.90367
 21
61.20458000000001
 31
0.0
  0
LINE
  5
BCC3
330
BBDC
100
AcDbEntity
  8
1
  6
Continuous
100
AcDbLine
 10
278.4036699999999
 20
59.59524399999999
 30
0.0
 11
276.90367
 21
59.59524399999999
 31
0.0
  0
LINE
  5
BCC4
330
BBDC
100
AcDbEntity
  8
1
  6
Continuous
100
AcDbLine
 10
276.90367
 20
57.553574
 30
0.0
 11
272.9036699999999
 21
57.553574
 31
0.0
  0
LINE
  5
BCC5
330
BBDC
100
AcDbEntity
  8
1
  6
Continuous
100
AcDbLine
 10
271.4036699999999
 20
58.55357399999999
 30
0.0
 11
272.9036699999999
 21
58.55357399999999
 31
0.0
  0
ARC
  5
BCC6
330
BBDC
100
AcDbEntity
  8
1
  6
Continuous
100
AcDbCircle
 10
270.65367
 20
84.553574
 30
0.0
 40
0.75
100
AcDbArc
 50
0.0
 51
180.0
  0
LINE
  5
BCC7
330
BBDC
100
AcDbEntity
  8
1
  6
Continuous
100
AcDbLine
 10
269.9036699999999
 20
72.553573
 30
0.0
 11
271.4036699999999
 21
74.053573
 31
0.0
  0
LINE
  5
BCC8
330
BBDC
100
AcDbEntity
  8
1
  6
Continuous
100
AcDbLine
 10
269.9036699999999
 20
71.053573
 30
0.0
 11
271.4036699999999
 21
72.553573
 31
0.0
  0
LINE
  5
BCC9
330
BBDC
100
AcDbEntity
  8
4
  6
CENTER
100
AcDbLine
 10
266.9036699999999
 20
72.553573
 30
0.0
 11
281.4036699999999
 21
72.553573
 31
0.0
  0
LINE
  5
BCCA
330
BBDC
100
AcDbEntity
  8
1
  6
Continuous
100
AcDbLine
 10
276.90367
 20
86.55357399999996
 30
0.0
 11
278.4036699999999
 21
86.55357399999996
 31
0.0
  0
LINE
  5
BCCB
330
BBDC
100
AcDbEntity
  8
1
  6
Continuous
100
AcDbLine
 10
278.4036699999999
 20
85.51190400000001
 30
0.0
 11
276.90367
 21
85.51190400000001
 31
0.0
  0
LINE
  5
BCCC
330
BBDC
100
AcDbEntity
  8
1
  6
Continuous
100
AcDbLine
 10
278.4036699999999
 20
83.902569
 30
0.0
 11
276.90367
 21
83.902569
 31
0.0
  0
LINE
  5
BCCD
330
BBDC
100
AcDbEntity
  8
1
  6
Continuous
100
AcDbLine
 10
276.90367
 20
87.55357399999999
 30
0.0
 11
272.9036699999999
 21
87.55357399999999
 31
0.0
  0
LINE
  5
BCCE
330
BBDC
100
AcDbEntity
  8
1
  6
Continuous
100
AcDbLine
 10
271.4036699999999
 20
86.55357399999996
 30
0.0
 11
272.9036699999999
 21
86.55357399999996
 31
0.0
  0
LINE
  5
BCCF
330
BBDC
100
AcDbEntity
  8
1
  6
Continuous
100
AcDbLine
 10
273.793398
 20
72.553573
 30
0.0
 11
276.0139419999998
 21
72.553574
 31
0.0
  0
ARC
  5
BCD0
330
BBDC
100
AcDbEntity
  8
1
  6
Continuous
100
AcDbCircle
 10
304.959338
 20
80.05357399999999
 30
0.0
 40
32.055667
100
AcDbArc
 50
166.4692029999999
 51
193.530797
  0
ARC
  5
BCD1
330
BBDC
100
AcDbEntity
  8
1
  6
Continuous
100
AcDbCircle
 10
244.8480029999998
 20
80.05357399999999
 30
0.0
 40
32.055667
100
AcDbArc
 50
346.469203
 51
13.530797
  0
LINE
  5
BCD2
330
BBDC
100
AcDbEntity
  8
1
  6
Continuous
100
AcDbLine
 10
319.07648
 20
81.55357399999997
 30
0.0
 11
319.07648
 21
63.55357399999999
 31
0.0
  0
LINE
  5
BCD3
330
BBDC
100
AcDbEntity
  8
1
  6
Continuous
100
AcDbLine
 10
315.8764799999999
 20
81.55357399999997
 30
0.0
 11
315.8764799999999
 21
63.55357399999999
 31
0.0
  0
LINE
  5
BCD4
330
BBDC
100
AcDbEntity
  8
1
  6
Continuous
100
AcDbLine
 10
319.07648
 20
63.55357399999999
 30
0.0
 11
315.8764799999999
 21
63.55357399999999
 31
0.0
  0
LINE
  5
BCD5
330
BBDC
100
AcDbEntity
  8
1
  6
Continuous
100
AcDbLine
 10
319.07648
 20
81.55357399999997
 30
0.0
 11
315.8764799999999
 21
81.55357399999997
 31
0.0
  0
LINE
  5
BCD6
330
BBDC
100
AcDbEntity
  8
1
  6
Continuous
100
AcDbLine
 10
343.1045539999999
 20
80.553574
 30
0.0
 11
343.1045539999999
 21
64.553574
 31
0.0
  0
LINE
  5
BCD7
330
BBDC
100
AcDbEntity
  8
1
  6
Continuous
100
AcDbLine
 10
341.904554
 20
80.553574
 30
0.0
 11
341.904554
 21
64.553574
 31
0.0
  0
LINE
  5
BCD8
330
BBDC
100
AcDbEntity
  8
1
  6
Continuous
100
AcDbLine
 10
324.515077
 20
81.55357399999997
 30
0.0
 11
324.515077
 21
63.55357399999999
 31
0.0
  0
LINE
  5
BCD9
330
BBDC
100
AcDbEntity
  8
1
  6
Continuous
100
AcDbLine
 10
322.9150769999999
 20
81.55357399999997
 30
0.0
 11
322.9150769999999
 21
63.55357399999999
 31
0.0
  0
LINE
  5
BCDA
330
BBDC
100
AcDbEntity
  8
1
  6
Continuous
100
AcDbLine
 10
324.515077
 20
63.55357399999999
 30
0.0
 11
322.9150769999999
 21
63.55357399999999
 31
0.0
  0
LINE
  5
BCDB
330
BBDC
100
AcDbEntity
  8
1
  6
Continuous
100
AcDbLine
 10
343.1045539999999
 20
64.553574
 30
0.0
 11
341.904554
 21
64.553574
 31
0.0
  0
LINE
  5
BCDC
330
BBDC
100
AcDbEntity
  8
1
  6
Continuous
100
AcDbLine
 10
324.515077
 20
81.55357399999997
 30
0.0
 11
322.9150769999999
 21
81.55357399999997
 31
0.0
  0
LINE
  5
BCDD
330
BBDC
100
AcDbEntity
  8
1
  6
Continuous
100
AcDbLine
 10
347.904554
 20
76.55357399999998
 30
0.0
 11
344.404554
 21
76.55357399999998
 31
0.0
  0
ARC
  5
BCDE
330
BBDC
100
AcDbEntity
  8
1
  6
Continuous
100
AcDbCircle
 10
342.1295779999999
 20
70.553574
 30
0.0
 40
5.774976999999998
100
AcDbArc
 50
339.7375
 51
20.2625
  0
ARC
  5
BCDF
330
BBDC
100
AcDbEntity
  8
1
  6
Continuous
100
AcDbCircle
 10
350.1795309999998
 20
70.553574
 30
0.0
 40
5.774976999999998
100
AcDbArc
 50
159.7375
 51
200.2625
  0
LINE
  5
BCE0
330
BBDC
100
AcDbEntity
  8
1
  6
Continuous
100
AcDbLine
 10
347.904554
 20
68.55357399999999
 30
0.0
 11
344.404554
 21
68.55357399999999
 31
0.0
  0
LINE
  5
BCE1
330
BBDC
100
AcDbEntity
  8
1
  6
Continuous
100
AcDbLine
 10
344.761934
 20
72.553574
 30
0.0
 11
347.547175
 21
72.553574
 31
0.0
  0
LINE
  5
BCE2
330
BBDC
100
AcDbEntity
  8
1
  6
Continuous
100
AcDbLine
 10
347.904554
 20
76.55357399999998
 30
0.0
 11
347.904554
 21
68.55357399999999
 31
0.0
  0
ARC
  5
BCE3
330
BBDC
100
AcDbEntity
  8
1
  6
Continuous
100
AcDbCircle
 10
350.1795309999998
 20
74.553574
 30
0.0
 40
5.774976999999998
100
AcDbArc
 50
159.7375
 51
200.2625
  0
ARC
  5
BCE4
330
BBDC
100
AcDbEntity
  8
1
  6
Continuous
100
AcDbCircle
 10
342.1295779999999
 20
74.553574
 30
0.0
 40
5.774976999999998
100
AcDbArc
 50
339.7375
 51
20.2625
  0
LINE
  5
BCE5
330
BBDC
100
AcDbEntity
  8
1
  6
Continuous
100
AcDbLine
 10
343.1045539999999
 20
80.553574
 30
0.0
 11
341.904554
 21
80.553574
 31
0.0
  0
LINE
  5
BCE6
330
BBDC
100
AcDbEntity
  8
1
  6
Continuous
100
AcDbLine
 10
344.404554
 20
77.15357400000002
 30
0.0
 11
343.1045539999999
 21
77.15357400000002
 31
0.0
  0
LINE
  5
BCE7
330
BBDC
100
AcDbEntity
  8
1
  6
Continuous
100
AcDbLine
 10
344.404554
 20
73.85357399999998
 30
0.0
 11
343.1045539999999
 21
72.553574
 31
0.0
  0
LINE
  5
BCE8
330
BBDC
100
AcDbEntity
  8
4
  6
CENTER
100
AcDbLine
 10
350.904554
 20
72.553574
 30
0.0
 11
338.904554
 21
72.553574
 31
0.0
  0
LINE
  5
BCE9
330
BBDC
100
AcDbEntity
  8
1
  6
Continuous
100
AcDbLine
 10
344.404554
 20
67.953574
 30
0.0
 11
343.1045539999999
 21
67.953574
 31
0.0
  0
LINE
  5
BCEA
330
BBDC
100
AcDbEntity
  8
1
  6
Continuous
100
AcDbLine
 10
344.404554
 20
67.953574
 30
0.0
 11
344.404554
 21
77.15357400000002
 31
0.0
  0
LINE
  5
BCEB
330
BBDC
100
AcDbEntity
  8
1
  6
Continuous
100
AcDbLine
 10
344.404554
 20
72.553574
 30
0.0
 11
343.1045539999999
 21
71.253574
 31
0.0
  0
ARC
  5
BCEC
330
BBDC
100
AcDbEntity
  8
1
  6
Continuous
100
AcDbCircle
 10
340.2635089999999
 20
263.4843259999997
 30
0.0
 40
7.641045
100
AcDbArc
 50
342.4072529999999
 51
17.59274699999998
  0
ARC
  5
BCED
330
BBDC
100
AcDbEntity
  8
1
  6
Continuous
100
AcDbCircle
 10
352.0455989999998
 20
263.4843259999997
 30
0.0
 40
7.641045
100
AcDbArc
 50
162.407253
 51
197.592747
  0
LINE
  5
BCEE
330
BBDC
100
AcDbEntity
  8
1
  6
Continuous
100
AcDbLine
 10
347.904554
 20
267.484826
 30
0.0
 11
347.904554
 21
259.484826
 31
0.0
  0
LINE
  5
BCEF
330
BBDC
100
AcDbEntity
  8
1
  6
Continuous
100
AcDbLine
 10
269.9036699999999
 20
263.4843259999997
 30
0.0
 11
271.4036699999999
 21
264.9843259999999
 31
0.0
  0
ARC
  5
BCF0
330
BBDC
100
AcDbEntity
  8
1
  6
Continuous
100
AcDbCircle
 10
234.3111149999999
 20
263.4843259999997
 30
0.0
 40
42.592555
100
AcDbArc
 50
348.268368
 51
11.731632
  0
ARC
  5
BCF1
330
BBDC
100
AcDbEntity
  8
1
  6
Continuous
100
AcDbCircle
 10
315.496225
 20
263.4843259999997
 30
0.0
 40
42.592555
100
AcDbArc
 50
168.2683679999998
 51
191.7316319999999
  0
LINE
  5
BCF2
330
BBDC
100
AcDbEntity
  8
1
  6
Continuous
100
AcDbLine
 10
276.90367
 20
248.484324
 30
0.0
 11
276.90367
 21
278.484328
 31
0.0
  0
LINE
  5
BCF3
330
BBDC
100
AcDbEntity
  8
1
  6
Continuous
100
AcDbLine
 10
272.9036699999999
 20
248.4843259999999
 30
0.0
 11
272.9036699999999
 21
278.4843259999997
 31
0.0
  0
LINE
  5
BCF4
330
BBDC
100
AcDbEntity
  8
1
  6
Continuous
100
AcDbLine
 10
278.4036699999999
 20
249.4843259999999
 30
0.0
 11
278.4036699999999
 21
277.4843259999999
 31
0.0
  0
LINE
  5
BCF5
330
BBDC
100
AcDbEntity
  8
1
  6
Continuous
100
AcDbLine
 10
271.4036699999999
 20
277.4843259999999
 30
0.0
 11
271.4036699999999
 21
249.4843259999999
 31
0.0
  0
LINE
  5
BCF6
330
BBDC
100
AcDbEntity
  8
1
  6
Continuous
100
AcDbLine
 10
269.9036699999999
 20
275.4843259999999
 30
0.0
 11
269.9036699999999
 21
251.4843259999999
 31
0.0
  0
LINE
  5
BCF7
330
BBDC
100
AcDbEntity
  8
1
  6
Continuous
100
AcDbLine
 10
344.404554
 20
264.7843259999999
 30
0.0
 11
343.1045539999999
 21
263.4843259999997
 31
0.0
  0
LINE
  5
BCF8
330
BBDC
100
AcDbEntity
  8
1
  6
Continuous
100
AcDbLine
 10
344.404554
 20
258.8843259999998
 30
0.0
 11
344.404554
 21
268.0843259999999
 31
0.0
  0
LINE
  5
BCF9
330
BBDC
100
AcDbEntity
  8
1
  6
Continuous
100
AcDbLine
 10
341.904554
 20
271.4843259999997
 30
0.0
 11
341.904554
 21
255.4843259999999
 31
0.0
  0
LINE
  5
BCFA
330
BBDC
100
AcDbEntity
  8
1
  6
Continuous
100
AcDbLine
 10
343.1045539999999
 20
271.4843259999997
 30
0.0
 11
343.1045539999999
 21
255.4843259999999
 31
0.0
  0
LINE
  5
BCFB
330
BBDC
100
AcDbEntity
  8
1
  6
Continuous
100
AcDbLine
 10
322.9150769999999
 20
272.4843259999999
 30
0.0
 11
322.9150769999999
 21
254.4843259999999
 31
0.0
  0
LINE
  5
BCFC
330
BBDC
100
AcDbEntity
  8
1
  6
Continuous
100
AcDbLine
 10
324.515077
 20
272.4843259999999
 30
0.0
 11
324.515077
 21
254.4843259999999
 31
0.0
  0
LINE
  5
BCFD
330
BBDC
100
AcDbEntity
  8
1
  6
Continuous
100
AcDbLine
 10
315.8764799999999
 20
272.4843259999999
 30
0.0
 11
315.8764799999999
 21
254.4843259999999
 31
0.0
  0
LINE
  5
BCFE
330
BBDC
100
AcDbEntity
  8
1
  6
Continuous
100
AcDbLine
 10
319.07648
 20
272.4843259999999
 30
0.0
 11
319.07648
 21
254.4843259999999
 31
0.0
  0
LINE
  5
BCFF
330
BBDC
100
AcDbEntity
  8
4
  6
CENTER
100
AcDbLine
 10
327.515077
 20
263.4843259999997
 30
0.0
 11
312.8764799999999
 21
263.4843259999997
 31
0.0
  0
LINE
  5
BD00
330
BBDC
100
AcDbEntity
  8
1
  6
Continuous
100
AcDbLine
 10
269.9036699999999
 20
261.9843259999999
 30
0.0
 11
271.4036699999999
 21
263.4843259999997
 31
0.0
  0
ARC
  5
BD01
330
BBDC
100
AcDbEntity
  8
1
  6
Continuous
100
AcDbCircle
 10
270.65367
 20
251.4843259999999
 30
0.0
 40
0.75
100
AcDbArc
 50
180.0
 51
0.0
  0
LINE
  5
BD02
330
BBDC
100
AcDbEntity
  8
4
  6
CENTER
100
AcDbLine
 10
266.9036699999999
 20
263.4843259999997
 30
0.0
 11
281.4036699999999
 21
263.4843259999997
 31
0.0
  0
LINE
  5
BD03
330
BBDC
100
AcDbEntity
  8
1
  6
Continuous
100
AcDbLine
 10
278.4036699999999
 20
257.7545989999999
 30
0.0
 11
276.90367
 21
257.7545989999999
 31
0.0
  0
LINE
  5
BD04
330
BBDC
100
AcDbEntity
  8
1
  6
Continuous
100
AcDbLine
 10
278.4036699999999
 20
255.286745
 30
0.0
 11
276.90367
 21
255.286745
 31
0.0
  0
LINE
  5
BD05
330
BBDC
100
AcDbEntity
  8
1
  6
Continuous
100
AcDbLine
 10
276.0139419999998
 20
254.824072
 30
0.0
 11
273.793398
 21
254.824072
 31
0.0
  0
LINE
  5
BD06
330
BBDC
100
AcDbEntity
  8
1
  6
Continuous
100
AcDbLine
 10
275.5639249999999
 20
246.163818
 30
0.0
 11
276.9036709999999
 21
248.4843259999999
 31
0.0
  0
LINE
  5
BD07
330
BBDC
100
AcDbEntity
  8
1
  6
Continuous
100
AcDbLine
 10
274.243416
 20
246.163818
 30
0.0
 11
272.9036699999999
 21
248.4843259999999
 31
0.0
  0
LINE
  5
BD08
330
BBDC
100
AcDbEntity
  8
1
  6
Continuous
100
AcDbLine
 10
275.5639249999999
 20
246.163818
 30
0.0
 11
274.243416
 21
246.163818
 31
0.0
  0
LINE
  5
BD09
330
BBDC
100
AcDbEntity
  8
1
  6
Continuous
100
AcDbLine
 10
278.4036699999999
 20
249.4843259999999
 30
0.0
 11
276.90367
 21
249.4843259999999
 31
0.0
  0
LINE
  5
BD0A
330
BBDC
100
AcDbEntity
  8
1
  6
Continuous
100
AcDbLine
 10
276.90367
 20
249.4843259999999
 30
0.0
 11
278.4036699999999
 21
249.4843259999999
 31
0.0
  0
LINE
  5
BD0B
330
BBDC
100
AcDbEntity
  8
1
  6
Continuous
100
AcDbLine
 10
271.4036699999999
 20
249.4843259999999
 30
0.0
 11
272.9036699999999
 21
249.4843259999999
 31
0.0
  0
ARC
  5
BD0C
330
BBDC
100
AcDbEntity
  8
1
  6
Continuous
100
AcDbCircle
 10
265.9218829999999
 20
250.493945
 30
0.0
 40
10.98178699999998
100
AcDbArc
 50
346.759553
 51
23.222372
  0
ARC
  5
BD0D
330
BBDC
100
AcDbEntity
  8
1
  6
Continuous
100
AcDbCircle
 10
283.8854569999999
 20
250.493945
 30
0.0
 40
10.98178699999998
100
AcDbArc
 50
156.7776279999999
 51
193.240431
  0
LINE
  5
BD0E
330
BBDC
100
AcDbEntity
  8
1
  6
Continuous
100
AcDbLine
 10
319.07648
 20
254.4843259999999
 30
0.0
 11
315.8764799999999
 21
254.4843259999999
 31
0.0
  0
LINE
  5
BD0F
330
BBDC
100
AcDbEntity
  8
1
  6
Continuous
100
AcDbLine
 10
324.515077
 20
254.4843259999999
 30
0.0
 11
322.9150769999999
 21
254.4843259999999
 31
0.0
  0
ARC
  5
BD10
330
BBDC
100
AcDbEntity
  8
1
  6
Continuous
100
AcDbCircle
 10
345.859468
 20
260.020826
 30
0.0
 40
2.045087
100
AcDbArc
 50
334.3862009999999
 51
34.386201
  0
LINE
  5
BD11
330
BBDC
100
AcDbEntity
  8
1
  6
Continuous
100
AcDbLine
 10
347.904554
 20
259.484826
 30
0.0
 11
347.547175
 21
258.8658259999998
 31
0.0
  0
LINE
  5
BD12
330
BBDC
100
AcDbEntity
  8
1
  6
Continuous
100
AcDbLine
 10
344.404554
 20
259.484826
 30
0.0
 11
344.761934
 21
258.8658259999998
 31
0.0
  0
LINE
  5
BD13
330
BBDC
100
AcDbEntity
  8
1
  6
Continuous
100
AcDbLine
 10
344.761934
 20
258.8658259999998
 30
0.0
 11
347.547175
 21
258.8658259999998
 31
0.0
  0
LINE
  5
BD14
330
BBDC
100
AcDbEntity
  8
1
  6
Continuous
100
AcDbLine
 10
344.761934
 20
261.174826
 30
0.0
 11
347.547175
 21
261.174826
 31
0.0
  0
ARC
  5
BD15
330
BBDC
100
AcDbEntity
  8
1
  6
Continuous
100
AcDbCircle
 10
346.4496409999999
 20
260.020826
 30
0.0
 40
2.045087
100
AcDbArc
 50
145.613799
 51
205.613799
  0
LINE
  5
BD16
330
BBDC
100
AcDbEntity
  8
1
  6
Continuous
100
AcDbLine
 10
344.404554
 20
263.4843259999997
 30
0.0
 11
343.1045539999999
 21
262.1843259999999
 31
0.0
  0
LINE
  5
BD17
330
BBDC
100
AcDbEntity
  8
1
  6
Continuous
100
AcDbLine
 10
344.404554
 20
258.8843259999998
 30
0.0
 11
343.1045539999999
 21
258.8843259999998
 31
0.0
  0
LINE
  5
BD18
330
BBDC
100
AcDbEntity
  8
1
  6
Continuous
100
AcDbLine
 10
343.1045539999999
 20
255.4843259999999
 30
0.0
 11
341.904554
 21
255.4843259999999
 31
0.0
  0
LINE
  5
BD19
330
BBDC
100
AcDbEntity
  8
4
  6
CENTER
100
AcDbLine
 10
350.904554
 20
263.4843259999997
 30
0.0
 11
338.904554
 21
263.4843259999997
 31
0.0
  0
ARC
  5
BD1A
330
BBDC
100
AcDbEntity
  8
1
  6
Continuous
100
AcDbCircle
 10
270.65367
 20
275.4843259999999
 30
0.0
 40
0.75
100
AcDbArc
 50
0.0
 51
180.0
  0
LINE
  5
BD1B
330
BBDC
100
AcDbEntity
  8
1
  6
Continuous
100
AcDbLine
 10
275.5639249999999
 20
280.8048339999999
 30
0.0
 11
276.9036709999999
 21
278.4843259999997
 31
0.0
  0
LINE
  5
BD1C
330
BBDC
100
AcDbEntity
  8
1
  6
Continuous
100
AcDbLine
 10
274.243416
 20
280.8048339999999
 30
0.0
 11
272.9036699999999
 21
278.4843259999997
 31
0.0
  0
LINE
  5
BD1D
330
BBDC
100
AcDbEntity
  8
1
  6
Continuous
100
AcDbLine
 10
275.5639249999999
 20
280.8048339999999
 30
0.0
 11
274.243416
 21
280.8048339999999
 31
0.0
  0
LINE
  5
BD1E
330
BBDC
100
AcDbEntity
  8
1
  6
Continuous
100
AcDbLine
 10
278.4036699999999
 20
277.4843259999999
 30
0.0
 11
276.90367
 21
277.4843259999999
 31
0.0
  0
LINE
  5
BD1F
330
BBDC
100
AcDbEntity
  8
1
  6
Continuous
100
AcDbLine
 10
276.90367
 20
277.4843259999999
 30
0.0
 11
278.4036699999999
 21
277.4843259999999
 31
0.0
  0
LINE
  5
BD20
330
BBDC
100
AcDbEntity
  8
1
  6
Continuous
100
AcDbLine
 10
271.4036699999999
 20
277.4843259999999
 30
0.0
 11
272.9036699999999
 21
277.4843259999999
 31
0.0
  0
LINE
  5
BD21
330
BBDC
100
AcDbEntity
  8
1
  6
Continuous
100
AcDbLine
 10
278.4036699999999
 20
271.6819069999999
 30
0.0
 11
276.90367
 21
271.6819069999999
 31
0.0
  0
LINE
  5
BD22
330
BBDC
100
AcDbEntity
  8
1
  6
Continuous
100
AcDbLine
 10
276.0139419999998
 20
272.1445799999999
 30
0.0
 11
273.793398
 21
272.1445799999999
 31
0.0
  0
LINE
  5
BD23
330
BBDC
100
AcDbEntity
  8
1
  6
Continuous
100
AcDbLine
 10
278.4036699999999
 20
269.2140529999999
 30
0.0
 11
276.90367
 21
269.2140529999999
 31
0.0
  0
ARC
  5
BD24
330
BBDC
100
AcDbEntity
  8
1
  6
Continuous
100
AcDbCircle
 10
265.9218829999999
 20
276.4747069999998
 30
0.0
 40
10.98178699999998
100
AcDbArc
 50
336.777628
 51
13.24044699999999
  0
ARC
  5
BD25
330
BBDC
100
AcDbEntity
  8
1
  6
Continuous
100
AcDbCircle
 10
283.8854569999999
 20
276.4747069999998
 30
0.0
 40
10.98178699999998
100
AcDbArc
 50
166.7595689999999
 51
203.222372
  0
LINE
  5
BD26
330
BBDC
100
AcDbEntity
  8
1
  6
Continuous
100
AcDbLine
 10
319.07648
 20
272.4843259999999
 30
0.0
 11
315.8764799999999
 21
272.4843259999999
 31
0.0
  0
LINE
  5
BD27
330
BBDC
100
AcDbEntity
  8
1
  6
Continuous
100
AcDbLine
 10
324.515077
 20
272.4843259999999
 30
0.0
 11
322.9150769999999
 21
272.4843259999999
 31
0.0
  0
ARC
  5
BD28
330
BBDC
100
AcDbEntity
  8
1
  6
Continuous
100
AcDbCircle
 10
345.859468
 20
266.948826
 30
0.0
 40
2.045087
100
AcDbArc
 50
325.6137989999999
 51
25.61379899999999
  0
LINE
  5
BD29
330
BBDC
100
AcDbEntity
  8
1
  6
Continuous
100
AcDbLine
 10
347.904554
 20
267.484826
 30
0.0
 11
347.547175
 21
268.1038259999999
 31
0.0
  0
LINE
  5
BD2A
330
BBDC
100
AcDbEntity
  8
1
  6
Continuous
100
AcDbLine
 10
344.761934
 20
265.7938259999998
 30
0.0
 11
347.547175
 21
265.7938259999998
 31
0.0
  0
LINE
  5
BD2B
330
BBDC
100
AcDbEntity
  8
1
  6
Continuous
100
AcDbLine
 10
344.761934
 20
268.1038259999999
 30
0.0
 11
347.547175
 21
268.1038259999999
 31
0.0
  0
ARC
  5
BD2C
330
BBDC
100
AcDbEntity
  8
1
  6
Continuous
100
AcDbCircle
 10
346.4496409999999
 20
266.948826
 30
0.0
 40
2.045087
100
AcDbArc
 50
154.3862009999998
 51
214.3862009999998
  0
LINE
  5
BD2D
330
BBDC
100
AcDbEntity
  8
1
  6
Continuous
100
AcDbLine
 10
344.404554
 20
267.484826
 30
0.0
 11
344.761934
 21
268.1038259999999
 31
0.0
  0
LINE
  5
BD2E
330
BBDC
100
AcDbEntity
  8
1
  6
Continuous
100
AcDbLine
 10
344.404554
 20
268.0843259999999
 30
0.0
 11
343.1045539999999
 21
268.0843259999999
 31
0.0
  0
LINE
  5
BD2F
330
BBDC
100
AcDbEntity
  8
1
  6
Continuous
100
AcDbLine
 10
343.1045539999999
 20
271.4843259999997
 30
0.0
 11
341.904554
 21
271.4843259999997
 31
0.0
  0
LINE
  5
BD30
330
BBDC
100
AcDbEntity
  8
1
  6
Continuous
100
AcDbLine
 10
462.3708399999999
 20
263.4843259999997
 30
0.0
 11
462.5854799999998
 21
264.074047
 31
0.0
  0
LINE
  5
BD31
330
BBDC
100
AcDbEntity
  8
1
  6
Continuous
100
AcDbLine
 10
460.378929
 20
263.4843259999997
 30
0.0
 11
460.1642879999998
 21
264.074047
 31
0.0
  0
LINE
  5
BD32
330
BBDC
100
AcDbEntity
  8
1
  6
Continuous
100
AcDbLine
 10
457.374884
 20
261.1743259999999
 30
0.0
 11
457.374884
 21
265.7933259999999
 31
0.0
  0
LINE
  5
BD33
330
BBDC
100
AcDbEntity
  8
1
  6
Continuous
100
AcDbLine
 10
465.374884
 20
261.1743259999999
 30
0.0
 11
465.374884
 21
265.7933259999999
 31
0.0
  0
CIRCLE
  5
BD34
330
BBDC
100
AcDbEntity
  8
1
  6
Continuous
100
AcDbCircle
 10
461.374884
 20
263.4843259999997
 30
0.0
 40
4.0
  0
CIRCLE
  5
BD35
330
BBDC
100
AcDbEntity
  8
1
  6
Continuous
100
AcDbCircle
 10
461.374884
 20
263.4843259999997
 30
0.0
 40
3.1
  0
CIRCLE
  5
BD36
330
BBDC
100
AcDbEntity
  8
1
  6
Continuous
100
AcDbCircle
 10
461.374884
 20
263.4843259999997
 30
0.0
 40
15.0
  0
LINE
  5
BD37
330
BBDC
100
AcDbEntity
  8
4
  6
CENTER
100
AcDbLine
 10
387.762725
 20
220.9843259999999
 30
0.0
 11
485.623596
 21
277.4843259999999
 31
0.0
  0
CIRCLE
  5
BD38
330
BBDC
100
AcDbEntity
  8
1
  6
Continuous
100
AcDbCircle
 10
461.374884
 20
263.4843259999997
 30
0.0
 40
23.0
  0
CIRCLE
  5
BD39
330
BBDC
100
AcDbEntity
  8
1
  6
Continuous
100
AcDbCircle
 10
461.374884
 20
263.4843259999997
 30
0.0
 40
9.0
  0
CIRCLE
  5
BD3A
330
BBDC
100
AcDbEntity
  8
1
  6
Continuous
100
AcDbCircle
 10
461.374884
 20
263.4843259999997
 30
0.0
 40
8.0
  0
ARC
  5
BD3B
330
BBDC
100
AcDbEntity
  8
1
  6
Continuous
100
AcDbCircle
 10
461.374884
 20
263.4843259999997
 30
0.0
 40
13.0
100
AcDbArc
 50
168.9125109999999
 51
191.087489
  0
ARC
  5
BD3C
330
BBDC
100
AcDbEntity
  8
1
  6
Continuous
100
AcDbCircle
 10
461.374884
 20
263.4843259999997
 30
0.0
 40
11.3
100
AcDbArc
 50
167.218188
 51
192.7818119999997
  0
LINE
  5
BD3D
330
BBDC
100
AcDbEntity
  8
1
  6
Continuous
100
AcDbLine
 10
446.374884
 20
254.824072
 30
0.0
 11
446.374884
 21
272.1445799999999
 31
0.0
  0
ARC
  5
BD3E
330
BBDC
100
AcDbEntity
  8
1
  6
Continuous
100
AcDbCircle
 10
461.374884
 20
263.4843259999997
 30
0.0
 40
14.0
100
AcDbArc
 50
155.841252
 51
204.158748
  0
ARC
  5
BD3F
330
BBDC
100
AcDbEntity
  8
1
  6
Continuous
100
AcDbCircle
 10
461.374884
 20
263.4843259999997
 30
0.0
 40
13.0
100
AcDbArc
 50
342.079787
 51
17.920213
  0
ARC
  5
BD40
330
BBDC
100
AcDbEntity
  8
1
  6
Continuous
100
AcDbCircle
 10
461.374884
 20
263.4843259999997
 30
0.0
 40
11.3
100
AcDbArc
 50
339.2689149999998
 51
20.731085
  0
LINE
  5
BD41
330
BBDC
100
AcDbEntity
  8
1
  6
Continuous
100
AcDbLine
 10
476.3748839999998
 20
254.824072
 30
0.0
 11
476.3748839999998
 21
272.1445799999999
 31
0.0
  0
ARC
  5
BD42
330
BBDC
100
AcDbEntity
  8
1
  6
Continuous
100
AcDbCircle
 10
461.374884
 20
263.4843259999997
 30
0.0
 40
14.0
100
AcDbArc
 50
335.8412519999999
 51
24.158748
  0
ARC
  5
BD43
330
BBDC
100
AcDbEntity
  8
1
  6
Continuous
100
AcDbCircle
 10
461.374884
 20
263.4843259999997
 30
0.0
 40
11.0
100
AcDbArc
 50
297.5801989999999
 51
62.419801
  0
ARC
  5
BD44
330
BBDC
100
AcDbEntity
  8
2
  6
Continuous
100
AcDbCircle
 10
461.374884
 20
263.4843259999997
 30
0.0
 40
10.18799999999999
100
AcDbArc
 50
286.8615909999999
 51
73.13840899999998
  0
ARC
  5
BD45
330
BBDC
100
AcDbEntity
  8
1
  6
Continuous
100
AcDbCircle
 10
461.374884
 20
263.4843259999997
 30
0.0
 40
11.0
100
AcDbArc
 50
117.5801989999998
 51
242.419801
  0
ARC
  5
BD46
330
BBDC
100
AcDbEntity
  8
2
  6
Continuous
100
AcDbCircle
 10
461.374884
 20
263.4843259999997
 30
0.0
 40
10.18799999999999
100
AcDbArc
 50
106.8615909999999
 51
253.1384089999999
  0
LINE
  5
BD47
330
BBDC
100
AcDbEntity
  8
4
  6
CENTER
100
AcDbLine
 10
461.374884
 20
291.4843259999999
 30
0.0
 11
461.374884
 21
178.484326
 31
0.0
  0
ARC
  5
BD48
330
BBDC
100
AcDbEntity
  8
5
  6
PHANTOM
100
AcDbCircle
 10
352.4024519999999
 20
418.2301149999998
 30
0.0
 40
200.0
100
AcDbArc
 50
294.0267769999999
 51
299.1603089999999
  0
LINE
  5
BD49
330
BBDC
100
AcDbEntity
  8
4
  6
CENTER
100
AcDbLine
 10
489.3748839999998
 20
263.4843259999997
 30
0.0
 11
433.374884
 21
263.4843259999997
 31
0.0
  0
LINE
  5
BD4A
330
BBDC
100
AcDbEntity
  8
1
  6
Continuous
100
AcDbLine
 10
446.374884
 20
254.824072
 30
0.0
 11
461.374884
 21
246.163818
 31
0.0
  0
ARC
  5
BD4B
330
BBDC
100
AcDbEntity
  8
5
  6
PHANTOM
100
AcDbCircle
 10
413.7434869999998
 20
235.9843259999999
 30
0.0
 40
25.0
100
AcDbArc
 50
199.377946
 51
220.6220539999999
  0
LINE
  5
BD4C
330
BBDC
100
AcDbEntity
  8
5
  6
PHANTOM
100
AcDbLine
 10
433.83516
 20
235.5590609999999
 30
0.0
 11
397.100337
 21
219.1830879999999
 31
0.0
  0
ARC
  5
BD4D
330
BBDC
100
AcDbEntity
  8
5
  6
PHANTOM
100
AcDbCircle
 10
396.2860099999998
 20
221.009798
 30
0.0
 40
2.0
100
AcDbArc
 50
220.6220539999999
 51
294.0267769999999
  0
LINE
  5
BD4E
330
BBDC
100
AcDbEntity
  8
5
  6
PHANTOM
100
AcDbLine
 10
390.8716129999999
 20
229.971554
 30
0.0
 11
423.421033
 21
253.5968589999999
 31
0.0
  0
ARC
  5
BD4F
330
BBDC
100
AcDbEntity
  8
5
  6
PHANTOM
100
AcDbCircle
 10
392.046427
 20
228.3529709999999
 30
0.0
 40
2.0
100
AcDbArc
 50
125.973223
 51
199.377946
  0
ARC
  5
BD50
330
BBDC
100
AcDbEntity
  8
5
  6
PHANTOM
100
AcDbCircle
 10
540.9024519999998
 20
91.738537
 30
0.0
 40
200.0
100
AcDbArc
 50
120.8396909999999
 51
125.973223
  0
ARC
  5
BD51
330
BBDC
100
AcDbEntity
  8
1
  6
Continuous
100
AcDbCircle
 10
460.4708269999998
 20
220.35586
 30
0.0
 40
0.6253750000000001
100
AcDbArc
 50
212.8499999999999
 51
222.8699999999999
  0
ARC
  5
BD52
330
BBDC
100
AcDbEntity
  8
1
  6
Continuous
100
AcDbCircle
 10
460.3200769999999
 20
220.35586
 30
0.0
 40
0.6253750000000001
100
AcDbArc
 50
317.1304
 51
42.86999999999999
  0
ARC
  5
BD53
330
BBDC
100
AcDbEntity
  8
1
  6
Continuous
100
AcDbCircle
 10
459.5708269999998
 20
220.35586
 30
0.0
 40
0.6253750000000001
100
AcDbArc
 50
137.1299999999999
 51
222.8699999999999
  0
ARC
  5
BD54
330
BBDC
100
AcDbEntity
  8
1
  6
Continuous
100
AcDbCircle
 10
459.4200749999997
 20
220.35586
 30
0.0
 40
0.6253750000000001
100
AcDbArc
 50
317.1304
 51
327.1503
  0
LINE
  5
BD55
330
BBDC
100
AcDbEntity
  8
1
  6
Continuous
100
AcDbLine
 10
466.234036
 20
196.6046259999999
 30
0.0
 11
469.3025849999997
 21
225.9317519999999
 31
0.0
  0
LINE
  5
BD56
330
BBDC
100
AcDbEntity
  8
1
  6
Continuous
100
AcDbLine
 10
453.447183
 20
225.9317519999999
 30
0.0
 11
456.515731
 21
196.6046259999999
 31
0.0
  0
LINE
  5
BD57
330
BBDC
100
AcDbEntity
  8
1
  6
Continuous
100
AcDbLine
 10
450.9607559999998
 20
225.671593
 30
0.0
 11
455.1461599999996
 21
185.6703159999999
 31
0.0
  0
LINE
  5
BD58
330
BBDC
100
AcDbEntity
  8
1
  6
Continuous
100
AcDbLine
 10
467.603608
 20
185.6703159999999
 30
0.0
 11
471.7890109999998
 21
225.671593
 31
0.0
  0
LINE
  5
BD59
330
BBDC
100
AcDbEntity
  8
1
  6
Continuous
100
AcDbLine
 10
458.853132
 20
191.4843259999999
 30
0.0
 11
463.896636
 21
191.4843259999999
 31
0.0
  0
LINE
  5
BD5A
330
BBDC
100
AcDbEntity
  8
1
  6
Continuous
100
AcDbLine
 10
458.5048729999998
 20
194.8127529999999
 30
0.0
 11
464.244895
 21
194.8127529999999
 31
0.0
  0
ARC
  5
BD5B
330
BBDC
100
AcDbEntity
  8
1
  6
Continuous
100
AcDbCircle
 10
461.374884
 20
208.4843259999999
 30
0.0
 40
25.0
100
AcDbArc
 50
259.3779459999999
 51
280.6220539999998
  0
ARC
  5
BD5C
330
BBDC
100
AcDbEntity
  8
1
  6
Continuous
100
AcDbCircle
 10
458.853132
 20
193.484326
 30
0.0
 40
2.0
100
AcDbArc
 50
185.9732229999999
 51
270.0
  0
ARC
  5
BD5D
330
BBDC
100
AcDbEntity
  8
1
  6
Continuous
100
AcDbCircle
 10
458.5048729999998
 20
196.8127529999999
 30
0.0
 40
2.0
100
AcDbArc
 50
185.9732229999999
 51
270.0
  0
ARC
  5
BD5E
330
BBDC
100
AcDbEntity
  8
1
  6
Continuous
100
AcDbCircle
 10
457.135301
 20
185.878443
 30
0.0
 40
2.0
100
AcDbArc
 50
185.9732229999999
 51
259.3779459999999
  0
ARC
  5
BD5F
330
BBDC
100
AcDbEntity
  8
1
  6
Continuous
100
AcDbCircle
 10
463.896636
 20
193.484326
 30
0.0
 40
2.0
100
AcDbArc
 50
270.0
 51
354.0267769999999
  0
ARC
  5
BD60
330
BBDC
100
AcDbEntity
  8
1
  6
Continuous
100
AcDbCircle
 10
464.244895
 20
196.8127529999999
 30
0.0
 40
2.0
100
AcDbArc
 50
270.0
 51
354.0267769999999
  0
ARC
  5
BD61
330
BBDC
100
AcDbEntity
  8
1
  6
Continuous
100
AcDbCircle
 10
465.6144659999998
 20
185.878443
 30
0.0
 40
2.0
100
AcDbArc
 50
280.6220539999998
 51
354.0267769999999
  0
LINE
  5
BD62
330
BBDC
100
AcDbEntity
  8
1
  6
Continuous
100
AcDbLine
 10
464.1852919999998
 20
216.7288319999999
 30
0.0
 11
462.138172
 21
215.971532
 31
0.0
  0
LINE
  5
BD63
330
BBDC
100
AcDbEntity
  8
1
  6
Continuous
100
AcDbLine
 10
464.1816969999998
 20
216.7288319999999
 30
0.0
 11
462.1381769999998
 21
217.522282
 31
0.0
  0
LINE
  5
BD64
330
BBDC
100
AcDbEntity
  8
1
  6
Continuous
100
AcDbLine
 10
463.072967
 20
218.5947319999999
 30
0.0
 11
462.1309769999998
 21
218.5947319999999
 31
0.0
  0
LINE
  5
BD65
330
BBDC
100
AcDbEntity
  8
1
  6
Continuous
100
AcDbLine
 10
464.232417
 20
219.9932819999999
 30
0.0
 11
462.1309769999998
 21
219.9932819999999
 31
0.0
  0
LINE
  5
BD66
330
BBDC
100
AcDbEntity
  8
1
  6
Continuous
100
AcDbLine
 10
456.214423
 20
199.484326
 30
0.0
 11
466.535344
 21
199.484326
 31
0.0
  0
LINE
  5
BD67
330
BBDC
100
AcDbEntity
  8
1
  6
Continuous
100
AcDbLine
 10
455.5866329999998
 20
205.484326
 30
0.0
 11
467.1631349999996
 21
205.484326
 31
0.0
  0
LINE
  5
BD68
330
BBDC
100
AcDbEntity
  8
1
  6
Continuous
100
AcDbLine
 10
458.347495
 20
209.484326
 30
0.0
 11
458.8172949999998
 21
209.484326
 31
0.0
  0
ARC
  5
BD69
330
BBDC
100
AcDbEntity
  8
1
  6
Continuous
100
AcDbCircle
 10
458.8172949999998
 20
208.844326
 30
0.0
 40
0.6400000000000004
100
AcDbArc
 50
222.7718659999999
 51
90.0
  0
LINE
  5
BD6A
330
BBDC
100
AcDbEntity
  8
1
  6
Continuous
100
AcDbLine
 10
458.347495
 20
209.484326
 30
0.0
 11
458.347495
 21
207.484326
 31
0.0
  0
LINE
  5
BD6B
330
BBDC
100
AcDbEntity
  8
1
  6
Continuous
100
AcDbLine
 10
459.7722099999998
 20
208.089526
 30
0.0
 11
460.8257099999996
 21
208.089526
 31
0.0
  0
LINE
  5
BD6C
330
BBDC
100
AcDbEntity
  8
1
  6
Continuous
100
AcDbLine
 10
460.30771
 20
209.486081
 30
0.0
 11
461.04756
 21
207.4860759999999
 31
0.0
  0
LINE
  5
BD6D
330
BBDC
100
AcDbEntity
  8
1
  6
Continuous
100
AcDbLine
 10
460.30771
 20
209.482566
 30
0.0
 11
459.53241
 21
207.4860759999999
 31
0.0
  0
LINE
  5
BD6E
330
BBDC
100
AcDbEntity
  8
1
  6
Continuous
100
AcDbLine
 10
461.9145459999998
 20
209.484326
 30
0.0
 11
461.9145459999998
 21
207.484326
 31
0.0
  0
LINE
  5
BD6F
330
BBDC
100
AcDbEntity
  8
1
  6
Continuous
100
AcDbLine
 10
461.1305409999998
 20
209.484326
 30
0.0
 11
462.705516
 21
209.484326
 31
0.0
  0
ARC
  5
BD70
330
BBDC
100
AcDbEntity
  8
1
  6
Continuous
100
AcDbCircle
 10
459.4954519999998
 20
213.400524708417
 30
0.0
 40
0.5225300000000001
100
AcDbArc
 50
103.0139999999999
 51
137.1299999999999
  0
ARC
  5
BD71
330
BBDC
100
AcDbEntity
  8
1
  6
Continuous
100
AcDbCircle
 10
459.4954519999998
 20
213.2605847084168
 30
0.0
 40
0.5225300000000001
100
AcDbArc
 50
222.8699999999999
 51
317.1304
  0
ARC
  5
BD72
330
BBDC
100
AcDbEntity
  8
1
  6
Continuous
100
AcDbCircle
 10
459.4200749999997
 20
213.330554708417
 30
0.0
 40
0.6253750000000001
100
AcDbArc
 50
317.1304
 51
327.1503
  0
ARC
  5
BD73
330
BBDC
100
AcDbEntity
  8
1
  6
Continuous
100
AcDbCircle
 10
459.5708269999998
 20
213.330554708417
 30
0.0
 40
0.6253750000000001
100
AcDbArc
 50
137.1299999999999
 51
222.8699999999999
  0
ARC
  5
BD74
330
BBDC
100
AcDbEntity
  8
1
  6
Continuous
100
AcDbCircle
 10
460.395452
 20
213.400524708417
 30
0.0
 40
0.5225300000000001
100
AcDbArc
 50
42.86999999999999
 51
108.2079999999999
  0
ARC
  5
BD75
330
BBDC
100
AcDbEntity
  8
1
  6
Continuous
100
AcDbCircle
 10
460.395452
 20
213.2605847084168
 30
0.0
 40
0.5225300000000001
100
AcDbArc
 50
222.8699999999999
 51
317.1304
  0
ARC
  5
BD76
330
BBDC
100
AcDbEntity
  8
1
  6
Continuous
100
AcDbCircle
 10
460.3200769999999
 20
213.330554708417
 30
0.0
 40
0.6253750000000001
100
AcDbArc
 50
317.1304
 51
42.86999999999999
  0
ARC
  5
BD77
330
BBDC
100
AcDbEntity
  8
1
  6
Continuous
100
AcDbCircle
 10
460.4708269999998
 20
213.330554708417
 30
0.0
 40
0.6253750000000001
100
AcDbArc
 50
212.8499999999999
 51
222.8699999999999
  0
LINE
  5
BD78
330
BBDC
100
AcDbEntity
  8
1
  6
Continuous
100
AcDbLine
 10
459.9454519999999
 20
213.284034708417
 30
0.0
 11
459.9454519999999
 21
212.9913247084167
 31
0.0
  0
LINE
  5
BD79
330
BBDC
100
AcDbEntity
  8
1
  6
Continuous
100
AcDbLine
 10
462.7396069999998
 20
217.2831319999999
 30
0.0
 11
462.7396069999998
 21
216.1925819999999
 31
0.0
  0
ARC
  5
BD7A
330
BBDC
100
AcDbEntity
  8
1
  6
Continuous
100
AcDbCircle
 10
460.395452
 20
220.2858899999998
 30
0.0
 40
0.5225300000000001
100
AcDbArc
 50
222.8699999999999
 51
317.1304
  0
ARC
  5
BD7B
330
BBDC
100
AcDbEntity
  8
1
  6
Continuous
100
AcDbCircle
 10
459.4954519999998
 20
220.2858899999998
 30
0.0
 40
0.5225300000000001
100
AcDbArc
 50
222.8699999999999
 51
317.1304
  0
ARC
  5
BD7C
330
BBDC
100
AcDbEntity
  8
1
  6
Continuous
100
AcDbCircle
 10
459.5575519999998
 20
218.489835
 30
0.0
 40
0.62634
100
AcDbArc
 50
225.9269999999999
 51
270.0
  0
ARC
  5
BD7D
330
BBDC
100
AcDbEntity
  8
1
  6
Continuous
100
AcDbCircle
 10
460.3333519999998
 20
218.489835
 30
0.0
 40
0.62634
100
AcDbArc
 50
270.0
 51
314.0724999999998
  0
LINE
  5
BD7E
330
BBDC
100
AcDbEntity
  8
1
  6
Continuous
100
AcDbLine
 10
460.3333519999998
 20
217.8634849999999
 30
0.0
 11
459.5575519999998
 21
217.8634849999999
 31
0.0
  0
ARC
  5
BD7F
330
BBDC
100
AcDbEntity
  8
1
  6
Continuous
100
AcDbCircle
 10
459.524792
 20
218.4559849999998
 30
0.0
 40
0.57924
100
AcDbArc
 50
134.072
 51
225.9269999999999
  0
ARC
  5
BD80
330
BBDC
100
AcDbEntity
  8
1
  6
Continuous
100
AcDbCircle
 10
459.5575519999998
 20
218.422135
 30
0.0
 40
0.62634
100
AcDbArc
 50
90.0
 51
134.072
  0
ARC
  5
BD81
330
BBDC
100
AcDbEntity
  8
1
  6
Continuous
100
AcDbCircle
 10
460.3661119999999
 20
218.4559849999998
 30
0.0
 40
0.57924
100
AcDbArc
 50
314.0724999999998
 51
45.92799999999999
  0
ARC
  5
BD82
330
BBDC
100
AcDbEntity
  8
1
  6
Continuous
100
AcDbCircle
 10
460.3333519999998
 20
218.422135
 30
0.0
 40
0.62634
100
AcDbArc
 50
45.92799999999999
 51
90.0
  0
LINE
  5
BD83
330
BBDC
100
AcDbEntity
  8
1
  6
Continuous
100
AcDbLine
 10
460.3333519999998
 20
219.048485
 30
0.0
 11
459.5575519999998
 21
219.048485
 31
0.0
  0
LINE
  5
BD84
330
BBDC
100
AcDbEntity
  8
1
  6
Continuous
100
AcDbLine
 10
459.9454519999999
 20
215.195367708417
 30
0.0
 11
459.9454519999999
 21
214.5688177084168
 31
0.0
  0
CIRCLE
  5
BD85
330
BBDC
100
AcDbEntity
  8
1
  6
Continuous
100
AcDbCircle
 10
463.6974109999998
 20
207.524326
 30
0.0
 40
0.04
  0
LINE
  5
BD86
330
BBDC
100
AcDbEntity
  8
1
  6
Continuous
100
AcDbLine
 10
464.4243469999998
 20
209.484326
 30
0.0
 11
464.4243469999998
 21
207.484326
 31
0.0
  0
LINE
  5
BD87
330
BBDC
100
AcDbEntity
  8
1
  6
Continuous
100
AcDbLine
 10
464.4243469999998
 20
209.484326
 30
0.0
 11
464.8941479999998
 21
209.484326
 31
0.0
  0
ARC
  5
BD88
330
BBDC
100
AcDbEntity
  8
1
  6
Continuous
100
AcDbCircle
 10
464.8941479999998
 20
208.844326
 30
0.0
 40
0.6400000000000004
100
AcDbArc
 50
222.7718659999999
 51
90.0
  0
LINE
  5
BD89
330
BBDC
100
AcDbEntity
  8
1
  6
Continuous
100
AcDbLine
 10
463.072962
 20
218.5947319999999
 30
0.0
 11
464.248312
 21
217.9161319999999
 31
0.0
  0
LINE
  5
BD8A
330
BBDC
100
AcDbEntity
  8
1
  6
Continuous
100
AcDbLine
 10
463.076572
 20
218.5947319999999
 30
0.0
 11
464.2470519999998
 21
219.268432
 31
0.0
  0
ARC
  5
BD8B
330
BBDC
100
AcDbEntity
  8
1
  6
Continuous
100
AcDbCircle
 10
649.8748839999998
 20
246.4843259999999
 30
0.0
 40
200.0
100
AcDbArc
 50
180.8396909999999
 51
185.9732229999999
  0
ARC
  5
BD8C
330
BBDC
100
AcDbEntity
  8
1
  6
Continuous
100
AcDbCircle
 10
272.874884
 20
246.4843259999999
 30
0.0
 40
200.0
100
AcDbArc
 50
354.0267769999999
 51
359.1603089999999
  0
ARC
  5
BD8D
330
BBDC
100
AcDbEntity
  8
1
  6
Continuous
100
AcDbCircle
 10
649.8748839999998
 20
246.4843259999999
 30
0.0
 40
197.5
100
AcDbArc
 50
181.2141259999999
 51
185.9732229999999
  0
ARC
  5
BD8E
330
BBDC
100
AcDbEntity
  8
1
  6
Continuous
100
AcDbCircle
 10
272.874884
 20
246.4843259999999
 30
0.0
 40
197.5
100
AcDbArc
 50
354.0267769999999
 51
358.7858739999999
  0
ARC
  5
BD8F
330
BBDC
100
AcDbEntity
  8
1
  6
Continuous
100
AcDbCircle
 10
463.11026
 20
233.615272
 30
0.0
 40
1.145318999999998
100
AcDbArc
 50
242.2499999999998
 51
324.4619999999998
  0
LINE
  5
BD90
330
BBDC
100
AcDbEntity
  8
1
  6
Continuous
100
AcDbLine
 10
462.278416
 20
233.6116629999999
 30
0.0
 11
464.1514189999998
 21
233.1091279999998
 31
0.0
  0
LINE
  5
BD91
330
BBDC
100
AcDbEntity
  8
1
  6
Continuous
100
AcDbLine
 10
464.1454519999999
 20
230.4208169999999
 30
0.0
 11
462.1454519999998
 21
230.4208169999999
 31
0.0
  0
LINE
  5
BD92
330
BBDC
100
AcDbEntity
  8
1
  6
Continuous
100
AcDbLine
 10
464.5709489999998
 20
234.7268029999999
 30
0.0
 11
461.788512
 21
234.7268029999999
 31
0.0
  0
LINE
  5
BD93
330
BBDC
100
AcDbEntity
  8
1
  6
Continuous
100
AcDbLine
 10
461.855276
 20
235.170694
 30
0.0
 11
463.11026
 21
235.170694
 31
0.0
  0
LINE
  5
BD94
330
BBDC
100
AcDbEntity
  8
1
  6
Continuous
100
AcDbLine
 10
463.11026
 20
234.0600649999999
 30
0.0
 11
462.04384
 21
234.0600649999999
 31
0.0
  0
LINE
  5
BD95
330
BBDC
100
AcDbEntity
  8
1
  6
Continuous
100
AcDbLine
 10
464.572754
 20
235.615487
 30
0.0
 11
461.6468639999998
 21
235.615487
 31
0.0
  0
LINE
  5
BD96
330
BBDC
100
AcDbEntity
  8
1
  6
Continuous
100
AcDbLine
 10
464.660269
 20
236.0593779999999
 30
0.0
 11
461.559349
 21
236.0593779999999
 31
0.0
  0
LINE
  5
BD97
330
BBDC
100
AcDbEntity
  8
1
  6
Continuous
100
AcDbLine
 10
464.660269
 20
236.5041709999999
 30
0.0
 11
461.559349
 21
236.5041709999999
 31
0.0
  0
LINE
  5
BD98
330
BBDC
100
AcDbEntity
  8
1
  6
Continuous
100
AcDbLine
 10
464.623278
 20
236.948061
 30
0.0
 11
461.59634
 21
236.948061
 31
0.0
  0
LINE
  5
BD99
330
BBDC
100
AcDbEntity
  8
1
  6
Continuous
100
AcDbLine
 10
464.2641959999998
 20
237.837647
 30
0.0
 11
461.955422
 21
237.837647
 31
0.0
  0
ARC
  5
BD9A
330
BBDC
100
AcDbEntity
  8
1
  6
Continuous
100
AcDbCircle
 10
463.11026
 20
238.9482769999999
 30
0.0
 40
1.145318999999998
100
AcDbArc
 50
90.0
 51
144.462
  0
LINE
  5
BD9B
330
BBDC
100
AcDbEntity
  8
1
  6
Continuous
100
AcDbLine
 10
464.2064539999998
 20
238.2815379999999
 30
0.0
 11
462.014066
 21
238.2815379999999
 31
0.0
  0
LINE
  5
BD9C
330
BBDC
100
AcDbEntity
  8
1
  6
Continuous
100
AcDbLine
 10
462.2901449999998
 20
238.7263309999999
 30
0.0
 11
463.9294729999998
 21
238.7263309999999
 31
0.0
  0
LINE
  5
BD9D
330
BBDC
100
AcDbEntity
  8
1
  6
Continuous
100
AcDbLine
 10
464.3291549999998
 20
239.170222
 30
0.0
 11
462.412846
 21
239.170222
 31
0.0
  0
LINE
  5
BD9E
330
BBDC
100
AcDbEntity
  8
1
  6
Continuous
100
AcDbLine
 10
464.232417
 20
224.9135319999997
 30
0.0
 11
462.1309769999998
 21
224.9135319999997
 31
0.0
  0
LINE
  5
BD9F
330
BBDC
100
AcDbEntity
  8
1
  6
Continuous
100
AcDbLine
 10
464.232417
 20
223.616532
 30
0.0
 11
462.1309769999998
 21
223.616532
 31
0.0
  0
LINE
  5
BDA0
330
BBDC
100
AcDbEntity
  8
1
  6
Continuous
100
AcDbLine
 10
464.232417
 20
222.9135319999997
 30
0.0
 11
462.1309769999998
 21
222.9135319999997
 31
0.0
  0
LINE
  5
BDA1
330
BBDC
100
AcDbEntity
  8
1
  6
Continuous
100
AcDbLine
 10
462.782182
 20
220.572982
 30
0.0
 11
462.1454519999998
 21
220.572982
 31
0.0
  0
ARC
  5
BDA2
330
BBDC
100
AcDbEntity
  8
1
  6
Continuous
100
AcDbCircle
 10
463.1785119999998
 20
221.055882
 30
0.0
 40
1.067529999999997
100
AcDbArc
 50
48.932
 51
131.0679999999997
  0
ARC
  5
BDA3
330
BBDC
100
AcDbEntity
  8
1
  6
Continuous
100
AcDbCircle
 10
462.934812
 20
221.2781319999999
 30
0.0
 40
0.72
100
AcDbArc
 50
179.5819999999999
 51
281.6541
  0
ARC
  5
BDA4
330
BBDC
100
AcDbEntity
  8
1
  6
Continuous
100
AcDbCircle
 10
463.214812
 20
226.1042819999999
 30
0.0
 40
1.067529999999997
100
AcDbArc
 50
48.932
 51
131.0679999999997
  0
ARC
  5
BDA5
330
BBDC
100
AcDbEntity
  8
1
  6
Continuous
100
AcDbCircle
 10
463.204212
 20
228.657987
 30
0.0
 40
1.067529999999997
100
AcDbArc
 50
228.932
 51
311.0679
  0
ARC
  5
BDA6
330
BBDC
100
AcDbEntity
  8
1
  6
Continuous
100
AcDbCircle
 10
463.204212
 20
228.2029319999999
 30
0.0
 40
1.067529999999997
100
AcDbArc
 50
48.932
 51
131.0679999999997
  0
ARC
  5
BDA7
330
BBDC
100
AcDbEntity
  8
1
  6
Continuous
100
AcDbCircle
 10
466.842732
 20
236.282225
 30
0.0
 40
5.732929999999998
100
AcDbArc
 50
144.462
 51
215.5379999999999
  0
ARC
  5
BDA8
330
BBDC
100
AcDbEntity
  8
1
  6
Continuous
100
AcDbCircle
 10
463.11026
 20
233.615272
 30
0.0
 40
1.145318999999998
100
AcDbArc
 50
215.5379999999999
 51
225.699
  0
LINE
  5
BDA9
330
BBDC
100
AcDbEntity
  8
1
  6
Continuous
100
AcDbLine
 10
460.9454519999999
 20
230.2048269999999
 30
0.0
 11
458.9454519999998
 21
230.2048269999999
 31
0.0
  0
ARC
  5
BDAA
330
BBDC
100
AcDbEntity
  8
1
  6
Continuous
100
AcDbCircle
 10
466.842732
 20
236.282225
 30
0.0
 40
5.288524999999999
100
AcDbArc
 50
187.793
 51
190.1039999999999
  0
ARC
  5
BDAB
330
BBDC
100
AcDbEntity
  8
1
  6
Continuous
100
AcDbCircle
 10
461.6468639999998
 20
235.5703759999999
 30
0.0
 40
0.044452
100
AcDbArc
 50
90.0
 51
187.793
  0
ARC
  5
BDAC
330
BBDC
100
AcDbEntity
  8
1
  6
Continuous
100
AcDbCircle
 10
461.855276
 20
235.392639
 30
0.0
 40
0.222261
100
AcDbArc
 50
190.1039999999999
 51
270.0
  0
ARC
  5
BDAD
330
BBDC
100
AcDbEntity
  8
1
  6
Continuous
100
AcDbCircle
 10
466.842732
 20
236.282225
 30
0.0
 40
5.288524999999999
100
AcDbArc
 50
153.986
 51
157.056
  0
ARC
  5
BDAE
330
BBDC
100
AcDbEntity
  8
1
  6
Continuous
100
AcDbCircle
 10
462.014066
 20
238.325747
 30
0.0
 40
0.044452
100
AcDbArc
 50
157.056
 51
270.0
  0
LINE
  5
BDAF
330
BBDC
100
AcDbEntity
  8
1
  6
Continuous
100
AcDbLine
 10
461.7280639999997
 20
237.392854
 30
0.0
 11
462.5770499999998
 21
237.392854
 31
0.0
  0
ARC
  5
BDB0
330
BBDC
100
AcDbEntity
  8
1
  6
Continuous
100
AcDbCircle
 10
461.7280639999997
 20
237.437063
 30
0.0
 40
0.044452
100
AcDbArc
 50
167.2709999999999
 51
270.0
  0
ARC
  5
BDB1
330
BBDC
100
AcDbEntity
  8
1
  6
Continuous
100
AcDbCircle
 10
466.842732
 20
236.282225
 30
0.0
 40
5.288524999999999
100
AcDbArc
 50
164.794
 51
167.2709999999999
  0
ARC
  5
BDB2
330
BBDC
100
AcDbEntity
  8
1
  6
Continuous
100
AcDbCircle
 10
466.842732
 20
236.282225
 30
0.0
 40
5.288524999999999
100
AcDbArc
 50
164.7419999999998
 51
164.794
  0
ARC
  5
BDB3
330
BBDC
100
AcDbEntity
  8
1
  6
Continuous
100
AcDbCircle
 10
461.955422
 20
237.6148
 30
0.0
 40
0.222261
100
AcDbArc
 50
90.0
 51
164.7419999999998
  0
ARC
  5
BDB4
330
BBDC
100
AcDbEntity
  8
1
  6
Continuous
100
AcDbCircle
 10
462.2901449999998
 20
238.5034839999999
 30
0.0
 40
0.222261
100
AcDbArc
 50
90.0
 51
153.986
  0
LINE
  5
BDB5
330
BBDC
100
AcDbEntity
  8
1
  6
Continuous
100
AcDbLine
 10
459.5506519999998
 20
226.740332
 30
0.0
 11
459.5506519999998
 21
225.6868319999999
 31
0.0
  0
LINE
  5
BDB6
330
BBDC
100
AcDbEntity
  8
1
  6
Continuous
100
AcDbLine
 10
460.9472069999998
 20
226.2048319999999
 30
0.0
 11
458.9472019999998
 21
225.464982
 31
0.0
  0
ARC
  5
BDB7
330
BBDC
100
AcDbEntity
  8
1
  6
Continuous
100
AcDbCircle
 10
462.7779969999998
 20
226.248782
 30
0.0
 40
0.513145
100
AcDbArc
 50
199.193
 51
264.341
  0
LINE
  5
BDB8
330
BBDC
100
AcDbEntity
  8
1
  6
Continuous
100
AcDbLine
 10
459.9454519999999
 20
224.5180819999999
 30
0.0
 11
459.9454519999999
 21
223.8915319999999
 31
0.0
  0
ARC
  5
BDB9
330
BBDC
100
AcDbEntity
  8
1
  6
Continuous
100
AcDbCircle
 10
462.9802469999998
 20
221.2833819999999
 30
0.0
 40
0.76574
100
AcDbArc
 50
131.0679999999997
 51
186.5909999999999
  0
ARC
  5
BDBA
330
BBDC
100
AcDbEntity
  8
1
  6
Continuous
100
AcDbCircle
 10
459.4954519999998
 20
222.274802
 30
0.0
 40
0.5225300000000001
100
AcDbArc
 50
103.0139999999999
 51
137.1299999999999
  0
ARC
  5
BDBB
330
BBDC
100
AcDbEntity
  8
1
  6
Continuous
100
AcDbCircle
 10
459.4954519999998
 20
222.134862
 30
0.0
 40
0.5225300000000001
100
AcDbArc
 50
222.8699999999999
 51
317.1304
  0
ARC
  5
BDBC
330
BBDC
100
AcDbEntity
  8
1
  6
Continuous
100
AcDbCircle
 10
459.4200749999997
 20
222.2048319999999
 30
0.0
 40
0.6253750000000001
100
AcDbArc
 50
317.1304
 51
327.1503
  0
ARC
  5
BDBD
330
BBDC
100
AcDbEntity
  8
1
  6
Continuous
100
AcDbCircle
 10
459.5708269999998
 20
222.2048319999999
 30
0.0
 40
0.6253750000000001
100
AcDbArc
 50
137.1299999999999
 51
222.8699999999999
  0
ARC
  5
BDBE
330
BBDC
100
AcDbEntity
  8
1
  6
Continuous
100
AcDbCircle
 10
460.395452
 20
222.274802
 30
0.0
 40
0.5225300000000001
100
AcDbArc
 50
42.86999999999999
 51
108.2079999999999
  0
ARC
  5
BDBF
330
BBDC
100
AcDbEntity
  8
1
  6
Continuous
100
AcDbCircle
 10
460.395452
 20
222.134862
 30
0.0
 40
0.5225300000000001
100
AcDbArc
 50
222.8699999999999
 51
317.1304
  0
ARC
  5
BDC0
330
BBDC
100
AcDbEntity
  8
1
  6
Continuous
100
AcDbCircle
 10
460.3200769999999
 20
222.2048319999999
 30
0.0
 40
0.6253750000000001
100
AcDbArc
 50
317.1304
 51
42.86999999999999
  0
ARC
  5
BDC1
330
BBDC
100
AcDbEntity
  8
1
  6
Continuous
100
AcDbCircle
 10
460.4708269999998
 20
222.2048319999999
 30
0.0
 40
0.6253750000000001
100
AcDbArc
 50
212.8499999999999
 51
222.8699999999999
  0
LINE
  5
BDC2
330
BBDC
100
AcDbEntity
  8
1
  6
Continuous
100
AcDbLine
 10
459.9454519999999
 20
222.158312
 30
0.0
 11
459.9454519999999
 21
221.865602
 31
0.0
  0
LINE
  5
BDC3
330
BBDC
100
AcDbEntity
  8
1
  6
Continuous
100
AcDbLine
 10
459.9454519999999
 20
220.3093399999999
 30
0.0
 11
459.9454519999999
 21
220.0166299999999
 31
0.0
  0
ARC
  5
BDC4
330
BBDC
100
AcDbEntity
  8
1
  6
Continuous
100
AcDbCircle
 10
460.395452
 20
220.4258299999999
 30
0.0
 40
0.5225300000000001
100
AcDbArc
 50
42.86999999999999
 51
108.2079999999999
  0
ARC
  5
BDC5
330
BBDC
100
AcDbEntity
  8
1
  6
Continuous
100
AcDbCircle
 10
459.4954519999998
 20
220.4258299999999
 30
0.0
 40
0.5225300000000001
100
AcDbArc
 50
103.0139999999999
 51
137.1299999999999
  0
LINE
  5
BDC6
330
BBDC
100
AcDbEntity
  8
1
  6
Continuous
100
AcDbLine
 10
459.9454519999999
 20
228.831312
 30
0.0
 11
459.9454519999999
 21
227.5783319999999
 31
0.0
  0
LINE
  5
BDC7
330
BBDC
100
AcDbEntity
  8
1
  6
Continuous
100
AcDbLine
 10
460.9604069999998
 20
227.5783319999999
 30
0.0
 11
458.9604019999998
 21
227.5783319999999
 31
0.0
  0
LINE
  5
BDC8
330
BBDC
100
AcDbEntity
  8
1
  6
Continuous
100
AcDbLine
 10
460.943692
 20
226.2048319999999
 30
0.0
 11
458.9472019999998
 21
226.9801319999999
 31
0.0
  0
LINE
  5
BDC9
330
BBDC
100
AcDbEntity
  8
1
  6
Continuous
100
AcDbLine
 10
460.9604069999998
 20
228.831312
 30
0.0
 11
458.9604019999998
 21
228.831312
 31
0.0
  0
ARC
  5
BDCA
330
BBDC
100
AcDbEntity
  8
1
  6
Continuous
100
AcDbCircle
 10
463.0165519999998
 20
226.3318319999999
 30
0.0
 40
0.76574
100
AcDbArc
 50
131.0679999999997
 51
199.193
  0
ARC
  5
BDCB
330
BBDC
100
AcDbEntity
  8
1
  6
Continuous
100
AcDbCircle
 10
463.0059519999998
 20
228.4304569999999
 30
0.0
 40
0.76574
100
AcDbArc
 50
131.0679999999997
 51
228.932
  0
LINE
  5
BDCC
330
BBDC
100
AcDbEntity
  8
1
  6
Continuous
100
AcDbLine
 10
460.9454519999999
 20
230.9888319999997
 30
0.0
 11
460.9454519999999
 21
229.4138569999998
 31
0.0
  0
ARC
  5
BDCD
330
BBDC
100
AcDbEntity
  8
1
  6
Continuous
100
AcDbCircle
 10
459.3768859999998
 20
236.282225
 30
0.0
 40
5.732929999999998
100
AcDbArc
 50
324.4619999999998
 51
35.5377
  0
ARC
  5
BDCE
330
BBDC
100
AcDbEntity
  8
1
  6
Continuous
100
AcDbCircle
 10
463.332206
 20
234.0600649999999
 30
0.0
 40
0.222261
100
AcDbArc
 50
90.0
 51
270.0
  0
LINE
  5
BDCF
330
BBDC
100
AcDbEntity
  8
1
  6
Continuous
100
AcDbLine
 10
463.11026
 20
232.4703579999999
 30
0.0
 11
463.11026
 21
233.3888149999999
 31
0.0
  0
LINE
  5
BDD0
330
BBDC
100
AcDbEntity
  8
1
  6
Continuous
100
AcDbLine
 10
463.332206
 20
233.8372169999999
 30
0.0
 11
464.2813379999998
 21
233.8372169999999
 31
0.0
  0
LINE
  5
BDD1
330
BBDC
100
AcDbEntity
  8
1
  6
Continuous
100
AcDbLine
 10
464.361635
 20
234.28201
 30
0.0
 11
463.332206
 21
234.28201
 31
0.0
  0
LINE
  5
BDD2
330
BBDC
100
AcDbEntity
  8
1
  6
Continuous
100
AcDbLine
 10
463.6434699999998
 20
235.170694
 30
0.0
 11
464.364342
 21
235.170694
 31
0.0
  0
ARC
  5
BDD3
330
BBDC
100
AcDbEntity
  8
1
  6
Continuous
100
AcDbCircle
 10
464.572754
 20
235.5703759999999
 30
0.0
 40
0.044452
100
AcDbArc
 50
352.2069999999998
 51
90.0
  0
ARC
  5
BDD4
330
BBDC
100
AcDbEntity
  8
1
  6
Continuous
100
AcDbCircle
 10
459.3768859999998
 20
236.282225
 30
0.0
 40
5.288524999999999
100
AcDbArc
 50
349.8959999999998
 51
352.2069999999998
  0
ARC
  5
BDD5
330
BBDC
100
AcDbEntity
  8
1
  6
Continuous
100
AcDbCircle
 10
464.364342
 20
235.392639
 30
0.0
 40
0.222261
100
AcDbArc
 50
270.0
 51
349.8959999999998
  0
LINE
  5
BDD6
330
BBDC
100
AcDbEntity
  8
1
  6
Continuous
100
AcDbLine
 10
463.11026
 20
235.170694
 30
0.0
 11
463.11026
 21
235.392639
 31
0.0
  0
ARC
  5
BDD7
330
BBDC
100
AcDbEntity
  8
1
  6
Continuous
100
AcDbCircle
 10
464.2641959999998
 20
237.6148
 30
0.0
 40
0.222261
100
AcDbArc
 50
15.2575
 51
90.0
  0
ARC
  5
BDD8
330
BBDC
100
AcDbEntity
  8
1
  6
Continuous
100
AcDbCircle
 10
459.3768859999998
 20
236.282225
 30
0.0
 40
5.288524999999999
100
AcDbArc
 50
13.2681
 51
15.2575
  0
ARC
  5
BDD9
330
BBDC
100
AcDbEntity
  8
1
  6
Continuous
100
AcDbCircle
 10
459.3768859999998
 20
236.282225
 30
0.0
 40
5.288524999999999
100
AcDbArc
 50
12.7289
 51
13.2681
  0
ARC
  5
BDDA
330
BBDC
100
AcDbEntity
  8
1
  6
Continuous
100
AcDbCircle
 10
464.491554
 20
237.437063
 30
0.0
 40
0.044452
100
AcDbArc
 50
270.0
 51
12.7289
  0
ARC
  5
BDDB
330
BBDC
100
AcDbEntity
  8
1
  6
Continuous
100
AcDbCircle
 10
464.2064539999998
 20
238.325747
 30
0.0
 40
0.044452
100
AcDbArc
 50
270.0
 51
22.94399999999999
  0
ARC
  5
BDDC
330
BBDC
100
AcDbEntity
  8
1
  6
Continuous
100
AcDbCircle
 10
459.3768859999998
 20
236.282225
 30
0.0
 40
5.288524999999999
100
AcDbArc
 50
22.94399999999999
 51
26.0144
  0
ARC
  5
BDDD
330
BBDC
100
AcDbEntity
  8
1
  6
Continuous
100
AcDbCircle
 10
463.9294729999998
 20
238.5034839999999
 30
0.0
 40
0.222261
100
AcDbArc
 50
26.0144
 51
90.0
  0
ARC
  5
BDDE
330
BBDC
100
AcDbEntity
  8
1
  6
Continuous
100
AcDbCircle
 10
463.11026
 20
238.9482769999999
 30
0.0
 40
1.145318999999998
100
AcDbArc
 50
35.5377
 51
76.5374
  0
LINE
  5
BDDF
330
BBDC
100
AcDbEntity
  8
1
  6
Continuous
100
AcDbLine
 10
463.11026
 20
236.5041709999999
 30
0.0
 11
463.11026
 21
236.948061
 31
0.0
  0
LINE
  5
BDE0
330
BBDC
100
AcDbEntity
  8
1
  6
Continuous
100
AcDbLine
 10
463.6434699999998
 20
237.392854
 30
0.0
 11
464.491554
 21
237.392854
 31
0.0
  0
ARC
  5
BDE1
330
BBDC
100
AcDbEntity
  8
1
  6
Continuous
100
AcDbCircle
 10
463.6516269999998
 20
226.248782
 30
0.0
 40
0.513145
100
AcDbArc
 50
275.65924
 51
340.8072
  0
LINE
  5
BDE2
330
BBDC
100
AcDbEntity
  8
1
  6
Continuous
100
AcDbLine
 10
463.181697
 20
224.9135319999997
 30
0.0
 11
463.181697
 21
223.616532
 31
0.0
  0
LINE
  5
BDE3
330
BBDC
100
AcDbEntity
  8
1
  6
Continuous
100
AcDbLine
 10
463.080257
 20
221.2758819999999
 30
0.0
 11
463.080257
 21
220.572982
 31
0.0
  0
ARC
  5
BDE4
330
BBDC
100
AcDbEntity
  8
1
  6
Continuous
100
AcDbCircle
 10
463.615327
 20
221.2003319999999
 30
0.0
 40
0.513145
100
AcDbArc
 50
275.65924
 51
340.8072
  0
ARC
  5
BDE5
330
BBDC
100
AcDbEntity
  8
1
  6
Continuous
100
AcDbCircle
 10
463.3767719999998
 20
221.2833819999999
 30
0.0
 40
0.76574
100
AcDbArc
 50
340.8072
 51
48.932
  0
ARC
  5
BDE6
330
BBDC
100
AcDbEntity
  8
1
  6
Continuous
100
AcDbCircle
 10
463.4130719999998
 20
226.3318319999999
 30
0.0
 40
0.76574
100
AcDbArc
 50
340.8072
 51
48.932
  0
ARC
  5
BDE7
330
BBDC
100
AcDbEntity
  8
1
  6
Continuous
100
AcDbCircle
 10
463.402472
 20
228.4304569999999
 30
0.0
 40
0.76574
100
AcDbArc
 50
311.0679
 51
48.932
  0
LINE
  5
BDE8
330
BBDC
100
AcDbEntity
  8
1
  6
Continuous
100
AcDbLine
 10
464.1454519999999
 20
231.232437
 30
0.0
 11
464.1454519999999
 21
229.6020169999999
 31
0.0
  0
LINE
  5
BDE9
330
BBDC
100
AcDbEntity
  8
1
  6
Continuous
100
AcDbLine
 10
465.374884
 20
261.1753259999999
 30
0.0
 11
461.374884
 21
258.865326
 31
0.0
  0
LINE
  5
BDEA
330
BBDC
100
AcDbEntity
  8
1
  6
Continuous
100
AcDbLine
 10
463.3427369999998
 20
262.1104429999999
 30
0.0
 11
462.5854799999998
 21
262.8946049999999
 31
0.0
  0
ARC
  5
BDEB
330
BBDC
100
AcDbEntity
  8
1
  6
Continuous
100
AcDbCircle
 10
461.374884
 20
263.4843259999997
 30
0.0
 40
2.399999999999999
100
AcDbArc
 50
304.921342
 51
325.078658
  0
ARC
  5
BDEC
330
BBDC
100
AcDbEntity
  8
1
  6
Continuous
100
AcDbCircle
 10
461.374884
 20
263.4843259999997
 30
0.0
 40
11.5
100
AcDbArc
 50
192.555858
 51
339.645594
  0
LINE
  5
BDED
330
BBDC
100
AcDbEntity
  8
4
  6
CENTER
100
AcDbLine
 10
466.870905
 20
247.4843259999999
 30
0.0
 11
456.374884
 21
247.4843259999999
 31
0.0
  0
ARC
  5
BDEE
330
BBDC
100
AcDbEntity
  8
1
  6
Continuous
100
AcDbCircle
 10
461.374884
 20
247.4843259999999
 30
0.0
 40
3.7
100
AcDbArc
 50
180.0
 51
0.0
  0
ARC
  5
BDEF
330
BBDC
100
AcDbEntity
  8
1
  6
Continuous
100
AcDbCircle
 10
461.374884
 20
263.4843259999997
 30
0.0
 40
10.18799999999999
100
AcDbArc
 50
253.1384089999999
 51
286.8615909999999
  0
ARC
  5
BDF0
330
BBDC
100
AcDbEntity
  8
2
  6
Continuous
100
AcDbCircle
 10
461.374884
 20
263.4843259999997
 30
0.0
 40
11.0
100
AcDbArc
 50
242.419801
 51
297.5801989999999
  0
LINE
  5
BDF1
330
BBDC
100
AcDbEntity
  8
1
  6
Continuous
100
AcDbLine
 10
466.4677709999998
 20
253.7343259999999
 30
0.0
 11
456.2819959999997
 21
253.7343259999999
 31
0.0
  0
ARC
  5
BDF2
330
BBDC
100
AcDbEntity
  8
1
  6
Continuous
100
AcDbCircle
 10
461.374884
 20
247.4843259999999
 30
0.0
 40
3.5
100
AcDbArc
 50
170.4059319999998
 51
9.594068
  0
ARC
  5
BDF3
330
BBDC
100
AcDbEntity
  8
1
  6
Continuous
100
AcDbCircle
 10
461.374884
 20
263.4843259999997
 30
0.0
 40
14.0
100
AcDbArc
 50
215.841252
 51
324.158748
  0
LINE
  5
BDF4
330
BBDC
100
AcDbEntity
  8
1
  6
Continuous
100
AcDbLine
 10
476.3748839999998
 20
254.824072
 30
0.0
 11
461.374884
 21
246.163818
 31
0.0
  0
LINE
  5
BDF5
330
BBDC
100
AcDbEntity
  8
1
  6
Continuous
100
AcDbLine
 10
462.7487669999998
 20
261.516473
 30
0.0
 11
461.964605
 21
262.27373
 31
0.0
  0
LINE
  5
BDF6
330
BBDC
100
AcDbEntity
  8
1
  6
Continuous
100
AcDbLine
 10
462.3708399999999
 20
263.4843259999997
 30
0.0
 11
462.5854799999998
 21
262.8946049999999
 31
0.0
  0
LINE
  5
BDF7
330
BBDC
100
AcDbEntity
  8
1
  6
Continuous
100
AcDbLine
 10
461.374884
 20
262.4883709999999
 30
0.0
 11
461.964605
 21
262.27373
 31
0.0
  0
LINE
  5
BDF8
330
BBDC
100
AcDbEntity
  8
1
  6
Continuous
100
AcDbLine
 10
460.001001
 20
261.516473
 30
0.0
 11
460.7851629999998
 21
262.27373
 31
0.0
  0
LINE
  5
BDF9
330
BBDC
100
AcDbEntity
  8
1
  6
Continuous
100
AcDbLine
 10
460.378929
 20
263.4843259999997
 30
0.0
 11
460.1642879999998
 21
262.8946049999999
 31
0.0
  0
LINE
  5
BDFA
330
BBDC
100
AcDbEntity
  8
1
  6
Continuous
100
AcDbLine
 10
459.4070309999998
 20
262.1104429999999
 30
0.0
 11
460.1642879999998
 21
262.8946049999999
 31
0.0
  0
ARC
  5
BDFB
330
BBDC
100
AcDbEntity
  8
1
  6
Continuous
100
AcDbCircle
 10
461.374884
 20
263.4843259999997
 30
0.0
 40
2.399999999999999
100
AcDbArc
 50
214.921342
 51
235.0786579999998
  0
LINE
  5
BDFC
330
BBDC
100
AcDbEntity
  8
1
  6
Continuous
100
AcDbLine
 10
461.374884
 20
262.4883709999999
 30
0.0
 11
460.7851629999998
 21
262.27373
 31
0.0
  0
LINE
  5
BDFD
330
BBDC
100
AcDbEntity
  8
1
  6
Continuous
100
AcDbLine
 10
457.374884
 20
261.1743259999999
 30
0.0
 11
461.374884
 21
258.865326
 31
0.0
  0
LINE
  5
BDFE
330
BBDC
100
AcDbEntity
  8
1
  6
Continuous
100
AcDbLine
 10
448.617533
 20
260.9843259999997
 30
0.0
 11
450.354902
 21
260.9843259999997
 31
0.0
  0
ARC
  5
BDFF
330
BBDC
100
AcDbEntity
  8
1
  6
Continuous
100
AcDbCircle
 10
450.116554
 20
256.9843259999997
 30
0.0
 40
1.7
100
AcDbArc
 50
153.057137
 51
266.942863
  0
LINE
  5
BE00
330
BBDC
100
AcDbEntity
  8
1
  6
Continuous
100
AcDbLine
 10
457.6748839999998
 20
247.4843259999999
 30
0.0
 11
457.6748839999998
 21
248.300014
 31
0.0
  0
ARC
  5
BE01
330
BBDC
100
AcDbEntity
  8
1
  6
Continuous
100
AcDbCircle
 10
458.416844
 20
247.9843259999999
 30
0.0
 40
0.5
100
AcDbArc
 50
161.254793
 51
170.4059319999998
  0
LINE
  5
BE02
330
BBDC
100
AcDbEntity
  8
1
  6
Continuous
100
AcDbLine
 10
457.874884
 20
246.2843259999999
 30
0.0
 11
457.874884
 21
248.1845439999999
 31
0.0
  0
ARC
  5
BE03
330
BBDC
100
AcDbEntity
  8
1
  6
Continuous
100
AcDbCircle
 10
461.374884
 20
263.4843259999997
 30
0.0
 40
16.12829999999998
100
AcDbArc
 50
256.737637
 51
257.4665319999999
  0
LINE
  5
BE04
330
BBDC
100
AcDbEntity
  8
1
  6
Continuous
100
AcDbLine
 10
465.074884
 20
247.4843259999999
 30
0.0
 11
465.074884
 21
248.300014
 31
0.0
  0
ARC
  5
BE05
330
BBDC
100
AcDbEntity
  8
1
  6
Continuous
100
AcDbCircle
 10
464.3329239999998
 20
247.9843259999999
 30
0.0
 40
0.5
100
AcDbArc
 50
9.594068
 51
18.745207
  0
LINE
  5
BE06
330
BBDC
100
AcDbEntity
  8
1
  6
Continuous
100
AcDbLine
 10
464.874884
 20
246.2843259999999
 30
0.0
 11
464.874884
 21
248.1845439999999
 31
0.0
  0
ARC
  5
BE07
330
BBDC
100
AcDbEntity
  8
1
  6
Continuous
100
AcDbCircle
 10
461.374884
 20
263.4843259999997
 30
0.0
 40
16.12829999999998
100
AcDbArc
 50
282.533468
 51
283.262363
  0
LINE
  5
BE08
330
BBDC
100
AcDbEntity
  8
1
  6
Continuous
100
AcDbLine
 10
471.943233
 20
259.4843259999997
 30
0.0
 11
473.7442009999998
 21
259.4843259999997
 31
0.0
  0
ARC
  5
BE09
330
BBDC
100
AcDbEntity
  8
1
  6
Continuous
100
AcDbCircle
 10
472.6332139999996
 20
256.9843259999997
 30
0.0
 40
1.7
100
AcDbArc
 50
273.057137
 51
26.942863
  0
LINE
  5
BE0A
330
BBDC
100
AcDbEntity
  8
1
  6
Continuous
100
AcDbLine
 10
461.374884
 20
280.8048339999999
 30
0.0
 11
446.374884
 21
272.1445799999999
 31
0.0
  0
LINE
  5
BE0B
330
BBDC
100
AcDbEntity
  8
1
  6
Continuous
100
AcDbLine
 10
461.374884
 20
268.1033259999999
 30
0.0
 11
465.374884
 21
265.7933259999999
 31
0.0
  0
ARC
  5
BE0C
330
BBDC
100
AcDbEntity
  8
1
  6
Continuous
100
AcDbCircle
 10
461.374884
 20
263.4843259999997
 30
0.0
 40
2.399999999999999
100
AcDbArc
 50
34.92134199999998
 51
55.078658
  0
LINE
  5
BE0D
330
BBDC
100
AcDbEntity
  8
1
  6
Continuous
100
AcDbLine
 10
463.3427369999998
 20
264.858209
 30
0.0
 11
462.5854799999998
 21
264.074047
 31
0.0
  0
ARC
  5
BE0E
330
BBDC
100
AcDbEntity
  8
1
  6
Continuous
100
AcDbCircle
 10
461.374884
 20
263.4843259999997
 30
0.0
 40
11.5
100
AcDbArc
 50
20.354406
 51
167.4441419999999
  0
LINE
  5
BE0F
330
BBDC
100
AcDbEntity
  8
4
  6
CENTER
100
AcDbLine
 10
466.374884
 20
279.4843259999999
 30
0.0
 11
455.91299
 21
279.4843259999999
 31
0.0
  0
ARC
  5
BE10
330
BBDC
100
AcDbEntity
  8
1
  6
Continuous
100
AcDbCircle
 10
461.374884
 20
279.4843259999999
 30
0.0
 40
3.7
100
AcDbArc
 50
0.0
 51
180.0
  0
ARC
  5
BE11
330
BBDC
100
AcDbEntity
  8
1
  6
Continuous
100
AcDbCircle
 10
461.374884
 20
263.4843259999997
 30
0.0
 40
10.18799999999999
100
AcDbArc
 50
73.13840899999998
 51
106.8615909999999
  0
ARC
  5
BE12
330
BBDC
100
AcDbEntity
  8
2
  6
Continuous
100
AcDbCircle
 10
461.374884
 20
263.4843259999997
 30
0.0
 40
11.0
100
AcDbArc
 50
62.419801
 51
117.5801989999998
  0
LINE
  5
BE13
330
BBDC
100
AcDbEntity
  8
1
  6
Continuous
100
AcDbLine
 10
466.4677709999998
 20
273.2343259999999
 30
0.0
 11
456.2819959999997
 21
273.2343259999999
 31
0.0
  0
ARC
  5
BE14
330
BBDC
100
AcDbEntity
  8
1
  6
Continuous
100
AcDbCircle
 10
461.374884
 20
279.4843259999999
 30
0.0
 40
3.5
100
AcDbArc
 50
350.405932
 51
189.5940679999999
  0
ARC
  5
BE15
330
BBDC
100
AcDbEntity
  8
1
  6
Continuous
100
AcDbCircle
 10
461.374884
 20
263.4843259999997
 30
0.0
 40
14.0
100
AcDbArc
 50
35.84125199999999
 51
144.158748
  0
LINE
  5
BE16
330
BBDC
100
AcDbEntity
  8
1
  6
Continuous
100
AcDbLine
 10
461.374884
 20
280.8048339999999
 30
0.0
 11
476.3748839999998
 21
272.1445799999999
 31
0.0
  0
ARC
  5
BE17
330
BBDC
100
AcDbEntity
  8
1
  6
Continuous
100
AcDbCircle
 10
461.374884
 20
263.4843259999997
 30
0.0
 40
2.399999999999999
100
AcDbArc
 50
124.921342
 51
145.0786579999999
  0
LINE
  5
BE18
330
BBDC
100
AcDbEntity
  8
1
  6
Continuous
100
AcDbLine
 10
461.374884
 20
268.1033259999999
 30
0.0
 11
457.374884
 21
265.7933259999999
 31
0.0
  0
LINE
  5
BE19
330
BBDC
100
AcDbEntity
  8
1
  6
Continuous
100
AcDbLine
 10
461.374884
 20
264.4802809999998
 30
0.0
 11
461.964605
 21
264.694922
 31
0.0
  0
LINE
  5
BE1A
330
BBDC
100
AcDbEntity
  8
1
  6
Continuous
100
AcDbLine
 10
461.374884
 20
264.4802809999998
 30
0.0
 11
460.7851629999998
 21
264.694922
 31
0.0
  0
LINE
  5
BE1B
330
BBDC
100
AcDbEntity
  8
1
  6
Continuous
100
AcDbLine
 10
462.7487669999998
 20
265.4521789999999
 30
0.0
 11
461.964605
 21
264.694922
 31
0.0
  0
LINE
  5
BE1C
330
BBDC
100
AcDbEntity
  8
1
  6
Continuous
100
AcDbLine
 10
460.001001
 20
265.4521789999999
 30
0.0
 11
460.7851629999998
 21
264.694922
 31
0.0
  0
LINE
  5
BE1D
330
BBDC
100
AcDbEntity
  8
1
  6
Continuous
100
AcDbLine
 10
459.4070309999998
 20
264.858209
 30
0.0
 11
460.1642879999998
 21
264.074047
 31
0.0
  0
ARC
  5
BE1E
330
BBDC
100
AcDbEntity
  8
1
  6
Continuous
100
AcDbCircle
 10
450.116554
 20
269.9843259999997
 30
0.0
 40
1.7
100
AcDbArc
 50
93.057137
 51
206.9428629999999
  0
LINE
  5
BE1F
330
BBDC
100
AcDbEntity
  8
1
  6
Continuous
100
AcDbLine
 10
448.617533
 20
265.9843259999997
 30
0.0
 11
450.354902
 21
265.9843259999997
 31
0.0
  0
LINE
  5
BE20
330
BBDC
100
AcDbEntity
  8
1
  6
Continuous
100
AcDbLine
 10
457.6748839999998
 20
279.4843259999999
 30
0.0
 11
457.6748839999998
 21
278.6686379999998
 31
0.0
  0
ARC
  5
BE21
330
BBDC
100
AcDbEntity
  8
1
  6
Continuous
100
AcDbCircle
 10
458.416844
 20
278.9843259999999
 30
0.0
 40
0.5
100
AcDbArc
 50
189.5940679999999
 51
198.745207
  0
LINE
  5
BE22
330
BBDC
100
AcDbEntity
  8
1
  6
Continuous
100
AcDbLine
 10
457.874884
 20
280.6843259999999
 30
0.0
 11
457.874884
 21
278.784108
 31
0.0
  0
ARC
  5
BE23
330
BBDC
100
AcDbEntity
  8
1
  6
Continuous
100
AcDbCircle
 10
461.374884
 20
263.4843259999997
 30
0.0
 40
16.12829999999998
100
AcDbArc
 50
102.533468
 51
103.262363
  0
LINE
  5
BE24
330
BBDC
100
AcDbEntity
  8
1
  6
Continuous
100
AcDbLine
 10
465.074884
 20
279.4843259999999
 30
0.0
 11
465.074884
 21
278.6686379999998
 31
0.0
  0
ARC
  5
BE25
330
BBDC
100
AcDbEntity
  8
1
  6
Continuous
100
AcDbCircle
 10
464.3329239999998
 20
278.9843259999999
 30
0.0
 40
0.5
100
AcDbArc
 50
341.254793
 51
350.405932
  0
LINE
  5
BE26
330
BBDC
100
AcDbEntity
  8
1
  6
Continuous
100
AcDbLine
 10
464.874884
 20
280.6843259999999
 30
0.0
 11
464.874884
 21
278.784108
 31
0.0
  0
ARC
  5
BE27
330
BBDC
100
AcDbEntity
  8
1
  6
Continuous
100
AcDbCircle
 10
461.374884
 20
263.4843259999997
 30
0.0
 40
16.12829999999998
100
AcDbArc
 50
76.73763700000002
 51
77.466532
  0
ARC
  5
BE28
330
BBDC
100
AcDbEntity
  8
1
  6
Continuous
100
AcDbCircle
 10
472.6332139999996
 20
269.9843259999997
 30
0.0
 40
1.7
100
AcDbArc
 50
333.057137
 51
86.94286299999998
  0
LINE
  5
BE29
330
BBDC
100
AcDbEntity
  8
1
  6
Continuous
100
AcDbLine
 10
471.943233
 20
267.4843259999997
 30
0.0
 11
473.7442009999998
 21
267.4843259999997
 31
0.0
  0
LINE
  5
BE2A
330
BBDC
100
AcDbEntity
  8
1
  6
Continuous
100
AcDbLine
 10
205.187276
 20
368.000962
 30
0.0
 11
175.4496059999999
 21
368.000962
 31
0.0
  0
LINE
  5
BE2B
330
BBDC
100
AcDbEntity
  8
1
  6
Continuous
100
AcDbLine
 10
205.187276
 20
391.000962
 30
0.0
 11
175.4496059999999
 21
391.000962
 31
0.0
  0
LINE
  5
BE2C
330
BBDC
100
AcDbEntity
  8
4
  6
CENTER
100
AcDbLine
 10
245.154306
 20
379.500962
 30
0.0
 11
167.4077669999998
 21
379.500962
 31
0.0
  0
LINE
  5
BE2D
330
BBDC
100
AcDbEntity
  8
1
  6
Continuous
100
AcDbLine
 10
173.4140899999999
 20
372.500962
 30
0.0
 11
172.910737
 21
372.500962
 31
0.0
  0
LINE
  5
BE2E
330
BBDC
100
AcDbEntity
  8
1
  6
Continuous
100
AcDbLine
 10
174.3052539999999
 20
369.750962
 30
0.0
 11
173.7985759999999
 21
369.750962
 31
0.0
  0
LINE
  5
BE2F
330
BBDC
100
AcDbEntity
  8
1
  6
Continuous
100
AcDbLine
 10
173.4140899999999
 20
386.500962
 30
0.0
 11
172.910737
 21
386.500962
 31
0.0
  0
LINE
  5
BE30
330
BBDC
100
AcDbEntity
  8
1
  6
Continuous
100
AcDbLine
 10
174.3052539999999
 20
389.250962
 30
0.0
 11
173.7985759999999
 21
389.250962
 31
0.0
  0
LINE
  5
BE31
330
BBDC
100
AcDbEntity
  8
1
  6
Continuous
100
AcDbLine
 10
213.0077669999999
 20
400.500962
 30
0.0
 11
213.0077669999999
 21
358.500962
 31
0.0
  0
LINE
  5
BE32
330
BBDC
100
AcDbEntity
  8
1
  6
Continuous
100
AcDbLine
 10
216.507767
 20
402.500962
 30
0.0
 11
216.507767
 21
356.500962
 31
0.0
  0
LINE
  5
BE33
330
BBDC
100
AcDbEntity
  8
1
  6
Continuous
100
AcDbLine
 10
217.5077669999998
 20
402.500962
 30
0.0
 11
217.5077669999998
 21
356.500962
 31
0.0
  0
LINE
  5
BE34
330
BBDC
100
AcDbEntity
  8
2
  6
Continuous
100
AcDbLine
 10
230.7077669999999
 20
384.593862
 30
0.0
 11
217.5077669999998
 21
374.4080619999999
 31
0.0
  0
LINE
  5
BE35
330
BBDC
100
AcDbEntity
  8
2
  6
Continuous
100
AcDbLine
 10
217.5077669999998
 20
384.593862
 30
0.0
 11
230.7077669999999
 21
374.4080619999999
 31
0.0
  0
LINE
  5
BE36
330
BBDC
100
AcDbEntity
  8
1
  6
Continuous
100
AcDbLine
 10
230.7077669999999
 20
374.4080619999999
 30
0.0
 11
217.5077669999998
 21
374.4080619999999
 31
0.0
  0
LINE
  5
BE37
330
BBDC
100
AcDbEntity
  8
1
  6
Continuous
100
AcDbLine
 10
230.7077669999999
 20
384.593862
 30
0.0
 11
217.5077669999998
 21
384.593862
 31
0.0
  0
LINE
  5
BE38
330
BBDC
100
AcDbEntity
  8
2
  6
Continuous
100
AcDbLine
 10
231.5197669999998
 20
369.3129620000001
 30
0.0
 11
219.4077669999999
 21
369.3129620000001
 31
0.0
  0
LINE
  5
BE39
330
BBDC
100
AcDbEntity
  8
2
  6
Continuous
100
AcDbLine
 10
231.5197669999998
 20
389.6889619999998
 30
0.0
 11
219.4077669999999
 21
389.6889619999998
 31
0.0
  0
LINE
  5
BE3A
330
BBDC
100
AcDbEntity
  8
1
  6
Continuous
100
AcDbLine
 10
230.7077669999999
 20
368.500962
 30
0.0
 11
218.507767
 21
368.500962
 31
0.0
  0
LINE
  5
BE3B
330
BBDC
100
AcDbEntity
  8
1
  6
Continuous
100
AcDbLine
 10
230.7077669999999
 20
390.500962
 30
0.0
 11
218.507767
 21
390.500962
 31
0.0
  0
LINE
  5
BE3C
330
BBDC
100
AcDbEntity
  8
1
  6
Continuous
100
AcDbLine
 10
205.0077669999998
 20
368.000962
 30
0.0
 11
205.0077669999998
 21
391.000962
 31
0.0
  0
LINE
  5
BE3D
330
BBDC
100
AcDbEntity
  8
1
  6
Continuous
100
AcDbLine
 10
205.057767
 20
391.000962
 30
0.0
 11
205.057767
 21
368.000962
 31
0.0
  0
LINE
  5
BE3E
330
BBDC
100
AcDbEntity
  8
1
  6
Continuous
100
AcDbLine
 10
219.4077669999999
 20
374.4080619999999
 30
0.0
 11
219.4077669999999
 21
368.500962
 31
0.0
  0
LINE
  5
BE3F
330
BBDC
100
AcDbEntity
  8
1
  6
Continuous
100
AcDbLine
 10
205.187276
 20
368.000962
 30
0.0
 11
213.0077669999999
 21
364.500962
 31
0.0
  0
LINE
  5
BE40
330
BBDC
100
AcDbEntity
  8
1
  6
Continuous
100
AcDbLine
 10
215.0077669999999
 20
356.500962
 30
0.0
 11
217.5077669999998
 21
356.500962
 31
0.0
  0
ARC
  5
BE41
330
BBDC
100
AcDbEntity
  8
1
  6
Continuous
100
AcDbCircle
 10
215.0077669999999
 20
358.500962
 30
0.0
 40
2.0
100
AcDbArc
 50
180.0
 51
270.0
  0
ARC
  5
BE42
330
BBDC
100
AcDbEntity
  8
1
  6
Continuous
100
AcDbCircle
 10
218.507767
 20
367.500962
 30
0.0
 40
1.0
100
AcDbArc
 50
90.0
 51
180.0
  0
LINE
  5
BE43
330
BBDC
100
AcDbEntity
  8
2
  6
Continuous
100
AcDbLine
 10
218.001341
 20
368.500962
 30
0.0
 11
219.4077669999999
 21
369.3129620000001
 31
0.0
  0
LINE
  5
BE44
330
BBDC
100
AcDbEntity
  8
1
  6
Continuous
100
AcDbLine
 10
205.187276
 20
391.000962
 30
0.0
 11
213.0077669999999
 21
394.500962
 31
0.0
  0
ARC
  5
BE45
330
BBDC
100
AcDbEntity
  8
1
  6
Continuous
100
AcDbCircle
 10
218.507767
 20
391.500962
 30
0.0
 40
1.0
100
AcDbArc
 50
180.0
 51
270.0
  0
LINE
  5
BE46
330
BBDC
100
AcDbEntity
  8
2
  6
Continuous
100
AcDbLine
 10
218.001341
 20
390.500962
 30
0.0
 11
219.4077669999999
 21
389.6889619999998
 31
0.0
  0
LINE
  5
BE47
330
BBDC
100
AcDbEntity
  8
1
  6
Continuous
100
AcDbLine
 10
219.4077669999999
 20
390.500962
 30
0.0
 11
219.4077669999999
 21
384.593862
 31
0.0
  0
LINE
  5
BE48
330
BBDC
100
AcDbEntity
  8
1
  6
Continuous
100
AcDbLine
 10
219.0077669999999
 20
381.750962
 30
0.0
 11
217.5077669999998
 21
381.750962
 31
0.0
  0
LINE
  5
BE49
330
BBDC
100
AcDbEntity
  8
1
  6
Continuous
100
AcDbLine
 10
219.0077669999999
 20
377.250962
 30
0.0
 11
217.5077669999998
 21
377.250962
 31
0.0
  0
LINE
  5
BE4A
330
BBDC
100
AcDbEntity
  8
1
  6
Continuous
100
AcDbLine
 10
219.0077669999999
 20
377.250962
 30
0.0
 11
219.0077669999999
 21
381.750962
 31
0.0
  0
LINE
  5
BE4B
330
BBDC
100
AcDbEntity
  8
1
  6
Continuous
100
AcDbLine
 10
230.7077669999999
 20
374.4080619999999
 30
0.0
 11
230.7077669999999
 21
368.500962
 31
0.0
  0
ARC
  5
BE4C
330
BBDC
100
AcDbEntity
  8
1
  6
Continuous
100
AcDbCircle
 10
237.007767
 20
374.339083
 30
0.0
 40
0.3
100
AcDbArc
 50
270.0
 51
0.0
  0
LINE
  5
BE4D
330
BBDC
100
AcDbEntity
  8
1
  6
Continuous
100
AcDbLine
 10
232.3077669999999
 20
372.700962
 30
0.0
 11
232.3077669999999
 21
386.300962
 31
0.0
  0
LINE
  5
BE4E
330
BBDC
100
AcDbEntity
  8
1
  6
Continuous
100
AcDbLine
 10
232.207767
 20
389.000962
 30
0.0
 11
232.207767
 21
370.000962
 31
0.0
  0
LINE
  5
BE4F
330
BBDC
100
AcDbEntity
  8
1
  6
Continuous
100
AcDbLine
 10
230.7077669999999
 20
368.500962
 30
0.0
 11
232.207767
 21
370.000962
 31
0.0
  0
ARC
  5
BE50
330
BBDC
100
AcDbEntity
  8
1
  6
Continuous
100
AcDbCircle
 10
232.107767
 20
372.700962
 30
0.0
 40
0.2
100
AcDbArc
 50
300.0
 51
0.0
  0
ARC
  5
BE51
330
BBDC
100
AcDbEntity
  8
1
  6
Continuous
100
AcDbCircle
 10
222.8118899999997
 20
379.500962
 30
0.0
 40
9.395877
100
AcDbArc
 50
327.177679
 51
32.822321
  0
LINE
  5
BE52
330
BBDC
100
AcDbEntity
  8
1
  6
Continuous
100
AcDbLine
 10
230.7077669999999
 20
390.500962
 30
0.0
 11
230.7077669999999
 21
384.593862
 31
0.0
  0
LINE
  5
BE53
330
BBDC
100
AcDbEntity
  8
1
  6
Continuous
100
AcDbLine
 10
230.7077669999999
 20
390.500962
 30
0.0
 11
232.207767
 21
389.000962
 31
0.0
  0
ARC
  5
BE54
330
BBDC
100
AcDbEntity
  8
1
  6
Continuous
100
AcDbCircle
 10
232.107767
 20
386.300962
 30
0.0
 40
0.2
100
AcDbArc
 50
0.0
 51
60.0
  0
LINE
  5
BE55
330
BBDC
100
AcDbEntity
  8
1
  6
Continuous
100
AcDbLine
 10
237.3077669999999
 20
384.662842
 30
0.0
 11
237.3077669999999
 21
374.339083
 31
0.0
  0
ARC
  5
BE56
330
BBDC
100
AcDbEntity
  8
1
  6
Continuous
100
AcDbCircle
 10
237.007767
 20
384.662842
 30
0.0
 40
0.3
100
AcDbArc
 50
0.0
 51
90.0
  0
LINE
  5
BE57
330
BBDC
100
AcDbEntity
  8
2
  6
Continuous
100
AcDbLine
 10
237.007767
 20
379.500962
 30
0.0
 11
232.3077669999999
 21
384.9628419999999
 31
0.0
  0
LINE
  5
BE58
330
BBDC
100
AcDbEntity
  8
2
  6
Continuous
100
AcDbLine
 10
237.007767
 20
384.9628419999999
 30
0.0
 11
232.3077669999999
 21
379.500962
 31
0.0
  0
LINE
  5
BE59
330
BBDC
100
AcDbEntity
  8
1
  6
Continuous
100
AcDbLine
 10
237.007767
 20
374.0390829999999
 30
0.0
 11
232.3077669999999
 21
374.0390829999999
 31
0.0
  0
LINE
  5
BE5A
330
BBDC
100
AcDbEntity
  8
1
  6
Continuous
100
AcDbLine
 10
237.007767
 20
379.500962
 30
0.0
 11
232.3077669999999
 21
379.500962
 31
0.0
  0
LINE
  5
BE5B
330
BBDC
100
AcDbEntity
  8
2
  6
Continuous
100
AcDbLine
 10
232.3077669999999
 20
379.500962
 30
0.0
 11
237.007767
 21
374.0390829999999
 31
0.0
  0
LINE
  5
BE5C
330
BBDC
100
AcDbEntity
  8
2
  6
Continuous
100
AcDbLine
 10
232.3077669999999
 20
374.0390829999999
 30
0.0
 11
237.007767
 21
379.500962
 31
0.0
  0
LINE
  5
BE5D
330
BBDC
100
AcDbEntity
  8
1
  6
Continuous
100
AcDbLine
 10
237.007767
 20
384.9628419999999
 30
0.0
 11
232.3077669999999
 21
384.9628419999999
 31
0.0
  0
ARC
  5
BE5E
330
BBDC
100
AcDbEntity
  8
1
  6
Continuous
100
AcDbCircle
 10
215.0077669999999
 20
400.500962
 30
0.0
 40
2.0
100
AcDbArc
 50
90.0
 51
180.0
  0
LINE
  5
BE5F
330
BBDC
100
AcDbEntity
  8
1
  6
Continuous
100
AcDbLine
 10
215.0077669999999
 20
402.500962
 30
0.0
 11
217.5077669999998
 21
402.500962
 31
0.0
  0
LINE
  5
BE60
330
BBDC
100
AcDbEntity
  8
4
  6
CENTER
100
AcDbLine
 10
327.515077
 20
379.500962
 30
0.0
 11
312.8764799999999
 21
379.500962
 31
0.0
  0
ARC
  5
BE61
330
BBDC
100
AcDbEntity
  8
1
  6
Continuous
100
AcDbCircle
 10
304.959338
 20
372.000962
 30
0.0
 40
32.055667
100
AcDbArc
 50
166.4692029999999
 51
193.530797
  0
ARC
  5
BE62
330
BBDC
100
AcDbEntity
  8
1
  6
Continuous
100
AcDbCircle
 10
244.8480029999998
 20
372.000962
 30
0.0
 40
32.055667
100
AcDbArc
 50
346.469203
 51
13.530797
  0
LINE
  5
BE63
330
BBDC
100
AcDbEntity
  8
1
  6
Continuous
100
AcDbLine
 10
271.4036699999999
 20
393.500962
 30
0.0
 11
271.4036699999999
 21
365.500962
 31
0.0
  0
LINE
  5
BE64
330
BBDC
100
AcDbEntity
  8
1
  6
Continuous
100
AcDbLine
 10
272.9036699999999
 20
364.500962
 30
0.0
 11
272.9036699999999
 21
394.500962
 31
0.0
  0
LINE
  5
BE65
330
BBDC
100
AcDbEntity
  8
1
  6
Continuous
100
AcDbLine
 10
276.90367
 20
364.500962
 30
0.0
 11
276.90367
 21
394.500962
 31
0.0
  0
LINE
  5
BE66
330
BBDC
100
AcDbEntity
  8
1
  6
Continuous
100
AcDbLine
 10
278.4036699999999
 20
365.500962
 30
0.0
 11
278.4036699999999
 21
393.500962
 31
0.0
  0
LINE
  5
BE67
330
BBDC
100
AcDbEntity
  8
1
  6
Continuous
100
AcDbLine
 10
269.9036699999999
 20
391.500962
 30
0.0
 11
269.9036699999999
 21
367.500962
 31
0.0
  0
ARC
  5
BE68
330
BBDC
100
AcDbEntity
  8
1
  6
Continuous
100
AcDbCircle
 10
270.65367
 20
367.500962
 30
0.0
 40
0.75
100
AcDbArc
 50
180.0
 51
0.0
  0
LINE
  5
BE69
330
BBDC
100
AcDbEntity
  8
1
  6
Continuous
100
AcDbLine
 10
276.90367
 20
364.500962
 30
0.0
 11
272.9036699999999
 21
364.500962
 31
0.0
  0
LINE
  5
BE6A
330
BBDC
100
AcDbEntity
  8
1
  6
Continuous
100
AcDbLine
 10
271.4036699999999
 20
365.500962
 30
0.0
 11
272.9036699999999
 21
365.500962
 31
0.0
  0
LINE
  5
BE6B
330
BBDC
100
AcDbEntity
  8
1
  6
Continuous
100
AcDbLine
 10
276.90367
 20
365.500962
 30
0.0
 11
278.4036699999999
 21
365.500962
 31
0.0
  0
LINE
  5
BE6C
330
BBDC
100
AcDbEntity
  8
1
  6
Continuous
100
AcDbLine
 10
278.4036699999999
 20
368.151968
 30
0.0
 11
276.90367
 21
368.151968
 31
0.0
  0
LINE
  5
BE6D
330
BBDC
100
AcDbEntity
  8
1
  6
Continuous
100
AcDbLine
 10
278.4036699999999
 20
366.5426319999999
 30
0.0
 11
276.90367
 21
366.5426319999999
 31
0.0
  0
ARC
  5
BE6E
330
BBDC
100
AcDbEntity
  8
1
  6
Continuous
100
AcDbCircle
 10
270.65367
 20
391.500962
 30
0.0
 40
0.75
100
AcDbArc
 50
0.0
 51
180.0
  0
LINE
  5
BE6F
330
BBDC
100
AcDbEntity
  8
1
  6
Continuous
100
AcDbLine
 10
269.9036699999999
 20
379.500962
 30
0.0
 11
271.4036699999999
 21
381.000962
 31
0.0
  0
LINE
  5
BE70
330
BBDC
100
AcDbEntity
  8
1
  6
Continuous
100
AcDbLine
 10
269.9036699999999
 20
378.000962
 30
0.0
 11
271.4036699999999
 21
379.500962
 31
0.0
  0
LINE
  5
BE71
330
BBDC
100
AcDbEntity
  8
4
  6
CENTER
100
AcDbLine
 10
266.9036699999999
 20
379.500962
 30
0.0
 11
281.4036699999999
 21
379.500962
 31
0.0
  0
LINE
  5
BE72
330
BBDC
100
AcDbEntity
  8
1
  6
Continuous
100
AcDbLine
 10
276.90367
 20
394.500962
 30
0.0
 11
272.9036699999999
 21
394.500962
 31
0.0
  0
LINE
  5
BE73
330
BBDC
100
AcDbEntity
  8
1
  6
Continuous
100
AcDbLine
 10
271.4036699999999
 20
393.500962
 30
0.0
 11
272.9036699999999
 21
393.500962
 31
0.0
  0
LINE
  5
BE74
330
BBDC
100
AcDbEntity
  8
1
  6
Continuous
100
AcDbLine
 10
276.90367
 20
393.500962
 30
0.0
 11
278.4036699999999
 21
393.500962
 31
0.0
  0
LINE
  5
BE75
330
BBDC
100
AcDbEntity
  8
1
  6
Continuous
100
AcDbLine
 10
278.4036699999999
 20
392.459292
 30
0.0
 11
276.90367
 21
392.459292
 31
0.0
  0
LINE
  5
BE76
330
BBDC
100
AcDbEntity
  8
1
  6
Continuous
100
AcDbLine
 10
278.4036699999999
 20
390.8499569999997
 30
0.0
 11
276.90367
 21
390.8499569999997
 31
0.0
  0
LINE
  5
BE77
330
BBDC
100
AcDbEntity
  8
1
  6
Continuous
100
AcDbLine
 10
273.793398
 20
379.500962
 30
0.0
 11
276.0139419999998
 21
379.500962
 31
0.0
  0
ARC
  5
BE78
330
BBDC
100
AcDbEntity
  8
1
  6
Continuous
100
AcDbCircle
 10
304.959338
 20
387.000962
 30
0.0
 40
32.055667
100
AcDbArc
 50
166.4692029999999
 51
193.530797
  0
ARC
  5
BE79
330
BBDC
100
AcDbEntity
  8
1
  6
Continuous
100
AcDbCircle
 10
244.8480029999998
 20
387.000962
 30
0.0
 40
32.055667
100
AcDbArc
 50
346.469203
 51
13.530797
  0
LINE
  5
BE7A
330
BBDC
100
AcDbEntity
  8
1
  6
Continuous
100
AcDbLine
 10
319.07648
 20
388.500962
 30
0.0
 11
319.07648
 21
370.500962
 31
0.0
  0
LINE
  5
BE7B
330
BBDC
100
AcDbEntity
  8
1
  6
Continuous
100
AcDbLine
 10
315.8764799999999
 20
388.500962
 30
0.0
 11
315.8764799999999
 21
370.500962
 31
0.0
  0
LINE
  5
BE7C
330
BBDC
100
AcDbEntity
  8
1
  6
Continuous
100
AcDbLine
 10
319.07648
 20
370.500962
 30
0.0
 11
315.8764799999999
 21
370.500962
 31
0.0
  0
LINE
  5
BE7D
330
BBDC
100
AcDbEntity
  8
1
  6
Continuous
100
AcDbLine
 10
319.07648
 20
388.500962
 30
0.0
 11
315.8764799999999
 21
388.500962
 31
0.0
  0
LINE
  5
BE7E
330
BBDC
100
AcDbEntity
  8
1
  6
Continuous
100
AcDbLine
 10
324.515077
 20
388.500962
 30
0.0
 11
324.515077
 21
370.500962
 31
0.0
  0
LINE
  5
BE7F
330
BBDC
100
AcDbEntity
  8
1
  6
Continuous
100
AcDbLine
 10
322.9150769999999
 20
388.500962
 30
0.0
 11
322.9150769999999
 21
370.500962
 31
0.0
  0
LINE
  5
BE80
330
BBDC
100
AcDbEntity
  8
1
  6
Continuous
100
AcDbLine
 10
343.1045539999999
 20
387.500962
 30
0.0
 11
343.1045539999999
 21
371.500962
 31
0.0
  0
LINE
  5
BE81
330
BBDC
100
AcDbEntity
  8
1
  6
Continuous
100
AcDbLine
 10
341.904554
 20
387.500962
 30
0.0
 11
341.904554
 21
371.500962
 31
0.0
  0
LINE
  5
BE82
330
BBDC
100
AcDbEntity
  8
1
  6
Continuous
100
AcDbLine
 10
324.515077
 20
370.500962
 30
0.0
 11
322.9150769999999
 21
370.500962
 31
0.0
  0
LINE
  5
BE83
330
BBDC
100
AcDbEntity
  8
1
  6
Continuous
100
AcDbLine
 10
343.1045539999999
 20
371.500962
 30
0.0
 11
341.904554
 21
371.500962
 31
0.0
  0
LINE
  5
BE84
330
BBDC
100
AcDbEntity
  8
1
  6
Continuous
100
AcDbLine
 10
324.515077
 20
388.500962
 30
0.0
 11
322.9150769999999
 21
388.500962
 31
0.0
  0
LINE
  5
BE85
330
BBDC
100
AcDbEntity
  8
1
  6
Continuous
100
AcDbLine
 10
347.904554
 20
383.500962
 30
0.0
 11
344.404554
 21
383.500962
 31
0.0
  0
ARC
  5
BE86
330
BBDC
100
AcDbEntity
  8
1
  6
Continuous
100
AcDbCircle
 10
342.1295779999999
 20
377.500962
 30
0.0
 40
5.774976999999998
100
AcDbArc
 50
339.7375
 51
20.2625
  0
ARC
  5
BE87
330
BBDC
100
AcDbEntity
  8
1
  6
Continuous
100
AcDbCircle
 10
350.1795309999998
 20
377.500962
 30
0.0
 40
5.774976999999998
100
AcDbArc
 50
159.7375
 51
200.2625
  0
LINE
  5
BE88
330
BBDC
100
AcDbEntity
  8
1
  6
Continuous
100
AcDbLine
 10
347.904554
 20
375.500962
 30
0.0
 11
344.404554
 21
375.500962
 31
0.0
  0
LINE
  5
BE89
330
BBDC
100
AcDbEntity
  8
1
  6
Continuous
100
AcDbLine
 10
344.761934
 20
379.500962
 30
0.0
 11
347.547175
 21
379.500962
 31
0.0
  0
LINE
  5
BE8A
330
BBDC
100
AcDbEntity
  8
1
  6
Continuous
100
AcDbLine
 10
347.904554
 20
383.500962
 30
0.0
 11
347.904554
 21
375.500962
 31
0.0
  0
ARC
  5
BE8B
330
BBDC
100
AcDbEntity
  8
1
  6
Continuous
100
AcDbCircle
 10
350.1795309999998
 20
381.500962
 30
0.0
 40
5.774976999999998
100
AcDbArc
 50
159.7375
 51
200.2625
  0
ARC
  5
BE8C
330
BBDC
100
AcDbEntity
  8
1
  6
Continuous
100
AcDbCircle
 10
342.1295779999999
 20
381.500962
 30
0.0
 40
5.774976999999998
100
AcDbArc
 50
339.7375
 51
20.2625
  0
LINE
  5
BE8D
330
BBDC
100
AcDbEntity
  8
1
  6
Continuous
100
AcDbLine
 10
343.1045539999999
 20
387.500962
 30
0.0
 11
341.904554
 21
387.500962
 31
0.0
  0
LINE
  5
BE8E
330
BBDC
100
AcDbEntity
  8
1
  6
Continuous
100
AcDbLine
 10
344.404554
 20
374.9009619999998
 30
0.0
 11
344.404554
 21
384.1009619999999
 31
0.0
  0
LINE
  5
BE8F
330
BBDC
100
AcDbEntity
  8
1
  6
Continuous
100
AcDbLine
 10
344.404554
 20
374.9009619999998
 30
0.0
 11
343.1045539999999
 21
374.9009619999998
 31
0.0
  0
LINE
  5
BE90
330
BBDC
100
AcDbEntity
  8
1
  6
Continuous
100
AcDbLine
 10
344.404554
 20
384.1009619999999
 30
0.0
 11
343.1045539999999
 21
384.1009619999999
 31
0.0
  0
LINE
  5
BE91
330
BBDC
100
AcDbEntity
  8
1
  6
Continuous
100
AcDbLine
 10
344.404554
 20
379.500962
 30
0.0
 11
343.1045539999999
 21
378.200962
 31
0.0
  0
LINE
  5
BE92
330
BBDC
100
AcDbEntity
  8
1
  6
Continuous
100
AcDbLine
 10
344.404554
 20
380.800962
 30
0.0
 11
343.1045539999999
 21
379.500962
 31
0.0
  0
LINE
  5
BE93
330
BBDC
100
AcDbEntity
  8
4
  6
CENTER
100
AcDbLine
 10
350.904554
 20
379.500962
 30
0.0
 11
338.904554
 21
379.500962
 31
0.0
  0
ARC
  5
BE94
330
BBDC
100
AcDbEntity
  8
1
  6
Continuous
100
AcDbCircle
 10
233.5077669999999
 20
379.500962
 30
0.0
 40
61.0
100
AcDbArc
 50
173.410558
 51
186.589442
  0
ARC
  5
BE95
330
BBDC
100
AcDbEntity
  8
1
  6
Continuous
100
AcDbCircle
 10
233.5077669999999
 20
379.500962
 30
0.0
 40
60.5
100
AcDbArc
 50
170.7259399999998
 51
189.2740599999999
  0
ARC
  5
BE96
330
BBDC
100
AcDbEntity
  8
1
  6
Continuous
100
AcDbCircle
 10
233.5077669999999
 20
379.500962
 30
0.0
 40
60.0
100
AcDbArc
 50
169.7486869999998
 51
170.647965
  0
ARC
  5
BE97
330
BBDC
100
AcDbEntity
  8
1
  6
Continuous
100
AcDbCircle
 10
175.4496059999999
 20
390.000962
 30
0.0
 40
1.0
100
AcDbArc
 50
90.0
 51
169.7486869999998
  0
ARC
  5
BE98
330
BBDC
100
AcDbEntity
  8
1
  6
Continuous
100
AcDbCircle
 10
175.4496059999999
 20
369.000962
 30
0.0
 40
1.0
100
AcDbArc
 50
190.2513129999999
 51
270.0
  0
ARC
  5
BE99
330
BBDC
100
AcDbEntity
  8
1
  6
Continuous
100
AcDbCircle
 10
233.5077669999999
 20
379.500962
 30
0.0
 40
60.0
100
AcDbArc
 50
189.352035
 51
190.2513129999999
  0
ARC
  5
BE9A
330
BBDC
100
AcDbEntity
  8
1
  6
Continuous
100
AcDbCircle
 10
233.5077669999999
 20
72.553562
 30
0.0
 40
60.5
100
AcDbArc
 50
170.7259399999998
 51
189.2740599999999
  0
ARC
  5
BE9B
330
BBDC
100
AcDbEntity
  8
1
  6
Continuous
100
AcDbCircle
 10
233.5077669999999
 20
72.553562
 30
0.0
 40
61.0
100
AcDbArc
 50
173.410558
 51
186.589442
  0
LINE
  5
BE9C
330
BBDC
100
AcDbEntity
  8
1
  6
Continuous
100
AcDbLine
 10
173.4140899999999
 20
65.553562
 30
0.0
 11
172.910737
 21
65.553562
 31
0.0
  0
LINE
  5
BE9D
330
BBDC
100
AcDbEntity
  8
1
  6
Continuous
100
AcDbLine
 10
174.3052539999999
 20
62.80356199999999
 30
0.0
 11
173.7985759999999
 21
62.80356199999999
 31
0.0
  0
LINE
  5
BE9E
330
BBDC
100
AcDbEntity
  8
1
  6
Continuous
100
AcDbLine
 10
173.4140899999999
 20
79.553562
 30
0.0
 11
172.910737
 21
79.553562
 31
0.0
  0
LINE
  5
BE9F
330
BBDC
100
AcDbEntity
  8
1
  6
Continuous
100
AcDbLine
 10
174.3052539999999
 20
82.30356200000001
 30
0.0
 11
173.7985759999999
 21
82.30356200000001
 31
0.0
  0
ARC
  5
BEA0
330
BBDC
100
AcDbEntity
  8
1
  6
Continuous
100
AcDbCircle
 10
233.5077669999999
 20
72.553573
 30
0.0
 40
60.0
100
AcDbArc
 50
169.7486979999998
 51
190.251325
  0
ARC
  5
BEA1
330
BBDC
100
AcDbEntity
  8
1
  6
Continuous
100
AcDbCircle
 10
175.449604
 20
83.053562
 30
0.0
 40
1.0
100
AcDbArc
 50
90.0
 51
169.7486979999998
  0
ARC
  5
BEA2
330
BBDC
100
AcDbEntity
  8
1
  6
Continuous
100
AcDbCircle
 10
175.449608
 20
62.053562
 30
0.0
 40
1.0
100
AcDbArc
 50
190.251325
 51
270.0
  0
ARC
  5
BEA3
330
BBDC
100
AcDbEntity
  8
1
  6
Continuous
100
AcDbCircle
 10
233.5077669999999
 20
72.553573
 30
0.0
 40
54.0
100
AcDbArc
 50
174.338509
 51
185.661491
  0
ARC
  5
BEA4
330
BBDC
100
AcDbEntity
  8
1
  6
Continuous
100
AcDbCircle
 10
180.7662949999999
 20
77.78207299999998
 30
0.0
 40
1.0
100
AcDbArc
 50
90.0
 51
174.338509
  0
ARC
  5
BEA5
330
BBDC
100
AcDbEntity
  8
1
  6
Continuous
100
AcDbCircle
 10
180.7662949999999
 20
67.325073
 30
0.0
 40
1.0
100
AcDbArc
 50
185.661491
 51
270.0
  0
LINE
  5
BEA6
330
BBDC
100
AcDbEntity
  8
1
  6
Continuous
100
AcDbLine
 10
174.8084979999999
 20
83.82101400000001
 30
0.0
 11
180.094973
 21
78.523238
 31
0.0
  0
LINE
  5
BEA7
330
BBDC
100
AcDbEntity
  8
1
  6
Continuous
100
AcDbLine
 10
174.8084979999999
 20
61.28613299999999
 30
0.0
 11
180.094973
 21
66.58390899999999
 31
0.0
  0
LINE
  5
BEA8
330
BBDC
100
AcDbEntity
  8
1
  6
Continuous
100
AcDbLine
 10
174.3052539999999
 20
278.4146129999999
 30
0.0
 11
174.3052539999999
 21
246.4843259999999
 31
0.0
  0
LINE
  5
BEA9
330
BBDC
100
AcDbEntity
  8
1
  6
Continuous
100
AcDbLine
 10
173.7985759999999
 20
278.4146129999999
 30
0.0
 11
173.7985759999999
 21
246.4843259999999
 31
0.0
  0
LINE
  5
BEAA
330
BBDC
100
AcDbEntity
  8
1
  6
Continuous
100
AcDbLine
 10
173.007767
 20
279.4843259999999
 30
0.0
 11
173.007767
 21
246.4843259999999
 31
0.0
  0
LINE
  5
BEAB
330
BBDC
100
AcDbEntity
  8
1
  6
Continuous
100
AcDbLine
 10
172.507767
 20
254.9843259999999
 30
0.0
 11
173.007767
 21
254.4843259999999
 31
0.0
  0
LINE
  5
BEAC
330
BBDC
100
AcDbEntity
  8
1
  6
Continuous
100
AcDbLine
 10
174.3052539999999
 20
246.4843259999999
 30
0.0
 11
173.007767
 21
246.4843259999999
 31
0.0
  0
LINE
  5
BEAD
330
BBDC
100
AcDbEntity
  8
1
  6
Continuous
100
AcDbLine
 10
173.007767
 20
254.4843259999999
 30
0.0
 11
172.507767
 21
253.984326
 31
0.0
  0
LINE
  5
BEAE
330
BBDC
100
AcDbEntity
  8
1
  6
Continuous
100
AcDbLine
 10
172.507767
 20
253.984326
 30
0.0
 11
173.007767
 21
253.4843259999999
 31
0.0
  0
LINE
  5
BEAF
330
BBDC
100
AcDbEntity
  8
1
  6
Continuous
100
AcDbLine
 10
173.007767
 20
253.4843259999999
 30
0.0
 11
172.507767
 21
252.9843259999999
 31
0.0
  0
LINE
  5
BEB0
330
BBDC
100
AcDbEntity
  8
1
  6
Continuous
100
AcDbLine
 10
172.507767
 20
252.9843259999999
 30
0.0
 11
173.007767
 21
252.4843259999999
 31
0.0
  0
LINE
  5
BEB1
330
BBDC
100
AcDbEntity
  8
1
  6
Continuous
100
AcDbLine
 10
173.007767
 20
252.4843259999999
 30
0.0
 11
172.507767
 21
251.984326
 31
0.0
  0
LINE
  5
BEB2
330
BBDC
100
AcDbEntity
  8
1
  6
Continuous
100
AcDbLine
 10
172.507767
 20
251.984326
 30
0.0
 11
173.007767
 21
251.4843259999999
 31
0.0
  0
LINE
  5
BEB3
330
BBDC
100
AcDbEntity
  8
1
  6
Continuous
100
AcDbLine
 10
173.007767
 20
251.4843259999999
 30
0.0
 11
172.507767
 21
250.9843259999999
 31
0.0
  0
LINE
  5
BEB4
330
BBDC
100
AcDbEntity
  8
1
  6
Continuous
100
AcDbLine
 10
172.507767
 20
250.9843259999999
 30
0.0
 11
173.007767
 21
250.4843259999999
 31
0.0
  0
LINE
  5
BEB5
330
BBDC
100
AcDbEntity
  8
1
  6
Continuous
100
AcDbLine
 10
172.507767
 20
249.984326
 30
0.0
 11
173.007767
 21
249.4843259999999
 31
0.0
  0
LINE
  5
BEB6
330
BBDC
100
AcDbEntity
  8
1
  6
Continuous
100
AcDbLine
 10
173.007767
 20
250.4843259999999
 30
0.0
 11
172.507767
 21
249.984326
 31
0.0
  0
LINE
  5
BEB7
330
BBDC
100
AcDbEntity
  8
1
  6
Continuous
100
AcDbLine
 10
172.507767
 20
259.9843259999999
 30
0.0
 11
173.007767
 21
259.4843259999997
 31
0.0
  0
LINE
  5
BEB8
330
BBDC
100
AcDbEntity
  8
1
  6
Continuous
100
AcDbLine
 10
173.007767
 20
259.4843259999997
 30
0.0
 11
172.507767
 21
258.9843259999997
 31
0.0
  0
LINE
  5
BEB9
330
BBDC
100
AcDbEntity
  8
1
  6
Continuous
100
AcDbLine
 10
172.507767
 20
258.9843259999997
 30
0.0
 11
173.007767
 21
258.4843259999999
 31
0.0
  0
LINE
  5
BEBA
330
BBDC
100
AcDbEntity
  8
1
  6
Continuous
100
AcDbLine
 10
173.007767
 20
258.4843259999999
 30
0.0
 11
172.507767
 21
257.9843259999999
 31
0.0
  0
LINE
  5
BEBB
330
BBDC
100
AcDbEntity
  8
1
  6
Continuous
100
AcDbLine
 10
172.507767
 20
257.9843259999999
 30
0.0
 11
173.007767
 21
257.4843259999997
 31
0.0
  0
LINE
  5
BEBC
330
BBDC
100
AcDbEntity
  8
1
  6
Continuous
100
AcDbLine
 10
173.007767
 20
257.4843259999997
 30
0.0
 11
172.507767
 21
256.9843259999997
 31
0.0
  0
LINE
  5
BEBD
330
BBDC
100
AcDbEntity
  8
1
  6
Continuous
100
AcDbLine
 10
172.507767
 20
256.9843259999997
 30
0.0
 11
173.007767
 21
256.4843259999999
 31
0.0
  0
LINE
  5
BEBE
330
BBDC
100
AcDbEntity
  8
1
  6
Continuous
100
AcDbLine
 10
173.007767
 20
256.4843259999999
 30
0.0
 11
172.507767
 21
255.984326
 31
0.0
  0
LINE
  5
BEBF
330
BBDC
100
AcDbEntity
  8
1
  6
Continuous
100
AcDbLine
 10
172.507767
 20
255.984326
 30
0.0
 11
173.007767
 21
255.4843259999999
 31
0.0
  0
LINE
  5
BEC0
330
BBDC
100
AcDbEntity
  8
1
  6
Continuous
100
AcDbLine
 10
173.007767
 20
255.4843259999999
 30
0.0
 11
172.507767
 21
254.9843259999999
 31
0.0
  0
LINE
  5
BEC1
330
BBDC
100
AcDbEntity
  8
1
  6
Continuous
100
AcDbLine
 10
173.007767
 20
261.4843259999997
 30
0.0
 11
172.507767
 21
260.9843259999997
 31
0.0
  0
LINE
  5
BEC2
330
BBDC
100
AcDbEntity
  8
1
  6
Continuous
100
AcDbLine
 10
172.507767
 20
260.9843259999997
 30
0.0
 11
173.007767
 21
260.4843259999999
 31
0.0
  0
LINE
  5
BEC3
330
BBDC
100
AcDbEntity
  8
1
  6
Continuous
100
AcDbLine
 10
173.007767
 20
260.4843259999999
 30
0.0
 11
172.507767
 21
259.9843259999999
 31
0.0
  0
LINE
  5
BEC4
330
BBDC
100
AcDbEntity
  8
1
  6
Continuous
100
AcDbLine
 10
175.6201619999999
 20
277.5497009999999
 30
0.0
 11
184.7430349999999
 21
277.5497009999999
 31
0.0
  0
LINE
  5
BEC5
330
BBDC
100
AcDbEntity
  8
1
  6
Continuous
100
AcDbLine
 10
174.0077669999998
 20
280.4843259999996
 30
0.0
 11
184.7430349999999
 21
280.4843259999996
 31
0.0
  0
ARC
  5
BEC6
330
BBDC
100
AcDbEntity
  8
1
  6
Continuous
100
AcDbCircle
 10
174.0077669999998
 20
279.4843259999999
 30
0.0
 40
1.0
100
AcDbArc
 50
90.0
 51
180.0
  0
LINE
  5
BEC7
330
BBDC
100
AcDbEntity
  8
1
  6
Continuous
100
AcDbLine
 10
174.3052539999999
 20
278.4146129999999
 30
0.0
 11
174.8290989999999
 21
277.5816869999998
 31
0.0
  0
LINE
  5
BEC8
330
BBDC
100
AcDbEntity
  8
1
  6
Continuous
100
AcDbLine
 10
173.7985759999999
 20
278.4146129999999
 30
0.0
 11
173.628201
 21
279.8945279999999
 31
0.0
  0
LINE
  5
BEC9
330
BBDC
100
AcDbEntity
  8
1
  6
Continuous
100
AcDbLine
 10
173.7985759999999
 20
278.4146129999999
 30
0.0
 11
174.3052539999999
 21
278.4146129999999
 31
0.0
  0
ARC
  5
BECA
330
BBDC
100
AcDbEntity
  8
1
  6
Continuous
100
AcDbCircle
 10
175.6201619999999
 20
276.5497009999999
 30
0.0
 40
1.0
100
AcDbArc
 50
90.0
 51
180.0
  0
ARC
  5
BECB
330
BBDC
100
AcDbEntity
  8
1
  6
Continuous
100
AcDbCircle
 10
184.7430349999999
 20
270.4843259999999
 30
0.0
 40
7.065374
100
AcDbArc
 50
78.253134
 51
90.0
  0
ARC
  5
BECC
330
BBDC
100
AcDbEntity
  8
1
  6
Continuous
100
AcDbCircle
 10
184.7430349999999
 20
270.4843259999999
 30
0.0
 40
10.0
100
AcDbArc
 50
78.253134
 51
90.0
  0
LINE
  5
BECD
330
BBDC
100
AcDbEntity
  8
1
  6
Continuous
100
AcDbLine
 10
57.51649699999999
 20
249.4843259999999
 30
0.0
 11
50.588294
 21
261.4843259999997
 31
0.0
  0
LINE
  5
BECE
330
BBDC
100
AcDbEntity
  8
1
  6
Continuous
100
AcDbLine
 10
748.4445149999997
 20
278.4146129999999
 30
0.0
 11
748.4445149999997
 21
246.4843259999999
 31
0.0
  0
LINE
  5
BECF
330
BBDC
100
AcDbEntity
  8
1
  6
Continuous
100
AcDbLine
 10
748.9511929999999
 20
278.4146129999999
 30
0.0
 11
748.9511929999999
 21
246.4843259999999
 31
0.0
  0
LINE
  5
BED0
330
BBDC
100
AcDbEntity
  8
1
  6
Continuous
100
AcDbLine
 10
749.7420019999997
 20
279.4843259999999
 30
0.0
 11
749.7420019999997
 21
246.4843259999999
 31
0.0
  0
LINE
  5
BED1
330
BBDC
100
AcDbEntity
  8
1
  6
Continuous
100
AcDbLine
 10
685.442002
 20
268.646206
 30
0.0
 11
685.442002
 21
258.322447
 31
0.0
  0
LINE
  5
BED2
330
BBDC
100
AcDbEntity
  8
2
  6
Continuous
100
AcDbLine
 10
685.7420019999998
 20
263.4843259999997
 30
0.0
 11
690.4420019999996
 21
268.946206
 31
0.0
  0
LINE
  5
BED3
330
BBDC
100
AcDbEntity
  8
2
  6
Continuous
100
AcDbLine
 10
685.7420019999998
 20
268.946206
 30
0.0
 11
690.4420019999996
 21
263.4843259999997
 31
0.0
  0
LINE
  5
BED4
330
BBDC
100
AcDbEntity
  8
1
  6
Continuous
100
AcDbLine
 10
705.2420019999998
 20
286.4843259999997
 30
0.0
 11
705.2420019999998
 21
240.4843259999999
 31
0.0
  0
LINE
  5
BED5
330
BBDC
100
AcDbEntity
  8
1
  6
Continuous
100
AcDbLine
 10
706.2420019999998
 20
286.4843259999997
 30
0.0
 11
706.2420019999998
 21
240.4843259999999
 31
0.0
  0
LINE
  5
BED6
330
BBDC
100
AcDbEntity
  8
1
  6
Continuous
100
AcDbLine
 10
709.7420019999998
 20
284.4843259999997
 30
0.0
 11
709.7420019999998
 21
242.4843259999999
 31
0.0
  0
LINE
  5
BED7
330
BBDC
100
AcDbEntity
  8
1
  6
Continuous
100
AcDbLine
 10
717.7420019999998
 20
250.4843259999999
 30
0.0
 11
717.7420019999998
 21
276.4843259999997
 31
0.0
  0
LINE
  5
BED8
330
BBDC
100
AcDbEntity
  8
1
  6
Continuous
100
AcDbLine
 10
717.6920019999997
 20
276.291455
 30
0.0
 11
717.6920019999997
 21
250.6771969999999
 31
0.0
  0
LINE
  5
BED9
330
BBDC
100
AcDbEntity
  8
1
  6
Continuous
100
AcDbLine
 10
690.4420019999996
 20
256.684326
 30
0.0
 11
690.4420019999996
 21
270.2843259999997
 31
0.0
  0
LINE
  5
BEDA
330
BBDC
100
AcDbEntity
  8
1
  6
Continuous
100
AcDbLine
 10
690.5420019999996
 20
272.9843259999999
 30
0.0
 11
690.5420019999996
 21
253.984326
 31
0.0
  0
LINE
  5
BEDB
330
BBDC
100
AcDbEntity
  8
4
  6
CENTER
100
AcDbLine
 10
754.842002
 20
263.4843259999997
 30
0.0
 11
681.9160910000001
 21
263.4843259999997
 31
0.0
  0
LINE
  5
BEDC
330
BBDC
100
AcDbEntity
  8
1
  6
Continuous
100
AcDbLine
 10
737.681418
 20
247.9523369999999
 30
0.0
 11
717.7420019999998
 21
250.4843259999999
 31
0.0
  0
LINE
  5
BEDD
330
BBDC
100
AcDbEntity
  8
1
  6
Continuous
100
AcDbLine
 10
733.3718639999997
 20
252.1365139999999
 30
0.0
 11
718.196505
 21
254.063543
 31
0.0
  0
LINE
  5
BEDE
330
BBDC
100
AcDbEntity
  8
1
  6
Continuous
100
AcDbLine
 10
737.7420019999997
 20
247.176345
 30
0.0
 11
737.7420019999997
 21
197.6411799999999
 31
0.0
  0
LINE
  5
BEDF
330
BBDC
100
AcDbEntity
  8
1
  6
Continuous
100
AcDbLine
 10
743.4485479999997
 20
185.2522439999999
 30
0.0
 11
747.890887
 21
223.2761329999999
 31
0.0
  0
ARC
  5
BEE0
330
BBDC
100
AcDbEntity
  8
1
  6
Continuous
100
AcDbCircle
 10
738.2420019999997
 20
188.484326
 30
0.0
 40
5.0
100
AcDbArc
 50
180.0
 51
270.0
  0
LINE
  5
BEE1
330
BBDC
100
AcDbEntity
  8
1
  6
Continuous
100
AcDbLine
 10
741.4620589999997
 20
183.484326
 30
0.0
 11
738.2420019999997
 21
183.484326
 31
0.0
  0
ARC
  5
BEE2
330
BBDC
100
AcDbEntity
  8
1
  6
Continuous
100
AcDbCircle
 10
741.4620589999997
 20
185.484326
 30
0.0
 40
2.0
100
AcDbArc
 50
270.0
 51
353.3363299999999
  0
LINE
  5
BEE3
330
BBDC
100
AcDbEntity
  8
1
  6
Continuous
100
AcDbLine
 10
734.413574
 20
192.655899
 30
0.0
 11
736.570429
 21
194.8127529999999
 31
0.0
  0
ARC
  5
BEE4
330
BBDC
100
AcDbEntity
  8
1
  6
Continuous
100
AcDbCircle
 10
733.7420019999997
 20
197.6411799999999
 30
0.0
 40
4.0
100
AcDbArc
 50
315.0
 51
0.0
  0
ARC
  5
BEE5
330
BBDC
100
AcDbEntity
  8
1
  6
Continuous
100
AcDbCircle
 10
737.2420019999997
 20
189.827472
 30
0.0
 40
4.0
100
AcDbArc
 50
135.0
 51
180.0
  0
LINE
  5
BEE6
330
BBDC
100
AcDbEntity
  8
1
  6
Continuous
100
AcDbLine
 10
733.2420019999997
 20
189.827472
 30
0.0
 11
733.2420019999997
 21
188.484326
 31
0.0
  0
ARC
  5
BEE7
330
BBDC
100
AcDbEntity
  8
1
  6
Continuous
100
AcDbCircle
 10
549.2420019999998
 20
246.4843259999999
 30
0.0
 40
200.0
100
AcDbArc
 50
353.3363299999999
 51
0.0
  0
LINE
  5
BEE8
330
BBDC
100
AcDbEntity
  8
1
  6
Continuous
100
AcDbLine
 10
750.2420019999997
 20
259.9843259999999
 30
0.0
 11
749.7420019999997
 21
259.4843259999997
 31
0.0
  0
LINE
  5
BEE9
330
BBDC
100
AcDbEntity
  8
1
  6
Continuous
100
AcDbLine
 10
749.7420019999997
 20
259.4843259999997
 30
0.0
 11
750.2420019999997
 21
258.9843259999997
 31
0.0
  0
LINE
  5
BEEA
330
BBDC
100
AcDbEntity
  8
1
  6
Continuous
100
AcDbLine
 10
750.2420019999997
 20
258.9843259999997
 30
0.0
 11
749.7420019999997
 21
258.4843259999999
 31
0.0
  0
LINE
  5
BEEB
330
BBDC
100
AcDbEntity
  8
1
  6
Continuous
100
AcDbLine
 10
749.7420019999997
 20
258.4843259999999
 30
0.0
 11
750.2420019999997
 21
257.9843259999999
 31
0.0
  0
LINE
  5
BEEC
330
BBDC
100
AcDbEntity
  8
1
  6
Continuous
100
AcDbLine
 10
750.2420019999997
 20
257.9843259999999
 30
0.0
 11
749.7420019999997
 21
257.4843259999997
 31
0.0
  0
LINE
  5
BEED
330
BBDC
100
AcDbEntity
  8
1
  6
Continuous
100
AcDbLine
 10
749.7420019999997
 20
257.4843259999997
 30
0.0
 11
750.2420019999997
 21
256.9843259999997
 31
0.0
  0
LINE
  5
BEEE
330
BBDC
100
AcDbEntity
  8
1
  6
Continuous
100
AcDbLine
 10
750.2420019999997
 20
256.9843259999997
 30
0.0
 11
749.7420019999997
 21
256.4843259999999
 31
0.0
  0
LINE
  5
BEEF
330
BBDC
100
AcDbEntity
  8
1
  6
Continuous
100
AcDbLine
 10
749.7420019999997
 20
261.4843259999997
 30
0.0
 11
750.2420019999997
 21
260.9843259999997
 31
0.0
  0
LINE
  5
BEF0
330
BBDC
100
AcDbEntity
  8
1
  6
Continuous
100
AcDbLine
 10
750.2420019999997
 20
260.9843259999997
 30
0.0
 11
749.7420019999997
 21
260.4843259999999
 31
0.0
  0
LINE
  5
BEF1
330
BBDC
100
AcDbEntity
  8
1
  6
Continuous
100
AcDbLine
 10
749.7420019999997
 20
260.4843259999999
 30
0.0
 11
750.2420019999997
 21
259.9843259999999
 31
0.0
  0
LINE
  5
BEF2
330
BBDC
100
AcDbEntity
  8
1
  6
Continuous
100
AcDbLine
 10
750.2420019999997
 20
254.9843259999999
 30
0.0
 11
749.7420019999997
 21
254.4843259999999
 31
0.0
  0
LINE
  5
BEF3
330
BBDC
100
AcDbEntity
  8
1
  6
Continuous
100
AcDbLine
 10
748.4445149999997
 20
246.4843259999999
 30
0.0
 11
749.7420019999997
 21
246.4843259999999
 31
0.0
  0
LINE
  5
BEF4
330
BBDC
100
AcDbEntity
  8
1
  6
Continuous
100
AcDbLine
 10
749.7420019999997
 20
254.4843259999999
 30
0.0
 11
750.2420019999997
 21
253.984326
 31
0.0
  0
LINE
  5
BEF5
330
BBDC
100
AcDbEntity
  8
1
  6
Continuous
100
AcDbLine
 10
750.2420019999997
 20
253.984326
 30
0.0
 11
749.7420019999997
 21
253.4843259999999
 31
0.0
  0
LINE
  5
BEF6
330
BBDC
100
AcDbEntity
  8
1
  6
Continuous
100
AcDbLine
 10
749.7420019999997
 20
253.4843259999999
 30
0.0
 11
750.2420019999997
 21
252.9843259999999
 31
0.0
  0
LINE
  5
BEF7
330
BBDC
100
AcDbEntity
  8
1
  6
Continuous
100
AcDbLine
 10
750.2420019999997
 20
252.9843259999999
 30
0.0
 11
749.7420019999997
 21
252.4843259999999
 31
0.0
  0
LINE
  5
BEF8
330
BBDC
100
AcDbEntity
  8
1
  6
Continuous
100
AcDbLine
 10
749.7420019999997
 20
252.4843259999999
 30
0.0
 11
750.2420019999997
 21
251.984326
 31
0.0
  0
LINE
  5
BEF9
330
BBDC
100
AcDbEntity
  8
1
  6
Continuous
100
AcDbLine
 10
750.2420019999997
 20
251.984326
 30
0.0
 11
749.7420019999997
 21
251.4843259999999
 31
0.0
  0
LINE
  5
BEFA
330
BBDC
100
AcDbEntity
  8
1
  6
Continuous
100
AcDbLine
 10
749.7420019999997
 20
251.4843259999999
 30
0.0
 11
750.2420019999997
 21
250.9843259999999
 31
0.0
  0
LINE
  5
BEFB
330
BBDC
100
AcDbEntity
  8
1
  6
Continuous
100
AcDbLine
 10
750.2420019999997
 20
250.9843259999999
 30
0.0
 11
749.7420019999997
 21
250.4843259999999
 31
0.0
  0
LINE
  5
BEFC
330
BBDC
100
AcDbEntity
  8
1
  6
Continuous
100
AcDbLine
 10
750.2420019999997
 20
249.984326
 30
0.0
 11
749.7420019999997
 21
249.4843259999999
 31
0.0
  0
LINE
  5
BEFD
330
BBDC
100
AcDbEntity
  8
1
  6
Continuous
100
AcDbLine
 10
749.7420019999997
 20
250.4843259999999
 30
0.0
 11
750.2420019999997
 21
249.984326
 31
0.0
  0
LINE
  5
BEFE
330
BBDC
100
AcDbEntity
  8
1
  6
Continuous
100
AcDbLine
 10
750.2420019999997
 20
255.984326
 30
0.0
 11
749.7420019999997
 21
255.4843259999999
 31
0.0
  0
LINE
  5
BEFF
330
BBDC
100
AcDbEntity
  8
1
  6
Continuous
100
AcDbLine
 10
749.7420019999997
 20
255.4843259999999
 30
0.0
 11
750.2420019999997
 21
254.9843259999999
 31
0.0
  0
LINE
  5
BF00
330
BBDC
100
AcDbEntity
  8
1
  6
Continuous
100
AcDbLine
 10
749.7420019999997
 20
256.4843259999999
 30
0.0
 11
750.2420019999997
 21
255.984326
 31
0.0
  0
ARC
  5
BF01
330
BBDC
100
AcDbEntity
  8
1
  6
Continuous
100
AcDbCircle
 10
732.7420019999997
 20
247.176345
 30
0.0
 40
5.0
100
AcDbArc
 50
0.0
 51
82.76307799999996
  0
LINE
  5
BF02
330
BBDC
100
AcDbEntity
  8
1
  6
Continuous
100
AcDbLine
 10
690.7920019999997
 20
253.7343259999999
 30
0.0
 11
705.2420019999998
 21
253.7343259999999
 31
0.0
  0
ARC
  5
BF03
330
BBDC
100
AcDbEntity
  8
1
  6
Continuous
100
AcDbCircle
 10
707.7420019999998
 20
242.4843259999999
 30
0.0
 40
2.0
100
AcDbArc
 50
270.0
 51
0.0
  0
LINE
  5
BF04
330
BBDC
100
AcDbEntity
  8
1
  6
Continuous
100
AcDbLine
 10
709.2239049999998
 20
241.1412089999998
 30
0.0
 11
717.5624769999998
 21
250.341418
 31
0.0
  0
LINE
  5
BF05
330
BBDC
100
AcDbEntity
  8
1
  6
Continuous
100
AcDbLine
 10
707.7420019999998
 20
240.4843259999999
 30
0.0
 11
705.2420019999998
 21
240.4843259999999
 31
0.0
  0
ARC
  5
BF06
330
BBDC
100
AcDbEntity
  8
1
  6
Continuous
100
AcDbCircle
 10
717.1920019999999
 20
250.6771969999999
 30
0.0
 40
0.5
100
AcDbArc
 50
317.8125359999999
 51
0.0
  0
LINE
  5
BF07
330
BBDC
100
AcDbEntity
  8
1
  6
Continuous
100
AcDbLine
 10
717.7420019999998
 20
254.4843259999999
 30
0.0
 11
717.6920019999997
 21
254.4843259999999
 31
0.0
  0
LINE
  5
BF08
330
BBDC
100
AcDbEntity
  8
1
  6
Continuous
100
AcDbLine
 10
703.7420019999998
 20
248.4843259999999
 30
0.0
 11
705.2420019999998
 21
248.4843259999999
 31
0.0
  0
LINE
  5
BF09
330
BBDC
100
AcDbEntity
  8
1
  6
Continuous
100
AcDbLine
 10
703.7420019999998
 20
243.9843259999999
 30
0.0
 11
705.2420019999998
 21
243.9843259999999
 31
0.0
  0
LINE
  5
BF0A
330
BBDC
100
AcDbEntity
  8
1
  6
Continuous
100
AcDbLine
 10
703.7420019999998
 20
243.9843259999999
 30
0.0
 11
703.7420019999998
 21
248.4843259999999
 31
0.0
  0
LINE
  5
BF0B
330
BBDC
100
AcDbEntity
  8
1
  6
Continuous
100
AcDbLine
 10
685.7420019999998
 20
258.022447
 30
0.0
 11
690.4420019999996
 21
258.022447
 31
0.0
  0
LINE
  5
BF0C
330
BBDC
100
AcDbEntity
  8
1
  6
Continuous
100
AcDbLine
 10
685.7420019999998
 20
263.4843259999997
 30
0.0
 11
690.4420019999996
 21
263.4843259999997
 31
0.0
  0
LINE
  5
BF0D
330
BBDC
100
AcDbEntity
  8
2
  6
Continuous
100
AcDbLine
 10
690.4420019999996
 20
263.4843259999997
 30
0.0
 11
685.7420019999998
 21
258.022447
 31
0.0
  0
LINE
  5
BF0E
330
BBDC
100
AcDbEntity
  8
2
  6
Continuous
100
AcDbLine
 10
690.4420019999996
 20
258.022447
 30
0.0
 11
685.7420019999998
 21
263.4843259999997
 31
0.0
  0
ARC
  5
BF0F
330
BBDC
100
AcDbEntity
  8
1
  6
Continuous
100
AcDbCircle
 10
690.6420019999996
 20
256.684326
 30
0.0
 40
0.2
100
AcDbArc
 50
180.0
 51
239.9999999999999
  0
LINE
  5
BF10
330
BBDC
100
AcDbEntity
  8
1
  6
Continuous
100
AcDbLine
 10
690.7920019999997
 20
253.7343259999999
 30
0.0
 11
690.5420019999996
 21
253.984326
 31
0.0
  0
ARC
  5
BF11
330
BBDC
100
AcDbEntity
  8
1
  6
Continuous
100
AcDbCircle
 10
685.7420019999998
 20
258.322447
 30
0.0
 40
0.3
100
AcDbArc
 50
180.0
 51
270.0
  0
LINE
  5
BF12
330
BBDC
100
AcDbEntity
  8
1
  6
Continuous
100
AcDbLine
 10
718.1886500000001
 20
273.5798019999999
 30
0.0
 11
736.568307
 21
277.4017279999998
 31
0.0
  0
LINE
  5
BF13
330
BBDC
100
AcDbEntity
  8
1
  6
Continuous
100
AcDbLine
 10
717.7420019999998
 20
276.4843259999997
 30
0.0
 11
735.9708519999997
 21
280.2748919999999
 31
0.0
  0
LINE
  5
BF14
330
BBDC
100
AcDbEntity
  8
1
  6
Continuous
100
AcDbLine
 10
748.7420019999997
 20
280.4843259999996
 30
0.0
 11
738.0067339999997
 21
280.4843259999996
 31
0.0
  0
ARC
  5
BF15
330
BBDC
100
AcDbEntity
  8
1
  6
Continuous
100
AcDbCircle
 10
747.1296069999997
 20
276.5497009999999
 30
0.0
 40
1.0
100
AcDbArc
 50
0.0
 51
90.0
  0
ARC
  5
BF16
330
BBDC
100
AcDbEntity
  8
1
  6
Continuous
100
AcDbCircle
 10
748.7420019999997
 20
279.4843259999999
 30
0.0
 40
1.0
100
AcDbArc
 50
0.0
 51
90.0
  0
LINE
  5
BF17
330
BBDC
100
AcDbEntity
  8
1
  6
Continuous
100
AcDbLine
 10
748.9511929999999
 20
278.4146129999999
 30
0.0
 11
749.121568
 21
279.8945279999999
 31
0.0
  0
LINE
  5
BF18
330
BBDC
100
AcDbEntity
  8
1
  6
Continuous
100
AcDbLine
 10
748.9511929999999
 20
278.4146129999999
 30
0.0
 11
748.4445149999997
 21
278.4146129999999
 31
0.0
  0
LINE
  5
BF19
330
BBDC
100
AcDbEntity
  8
1
  6
Continuous
100
AcDbLine
 10
748.4445149999997
 20
278.4146129999999
 30
0.0
 11
747.9206699999997
 21
277.5816869999998
 31
0.0
  0
ARC
  5
BF1A
330
BBDC
100
AcDbEntity
  8
1
  6
Continuous
100
AcDbCircle
 10
738.0067339999997
 20
270.4843259999999
 30
0.0
 40
10.0
100
AcDbArc
 50
90.0
 51
101.746866
  0
ARC
  5
BF1B
330
BBDC
100
AcDbEntity
  8
1
  6
Continuous
100
AcDbCircle
 10
738.0067339999997
 20
270.4843259999999
 30
0.0
 40
7.065374
100
AcDbArc
 50
90.0
 51
101.746866
  0
LINE
  5
BF1C
330
BBDC
100
AcDbEntity
  8
1
  6
Continuous
100
AcDbLine
 10
747.1296069999997
 20
277.5497009999999
 30
0.0
 11
738.0067339999997
 21
277.5497009999999
 31
0.0
  0
LINE
  5
BF1D
330
BBDC
100
AcDbEntity
  8
1
  6
Continuous
100
AcDbLine
 10
690.7920019999997
 20
273.2343259999999
 30
0.0
 11
705.2420019999998
 21
273.2343259999999
 31
0.0
  0
ARC
  5
BF1E
330
BBDC
100
AcDbEntity
  8
1
  6
Continuous
100
AcDbCircle
 10
707.7420019999998
 20
284.4843259999997
 30
0.0
 40
2.0
100
AcDbArc
 50
0.0
 51
90.0
  0
LINE
  5
BF1F
330
BBDC
100
AcDbEntity
  8
1
  6
Continuous
100
AcDbLine
 10
709.2239049999998
 20
285.827443
 30
0.0
 11
717.5624769999998
 21
276.6272339999998
 31
0.0
  0
LINE
  5
BF20
330
BBDC
100
AcDbEntity
  8
1
  6
Continuous
100
AcDbLine
 10
717.6920019999997
 20
274.8343259999999
 30
0.0
 11
717.7420019999998
 21
274.8343259999999
 31
0.0
  0
ARC
  5
BF21
330
BBDC
100
AcDbEntity
  8
1
  6
Continuous
100
AcDbCircle
 10
717.1920019999999
 20
276.291455
 30
0.0
 40
0.5
100
AcDbArc
 50
0.0
 51
42.18746399999999
  0
LINE
  5
BF22
330
BBDC
100
AcDbEntity
  8
1
  6
Continuous
100
AcDbLine
 10
703.7420019999998
 20
282.9843259999999
 30
0.0
 11
705.2420019999998
 21
282.9843259999999
 31
0.0
  0
LINE
  5
BF23
330
BBDC
100
AcDbEntity
  8
1
  6
Continuous
100
AcDbLine
 10
703.7420019999998
 20
278.4843259999997
 30
0.0
 11
705.2420019999998
 21
278.4843259999997
 31
0.0
  0
LINE
  5
BF24
330
BBDC
100
AcDbEntity
  8
1
  6
Continuous
100
AcDbLine
 10
703.7420019999998
 20
282.9843259999999
 30
0.0
 11
703.7420019999998
 21
278.4843259999997
 31
0.0
  0
LINE
  5
BF25
330
BBDC
100
AcDbEntity
  8
1
  6
Continuous
100
AcDbLine
 10
707.7420019999998
 20
286.4843259999997
 30
0.0
 11
705.2420019999998
 21
286.4843259999997
 31
0.0
  0
LINE
  5
BF26
330
BBDC
100
AcDbEntity
  8
1
  6
Continuous
100
AcDbLine
 10
685.7420019999998
 20
268.946206
 30
0.0
 11
690.4420019999996
 21
268.946206
 31
0.0
  0
ARC
  5
BF27
330
BBDC
100
AcDbEntity
  8
1
  6
Continuous
100
AcDbCircle
 10
690.6420019999996
 20
270.2843259999997
 30
0.0
 40
0.2
100
AcDbArc
 50
119.9999999999999
 51
180.0
  0
LINE
  5
BF28
330
BBDC
100
AcDbEntity
  8
1
  6
Continuous
100
AcDbLine
 10
690.5420019999996
 20
272.9843259999999
 30
0.0
 11
690.7920019999997
 21
273.2343259999999
 31
0.0
  0
ARC
  5
BF29
330
BBDC
100
AcDbEntity
  8
1
  6
Continuous
100
AcDbCircle
 10
685.7420019999998
 20
268.646206
 30
0.0
 40
0.3
100
AcDbArc
 50
90.0
 51
180.0
  0
LINE
  5
BF2A
330
BBDC
100
AcDbEntity
  8
1
  6
Continuous
100
AcDbLine
 10
603.6732879999998
 20
272.4843259999999
 30
0.0
 11
603.6732879999998
 21
254.4843259999999
 31
0.0
  0
LINE
  5
BF2B
330
BBDC
100
AcDbEntity
  8
1
  6
Continuous
100
AcDbLine
 10
606.8732879999997
 20
272.4843259999999
 30
0.0
 11
606.8732879999997
 21
254.4843259999999
 31
0.0
  0
LINE
  5
BF2C
330
BBDC
100
AcDbEntity
  8
1
  6
Continuous
100
AcDbLine
 10
598.234691
 20
272.4843259999999
 30
0.0
 11
598.234691
 21
254.4843259999999
 31
0.0
  0
LINE
  5
BF2D
330
BBDC
100
AcDbEntity
  8
1
  6
Continuous
100
AcDbLine
 10
599.834691
 20
272.4843259999999
 30
0.0
 11
599.834691
 21
254.4843259999999
 31
0.0
  0
LINE
  5
BF2E
330
BBDC
100
AcDbEntity
  8
1
  6
Continuous
100
AcDbLine
 10
579.645214
 20
271.4843259999997
 30
0.0
 11
579.645214
 21
255.4843259999999
 31
0.0
  0
LINE
  5
BF2F
330
BBDC
100
AcDbEntity
  8
1
  6
Continuous
100
AcDbLine
 10
580.8452140000001
 20
271.4843259999997
 30
0.0
 11
580.8452140000001
 21
255.4843259999999
 31
0.0
  0
LINE
  5
BF30
330
BBDC
100
AcDbEntity
  8
1
  6
Continuous
100
AcDbLine
 10
578.3452140000001
 20
258.8843259999998
 30
0.0
 11
578.3452140000001
 21
268.0843259999999
 31
0.0
  0
LINE
  5
BF31
330
BBDC
100
AcDbEntity
  8
1
  6
Continuous
100
AcDbLine
 10
578.3452140000001
 20
262.1843259999999
 30
0.0
 11
579.645214
 21
263.4843259999997
 31
0.0
  0
LINE
  5
BF32
330
BBDC
100
AcDbEntity
  8
1
  6
Continuous
100
AcDbLine
 10
652.846099
 20
275.4843259999999
 30
0.0
 11
652.846099
 21
251.4843259999999
 31
0.0
  0
LINE
  5
BF33
330
BBDC
100
AcDbEntity
  8
1
  6
Continuous
100
AcDbLine
 10
651.3460989999997
 20
277.4843259999999
 30
0.0
 11
651.3460989999997
 21
249.4843259999999
 31
0.0
  0
LINE
  5
BF34
330
BBDC
100
AcDbEntity
  8
1
  6
Continuous
100
AcDbLine
 10
644.346099
 20
249.4843259999999
 30
0.0
 11
644.346099
 21
277.4843259999999
 31
0.0
  0
LINE
  5
BF35
330
BBDC
100
AcDbEntity
  8
1
  6
Continuous
100
AcDbLine
 10
649.8460989999998
 20
248.4843259999999
 30
0.0
 11
649.8460989999998
 21
278.4843259999997
 31
0.0
  0
LINE
  5
BF36
330
BBDC
100
AcDbEntity
  8
1
  6
Continuous
100
AcDbLine
 10
645.8460989999998
 20
248.484324
 30
0.0
 11
645.8460989999998
 21
278.484328
 31
0.0
  0
ARC
  5
BF37
330
BBDC
100
AcDbEntity
  8
1
  6
Continuous
100
AcDbCircle
 10
607.2535429999998
 20
263.4843259999997
 30
0.0
 40
42.592555
100
AcDbArc
 50
348.268368
 51
11.731632
  0
ARC
  5
BF38
330
BBDC
100
AcDbEntity
  8
1
  6
Continuous
100
AcDbCircle
 10
688.438654
 20
263.4843259999997
 30
0.0
 40
42.592555
100
AcDbArc
 50
168.2683679999998
 51
191.7316319999999
  0
LINE
  5
BF39
330
BBDC
100
AcDbEntity
  8
1
  6
Continuous
100
AcDbLine
 10
652.846099
 20
263.4843259999997
 30
0.0
 11
651.3460989999997
 21
261.9843259999999
 31
0.0
  0
LINE
  5
BF3A
330
BBDC
100
AcDbEntity
  8
1
  6
Continuous
100
AcDbLine
 10
574.8452140000003
 20
267.484826
 30
0.0
 11
574.8452140000003
 21
259.484826
 31
0.0
  0
ARC
  5
BF3B
330
BBDC
100
AcDbEntity
  8
1
  6
Continuous
100
AcDbCircle
 10
570.7041690000002
 20
263.4843259999997
 30
0.0
 40
7.641045
100
AcDbArc
 50
342.4072529999999
 51
17.59274699999998
  0
ARC
  5
BF3C
330
BBDC
100
AcDbEntity
  8
1
  6
Continuous
100
AcDbCircle
 10
582.486259
 20
263.4843259999997
 30
0.0
 40
7.641045
100
AcDbArc
 50
162.407253
 51
197.592747
  0
LINE
  5
BF3D
330
BBDC
100
AcDbEntity
  8
4
  6
CENTER
100
AcDbLine
 10
595.234691
 20
263.4843259999997
 30
0.0
 11
609.873288
 21
263.4843259999997
 31
0.0
  0
LINE
  5
BF3E
330
BBDC
100
AcDbEntity
  8
4
  6
CENTER
100
AcDbLine
 10
655.846099
 20
263.4843259999997
 30
0.0
 11
641.3460989999999
 21
263.4843259999997
 31
0.0
  0
ARC
  5
BF3F
330
BBDC
100
AcDbEntity
  8
1
  6
Continuous
100
AcDbCircle
 10
652.0960989999998
 20
251.4843259999999
 30
0.0
 40
0.75
100
AcDbArc
 50
180.0
 51
0.0
  0
LINE
  5
BF40
330
BBDC
100
AcDbEntity
  8
1
  6
Continuous
100
AcDbLine
 10
652.846099
 20
264.9843259999999
 30
0.0
 11
651.3460989999997
 21
263.4843259999997
 31
0.0
  0
ARC
  5
BF41
330
BBDC
100
AcDbEntity
  8
1
  6
Continuous
100
AcDbCircle
 10
638.864312
 20
250.493945
 30
0.0
 40
10.98178699999998
100
AcDbArc
 50
346.759569
 51
23.222372
  0
ARC
  5
BF42
330
BBDC
100
AcDbEntity
  8
1
  6
Continuous
100
AcDbCircle
 10
656.827886
 20
250.493945
 30
0.0
 40
10.98178699999998
100
AcDbArc
 50
156.7776279999999
 51
193.240447
  0
LINE
  5
BF43
330
BBDC
100
AcDbEntity
  8
1
  6
Continuous
100
AcDbLine
 10
651.3460989999997
 20
249.4843259999999
 30
0.0
 11
649.8460989999998
 21
249.4843259999999
 31
0.0
  0
LINE
  5
BF44
330
BBDC
100
AcDbEntity
  8
1
  6
Continuous
100
AcDbLine
 10
645.8460989999998
 20
249.4843259999999
 30
0.0
 11
644.346099
 21
249.4843259999999
 31
0.0
  0
LINE
  5
BF45
330
BBDC
100
AcDbEntity
  8
1
  6
Continuous
100
AcDbLine
 10
644.346099
 20
249.4843259999999
 30
0.0
 11
645.8460989999998
 21
249.4843259999999
 31
0.0
  0
LINE
  5
BF46
330
BBDC
100
AcDbEntity
  8
1
  6
Continuous
100
AcDbLine
 10
647.185843
 20
246.163818
 30
0.0
 11
648.5063529999997
 21
246.163818
 31
0.0
  0
LINE
  5
BF47
330
BBDC
100
AcDbEntity
  8
1
  6
Continuous
100
AcDbLine
 10
648.5063529999997
 20
246.163818
 30
0.0
 11
649.8460989999998
 21
248.4843259999999
 31
0.0
  0
LINE
  5
BF48
330
BBDC
100
AcDbEntity
  8
1
  6
Continuous
100
AcDbLine
 10
647.185844
 20
246.163818
 30
0.0
 11
645.8460979999999
 21
248.4843259999999
 31
0.0
  0
LINE
  5
BF49
330
BBDC
100
AcDbEntity
  8
1
  6
Continuous
100
AcDbLine
 10
646.735826
 20
254.824072
 30
0.0
 11
648.9563699999997
 21
254.824072
 31
0.0
  0
LINE
  5
BF4A
330
BBDC
100
AcDbEntity
  8
1
  6
Continuous
100
AcDbLine
 10
644.346099
 20
255.286745
 30
0.0
 11
645.8460989999998
 21
255.286745
 31
0.0
  0
LINE
  5
BF4B
330
BBDC
100
AcDbEntity
  8
1
  6
Continuous
100
AcDbLine
 10
644.346099
 20
257.7545989999999
 30
0.0
 11
645.8460989999998
 21
257.7545989999999
 31
0.0
  0
LINE
  5
BF4C
330
BBDC
100
AcDbEntity
  8
1
  6
Continuous
100
AcDbLine
 10
603.6732879999998
 20
254.4843259999999
 30
0.0
 11
606.8732879999997
 21
254.4843259999999
 31
0.0
  0
LINE
  5
BF4D
330
BBDC
100
AcDbEntity
  8
1
  6
Continuous
100
AcDbLine
 10
598.234691
 20
254.4843259999999
 30
0.0
 11
599.834691
 21
254.4843259999999
 31
0.0
  0
LINE
  5
BF4E
330
BBDC
100
AcDbEntity
  8
4
  6
CENTER
100
AcDbLine
 10
571.8452140000001
 20
263.4843259999997
 30
0.0
 11
583.8452140000002
 21
263.4843259999997
 31
0.0
  0
LINE
  5
BF4F
330
BBDC
100
AcDbEntity
  8
1
  6
Continuous
100
AcDbLine
 10
579.645214
 20
255.4843259999999
 30
0.0
 11
580.8452140000001
 21
255.4843259999999
 31
0.0
  0
LINE
  5
BF50
330
BBDC
100
AcDbEntity
  8
1
  6
Continuous
100
AcDbLine
 10
578.3452140000001
 20
258.8843259999998
 30
0.0
 11
579.645214
 21
258.8843259999998
 31
0.0
  0
LINE
  5
BF51
330
BBDC
100
AcDbEntity
  8
1
  6
Continuous
100
AcDbLine
 10
578.3452140000001
 20
263.4843259999997
 30
0.0
 11
579.645214
 21
264.7843259999999
 31
0.0
  0
ARC
  5
BF52
330
BBDC
100
AcDbEntity
  8
1
  6
Continuous
100
AcDbCircle
 10
576.300127
 20
260.020826
 30
0.0
 40
2.045087
100
AcDbArc
 50
334.3862009999999
 51
34.386201
  0
LINE
  5
BF53
330
BBDC
100
AcDbEntity
  8
1
  6
Continuous
100
AcDbLine
 10
577.987834
 20
261.174826
 30
0.0
 11
575.2025940000002
 21
261.174826
 31
0.0
  0
LINE
  5
BF54
330
BBDC
100
AcDbEntity
  8
1
  6
Continuous
100
AcDbLine
 10
577.987834
 20
258.8658259999998
 30
0.0
 11
575.2025940000002
 21
258.8658259999998
 31
0.0
  0
LINE
  5
BF55
330
BBDC
100
AcDbEntity
  8
1
  6
Continuous
100
AcDbLine
 10
578.3452140000001
 20
259.484826
 30
0.0
 11
577.987834
 21
258.8658259999998
 31
0.0
  0
LINE
  5
BF56
330
BBDC
100
AcDbEntity
  8
1
  6
Continuous
100
AcDbLine
 10
574.8452140000003
 20
259.484826
 30
0.0
 11
575.2025940000002
 21
258.8658259999998
 31
0.0
  0
ARC
  5
BF57
330
BBDC
100
AcDbEntity
  8
1
  6
Continuous
100
AcDbCircle
 10
576.890301
 20
260.020826
 30
0.0
 40
2.045087
100
AcDbArc
 50
145.613799
 51
205.613799
  0
ARC
  5
BF58
330
BBDC
100
AcDbEntity
  8
1
  6
Continuous
100
AcDbCircle
 10
652.0960989999998
 20
275.4843259999999
 30
0.0
 40
0.75
100
AcDbArc
 50
0.0
 51
180.0
  0
ARC
  5
BF59
330
BBDC
100
AcDbEntity
  8
1
  6
Continuous
100
AcDbCircle
 10
638.864312
 20
276.4747069999998
 30
0.0
 40
10.98178699999998
100
AcDbArc
 50
336.777628
 51
13.24043099999999
  0
ARC
  5
BF5A
330
BBDC
100
AcDbEntity
  8
1
  6
Continuous
100
AcDbCircle
 10
656.827886
 20
276.4747069999998
 30
0.0
 40
10.98178699999998
100
AcDbArc
 50
166.759553
 51
203.222372
  0
LINE
  5
BF5B
330
BBDC
100
AcDbEntity
  8
1
  6
Continuous
100
AcDbLine
 10
644.346099
 20
269.2140529999999
 30
0.0
 11
645.8460989999998
 21
269.2140529999999
 31
0.0
  0
LINE
  5
BF5C
330
BBDC
100
AcDbEntity
  8
1
  6
Continuous
100
AcDbLine
 10
646.735826
 20
272.1445799999999
 30
0.0
 11
648.9563699999997
 21
272.1445799999999
 31
0.0
  0
LINE
  5
BF5D
330
BBDC
100
AcDbEntity
  8
1
  6
Continuous
100
AcDbLine
 10
644.346099
 20
271.6819069999999
 30
0.0
 11
645.8460989999998
 21
271.6819069999999
 31
0.0
  0
LINE
  5
BF5E
330
BBDC
100
AcDbEntity
  8
1
  6
Continuous
100
AcDbLine
 10
651.3460989999997
 20
277.4843259999999
 30
0.0
 11
649.8460989999998
 21
277.4843259999999
 31
0.0
  0
LINE
  5
BF5F
330
BBDC
100
AcDbEntity
  8
1
  6
Continuous
100
AcDbLine
 10
645.8460989999998
 20
277.4843259999999
 30
0.0
 11
644.346099
 21
277.4843259999999
 31
0.0
  0
LINE
  5
BF60
330
BBDC
100
AcDbEntity
  8
1
  6
Continuous
100
AcDbLine
 10
644.346099
 20
277.4843259999999
 30
0.0
 11
645.8460989999998
 21
277.4843259999999
 31
0.0
  0
LINE
  5
BF61
330
BBDC
100
AcDbEntity
  8
1
  6
Continuous
100
AcDbLine
 10
647.185844
 20
280.8048339999999
 30
0.0
 11
648.5063529999997
 21
280.8048339999999
 31
0.0
  0
LINE
  5
BF62
330
BBDC
100
AcDbEntity
  8
1
  6
Continuous
100
AcDbLine
 10
648.5063529999997
 20
280.8048339999999
 30
0.0
 11
649.8460989999998
 21
278.4843259999997
 31
0.0
  0
LINE
  5
BF63
330
BBDC
100
AcDbEntity
  8
1
  6
Continuous
100
AcDbLine
 10
647.185844
 20
280.8048339999999
 30
0.0
 11
645.8460979999999
 21
278.4843259999997
 31
0.0
  0
LINE
  5
BF64
330
BBDC
100
AcDbEntity
  8
1
  6
Continuous
100
AcDbLine
 10
603.6732879999998
 20
272.4843259999999
 30
0.0
 11
606.8732879999997
 21
272.4843259999999
 31
0.0
  0
LINE
  5
BF65
330
BBDC
100
AcDbEntity
  8
1
  6
Continuous
100
AcDbLine
 10
598.234691
 20
272.4843259999999
 30
0.0
 11
599.834691
 21
272.4843259999999
 31
0.0
  0
LINE
  5
BF66
330
BBDC
100
AcDbEntity
  8
1
  6
Continuous
100
AcDbLine
 10
579.645214
 20
271.4843259999997
 30
0.0
 11
580.8452140000001
 21
271.4843259999997
 31
0.0
  0
LINE
  5
BF67
330
BBDC
100
AcDbEntity
  8
1
  6
Continuous
100
AcDbLine
 10
578.3452140000001
 20
268.0843259999999
 30
0.0
 11
579.645214
 21
268.0843259999999
 31
0.0
  0
LINE
  5
BF68
330
BBDC
100
AcDbEntity
  8
1
  6
Continuous
100
AcDbLine
 10
578.3452140000001
 20
267.484826
 30
0.0
 11
577.987834
 21
268.1038259999999
 31
0.0
  0
ARC
  5
BF69
330
BBDC
100
AcDbEntity
  8
1
  6
Continuous
100
AcDbCircle
 10
576.300127
 20
266.948826
 30
0.0
 40
2.045087
100
AcDbArc
 50
325.6137989999999
 51
25.61379899999999
  0
LINE
  5
BF6A
330
BBDC
100
AcDbEntity
  8
1
  6
Continuous
100
AcDbLine
 10
577.987834
 20
268.1038259999999
 30
0.0
 11
575.2025940000002
 21
268.1038259999999
 31
0.0
  0
LINE
  5
BF6B
330
BBDC
100
AcDbEntity
  8
1
  6
Continuous
100
AcDbLine
 10
577.987834
 20
265.7938259999998
 30
0.0
 11
575.2025940000002
 21
265.7938259999998
 31
0.0
  0
LINE
  5
BF6C
330
BBDC
100
AcDbEntity
  8
1
  6
Continuous
100
AcDbLine
 10
574.8452140000003
 20
267.484826
 30
0.0
 11
575.2025940000002
 21
268.1038259999999
 31
0.0
  0
ARC
  5
BF6D
330
BBDC
100
AcDbEntity
  8
1
  6
Continuous
100
AcDbCircle
 10
576.890301
 20
266.948826
 30
0.0
 40
2.045087
100
AcDbArc
 50
154.3862009999998
 51
214.3862009999998
  0
ARC
  5
BF6E
330
BBDC
100
AcDbEntity
  8
1
  6
Continuous
100
AcDbCircle
 10
41.33829399999997
 20
246.9843259999999
 30
0.0
 40
0.5
100
AcDbArc
 50
180.0
 51
270.0
  0
ARC
  5
BF6F
330
BBDC
100
AcDbEntity
  8
1
  6
Continuous
100
AcDbCircle
 10
59.838294
 20
246.9843259999999
 30
0.0
 40
0.5
100
AcDbArc
 50
270.0
 51
0.0
  0
ARC
  5
BF70
330
BBDC
100
AcDbEntity
  8
1
  6
Continuous
100
AcDbCircle
 10
459.4455519999998
 20
216.5970895472784
 30
0.0
 40
0.5
100
AcDbArc
 50
90.0
 51
0.0
  0
ARC
  5
BF71
330
BBDC
100
AcDbEntity
  8
1
  6
Continuous
100
AcDbCircle
 10
460.445552
 20
216.5970895472784
 30
0.0
 40
0.5
100
AcDbArc
 50
270.0
 51
180.0
  0
ENDSEC
  0
SECTION
  2
OBJECTS
  0
DICTIONARY
  5
BBCA
330
0
100
AcDbDictionary
281
     1
  3
ACAD_CIP_PREVIOUS_PRODUCT_INFO
350
BFD7
  3
ACAD_COLOR
350
BFB9
  3
ACAD_DETAILVIEWSTYLE
350
BFD2
  3
ACAD_GROUP
350
BBCB
  3
ACAD_LAYOUT
350
BBD7
  3
ACAD_MATERIAL
350
BF87
  3
ACAD_MLEADERSTYLE
350
BFCE
  3
ACAD_MLINESTYLE
350
BBD4
  3
ACAD_PLOTSETTINGS
350
BBD6
  3
ACAD_PLOTSTYLENAME
350
BF85
  3
ACAD_SCALELIST
350
BFBC
  3
ACAD_SECTIONVIEWSTYLE
350
BFD0
  3
ACAD_TABLESTYLE
350
BFBA
  3
ACAD_VISUALSTYLE
350
BFA0
  3
ACDB_RECOMPOSE_DATA
350
BFF5
  3
AcDbVariableDictionary
350
BFE8
  3
DWGPROPS
350
BFF6
  0
DICTIONARY
  5
BFD8
330
BBCE
100
AcDbDictionary
280
     1
281
     1
  3
ADSK_XREC_LAYER_RECONCILED
360
BFD9
  0
DICTIONARY
  5
BFDA
330
BBE4
100
AcDbDictionary
280
     1
281
     1
  3
ADSK_XREC_LAYER_RECONCILED
360
BFDB
  0
DICTIONARY
  5
BFDC
330
BBE5
100
AcDbDictionary
280
     1
281
     1
  3
ADSK_XREC_LAYER_RECONCILED
360
BFDD
  0
DICTIONARY
  5
BFDE
330
BBE6
100
AcDbDictionary
280
     1
281
     1
  3
ADSK_XREC_LAYER_RECONCILED
360
BFDF
  0
DICTIONARY
  5
BFE0
330
BBE7
100
AcDbDictionary
280
     1
281
     1
  3
ADSK_XREC_LAYER_RECONCILED
360
BFE1
  0
DICTIONARY
  5
BFE2
330
BBE8
100
AcDbDictionary
280
     1
281
     1
  3
ADSK_XREC_LAYER_RECONCILED
360
BFE3
  0
DICTIONARY
  5
BFE4
330
BBE9
100
AcDbDictionary
280
     1
281
     1
  3
ADSK_XREC_LAYER_RECONCILED
360
BFE5
  0
DICTIONARY
  5
BFE6
330
BBEA
100
AcDbDictionary
280
     1
281
     1
  3
ADSK_XREC_LAYER_RECONCILED
360
BFE7
  0
DICTIONARY
  5
BF80
330
BBDC
100
AcDbDictionary
281
     1
  3
ACAD_LAYOUTSELFREF
350
BF81
  0
DICTIONARY
  5
BF7E
330
BBD8
100
AcDbDictionary
281
     1
  3
ACAD_LAYOUTSELFREF
350
BF7F
  0
XRECORD
  5
BFD7
102
{ACAD_REACTORS
330
BBCA
102
}
330
BBCA
100
AcDbXrecord
280
     1
300
ACDLT
300
2014
300
ACDLT_F_S
  0
DICTIONARY
  5
BFB9
102
{ACAD_REACTORS
330
BBCA
102
}
330
BBCA
100
AcDbDictionary
281
     1
  0
DICTIONARY
  5
BFD2
102
{ACAD_REACTORS
330
BBCA
102
}
330
BBCA
100
AcDbDictionary
281
     1
  3
Imperial24
350
BFD3
  0
DICTIONARY
  5
BBCB
102
{ACAD_REACTORS
330
BBCA
102
}
330
BBCA
100
AcDbDictionary
281
     1
  0
DICTIONARY
  5
BBD7
102
{ACAD_REACTORS
330
BBCA
102
}
330
BBCA
100
AcDbDictionary
281
     1
  3
Model
350
BFD4
  3
レイアウト1
350
BFD5
  0
DICTIONARY
  5
BF87
102
{ACAD_REACTORS
330
BBCA
102
}
330
BBCA
100
AcDbDictionary
281
     1
  3
ByBlock
350
BF90
  3
ByLayer
350
BF88
  3
Global
350
BF98
  0
DICTIONARY
  5
BFCE
102
{ACAD_REACTORS
330
BBCA
102
}
330
BBCA
100
AcDbDictionary
281
     1
  3
Standard
350
BFCF
  0
DICTIONARY
  5
BBD4
102
{ACAD_REACTORS
330
BBCA
102
}
330
BBCA
100
AcDbDictionary
281
     1
  3
STANDARD
350
BBD5
  0
DICTIONARY
  5
BBD6
102
{ACAD_REACTORS
330
BBCA
102
}
330
BBCA
100
AcDbDictionary
281
     1
  0
ACDBDICTIONARYWDFLT
  5
BF85
102
{ACAD_REACTORS
330
BBCA
102
}
330
BBCA
100
AcDbDictionary
281
     1
  3
Normal
350
BF86
100
AcDbDictionaryWithDefault
340
BF86
  0
DICTIONARY
  5
BFBC
102
{ACAD_REACTORS
330
BBCA
102
}
330
BBCA
100
AcDbDictionary
281
     1
  3
A0
350
BFBD
  3
A1
350
BFBE
  3
A2
350
BFBF
  3
A3
350
BFC0
  3
A4
350
BFC1
  3
A5
350
BFC2
  3
A6
350
BFC3
  3
A7
350
BFC4
  3
A8
350
BFC5
  3
A9
350
BFC6
  3
B0
350
BFC7
  3
B1
350
BFC8
  3
B2
350
BFC9
  3
B3
350
BFCA
  3
B4
350
BFCB
  3
B5
350
BFCC
  3
B6
350
BFCD
  0
DICTIONARY
  5
BFD0
102
{ACAD_REACTORS
330
BBCA
102
}
330
BBCA
100
AcDbDictionary
281
     1
  3
Imperial24
350
BFD1
  0
DICTIONARY
  5
BFBA
102
{ACAD_REACTORS
330
BBCA
102
}
330
BBCA
100
AcDbDictionary
281
     1
  3
Standard
350
BFBB
  0
DICTIONARY
  5
BFA0
102
{ACAD_REACTORS
330
BBCA
102
}
330
BBCA
100
AcDbDictionary
281
     1
  3
2dWireframe
350
BFA6
  3
Basic
350
BFA5
  3
Brighten
350
BFAC
  3
ColorChange
350
BFB0
  3
Conceptual
350
BFA9
  3
Dim
350
BFAB
  3
EdgeColorOff
350
BFB8
  3
Facepattern
350
BFAF
  3
Flat
350
BFA1
  3
FlatWithEdges
350
BFA2
  3
Gouraud
350
BFA3
  3
GouraudWithEdges
350
BFA4
  3
Hidden
350
BFA8
  3
JitterOff
350
BFB6
  3
Linepattern
350
BFAE
  3
OverhangOff
350
BFB7
  3
Realistic
350
BFAA
  3
Shaded
350
BFB5
  3
Shaded with edges
350
BFB4
  3
Shades of Gray
350
BFB1
  3
Sketchy
350
BFB2
  3
Thicken
350
BFAD
  3
Wireframe
350
BFA7
  3
X-Ray
350
BFB3
  0
XRECORD
  5
BFF5
102
{ACAD_REACTORS
330
BBCA
102
}
330
BBCA
100
AcDbXrecord
280
     1
 90
        1
330
BFBB
  0
DICTIONARY
  5
BFE8
102
{ACAD_REACTORS
330
BBCA
102
}
330
BBCA
100
AcDbDictionary
281
     1
  3
CANNOSCALE
350
BFED
  3
CMLEADERSTYLE
350
BFEA
  3
CTABLESTYLE
350
BFE9
  3
CVIEWDETAILSTYLE
350
BFEB
  3
CVIEWSECTIONSTYLE
350
BFEC
  3
DIMASSOC
350
BFF0
  3
INDEXCTL
350
BFEF
  3
SORTENTS
350
BFEE
  3
XCLIPFRAME
350
BFF1
  0
XRECORD
  5
BFF6
102
{ACAD_REACTORS
330
BBCA
102
}
330
BBCA
100
AcDbXrecord
280
     1
  1
DWGPROPS COOKIE
  2

  3

  4

  6

  7

  8
Yoshitsune
  9

300
=
301
=
302
=
303
=
304
=
305
=
306
=
307
=
308
=
309
=
 40
0.0084461805555556
 41
2451439.578398495
 42
2457192.641703032
  1

 90
        0
  0
XRECORD
  5
BFD9
102
{ACAD_REACTORS
330
BFD8
102
}
330
BFD8
100
AcDbXrecord
280
     1
290
     1
  0
XRECORD
  5
BFDB
102
{ACAD_REACTORS
330
BFDA
102
}
330
BFDA
100
AcDbXrecord
280
     1
290
     1
  0
XRECORD
  5
BFDD
102
{ACAD_REACTORS
330
BFDC
102
}
330
BFDC
100
AcDbXrecord
280
     1
290
     1
  0
XRECORD
  5
BFDF
102
{ACAD_REACTORS
330
BFDE
102
}
330
BFDE
100
AcDbXrecord
280
     1
290
     1
  0
XRECORD
  5
BFE1
102
{ACAD_REACTORS
330
BFE0
102
}
330
BFE0
100
AcDbXrecord
280
     1
290
     1
  0
XRECORD
  5
BFE3
102
{ACAD_REACTORS
330
BFE2
102
}
330
BFE2
100
AcDbXrecord
280
     1
290
     1
  0
XRECORD
  5
BFE5
102
{ACAD_REACTORS
330
BFE4
102
}
330
BFE4
100
AcDbXrecord
280
     1
290
     1
  0
XRECORD
  5
BFE7
102
{ACAD_REACTORS
330
BFE6
102
}
330
BFE6
100
AcDbXrecord
280
     1
290
     1
  0
XRECORD
  5
BF81
102
{ACAD_REACTORS
330
BF80
102
}
330
BF80
100
AcDbXrecord
280
     1
340
BBDC
  0
XRECORD
  5
BF7F
102
{ACAD_REACTORS
330
BF7E
102
}
330
BF7E
100
AcDbXrecord
280
     1
340
BBD8
  0
ACDBDETAILVIEWSTYLE
  5
BFD3
102
{ACAD_XDICTIONARY
360
C02E
102
}
102
{ACAD_REACTORS
330
BFD2
102
}
330
BFD2
100
AcDbModelDocViewStyle
 70
     0
  3
Imperial24
290
     0
100
AcDbDetailViewStyle
 70
     0
 71
     0
 90
        3
 71
     1
340
BBCF
 40
0.24
340
0
 40
0.24
300

 40
0.36
280
     3
 71
     2
340
BBD3
 90
       25
 71
     3
340
BBCF
 40
0.24
 90
        1
 40
0.75
 90
        1
300
%<\AcVar ViewType \f "%tc1">% %<\AcVar ViewDetailId>%\PSCALE %<\AcVar ViewScale \f "%sn">%
 71
     4
340
BBD3
 90
       25
340
BBD3
 90
       25
280
     0
  0
LAYOUT
  5
BFD4
102
{ACAD_XDICTIONARY
360
C030
102
}
102
{ACAD_REACTORS
330
BBD7
102
}
330
BBD7
100
AcDbPlotSettings
  1

  2
Canon LBP9100C
  4

  6

 40
0.0
 41
0.0
 42
0.0
 43
0.0
 44
0.0
 45
0.0
 46
0.0
 47
0.0
 48
0.0
 49
0.0
140
0.0
141
0.0
142
1.0
143
1.0
 70
  1712
 72
     0
 73
     0
 74
     0
  7

 75
     0
147
1.0
148
0.0
149
0.0
100
AcDbLayout
  1
Model
 70
     1
 71
     0
 10
0.0
 20
0.0
 11
12.0
 21
9.0
 12
0.0
 22
0.0
 32
0.0
 14
0.0
 24
0.0
 34
0.0
 15
0.0
 25
0.0
 35
0.0
146
0.0
 13
0.0
 23
0.0
 33
0.0
 16
1.0
 26
0.0
 36
0.0
 17
0.0
 27
1.0
 37
0.0
 76
     0
330
BBDC
331
BF7D
  0
LAYOUT
  5
BFD5
102
{ACAD_XDICTIONARY
360
C032
102
}
102
{ACAD_REACTORS
330
BBD7
102
}
330
BBD7
100
AcDbPlotSettings
  1

  2
Canon LBP9100C
  4

  6

 40
0.0
 41
0.0
 42
0.0
 43
0.0
 44
0.0
 45
0.0
 46
0.0
 47
0.0
 48
0.0
 49
0.0
140
0.0
141
0.0
142
1.0
143
1.0
 70
   688
 72
     0
 73
     0
 74
     5
  7

 75
    16
147
1.0
148
0.0
149
0.0
100
AcDbLayout
  1
レイアウト1
 70
     0
 71
     1
 10
0.0
 20
0.0
 11
420.0
 21
297.0
 12
0.0
 22
0.0
 32
0.0
 14
1.000000000000000E+20
 24
1.000000000000000E+20
 34
1.000000000000000E+20
 15
-1.000000000000000E+20
 25
-1.000000000000000E+20
 35
-1.000000000000000E+20
146
0.0
 13
0.0
 23
0.0
 33
0.0
 16
1.0
 26
0.0
 36
0.0
 17
0.0
 27
1.0
 37
0.0
 76
     0
330
BBD8
  0
MATERIAL
  5
BF90
102
{ACAD_XDICTIONARY
360
BF91
102
}
102
{ACAD_REACTORS
330
BF87
102
}
330
BF87
100
AcDbMaterial
  1
ByBlock
 72
     0
 43
0.0208333333333333
 43
0.0
 43
0.0
 43
0.0
 43
0.0
 43
0.0208333333333333
 43
0.0
 43
0.0
 43
0.0
 43
0.0
 43
1.0
 43
0.0
 43
0.0
 43
0.0
 43
0.0
 43
1.0
 77
     0
 47
0.0208333333333333
 47
0.0
 47
0.0
 47
0.0
 47
0.0
 47
0.0208333333333333
 47
0.0
 47
0.0
 47
0.0
 47
0.0
 47
1.0
 47
0.0
 47
0.0
 47
0.0
 47
0.0
 47
1.0
171
     0
 49
0.0208333333333333
 49
0.0
 49
0.0
 49
0.0
 49
0.0
 49
0.0208333333333333
 49
0.0
 49
0.0
 49
0.0
 49
0.0
 49
1.0
 49
0.0
 49
0.0
 49
0.0
 49
0.0
 49
1.0
175
     0
142
0.0208333333333333
142
0.0
142
0.0
142
0.0
142
0.0
142
0.0208333333333333
142
0.0
142
0.0
142
0.0
142
0.0
142
1.0
142
0.0
142
0.0
142
0.0
142
0.0
142
1.0
179
     0
144
0.0208333333333333
144
0.0
144
0.0
144
0.0
144
0.0
144
0.0208333333333333
144
0.0
144
0.0
144
0.0
144
0.0
144
1.0
144
0.0
144
0.0
144
0.0
144
0.0
144
1.0
147
0.0208333333333333
147
0.0
147
0.0
147
0.0
147
0.0
147
0.0208333333333333
147
0.0
147
0.0
147
0.0
147
0.0
147
1.0
147
0.0
147
0.0
147
0.0
147
0.0
147
1.0
  0
MATERIAL
  5
BF88
102
{ACAD_XDICTIONARY
360
BF89
102
}
102
{ACAD_REACTORS
330
BF87
102
}
330
BF87
100
AcDbMaterial
  1
ByLayer
 72
     0
 43
0.0208333333333333
 43
0.0
 43
0.0
 43
0.0
 43
0.0
 43
0.0208333333333333
 43
0.0
 43
0.0
 43
0.0
 43
0.0
 43
1.0
 43
0.0
 43
0.0
 43
0.0
 43
0.0
 43
1.0
 77
     0
 47
0.0208333333333333
 47
0.0
 47
0.0
 47
0.0
 47
0.0
 47
0.0208333333333333
 47
0.0
 47
0.0
 47
0.0
 47
0.0
 47
1.0
 47
0.0
 47
0.0
 47
0.0
 47
0.0
 47
1.0
171
     0
 49
0.0208333333333333
 49
0.0
 49
0.0
 49
0.0
 49
0.0
 49
0.0208333333333333
 49
0.0
 49
0.0
 49
0.0
 49
0.0
 49
1.0
 49
0.0
 49
0.0
 49
0.0
 49
0.0
 49
1.0
175
     0
142
0.0208333333333333
142
0.0
142
0.0
142
0.0
142
0.0
142
0.0208333333333333
142
0.0
142
0.0
142
0.0
142
0.0
142
1.0
142
0.0
142
0.0
142
0.0
142
0.0
142
1.0
179
     0
144
0.0208333333333333
144
0.0
144
0.0
144
0.0
144
0.0
144
0.0208333333333333
144
0.0
144
0.0
144
0.0
144
0.0
144
1.0
144
0.0
144
0.0
144
0.0
144
0.0
144
1.0
147
0.0208333333333333
147
0.0
147
0.0
147
0.0
147
0.0
147
0.0208333333333333
147
0.0
147
0.0
147
0.0
147
0.0
147
1.0
147
0.0
147
0.0
147
0.0
147
0.0
147
1.0
  0
MATERIAL
  5
BF98
102
{ACAD_XDICTIONARY
360
BF99
102
}
102
{ACAD_REACTORS
330
BF87
102
}
330
BF87
100
AcDbMaterial
  1
Global
 72
     0
 43
0.0208333333333333
 43
0.0
 43
0.0
 43
0.0
 43
0.0
 43
0.0208333333333333
 43
0.0
 43
0.0
 43
0.0
 43
0.0
 43
1.0
 43
0.0
 43
0.0
 43
0.0
 43
0.0
 43
1.0
 77
     0
 47
0.0208333333333333
 47
0.0
 47
0.0
 47
0.0
 47
0.0
 47
0.0208333333333333
 47
0.0
 47
0.0
 47
0.0
 47
0.0
 47
1.0
 47
0.0
 47
0.0
 47
0.0
 47
0.0
 47
1.0
171
     0
 49
0.0208333333333333
 49
0.0
 49
0.0
 49
0.0
 49
0.0
 49
0.0208333333333333
 49
0.0
 49
0.0
 49
0.0
 49
0.0
 49
1.0
 49
0.0
 49
0.0
 49
0.0
 49
0.0
 49
1.0
175
     0
142
0.0208333333333333
142
0.0
142
0.0
142
0.0
142
0.0
142
0.0208333333333333
142
0.0
142
0.0
142
0.0
142
0.0
142
1.0
142
0.0
142
0.0
142
0.0
142
0.0
142
1.0
179
     0
144
0.0208333333333333
144
0.0
144
0.0
144
0.0
144
0.0
144
0.0208333333333333
144
0.0
144
0.0
144
0.0
144
0.0
144
1.0
144
0.0
144
0.0
144
0.0
144
0.0
144
1.0
147
0.0208333333333333
147
0.0
147
0.0
147
0.0
147
0.0
147
0.0208333333333333
147
0.0
147
0.0
147
0.0
147
0.0
147
1.0
147
0.0
147
0.0
147
0.0
147
0.0
147
1.0
  0
MLEADERSTYLE
  5
BFCF
102
{ACAD_REACTORS
330
BFCE
102
}
330
BFCE
100
AcDbMLeaderStyle
170
     2
171
     1
172
     0
 90
        2
 40
0.0
 41
0.0
173
     1
 91
-1056964608
340
BBD1
 92
       -2
290
     1
 42
0.09
291
     1
 43
0.36
  3
Standard
 44
0.18
300

342
BBCF
174
     1
178
     6
175
     1
176
     0
 93
-1056964608
 45
0.18
292
     0
297
     0
 46
0.18
 94
-1056964608
 47
1.0
 49
1.0
140
1.0
293
     1
141
0.0
294
     1
177
     0
142
1.0
295
     0
296
     0
143
0.125
1001
ACAD_MLEADERVER
1070
     2
  0
MLINESTYLE
  5
BBD5
102
{ACAD_REACTORS
330
BBD4
102
}
330
BBD4
100
AcDbMlineStyle
  2
STANDARD
 70
     0
  3

 62
   256
 51
90.0
 52
90.0
 71
     2
 49
0.5
 62
   256
  6
BYLAYER
 49
-0.5
 62
   256
  6
BYLAYER
  0
ACDBPLACEHOLDER
  5
BF86
102
{ACAD_REACTORS
330
BF85
102
}
330
BF85
  0
SCALE
  5
BFBD
102
{ACAD_REACTORS
330
BFBC
102
}
330
BFBC
100
AcDbScale
 70
     0
300
1:1
140
1.0
141
1.0
290
     1
  0
SCALE
  5
BFBE
102
{ACAD_REACTORS
330
BFBC
102
}
330
BFBC
100
AcDbScale
 70
     0
300
1/128" = 1'-0"
140
0.0078125
141
12.0
290
     0
  0
SCALE
  5
BFBF
102
{ACAD_REACTORS
330
BFBC
102
}
330
BFBC
100
AcDbScale
 70
     0
300
1/64" = 1'-0"
140
0.015625
141
12.0
290
     0
  0
SCALE
  5
BFC0
102
{ACAD_REACTORS
330
BFBC
102
}
330
BFBC
100
AcDbScale
 70
     0
300
1/32" = 1'-0"
140
0.03125
141
12.0
290
     0
  0
SCALE
  5
BFC1
102
{ACAD_REACTORS
330
BFBC
102
}
330
BFBC
100
AcDbScale
 70
     0
300
1/16" = 1'-0"
140
0.0625
141
12.0
290
     0
  0
SCALE
  5
BFC2
102
{ACAD_REACTORS
330
BFBC
102
}
330
BFBC
100
AcDbScale
 70
     0
300
3/32" = 1'-0"
140
0.09375
141
12.0
290
     0
  0
SCALE
  5
BFC3
102
{ACAD_REACTORS
330
BFBC
102
}
330
BFBC
100
AcDbScale
 70
     0
300
1/8" = 1'-0"
140
0.125
141
12.0
290
     0
  0
SCALE
  5
BFC4
102
{ACAD_REACTORS
330
BFBC
102
}
330
BFBC
100
AcDbScale
 70
     0
300
3/16" = 1'-0"
140
0.1875
141
12.0
290
     0
  0
SCALE
  5
BFC5
102
{ACAD_REACTORS
330
BFBC
102
}
330
BFBC
100
AcDbScale
 70
     0
300
1/4" = 1'-0"
140
0.25
141
12.0
290
     0
  0
SCALE
  5
BFC6
102
{ACAD_REACTORS
330
BFBC
102
}
330
BFBC
100
AcDbScale
 70
     0
300
3/8" = 1'-0"
140
0.375
141
12.0
290
     0
  0
SCALE
  5
BFC7
102
{ACAD_REACTORS
330
BFBC
102
}
330
BFBC
100
AcDbScale
 70
     0
300
1/2" = 1'-0"
140
0.5
141
12.0
290
     0
  0
SCALE
  5
BFC8
102
{ACAD_REACTORS
330
BFBC
102
}
330
BFBC
100
AcDbScale
 70
     0
300
3/4" = 1'-0"
140
0.75
141
12.0
290
     0
  0
SCALE
  5
BFC9
102
{ACAD_REACTORS
330
BFBC
102
}
330
BFBC
100
AcDbScale
 70
     0
300
1" = 1'-0"
140
1.0
141
12.0
290
     0
  0
SCALE
  5
BFCA
102
{ACAD_REACTORS
330
BFBC
102
}
330
BFBC
100
AcDbScale
 70
     0
300
1-1/2" = 1'-0"
140
1.5
141
12.0
290
     0
  0
SCALE
  5
BFCB
102
{ACAD_REACTORS
330
BFBC
102
}
330
BFBC
100
AcDbScale
 70
     0
300
3" = 1'-0"
140
3.0
141
12.0
290
     0
  0
SCALE
  5
BFCC
102
{ACAD_REACTORS
330
BFBC
102
}
330
BFBC
100
AcDbScale
 70
     0
300
6" = 1'-0"
140
6.0
141
12.0
290
     0
  0
SCALE
  5
BFCD
102
{ACAD_REACTORS
330
BFBC
102
}
330
BFBC
100
AcDbScale
 70
     0
300
1'-0" = 1'-0"
140
12.0
141
12.0
290
     0
  0
ACDBSECTIONVIEWSTYLE
  5
BFD1
102
{ACAD_XDICTIONARY
360
C02C
102
}
102
{ACAD_REACTORS
330
BFD0
102
}
330
BFD0
100
AcDbModelDocViewStyle
 70
     0
  3
Imperial24
290
     0
100
AcDbSectionViewStyle
 70
     0
 71
     0
 90
       78
 71
     1
340
BBCF
 40
0.24
340
0
340
0
 40
0.24
300
I, O, Q, S, X, Z
 40
0.48
 90
        3
 40
0.18
 90
        1
 71
     2
340
BBD3
 90
       25
340
BBD3
 90
       50
 40
0.24
 40
0.0
 40
0.24
 71
     3
340
BBCF
 40
0.24
 90
        1
 40
0.75
 90
        1
300
%<\AcVar ViewType \f "%tc1">% %<\AcVar ViewSectionStartId>%-%<\AcVar ViewSectionEndId>%\PSCALE %<\AcVar ViewScale \f "%sn">%
 71
     4
300
ANSI31
 40
1.0
 90
        0
290
     0
290
     0
 90
        6
 40
0.0
 40
1.570796326794896
 40
0.2617993877991494
 40
1.308996938995747
 40
-0.2617993877991494
 40
1.832595714594046
  0
TABLESTYLE
  5
BFBB
102
{ACAD_XDICTIONARY
360
BFF3
102
}
102
{ACAD_REACTORS
330
BFBA
102
}
330
BFBA
100
AcDbTableStyle
  3
Standard
 70
     0
 71
     0
 40
0.06
 41
0.06
280
     0
281
     0
  7
STANDARD
140
0.18
170
     2
 62
     0
 63
     7
283
     0
274
    -2
284
     1
 64
     0
275
    -2
285
     1
 65
     0
276
    -2
286
     1
 66
     0
277
    -2
287
     1
 67
     0
278
    -2
288
     1
 68
     0
279
    -2
289
     1
 69
     0
  7
STANDARD
140
0.25
170
     5
 62
     0
 63
     7
283
     0
274
    -2
284
     1
 64
     0
275
    -2
285
     1
 65
     0
276
    -2
286
     1
 66
     0
277
    -2
287
     1
 67
     0
278
    -2
288
     1
 68
     0
279
    -2
289
     1
 69
     0
  7
STANDARD
140
0.18
170
     5
 62
     0
 63
     7
283
     0
274
    -2
284
     1
 64
     0
275
    -2
285
     1
 65
     0
276
    -2
286
     1
 66
     0
277
    -2
287
     1
 67
     0
278
    -2
288
     1
 68
     0
279
    -2
289
     1
 69
     0
  0
VISUALSTYLE
  5
BFA6
102
{ACAD_XDICTIONARY
360
C004
102
}
102
{ACAD_REACTORS
330
BFA0
102
}
330
BFA0
100
AcDbVisualStyle
  2
2dWireframe
 70
     4
 71
     0
 72
     2
 73
     0
 90
        0
 40
-0.6
 41
-30.0
 62
     5
 63
     7
 74
     1
 91
        4
 64
     7
 65
   257
 75
     1
175
     1
 42
1.0
 92
        0
 66
   257
 43
1.0
 76
     1
 77
     6
 78
     2
 67
     7
 79
     5
170
     0
171
     0
290
     0
174
     0
 93
        1
 44
0.0
173
     0
291
     0
 45
0.0
1001
ACAD
1000
AcDbSavedByObjectVersion
1070
     0
  0
VISUALSTYLE
  5
BFA5
102
{ACAD_XDICTIONARY
360
C002
102
}
102
{ACAD_REACTORS
330
BFA0
102
}
330
BFA0
100
AcDbVisualStyle
  2
Basic
 70
     7
 71
     1
 72
     0
 73
     1
 90
        0
 40
-0.6
 41
-30.0
 62
     5
 63
     7
 74
     0
 91
        4
 64
     7
 65
   257
 75
     1
175
     1
 42
1.0
 92
        8
 66
     7
 43
1.0
 76
     1
 77
     6
 78
     2
 67
     7
 79
     5
170
     0
171
     0
290
     0
174
     0
 93
        1
 44
0.0
173
     0
291
     1
 45
0.0
1001
ACAD
1000
AcDbSavedByObjectVersion
1070
     0
  0
VISUALSTYLE
  5
BFAC
102
{ACAD_XDICTIONARY
360
C010
102
}
102
{ACAD_REACTORS
330
BFA0
102
}
330
BFA0
100
AcDbVisualStyle
  2
Brighten
 70
    12
 71
     2
 72
     2
 73
     0
 90
        0
 40
-0.6
 41
-30.0
 62
     5
 63
     7
 74
     1
 91
        4
 64
     7
 65
   257
 75
     1
175
     1
 42
1.0
 92
        8
 66
     7
 43
1.0
 76
     1
 77
     6
 78
     2
 67
     7
 79
     5
170
     0
171
     0
290
     0
174
     0
 93
        1
 44
50.0
173
     0
291
     1
 45
0.0
1001
ACAD
1000
AcDbSavedByObjectVersion
1070
     0
  0
VISUALSTYLE
  5
BFB0
102
{ACAD_XDICTIONARY
360
C018
102
}
102
{ACAD_REACTORS
330
BFA0
102
}
330
BFA0
100
AcDbVisualStyle
  2
ColorChange
 70
    16
 71
     2
 72
     2
 73
     3
 90
        0
 40
-0.6
 41
-30.0
 62
     5
 63
     8
 74
     1
 91
        4
 64
     7
 65
   257
 75
     1
175
     1
 42
1.0
 92
        8
 66
     8
 43
1.0
 76
     1
 77
     6
 78
     2
 67
     7
 79
     5
170
     0
171
     0
290
     0
174
     0
 93
        1
 44
0.0
173
     0
291
     1
 45
0.0
1001
ACAD
1000
AcDbSavedByObjectVersion
1070
     0
  0
VISUALSTYLE
  5
BFA9
102
{ACAD_XDICTIONARY
360
C00A
102
}
102
{ACAD_REACTORS
330
BFA0
102
}
330
BFA0
100
AcDbVisualStyle
  2
Conceptual
 70
     9
 71
     3
 72
     2
 73
     0
 90
        0
 40
-0.6
 41
-30.0
 62
     5
 63
     7
 74
     2
 91
        2
 64
     7
 65
   257
 75
     1
175
     1
 42
179.0
 92
        8
 66
     7
 43
1.0
 76
     1
 77
     6
 78
     2
 67
     7
 79
     3
170
     0
171
     0
290
     0
174
     0
 93
        1
 44
0.0
173
     0
291
     0
 45
0.0
1001
ACAD
1000
AcDbSavedByObjectVersion
1070
     0
  0
VISUALSTYLE
  5
BFAB
102
{ACAD_XDICTIONARY
360
C00E
102
}
102
{ACAD_REACTORS
330
BFA0
102
}
330
BFA0
100
AcDbVisualStyle
  2
Dim
 70
    11
 71
     2
 72
     2
 73
     0
 90
        0
 40
-0.6
 41
-30.0
 62
     5
 63
     7
 74
     1
 91
        4
 64
     7
 65
   257
 75
     1
175
     1
 42
1.0
 92
        8
 66
     7
 43
1.0
 76
     1
 77
     6
 78
     2
 67
     7
 79
     5
170
     0
171
     0
290
     0
174
     0
 93
        1
 44
-50.0
173
     0
291
     1
 45
0.0
1001
ACAD
1000
AcDbSavedByObjectVersion
1070
     0
  0
VISUALSTYLE
  5
BFB8
102
{ACAD_XDICTIONARY
360
C028
102
}
102
{ACAD_REACTORS
330
BFA0
102
}
330
BFA0
100
AcDbVisualStyle
  2
EdgeColorOff
 70
    22
 71
     2
 72
     2
 73
     0
 90
        0
 40
-0.6
 41
-30.0
 62
     5
 63
     7
 74
     1
 91
        4
 64
     7
 65
   257
 75
     1
175
     1
 42
1.0
 92
        8
 66
     7
 43
1.0
 76
     1
 77
     6
 78
     2
 67
     7
 79
     5
170
     0
171
     0
290
     0
174
     0
 93
        1
 44
0.0
173
     0
291
     1
 45
0.0
1001
ACAD
1000
AcDbSavedByObjectVersion
1070
     0
  0
VISUALSTYLE
  5
BFAF
102
{ACAD_XDICTIONARY
360
C016
102
}
102
{ACAD_REACTORS
330
BFA0
102
}
330
BFA0
100
AcDbVisualStyle
  2
Facepattern
 70
    15
 71
     2
 72
     2
 73
     0
 90
        0
 40
-0.6
 41
-30.0
 62
     5
 63
     7
 74
     1
 91
        4
 64
     7
 65
   257
 75
     1
175
     1
 42
1.0
 92
        8
 66
     7
 43
1.0
 76
     1
 77
     6
 78
     2
 67
     7
 79
     5
170
     0
171
     0
290
     0
174
     0
 93
        1
 44
0.0
173
     0
291
     1
 45
0.0
1001
ACAD
1000
AcDbSavedByObjectVersion
1070
     0
  0
VISUALSTYLE
  5
BFA1
102
{ACAD_XDICTIONARY
360
BFFA
102
}
102
{ACAD_REACTORS
330
BFA0
102
}
330
BFA0
100
AcDbVisualStyle
  2
Flat
 70
     0
 71
     2
 72
     1
 73
     1
 90
        2
 40
-0.6
 41
30.0
 62
     5
 63
     7
 74
     0
 91
        0
 64
     7
 65
   257
 75
     1
175
     1
 42
1.0
 92
        8
 66
     7
 43
1.0
 76
     1
 77
     6
 78
     2
 67
     7
 79
     5
170
     0
171
     0
290
     0
174
     0
 93
       13
 44
0.0
173
     0
291
     1
 45
0.0
1001
ACAD
1000
AcDbSavedByObjectVersion
1070
     0
  0
VISUALSTYLE
  5
BFA2
102
{ACAD_XDICTIONARY
360
BFFC
102
}
102
{ACAD_REACTORS
330
BFA0
102
}
330
BFA0
100
AcDbVisualStyle
  2
FlatWithEdges
 70
     1
 71
     2
 72
     1
 73
     1
 90
        2
 40
-0.6
 41
30.0
 62
     5
 63
     7
 74
     1
 91
        0
 64
     7
 65
   257
 75
     1
175
     1
 42
1.0
 92
        0
 66
   257
 43
1.0
 76
     1
 77
     6
 78
     2
 67
     7
 79
     5
170
     0
171
     0
290
     0
174
     0
 93
       13
 44
0.0
173
     0
291
     1
 45
0.0
1001
ACAD
1000
AcDbSavedByObjectVersion
1070
     0
  0
VISUALSTYLE
  5
BFA3
102
{ACAD_XDICTIONARY
360
BFFE
102
}
102
{ACAD_REACTORS
330
BFA0
102
}
330
BFA0
100
AcDbVisualStyle
  2
Gouraud
 70
     2
 71
     2
 72
     2
 73
     1
 90
        2
 40
-0.6
 41
30.0
 62
     5
 63
     7
 74
     0
 91
        0
 64
     7
 65
   257
 75
     1
175
     1
 42
1.0
 92
        0
 66
     7
 43
1.0
 76
     1
 77
     6
 78
     2
 67
     7
 79
     5
170
     0
171
     0
290
     0
174
     0
 93
       13
 44
0.0
173
     0
291
     1
 45
0.0
1001
ACAD
1000
AcDbSavedByObjectVersion
1070
     0
  0
VISUALSTYLE
  5
BFA4
102
{ACAD_XDICTIONARY
360
C000
102
}
102
{ACAD_REACTORS
330
BFA0
102
}
330
BFA0
100
AcDbVisualStyle
  2
GouraudWithEdges
 70
     3
 71
     2
 72
     2
 73
     1
 90
        2
 40
-0.6
 41
30.0
 62
     5
 63
     7
 74
     1
 91
        0
 64
     7
 65
   257
 75
     1
175
     1
 42
1.0
 92
        0
 66
   257
 43
1.0
 76
     1
 77
     6
 78
     2
 67
     7
 79
     5
170
     0
171
     0
290
     0
174
     0
 93
       13
 44
0.0
173
     0
291
     1
 45
0.0
1001
ACAD
1000
AcDbSavedByObjectVersion
1070
     0
  0
VISUALSTYLE
  5
BFA8
102
{ACAD_XDICTIONARY
360
C008
102
}
102
{ACAD_REACTORS
330
BFA0
102
}
330
BFA0
100
AcDbVisualStyle
  2
Hidden
 70
     6
 71
     1
 72
     2
 73
     2
 90
        0
 40
-0.6
 41
-30.0
 62
     5
 63
     7
 74
     2
 91
        2
 64
     7
 65
   257
 75
     2
175
     1
 42
40.0
 92
        0
 66
   257
 43
1.0
 76
     1
 77
     6
 78
     2
 67
     7
 79
     3
170
     0
171
     0
290
     0
174
     0
 93
        1
 44
0.0
173
     0
291
     0
 45
0.0
1001
ACAD
1000
AcDbSavedByObjectVersion
1070
     0
  0
VISUALSTYLE
  5
BFB6
102
{ACAD_XDICTIONARY
360
C024
102
}
102
{ACAD_REACTORS
330
BFA0
102
}
330
BFA0
100
AcDbVisualStyle
  2
JitterOff
 70
    20
 71
     2
 72
     2
 73
     0
 90
        0
 40
-0.6
 41
-30.0
 62
     5
 63
     7
 74
     1
 91
        4
 64
     7
 65
   257
 75
     1
175
     1
 42
1.0
 92
       10
 66
     7
 43
1.0
 76
     1
 77
     6
 78
     2
 67
     7
 79
     5
170
     0
171
     0
290
     0
174
     0
 93
        1
 44
0.0
173
     0
291
     1
 45
0.0
1001
ACAD
1000
AcDbSavedByObjectVersion
1070
     0
  0
VISUALSTYLE
  5
BFAE
102
{ACAD_XDICTIONARY
360
C014
102
}
102
{ACAD_REACTORS
330
BFA0
102
}
330
BFA0
100
AcDbVisualStyle
  2
Linepattern
 70
    14
 71
     2
 72
     2
 73
     0
 90
        0
 40
-0.6
 41
-30.0
 62
     5
 63
     7
 74
     1
 91
        4
 64
     7
 65
   257
 75
     7
175
     7
 42
1.0
 92
        8
 66
     7
 43
1.0
 76
     1
 77
     6
 78
     2
 67
     7
 79
     5
170
     0
171
     0
290
     0
174
     0
 93
        1
 44
0.0
173
     0
291
     1
 45
0.0
1001
ACAD
1000
AcDbSavedByObjectVersion
1070
     0
  0
VISUALSTYLE
  5
BFB7
102
{ACAD_XDICTIONARY
360
C026
102
}
102
{ACAD_REACTORS
330
BFA0
102
}
330
BFA0
100
AcDbVisualStyle
  2
OverhangOff
 70
    21
 71
     2
 72
     2
 73
     0
 90
        0
 40
-0.6
 41
-30.0
 62
     5
 63
     7
 74
     1
 91
        4
 64
     7
 65
   257
 75
     1
175
     1
 42
1.0
 92
        9
 66
     7
 43
1.0
 76
     1
 77
     6
 78
     2
 67
     7
 79
     5
170
     0
171
     0
290
     0
174
     0
 93
        1
 44
0.0
173
     0
291
     1
 45
0.0
1001
ACAD
1000
AcDbSavedByObjectVersion
1070
     0
  0
VISUALSTYLE
  5
BFAA
102
{ACAD_XDICTIONARY
360
C00C
102
}
102
{ACAD_REACTORS
330
BFA0
102
}
330
BFA0
100
AcDbVisualStyle
  2
Realistic
 70
     8
 71
     2
 72
     3
 73
     0
 90
        2
 40
-0.6
 41
30.0
 62
     5
 63
     7
 74
     0
 91
        0
 64
     7
 65
   257
 75
     1
175
     1
 42
1.0
 92
        8
 66
   257
 43
1.0
 76
     1
 77
     6
 78
     2
 67
     7
 79
     3
170
     0
171
     0
290
     0
174
     0
 93
       13
 44
0.0
173
     0
291
     0
 45
0.0
1001
ACAD
1000
AcDbSavedByObjectVersion
1070
     0
  0
VISUALSTYLE
  5
BFB5
102
{ACAD_XDICTIONARY
360
C022
102
}
102
{ACAD_REACTORS
330
BFA0
102
}
330
BFA0
100
AcDbVisualStyle
  2
Shaded
 70
    27
 71
     2
 72
     2
 73
     1
 90
        2
 40
-0.6
 41
30.0
 62
     5
 63
     7
 74
     0
 91
        4
 64
     7
 65
   257
 75
     1
175
     1
 42
1.0
 92
        8
 66
   257
 43
1.0
 76
     1
 77
     6
 78
     2
 67
     8
 79
     3
170
     0
171
     0
290
     0
174
     0
 93
        5
 44
0.0
173
     0
291
     0
 45
0.0
1001
ACAD
1000
AcDbSavedByObjectVersion
1070
     0
  0
VISUALSTYLE
  5
BFB4
102
{ACAD_XDICTIONARY
360
C020
102
}
102
{ACAD_REACTORS
330
BFA0
102
}
330
BFA0
100
AcDbVisualStyle
  2
Shaded with edges
 70
    26
 71
     2
 72
     2
 73
     1
 90
        2
 40
-0.6
 41
30.0
 62
     5
 63
     7
 74
     1
 91
       10
 64
     7
 65
   257
 75
     2
175
     1
 42
1.0
 92
        8
 66
   257
 43
1.0
 76
     1
 77
     6
 78
     2
 67
     7
 79
     3
170
     0
171
     0
290
     0
174
     0
 93
        5
 44
0.0
173
     0
291
     0
 45
0.0
1001
ACAD
1000
AcDbSavedByObjectVersion
1070
     0
  0
VISUALSTYLE
  5
BFB1
102
{ACAD_XDICTIONARY
360
C01A
102
}
102
{ACAD_REACTORS
330
BFA0
102
}
330
BFA0
100
AcDbVisualStyle
  2
Shades of Gray
 70
    23
 71
     2
 72
     2
 73
     3
 90
        0
 40
-0.6
 41
-30.0
 62
     5
 63
     7
 74
     2
 91
        2
 64
     7
 65
     7
 75
     1
175
     1
 42
40.0
 92
        8
 66
     7
 43
1.0
 76
     1
 77
     6
 78
     2
 67
     7
 79
     3
170
     0
171
     0
290
     0
174
     0
 93
        1
 44
0.0
173
     0
291
     0
 45
0.0
1001
ACAD
1000
AcDbSavedByObjectVersion
1070
     0
  0
VISUALSTYLE
  5
BFB2
102
{ACAD_XDICTIONARY
360
C01C
102
}
102
{ACAD_REACTORS
330
BFA0
102
}
330
BFA0
100
AcDbVisualStyle
  2
Sketchy
 70
    24
 71
     1
 72
     2
 73
     2
 90
        0
 40
-0.6
 41
-30.0
 62
     5
 63
     7
 74
     2
 91
        2
 64
     7
 65
     7
 75
     1
175
     1
 42
40.0
 92
       11
 66
     7
 43
1.0
 76
     1
 77
     6
 78
     2
 67
     7
 79
     6
170
     0
171
     0
290
     0
174
     0
 93
        1
 44
0.0
173
     0
291
     0
 45
0.0
1001
ACAD
1000
AcDbSavedByObjectVersion
1070
     0
  0
VISUALSTYLE
  5
BFAD
102
{ACAD_XDICTIONARY
360
C012
102
}
102
{ACAD_REACTORS
330
BFA0
102
}
330
BFA0
100
AcDbVisualStyle
  2
Thicken
 70
    13
 71
     2
 72
     2
 73
     0
 90
        0
 40
-0.6
 41
-30.0
 62
     5
 63
     7
 74
     1
 91
        4
 64
     7
 65
   257
 75
     1
175
     1
 42
1.0
 92
       12
 66
     7
 43
1.0
 76
     1
 77
     6
 78
     2
 67
     7
 79
     5
170
     0
171
     0
290
     0
174
     0
 93
        1
 44
0.0
173
     0
291
     1
 45
0.0
1001
ACAD
1000
AcDbSavedByObjectVersion
1070
     0
  0
VISUALSTYLE
  5
BFA7
102
{ACAD_XDICTIONARY
360
C006
102
}
102
{ACAD_REACTORS
330
BFA0
102
}
330
BFA0
100
AcDbVisualStyle
  2
Wireframe
 70
     5
 71
     0
 72
     2
 73
     0
 90
        0
 40
-0.6
 41
-30.0
 62
     5
 63
     7
 74
     1
 91
        4
 64
     7
 65
   257
 75
     1
175
     1
 42
1.0
 92
        0
 66
   257
 43
1.0
 76
     1
 77
     6
 78
     2
 67
     7
 79
     3
170
     0
171
     0
290
     0
174
     0
 93
        1
 44
0.0
173
     0
291
     0
 45
0.0
1001
ACAD
1000
AcDbSavedByObjectVersion
1070
     0
  0
VISUALSTYLE
  5
BFB3
102
{ACAD_XDICTIONARY
360
C01E
102
}
102
{ACAD_REACTORS
330
BFA0
102
}
330
BFA0
100
AcDbVisualStyle
  2
X-Ray
 70
    25
 71
     2
 72
     2
 73
     1
 90
        1
 40
0.5
 41
-30.0
 62
     5
 63
     7
 74
     1
 91
        0
 64
     7
 65
   257
 75
     1
175
     1
 42
1.0
 92
        8
 66
     7
 43
1.0
 76
     1
 77
     6
 78
     2
 67
     7
 79
     3
170
     0
171
     0
290
     0
174
     0
 93
       13
 44
0.0
173
     0
291
     0
 45
0.0
1001
ACAD
1000
AcDbSavedByObjectVersion
1070
     0
  0
DICTIONARYVAR
  5
BFED
102
{ACAD_REACTORS
330
BFE8
102
}
330
BFE8
100
DictionaryVariables
280
     0
  1
1:1
  0
DICTIONARYVAR
  5
BFEA
102
{ACAD_REACTORS
330
BFE8
102
}
330
BFE8
100
DictionaryVariables
280
     0
  1
STANDARD
  0
DICTIONARYVAR
  5
BFE9
102
{ACAD_REACTORS
330
BFE8
102
}
330
BFE8
100
DictionaryVariables
280
     0
  1
STANDARD
  0
DICTIONARYVAR
  5
BFEB
102
{ACAD_REACTORS
330
BFE8
102
}
330
BFE8
100
DictionaryVariables
280
     0
  1
Imperial24
  0
DICTIONARYVAR
  5
BFEC
102
{ACAD_REACTORS
330
BFE8
102
}
330
BFE8
100
DictionaryVariables
280
     0
  1
Imperial24
  0
DICTIONARYVAR
  5
BFF0
102
{ACAD_REACTORS
330
BFE8
102
}
330
BFE8
100
DictionaryVariables
280
     0
  1
1
  0
DICTIONARYVAR
  5
BFEF
102
{ACAD_REACTORS
330
BFE8
102
}
330
BFE8
100
DictionaryVariables
280
     0
  1
0
  0
DICTIONARYVAR
  5
BFEE
102
{ACAD_REACTORS
330
BFE8
102
}
330
BFE8
100
DictionaryVariables
280
     0
  1
127
  0
DICTIONARYVAR
  5
BFF1
102
{ACAD_REACTORS
330
BFE8
102
}
330
BFE8
100
DictionaryVariables
280
     0
  1
2
  0
DICTIONARY
  5
C02E
330
BFD3
100
AcDbDictionary
280
     1
281
     1
  3
ACAD_XREC_ROUNDTRIP
360
C02F
  0
DICTIONARY
  5
C030
330
BFD4
100
AcDbDictionary
280
     1
281
     1
  3
ACAD_XREC_ROUNDTRIP
360
C031
  0
DICTIONARY
  5
C032
330
BFD5
100
AcDbDictionary
280
     1
281
     1
  3
ACAD_XREC_ROUNDTRIP
360
C033
  0
DICTIONARY
  5
BF91
330
BF90
100
AcDbDictionary
280
     1
281
     1
  3
ACAD_XREC_ROUNDTRIP
360
BFF8
  3
BUMPTILE
360
BF93
  3
DIFFUSETILE
360
BF92
  3
OPACITYTILE
360
BF96
  3
REFLECTIONTILE
360
BF95
  3
REFRACTIONTILE
360
BF97
  3
SPECULARTILE
360
BF94
  0
DICTIONARY
  5
BF89
330
BF88
100
AcDbDictionary
280
     1
281
     1
  3
ACAD_XREC_ROUNDTRIP
360
BFF7
  3
BUMPTILE
360
BF8B
  3
DIFFUSETILE
360
BF8A
  3
OPACITYTILE
360
BF8E
  3
REFLECTIONTILE
360
BF8D
  3
REFRACTIONTILE
360
BF8F
  3
SPECULARTILE
360
BF8C
  0
DICTIONARY
  5
BF99
330
BF98
100
AcDbDictionary
280
     1
281
     1
  3
ACAD_XREC_ROUNDTRIP
360
BFF9
  3
BUMPTILE
360
BF9B
  3
DIFFUSETILE
360
BF9A
  3
OPACITYTILE
360
BF9E
  3
REFLECTIONTILE
360
BF9D
  3
REFRACTIONTILE
360
BF9F
  3
SPECULARTILE
360
BF9C
  0
DICTIONARY
  5
C02C
330
BFD1
100
AcDbDictionary
280
     1
281
     1
  3
ACAD_XREC_ROUNDTRIP
360
C02D
  0
DICTIONARY
  5
BFF3
330
BFBB
100
AcDbDictionary
280
     1
281
     1
  3
ACAD_ROUNDTRIP_2008_TABLESTYLE_CELLSTYLEMAP
360
BFF4
  3
ACAD_XREC_ROUNDTRIP
360
C02A
  0
DICTIONARY
  5
C004
330
BFA6
100
AcDbDictionary
280
     1
281
     1
  3
ACAD_XREC_ROUNDTRIP
360
C005
  0
DICTIONARY
  5
C002
330
BFA5
100
AcDbDictionary
280
     1
281
     1
  3
ACAD_XREC_ROUNDTRIP
360
C003
  0
DICTIONARY
  5
C010
330
BFAC
100
AcDbDictionary
280
     1
281
     1
  3
ACAD_XREC_ROUNDTRIP
360
C011
  0
DICTIONARY
  5
C018
330
BFB0
100
AcDbDictionary
280
     1
281
     1
  3
ACAD_XREC_ROUNDTRIP
360
C019
  0
DICTIONARY
  5
C00A
330
BFA9
100
AcDbDictionary
280
     1
281
     1
  3
ACAD_XREC_ROUNDTRIP
360
C00B
  0
DICTIONARY
  5
C00E
330
BFAB
100
AcDbDictionary
280
     1
281
     1
  3
ACAD_XREC_ROUNDTRIP
360
C00F
  0
DICTIONARY
  5
C028
330
BFB8
100
AcDbDictionary
280
     1
281
     1
  3
ACAD_XREC_ROUNDTRIP
360
C029
  0
DICTIONARY
  5
C016
330
BFAF
100
AcDbDictionary
280
     1
281
     1
  3
ACAD_XREC_ROUNDTRIP
360
C017
  0
DICTIONARY
  5
BFFA
330
BFA1
100
AcDbDictionary
280
     1
281
     1
  3
ACAD_XREC_ROUNDTRIP
360
BFFB
  0
DICTIONARY
  5
BFFC
330
BFA2
100
AcDbDictionary
280
     1
281
     1
  3
ACAD_XREC_ROUNDTRIP
360
BFFD
  0
DICTIONARY
  5
BFFE
330
BFA3
100
AcDbDictionary
280
     1
281
     1
  3
ACAD_XREC_ROUNDTRIP
360
BFFF
  0
DICTIONARY
  5
C000
330
BFA4
100
AcDbDictionary
280
     1
281
     1
  3
ACAD_XREC_ROUNDTRIP
360
C001
  0
DICTIONARY
  5
C008
330
BFA8
100
AcDbDictionary
280
     1
281
     1
  3
ACAD_XREC_ROUNDTRIP
360
C009
  0
DICTIONARY
  5
C024
330
BFB6
100
AcDbDictionary
280
     1
281
     1
  3
ACAD_XREC_ROUNDTRIP
360
C025
  0
DICTIONARY
  5
C014
330
BFAE
100
AcDbDictionary
280
     1
281
     1
  3
ACAD_XREC_ROUNDTRIP
360
C015
  0
DICTIONARY
  5
C026
330
BFB7
100
AcDbDictionary
280
     1
281
     1
  3
ACAD_XREC_ROUNDTRIP
360
C027
  0
DICTIONARY
  5
C00C
330
BFAA
100
AcDbDictionary
280
     1
281
     1
  3
ACAD_XREC_ROUNDTRIP
360
C00D
  0
DICTIONARY
  5
C022
330
BFB5
100
AcDbDictionary
280
     1
281
     1
  3
ACAD_XREC_ROUNDTRIP
360
C023
  0
DICTIONARY
  5
C020
330
BFB4
100
AcDbDictionary
280
     1
281
     1
  3
ACAD_XREC_ROUNDTRIP
360
C021
  0
DICTIONARY
  5
C01A
330
BFB1
100
AcDbDictionary
280
     1
281
     1
  3
ACAD_XREC_ROUNDTRIP
360
C01B
  0
DICTIONARY
  5
C01C
330
BFB2
100
AcDbDictionary
280
     1
281
     1
  3
ACAD_XREC_ROUNDTRIP
360
C01D
  0
DICTIONARY
  5
C012
330
BFAD
100
AcDbDictionary
280
     1
281
     1
  3
ACAD_XREC_ROUNDTRIP
360
C013
  0
DICTIONARY
  5
C006
330
BFA7
100
AcDbDictionary
280
     1
281
     1
  3
ACAD_XREC_ROUNDTRIP
360
C007
  0
DICTIONARY
  5
C01E
330
BFB3
100
AcDbDictionary
280
     1
281
     1
  3
ACAD_XREC_ROUNDTRIP
360
C01F
  0
XRECORD
  5
C02F
102
{ACAD_REACTORS
330
C02E
102
}
330
C02E
100
AcDbXrecord
280
     1
102
DISPLAYNAME
  1
Imperial24
102
FLAGS
 90
        0
  0
XRECORD
  5
C031
102
{ACAD_REACTORS
330
C030
102
}
330
C030
100
AcDbXrecord
280
     1
102
SHADEPLOT
 70
     0
102
SHADEPLOTRESLEVEL
 70
     2
102
SHADEPLOTCUSTOMDPI
 70
   300
  0
XRECORD
  5
C033
102
{ACAD_REACTORS
330
C032
102
}
330
C032
100
AcDbXrecord
280
     1
102
SHADEPLOT
 70
     0
102
SHADEPLOTRESLEVEL
 70
     2
102
SHADEPLOTCUSTOMDPI
 70
   300
  0
XRECORD
  5
BFF8
102
{ACAD_REACTORS
330
BF91
102
}
330
BF91
100
AcDbXrecord
280
     1
102
MATERIAL
148
0.0
149
0.0
149
0.0
 93
        0
 94
      127
282
     0
 72
     0
 77
     0
171
     0
175
     0
179
     0
273
     0
  0
XRECORD
  5
BF93
102
{ACAD_REACTORS
330
BF91
102
}
330
BF91
100
AcDbXrecord
280
     1
270
     1
271
     1
  0
XRECORD
  5
BF92
102
{ACAD_REACTORS
330
BF91
102
}
330
BF91
100
AcDbXrecord
280
     1
270
     1
271
     1
  0
XRECORD
  5
BF96
102
{ACAD_REACTORS
330
BF91
102
}
330
BF91
100
AcDbXrecord
280
     1
270
     1
271
     1
  0
XRECORD
  5
BF95
102
{ACAD_REACTORS
330
BF91
102
}
330
BF91
100
AcDbXrecord
280
     1
270
     1
271
     1
  0
XRECORD
  5
BF97
102
{ACAD_REACTORS
330
BF91
102
}
330
BF91
100
AcDbXrecord
280
     1
270
     1
271
     1
  0
XRECORD
  5
BF94
102
{ACAD_REACTORS
330
BF91
102
}
330
BF91
100
AcDbXrecord
280
     1
270
     1
271
     1
  0
XRECORD
  5
BFF7
102
{ACAD_REACTORS
330
BF89
102
}
330
BF89
100
AcDbXrecord
280
     1
102
MATERIAL
148
0.0
149
0.0
149
0.0
 93
        0
 94
      127
282
     0
 72
     0
 77
     0
171
     0
175
     0
179
     0
273
     0
  0
XRECORD
  5
BF8B
102
{ACAD_REACTORS
330
BF89
102
}
330
BF89
100
AcDbXrecord
280
     1
270
     1
271
     1
  0
XRECORD
  5
BF8A
102
{ACAD_REACTORS
330
BF89
102
}
330
BF89
100
AcDbXrecord
280
     1
270
     1
271
     1
  0
XRECORD
  5
BF8E
102
{ACAD_REACTORS
330
BF89
102
}
330
BF89
100
AcDbXrecord
280
     1
270
     1
271
     1
  0
XRECORD
  5
BF8D
102
{ACAD_REACTORS
330
BF89
102
}
330
BF89
100
AcDbXrecord
280
     1
270
     1
271
     1
  0
XRECORD
  5
BF8F
102
{ACAD_REACTORS
330
BF89
102
}
330
BF89
100
AcDbXrecord
280
     1
270
     1
271
     1
  0
XRECORD
  5
BF8C
102
{ACAD_REACTORS
330
BF89
102
}
330
BF89
100
AcDbXrecord
280
     1
270
     1
271
     1
  0
XRECORD
  5
BFF9
102
{ACAD_REACTORS
330
BF99
102
}
330
BF99
100
AcDbXrecord
280
     1
102
MATERIAL
148
0.0
149
0.0
149
0.0
 93
        0
 94
      127
282
     0
 72
     0
 77
     0
171
     0
175
     0
179
     0
273
     0
  0
XRECORD
  5
BF9B
102
{ACAD_REACTORS
330
BF99
102
}
330
BF99
100
AcDbXrecord
280
     1
270
     1
271
     1
  0
XRECORD
  5
BF9A
102
{ACAD_REACTORS
330
BF99
102
}
330
BF99
100
AcDbXrecord
280
     1
270
     1
271
     1
  0
XRECORD
  5
BF9E
102
{ACAD_REACTORS
330
BF99
102
}
330
BF99
100
AcDbXrecord
280
     1
270
     1
271
     1
  0
XRECORD
  5
BF9D
102
{ACAD_REACTORS
330
BF99
102
}
330
BF99
100
AcDbXrecord
280
     1
270
     1
271
     1
  0
XRECORD
  5
BF9F
102
{ACAD_REACTORS
330
BF99
102
}
330
BF99
100
AcDbXrecord
280
     1
270
     1
271
     1
  0
XRECORD
  5
BF9C
102
{ACAD_REACTORS
330
BF99
102
}
330
BF99
100
AcDbXrecord
280
     1
270
     1
271
     1
  0
XRECORD
  5
C02D
102
{ACAD_REACTORS
330
C02C
102
}
330
C02C
100
AcDbXrecord
280
     1
102
DISPLAYNAME
  1
Imperial24
102
FLAGS
 90
        0
  0
CELLSTYLEMAP
  5
BFF4
102
{ACAD_REACTORS
330
BFF3
102
}
330
BFF3
100
AcDbCellStyleMap
 90
        3
300
CELLSTYLE
  1
TABLEFORMAT_BEGIN
 90
        5
170
     1
 91
        0
 92
    32768
 62
   257
 93
        1
300
CONTENTFORMAT
  1
CONTENTFORMAT_BEGIN
 90
        0
 91
        0
 92
      512
 93
        0
300

 40
0.0
140
1.0
 94
        5
 62
     0
340
BBCF
144
0.25
309
CONTENTFORMAT_END
171
     0
 94
        0
309
TABLEFORMAT_END
  1
CELLSTYLE_BEGIN
 90
        1
 91
        1
300
_TITLE
309
CELLSTYLE_END
300
CELLSTYLE
  1
TABLEFORMAT_BEGIN
 90
        5
170
     1
 91
        0
 92
        0
 62
   257
 93
        1
300
CONTENTFORMAT
  1
CONTENTFORMAT_BEGIN
 90
        0
 91
        0
 92
      512
 93
        0
300

 40
0.0
140
1.0
 94
        5
 62
     0
340
BBCF
144
0.18
309
CONTENTFORMAT_END
171
     0
 94
        0
309
TABLEFORMAT_END
  1
CELLSTYLE_BEGIN
 90
        2
 91
        1
300
_HEADER
309
CELLSTYLE_END
300
CELLSTYLE
  1
TABLEFORMAT_BEGIN
 90
        5
170
     1
 91
        0
 92
        0
 62
   257
 93
        1
300
CONTENTFORMAT
  1
CONTENTFORMAT_BEGIN
 90
        0
 91
        0
 92
      512
 93
        0
300

 40
0.0
140
1.0
 94
        2
 62
     0
340
BBCF
144
0.18
309
CONTENTFORMAT_END
171
     0
 94
        0
309
TABLEFORMAT_END
  1
CELLSTYLE_BEGIN
 90
        3
 91
        2
300
_DATA
309
CELLSTYLE_END
  0
XRECORD
  5
C02A
102
{ACAD_REACTORS
330
BFF3
102
}
330
BFF3
100
AcDbXrecord
280
     1
102
ACAD_ROUNDTRIP_PRE2007_TABLESTYLE
 90
      512
 91
        0
  1

 92
      512
 93
        0
  2

 94
      512
 95
        0
  3

  0
XRECORD
  5
C005
102
{ACAD_REACTORS
330
C004
102
}
330
C004
100
AcDbXrecord
280
     1
102
RTVSPost2010Prop28
280
     1
102
RTVSPost2010PropOp28
 70
     1
102
RTVSPost2010Prop29
280
     1
102
RTVSPost2010PropOp29
 70
     1
102
RTVSPost2010Prop30
280
     0
102
RTVSPost2010PropOp30
 70
     1
102
RTVSPost2010Prop31
280
     0
102
RTVSPost2010PropOp31
 70
     1
102
RTVSPost2010Prop32
280
     0
102
RTVSPost2010PropOp32
 70
     1
102
RTVSPost2010Prop33
280
     0
102
RTVSPost2010PropOp33
 70
     1
102
RTVSPost2010Prop34
280
     0
102
RTVSPost2010PropOp34
 70
     1
102
RTVSPost2010Prop35
280
     0
102
RTVSPost2010PropOp35
 70
     1
102
RTVSPost2010Prop36
280
     0
102
RTVSPost2010PropOp36
 70
     1
102
RTVSPost2010Prop37
 90
       50
102
RTVSPost2010PropOp37
 70
     1
102
RTVSPost2010Prop38
140
0.0
102
RTVSPost2010PropOp38
 70
     1
102
RTVSPost2010Prop39
140
1.0
102
RTVSPost2010PropOp39
 70
     1
102
RTVSPost2010Prop40
 90
        0
102
RTVSPost2010PropOp40
 70
     1
102
RTVSPost2010Prop41ColorIndex
 90
       18
102
RTVSPost2010Prop41ColorRGB
 90
        0
102
RTVSPost2010PropOp41
 70
     1
102
RTVSPost2010Prop42
 90
       50
102
RTVSPost2010PropOp42
 70
     1
102
RTVSPost2010Prop43
 90
        3
102
RTVSPost2010PropOp43
 70
     1
102
RTVSPost2010Prop44ColorIndex
 90
        5
102
RTVSPost2010Prop44ColorRGB
 90
      255
102
RTVSPost2010PropOp44
 70
     1
102
RTVSPost2010Prop45
280
     0
102
RTVSPost2010PropOp45
 70
     1
102
RTVSPost2010Prop46
 90
       50
102
RTVSPost2010PropOp46
 70
     1
102
RTVSPost2010Prop47
 90
       50
102
RTVSPost2010PropOp47
 70
     1
102
RTVSPost2010Prop48
 90
       50
102
RTVSPost2010PropOp48
 70
     1
102
RTVSPost2010Prop49
280
     0
102
RTVSPost2010PropOp49
 70
     1
102
RTVSPost2010Prop50
 90
       50
102
RTVSPost2010PropOp50
 70
     1
102
RTVSPost2010Prop51ColorIndex
 90
      256
102
RTVSPost2010Prop51ColorRGB
 90
-16777216
102
RTVSPost2010PropOp51
 70
     0
102
RTVSPost2010Prop52
140
1.0
102
RTVSPost2010PropOp52
 70
     0
102
RTVSPost2010Prop53
 90
        2
102
RTVSPost2010PropOp53
 70
     1
102
RTVSPost2010Prop54
  1
strokes_ogs.tif
102
RTVSPost2010PropOp54
 70
     1
102
RTVSPost2010Prop55
280
     0
102
RTVSPost2010PropOp55
 70
     1
102
RTVSPost2010Prop56
140
1.0
102
RTVSPost2010PropOp56
 70
     1
102
RTVSPost2010Prop57
140
1.0
102
RTVSPost2010PropOp57
 70
     1
102
RTVSPropertyOp0
 70
     1
102
RTVSPropertyOp1
 70
     1
102
RTVSPropertyOp2
 70
     1
102
RTVSPropertyOp3
 70
     1
102
RTVSPropertyOp4
 70
     1
102
RTVSPropertyOp5
 70
     1
102
RTVSPropertyOp6
 70
     1
102
RTVSPropertyOp7
 70
     1
102
RTVSPropertyOp8
 70
     1
102
RTVSPropertyOp9
 70
     1
102
RTVSPropertyOp10
 70
     1
102
RTVSPropertyOp11
 70
     1
102
RTVSPropertyOp12
 70
     1
102
RTVSPropertyOp13
 70
     1
102
RTVSPropertyOp14
 70
     1
102
RTVSPropertyOp15
 70
     1
102
RTVSPropertyOp16
 70
     1
102
RTVSPropertyOp17
 70
     1
102
RTVSPropertyOp18
 70
     1
102
RTVSPropertyOp19
 70
     1
102
RTVSPropertyOp20
 70
     1
102
RTVSPropertyOp21
 70
     1
102
RTVSPropertyOp22
 70
     1
102
RTVSPropertyOp23
 70
     1
102
RTVSPropertyOp24
 70
     1
102
RTVSPropertyOp25
 70
     1
102
RTVSPropertyOp26
 70
     1
102
RTVSPropertyOp27
 70
     1
102
RTVSPropertyOp28
 70
     1
102
RTVSPropertyOp29
 70
     1
102
RTVSPropertyOp30
 70
     1
102
RTVSPropertyOp31
 70
     1
102
RTVSPropertyOp32
 70
     1
102
RTVSPropertyOp33
 70
     1
102
RTVSPropertyOp34
 70
     1
102
RTVSPropertyOp35
 70
     1
102
RTVSPropertyOp36
 70
     1
102
RTVSPropertyOp37
 70
     1
102
RTVSPropertyOp38
 70
     1
102
RTVSPropertyOp39
 70
     1
102
RTVSPropertyOp40
 70
     1
102
RTVSPropertyOp41
 70
     1
102
RTVSPropertyOp42
 70
     1
102
RTVSPropertyOp43
 70
     1
102
RTVSPropertyOp44
 70
     1
102
RTVSPropertyOp45
 70
     1
102
RTVSPropertyOp46
 70
     1
102
RTVSPropertyOp47
 70
     1
102
RTVSPropertyOp48
 70
     1
102
RTVSPropertyOp49
 70
     1
102
RTVSPropertyOp50
 70
     1
102
RTVSPropertyOp51
 70
     0
102
RTVSPropertyOp52
 70
     0
102
RTVSPropertyOp53
 70
     1
102
RTVSPropertyOp54
 70
     1
102
RTVSPropertyOp55
 70
     1
102
RTVSPropertyOp56
 70
     1
102
RTVSPropertyOp57
 70
     1
102
RTVSPropertyOp58
 70
     1
102
RTVSPropertyOp59
 70
     1
102
RTVSPropertyOp60
 70
     1
102
RTVSPropertyOp61
 70
     1
102
RTVSPropertyOp62
 70
     1
  0
XRECORD
  5
C003
102
{ACAD_REACTORS
330
C002
102
}
330
C002
100
AcDbXrecord
280
     1
102
RTVSPost2010Prop28
280
     0
102
RTVSPost2010PropOp28
 70
     1
102
RTVSPost2010Prop29
280
     1
102
RTVSPost2010PropOp29
 70
     1
102
RTVSPost2010Prop30
280
     1
102
RTVSPost2010PropOp30
 70
     1
102
RTVSPost2010Prop31
280
     0
102
RTVSPost2010PropOp31
 70
     1
102
RTVSPost2010Prop32
280
     0
102
RTVSPost2010PropOp32
 70
     1
102
RTVSPost2010Prop33
280
     0
102
RTVSPost2010PropOp33
 70
     1
102
RTVSPost2010Prop34
280
     0
102
RTVSPost2010PropOp34
 70
     1
102
RTVSPost2010Prop35
280
     0
102
RTVSPost2010PropOp35
 70
     1
102
RTVSPost2010Prop36
280
     0
102
RTVSPost2010PropOp36
 70
     1
102
RTVSPost2010Prop37
 90
       50
102
RTVSPost2010PropOp37
 70
     1
102
RTVSPost2010Prop38
140
0.0
102
RTVSPost2010PropOp38
 70
     1
102
RTVSPost2010Prop39
140
1.0
102
RTVSPost2010PropOp39
 70
     1
102
RTVSPost2010Prop40
 90
        0
102
RTVSPost2010PropOp40
 70
     1
102
RTVSPost2010Prop41ColorIndex
 90
       18
102
RTVSPost2010Prop41ColorRGB
 90
        0
102
RTVSPost2010PropOp41
 70
     1
102
RTVSPost2010Prop42
 90
       50
102
RTVSPost2010PropOp42
 70
     1
102
RTVSPost2010Prop43
 90
        3
102
RTVSPost2010PropOp43
 70
     1
102
RTVSPost2010Prop44ColorIndex
 90
        5
102
RTVSPost2010Prop44ColorRGB
 90
      255
102
RTVSPost2010PropOp44
 70
     1
102
RTVSPost2010Prop45
280
     0
102
RTVSPost2010PropOp45
 70
     1
102
RTVSPost2010Prop46
 90
       50
102
RTVSPost2010PropOp46
 70
     1
102
RTVSPost2010Prop47
 90
       50
102
RTVSPost2010PropOp47
 70
     1
102
RTVSPost2010Prop48
 90
       50
102
RTVSPost2010PropOp48
 70
     1
102
RTVSPost2010Prop49
280
     0
102
RTVSPost2010PropOp49
 70
     1
102
RTVSPost2010Prop50
 90
       50
102
RTVSPost2010PropOp50
 70
     1
102
RTVSPost2010Prop51ColorIndex
 90
      256
102
RTVSPost2010Prop51ColorRGB
 90
-16777216
102
RTVSPost2010PropOp51
 70
     0
102
RTVSPost2010Prop52
140
1.0
102
RTVSPost2010PropOp52
 70
     0
102
RTVSPost2010Prop53
 90
        2
102
RTVSPost2010PropOp53
 70
     1
102
RTVSPost2010Prop54
  1
strokes_ogs.tif
102
RTVSPost2010PropOp54
 70
     1
102
RTVSPost2010Prop55
280
     0
102
RTVSPost2010PropOp55
 70
     1
102
RTVSPost2010Prop56
140
1.0
102
RTVSPost2010PropOp56
 70
     1
102
RTVSPost2010Prop57
140
1.0
102
RTVSPost2010PropOp57
 70
     1
102
RTVSPropertyOp0
 70
     1
102
RTVSPropertyOp1
 70
     1
102
RTVSPropertyOp2
 70
     1
102
RTVSPropertyOp3
 70
     1
102
RTVSPropertyOp4
 70
     1
102
RTVSPropertyOp5
 70
     1
102
RTVSPropertyOp6
 70
     1
102
RTVSPropertyOp7
 70
     1
102
RTVSPropertyOp8
 70
     1
102
RTVSPropertyOp9
 70
     1
102
RTVSPropertyOp10
 70
     1
102
RTVSPropertyOp11
 70
     1
102
RTVSPropertyOp12
 70
     1
102
RTVSPropertyOp13
 70
     1
102
RTVSPropertyOp14
 70
     1
102
RTVSPropertyOp15
 70
     1
102
RTVSPropertyOp16
 70
     1
102
RTVSPropertyOp17
 70
     1
102
RTVSPropertyOp18
 70
     1
102
RTVSPropertyOp19
 70
     1
102
RTVSPropertyOp20
 70
     1
102
RTVSPropertyOp21
 70
     1
102
RTVSPropertyOp22
 70
     1
102
RTVSPropertyOp23
 70
     1
102
RTVSPropertyOp24
 70
     1
102
RTVSPropertyOp25
 70
     1
102
RTVSPropertyOp26
 70
     1
102
RTVSPropertyOp27
 70
     1
102
RTVSPropertyOp28
 70
     1
102
RTVSPropertyOp29
 70
     1
102
RTVSPropertyOp30
 70
     1
102
RTVSPropertyOp31
 70
     1
102
RTVSPropertyOp32
 70
     1
102
RTVSPropertyOp33
 70
     1
102
RTVSPropertyOp34
 70
     1
102
RTVSPropertyOp35
 70
     1
102
RTVSPropertyOp36
 70
     1
102
RTVSPropertyOp37
 70
     1
102
RTVSPropertyOp38
 70
     1
102
RTVSPropertyOp39
 70
     1
102
RTVSPropertyOp40
 70
     1
102
RTVSPropertyOp41
 70
     1
102
RTVSPropertyOp42
 70
     1
102
RTVSPropertyOp43
 70
     1
102
RTVSPropertyOp44
 70
     1
102
RTVSPropertyOp45
 70
     1
102
RTVSPropertyOp46
 70
     1
102
RTVSPropertyOp47
 70
     1
102
RTVSPropertyOp48
 70
     1
102
RTVSPropertyOp49
 70
     1
102
RTVSPropertyOp50
 70
     1
102
RTVSPropertyOp51
 70
     0
102
RTVSPropertyOp52
 70
     0
102
RTVSPropertyOp53
 70
     1
102
RTVSPropertyOp54
 70
     1
102
RTVSPropertyOp55
 70
     1
102
RTVSPropertyOp56
 70
     1
102
RTVSPropertyOp57
 70
     1
102
RTVSPropertyOp58
 70
     1
102
RTVSPropertyOp59
 70
     1
102
RTVSPropertyOp60
 70
     1
102
RTVSPropertyOp61
 70
     1
102
RTVSPropertyOp62
 70
     1
  0
XRECORD
  5
C011
102
{ACAD_REACTORS
330
C010
102
}
330
C010
100
AcDbXrecord
280
     1
102
RTVSPost2010Prop28
280
     0
102
RTVSPost2010PropOp28
 70
     1
102
RTVSPost2010Prop29
280
     1
102
RTVSPost2010PropOp29
 70
     1
102
RTVSPost2010Prop30
280
     1
102
RTVSPost2010PropOp30
 70
     1
102
RTVSPost2010Prop31
280
     0
102
RTVSPost2010PropOp31
 70
     1
102
RTVSPost2010Prop32
280
     0
102
RTVSPost2010PropOp32
 70
     1
102
RTVSPost2010Prop33
280
     0
102
RTVSPost2010PropOp33
 70
     1
102
RTVSPost2010Prop34
280
     0
102
RTVSPost2010PropOp34
 70
     1
102
RTVSPost2010Prop35
280
     0
102
RTVSPost2010PropOp35
 70
     1
102
RTVSPost2010Prop36
280
     0
102
RTVSPost2010PropOp36
 70
     1
102
RTVSPost2010Prop37
 90
       50
102
RTVSPost2010PropOp37
 70
     1
102
RTVSPost2010Prop38
140
0.0
102
RTVSPost2010PropOp38
 70
     1
102
RTVSPost2010Prop39
140
1.0
102
RTVSPost2010PropOp39
 70
     1
102
RTVSPost2010Prop40
 90
        0
102
RTVSPost2010PropOp40
 70
     1
102
RTVSPost2010Prop41ColorIndex
 90
       18
102
RTVSPost2010Prop41ColorRGB
 90
        0
102
RTVSPost2010PropOp41
 70
     1
102
RTVSPost2010Prop42
 90
       50
102
RTVSPost2010PropOp42
 70
     1
102
RTVSPost2010Prop43
 90
        3
102
RTVSPost2010PropOp43
 70
     1
102
RTVSPost2010Prop44ColorIndex
 90
        5
102
RTVSPost2010Prop44ColorRGB
 90
      255
102
RTVSPost2010PropOp44
 70
     1
102
RTVSPost2010Prop45
280
     0
102
RTVSPost2010PropOp45
 70
     1
102
RTVSPost2010Prop46
 90
       50
102
RTVSPost2010PropOp46
 70
     1
102
RTVSPost2010Prop47
 90
       50
102
RTVSPost2010PropOp47
 70
     1
102
RTVSPost2010Prop48
 90
       50
102
RTVSPost2010PropOp48
 70
     1
102
RTVSPost2010Prop49
280
     0
102
RTVSPost2010PropOp49
 70
     1
102
RTVSPost2010Prop50
 90
       50
102
RTVSPost2010PropOp50
 70
     1
102
RTVSPost2010Prop51ColorIndex
 90
      256
102
RTVSPost2010Prop51ColorRGB
 90
-16777216
102
RTVSPost2010PropOp51
 70
     0
102
RTVSPost2010Prop52
140
1.0
102
RTVSPost2010PropOp52
 70
     0
102
RTVSPost2010Prop53
 90
        2
102
RTVSPost2010PropOp53
 70
     1
102
RTVSPost2010Prop54
  1
strokes_ogs.tif
102
RTVSPost2010PropOp54
 70
     1
102
RTVSPost2010Prop55
280
     0
102
RTVSPost2010PropOp55
 70
     1
102
RTVSPost2010Prop56
140
1.0
102
RTVSPost2010PropOp56
 70
     1
102
RTVSPost2010Prop57
140
1.0
102
RTVSPost2010PropOp57
 70
     1
102
RTVSPropertyOp0
 70
     1
102
RTVSPropertyOp1
 70
     1
102
RTVSPropertyOp2
 70
     1
102
RTVSPropertyOp3
 70
     1
102
RTVSPropertyOp4
 70
     1
102
RTVSPropertyOp5
 70
     1
102
RTVSPropertyOp6
 70
     1
102
RTVSPropertyOp7
 70
     1
102
RTVSPropertyOp8
 70
     1
102
RTVSPropertyOp9
 70
     1
102
RTVSPropertyOp10
 70
     1
102
RTVSPropertyOp11
 70
     1
102
RTVSPropertyOp12
 70
     1
102
RTVSPropertyOp13
 70
     1
102
RTVSPropertyOp14
 70
     1
102
RTVSPropertyOp15
 70
     1
102
RTVSPropertyOp16
 70
     1
102
RTVSPropertyOp17
 70
     1
102
RTVSPropertyOp18
 70
     1
102
RTVSPropertyOp19
 70
     1
102
RTVSPropertyOp20
 70
     1
102
RTVSPropertyOp21
 70
     1
102
RTVSPropertyOp22
 70
     1
102
RTVSPropertyOp23
 70
     1
102
RTVSPropertyOp24
 70
     1
102
RTVSPropertyOp25
 70
     1
102
RTVSPropertyOp26
 70
     1
102
RTVSPropertyOp27
 70
     1
102
RTVSPropertyOp28
 70
     1
102
RTVSPropertyOp29
 70
     1
102
RTVSPropertyOp30
 70
     1
102
RTVSPropertyOp31
 70
     1
102
RTVSPropertyOp32
 70
     1
102
RTVSPropertyOp33
 70
     1
102
RTVSPropertyOp34
 70
     1
102
RTVSPropertyOp35
 70
     1
102
RTVSPropertyOp36
 70
     1
102
RTVSPropertyOp37
 70
     1
102
RTVSPropertyOp38
 70
     1
102
RTVSPropertyOp39
 70
     1
102
RTVSPropertyOp40
 70
     1
102
RTVSPropertyOp41
 70
     1
102
RTVSPropertyOp42
 70
     1
102
RTVSPropertyOp43
 70
     1
102
RTVSPropertyOp44
 70
     1
102
RTVSPropertyOp45
 70
     1
102
RTVSPropertyOp46
 70
     1
102
RTVSPropertyOp47
 70
     1
102
RTVSPropertyOp48
 70
     1
102
RTVSPropertyOp49
 70
     1
102
RTVSPropertyOp50
 70
     1
102
RTVSPropertyOp51
 70
     0
102
RTVSPropertyOp52
 70
     0
102
RTVSPropertyOp53
 70
     1
102
RTVSPropertyOp54
 70
     1
102
RTVSPropertyOp55
 70
     1
102
RTVSPropertyOp56
 70
     1
102
RTVSPropertyOp57
 70
     1
102
RTVSPropertyOp58
 70
     1
102
RTVSPropertyOp59
 70
     1
102
RTVSPropertyOp60
 70
     1
102
RTVSPropertyOp61
 70
     1
102
RTVSPropertyOp62
 70
     1
  0
XRECORD
  5
C019
102
{ACAD_REACTORS
330
C018
102
}
330
C018
100
AcDbXrecord
280
     1
102
RTVSPost2010Prop28
280
     0
102
RTVSPost2010PropOp28
 70
     1
102
RTVSPost2010Prop29
280
     1
102
RTVSPost2010PropOp29
 70
     1
102
RTVSPost2010Prop30
280
     1
102
RTVSPost2010PropOp30
 70
     1
102
RTVSPost2010Prop31
280
     0
102
RTVSPost2010PropOp31
 70
     1
102
RTVSPost2010Prop32
280
     0
102
RTVSPost2010PropOp32
 70
     1
102
RTVSPost2010Prop33
280
     0
102
RTVSPost2010PropOp33
 70
     1
102
RTVSPost2010Prop34
280
     0
102
RTVSPost2010PropOp34
 70
     1
102
RTVSPost2010Prop35
280
     0
102
RTVSPost2010PropOp35
 70
     1
102
RTVSPost2010Prop36
280
     0
102
RTVSPost2010PropOp36
 70
     1
102
RTVSPost2010Prop37
 90
       50
102
RTVSPost2010PropOp37
 70
     1
102
RTVSPost2010Prop38
140
0.0
102
RTVSPost2010PropOp38
 70
     1
102
RTVSPost2010Prop39
140
1.0
102
RTVSPost2010PropOp39
 70
     1
102
RTVSPost2010Prop40
 90
        0
102
RTVSPost2010PropOp40
 70
     1
102
RTVSPost2010Prop41ColorIndex
 90
       18
102
RTVSPost2010Prop41ColorRGB
 90
        0
102
RTVSPost2010PropOp41
 70
     1
102
RTVSPost2010Prop42
 90
       50
102
RTVSPost2010PropOp42
 70
     1
102
RTVSPost2010Prop43
 90
        3
102
RTVSPost2010PropOp43
 70
     1
102
RTVSPost2010Prop44ColorIndex
 90
        5
102
RTVSPost2010Prop44ColorRGB
 90
      255
102
RTVSPost2010PropOp44
 70
     1
102
RTVSPost2010Prop45
280
     0
102
RTVSPost2010PropOp45
 70
     1
102
RTVSPost2010Prop46
 90
       50
102
RTVSPost2010PropOp46
 70
     1
102
RTVSPost2010Prop47
 90
       50
102
RTVSPost2010PropOp47
 70
     1
102
RTVSPost2010Prop48
 90
       50
102
RTVSPost2010PropOp48
 70
     1
102
RTVSPost2010Prop49
280
     0
102
RTVSPost2010PropOp49
 70
     1
102
RTVSPost2010Prop50
 90
       50
102
RTVSPost2010PropOp50
 70
     1
102
RTVSPost2010Prop51ColorIndex
 90
      256
102
RTVSPost2010Prop51ColorRGB
 90
-16777216
102
RTVSPost2010PropOp51
 70
     0
102
RTVSPost2010Prop52
140
1.0
102
RTVSPost2010PropOp52
 70
     0
102
RTVSPost2010Prop53
 90
        2
102
RTVSPost2010PropOp53
 70
     1
102
RTVSPost2010Prop54
  1
strokes_ogs.tif
102
RTVSPost2010PropOp54
 70
     1
102
RTVSPost2010Prop55
280
     0
102
RTVSPost2010PropOp55
 70
     1
102
RTVSPost2010Prop56
140
1.0
102
RTVSPost2010PropOp56
 70
     1
102
RTVSPost2010Prop57
140
1.0
102
RTVSPost2010PropOp57
 70
     1
102
RTVSPropertyOp0
 70
     1
102
RTVSPropertyOp1
 70
     1
102
RTVSPropertyOp2
 70
     1
102
RTVSPropertyOp3
 70
     1
102
RTVSPropertyOp4
 70
     1
102
RTVSPropertyOp5
 70
     1
102
RTVSPropertyOp6
 70
     1
102
RTVSPropertyOp7
 70
     1
102
RTVSPropertyOp8
 70
     1
102
RTVSPropertyOp9
 70
     1
102
RTVSPropertyOp10
 70
     1
102
RTVSPropertyOp11
 70
     1
102
RTVSPropertyOp12
 70
     1
102
RTVSPropertyOp13
 70
     1
102
RTVSPropertyOp14
 70
     1
102
RTVSPropertyOp15
 70
     1
102
RTVSPropertyOp16
 70
     1
102
RTVSPropertyOp17
 70
     1
102
RTVSPropertyOp18
 70
     1
102
RTVSPropertyOp19
 70
     1
102
RTVSPropertyOp20
 70
     1
102
RTVSPropertyOp21
 70
     1
102
RTVSPropertyOp22
 70
     1
102
RTVSPropertyOp23
 70
     1
102
RTVSPropertyOp24
 70
     1
102
RTVSPropertyOp25
 70
     1
102
RTVSPropertyOp26
 70
     1
102
RTVSPropertyOp27
 70
     1
102
RTVSPropertyOp28
 70
     1
102
RTVSPropertyOp29
 70
     1
102
RTVSPropertyOp30
 70
     1
102
RTVSPropertyOp31
 70
     1
102
RTVSPropertyOp32
 70
     1
102
RTVSPropertyOp33
 70
     1
102
RTVSPropertyOp34
 70
     1
102
RTVSPropertyOp35
 70
     1
102
RTVSPropertyOp36
 70
     1
102
RTVSPropertyOp37
 70
     1
102
RTVSPropertyOp38
 70
     1
102
RTVSPropertyOp39
 70
     1
102
RTVSPropertyOp40
 70
     1
102
RTVSPropertyOp41
 70
     1
102
RTVSPropertyOp42
 70
     1
102
RTVSPropertyOp43
 70
     1
102
RTVSPropertyOp44
 70
     1
102
RTVSPropertyOp45
 70
     1
102
RTVSPropertyOp46
 70
     1
102
RTVSPropertyOp47
 70
     1
102
RTVSPropertyOp48
 70
     1
102
RTVSPropertyOp49
 70
     1
102
RTVSPropertyOp50
 70
     1
102
RTVSPropertyOp51
 70
     0
102
RTVSPropertyOp52
 70
     0
102
RTVSPropertyOp53
 70
     1
102
RTVSPropertyOp54
 70
     1
102
RTVSPropertyOp55
 70
     1
102
RTVSPropertyOp56
 70
     1
102
RTVSPropertyOp57
 70
     1
102
RTVSPropertyOp58
 70
     1
102
RTVSPropertyOp59
 70
     1
102
RTVSPropertyOp60
 70
     1
102
RTVSPropertyOp61
 70
     1
102
RTVSPropertyOp62
 70
     1
  0
XRECORD
  5
C00B
102
{ACAD_REACTORS
330
C00A
102
}
330
C00A
100
AcDbXrecord
280
     1
102
RTVSPost2010Prop28
280
     0
102
RTVSPost2010PropOp28
 70
     1
102
RTVSPost2010Prop29
280
     1
102
RTVSPost2010PropOp29
 70
     1
102
RTVSPost2010Prop30
280
     1
102
RTVSPost2010PropOp30
 70
     1
102
RTVSPost2010Prop31
280
     0
102
RTVSPost2010PropOp31
 70
     1
102
RTVSPost2010Prop32
280
     0
102
RTVSPost2010PropOp32
 70
     1
102
RTVSPost2010Prop33
280
     0
102
RTVSPost2010PropOp33
 70
     1
102
RTVSPost2010Prop34
280
     0
102
RTVSPost2010PropOp34
 70
     1
102
RTVSPost2010Prop35
280
     0
102
RTVSPost2010PropOp35
 70
     1
102
RTVSPost2010Prop36
280
     0
102
RTVSPost2010PropOp36
 70
     1
102
RTVSPost2010Prop37
 90
       50
102
RTVSPost2010PropOp37
 70
     1
102
RTVSPost2010Prop38
140
0.0
102
RTVSPost2010PropOp38
 70
     1
102
RTVSPost2010Prop39
140
1.0
102
RTVSPost2010PropOp39
 70
     1
102
RTVSPost2010Prop40
 90
        0
102
RTVSPost2010PropOp40
 70
     1
102
RTVSPost2010Prop41ColorIndex
 90
       18
102
RTVSPost2010Prop41ColorRGB
 90
        0
102
RTVSPost2010PropOp41
 70
     1
102
RTVSPost2010Prop42
 90
       50
102
RTVSPost2010PropOp42
 70
     1
102
RTVSPost2010Prop43
 90
        3
102
RTVSPost2010PropOp43
 70
     1
102
RTVSPost2010Prop44ColorIndex
 90
        5
102
RTVSPost2010Prop44ColorRGB
 90
      255
102
RTVSPost2010PropOp44
 70
     1
102
RTVSPost2010Prop45
280
     0
102
RTVSPost2010PropOp45
 70
     1
102
RTVSPost2010Prop46
 90
       50
102
RTVSPost2010PropOp46
 70
     1
102
RTVSPost2010Prop47
 90
       50
102
RTVSPost2010PropOp47
 70
     1
102
RTVSPost2010Prop48
 90
       50
102
RTVSPost2010PropOp48
 70
     1
102
RTVSPost2010Prop49
280
     0
102
RTVSPost2010PropOp49
 70
     1
102
RTVSPost2010Prop50
 90
       50
102
RTVSPost2010PropOp50
 70
     1
102
RTVSPost2010Prop51ColorIndex
 90
      256
102
RTVSPost2010Prop51ColorRGB
 90
-16777216
102
RTVSPost2010PropOp51
 70
     0
102
RTVSPost2010Prop52
140
1.0
102
RTVSPost2010PropOp52
 70
     0
102
RTVSPost2010Prop53
 90
        2
102
RTVSPost2010PropOp53
 70
     1
102
RTVSPost2010Prop54
  1
strokes_ogs.tif
102
RTVSPost2010PropOp54
 70
     1
102
RTVSPost2010Prop55
280
     0
102
RTVSPost2010PropOp55
 70
     1
102
RTVSPost2010Prop56
140
1.0
102
RTVSPost2010PropOp56
 70
     1
102
RTVSPost2010Prop57
140
1.0
102
RTVSPost2010PropOp57
 70
     1
102
RTVSPropertyOp0
 70
     1
102
RTVSPropertyOp1
 70
     1
102
RTVSPropertyOp2
 70
     1
102
RTVSPropertyOp3
 70
     1
102
RTVSPropertyOp4
 70
     1
102
RTVSPropertyOp5
 70
     1
102
RTVSPropertyOp6
 70
     1
102
RTVSPropertyOp7
 70
     1
102
RTVSPropertyOp8
 70
     1
102
RTVSPropertyOp9
 70
     1
102
RTVSPropertyOp10
 70
     1
102
RTVSPropertyOp11
 70
     1
102
RTVSPropertyOp12
 70
     1
102
RTVSPropertyOp13
 70
     1
102
RTVSPropertyOp14
 70
     1
102
RTVSPropertyOp15
 70
     1
102
RTVSPropertyOp16
 70
     1
102
RTVSPropertyOp17
 70
     1
102
RTVSPropertyOp18
 70
     1
102
RTVSPropertyOp19
 70
     1
102
RTVSPropertyOp20
 70
     1
102
RTVSPropertyOp21
 70
     1
102
RTVSPropertyOp22
 70
     1
102
RTVSPropertyOp23
 70
     1
102
RTVSPropertyOp24
 70
     1
102
RTVSPropertyOp25
 70
     1
102
RTVSPropertyOp26
 70
     1
102
RTVSPropertyOp27
 70
     1
102
RTVSPropertyOp28
 70
     1
102
RTVSPropertyOp29
 70
     1
102
RTVSPropertyOp30
 70
     1
102
RTVSPropertyOp31
 70
     1
102
RTVSPropertyOp32
 70
     1
102
RTVSPropertyOp33
 70
     1
102
RTVSPropertyOp34
 70
     1
102
RTVSPropertyOp35
 70
     1
102
RTVSPropertyOp36
 70
     1
102
RTVSPropertyOp37
 70
     1
102
RTVSPropertyOp38
 70
     1
102
RTVSPropertyOp39
 70
     1
102
RTVSPropertyOp40
 70
     1
102
RTVSPropertyOp41
 70
     1
102
RTVSPropertyOp42
 70
     1
102
RTVSPropertyOp43
 70
     1
102
RTVSPropertyOp44
 70
     1
102
RTVSPropertyOp45
 70
     1
102
RTVSPropertyOp46
 70
     1
102
RTVSPropertyOp47
 70
     1
102
RTVSPropertyOp48
 70
     1
102
RTVSPropertyOp49
 70
     1
102
RTVSPropertyOp50
 70
     1
102
RTVSPropertyOp51
 70
     0
102
RTVSPropertyOp52
 70
     0
102
RTVSPropertyOp53
 70
     1
102
RTVSPropertyOp54
 70
     1
102
RTVSPropertyOp55
 70
     1
102
RTVSPropertyOp56
 70
     1
102
RTVSPropertyOp57
 70
     1
102
RTVSPropertyOp58
 70
     1
102
RTVSPropertyOp59
 70
     1
102
RTVSPropertyOp60
 70
     1
102
RTVSPropertyOp61
 70
     1
102
RTVSPropertyOp62
 70
     1
  0
XRECORD
  5
C00F
102
{ACAD_REACTORS
330
C00E
102
}
330
C00E
100
AcDbXrecord
280
     1
102
RTVSPost2010Prop28
280
     0
102
RTVSPost2010PropOp28
 70
     1
102
RTVSPost2010Prop29
280
     1
102
RTVSPost2010PropOp29
 70
     1
102
RTVSPost2010Prop30
280
     1
102
RTVSPost2010PropOp30
 70
     1
102
RTVSPost2010Prop31
280
     0
102
RTVSPost2010PropOp31
 70
     1
102
RTVSPost2010Prop32
280
     0
102
RTVSPost2010PropOp32
 70
     1
102
RTVSPost2010Prop33
280
     0
102
RTVSPost2010PropOp33
 70
     1
102
RTVSPost2010Prop34
280
     0
102
RTVSPost2010PropOp34
 70
     1
102
RTVSPost2010Prop35
280
     0
102
RTVSPost2010PropOp35
 70
     1
102
RTVSPost2010Prop36
280
     0
102
RTVSPost2010PropOp36
 70
     1
102
RTVSPost2010Prop37
 90
       50
102
RTVSPost2010PropOp37
 70
     1
102
RTVSPost2010Prop38
140
0.0
102
RTVSPost2010PropOp38
 70
     1
102
RTVSPost2010Prop39
140
1.0
102
RTVSPost2010PropOp39
 70
     1
102
RTVSPost2010Prop40
 90
        0
102
RTVSPost2010PropOp40
 70
     1
102
RTVSPost2010Prop41ColorIndex
 90
       18
102
RTVSPost2010Prop41ColorRGB
 90
        0
102
RTVSPost2010PropOp41
 70
     1
102
RTVSPost2010Prop42
 90
       50
102
RTVSPost2010PropOp42
 70
     1
102
RTVSPost2010Prop43
 90
        3
102
RTVSPost2010PropOp43
 70
     1
102
RTVSPost2010Prop44ColorIndex
 90
        5
102
RTVSPost2010Prop44ColorRGB
 90
      255
102
RTVSPost2010PropOp44
 70
     1
102
RTVSPost2010Prop45
280
     0
102
RTVSPost2010PropOp45
 70
     1
102
RTVSPost2010Prop46
 90
       50
102
RTVSPost2010PropOp46
 70
     1
102
RTVSPost2010Prop47
 90
       50
102
RTVSPost2010PropOp47
 70
     1
102
RTVSPost2010Prop48
 90
       50
102
RTVSPost2010PropOp48
 70
     1
102
RTVSPost2010Prop49
280
     0
102
RTVSPost2010PropOp49
 70
     1
102
RTVSPost2010Prop50
 90
       50
102
RTVSPost2010PropOp50
 70
     1
102
RTVSPost2010Prop51ColorIndex
 90
      256
102
RTVSPost2010Prop51ColorRGB
 90
-16777216
102
RTVSPost2010PropOp51
 70
     0
102
RTVSPost2010Prop52
140
1.0
102
RTVSPost2010PropOp52
 70
     0
102
RTVSPost2010Prop53
 90
        2
102
RTVSPost2010PropOp53
 70
     1
102
RTVSPost2010Prop54
  1
strokes_ogs.tif
102
RTVSPost2010PropOp54
 70
     1
102
RTVSPost2010Prop55
280
     0
102
RTVSPost2010PropOp55
 70
     1
102
RTVSPost2010Prop56
140
1.0
102
RTVSPost2010PropOp56
 70
     1
102
RTVSPost2010Prop57
140
1.0
102
RTVSPost2010PropOp57
 70
     1
102
RTVSPropertyOp0
 70
     1
102
RTVSPropertyOp1
 70
     1
102
RTVSPropertyOp2
 70
     1
102
RTVSPropertyOp3
 70
     1
102
RTVSPropertyOp4
 70
     1
102
RTVSPropertyOp5
 70
     1
102
RTVSPropertyOp6
 70
     1
102
RTVSPropertyOp7
 70
     1
102
RTVSPropertyOp8
 70
     1
102
RTVSPropertyOp9
 70
     1
102
RTVSPropertyOp10
 70
     1
102
RTVSPropertyOp11
 70
     1
102
RTVSPropertyOp12
 70
     1
102
RTVSPropertyOp13
 70
     1
102
RTVSPropertyOp14
 70
     1
102
RTVSPropertyOp15
 70
     1
102
RTVSPropertyOp16
 70
     1
102
RTVSPropertyOp17
 70
     1
102
RTVSPropertyOp18
 70
     1
102
RTVSPropertyOp19
 70
     1
102
RTVSPropertyOp20
 70
     1
102
RTVSPropertyOp21
 70
     1
102
RTVSPropertyOp22
 70
     1
102
RTVSPropertyOp23
 70
     1
102
RTVSPropertyOp24
 70
     1
102
RTVSPropertyOp25
 70
     1
102
RTVSPropertyOp26
 70
     1
102
RTVSPropertyOp27
 70
     1
102
RTVSPropertyOp28
 70
     1
102
RTVSPropertyOp29
 70
     1
102
RTVSPropertyOp30
 70
     1
102
RTVSPropertyOp31
 70
     1
102
RTVSPropertyOp32
 70
     1
102
RTVSPropertyOp33
 70
     1
102
RTVSPropertyOp34
 70
     1
102
RTVSPropertyOp35
 70
     1
102
RTVSPropertyOp36
 70
     1
102
RTVSPropertyOp37
 70
     1
102
RTVSPropertyOp38
 70
     1
102
RTVSPropertyOp39
 70
     1
102
RTVSPropertyOp40
 70
     1
102
RTVSPropertyOp41
 70
     1
102
RTVSPropertyOp42
 70
     1
102
RTVSPropertyOp43
 70
     1
102
RTVSPropertyOp44
 70
     1
102
RTVSPropertyOp45
 70
     1
102
RTVSPropertyOp46
 70
     1
102
RTVSPropertyOp47
 70
     1
102
RTVSPropertyOp48
 70
     1
102
RTVSPropertyOp49
 70
     1
102
RTVSPropertyOp50
 70
     1
102
RTVSPropertyOp51
 70
     0
102
RTVSPropertyOp52
 70
     0
102
RTVSPropertyOp53
 70
     1
102
RTVSPropertyOp54
 70
     1
102
RTVSPropertyOp55
 70
     1
102
RTVSPropertyOp56
 70
     1
102
RTVSPropertyOp57
 70
     1
102
RTVSPropertyOp58
 70
     1
102
RTVSPropertyOp59
 70
     1
102
RTVSPropertyOp60
 70
     1
102
RTVSPropertyOp61
 70
     1
102
RTVSPropertyOp62
 70
     1
  0
XRECORD
  5
C029
102
{ACAD_REACTORS
330
C028
102
}
330
C028
100
AcDbXrecord
280
     1
102
RTVSPost2010Prop28
280
     0
102
RTVSPost2010PropOp28
 70
     1
102
RTVSPost2010Prop29
280
     1
102
RTVSPost2010PropOp29
 70
     1
102
RTVSPost2010Prop30
280
     1
102
RTVSPost2010PropOp30
 70
     1
102
RTVSPost2010Prop31
280
     0
102
RTVSPost2010PropOp31
 70
     1
102
RTVSPost2010Prop32
280
     0
102
RTVSPost2010PropOp32
 70
     1
102
RTVSPost2010Prop33
280
     0
102
RTVSPost2010PropOp33
 70
     1
102
RTVSPost2010Prop34
280
     0
102
RTVSPost2010PropOp34
 70
     1
102
RTVSPost2010Prop35
280
     0
102
RTVSPost2010PropOp35
 70
     1
102
RTVSPost2010Prop36
280
     0
102
RTVSPost2010PropOp36
 70
     1
102
RTVSPost2010Prop37
 90
       50
102
RTVSPost2010PropOp37
 70
     0
102
RTVSPost2010Prop38
140
0.0
102
RTVSPost2010PropOp38
 70
     0
102
RTVSPost2010Prop39
140
1.0
102
RTVSPost2010PropOp39
 70
     0
102
RTVSPost2010Prop40
 90
        0
102
RTVSPost2010PropOp40
 70
     0
102
RTVSPost2010Prop41ColorIndex
 90
       18
102
RTVSPost2010Prop41ColorRGB
 90
        0
102
RTVSPost2010PropOp41
 70
     0
102
RTVSPost2010Prop42
 90
       50
102
RTVSPost2010PropOp42
 70
     0
102
RTVSPost2010Prop43
 90
        3
102
RTVSPost2010PropOp43
 70
     0
102
RTVSPost2010Prop44ColorIndex
 90
        5
102
RTVSPost2010Prop44ColorRGB
 90
      255
102
RTVSPost2010PropOp44
 70
     0
102
RTVSPost2010Prop45
280
     0
102
RTVSPost2010PropOp45
 70
     1
102
RTVSPost2010Prop46
 90
       50
102
RTVSPost2010PropOp46
 70
     0
102
RTVSPost2010Prop47
 90
       50
102
RTVSPost2010PropOp47
 70
     0
102
RTVSPost2010Prop48
 90
       50
102
RTVSPost2010PropOp48
 70
     0
102
RTVSPost2010Prop49
280
     0
102
RTVSPost2010PropOp49
 70
     1
102
RTVSPost2010Prop50
 90
       50
102
RTVSPost2010PropOp50
 70
     0
102
RTVSPost2010Prop51ColorIndex
 90
      256
102
RTVSPost2010Prop51ColorRGB
 90
-16777216
102
RTVSPost2010PropOp51
 70
     0
102
RTVSPost2010Prop52
140
1.0
102
RTVSPost2010PropOp52
 70
     0
102
RTVSPost2010Prop53
 90
        2
102
RTVSPost2010PropOp53
 70
     0
102
RTVSPost2010Prop54
  1
strokes_ogs.tif
102
RTVSPost2010PropOp54
 70
     0
102
RTVSPost2010Prop55
280
     0
102
RTVSPost2010PropOp55
 70
     1
102
RTVSPost2010Prop56
140
1.0
102
RTVSPost2010PropOp56
 70
     0
102
RTVSPost2010Prop57
140
1.0
102
RTVSPost2010PropOp57
 70
     0
102
RTVSPropertyOp0
 70
     0
102
RTVSPropertyOp1
 70
     0
102
RTVSPropertyOp2
 70
     0
102
RTVSPropertyOp3
 70
     0
102
RTVSPropertyOp4
 70
     0
102
RTVSPropertyOp5
 70
     0
102
RTVSPropertyOp6
 70
     0
102
RTVSPropertyOp7
 70
     0
102
RTVSPropertyOp8
 70
     0
102
RTVSPropertyOp9
 70
     0
102
RTVSPropertyOp10
 70
     0
102
RTVSPropertyOp11
 70
     0
102
RTVSPropertyOp12
 70
     0
102
RTVSPropertyOp13
 70
     0
102
RTVSPropertyOp14
 70
     2
102
RTVSPropertyOp15
 70
     0
102
RTVSPropertyOp16
 70
     0
102
RTVSPropertyOp17
 70
     0
102
RTVSPropertyOp18
 70
     0
102
RTVSPropertyOp19
 70
     0
102
RTVSPropertyOp20
 70
     0
102
RTVSPropertyOp21
 70
     0
102
RTVSPropertyOp22
 70
     0
102
RTVSPropertyOp23
 70
     0
102
RTVSPropertyOp24
 70
     0
102
RTVSPropertyOp25
 70
     0
102
RTVSPropertyOp26
 70
     0
102
RTVSPropertyOp27
 70
     0
102
RTVSPropertyOp28
 70
     1
102
RTVSPropertyOp29
 70
     1
102
RTVSPropertyOp30
 70
     1
102
RTVSPropertyOp31
 70
     1
102
RTVSPropertyOp32
 70
     1
102
RTVSPropertyOp33
 70
     1
102
RTVSPropertyOp34
 70
     1
102
RTVSPropertyOp35
 70
     1
102
RTVSPropertyOp36
 70
     1
102
RTVSPropertyOp37
 70
     0
102
RTVSPropertyOp38
 70
     0
102
RTVSPropertyOp39
 70
     0
102
RTVSPropertyOp40
 70
     0
102
RTVSPropertyOp41
 70
     0
102
RTVSPropertyOp42
 70
     0
102
RTVSPropertyOp43
 70
     0
102
RTVSPropertyOp44
 70
     0
102
RTVSPropertyOp45
 70
     1
102
RTVSPropertyOp46
 70
     0
102
RTVSPropertyOp47
 70
     0
102
RTVSPropertyOp48
 70
     0
102
RTVSPropertyOp49
 70
     1
102
RTVSPropertyOp50
 70
     0
102
RTVSPropertyOp51
 70
     0
102
RTVSPropertyOp52
 70
     0
102
RTVSPropertyOp53
 70
     0
102
RTVSPropertyOp54
 70
     0
102
RTVSPropertyOp55
 70
     1
102
RTVSPropertyOp56
 70
     0
102
RTVSPropertyOp57
 70
     0
102
RTVSPropertyOp58
 70
     0
102
RTVSPropertyOp59
 70
     0
102
RTVSPropertyOp60
 70
     0
102
RTVSPropertyOp61
 70
     0
102
RTVSPropertyOp62
 70
     0
  0
XRECORD
  5
C017
102
{ACAD_REACTORS
330
C016
102
}
330
C016
100
AcDbXrecord
280
     1
102
RTVSPost2010Prop28
280
     0
102
RTVSPost2010PropOp28
 70
     1
102
RTVSPost2010Prop29
280
     1
102
RTVSPost2010PropOp29
 70
     1
102
RTVSPost2010Prop30
280
     1
102
RTVSPost2010PropOp30
 70
     1
102
RTVSPost2010Prop31
280
     0
102
RTVSPost2010PropOp31
 70
     1
102
RTVSPost2010Prop32
280
     0
102
RTVSPost2010PropOp32
 70
     1
102
RTVSPost2010Prop33
280
     0
102
RTVSPost2010PropOp33
 70
     1
102
RTVSPost2010Prop34
280
     0
102
RTVSPost2010PropOp34
 70
     1
102
RTVSPost2010Prop35
280
     0
102
RTVSPost2010PropOp35
 70
     1
102
RTVSPost2010Prop36
280
     0
102
RTVSPost2010PropOp36
 70
     1
102
RTVSPost2010Prop37
 90
       50
102
RTVSPost2010PropOp37
 70
     1
102
RTVSPost2010Prop38
140
0.0
102
RTVSPost2010PropOp38
 70
     1
102
RTVSPost2010Prop39
140
1.0
102
RTVSPost2010PropOp39
 70
     1
102
RTVSPost2010Prop40
 90
        0
102
RTVSPost2010PropOp40
 70
     1
102
RTVSPost2010Prop41ColorIndex
 90
       18
102
RTVSPost2010Prop41ColorRGB
 90
        0
102
RTVSPost2010PropOp41
 70
     1
102
RTVSPost2010Prop42
 90
       50
102
RTVSPost2010PropOp42
 70
     1
102
RTVSPost2010Prop43
 90
        3
102
RTVSPost2010PropOp43
 70
     1
102
RTVSPost2010Prop44ColorIndex
 90
        5
102
RTVSPost2010Prop44ColorRGB
 90
      255
102
RTVSPost2010PropOp44
 70
     1
102
RTVSPost2010Prop45
280
     0
102
RTVSPost2010PropOp45
 70
     1
102
RTVSPost2010Prop46
 90
       50
102
RTVSPost2010PropOp46
 70
     1
102
RTVSPost2010Prop47
 90
       50
102
RTVSPost2010PropOp47
 70
     1
102
RTVSPost2010Prop48
 90
       50
102
RTVSPost2010PropOp48
 70
     1
102
RTVSPost2010Prop49
280
     0
102
RTVSPost2010PropOp49
 70
     1
102
RTVSPost2010Prop50
 90
       50
102
RTVSPost2010PropOp50
 70
     1
102
RTVSPost2010Prop51ColorIndex
 90
      256
102
RTVSPost2010Prop51ColorRGB
 90
-16777216
102
RTVSPost2010PropOp51
 70
     0
102
RTVSPost2010Prop52
140
1.0
102
RTVSPost2010PropOp52
 70
     0
102
RTVSPost2010Prop53
 90
        2
102
RTVSPost2010PropOp53
 70
     1
102
RTVSPost2010Prop54
  1
strokes_ogs.tif
102
RTVSPost2010PropOp54
 70
     1
102
RTVSPost2010Prop55
280
     0
102
RTVSPost2010PropOp55
 70
     1
102
RTVSPost2010Prop56
140
1.0
102
RTVSPost2010PropOp56
 70
     1
102
RTVSPost2010Prop57
140
1.0
102
RTVSPost2010PropOp57
 70
     1
102
RTVSPropertyOp0
 70
     1
102
RTVSPropertyOp1
 70
     1
102
RTVSPropertyOp2
 70
     1
102
RTVSPropertyOp3
 70
     1
102
RTVSPropertyOp4
 70
     1
102
RTVSPropertyOp5
 70
     1
102
RTVSPropertyOp6
 70
     1
102
RTVSPropertyOp7
 70
     1
102
RTVSPropertyOp8
 70
     1
102
RTVSPropertyOp9
 70
     1
102
RTVSPropertyOp10
 70
     1
102
RTVSPropertyOp11
 70
     1
102
RTVSPropertyOp12
 70
     1
102
RTVSPropertyOp13
 70
     1
102
RTVSPropertyOp14
 70
     1
102
RTVSPropertyOp15
 70
     1
102
RTVSPropertyOp16
 70
     1
102
RTVSPropertyOp17
 70
     1
102
RTVSPropertyOp18
 70
     1
102
RTVSPropertyOp19
 70
     1
102
RTVSPropertyOp20
 70
     1
102
RTVSPropertyOp21
 70
     1
102
RTVSPropertyOp22
 70
     1
102
RTVSPropertyOp23
 70
     1
102
RTVSPropertyOp24
 70
     1
102
RTVSPropertyOp25
 70
     1
102
RTVSPropertyOp26
 70
     1
102
RTVSPropertyOp27
 70
     1
102
RTVSPropertyOp28
 70
     1
102
RTVSPropertyOp29
 70
     1
102
RTVSPropertyOp30
 70
     1
102
RTVSPropertyOp31
 70
     1
102
RTVSPropertyOp32
 70
     1
102
RTVSPropertyOp33
 70
     1
102
RTVSPropertyOp34
 70
     1
102
RTVSPropertyOp35
 70
     1
102
RTVSPropertyOp36
 70
     1
102
RTVSPropertyOp37
 70
     1
102
RTVSPropertyOp38
 70
     1
102
RTVSPropertyOp39
 70
     1
102
RTVSPropertyOp40
 70
     1
102
RTVSPropertyOp41
 70
     1
102
RTVSPropertyOp42
 70
     1
102
RTVSPropertyOp43
 70
     1
102
RTVSPropertyOp44
 70
     1
102
RTVSPropertyOp45
 70
     1
102
RTVSPropertyOp46
 70
     1
102
RTVSPropertyOp47
 70
     1
102
RTVSPropertyOp48
 70
     1
102
RTVSPropertyOp49
 70
     1
102
RTVSPropertyOp50
 70
     1
102
RTVSPropertyOp51
 70
     0
102
RTVSPropertyOp52
 70
     0
102
RTVSPropertyOp53
 70
     1
102
RTVSPropertyOp54
 70
     1
102
RTVSPropertyOp55
 70
     1
102
RTVSPropertyOp56
 70
     1
102
RTVSPropertyOp57
 70
     1
102
RTVSPropertyOp58
 70
     1
102
RTVSPropertyOp59
 70
     1
102
RTVSPropertyOp60
 70
     1
102
RTVSPropertyOp61
 70
     1
102
RTVSPropertyOp62
 70
     1
  0
XRECORD
  5
BFFB
102
{ACAD_REACTORS
330
BFFA
102
}
330
BFFA
100
AcDbXrecord
280
     1
102
RTVSPost2010Prop28
280
     0
102
RTVSPost2010PropOp28
 70
     1
102
RTVSPost2010Prop29
280
     1
102
RTVSPost2010PropOp29
 70
     1
102
RTVSPost2010Prop30
280
     1
102
RTVSPost2010PropOp30
 70
     1
102
RTVSPost2010Prop31
280
     0
102
RTVSPost2010PropOp31
 70
     1
102
RTVSPost2010Prop32
280
     0
102
RTVSPost2010PropOp32
 70
     1
102
RTVSPost2010Prop33
280
     0
102
RTVSPost2010PropOp33
 70
     1
102
RTVSPost2010Prop34
280
     0
102
RTVSPost2010PropOp34
 70
     1
102
RTVSPost2010Prop35
280
     0
102
RTVSPost2010PropOp35
 70
     1
102
RTVSPost2010Prop36
280
     0
102
RTVSPost2010PropOp36
 70
     1
102
RTVSPost2010Prop37
 90
       50
102
RTVSPost2010PropOp37
 70
     1
102
RTVSPost2010Prop38
140
0.0
102
RTVSPost2010PropOp38
 70
     1
102
RTVSPost2010Prop39
140
1.0
102
RTVSPost2010PropOp39
 70
     1
102
RTVSPost2010Prop40
 90
        0
102
RTVSPost2010PropOp40
 70
     1
102
RTVSPost2010Prop41ColorIndex
 90
       18
102
RTVSPost2010Prop41ColorRGB
 90
        0
102
RTVSPost2010PropOp41
 70
     1
102
RTVSPost2010Prop42
 90
       50
102
RTVSPost2010PropOp42
 70
     1
102
RTVSPost2010Prop43
 90
        3
102
RTVSPost2010PropOp43
 70
     1
102
RTVSPost2010Prop44ColorIndex
 90
        5
102
RTVSPost2010Prop44ColorRGB
 90
      255
102
RTVSPost2010PropOp44
 70
     1
102
RTVSPost2010Prop45
280
     0
102
RTVSPost2010PropOp45
 70
     1
102
RTVSPost2010Prop46
 90
       50
102
RTVSPost2010PropOp46
 70
     1
102
RTVSPost2010Prop47
 90
       50
102
RTVSPost2010PropOp47
 70
     1
102
RTVSPost2010Prop48
 90
       50
102
RTVSPost2010PropOp48
 70
     1
102
RTVSPost2010Prop49
280
     0
102
RTVSPost2010PropOp49
 70
     1
102
RTVSPost2010Prop50
 90
       50
102
RTVSPost2010PropOp50
 70
     1
102
RTVSPost2010Prop51ColorIndex
 90
      256
102
RTVSPost2010Prop51ColorRGB
 90
-16777216
102
RTVSPost2010PropOp51
 70
     0
102
RTVSPost2010Prop52
140
1.0
102
RTVSPost2010PropOp52
 70
     0
102
RTVSPost2010Prop53
 90
        2
102
RTVSPost2010PropOp53
 70
     1
102
RTVSPost2010Prop54
  1
strokes_ogs.tif
102
RTVSPost2010PropOp54
 70
     1
102
RTVSPost2010Prop55
280
     0
102
RTVSPost2010PropOp55
 70
     1
102
RTVSPost2010Prop56
140
1.0
102
RTVSPost2010PropOp56
 70
     1
102
RTVSPost2010Prop57
140
1.0
102
RTVSPost2010PropOp57
 70
     1
102
RTVSPropertyOp0
 70
     1
102
RTVSPropertyOp1
 70
     1
102
RTVSPropertyOp2
 70
     1
102
RTVSPropertyOp3
 70
     1
102
RTVSPropertyOp4
 70
     1
102
RTVSPropertyOp5
 70
     1
102
RTVSPropertyOp6
 70
     1
102
RTVSPropertyOp7
 70
     1
102
RTVSPropertyOp8
 70
     1
102
RTVSPropertyOp9
 70
     1
102
RTVSPropertyOp10
 70
     1
102
RTVSPropertyOp11
 70
     1
102
RTVSPropertyOp12
 70
     1
102
RTVSPropertyOp13
 70
     1
102
RTVSPropertyOp14
 70
     1
102
RTVSPropertyOp15
 70
     1
102
RTVSPropertyOp16
 70
     1
102
RTVSPropertyOp17
 70
     1
102
RTVSPropertyOp18
 70
     1
102
RTVSPropertyOp19
 70
     1
102
RTVSPropertyOp20
 70
     1
102
RTVSPropertyOp21
 70
     1
102
RTVSPropertyOp22
 70
     1
102
RTVSPropertyOp23
 70
     1
102
RTVSPropertyOp24
 70
     1
102
RTVSPropertyOp25
 70
     1
102
RTVSPropertyOp26
 70
     1
102
RTVSPropertyOp27
 70
     1
102
RTVSPropertyOp28
 70
     1
102
RTVSPropertyOp29
 70
     1
102
RTVSPropertyOp30
 70
     1
102
RTVSPropertyOp31
 70
     1
102
RTVSPropertyOp32
 70
     1
102
RTVSPropertyOp33
 70
     1
102
RTVSPropertyOp34
 70
     1
102
RTVSPropertyOp35
 70
     1
102
RTVSPropertyOp36
 70
     1
102
RTVSPropertyOp37
 70
     1
102
RTVSPropertyOp38
 70
     1
102
RTVSPropertyOp39
 70
     1
102
RTVSPropertyOp40
 70
     1
102
RTVSPropertyOp41
 70
     1
102
RTVSPropertyOp42
 70
     1
102
RTVSPropertyOp43
 70
     1
102
RTVSPropertyOp44
 70
     1
102
RTVSPropertyOp45
 70
     1
102
RTVSPropertyOp46
 70
     1
102
RTVSPropertyOp47
 70
     1
102
RTVSPropertyOp48
 70
     1
102
RTVSPropertyOp49
 70
     1
102
RTVSPropertyOp50
 70
     1
102
RTVSPropertyOp51
 70
     0
102
RTVSPropertyOp52
 70
     0
102
RTVSPropertyOp53
 70
     1
102
RTVSPropertyOp54
 70
     1
102
RTVSPropertyOp55
 70
     1
102
RTVSPropertyOp56
 70
     1
102
RTVSPropertyOp57
 70
     1
102
RTVSPropertyOp58
 70
     1
102
RTVSPropertyOp59
 70
     1
102
RTVSPropertyOp60
 70
     1
102
RTVSPropertyOp61
 70
     1
102
RTVSPropertyOp62
 70
     1
  0
XRECORD
  5
BFFD
102
{ACAD_REACTORS
330
BFFC
102
}
330
BFFC
100
AcDbXrecord
280
     1
102
RTVSPost2010Prop28
280
     0
102
RTVSPost2010PropOp28
 70
     1
102
RTVSPost2010Prop29
280
     1
102
RTVSPost2010PropOp29
 70
     1
102
RTVSPost2010Prop30
280
     1
102
RTVSPost2010PropOp30
 70
     1
102
RTVSPost2010Prop31
280
     0
102
RTVSPost2010PropOp31
 70
     1
102
RTVSPost2010Prop32
280
     0
102
RTVSPost2010PropOp32
 70
     1
102
RTVSPost2010Prop33
280
     0
102
RTVSPost2010PropOp33
 70
     1
102
RTVSPost2010Prop34
280
     0
102
RTVSPost2010PropOp34
 70
     1
102
RTVSPost2010Prop35
280
     0
102
RTVSPost2010PropOp35
 70
     1
102
RTVSPost2010Prop36
280
     0
102
RTVSPost2010PropOp36
 70
     1
102
RTVSPost2010Prop37
 90
       50
102
RTVSPost2010PropOp37
 70
     1
102
RTVSPost2010Prop38
140
0.0
102
RTVSPost2010PropOp38
 70
     1
102
RTVSPost2010Prop39
140
1.0
102
RTVSPost2010PropOp39
 70
     1
102
RTVSPost2010Prop40
 90
        0
102
RTVSPost2010PropOp40
 70
     1
102
RTVSPost2010Prop41ColorIndex
 90
       18
102
RTVSPost2010Prop41ColorRGB
 90
        0
102
RTVSPost2010PropOp41
 70
     1
102
RTVSPost2010Prop42
 90
       50
102
RTVSPost2010PropOp42
 70
     1
102
RTVSPost2010Prop43
 90
        3
102
RTVSPost2010PropOp43
 70
     1
102
RTVSPost2010Prop44ColorIndex
 90
        5
102
RTVSPost2010Prop44ColorRGB
 90
      255
102
RTVSPost2010PropOp44
 70
     1
102
RTVSPost2010Prop45
280
     0
102
RTVSPost2010PropOp45
 70
     1
102
RTVSPost2010Prop46
 90
       50
102
RTVSPost2010PropOp46
 70
     1
102
RTVSPost2010Prop47
 90
       50
102
RTVSPost2010PropOp47
 70
     1
102
RTVSPost2010Prop48
 90
       50
102
RTVSPost2010PropOp48
 70
     1
102
RTVSPost2010Prop49
280
     0
102
RTVSPost2010PropOp49
 70
     1
102
RTVSPost2010Prop50
 90
       50
102
RTVSPost2010PropOp50
 70
     1
102
RTVSPost2010Prop51ColorIndex
 90
      256
102
RTVSPost2010Prop51ColorRGB
 90
-16777216
102
RTVSPost2010PropOp51
 70
     0
102
RTVSPost2010Prop52
140
1.0
102
RTVSPost2010PropOp52
 70
     0
102
RTVSPost2010Prop53
 90
        2
102
RTVSPost2010PropOp53
 70
     1
102
RTVSPost2010Prop54
  1
strokes_ogs.tif
102
RTVSPost2010PropOp54
 70
     1
102
RTVSPost2010Prop55
280
     0
102
RTVSPost2010PropOp55
 70
     1
102
RTVSPost2010Prop56
140
1.0
102
RTVSPost2010PropOp56
 70
     1
102
RTVSPost2010Prop57
140
1.0
102
RTVSPost2010PropOp57
 70
     1
102
RTVSPropertyOp0
 70
     1
102
RTVSPropertyOp1
 70
     1
102
RTVSPropertyOp2
 70
     1
102
RTVSPropertyOp3
 70
     1
102
RTVSPropertyOp4
 70
     1
102
RTVSPropertyOp5
 70
     1
102
RTVSPropertyOp6
 70
     1
102
RTVSPropertyOp7
 70
     1
102
RTVSPropertyOp8
 70
     1
102
RTVSPropertyOp9
 70
     1
102
RTVSPropertyOp10
 70
     1
102
RTVSPropertyOp11
 70
     1
102
RTVSPropertyOp12
 70
     1
102
RTVSPropertyOp13
 70
     1
102
RTVSPropertyOp14
 70
     1
102
RTVSPropertyOp15
 70
     1
102
RTVSPropertyOp16
 70
     1
102
RTVSPropertyOp17
 70
     1
102
RTVSPropertyOp18
 70
     1
102
RTVSPropertyOp19
 70
     1
102
RTVSPropertyOp20
 70
     1
102
RTVSPropertyOp21
 70
     1
102
RTVSPropertyOp22
 70
     1
102
RTVSPropertyOp23
 70
     1
102
RTVSPropertyOp24
 70
     1
102
RTVSPropertyOp25
 70
     1
102
RTVSPropertyOp26
 70
     1
102
RTVSPropertyOp27
 70
     1
102
RTVSPropertyOp28
 70
     1
102
RTVSPropertyOp29
 70
     1
102
RTVSPropertyOp30
 70
     1
102
RTVSPropertyOp31
 70
     1
102
RTVSPropertyOp32
 70
     1
102
RTVSPropertyOp33
 70
     1
102
RTVSPropertyOp34
 70
     1
102
RTVSPropertyOp35
 70
     1
102
RTVSPropertyOp36
 70
     1
102
RTVSPropertyOp37
 70
     1
102
RTVSPropertyOp38
 70
     1
102
RTVSPropertyOp39
 70
     1
102
RTVSPropertyOp40
 70
     1
102
RTVSPropertyOp41
 70
     1
102
RTVSPropertyOp42
 70
     1
102
RTVSPropertyOp43
 70
     1
102
RTVSPropertyOp44
 70
     1
102
RTVSPropertyOp45
 70
     1
102
RTVSPropertyOp46
 70
     1
102
RTVSPropertyOp47
 70
     1
102
RTVSPropertyOp48
 70
     1
102
RTVSPropertyOp49
 70
     1
102
RTVSPropertyOp50
 70
     1
102
RTVSPropertyOp51
 70
     0
102
RTVSPropertyOp52
 70
     0
102
RTVSPropertyOp53
 70
     1
102
RTVSPropertyOp54
 70
     1
102
RTVSPropertyOp55
 70
     1
102
RTVSPropertyOp56
 70
     1
102
RTVSPropertyOp57
 70
     1
102
RTVSPropertyOp58
 70
     1
102
RTVSPropertyOp59
 70
     1
102
RTVSPropertyOp60
 70
     1
102
RTVSPropertyOp61
 70
     1
102
RTVSPropertyOp62
 70
     1
  0
XRECORD
  5
BFFF
102
{ACAD_REACTORS
330
BFFE
102
}
330
BFFE
100
AcDbXrecord
280
     1
102
RTVSPost2010Prop28
280
     0
102
RTVSPost2010PropOp28
 70
     1
102
RTVSPost2010Prop29
280
     1
102
RTVSPost2010PropOp29
 70
     1
102
RTVSPost2010Prop30
280
     1
102
RTVSPost2010PropOp30
 70
     1
102
RTVSPost2010Prop31
280
     0
102
RTVSPost2010PropOp31
 70
     1
102
RTVSPost2010Prop32
280
     0
102
RTVSPost2010PropOp32
 70
     1
102
RTVSPost2010Prop33
280
     0
102
RTVSPost2010PropOp33
 70
     1
102
RTVSPost2010Prop34
280
     0
102
RTVSPost2010PropOp34
 70
     1
102
RTVSPost2010Prop35
280
     0
102
RTVSPost2010PropOp35
 70
     1
102
RTVSPost2010Prop36
280
     0
102
RTVSPost2010PropOp36
 70
     1
102
RTVSPost2010Prop37
 90
       50
102
RTVSPost2010PropOp37
 70
     1
102
RTVSPost2010Prop38
140
0.0
102
RTVSPost2010PropOp38
 70
     1
102
RTVSPost2010Prop39
140
1.0
102
RTVSPost2010PropOp39
 70
     1
102
RTVSPost2010Prop40
 90
        0
102
RTVSPost2010PropOp40
 70
     1
102
RTVSPost2010Prop41ColorIndex
 90
       18
102
RTVSPost2010Prop41ColorRGB
 90
        0
102
RTVSPost2010PropOp41
 70
     1
102
RTVSPost2010Prop42
 90
       50
102
RTVSPost2010PropOp42
 70
     1
102
RTVSPost2010Prop43
 90
        3
102
RTVSPost2010PropOp43
 70
     1
102
RTVSPost2010Prop44ColorIndex
 90
        5
102
RTVSPost2010Prop44ColorRGB
 90
      255
102
RTVSPost2010PropOp44
 70
     1
102
RTVSPost2010Prop45
280
     0
102
RTVSPost2010PropOp45
 70
     1
102
RTVSPost2010Prop46
 90
       50
102
RTVSPost2010PropOp46
 70
     1
102
RTVSPost2010Prop47
 90
       50
102
RTVSPost2010PropOp47
 70
     1
102
RTVSPost2010Prop48
 90
       50
102
RTVSPost2010PropOp48
 70
     1
102
RTVSPost2010Prop49
280
     0
102
RTVSPost2010PropOp49
 70
     1
102
RTVSPost2010Prop50
 90
       50
102
RTVSPost2010PropOp50
 70
     1
102
RTVSPost2010Prop51ColorIndex
 90
      256
102
RTVSPost2010Prop51ColorRGB
 90
-16777216
102
RTVSPost2010PropOp51
 70
     0
102
RTVSPost2010Prop52
140
1.0
102
RTVSPost2010PropOp52
 70
     0
102
RTVSPost2010Prop53
 90
        2
102
RTVSPost2010PropOp53
 70
     1
102
RTVSPost2010Prop54
  1
strokes_ogs.tif
102
RTVSPost2010PropOp54
 70
     1
102
RTVSPost2010Prop55
280
     0
102
RTVSPost2010PropOp55
 70
     1
102
RTVSPost2010Prop56
140
1.0
102
RTVSPost2010PropOp56
 70
     1
102
RTVSPost2010Prop57
140
1.0
102
RTVSPost2010PropOp57
 70
     1
102
RTVSPropertyOp0
 70
     1
102
RTVSPropertyOp1
 70
     1
102
RTVSPropertyOp2
 70
     1
102
RTVSPropertyOp3
 70
     1
102
RTVSPropertyOp4
 70
     1
102
RTVSPropertyOp5
 70
     1
102
RTVSPropertyOp6
 70
     1
102
RTVSPropertyOp7
 70
     1
102
RTVSPropertyOp8
 70
     1
102
RTVSPropertyOp9
 70
     1
102
RTVSPropertyOp10
 70
     1
102
RTVSPropertyOp11
 70
     1
102
RTVSPropertyOp12
 70
     1
102
RTVSPropertyOp13
 70
     1
102
RTVSPropertyOp14
 70
     1
102
RTVSPropertyOp15
 70
     1
102
RTVSPropertyOp16
 70
     1
102
RTVSPropertyOp17
 70
     1
102
RTVSPropertyOp18
 70
     1
102
RTVSPropertyOp19
 70
     1
102
RTVSPropertyOp20
 70
     1
102
RTVSPropertyOp21
 70
     1
102
RTVSPropertyOp22
 70
     1
102
RTVSPropertyOp23
 70
     1
102
RTVSPropertyOp24
 70
     1
102
RTVSPropertyOp25
 70
     1
102
RTVSPropertyOp26
 70
     1
102
RTVSPropertyOp27
 70
     1
102
RTVSPropertyOp28
 70
     1
102
RTVSPropertyOp29
 70
     1
102
RTVSPropertyOp30
 70
     1
102
RTVSPropertyOp31
 70
     1
102
RTVSPropertyOp32
 70
     1
102
RTVSPropertyOp33
 70
     1
102
RTVSPropertyOp34
 70
     1
102
RTVSPropertyOp35
 70
     1
102
RTVSPropertyOp36
 70
     1
102
RTVSPropertyOp37
 70
     1
102
RTVSPropertyOp38
 70
     1
102
RTVSPropertyOp39
 70
     1
102
RTVSPropertyOp40
 70
     1
102
RTVSPropertyOp41
 70
     1
102
RTVSPropertyOp42
 70
     1
102
RTVSPropertyOp43
 70
     1
102
RTVSPropertyOp44
 70
     1
102
RTVSPropertyOp45
 70
     1
102
RTVSPropertyOp46
 70
     1
102
RTVSPropertyOp47
 70
     1
102
RTVSPropertyOp48
 70
     1
102
RTVSPropertyOp49
 70
     1
102
RTVSPropertyOp50
 70
     1
102
RTVSPropertyOp51
 70
     0
102
RTVSPropertyOp52
 70
     0
102
RTVSPropertyOp53
 70
     1
102
RTVSPropertyOp54
 70
     1
102
RTVSPropertyOp55
 70
     1
102
RTVSPropertyOp56
 70
     1
102
RTVSPropertyOp57
 70
     1
102
RTVSPropertyOp58
 70
     1
102
RTVSPropertyOp59
 70
     1
102
RTVSPropertyOp60
 70
     1
102
RTVSPropertyOp61
 70
     1
102
RTVSPropertyOp62
 70
     1
  0
XRECORD
  5
C001
102
{ACAD_REACTORS
330
C000
102
}
330
C000
100
AcDbXrecord
280
     1
102
RTVSPost2010Prop28
280
     0
102
RTVSPost2010PropOp28
 70
     1
102
RTVSPost2010Prop29
280
     1
102
RTVSPost2010PropOp29
 70
     1
102
RTVSPost2010Prop30
280
     1
102
RTVSPost2010PropOp30
 70
     1
102
RTVSPost2010Prop31
280
     0
102
RTVSPost2010PropOp31
 70
     1
102
RTVSPost2010Prop32
280
     0
102
RTVSPost2010PropOp32
 70
     1
102
RTVSPost2010Prop33
280
     0
102
RTVSPost2010PropOp33
 70
     1
102
RTVSPost2010Prop34
280
     0
102
RTVSPost2010PropOp34
 70
     1
102
RTVSPost2010Prop35
280
     0
102
RTVSPost2010PropOp35
 70
     1
102
RTVSPost2010Prop36
280
     0
102
RTVSPost2010PropOp36
 70
     1
102
RTVSPost2010Prop37
 90
       50
102
RTVSPost2010PropOp37
 70
     1
102
RTVSPost2010Prop38
140
0.0
102
RTVSPost2010PropOp38
 70
     1
102
RTVSPost2010Prop39
140
1.0
102
RTVSPost2010PropOp39
 70
     1
102
RTVSPost2010Prop40
 90
        0
102
RTVSPost2010PropOp40
 70
     1
102
RTVSPost2010Prop41ColorIndex
 90
       18
102
RTVSPost2010Prop41ColorRGB
 90
        0
102
RTVSPost2010PropOp41
 70
     1
102
RTVSPost2010Prop42
 90
       50
102
RTVSPost2010PropOp42
 70
     1
102
RTVSPost2010Prop43
 90
        3
102
RTVSPost2010PropOp43
 70
     1
102
RTVSPost2010Prop44ColorIndex
 90
        5
102
RTVSPost2010Prop44ColorRGB
 90
      255
102
RTVSPost2010PropOp44
 70
     1
102
RTVSPost2010Prop45
280
     0
102
RTVSPost2010PropOp45
 70
     1
102
RTVSPost2010Prop46
 90
       50
102
RTVSPost2010PropOp46
 70
     1
102
RTVSPost2010Prop47
 90
       50
102
RTVSPost2010PropOp47
 70
     1
102
RTVSPost2010Prop48
 90
       50
102
RTVSPost2010PropOp48
 70
     1
102
RTVSPost2010Prop49
280
     0
102
RTVSPost2010PropOp49
 70
     1
102
RTVSPost2010Prop50
 90
       50
102
RTVSPost2010PropOp50
 70
     1
102
RTVSPost2010Prop51ColorIndex
 90
      256
102
RTVSPost2010Prop51ColorRGB
 90
-16777216
102
RTVSPost2010PropOp51
 70
     0
102
RTVSPost2010Prop52
140
1.0
102
RTVSPost2010PropOp52
 70
     0
102
RTVSPost2010Prop53
 90
        2
102
RTVSPost2010PropOp53
 70
     1
102
RTVSPost2010Prop54
  1
strokes_ogs.tif
102
RTVSPost2010PropOp54
 70
     1
102
RTVSPost2010Prop55
280
     0
102
RTVSPost2010PropOp55
 70
     1
102
RTVSPost2010Prop56
140
1.0
102
RTVSPost2010PropOp56
 70
     1
102
RTVSPost2010Prop57
140
1.0
102
RTVSPost2010PropOp57
 70
     1
102
RTVSPropertyOp0
 70
     1
102
RTVSPropertyOp1
 70
     1
102
RTVSPropertyOp2
 70
     1
102
RTVSPropertyOp3
 70
     1
102
RTVSPropertyOp4
 70
     1
102
RTVSPropertyOp5
 70
     1
102
RTVSPropertyOp6
 70
     1
102
RTVSPropertyOp7
 70
     1
102
RTVSPropertyOp8
 70
     1
102
RTVSPropertyOp9
 70
     1
102
RTVSPropertyOp10
 70
     1
102
RTVSPropertyOp11
 70
     1
102
RTVSPropertyOp12
 70
     1
102
RTVSPropertyOp13
 70
     1
102
RTVSPropertyOp14
 70
     1
102
RTVSPropertyOp15
 70
     1
102
RTVSPropertyOp16
 70
     1
102
RTVSPropertyOp17
 70
     1
102
RTVSPropertyOp18
 70
     1
102
RTVSPropertyOp19
 70
     1
102
RTVSPropertyOp20
 70
     1
102
RTVSPropertyOp21
 70
     1
102
RTVSPropertyOp22
 70
     1
102
RTVSPropertyOp23
 70
     1
102
RTVSPropertyOp24
 70
     1
102
RTVSPropertyOp25
 70
     1
102
RTVSPropertyOp26
 70
     1
102
RTVSPropertyOp27
 70
     1
102
RTVSPropertyOp28
 70
     1
102
RTVSPropertyOp29
 70
     1
102
RTVSPropertyOp30
 70
     1
102
RTVSPropertyOp31
 70
     1
102
RTVSPropertyOp32
 70
     1
102
RTVSPropertyOp33
 70
     1
102
RTVSPropertyOp34
 70
     1
102
RTVSPropertyOp35
 70
     1
102
RTVSPropertyOp36
 70
     1
102
RTVSPropertyOp37
 70
     1
102
RTVSPropertyOp38
 70
     1
102
RTVSPropertyOp39
 70
     1
102
RTVSPropertyOp40
 70
     1
102
RTVSPropertyOp41
 70
     1
102
RTVSPropertyOp42
 70
     1
102
RTVSPropertyOp43
 70
     1
102
RTVSPropertyOp44
 70
     1
102
RTVSPropertyOp45
 70
     1
102
RTVSPropertyOp46
 70
     1
102
RTVSPropertyOp47
 70
     1
102
RTVSPropertyOp48
 70
     1
102
RTVSPropertyOp49
 70
     1
102
RTVSPropertyOp50
 70
     1
102
RTVSPropertyOp51
 70
     0
102
RTVSPropertyOp52
 70
     0
102
RTVSPropertyOp53
 70
     1
102
RTVSPropertyOp54
 70
     1
102
RTVSPropertyOp55
 70
     1
102
RTVSPropertyOp56
 70
     1
102
RTVSPropertyOp57
 70
     1
102
RTVSPropertyOp58
 70
     1
102
RTVSPropertyOp59
 70
     1
102
RTVSPropertyOp60
 70
     1
102
RTVSPropertyOp61
 70
     1
102
RTVSPropertyOp62
 70
     1
  0
XRECORD
  5
C009
102
{ACAD_REACTORS
330
C008
102
}
330
C008
100
AcDbXrecord
280
     1
102
RTVSPost2010Prop28
280
     0
102
RTVSPost2010PropOp28
 70
     1
102
RTVSPost2010Prop29
280
     1
102
RTVSPost2010PropOp29
 70
     1
102
RTVSPost2010Prop30
280
     1
102
RTVSPost2010PropOp30
 70
     1
102
RTVSPost2010Prop31
280
     0
102
RTVSPost2010PropOp31
 70
     1
102
RTVSPost2010Prop32
280
     0
102
RTVSPost2010PropOp32
 70
     1
102
RTVSPost2010Prop33
280
     0
102
RTVSPost2010PropOp33
 70
     1
102
RTVSPost2010Prop34
280
     0
102
RTVSPost2010PropOp34
 70
     1
102
RTVSPost2010Prop35
280
     0
102
RTVSPost2010PropOp35
 70
     1
102
RTVSPost2010Prop36
280
     0
102
RTVSPost2010PropOp36
 70
     1
102
RTVSPost2010Prop37
 90
       50
102
RTVSPost2010PropOp37
 70
     1
102
RTVSPost2010Prop38
140
0.0
102
RTVSPost2010PropOp38
 70
     1
102
RTVSPost2010Prop39
140
1.0
102
RTVSPost2010PropOp39
 70
     1
102
RTVSPost2010Prop40
 90
        0
102
RTVSPost2010PropOp40
 70
     1
102
RTVSPost2010Prop41ColorIndex
 90
       18
102
RTVSPost2010Prop41ColorRGB
 90
        0
102
RTVSPost2010PropOp41
 70
     1
102
RTVSPost2010Prop42
 90
       50
102
RTVSPost2010PropOp42
 70
     1
102
RTVSPost2010Prop43
 90
        3
102
RTVSPost2010PropOp43
 70
     1
102
RTVSPost2010Prop44ColorIndex
 90
        5
102
RTVSPost2010Prop44ColorRGB
 90
      255
102
RTVSPost2010PropOp44
 70
     1
102
RTVSPost2010Prop45
280
     0
102
RTVSPost2010PropOp45
 70
     1
102
RTVSPost2010Prop46
 90
       50
102
RTVSPost2010PropOp46
 70
     1
102
RTVSPost2010Prop47
 90
       50
102
RTVSPost2010PropOp47
 70
     1
102
RTVSPost2010Prop48
 90
       50
102
RTVSPost2010PropOp48
 70
     1
102
RTVSPost2010Prop49
280
     0
102
RTVSPost2010PropOp49
 70
     1
102
RTVSPost2010Prop50
 90
       50
102
RTVSPost2010PropOp50
 70
     1
102
RTVSPost2010Prop51ColorIndex
 90
      256
102
RTVSPost2010Prop51ColorRGB
 90
-16777216
102
RTVSPost2010PropOp51
 70
     0
102
RTVSPost2010Prop52
140
1.0
102
RTVSPost2010PropOp52
 70
     0
102
RTVSPost2010Prop53
 90
        2
102
RTVSPost2010PropOp53
 70
     1
102
RTVSPost2010Prop54
  1
strokes_ogs.tif
102
RTVSPost2010PropOp54
 70
     1
102
RTVSPost2010Prop55
280
     0
102
RTVSPost2010PropOp55
 70
     1
102
RTVSPost2010Prop56
140
1.0
102
RTVSPost2010PropOp56
 70
     1
102
RTVSPost2010Prop57
140
1.0
102
RTVSPost2010PropOp57
 70
     1
102
RTVSPropertyOp0
 70
     1
102
RTVSPropertyOp1
 70
     1
102
RTVSPropertyOp2
 70
     1
102
RTVSPropertyOp3
 70
     1
102
RTVSPropertyOp4
 70
     1
102
RTVSPropertyOp5
 70
     1
102
RTVSPropertyOp6
 70
     1
102
RTVSPropertyOp7
 70
     1
102
RTVSPropertyOp8
 70
     1
102
RTVSPropertyOp9
 70
     1
102
RTVSPropertyOp10
 70
     1
102
RTVSPropertyOp11
 70
     1
102
RTVSPropertyOp12
 70
     1
102
RTVSPropertyOp13
 70
     1
102
RTVSPropertyOp14
 70
     1
102
RTVSPropertyOp15
 70
     1
102
RTVSPropertyOp16
 70
     1
102
RTVSPropertyOp17
 70
     1
102
RTVSPropertyOp18
 70
     1
102
RTVSPropertyOp19
 70
     1
102
RTVSPropertyOp20
 70
     1
102
RTVSPropertyOp21
 70
     1
102
RTVSPropertyOp22
 70
     1
102
RTVSPropertyOp23
 70
     1
102
RTVSPropertyOp24
 70
     1
102
RTVSPropertyOp25
 70
     1
102
RTVSPropertyOp26
 70
     1
102
RTVSPropertyOp27
 70
     1
102
RTVSPropertyOp28
 70
     1
102
RTVSPropertyOp29
 70
     1
102
RTVSPropertyOp30
 70
     1
102
RTVSPropertyOp31
 70
     1
102
RTVSPropertyOp32
 70
     1
102
RTVSPropertyOp33
 70
     1
102
RTVSPropertyOp34
 70
     1
102
RTVSPropertyOp35
 70
     1
102
RTVSPropertyOp36
 70
     1
102
RTVSPropertyOp37
 70
     1
102
RTVSPropertyOp38
 70
     1
102
RTVSPropertyOp39
 70
     1
102
RTVSPropertyOp40
 70
     1
102
RTVSPropertyOp41
 70
     1
102
RTVSPropertyOp42
 70
     1
102
RTVSPropertyOp43
 70
     1
102
RTVSPropertyOp44
 70
     1
102
RTVSPropertyOp45
 70
     1
102
RTVSPropertyOp46
 70
     1
102
RTVSPropertyOp47
 70
     1
102
RTVSPropertyOp48
 70
     1
102
RTVSPropertyOp49
 70
     1
102
RTVSPropertyOp50
 70
     1
102
RTVSPropertyOp51
 70
     0
102
RTVSPropertyOp52
 70
     0
102
RTVSPropertyOp53
 70
     1
102
RTVSPropertyOp54
 70
     1
102
RTVSPropertyOp55
 70
     1
102
RTVSPropertyOp56
 70
     1
102
RTVSPropertyOp57
 70
     1
102
RTVSPropertyOp58
 70
     1
102
RTVSPropertyOp59
 70
     1
102
RTVSPropertyOp60
 70
     1
102
RTVSPropertyOp61
 70
     1
102
RTVSPropertyOp62
 70
     1
  0
XRECORD
  5
C025
102
{ACAD_REACTORS
330
C024
102
}
330
C024
100
AcDbXrecord
280
     1
102
RTVSPost2010Prop28
280
     0
102
RTVSPost2010PropOp28
 70
     1
102
RTVSPost2010Prop29
280
     1
102
RTVSPost2010PropOp29
 70
     1
102
RTVSPost2010Prop30
280
     1
102
RTVSPost2010PropOp30
 70
     1
102
RTVSPost2010Prop31
280
     0
102
RTVSPost2010PropOp31
 70
     1
102
RTVSPost2010Prop32
280
     0
102
RTVSPost2010PropOp32
 70
     1
102
RTVSPost2010Prop33
280
     0
102
RTVSPost2010PropOp33
 70
     1
102
RTVSPost2010Prop34
280
     0
102
RTVSPost2010PropOp34
 70
     1
102
RTVSPost2010Prop35
280
     0
102
RTVSPost2010PropOp35
 70
     1
102
RTVSPost2010Prop36
280
     0
102
RTVSPost2010PropOp36
 70
     1
102
RTVSPost2010Prop37
 90
       50
102
RTVSPost2010PropOp37
 70
     0
102
RTVSPost2010Prop38
140
0.0
102
RTVSPost2010PropOp38
 70
     0
102
RTVSPost2010Prop39
140
1.0
102
RTVSPost2010PropOp39
 70
     0
102
RTVSPost2010Prop40
 90
        0
102
RTVSPost2010PropOp40
 70
     0
102
RTVSPost2010Prop41ColorIndex
 90
       18
102
RTVSPost2010Prop41ColorRGB
 90
        0
102
RTVSPost2010PropOp41
 70
     0
102
RTVSPost2010Prop42
 90
       50
102
RTVSPost2010PropOp42
 70
     0
102
RTVSPost2010Prop43
 90
        3
102
RTVSPost2010PropOp43
 70
     0
102
RTVSPost2010Prop44ColorIndex
 90
        5
102
RTVSPost2010Prop44ColorRGB
 90
      255
102
RTVSPost2010PropOp44
 70
     0
102
RTVSPost2010Prop45
280
     0
102
RTVSPost2010PropOp45
 70
     1
102
RTVSPost2010Prop46
 90
       50
102
RTVSPost2010PropOp46
 70
     0
102
RTVSPost2010Prop47
 90
       50
102
RTVSPost2010PropOp47
 70
     0
102
RTVSPost2010Prop48
 90
       50
102
RTVSPost2010PropOp48
 70
     0
102
RTVSPost2010Prop49
280
     0
102
RTVSPost2010PropOp49
 70
     1
102
RTVSPost2010Prop50
 90
       50
102
RTVSPost2010PropOp50
 70
     0
102
RTVSPost2010Prop51ColorIndex
 90
      256
102
RTVSPost2010Prop51ColorRGB
 90
-16777216
102
RTVSPost2010PropOp51
 70
     0
102
RTVSPost2010Prop52
140
1.0
102
RTVSPost2010PropOp52
 70
     0
102
RTVSPost2010Prop53
 90
        2
102
RTVSPost2010PropOp53
 70
     0
102
RTVSPost2010Prop54
  1
strokes_ogs.tif
102
RTVSPost2010PropOp54
 70
     0
102
RTVSPost2010Prop55
280
     0
102
RTVSPost2010PropOp55
 70
     1
102
RTVSPost2010Prop56
140
1.0
102
RTVSPost2010PropOp56
 70
     0
102
RTVSPost2010Prop57
140
1.0
102
RTVSPost2010PropOp57
 70
     0
102
RTVSPropertyOp0
 70
     0
102
RTVSPropertyOp1
 70
     0
102
RTVSPropertyOp2
 70
     0
102
RTVSPropertyOp3
 70
     0
102
RTVSPropertyOp4
 70
     0
102
RTVSPropertyOp5
 70
     0
102
RTVSPropertyOp6
 70
     0
102
RTVSPropertyOp7
 70
     0
102
RTVSPropertyOp8
 70
     0
102
RTVSPropertyOp9
 70
     0
102
RTVSPropertyOp10
 70
     0
102
RTVSPropertyOp11
 70
     0
102
RTVSPropertyOp12
 70
     0
102
RTVSPropertyOp13
 70
     0
102
RTVSPropertyOp14
 70
     2
102
RTVSPropertyOp15
 70
     0
102
RTVSPropertyOp16
 70
     0
102
RTVSPropertyOp17
 70
     0
102
RTVSPropertyOp18
 70
     0
102
RTVSPropertyOp19
 70
     0
102
RTVSPropertyOp20
 70
     0
102
RTVSPropertyOp21
 70
     0
102
RTVSPropertyOp22
 70
     0
102
RTVSPropertyOp23
 70
     0
102
RTVSPropertyOp24
 70
     0
102
RTVSPropertyOp25
 70
     0
102
RTVSPropertyOp26
 70
     0
102
RTVSPropertyOp27
 70
     0
102
RTVSPropertyOp28
 70
     1
102
RTVSPropertyOp29
 70
     1
102
RTVSPropertyOp30
 70
     1
102
RTVSPropertyOp31
 70
     1
102
RTVSPropertyOp32
 70
     1
102
RTVSPropertyOp33
 70
     1
102
RTVSPropertyOp34
 70
     1
102
RTVSPropertyOp35
 70
     1
102
RTVSPropertyOp36
 70
     1
102
RTVSPropertyOp37
 70
     0
102
RTVSPropertyOp38
 70
     0
102
RTVSPropertyOp39
 70
     0
102
RTVSPropertyOp40
 70
     0
102
RTVSPropertyOp41
 70
     0
102
RTVSPropertyOp42
 70
     0
102
RTVSPropertyOp43
 70
     0
102
RTVSPropertyOp44
 70
     0
102
RTVSPropertyOp45
 70
     1
102
RTVSPropertyOp46
 70
     0
102
RTVSPropertyOp47
 70
     0
102
RTVSPropertyOp48
 70
     0
102
RTVSPropertyOp49
 70
     1
102
RTVSPropertyOp50
 70
     0
102
RTVSPropertyOp51
 70
     0
102
RTVSPropertyOp52
 70
     0
102
RTVSPropertyOp53
 70
     0
102
RTVSPropertyOp54
 70
     0
102
RTVSPropertyOp55
 70
     1
102
RTVSPropertyOp56
 70
     0
102
RTVSPropertyOp57
 70
     0
102
RTVSPropertyOp58
 70
     0
102
RTVSPropertyOp59
 70
     0
102
RTVSPropertyOp60
 70
     0
102
RTVSPropertyOp61
 70
     0
102
RTVSPropertyOp62
 70
     0
  0
XRECORD
  5
C015
102
{ACAD_REACTORS
330
C014
102
}
330
C014
100
AcDbXrecord
280
     1
102
RTVSPost2010Prop28
280
     0
102
RTVSPost2010PropOp28
 70
     1
102
RTVSPost2010Prop29
280
     1
102
RTVSPost2010PropOp29
 70
     1
102
RTVSPost2010Prop30
280
     1
102
RTVSPost2010PropOp30
 70
     1
102
RTVSPost2010Prop31
280
     0
102
RTVSPost2010PropOp31
 70
     1
102
RTVSPost2010Prop32
280
     0
102
RTVSPost2010PropOp32
 70
     1
102
RTVSPost2010Prop33
280
     0
102
RTVSPost2010PropOp33
 70
     1
102
RTVSPost2010Prop34
280
     0
102
RTVSPost2010PropOp34
 70
     1
102
RTVSPost2010Prop35
280
     0
102
RTVSPost2010PropOp35
 70
     1
102
RTVSPost2010Prop36
280
     0
102
RTVSPost2010PropOp36
 70
     1
102
RTVSPost2010Prop37
 90
       50
102
RTVSPost2010PropOp37
 70
     1
102
RTVSPost2010Prop38
140
0.0
102
RTVSPost2010PropOp38
 70
     1
102
RTVSPost2010Prop39
140
1.0
102
RTVSPost2010PropOp39
 70
     1
102
RTVSPost2010Prop40
 90
        0
102
RTVSPost2010PropOp40
 70
     1
102
RTVSPost2010Prop41ColorIndex
 90
       18
102
RTVSPost2010Prop41ColorRGB
 90
        0
102
RTVSPost2010PropOp41
 70
     1
102
RTVSPost2010Prop42
 90
       50
102
RTVSPost2010PropOp42
 70
     1
102
RTVSPost2010Prop43
 90
        3
102
RTVSPost2010PropOp43
 70
     1
102
RTVSPost2010Prop44ColorIndex
 90
        5
102
RTVSPost2010Prop44ColorRGB
 90
      255
102
RTVSPost2010PropOp44
 70
     1
102
RTVSPost2010Prop45
280
     0
102
RTVSPost2010PropOp45
 70
     1
102
RTVSPost2010Prop46
 90
       50
102
RTVSPost2010PropOp46
 70
     1
102
RTVSPost2010Prop47
 90
       50
102
RTVSPost2010PropOp47
 70
     1
102
RTVSPost2010Prop48
 90
       50
102
RTVSPost2010PropOp48
 70
     1
102
RTVSPost2010Prop49
280
     0
102
RTVSPost2010PropOp49
 70
     1
102
RTVSPost2010Prop50
 90
       50
102
RTVSPost2010PropOp50
 70
     1
102
RTVSPost2010Prop51ColorIndex
 90
      256
102
RTVSPost2010Prop51ColorRGB
 90
-16777216
102
RTVSPost2010PropOp51
 70
     0
102
RTVSPost2010Prop52
140
1.0
102
RTVSPost2010PropOp52
 70
     0
102
RTVSPost2010Prop53
 90
        2
102
RTVSPost2010PropOp53
 70
     1
102
RTVSPost2010Prop54
  1
strokes_ogs.tif
102
RTVSPost2010PropOp54
 70
     1
102
RTVSPost2010Prop55
280
     0
102
RTVSPost2010PropOp55
 70
     1
102
RTVSPost2010Prop56
140
1.0
102
RTVSPost2010PropOp56
 70
     1
102
RTVSPost2010Prop57
140
1.0
102
RTVSPost2010PropOp57
 70
     1
102
RTVSPropertyOp0
 70
     1
102
RTVSPropertyOp1
 70
     1
102
RTVSPropertyOp2
 70
     1
102
RTVSPropertyOp3
 70
     1
102
RTVSPropertyOp4
 70
     1
102
RTVSPropertyOp5
 70
     1
102
RTVSPropertyOp6
 70
     1
102
RTVSPropertyOp7
 70
     1
102
RTVSPropertyOp8
 70
     1
102
RTVSPropertyOp9
 70
     1
102
RTVSPropertyOp10
 70
     1
102
RTVSPropertyOp11
 70
     1
102
RTVSPropertyOp12
 70
     1
102
RTVSPropertyOp13
 70
     1
102
RTVSPropertyOp14
 70
     1
102
RTVSPropertyOp15
 70
     1
102
RTVSPropertyOp16
 70
     1
102
RTVSPropertyOp17
 70
     1
102
RTVSPropertyOp18
 70
     1
102
RTVSPropertyOp19
 70
     1
102
RTVSPropertyOp20
 70
     1
102
RTVSPropertyOp21
 70
     1
102
RTVSPropertyOp22
 70
     1
102
RTVSPropertyOp23
 70
     1
102
RTVSPropertyOp24
 70
     1
102
RTVSPropertyOp25
 70
     1
102
RTVSPropertyOp26
 70
     1
102
RTVSPropertyOp27
 70
     1
102
RTVSPropertyOp28
 70
     1
102
RTVSPropertyOp29
 70
     1
102
RTVSPropertyOp30
 70
     1
102
RTVSPropertyOp31
 70
     1
102
RTVSPropertyOp32
 70
     1
102
RTVSPropertyOp33
 70
     1
102
RTVSPropertyOp34
 70
     1
102
RTVSPropertyOp35
 70
     1
102
RTVSPropertyOp36
 70
     1
102
RTVSPropertyOp37
 70
     1
102
RTVSPropertyOp38
 70
     1
102
RTVSPropertyOp39
 70
     1
102
RTVSPropertyOp40
 70
     1
102
RTVSPropertyOp41
 70
     1
102
RTVSPropertyOp42
 70
     1
102
RTVSPropertyOp43
 70
     1
102
RTVSPropertyOp44
 70
     1
102
RTVSPropertyOp45
 70
     1
102
RTVSPropertyOp46
 70
     1
102
RTVSPropertyOp47
 70
     1
102
RTVSPropertyOp48
 70
     1
102
RTVSPropertyOp49
 70
     1
102
RTVSPropertyOp50
 70
     1
102
RTVSPropertyOp51
 70
     0
102
RTVSPropertyOp52
 70
     0
102
RTVSPropertyOp53
 70
     1
102
RTVSPropertyOp54
 70
     1
102
RTVSPropertyOp55
 70
     1
102
RTVSPropertyOp56
 70
     1
102
RTVSPropertyOp57
 70
     1
102
RTVSPropertyOp58
 70
     1
102
RTVSPropertyOp59
 70
     1
102
RTVSPropertyOp60
 70
     1
102
RTVSPropertyOp61
 70
     1
102
RTVSPropertyOp62
 70
     1
  0
XRECORD
  5
C027
102
{ACAD_REACTORS
330
C026
102
}
330
C026
100
AcDbXrecord
280
     1
102
RTVSPost2010Prop28
280
     0
102
RTVSPost2010PropOp28
 70
     1
102
RTVSPost2010Prop29
280
     1
102
RTVSPost2010PropOp29
 70
     1
102
RTVSPost2010Prop30
280
     1
102
RTVSPost2010PropOp30
 70
     1
102
RTVSPost2010Prop31
280
     0
102
RTVSPost2010PropOp31
 70
     1
102
RTVSPost2010Prop32
280
     0
102
RTVSPost2010PropOp32
 70
     1
102
RTVSPost2010Prop33
280
     0
102
RTVSPost2010PropOp33
 70
     1
102
RTVSPost2010Prop34
280
     0
102
RTVSPost2010PropOp34
 70
     1
102
RTVSPost2010Prop35
280
     0
102
RTVSPost2010PropOp35
 70
     1
102
RTVSPost2010Prop36
280
     0
102
RTVSPost2010PropOp36
 70
     1
102
RTVSPost2010Prop37
 90
       50
102
RTVSPost2010PropOp37
 70
     0
102
RTVSPost2010Prop38
140
0.0
102
RTVSPost2010PropOp38
 70
     0
102
RTVSPost2010Prop39
140
1.0
102
RTVSPost2010PropOp39
 70
     0
102
RTVSPost2010Prop40
 90
        0
102
RTVSPost2010PropOp40
 70
     0
102
RTVSPost2010Prop41ColorIndex
 90
       18
102
RTVSPost2010Prop41ColorRGB
 90
        0
102
RTVSPost2010PropOp41
 70
     0
102
RTVSPost2010Prop42
 90
       50
102
RTVSPost2010PropOp42
 70
     0
102
RTVSPost2010Prop43
 90
        3
102
RTVSPost2010PropOp43
 70
     0
102
RTVSPost2010Prop44ColorIndex
 90
        5
102
RTVSPost2010Prop44ColorRGB
 90
      255
102
RTVSPost2010PropOp44
 70
     0
102
RTVSPost2010Prop45
280
     0
102
RTVSPost2010PropOp45
 70
     1
102
RTVSPost2010Prop46
 90
       50
102
RTVSPost2010PropOp46
 70
     0
102
RTVSPost2010Prop47
 90
       50
102
RTVSPost2010PropOp47
 70
     0
102
RTVSPost2010Prop48
 90
       50
102
RTVSPost2010PropOp48
 70
     0
102
RTVSPost2010Prop49
280
     0
102
RTVSPost2010PropOp49
 70
     1
102
RTVSPost2010Prop50
 90
       50
102
RTVSPost2010PropOp50
 70
     0
102
RTVSPost2010Prop51ColorIndex
 90
      256
102
RTVSPost2010Prop51ColorRGB
 90
-16777216
102
RTVSPost2010PropOp51
 70
     0
102
RTVSPost2010Prop52
140
1.0
102
RTVSPost2010PropOp52
 70
     0
102
RTVSPost2010Prop53
 90
        2
102
RTVSPost2010PropOp53
 70
     0
102
RTVSPost2010Prop54
  1
strokes_ogs.tif
102
RTVSPost2010PropOp54
 70
     0
102
RTVSPost2010Prop55
280
     0
102
RTVSPost2010PropOp55
 70
     1
102
RTVSPost2010Prop56
140
1.0
102
RTVSPost2010PropOp56
 70
     0
102
RTVSPost2010Prop57
140
1.0
102
RTVSPost2010PropOp57
 70
     0
102
RTVSPropertyOp0
 70
     0
102
RTVSPropertyOp1
 70
     0
102
RTVSPropertyOp2
 70
     0
102
RTVSPropertyOp3
 70
     0
102
RTVSPropertyOp4
 70
     0
102
RTVSPropertyOp5
 70
     0
102
RTVSPropertyOp6
 70
     0
102
RTVSPropertyOp7
 70
     0
102
RTVSPropertyOp8
 70
     0
102
RTVSPropertyOp9
 70
     0
102
RTVSPropertyOp10
 70
     0
102
RTVSPropertyOp11
 70
     0
102
RTVSPropertyOp12
 70
     0
102
RTVSPropertyOp13
 70
     0
102
RTVSPropertyOp14
 70
     2
102
RTVSPropertyOp15
 70
     0
102
RTVSPropertyOp16
 70
     0
102
RTVSPropertyOp17
 70
     0
102
RTVSPropertyOp18
 70
     0
102
RTVSPropertyOp19
 70
     0
102
RTVSPropertyOp20
 70
     0
102
RTVSPropertyOp21
 70
     0
102
RTVSPropertyOp22
 70
     0
102
RTVSPropertyOp23
 70
     0
102
RTVSPropertyOp24
 70
     0
102
RTVSPropertyOp25
 70
     0
102
RTVSPropertyOp26
 70
     0
102
RTVSPropertyOp27
 70
     0
102
RTVSPropertyOp28
 70
     1
102
RTVSPropertyOp29
 70
     1
102
RTVSPropertyOp30
 70
     1
102
RTVSPropertyOp31
 70
     1
102
RTVSPropertyOp32
 70
     1
102
RTVSPropertyOp33
 70
     1
102
RTVSPropertyOp34
 70
     1
102
RTVSPropertyOp35
 70
     1
102
RTVSPropertyOp36
 70
     1
102
RTVSPropertyOp37
 70
     0
102
RTVSPropertyOp38
 70
     0
102
RTVSPropertyOp39
 70
     0
102
RTVSPropertyOp40
 70
     0
102
RTVSPropertyOp41
 70
     0
102
RTVSPropertyOp42
 70
     0
102
RTVSPropertyOp43
 70
     0
102
RTVSPropertyOp44
 70
     0
102
RTVSPropertyOp45
 70
     1
102
RTVSPropertyOp46
 70
     0
102
RTVSPropertyOp47
 70
     0
102
RTVSPropertyOp48
 70
     0
102
RTVSPropertyOp49
 70
     1
102
RTVSPropertyOp50
 70
     0
102
RTVSPropertyOp51
 70
     0
102
RTVSPropertyOp52
 70
     0
102
RTVSPropertyOp53
 70
     0
102
RTVSPropertyOp54
 70
     0
102
RTVSPropertyOp55
 70
     1
102
RTVSPropertyOp56
 70
     0
102
RTVSPropertyOp57
 70
     0
102
RTVSPropertyOp58
 70
     0
102
RTVSPropertyOp59
 70
     0
102
RTVSPropertyOp60
 70
     0
102
RTVSPropertyOp61
 70
     0
102
RTVSPropertyOp62
 70
     0
  0
XRECORD
  5
C00D
102
{ACAD_REACTORS
330
C00C
102
}
330
C00C
100
AcDbXrecord
280
     1
102
RTVSPost2010Prop28
280
     0
102
RTVSPost2010PropOp28
 70
     1
102
RTVSPost2010Prop29
280
     1
102
RTVSPost2010PropOp29
 70
     1
102
RTVSPost2010Prop30
280
     1
102
RTVSPost2010PropOp30
 70
     1
102
RTVSPost2010Prop31
280
     0
102
RTVSPost2010PropOp31
 70
     1
102
RTVSPost2010Prop32
280
     0
102
RTVSPost2010PropOp32
 70
     1
102
RTVSPost2010Prop33
280
     0
102
RTVSPost2010PropOp33
 70
     1
102
RTVSPost2010Prop34
280
     0
102
RTVSPost2010PropOp34
 70
     1
102
RTVSPost2010Prop35
280
     0
102
RTVSPost2010PropOp35
 70
     1
102
RTVSPost2010Prop36
280
     0
102
RTVSPost2010PropOp36
 70
     1
102
RTVSPost2010Prop37
 90
       50
102
RTVSPost2010PropOp37
 70
     1
102
RTVSPost2010Prop38
140
0.0
102
RTVSPost2010PropOp38
 70
     1
102
RTVSPost2010Prop39
140
1.0
102
RTVSPost2010PropOp39
 70
     1
102
RTVSPost2010Prop40
 90
        0
102
RTVSPost2010PropOp40
 70
     1
102
RTVSPost2010Prop41ColorIndex
 90
       18
102
RTVSPost2010Prop41ColorRGB
 90
        0
102
RTVSPost2010PropOp41
 70
     1
102
RTVSPost2010Prop42
 90
       50
102
RTVSPost2010PropOp42
 70
     1
102
RTVSPost2010Prop43
 90
        3
102
RTVSPost2010PropOp43
 70
     1
102
RTVSPost2010Prop44ColorIndex
 90
        5
102
RTVSPost2010Prop44ColorRGB
 90
      255
102
RTVSPost2010PropOp44
 70
     1
102
RTVSPost2010Prop45
280
     0
102
RTVSPost2010PropOp45
 70
     1
102
RTVSPost2010Prop46
 90
       50
102
RTVSPost2010PropOp46
 70
     1
102
RTVSPost2010Prop47
 90
       50
102
RTVSPost2010PropOp47
 70
     1
102
RTVSPost2010Prop48
 90
       50
102
RTVSPost2010PropOp48
 70
     1
102
RTVSPost2010Prop49
280
     0
102
RTVSPost2010PropOp49
 70
     1
102
RTVSPost2010Prop50
 90
       50
102
RTVSPost2010PropOp50
 70
     1
102
RTVSPost2010Prop51ColorIndex
 90
      256
102
RTVSPost2010Prop51ColorRGB
 90
-16777216
102
RTVSPost2010PropOp51
 70
     0
102
RTVSPost2010Prop52
140
1.0
102
RTVSPost2010PropOp52
 70
     0
102
RTVSPost2010Prop53
 90
        2
102
RTVSPost2010PropOp53
 70
     1
102
RTVSPost2010Prop54
  1
strokes_ogs.tif
102
RTVSPost2010PropOp54
 70
     1
102
RTVSPost2010Prop55
280
     0
102
RTVSPost2010PropOp55
 70
     1
102
RTVSPost2010Prop56
140
1.0
102
RTVSPost2010PropOp56
 70
     1
102
RTVSPost2010Prop57
140
1.0
102
RTVSPost2010PropOp57
 70
     1
102
RTVSPropertyOp0
 70
     1
102
RTVSPropertyOp1
 70
     1
102
RTVSPropertyOp2
 70
     1
102
RTVSPropertyOp3
 70
     1
102
RTVSPropertyOp4
 70
     1
102
RTVSPropertyOp5
 70
     1
102
RTVSPropertyOp6
 70
     1
102
RTVSPropertyOp7
 70
     1
102
RTVSPropertyOp8
 70
     1
102
RTVSPropertyOp9
 70
     1
102
RTVSPropertyOp10
 70
     1
102
RTVSPropertyOp11
 70
     1
102
RTVSPropertyOp12
 70
     1
102
RTVSPropertyOp13
 70
     1
102
RTVSPropertyOp14
 70
     1
102
RTVSPropertyOp15
 70
     1
102
RTVSPropertyOp16
 70
     1
102
RTVSPropertyOp17
 70
     1
102
RTVSPropertyOp18
 70
     1
102
RTVSPropertyOp19
 70
     1
102
RTVSPropertyOp20
 70
     1
102
RTVSPropertyOp21
 70
     1
102
RTVSPropertyOp22
 70
     1
102
RTVSPropertyOp23
 70
     1
102
RTVSPropertyOp24
 70
     1
102
RTVSPropertyOp25
 70
     1
102
RTVSPropertyOp26
 70
     1
102
RTVSPropertyOp27
 70
     1
102
RTVSPropertyOp28
 70
     1
102
RTVSPropertyOp29
 70
     1
102
RTVSPropertyOp30
 70
     1
102
RTVSPropertyOp31
 70
     1
102
RTVSPropertyOp32
 70
     1
102
RTVSPropertyOp33
 70
     1
102
RTVSPropertyOp34
 70
     1
102
RTVSPropertyOp35
 70
     1
102
RTVSPropertyOp36
 70
     1
102
RTVSPropertyOp37
 70
     1
102
RTVSPropertyOp38
 70
     1
102
RTVSPropertyOp39
 70
     1
102
RTVSPropertyOp40
 70
     1
102
RTVSPropertyOp41
 70
     1
102
RTVSPropertyOp42
 70
     1
102
RTVSPropertyOp43
 70
     1
102
RTVSPropertyOp44
 70
     1
102
RTVSPropertyOp45
 70
     1
102
RTVSPropertyOp46
 70
     1
102
RTVSPropertyOp47
 70
     1
102
RTVSPropertyOp48
 70
     1
102
RTVSPropertyOp49
 70
     1
102
RTVSPropertyOp50
 70
     1
102
RTVSPropertyOp51
 70
     0
102
RTVSPropertyOp52
 70
     0
102
RTVSPropertyOp53
 70
     1
102
RTVSPropertyOp54
 70
     1
102
RTVSPropertyOp55
 70
     1
102
RTVSPropertyOp56
 70
     1
102
RTVSPropertyOp57
 70
     1
102
RTVSPropertyOp58
 70
     1
102
RTVSPropertyOp59
 70
     1
102
RTVSPropertyOp60
 70
     1
102
RTVSPropertyOp61
 70
     1
102
RTVSPropertyOp62
 70
     1
  0
XRECORD
  5
C023
102
{ACAD_REACTORS
330
C022
102
}
330
C022
100
AcDbXrecord
280
     1
102
RTVSPost2010Prop28
280
     0
102
RTVSPost2010PropOp28
 70
     1
102
RTVSPost2010Prop29
280
     1
102
RTVSPost2010PropOp29
 70
     1
102
RTVSPost2010Prop30
280
     1
102
RTVSPost2010PropOp30
 70
     1
102
RTVSPost2010Prop31
280
     0
102
RTVSPost2010PropOp31
 70
     1
102
RTVSPost2010Prop32
280
     0
102
RTVSPost2010PropOp32
 70
     1
102
RTVSPost2010Prop33
280
     0
102
RTVSPost2010PropOp33
 70
     1
102
RTVSPost2010Prop34
280
     0
102
RTVSPost2010PropOp34
 70
     1
102
RTVSPost2010Prop35
280
     0
102
RTVSPost2010PropOp35
 70
     1
102
RTVSPost2010Prop36
280
     0
102
RTVSPost2010PropOp36
 70
     1
102
RTVSPost2010Prop37
 90
       50
102
RTVSPost2010PropOp37
 70
     1
102
RTVSPost2010Prop38
140
0.0
102
RTVSPost2010PropOp38
 70
     1
102
RTVSPost2010Prop39
140
1.0
102
RTVSPost2010PropOp39
 70
     1
102
RTVSPost2010Prop40
 90
        0
102
RTVSPost2010PropOp40
 70
     1
102
RTVSPost2010Prop41ColorIndex
 90
       18
102
RTVSPost2010Prop41ColorRGB
 90
        0
102
RTVSPost2010PropOp41
 70
     1
102
RTVSPost2010Prop42
 90
       50
102
RTVSPost2010PropOp42
 70
     1
102
RTVSPost2010Prop43
 90
        3
102
RTVSPost2010PropOp43
 70
     1
102
RTVSPost2010Prop44ColorIndex
 90
        5
102
RTVSPost2010Prop44ColorRGB
 90
      255
102
RTVSPost2010PropOp44
 70
     1
102
RTVSPost2010Prop45
280
     0
102
RTVSPost2010PropOp45
 70
     1
102
RTVSPost2010Prop46
 90
       50
102
RTVSPost2010PropOp46
 70
     1
102
RTVSPost2010Prop47
 90
       50
102
RTVSPost2010PropOp47
 70
     1
102
RTVSPost2010Prop48
 90
       50
102
RTVSPost2010PropOp48
 70
     1
102
RTVSPost2010Prop49
280
     0
102
RTVSPost2010PropOp49
 70
     1
102
RTVSPost2010Prop50
 90
       50
102
RTVSPost2010PropOp50
 70
     1
102
RTVSPost2010Prop51ColorIndex
 90
      256
102
RTVSPost2010Prop51ColorRGB
 90
-16777216
102
RTVSPost2010PropOp51
 70
     0
102
RTVSPost2010Prop52
140
1.0
102
RTVSPost2010PropOp52
 70
     0
102
RTVSPost2010Prop53
 90
        2
102
RTVSPost2010PropOp53
 70
     1
102
RTVSPost2010Prop54
  1
strokes_ogs.tif
102
RTVSPost2010PropOp54
 70
     1
102
RTVSPost2010Prop55
280
     0
102
RTVSPost2010PropOp55
 70
     1
102
RTVSPost2010Prop56
140
1.0
102
RTVSPost2010PropOp56
 70
     1
102
RTVSPost2010Prop57
140
1.0
102
RTVSPost2010PropOp57
 70
     1
102
RTVSPropertyOp0
 70
     1
102
RTVSPropertyOp1
 70
     1
102
RTVSPropertyOp2
 70
     1
102
RTVSPropertyOp3
 70
     1
102
RTVSPropertyOp4
 70
     1
102
RTVSPropertyOp5
 70
     1
102
RTVSPropertyOp6
 70
     1
102
RTVSPropertyOp7
 70
     1
102
RTVSPropertyOp8
 70
     1
102
RTVSPropertyOp9
 70
     1
102
RTVSPropertyOp10
 70
     1
102
RTVSPropertyOp11
 70
     1
102
RTVSPropertyOp12
 70
     1
102
RTVSPropertyOp13
 70
     1
102
RTVSPropertyOp14
 70
     1
102
RTVSPropertyOp15
 70
     1
102
RTVSPropertyOp16
 70
     1
102
RTVSPropertyOp17
 70
     1
102
RTVSPropertyOp18
 70
     1
102
RTVSPropertyOp19
 70
     1
102
RTVSPropertyOp20
 70
     1
102
RTVSPropertyOp21
 70
     1
102
RTVSPropertyOp22
 70
     1
102
RTVSPropertyOp23
 70
     1
102
RTVSPropertyOp24
 70
     1
102
RTVSPropertyOp25
 70
     1
102
RTVSPropertyOp26
 70
     1
102
RTVSPropertyOp27
 70
     1
102
RTVSPropertyOp28
 70
     1
102
RTVSPropertyOp29
 70
     1
102
RTVSPropertyOp30
 70
     1
102
RTVSPropertyOp31
 70
     1
102
RTVSPropertyOp32
 70
     1
102
RTVSPropertyOp33
 70
     1
102
RTVSPropertyOp34
 70
     1
102
RTVSPropertyOp35
 70
     1
102
RTVSPropertyOp36
 70
     1
102
RTVSPropertyOp37
 70
     1
102
RTVSPropertyOp38
 70
     1
102
RTVSPropertyOp39
 70
     1
102
RTVSPropertyOp40
 70
     1
102
RTVSPropertyOp41
 70
     1
102
RTVSPropertyOp42
 70
     1
102
RTVSPropertyOp43
 70
     1
102
RTVSPropertyOp44
 70
     1
102
RTVSPropertyOp45
 70
     1
102
RTVSPropertyOp46
 70
     1
102
RTVSPropertyOp47
 70
     1
102
RTVSPropertyOp48
 70
     1
102
RTVSPropertyOp49
 70
     1
102
RTVSPropertyOp50
 70
     1
102
RTVSPropertyOp51
 70
     0
102
RTVSPropertyOp52
 70
     0
102
RTVSPropertyOp53
 70
     1
102
RTVSPropertyOp54
 70
     1
102
RTVSPropertyOp55
 70
     1
102
RTVSPropertyOp56
 70
     1
102
RTVSPropertyOp57
 70
     1
102
RTVSPropertyOp58
 70
     1
102
RTVSPropertyOp59
 70
     1
102
RTVSPropertyOp60
 70
     1
102
RTVSPropertyOp61
 70
     1
102
RTVSPropertyOp62
 70
     1
  0
XRECORD
  5
C021
102
{ACAD_REACTORS
330
C020
102
}
330
C020
100
AcDbXrecord
280
     1
102
RTVSPost2010Prop28
280
     0
102
RTVSPost2010PropOp28
 70
     1
102
RTVSPost2010Prop29
280
     1
102
RTVSPost2010PropOp29
 70
     1
102
RTVSPost2010Prop30
280
     1
102
RTVSPost2010PropOp30
 70
     1
102
RTVSPost2010Prop31
280
     0
102
RTVSPost2010PropOp31
 70
     1
102
RTVSPost2010Prop32
280
     0
102
RTVSPost2010PropOp32
 70
     1
102
RTVSPost2010Prop33
280
     0
102
RTVSPost2010PropOp33
 70
     1
102
RTVSPost2010Prop34
280
     0
102
RTVSPost2010PropOp34
 70
     1
102
RTVSPost2010Prop35
280
     0
102
RTVSPost2010PropOp35
 70
     1
102
RTVSPost2010Prop36
280
     0
102
RTVSPost2010PropOp36
 70
     1
102
RTVSPost2010Prop37
 90
       50
102
RTVSPost2010PropOp37
 70
     1
102
RTVSPost2010Prop38
140
0.0
102
RTVSPost2010PropOp38
 70
     1
102
RTVSPost2010Prop39
140
1.0
102
RTVSPost2010PropOp39
 70
     1
102
RTVSPost2010Prop40
 90
        0
102
RTVSPost2010PropOp40
 70
     1
102
RTVSPost2010Prop41ColorIndex
 90
       18
102
RTVSPost2010Prop41ColorRGB
 90
        0
102
RTVSPost2010PropOp41
 70
     1
102
RTVSPost2010Prop42
 90
       50
102
RTVSPost2010PropOp42
 70
     1
102
RTVSPost2010Prop43
 90
        3
102
RTVSPost2010PropOp43
 70
     1
102
RTVSPost2010Prop44ColorIndex
 90
        5
102
RTVSPost2010Prop44ColorRGB
 90
      255
102
RTVSPost2010PropOp44
 70
     1
102
RTVSPost2010Prop45
280
     0
102
RTVSPost2010PropOp45
 70
     1
102
RTVSPost2010Prop46
 90
       50
102
RTVSPost2010PropOp46
 70
     1
102
RTVSPost2010Prop47
 90
       50
102
RTVSPost2010PropOp47
 70
     1
102
RTVSPost2010Prop48
 90
       50
102
RTVSPost2010PropOp48
 70
     1
102
RTVSPost2010Prop49
280
     0
102
RTVSPost2010PropOp49
 70
     1
102
RTVSPost2010Prop50
 90
       50
102
RTVSPost2010PropOp50
 70
     1
102
RTVSPost2010Prop51ColorIndex
 90
      256
102
RTVSPost2010Prop51ColorRGB
 90
-16777216
102
RTVSPost2010PropOp51
 70
     0
102
RTVSPost2010Prop52
140
1.0
102
RTVSPost2010PropOp52
 70
     0
102
RTVSPost2010Prop53
 90
        2
102
RTVSPost2010PropOp53
 70
     1
102
RTVSPost2010Prop54
  1
strokes_ogs.tif
102
RTVSPost2010PropOp54
 70
     1
102
RTVSPost2010Prop55
280
     0
102
RTVSPost2010PropOp55
 70
     1
102
RTVSPost2010Prop56
140
1.0
102
RTVSPost2010PropOp56
 70
     1
102
RTVSPost2010Prop57
140
1.0
102
RTVSPost2010PropOp57
 70
     1
102
RTVSPropertyOp0
 70
     1
102
RTVSPropertyOp1
 70
     1
102
RTVSPropertyOp2
 70
     1
102
RTVSPropertyOp3
 70
     1
102
RTVSPropertyOp4
 70
     1
102
RTVSPropertyOp5
 70
     1
102
RTVSPropertyOp6
 70
     1
102
RTVSPropertyOp7
 70
     1
102
RTVSPropertyOp8
 70
     1
102
RTVSPropertyOp9
 70
     1
102
RTVSPropertyOp10
 70
     1
102
RTVSPropertyOp11
 70
     1
102
RTVSPropertyOp12
 70
     1
102
RTVSPropertyOp13
 70
     1
102
RTVSPropertyOp14
 70
     1
102
RTVSPropertyOp15
 70
     1
102
RTVSPropertyOp16
 70
     1
102
RTVSPropertyOp17
 70
     1
102
RTVSPropertyOp18
 70
     1
102
RTVSPropertyOp19
 70
     1
102
RTVSPropertyOp20
 70
     1
102
RTVSPropertyOp21
 70
     1
102
RTVSPropertyOp22
 70
     1
102
RTVSPropertyOp23
 70
     1
102
RTVSPropertyOp24
 70
     1
102
RTVSPropertyOp25
 70
     1
102
RTVSPropertyOp26
 70
     1
102
RTVSPropertyOp27
 70
     1
102
RTVSPropertyOp28
 70
     1
102
RTVSPropertyOp29
 70
     1
102
RTVSPropertyOp30
 70
     1
102
RTVSPropertyOp31
 70
     1
102
RTVSPropertyOp32
 70
     1
102
RTVSPropertyOp33
 70
     1
102
RTVSPropertyOp34
 70
     1
102
RTVSPropertyOp35
 70
     1
102
RTVSPropertyOp36
 70
     1
102
RTVSPropertyOp37
 70
     1
102
RTVSPropertyOp38
 70
     1
102
RTVSPropertyOp39
 70
     1
102
RTVSPropertyOp40
 70
     1
102
RTVSPropertyOp41
 70
     1
102
RTVSPropertyOp42
 70
     1
102
RTVSPropertyOp43
 70
     1
102
RTVSPropertyOp44
 70
     1
102
RTVSPropertyOp45
 70
     1
102
RTVSPropertyOp46
 70
     1
102
RTVSPropertyOp47
 70
     1
102
RTVSPropertyOp48
 70
     1
102
RTVSPropertyOp49
 70
     1
102
RTVSPropertyOp50
 70
     1
102
RTVSPropertyOp51
 70
     0
102
RTVSPropertyOp52
 70
     0
102
RTVSPropertyOp53
 70
     1
102
RTVSPropertyOp54
 70
     1
102
RTVSPropertyOp55
 70
     1
102
RTVSPropertyOp56
 70
     1
102
RTVSPropertyOp57
 70
     1
102
RTVSPropertyOp58
 70
     1
102
RTVSPropertyOp59
 70
     1
102
RTVSPropertyOp60
 70
     1
102
RTVSPropertyOp61
 70
     1
102
RTVSPropertyOp62
 70
     1
  0
XRECORD
  5
C01B
102
{ACAD_REACTORS
330
C01A
102
}
330
C01A
100
AcDbXrecord
280
     1
102
RTVSPost2010Prop28
280
     0
102
RTVSPost2010PropOp28
 70
     1
102
RTVSPost2010Prop29
280
     1
102
RTVSPost2010PropOp29
 70
     1
102
RTVSPost2010Prop30
280
     1
102
RTVSPost2010PropOp30
 70
     1
102
RTVSPost2010Prop31
280
     0
102
RTVSPost2010PropOp31
 70
     1
102
RTVSPost2010Prop32
280
     0
102
RTVSPost2010PropOp32
 70
     1
102
RTVSPost2010Prop33
280
     0
102
RTVSPost2010PropOp33
 70
     1
102
RTVSPost2010Prop34
280
     0
102
RTVSPost2010PropOp34
 70
     1
102
RTVSPost2010Prop35
280
     0
102
RTVSPost2010PropOp35
 70
     1
102
RTVSPost2010Prop36
280
     0
102
RTVSPost2010PropOp36
 70
     1
102
RTVSPost2010Prop37
 90
       50
102
RTVSPost2010PropOp37
 70
     1
102
RTVSPost2010Prop38
140
0.0
102
RTVSPost2010PropOp38
 70
     1
102
RTVSPost2010Prop39
140
1.0
102
RTVSPost2010PropOp39
 70
     1
102
RTVSPost2010Prop40
 90
        0
102
RTVSPost2010PropOp40
 70
     1
102
RTVSPost2010Prop41ColorIndex
 90
       18
102
RTVSPost2010Prop41ColorRGB
 90
        0
102
RTVSPost2010PropOp41
 70
     1
102
RTVSPost2010Prop42
 90
       50
102
RTVSPost2010PropOp42
 70
     1
102
RTVSPost2010Prop43
 90
        3
102
RTVSPost2010PropOp43
 70
     1
102
RTVSPost2010Prop44ColorIndex
 90
        5
102
RTVSPost2010Prop44ColorRGB
 90
      255
102
RTVSPost2010PropOp44
 70
     1
102
RTVSPost2010Prop45
280
     0
102
RTVSPost2010PropOp45
 70
     1
102
RTVSPost2010Prop46
 90
       50
102
RTVSPost2010PropOp46
 70
     1
102
RTVSPost2010Prop47
 90
       50
102
RTVSPost2010PropOp47
 70
     1
102
RTVSPost2010Prop48
 90
       50
102
RTVSPost2010PropOp48
 70
     1
102
RTVSPost2010Prop49
280
     0
102
RTVSPost2010PropOp49
 70
     1
102
RTVSPost2010Prop50
 90
       50
102
RTVSPost2010PropOp50
 70
     1
102
RTVSPost2010Prop51ColorIndex
 90
      256
102
RTVSPost2010Prop51ColorRGB
 90
-16777216
102
RTVSPost2010PropOp51
 70
     0
102
RTVSPost2010Prop52
140
1.0
102
RTVSPost2010PropOp52
 70
     0
102
RTVSPost2010Prop53
 90
        2
102
RTVSPost2010PropOp53
 70
     1
102
RTVSPost2010Prop54
  1
strokes_ogs.tif
102
RTVSPost2010PropOp54
 70
     1
102
RTVSPost2010Prop55
280
     0
102
RTVSPost2010PropOp55
 70
     1
102
RTVSPost2010Prop56
140
1.0
102
RTVSPost2010PropOp56
 70
     1
102
RTVSPost2010Prop57
140
1.0
102
RTVSPost2010PropOp57
 70
     1
102
RTVSPropertyOp0
 70
     1
102
RTVSPropertyOp1
 70
     1
102
RTVSPropertyOp2
 70
     1
102
RTVSPropertyOp3
 70
     1
102
RTVSPropertyOp4
 70
     1
102
RTVSPropertyOp5
 70
     1
102
RTVSPropertyOp6
 70
     1
102
RTVSPropertyOp7
 70
     1
102
RTVSPropertyOp8
 70
     1
102
RTVSPropertyOp9
 70
     1
102
RTVSPropertyOp10
 70
     1
102
RTVSPropertyOp11
 70
     1
102
RTVSPropertyOp12
 70
     1
102
RTVSPropertyOp13
 70
     1
102
RTVSPropertyOp14
 70
     1
102
RTVSPropertyOp15
 70
     1
102
RTVSPropertyOp16
 70
     1
102
RTVSPropertyOp17
 70
     1
102
RTVSPropertyOp18
 70
     1
102
RTVSPropertyOp19
 70
     1
102
RTVSPropertyOp20
 70
     1
102
RTVSPropertyOp21
 70
     1
102
RTVSPropertyOp22
 70
     1
102
RTVSPropertyOp23
 70
     1
102
RTVSPropertyOp24
 70
     1
102
RTVSPropertyOp25
 70
     1
102
RTVSPropertyOp26
 70
     1
102
RTVSPropertyOp27
 70
     1
102
RTVSPropertyOp28
 70
     1
102
RTVSPropertyOp29
 70
     1
102
RTVSPropertyOp30
 70
     1
102
RTVSPropertyOp31
 70
     1
102
RTVSPropertyOp32
 70
     1
102
RTVSPropertyOp33
 70
     1
102
RTVSPropertyOp34
 70
     1
102
RTVSPropertyOp35
 70
     1
102
RTVSPropertyOp36
 70
     1
102
RTVSPropertyOp37
 70
     1
102
RTVSPropertyOp38
 70
     1
102
RTVSPropertyOp39
 70
     1
102
RTVSPropertyOp40
 70
     1
102
RTVSPropertyOp41
 70
     1
102
RTVSPropertyOp42
 70
     1
102
RTVSPropertyOp43
 70
     1
102
RTVSPropertyOp44
 70
     1
102
RTVSPropertyOp45
 70
     1
102
RTVSPropertyOp46
 70
     1
102
RTVSPropertyOp47
 70
     1
102
RTVSPropertyOp48
 70
     1
102
RTVSPropertyOp49
 70
     1
102
RTVSPropertyOp50
 70
     1
102
RTVSPropertyOp51
 70
     0
102
RTVSPropertyOp52
 70
     0
102
RTVSPropertyOp53
 70
     1
102
RTVSPropertyOp54
 70
     1
102
RTVSPropertyOp55
 70
     1
102
RTVSPropertyOp56
 70
     1
102
RTVSPropertyOp57
 70
     1
102
RTVSPropertyOp58
 70
     1
102
RTVSPropertyOp59
 70
     1
102
RTVSPropertyOp60
 70
     1
102
RTVSPropertyOp61
 70
     1
102
RTVSPropertyOp62
 70
     1
  0
XRECORD
  5
C01D
102
{ACAD_REACTORS
330
C01C
102
}
330
C01C
100
AcDbXrecord
280
     1
102
RTVSPost2010Prop28
280
     0
102
RTVSPost2010PropOp28
 70
     1
102
RTVSPost2010Prop29
280
     1
102
RTVSPost2010PropOp29
 70
     1
102
RTVSPost2010Prop30
280
     1
102
RTVSPost2010PropOp30
 70
     1
102
RTVSPost2010Prop31
280
     0
102
RTVSPost2010PropOp31
 70
     1
102
RTVSPost2010Prop32
280
     0
102
RTVSPost2010PropOp32
 70
     1
102
RTVSPost2010Prop33
280
     0
102
RTVSPost2010PropOp33
 70
     1
102
RTVSPost2010Prop34
280
     0
102
RTVSPost2010PropOp34
 70
     1
102
RTVSPost2010Prop35
280
     0
102
RTVSPost2010PropOp35
 70
     1
102
RTVSPost2010Prop36
280
     0
102
RTVSPost2010PropOp36
 70
     1
102
RTVSPost2010Prop37
 90
       50
102
RTVSPost2010PropOp37
 70
     1
102
RTVSPost2010Prop38
140
0.0
102
RTVSPost2010PropOp38
 70
     1
102
RTVSPost2010Prop39
140
1.0
102
RTVSPost2010PropOp39
 70
     1
102
RTVSPost2010Prop40
 90
        0
102
RTVSPost2010PropOp40
 70
     1
102
RTVSPost2010Prop41ColorIndex
 90
       18
102
RTVSPost2010Prop41ColorRGB
 90
        0
102
RTVSPost2010PropOp41
 70
     1
102
RTVSPost2010Prop42
 90
       50
102
RTVSPost2010PropOp42
 70
     1
102
RTVSPost2010Prop43
 90
        3
102
RTVSPost2010PropOp43
 70
     1
102
RTVSPost2010Prop44ColorIndex
 90
        5
102
RTVSPost2010Prop44ColorRGB
 90
      255
102
RTVSPost2010PropOp44
 70
     1
102
RTVSPost2010Prop45
280
     0
102
RTVSPost2010PropOp45
 70
     1
102
RTVSPost2010Prop46
 90
       50
102
RTVSPost2010PropOp46
 70
     1
102
RTVSPost2010Prop47
 90
       50
102
RTVSPost2010PropOp47
 70
     1
102
RTVSPost2010Prop48
 90
       50
102
RTVSPost2010PropOp48
 70
     1
102
RTVSPost2010Prop49
280
     0
102
RTVSPost2010PropOp49
 70
     1
102
RTVSPost2010Prop50
 90
       50
102
RTVSPost2010PropOp50
 70
     1
102
RTVSPost2010Prop51ColorIndex
 90
      256
102
RTVSPost2010Prop51ColorRGB
 90
-16777216
102
RTVSPost2010PropOp51
 70
     0
102
RTVSPost2010Prop52
140
1.0
102
RTVSPost2010PropOp52
 70
     0
102
RTVSPost2010Prop53
 90
        2
102
RTVSPost2010PropOp53
 70
     1
102
RTVSPost2010Prop54
  1
strokes_ogs.tif
102
RTVSPost2010PropOp54
 70
     1
102
RTVSPost2010Prop55
280
     0
102
RTVSPost2010PropOp55
 70
     1
102
RTVSPost2010Prop56
140
1.0
102
RTVSPost2010PropOp56
 70
     1
102
RTVSPost2010Prop57
140
1.0
102
RTVSPost2010PropOp57
 70
     1
102
RTVSPropertyOp0
 70
     1
102
RTVSPropertyOp1
 70
     1
102
RTVSPropertyOp2
 70
     1
102
RTVSPropertyOp3
 70
     1
102
RTVSPropertyOp4
 70
     1
102
RTVSPropertyOp5
 70
     1
102
RTVSPropertyOp6
 70
     1
102
RTVSPropertyOp7
 70
     1
102
RTVSPropertyOp8
 70
     1
102
RTVSPropertyOp9
 70
     1
102
RTVSPropertyOp10
 70
     1
102
RTVSPropertyOp11
 70
     1
102
RTVSPropertyOp12
 70
     1
102
RTVSPropertyOp13
 70
     1
102
RTVSPropertyOp14
 70
     1
102
RTVSPropertyOp15
 70
     1
102
RTVSPropertyOp16
 70
     1
102
RTVSPropertyOp17
 70
     1
102
RTVSPropertyOp18
 70
     1
102
RTVSPropertyOp19
 70
     1
102
RTVSPropertyOp20
 70
     1
102
RTVSPropertyOp21
 70
     1
102
RTVSPropertyOp22
 70
     1
102
RTVSPropertyOp23
 70
     1
102
RTVSPropertyOp24
 70
     1
102
RTVSPropertyOp25
 70
     1
102
RTVSPropertyOp26
 70
     1
102
RTVSPropertyOp27
 70
     1
102
RTVSPropertyOp28
 70
     1
102
RTVSPropertyOp29
 70
     1
102
RTVSPropertyOp30
 70
     1
102
RTVSPropertyOp31
 70
     1
102
RTVSPropertyOp32
 70
     1
102
RTVSPropertyOp33
 70
     1
102
RTVSPropertyOp34
 70
     1
102
RTVSPropertyOp35
 70
     1
102
RTVSPropertyOp36
 70
     1
102
RTVSPropertyOp37
 70
     1
102
RTVSPropertyOp38
 70
     1
102
RTVSPropertyOp39
 70
     1
102
RTVSPropertyOp40
 70
     1
102
RTVSPropertyOp41
 70
     1
102
RTVSPropertyOp42
 70
     1
102
RTVSPropertyOp43
 70
     1
102
RTVSPropertyOp44
 70
     1
102
RTVSPropertyOp45
 70
     1
102
RTVSPropertyOp46
 70
     1
102
RTVSPropertyOp47
 70
     1
102
RTVSPropertyOp48
 70
     1
102
RTVSPropertyOp49
 70
     1
102
RTVSPropertyOp50
 70
     1
102
RTVSPropertyOp51
 70
     0
102
RTVSPropertyOp52
 70
     0
102
RTVSPropertyOp53
 70
     1
102
RTVSPropertyOp54
 70
     1
102
RTVSPropertyOp55
 70
     1
102
RTVSPropertyOp56
 70
     1
102
RTVSPropertyOp57
 70
     1
102
RTVSPropertyOp58
 70
     1
102
RTVSPropertyOp59
 70
     1
102
RTVSPropertyOp60
 70
     1
102
RTVSPropertyOp61
 70
     1
102
RTVSPropertyOp62
 70
     1
  0
XRECORD
  5
C013
102
{ACAD_REACTORS
330
C012
102
}
330
C012
100
AcDbXrecord
280
     1
102
RTVSPost2010Prop28
280
     0
102
RTVSPost2010PropOp28
 70
     1
102
RTVSPost2010Prop29
280
     1
102
RTVSPost2010PropOp29
 70
     1
102
RTVSPost2010Prop30
280
     1
102
RTVSPost2010PropOp30
 70
     1
102
RTVSPost2010Prop31
280
     0
102
RTVSPost2010PropOp31
 70
     1
102
RTVSPost2010Prop32
280
     0
102
RTVSPost2010PropOp32
 70
     1
102
RTVSPost2010Prop33
280
     0
102
RTVSPost2010PropOp33
 70
     1
102
RTVSPost2010Prop34
280
     0
102
RTVSPost2010PropOp34
 70
     1
102
RTVSPost2010Prop35
280
     0
102
RTVSPost2010PropOp35
 70
     1
102
RTVSPost2010Prop36
280
     0
102
RTVSPost2010PropOp36
 70
     1
102
RTVSPost2010Prop37
 90
       50
102
RTVSPost2010PropOp37
 70
     1
102
RTVSPost2010Prop38
140
0.0
102
RTVSPost2010PropOp38
 70
     1
102
RTVSPost2010Prop39
140
1.0
102
RTVSPost2010PropOp39
 70
     1
102
RTVSPost2010Prop40
 90
        0
102
RTVSPost2010PropOp40
 70
     1
102
RTVSPost2010Prop41ColorIndex
 90
       18
102
RTVSPost2010Prop41ColorRGB
 90
        0
102
RTVSPost2010PropOp41
 70
     1
102
RTVSPost2010Prop42
 90
       50
102
RTVSPost2010PropOp42
 70
     1
102
RTVSPost2010Prop43
 90
        3
102
RTVSPost2010PropOp43
 70
     1
102
RTVSPost2010Prop44ColorIndex
 90
        5
102
RTVSPost2010Prop44ColorRGB
 90
      255
102
RTVSPost2010PropOp44
 70
     1
102
RTVSPost2010Prop45
280
     0
102
RTVSPost2010PropOp45
 70
     1
102
RTVSPost2010Prop46
 90
       50
102
RTVSPost2010PropOp46
 70
     1
102
RTVSPost2010Prop47
 90
       50
102
RTVSPost2010PropOp47
 70
     1
102
RTVSPost2010Prop48
 90
       50
102
RTVSPost2010PropOp48
 70
     1
102
RTVSPost2010Prop49
280
     0
102
RTVSPost2010PropOp49
 70
     1
102
RTVSPost2010Prop50
 90
       50
102
RTVSPost2010PropOp50
 70
     1
102
RTVSPost2010Prop51ColorIndex
 90
      256
102
RTVSPost2010Prop51ColorRGB
 90
-16777216
102
RTVSPost2010PropOp51
 70
     0
102
RTVSPost2010Prop52
140
1.0
102
RTVSPost2010PropOp52
 70
     0
102
RTVSPost2010Prop53
 90
        2
102
RTVSPost2010PropOp53
 70
     1
102
RTVSPost2010Prop54
  1
strokes_ogs.tif
102
RTVSPost2010PropOp54
 70
     1
102
RTVSPost2010Prop55
280
     0
102
RTVSPost2010PropOp55
 70
     1
102
RTVSPost2010Prop56
140
1.0
102
RTVSPost2010PropOp56
 70
     1
102
RTVSPost2010Prop57
140
1.0
102
RTVSPost2010PropOp57
 70
     1
102
RTVSPropertyOp0
 70
     1
102
RTVSPropertyOp1
 70
     1
102
RTVSPropertyOp2
 70
     1
102
RTVSPropertyOp3
 70
     1
102
RTVSPropertyOp4
 70
     1
102
RTVSPropertyOp5
 70
     1
102
RTVSPropertyOp6
 70
     1
102
RTVSPropertyOp7
 70
     1
102
RTVSPropertyOp8
 70
     1
102
RTVSPropertyOp9
 70
     1
102
RTVSPropertyOp10
 70
     1
102
RTVSPropertyOp11
 70
     1
102
RTVSPropertyOp12
 70
     1
102
RTVSPropertyOp13
 70
     1
102
RTVSPropertyOp14
 70
     1
102
RTVSPropertyOp15
 70
     1
102
RTVSPropertyOp16
 70
     1
102
RTVSPropertyOp17
 70
     1
102
RTVSPropertyOp18
 70
     1
102
RTVSPropertyOp19
 70
     1
102
RTVSPropertyOp20
 70
     1
102
RTVSPropertyOp21
 70
     1
102
RTVSPropertyOp22
 70
     1
102
RTVSPropertyOp23
 70
     1
102
RTVSPropertyOp24
 70
     1
102
RTVSPropertyOp25
 70
     1
102
RTVSPropertyOp26
 70
     1
102
RTVSPropertyOp27
 70
     1
102
RTVSPropertyOp28
 70
     1
102
RTVSPropertyOp29
 70
     1
102
RTVSPropertyOp30
 70
     1
102
RTVSPropertyOp31
 70
     1
102
RTVSPropertyOp32
 70
     1
102
RTVSPropertyOp33
 70
     1
102
RTVSPropertyOp34
 70
     1
102
RTVSPropertyOp35
 70
     1
102
RTVSPropertyOp36
 70
     1
102
RTVSPropertyOp37
 70
     1
102
RTVSPropertyOp38
 70
     1
102
RTVSPropertyOp39
 70
     1
102
RTVSPropertyOp40
 70
     1
102
RTVSPropertyOp41
 70
     1
102
RTVSPropertyOp42
 70
     1
102
RTVSPropertyOp43
 70
     1
102
RTVSPropertyOp44
 70
     1
102
RTVSPropertyOp45
 70
     1
102
RTVSPropertyOp46
 70
     1
102
RTVSPropertyOp47
 70
     1
102
RTVSPropertyOp48
 70
     1
102
RTVSPropertyOp49
 70
     1
102
RTVSPropertyOp50
 70
     1
102
RTVSPropertyOp51
 70
     0
102
RTVSPropertyOp52
 70
     0
102
RTVSPropertyOp53
 70
     1
102
RTVSPropertyOp54
 70
     1
102
RTVSPropertyOp55
 70
     1
102
RTVSPropertyOp56
 70
     1
102
RTVSPropertyOp57
 70
     1
102
RTVSPropertyOp58
 70
     1
102
RTVSPropertyOp59
 70
     1
102
RTVSPropertyOp60
 70
     1
102
RTVSPropertyOp61
 70
     1
102
RTVSPropertyOp62
 70
     1
  0
XRECORD
  5
C007
102
{ACAD_REACTORS
330
C006
102
}
330
C006
100
AcDbXrecord
280
     1
102
RTVSPost2010Prop28
280
     0
102
RTVSPost2010PropOp28
 70
     1
102
RTVSPost2010Prop29
280
     1
102
RTVSPost2010PropOp29
 70
     1
102
RTVSPost2010Prop30
280
     1
102
RTVSPost2010PropOp30
 70
     1
102
RTVSPost2010Prop31
280
     0
102
RTVSPost2010PropOp31
 70
     1
102
RTVSPost2010Prop32
280
     0
102
RTVSPost2010PropOp32
 70
     1
102
RTVSPost2010Prop33
280
     0
102
RTVSPost2010PropOp33
 70
     1
102
RTVSPost2010Prop34
280
     0
102
RTVSPost2010PropOp34
 70
     1
102
RTVSPost2010Prop35
280
     0
102
RTVSPost2010PropOp35
 70
     1
102
RTVSPost2010Prop36
280
     0
102
RTVSPost2010PropOp36
 70
     1
102
RTVSPost2010Prop37
 90
       50
102
RTVSPost2010PropOp37
 70
     1
102
RTVSPost2010Prop38
140
0.0
102
RTVSPost2010PropOp38
 70
     1
102
RTVSPost2010Prop39
140
1.0
102
RTVSPost2010PropOp39
 70
     1
102
RTVSPost2010Prop40
 90
        0
102
RTVSPost2010PropOp40
 70
     1
102
RTVSPost2010Prop41ColorIndex
 90
       18
102
RTVSPost2010Prop41ColorRGB
 90
        0
102
RTVSPost2010PropOp41
 70
     1
102
RTVSPost2010Prop42
 90
       50
102
RTVSPost2010PropOp42
 70
     1
102
RTVSPost2010Prop43
 90
        3
102
RTVSPost2010PropOp43
 70
     1
102
RTVSPost2010Prop44ColorIndex
 90
        5
102
RTVSPost2010Prop44ColorRGB
 90
      255
102
RTVSPost2010PropOp44
 70
     1
102
RTVSPost2010Prop45
280
     0
102
RTVSPost2010PropOp45
 70
     1
102
RTVSPost2010Prop46
 90
       50
102
RTVSPost2010PropOp46
 70
     1
102
RTVSPost2010Prop47
 90
       50
102
RTVSPost2010PropOp47
 70
     1
102
RTVSPost2010Prop48
 90
       50
102
RTVSPost2010PropOp48
 70
     1
102
RTVSPost2010Prop49
280
     0
102
RTVSPost2010PropOp49
 70
     1
102
RTVSPost2010Prop50
 90
       50
102
RTVSPost2010PropOp50
 70
     1
102
RTVSPost2010Prop51ColorIndex
 90
      256
102
RTVSPost2010Prop51ColorRGB
 90
-16777216
102
RTVSPost2010PropOp51
 70
     0
102
RTVSPost2010Prop52
140
1.0
102
RTVSPost2010PropOp52
 70
     0
102
RTVSPost2010Prop53
 90
        2
102
RTVSPost2010PropOp53
 70
     1
102
RTVSPost2010Prop54
  1
strokes_ogs.tif
102
RTVSPost2010PropOp54
 70
     1
102
RTVSPost2010Prop55
280
     0
102
RTVSPost2010PropOp55
 70
     1
102
RTVSPost2010Prop56
140
1.0
102
RTVSPost2010PropOp56
 70
     1
102
RTVSPost2010Prop57
140
1.0
102
RTVSPost2010PropOp57
 70
     1
102
RTVSPropertyOp0
 70
     1
102
RTVSPropertyOp1
 70
     1
102
RTVSPropertyOp2
 70
     1
102
RTVSPropertyOp3
 70
     1
102
RTVSPropertyOp4
 70
     1
102
RTVSPropertyOp5
 70
     1
102
RTVSPropertyOp6
 70
     1
102
RTVSPropertyOp7
 70
     1
102
RTVSPropertyOp8
 70
     1
102
RTVSPropertyOp9
 70
     1
102
RTVSPropertyOp10
 70
     1
102
RTVSPropertyOp11
 70
     1
102
RTVSPropertyOp12
 70
     1
102
RTVSPropertyOp13
 70
     1
102
RTVSPropertyOp14
 70
     1
102
RTVSPropertyOp15
 70
     1
102
RTVSPropertyOp16
 70
     1
102
RTVSPropertyOp17
 70
     1
102
RTVSPropertyOp18
 70
     1
102
RTVSPropertyOp19
 70
     1
102
RTVSPropertyOp20
 70
     1
102
RTVSPropertyOp21
 70
     1
102
RTVSPropertyOp22
 70
     1
102
RTVSPropertyOp23
 70
     1
102
RTVSPropertyOp24
 70
     1
102
RTVSPropertyOp25
 70
     1
102
RTVSPropertyOp26
 70
     1
102
RTVSPropertyOp27
 70
     1
102
RTVSPropertyOp28
 70
     1
102
RTVSPropertyOp29
 70
     1
102
RTVSPropertyOp30
 70
     1
102
RTVSPropertyOp31
 70
     1
102
RTVSPropertyOp32
 70
     1
102
RTVSPropertyOp33
 70
     1
102
RTVSPropertyOp34
 70
     1
102
RTVSPropertyOp35
 70
     1
102
RTVSPropertyOp36
 70
     1
102
RTVSPropertyOp37
 70
     1
102
RTVSPropertyOp38
 70
     1
102
RTVSPropertyOp39
 70
     1
102
RTVSPropertyOp40
 70
     1
102
RTVSPropertyOp41
 70
     1
102
RTVSPropertyOp42
 70
     1
102
RTVSPropertyOp43
 70
     1
102
RTVSPropertyOp44
 70
     1
102
RTVSPropertyOp45
 70
     1
102
RTVSPropertyOp46
 70
     1
102
RTVSPropertyOp47
 70
     1
102
RTVSPropertyOp48
 70
     1
102
RTVSPropertyOp49
 70
     1
102
RTVSPropertyOp50
 70
     1
102
RTVSPropertyOp51
 70
     0
102
RTVSPropertyOp52
 70
     0
102
RTVSPropertyOp53
 70
     1
102
RTVSPropertyOp54
 70
     1
102
RTVSPropertyOp55
 70
     1
102
RTVSPropertyOp56
 70
     1
102
RTVSPropertyOp57
 70
     1
102
RTVSPropertyOp58
 70
     1
102
RTVSPropertyOp59
 70
     1
102
RTVSPropertyOp60
 70
     1
102
RTVSPropertyOp61
 70
     1
102
RTVSPropertyOp62
 70
     1
  0
XRECORD
  5
C01F
102
{ACAD_REACTORS
330
C01E
102
}
330
C01E
100
AcDbXrecord
280
     1
102
RTVSPost2010Prop28
280
     0
102
RTVSPost2010PropOp28
 70
     1
102
RTVSPost2010Prop29
280
     1
102
RTVSPost2010PropOp29
 70
     1
102
RTVSPost2010Prop30
280
     1
102
RTVSPost2010PropOp30
 70
     1
102
RTVSPost2010Prop31
280
     0
102
RTVSPost2010PropOp31
 70
     1
102
RTVSPost2010Prop32
280
     0
102
RTVSPost2010PropOp32
 70
     1
102
RTVSPost2010Prop33
280
     0
102
RTVSPost2010PropOp33
 70
     1
102
RTVSPost2010Prop34
280
     0
102
RTVSPost2010PropOp34
 70
     1
102
RTVSPost2010Prop35
280
     0
102
RTVSPost2010PropOp35
 70
     1
102
RTVSPost2010Prop36
280
     0
102
RTVSPost2010PropOp36
 70
     1
102
RTVSPost2010Prop37
 90
       50
102
RTVSPost2010PropOp37
 70
     1
102
RTVSPost2010Prop38
140
0.0
102
RTVSPost2010PropOp38
 70
     1
102
RTVSPost2010Prop39
140
1.0
102
RTVSPost2010PropOp39
 70
     1
102
RTVSPost2010Prop40
 90
        0
102
RTVSPost2010PropOp40
 70
     1
102
RTVSPost2010Prop41ColorIndex
 90
       18
102
RTVSPost2010Prop41ColorRGB
 90
        0
102
RTVSPost2010PropOp41
 70
     1
102
RTVSPost2010Prop42
 90
       50
102
RTVSPost2010PropOp42
 70
     1
102
RTVSPost2010Prop43
 90
        3
102
RTVSPost2010PropOp43
 70
     1
102
RTVSPost2010Prop44ColorIndex
 90
        5
102
RTVSPost2010Prop44ColorRGB
 90
      255
102
RTVSPost2010PropOp44
 70
     1
102
RTVSPost2010Prop45
280
     0
102
RTVSPost2010PropOp45
 70
     1
102
RTVSPost2010Prop46
 90
       50
102
RTVSPost2010PropOp46
 70
     1
102
RTVSPost2010Prop47
 90
       50
102
RTVSPost2010PropOp47
 70
     1
102
RTVSPost2010Prop48
 90
       50
102
RTVSPost2010PropOp48
 70
     1
102
RTVSPost2010Prop49
280
     0
102
RTVSPost2010PropOp49
 70
     1
102
RTVSPost2010Prop50
 90
       50
102
RTVSPost2010PropOp50
 70
     1
102
RTVSPost2010Prop51ColorIndex
 90
      256
102
RTVSPost2010Prop51ColorRGB
 90
-16777216
102
RTVSPost2010PropOp51
 70
     0
102
RTVSPost2010Prop52
140
1.0
102
RTVSPost2010PropOp52
 70
     0
102
RTVSPost2010Prop53
 90
        2
102
RTVSPost2010PropOp53
 70
     1
102
RTVSPost2010Prop54
  1
strokes_ogs.tif
102
RTVSPost2010PropOp54
 70
     1
102
RTVSPost2010Prop55
280
     0
102
RTVSPost2010PropOp55
 70
     1
102
RTVSPost2010Prop56
140
1.0
102
RTVSPost2010PropOp56
 70
     1
102
RTVSPost2010Prop57
140
1.0
102
RTVSPost2010PropOp57
 70
     1
102
RTVSPropertyOp0
 70
     1
102
RTVSPropertyOp1
 70
     1
102
RTVSPropertyOp2
 70
     1
102
RTVSPropertyOp3
 70
     1
102
RTVSPropertyOp4
 70
     1
102
RTVSPropertyOp5
 70
     1
102
RTVSPropertyOp6
 70
     1
102
RTVSPropertyOp7
 70
     1
102
RTVSPropertyOp8
 70
     1
102
RTVSPropertyOp9
 70
     1
102
RTVSPropertyOp10
 70
     1
102
RTVSPropertyOp11
 70
     1
102
RTVSPropertyOp12
 70
     1
102
RTVSPropertyOp13
 70
     1
102
RTVSPropertyOp14
 70
     1
102
RTVSPropertyOp15
 70
     1
102
RTVSPropertyOp16
 70
     1
102
RTVSPropertyOp17
 70
     1
102
RTVSPropertyOp18
 70
     1
102
RTVSPropertyOp19
 70
     1
102
RTVSPropertyOp20
 70
     1
102
RTVSPropertyOp21
 70
     1
102
RTVSPropertyOp22
 70
     1
102
RTVSPropertyOp23
 70
     1
102
RTVSPropertyOp24
 70
     1
102
RTVSPropertyOp25
 70
     1
102
RTVSPropertyOp26
 70
     1
102
RTVSPropertyOp27
 70
     1
102
RTVSPropertyOp28
 70
     1
102
RTVSPropertyOp29
 70
     1
102
RTVSPropertyOp30
 70
     1
102
RTVSPropertyOp31
 70
     1
102
RTVSPropertyOp32
 70
     1
102
RTVSPropertyOp33
 70
     1
102
RTVSPropertyOp34
 70
     1
102
RTVSPropertyOp35
 70
     1
102
RTVSPropertyOp36
 70
     1
102
RTVSPropertyOp37
 70
     1
102
RTVSPropertyOp38
 70
     1
102
RTVSPropertyOp39
 70
     1
102
RTVSPropertyOp40
 70
     1
102
RTVSPropertyOp41
 70
     1
102
RTVSPropertyOp42
 70
     1
102
RTVSPropertyOp43
 70
     1
102
RTVSPropertyOp44
 70
     1
102
RTVSPropertyOp45
 70
     1
102
RTVSPropertyOp46
 70
     1
102
RTVSPropertyOp47
 70
     1
102
RTVSPropertyOp48
 70
     1
102
RTVSPropertyOp49
 70
     1
102
RTVSPropertyOp50
 70
     1
102
RTVSPropertyOp51
 70
     0
102
RTVSPropertyOp52
 70
     0
102
RTVSPropertyOp53
 70
     1
102
RTVSPropertyOp54
 70
     1
102
RTVSPropertyOp55
 70
     1
102
RTVSPropertyOp56
 70
     1
102
RTVSPropertyOp57
 70
     1
102
RTVSPropertyOp58
 70
     1
102
RTVSPropertyOp59
 70
     1
102
RTVSPropertyOp60
 70
     1
102
RTVSPropertyOp61
 70
     1
102
RTVSPropertyOp62
 70
     1
  0
ENDSEC
  0
EOF
