  0
SECTION
  2
HEADER
  9
$ACADVER
  1
AC1015
  9
$ACADMAINTVER
 70
    20
  9
$DWGCODEPAGE
  3
ANSI_932
  9
$INSBASE
 10
0.0
 20
0.0
 30
0.0
  9
$EXTMIN
 10
9.999997999999997
 20
10.0
 30
0.0
  9
$EXTMAX
 10
618.6969699999997
 20
351.637661
 30
0.0
  9
$LIMMIN
 10
0.000002
 20
0.0
  9
$LIMMAX
 10
641.9999989999999
 20
442.590909
  9
$ORTHOMODE
 70
     0
  9
$REGENMODE
 70
     1
  9
$FILLMODE
 70
     1
  9
$QTEXTMODE
 70
     0
  9
$MIRRTEXT
 70
     1
  9
$LTSCALE
 40
1.0
  9
$ATTMODE
 70
     1
  9
$TEXTSIZE
 40
2.5
  9
$TRACEWID
 40
1.0
  9
$TEXTSTYLE
  7
STANDARD
  9
$CLAYER
  8
0
  9
$CELTYPE
  6
BYLAYER
  9
$CECOLOR
 62
   256
  9
$CELTSCALE
 40
1.0
  9
$DISPSILH
 70
     0
  9
$DIMSCALE
 40
1.0
  9
$DIMASZ
 40
3.0
  9
$DIMEXO
 40
1.0
  9
$DIMDLI
 40
10.0
  9
$DIMRND
 40
0.0
  9
$DIMDLE
 40
0.0
  9
$DIMEXE
 40
1.0
  9
$DIMTP
 40
0.0
  9
$DIMTM
 40
0.0
  9
$DIMTXT
 40
3.2
  9
$DIMCEN
 40
0.0
  9
$DIMTSZ
 40
0.0
  9
$DIMTOL
 70
     0
  9
$DIMLIM
 70
     0
  9
$DIMTIH
 70
     0
  9
$DIMTOH
 70
     0
  9
$DIMSE1
 70
     0
  9
$DIMSE2
 70
     0
  9
$DIMTAD
 70
     3
  9
$DIMZIN
 70
     8
  9
$DIMBLK
  1

  9
$DIMASO
 70
     1
  9
$DIMSHO
 70
     1
  9
$DIMPOST
  1

  9
$DIMAPOST
  1

  9
$DIMALT
 70
     0
  9
$DIMALTD
 70
     2
  9
$DIMALTF
 40
25.4
  9
$DIMLFAC
 40
1.0
  9
$DIMTOFL
 70
     1
  9
$DIMTVP
 40
0.0
  9
$DIMTIX
 70
     0
  9
$DIMSOXD
 70
     0
  9
$DIMSAH
 70
     1
  9
$DIMBLK1
  1
OPEN
  9
$DIMBLK2
  1
OPEN
  9
$DIMSTYLE
  2
STANDARD
  9
$DIMCLRD
 70
     0
  9
$DIMCLRE
 70
     0
  9
$DIMCLRT
 70
     0
  9
$DIMTFAC
 40
1.0
  9
$DIMGAP
 40
1.0
  9
$DIMJUST
 70
     0
  9
$DIMSD1
 70
     0
  9
$DIMSD2
 70
     0
  9
$DIMTOLJ
 70
     1
  9
$DIMTZIN
 70
     0
  9
$DIMALTZ
 70
     0
  9
$DIMALTTZ
 70
     0
  9
$DIMUPT
 70
     0
  9
$DIMDEC
 70
     4
  9
$DIMTDEC
 70
     4
  9
$DIMALTU
 70
     2
  9
$DIMALTTD
 70
     2
  9
$DIMTXSTY
  7
STANDARD
  9
$DIMAUNIT
 70
     0
  9
$DIMADEC
 70
     0
  9
$DIMALTRND
 40
0.0
  9
$DIMAZIN
 70
     0
  9
$DIMDSEP
 70
    46
  9
$DIMATFIT
 70
     3
  9
$DIMFRAC
 70
     0
  9
$DIMLDRBLK
  1
OPEN
  9
$DIMLUNIT
 70
     2
  9
$DIMLWD
 70
    -2
  9
$DIMLWE
 70
    -2
  9
$DIMTMOVE
 70
     0
  9
$LUNITS
 70
     2
  9
$LUPREC
 70
     4
  9
$SKETCHINC
 40
1.0
  9
$FILLETRAD
 40
0.0
  9
$AUNITS
 70
     0
  9
$AUPREC
 70
     0
  9
$MENU
  1
.
  9
$ELEVATION
 40
0.0
  9
$PELEVATION
 40
0.0
  9
$THICKNESS
 40
0.0
  9
$LIMCHECK
 70
     0
  9
$CHAMFERA
 40
0.0
  9
$CHAMFERB
 40
0.0
  9
$CHAMFERC
 40
0.0
  9
$CHAMFERD
 40
0.0
  9
$SKPOLY
 70
     0
  9
$TDCREATE
 40
2452065.587445000
  9
$TDUCREATE
 40
2452065.212445000
  9
$TDUPDATE
 40
2457192.641826690
  9
$TDUUPDATE
 40
2457192.266826690
  9
$TDINDWG
 40
0.3127540509
  9
$TDUSRTIMER
 40
0.3127533681
  9
$USRTIMER
 70
     1
  9
$ANGBASE
 50
0.0
  9
$ANGDIR
 70
     0
  9
$PDMODE
 70
     0
  9
$PDSIZE
 40
0.0
  9
$PLINEWID
 40
0.0
  9
$SPLFRAME
 70
     0
  9
$SPLINETYPE
 70
     6
  9
$SPLINESEGS
 70
     8
  9
$HANDSEED
  5
5FB0
  9
$SURFTAB1
 70
     6
  9
$SURFTAB2
 70
     6
  9
$SURFTYPE
 70
     6
  9
$SURFU
 70
     6
  9
$SURFV
 70
     6
  9
$UCSBASE
  2

  9
$UCSNAME
  2

  9
$UCSORG
 10
0.0
 20
0.0
 30
0.0
  9
$UCSXDIR
 10
1.0
 20
0.0
 30
0.0
  9
$UCSYDIR
 10
0.0
 20
1.0
 30
0.0
  9
$UCSORTHOREF
  2

  9
$UCSORTHOVIEW
 70
     0
  9
$UCSORGTOP
 10
0.0
 20
0.0
 30
0.0
  9
$UCSORGBOTTOM
 10
0.0
 20
0.0
 30
0.0
  9
$UCSORGLEFT
 10
0.0
 20
0.0
 30
0.0
  9
$UCSORGRIGHT
 10
0.0
 20
0.0
 30
0.0
  9
$UCSORGFRONT
 10
0.0
 20
0.0
 30
0.0
  9
$UCSORGBACK
 10
0.0
 20
0.0
 30
0.0
  9
$PUCSBASE
  2

  9
$PUCSNAME
  2

  9
$PUCSORG
 10
0.0
 20
0.0
 30
0.0
  9
$PUCSXDIR
 10
1.0
 20
0.0
 30
0.0
  9
$PUCSYDIR
 10
0.0
 20
1.0
 30
0.0
  9
$PUCSORTHOREF
  2

  9
$PUCSORTHOVIEW
 70
     0
  9
$PUCSORGTOP
 10
0.0
 20
0.0
 30
0.0
  9
$PUCSORGBOTTOM
 10
0.0
 20
0.0
 30
0.0
  9
$PUCSORGLEFT
 10
0.0
 20
0.0
 30
0.0
  9
$PUCSORGRIGHT
 10
0.0
 20
0.0
 30
0.0
  9
$PUCSORGFRONT
 10
0.0
 20
0.0
 30
0.0
  9
$PUCSORGBACK
 10
0.0
 20
0.0
 30
0.0
  9
$USERI1
 70
     0
  9
$USERI2
 70
     0
  9
$USERI3
 70
     0
  9
$USERI4
 70
     0
  9
$USERI5
 70
     0
  9
$USERR1
 40
0.0
  9
$USERR2
 40
0.0
  9
$USERR3
 40
0.0
  9
$USERR4
 40
0.0
  9
$USERR5
 40
0.0
  9
$WORLDVIEW
 70
     1
  9
$SHADEDGE
 70
     3
  9
$SHADEDIF
 70
    70
  9
$TILEMODE
 70
     1
  9
$MAXACTVP
 70
    48
  9
$PINSBASE
 10
0.0
 20
0.0
 30
0.0
  9
$PLIMCHECK
 70
     0
  9
$PEXTMIN
 10
1.000000000000000E+20
 20
1.000000000000000E+20
 30
1.000000000000000E+20
  9
$PEXTMAX
 10
-1.000000000000000E+20
 20
-1.000000000000000E+20
 30
-1.000000000000000E+20
  9
$PLIMMIN
 10
0.0
 20
0.0
  9
$PLIMMAX
 10
420.0
 20
297.0
  9
$UNITMODE
 70
     0
  9
$VISRETAIN
 70
     1
  9
$PLINEGEN
 70
     0
  9
$PSLTSCALE
 70
     1
  9
$TREEDEPTH
 70
  3020
  9
$CMLSTYLE
  2
STANDARD
  9
$CMLJUST
 70
     0
  9
$CMLSCALE
 40
1.0
  9
$PROXYGRAPHICS
 70
     1
  9
$MEASUREMENT
 70
     0
  9
$CELWEIGHT
370
    -1
  9
$ENDCAPS
280
     0
  9
$JOINSTYLE
280
     0
  9
$LWDISPLAY
290
     0
  9
$INSUNITS
 70
     0
  9
$HYPERLINKBASE
  1

  9
$STYLESHEET
  1

  9
$XEDIT
290
     1
  9
$CEPSNTYPE
380
     0
  9
$PSTYLEMODE
290
     1
  9
$FINGERPRINTGUID
  2
{DA6CAC7D-9427-433A-850E-BBC135DDEA7B}
  9
$VERSIONGUID
  2
{9C94DAD2-2EB9-45DF-9F8F-124659E147C8}
  9
$EXTNAMES
290
     1
  9
$PSVPSCALE
 40
0.0
  9
$OLESTARTUP
290
     0
  0
ENDSEC
  0
SECTION
  2
CLASSES
  0
CLASS
  1
ACDBDICTIONARYWDFLT
  2
AcDbDictionaryWithDefault
  3
ObjectDBX Classes
 90
        0
280
     0
281
     0
  0
CLASS
  1
ACDBPLACEHOLDER
  2
AcDbPlaceHolder
  3
ObjectDBX Classes
 90
        0
280
     0
281
     0
  0
CLASS
  1
LAYOUT
  2
AcDbLayout
  3
ObjectDBX Classes
 90
        0
280
     0
281
     0
  0
CLASS
  1
DICTIONARYVAR
  2
AcDbDictionaryVar
  3
ObjectDBX Classes
 90
        0
280
     0
281
     0
  0
CLASS
  1
MATERIAL
  2
AcDbMaterial
  3
ObjectDBX Classes
 90
     1153
280
     0
281
     0
  0
CLASS
  1
VISUALSTYLE
  2
AcDbVisualStyle
  3
ObjectDBX Classes
 90
     4095
280
     0
281
     0
  0
CLASS
  1
TABLESTYLE
  2
AcDbTableStyle
  3
ObjectDBX Classes
 90
     4095
280
     0
281
     0
  0
CLASS
  1
SCALE
  2
AcDbScale
  3
ObjectDBX Classes
 90
     1153
280
     0
281
     0
  0
CLASS
  1
MLEADERSTYLE
  2
AcDbMLeaderStyle
  3
ACDB_MLEADERSTYLE_CLASS
 90
     4095
280
     0
281
     0
  0
CLASS
  1
ACDBSECTIONVIEWSTYLE
  2
AcDbSectionViewStyle
  3
ObjectDBX Classes
 90
     1025
280
     0
281
     0
  0
CLASS
  1
ACDBDETAILVIEWSTYLE
  2
AcDbDetailViewStyle
  3
ObjectDBX Classes
 90
     1025
280
     0
281
     0
  0
CLASS
  1
CELLSTYLEMAP
  2
AcDbCellStyleMap
  3
ObjectDBX Classes
 90
     1152
280
     0
281
     0
  0
ENDSEC
  0
SECTION
  2
TABLES
  0
TABLE
  2
VPORT
  5
5C8E
330
0
100
AcDbSymbolTable
 70
     1
  0
VPORT
  5
5EFA
330
5C8E
100
AcDbSymbolTableRecord
100
AcDbViewportTableRecord
  2
*ACTIVE
 70
     0
 10
0.0
 20
0.0
 11
1.0
 21
1.0
 12
419.1461436351393
 22
180.825698064818
 13
0.0
 23
0.0
 14
10.0
 24
10.0
 15
10.0
 25
10.0
 16
0.0
 26
0.0
 36
1.0
 17
0.0
 27
0.0
 37
0.0
 40
349.9044020482137
 41
1.899603698811096
 42
50.0
 43
0.0
 44
0.0
 50
0.0
 51
0.0
 71
     0
 72
   100
 73
     1
 74
     0
 75
     0
 76
     0
 77
     0
 78
     0
281
     0
 65
     1
110
0.0
120
0.0
130
0.0
111
1.0
121
0.0
131
0.0
112
0.0
122
1.0
132
0.0
 79
     0
146
0.0
1001
ACAD_NAV_VCDISPLAY
1070
     3
  0
ENDTAB
  0
TABLE
  2
LTYPE
  5
5C8B
330
0
100
AcDbSymbolTable
 70
     4
  0
LTYPE
  5
5C99
330
5C8B
100
AcDbSymbolTableRecord
100
AcDbLinetypeTableRecord
  2
BYBLOCK
 70
     0
  3

 72
    65
 73
     0
 40
0.0
  0
LTYPE
  5
5C9A
330
5C8B
100
AcDbSymbolTableRecord
100
AcDbLinetypeTableRecord
  2
BYLAYER
 70
     0
  3

 72
    65
 73
     0
 40
0.0
  0
LTYPE
  5
5C9B
330
5C8B
100
AcDbSymbolTableRecord
100
AcDbLinetypeTableRecord
  2
CONTINUOUS
 70
     0
  3
Solid line
 72
    65
 73
     0
 40
0.0
  0
LTYPE
  5
5CA9
330
5C8B
100
AcDbSymbolTableRecord
100
AcDbLinetypeTableRecord
  2
DASHED
 70
     0
  3
Dashed __ __ __ __ __ __ __ __ __ __ __ __ __ _
 72
    65
 73
     2
 40
19.05
 49
12.7
 74
     0
 49
-6.349999999999997
 74
     0
  0
LTYPE
  5
5CAA
330
5C8B
100
AcDbSymbolTableRecord
100
AcDbLinetypeTableRecord
  2
CENTER
 70
     0
  3
Center ____ _ ____ _ ____ _ ____ _ ____ _ ____
 72
    65
 73
     4
 40
50.8
 49
31.75
 74
     0
 49
-6.349999999999997
 74
     0
 49
6.349999999999997
 74
     0
 49
-6.349999999999997
 74
     0
  0
LTYPE
  5
5CAB
330
5C8B
100
AcDbSymbolTableRecord
100
AcDbLinetypeTableRecord
  2
PHANTOM
 70
     0
  3
Phantom ______  __  __  ______  __  __  ______
 72
    65
 73
     6
 40
63.5
 49
31.75
 74
     0
 49
-6.349999999999997
 74
     0
 49
6.349999999999997
 74
     0
 49
-6.349999999999997
 74
     0
 49
6.349999999999997
 74
     0
 49
-6.349999999999997
 74
     0
  0
ENDTAB
  0
TABLE
  2
LAYER
  5
5C88
330
0
100
AcDbSymbolTable
 70
     8
  0
LAYER
  5
5C96
102
{ACAD_XDICTIONARY
360
5F54
102
}
330
5C88
100
AcDbSymbolTableRecord
100
AcDbLayerTableRecord
  2
0
 70
     0
 62
     7
  6
CONTINUOUS
370
    -3
390
5F03
  0
LAYER
  5
5CAC
102
{ACAD_XDICTIONARY
360
5F56
102
}
330
5C88
100
AcDbSymbolTableRecord
100
AcDbLayerTableRecord
  2
4
 70
     0
 62
     1
  6
CENTER
370
    -3
390
5F03
  0
LAYER
  5
5CAD
102
{ACAD_XDICTIONARY
360
5F58
102
}
330
5C88
100
AcDbSymbolTableRecord
100
AcDbLayerTableRecord
  2
5
 70
     0
 62
     6
  6
PHANTOM
370
    -3
390
5F03
  0
LAYER
  5
5CAE
102
{ACAD_XDICTIONARY
360
5F5A
102
}
330
5C88
100
AcDbSymbolTableRecord
100
AcDbLayerTableRecord
  2
1
 70
     0
 62
     7
  6
CONTINUOUS
370
    -3
390
5F03
  0
LAYER
  5
5CAF
102
{ACAD_XDICTIONARY
360
5F5C
102
}
330
5C88
100
AcDbSymbolTableRecord
100
AcDbLayerTableRecord
  2
2
 70
     0
 62
     4
  6
CONTINUOUS
370
    -3
390
5F03
  0
LAYER
  5
5CB0
102
{ACAD_XDICTIONARY
360
5F5E
102
}
330
5C88
100
AcDbSymbolTableRecord
100
AcDbLayerTableRecord
  2
3
 70
     0
 62
     2
  6
DASHED
370
    -3
390
5F03
  0
LAYER
  5
5CB1
102
{ACAD_XDICTIONARY
360
5F60
102
}
330
5C88
100
AcDbSymbolTableRecord
100
AcDbLayerTableRecord
  2
6
 70
     0
 62
     5
  6
CONTINUOUS
370
    -3
390
5F03
  0
LAYER
  5
5CB2
102
{ACAD_XDICTIONARY
360
5F62
102
}
330
5C88
100
AcDbSymbolTableRecord
100
AcDbLayerTableRecord
  2
7
 70
     0
 62
     3
  6
CONTINUOUS
370
    -3
390
5F03
  0
ENDTAB
  0
TABLE
  2
STYLE
  5
5C89
330
0
100
AcDbSymbolTable
 70
     1
  0
STYLE
  5
5C97
330
5C89
100
AcDbSymbolTableRecord
100
AcDbTextStyleTableRecord
  2
STANDARD
 70
     0
 40
0.0
 41
1.0
 50
0.0
 71
     0
 42
2.5
  3
simplex.shx
  4

  0
ENDTAB
  0
TABLE
  2
VIEW
  5
5C8C
330
0
100
AcDbSymbolTable
 70
     0
  0
ENDTAB
  0
TABLE
  2
UCS
  5
5C8D
330
0
100
AcDbSymbolTable
 70
     0
  0
ENDTAB
  0
TABLE
  2
APPID
  5
5C8F
330
0
100
AcDbSymbolTable
 70
     7
  0
APPID
  5
5C98
330
5C8F
100
AcDbSymbolTableRecord
100
AcDbRegAppTableRecord
  2
ACAD
 70
     0
  0
APPID
  5
5CB3
330
5C8F
100
AcDbSymbolTableRecord
100
AcDbRegAppTableRecord
  2
CONTENTTABDATA
 70
     0
  0
APPID
  5
5CB4
330
5C8F
100
AcDbSymbolTableRecord
100
AcDbRegAppTableRecord
  2
CONTENTCURRENTTAB
 70
     0
  0
APPID
  5
5CB5
330
5C8F
100
AcDbSymbolTableRecord
100
AcDbRegAppTableRecord
  2
CONTENTBLOCKICON
 70
     0
  0
APPID
  5
5CB6
330
5C8F
100
AcDbSymbolTableRecord
100
AcDbRegAppTableRecord
  2
CONTENTBLOCKDESCRIPTION
 70
     0
  0
APPID
  5
5F6E
330
5C8F
100
AcDbSymbolTableRecord
100
AcDbRegAppTableRecord
  2
ACAD_NAV_VCDISPLAY
 70
     0
  0
APPID
  5
5FA7
330
5C8F
100
AcDbSymbolTableRecord
100
AcDbRegAppTableRecord
  2
ACAD_MLEADERVER
 70
     0
  0
ENDTAB
  0
TABLE
  2
DIMSTYLE
  5
5C90
330
0
100
AcDbSymbolTable
 70
     1
100
AcDbDimStyleTable
 71
     0
  0
DIMSTYLE
105
5CB7
330
5C90
100
AcDbSymbolTableRecord
100
AcDbDimStyleTableRecord
  2
STANDARD
 70
     0
 41
3.0
 42
1.0
 43
10.0
 44
1.0
 73
     0
 74
     0
 77
     3
 78
     8
140
3.2
141
0.0
147
1.0
172
     1
173
     1
284
     8
285
     8
286
     8
340
5C97
  0
ENDTAB
  0
TABLE
  2
BLOCK_RECORD
  5
5C87
330
0
100
AcDbSymbolTable
 70
     1
  0
BLOCK_RECORD
  5
5CA4
102
{ACAD_XDICTIONARY
360
5EFD
102
}
330
5C87
100
AcDbSymbolTableRecord
100
AcDbBlockTableRecord
  2
*MODEL_SPACE
340
5F51
  0
BLOCK_RECORD
  5
5CA0
102
{ACAD_XDICTIONARY
360
5EFB
102
}
330
5C87
100
AcDbSymbolTableRecord
100
AcDbBlockTableRecord
  2
*PAPER_SPACE
340
5F52
  0
BLOCK_RECORD
  5
5CBF
330
5C87
100
AcDbSymbolTableRecord
100
AcDbBlockTableRecord
  2
_OPEN
340
0
  0
ENDTAB
  0
ENDSEC
  0
SECTION
  2
BLOCKS
  0
BLOCK
  5
5CA5
330
5CA4
100
AcDbEntity
  8
0
100
AcDbBlockBegin
  2
*MODEL_SPACE
 70
     0
 10
0.0
 20
0.0
 30
0.0
  3
*MODEL_SPACE
  1

  0
ENDBLK
  5
5CA6
330
5CA4
100
AcDbEntity
  8
0
100
AcDbBlockEnd
  0
BLOCK
  5
5CA1
330
5CA0
100
AcDbEntity
 67
     1
  8
0
100
AcDbBlockBegin
  2
*PAPER_SPACE
 70
     0
 10
0.0
 20
0.0
 30
0.0
  3
*PAPER_SPACE
  1

  0
ENDBLK
  5
5CA2
330
5CA0
100
AcDbEntity
 67
     1
  8
0
100
AcDbBlockEnd
  0
BLOCK
  5
5CC0
330
5CBF
100
AcDbEntity
  8
0
100
AcDbBlockBegin
  2
_OPEN
 70
     0
 10
0.0
 20
0.0
 30
0.0
  3
_OPEN
  1

  0
LINE
  5
5CC1
330
5CBF
100
AcDbEntity
  8
0
  6
ByBlock
 62
     0
100
AcDbLine
 10
-1.0
 20
0.166667
 30
0.0
 11
0.0
 21
0.0
 31
0.0
  0
LINE
  5
5CC2
330
5CBF
100
AcDbEntity
  8
0
  6
ByBlock
 62
     0
100
AcDbLine
 10
0.0
 20
0.0
 30
0.0
 11
-1.0
 21
-0.166667
 31
0.0
  0
LINE
  5
5CC3
330
5CBF
100
AcDbEntity
  8
0
  6
ByBlock
 62
     0
100
AcDbLine
 10
0.0
 20
0.0
 30
0.0
 11
-1.0
 21
0.0
 31
0.0
  0
ENDBLK
  5
5CC4
330
5CBF
100
AcDbEntity
  8
0
100
AcDbBlockEnd
  0
ENDSEC
  0
SECTION
  2
ENTITIES
  0
TEXT
  5
5CC5
330
5CA4
100
AcDbEntity
  8
4
  6
CENTER
100
AcDbText
 10
23.979509
 20
10.0
 30
0.0
 40
1.399999999999999
  1
4
100
AcDbText
  0
TEXT
  5
5CC6
330
5CA4
100
AcDbEntity
  8
7
  6
Continuous
100
AcDbText
 10
9.999997999999999
 20
26.000001
 30
0.0
 40
3.0
  1
CODE No.13131
100
AcDbText
  0
TEXT
  5
5CC7
330
5CA4
100
AcDbEntity
  8
7
  6
Continuous
100
AcDbText
 10
9.999997999999999
 20
18.000001
 30
0.0
 40
3.0
  1
TYPE No.THA-333-1B
100
AcDbText
  0
TEXT
  5
5CC8
330
5CA4
100
AcDbEntity
  8
1
  6
Continuous
100
AcDbText
 10
9.999997999999999
 20
10.000001
 30
0.0
 40
1.399999999999999
  1
LAYER
100
AcDbText
  0
TEXT
  5
5CC9
330
5CA4
100
AcDbEntity
  8
2
  6
Continuous
100
AcDbText
 10
19.979509
 20
10.0
 30
0.0
 40
1.399999999999999
  1
2
100
AcDbText
  0
TEXT
  5
5CCA
330
5CA4
100
AcDbEntity
  8
3
  6
DASHED
100
AcDbText
 10
21.97950899999999
 20
10.0
 30
0.0
 40
1.399999999999999
  1
3
100
AcDbText
  0
TEXT
  5
5CCB
330
5CA4
100
AcDbEntity
  8
1
  6
Continuous
100
AcDbText
 10
17.979509
 20
10.0
 30
0.0
 40
1.399999999999999
  1
1
100
AcDbText
  0
TEXT
  5
5CCC
330
5CA4
100
AcDbEntity
  8
5
  6
PHANTOM
100
AcDbText
 10
25.979509
 20
10.0
 30
0.0
 40
1.399999999999999
  1
5
100
AcDbText
  0
TEXT
  5
5CCD
330
5CA4
100
AcDbEntity
  8
6
  6
Continuous
100
AcDbText
 10
27.979509
 20
10.0
 30
0.0
 40
1.399999999999999
  1
6
100
AcDbText
  0
TEXT
  5
5CCE
330
5CA4
100
AcDbEntity
  8
7
  6
Continuous
100
AcDbText
 10
29.97950900000001
 20
10.0
 30
0.0
 40
1.399999999999999
  1
7
100
AcDbText
  0
LINE
  5
5CCF
330
5CA4
100
AcDbEntity
  8
4
  6
CENTER
100
AcDbLine
 10
219.49705
 20
195.637661
 30
0.0
 11
296.09705
 21
195.637661
 31
0.0
  0
LINE
  5
5CD0
330
5CA4
100
AcDbEntity
  8
1
  6
Continuous
100
AcDbLine
 10
351.59701
 20
209.205392
 30
0.0
 11
373.59701
 21
221.907098
 31
0.0
  0
LINE
  5
5CD1
330
5CA4
100
AcDbEntity
  8
1
  6
Continuous
100
AcDbLine
 10
351.59701
 20
182.06993
 30
0.0
 11
373.59701
 21
169.368224
 31
0.0
  0
LINE
  5
5CD2
330
5CA4
100
AcDbEntity
  8
1
  6
Continuous
100
AcDbLine
 10
47.53897199999999
 20
171.3380699999999
 30
0.0
 11
51.03897199999999
 21
179.3380699999999
 31
0.0
  0
LINE
  5
5CD3
330
5CA4
100
AcDbEntity
  8
1
  6
Continuous
100
AcDbLine
 10
54.99705
 20
170.637661
 30
0.0
 11
47.99705
 21
170.637661
 31
0.0
  0
ARC
  5
5CD4
330
5CA4
100
AcDbEntity
  8
1
  6
Continuous
100
AcDbCircle
 10
51.49705
 20
195.637661
 30
0.0
 40
22.0
100
AcDbArc
 50
0.0
 51
180.0
  0
LINE
  5
5CD5
330
5CA4
100
AcDbEntity
  8
4
  6
CENTER
100
AcDbLine
 10
85.49705000000001
 20
195.637661
 30
0.0
 11
17.49705
 21
195.637661
 31
0.0
  0
CIRCLE
  5
5CD6
330
5CA4
100
AcDbEntity
  8
1
  6
Continuous
100
AcDbCircle
 10
51.49705
 20
195.637661
 30
0.0
 40
31.0
  0
LINE
  5
5CD7
330
5CA4
100
AcDbEntity
  8
1
  6
Continuous
100
AcDbLine
 10
29.49705
 20
195.637661
 30
0.0
 11
29.49705
 21
174.513031
 31
0.0
  0
ARC
  5
5CD8
330
5CA4
100
AcDbEntity
  8
1
  6
Continuous
100
AcDbCircle
 10
47.99705
 20
171.137661
 30
0.0
 40
0.5
100
AcDbArc
 50
156.370622
 51
270.0
  0
LINE
  5
5CD9
330
5CA4
100
AcDbEntity
  8
1
  6
Continuous
100
AcDbLine
 10
351.09701
 20
208.3393669999999
 30
0.0
 11
351.09701
 21
182.935955
 31
0.0
  0
ARC
  5
5CDA
330
5CA4
100
AcDbEntity
  8
1
  6
Continuous
100
AcDbCircle
 10
352.0970099999997
 20
182.935955
 30
0.0
 40
1.0
100
AcDbArc
 50
180.0
 51
239.9999999999999
  0
ARC
  5
5CDB
330
5CA4
100
AcDbEntity
  8
1
  6
Continuous
100
AcDbCircle
 10
352.0970099999997
 20
208.3393669999999
 30
0.0
 40
1.0
100
AcDbArc
 50
119.9999999999999
 51
180.0
  0
LINE
  5
5CDC
330
5CA4
100
AcDbEntity
  8
1
  6
Continuous
100
AcDbLine
 10
134.89705
 20
173.637661
 30
0.0
 11
141.9970499999998
 21
173.637661
 31
0.0
  0
LINE
  5
5CDD
330
5CA4
100
AcDbEntity
  8
1
  6
Continuous
100
AcDbLine
 10
132.602053
 20
217.7726639999999
 30
0.0
 11
139.3469159999999
 21
226.4446309999999
 31
0.0
  0
LINE
  5
5CDE
330
5CA4
100
AcDbEntity
  8
1
  6
Continuous
100
AcDbLine
 10
396.59701
 20
209.205392
 30
0.0
 11
374.59701
 21
221.907098
 31
0.0
  0
LINE
  5
5CDF
330
5CA4
100
AcDbEntity
  8
4
  6
CENTER
100
AcDbLine
 10
51.49705
 20
229.6376609999998
 30
0.0
 11
51.49705
 21
161.637661
 31
0.0
  0
LINE
  5
5CE0
330
5CA4
100
AcDbEntity
  8
1
  6
Continuous
100
AcDbLine
 10
132.49705
 20
165.1376609999998
 30
0.0
 11
132.49705
 21
217.4661069999999
 31
0.0
  0
LINE
  5
5CE1
330
5CA4
100
AcDbEntity
  8
1
  6
Continuous
100
AcDbLine
 10
396.59701
 20
182.06993
 30
0.0
 11
374.59701
 21
169.368224
 31
0.0
  0
LINE
  5
5CE2
330
5CA4
100
AcDbEntity
  8
1
  6
Continuous
100
AcDbLine
 10
51.955129
 20
179.3380699999999
 30
0.0
 11
55.45512900000001
 21
171.3380699999999
 31
0.0
  0
LINE
  5
5CE3
330
5CA4
100
AcDbEntity
  8
1
  6
Continuous
100
AcDbLine
 10
73.49705
 20
195.637661
 30
0.0
 11
73.49705
 21
174.513031
 31
0.0
  0
ARC
  5
5CE4
330
5CA4
100
AcDbEntity
  8
1
  6
Continuous
100
AcDbCircle
 10
374.09701
 20
170.234249
 30
0.0
 40
1.0
100
AcDbArc
 50
239.9999999999999
 51
300.0
  0
ARC
  5
5CE5
330
5CA4
100
AcDbEntity
  8
1
  6
Continuous
100
AcDbCircle
 10
54.99705
 20
171.137661
 30
0.0
 40
0.5
100
AcDbArc
 50
270.0
 51
23.629378
  0
LINE
  5
5CE6
330
5CA4
100
AcDbEntity
  8
1
  6
Continuous
100
AcDbLine
 10
397.09701
 20
208.3393669999999
 30
0.0
 11
397.09701
 21
182.935955
 31
0.0
  0
ARC
  5
5CE7
330
5CA4
100
AcDbEntity
  8
1
  6
Continuous
100
AcDbCircle
 10
51.49705
 20
179.137661
 30
0.0
 40
0.5
100
AcDbArc
 50
23.629378
 51
156.370622
  0
ARC
  5
5CE8
330
5CA4
100
AcDbEntity
  8
1
  6
Continuous
100
AcDbCircle
 10
396.09701
 20
182.935955
 30
0.0
 40
1.0
100
AcDbArc
 50
300.0
 51
0.0
  0
ARC
  5
5CE9
330
5CA4
100
AcDbEntity
  8
1
  6
Continuous
100
AcDbCircle
 10
396.09701
 20
208.3393669999999
 30
0.0
 40
1.0
100
AcDbArc
 50
0.0
 51
60.0
  0
LINE
  5
5CEA
330
5CA4
100
AcDbEntity
  8
1
  6
Continuous
100
AcDbLine
 10
134.89705
 20
164.637661
 30
0.0
 11
134.89705
 21
173.637661
 31
0.0
  0
ARC
  5
5CEB
330
5CA4
100
AcDbEntity
  8
1
  6
Continuous
100
AcDbCircle
 10
132.9970499999997
 20
165.1376609999998
 30
0.0
 40
0.5
100
AcDbArc
 50
180.0
 51
270.0
  0
LINE
  5
5CEC
330
5CA4
100
AcDbEntity
  8
1
  6
Continuous
100
AcDbLine
 10
132.9970499999997
 20
164.637661
 30
0.0
 11
134.89705
 21
164.637661
 31
0.0
  0
ARC
  5
5CED
330
5CA4
100
AcDbEntity
  8
1
  6
Continuous
100
AcDbCircle
 10
374.09701
 20
221.0410729999999
 30
0.0
 40
1.0
100
AcDbArc
 50
60.0
 51
119.9999999999999
  0
ARC
  5
5CEE
330
5CA4
100
AcDbEntity
  8
1
  6
Continuous
100
AcDbCircle
 10
132.9970499999997
 20
217.4661069999999
 30
0.0
 40
0.5
100
AcDbArc
 50
142.1250159999999
 51
180.0
  0
LINE
  5
5CEF
330
5CA4
100
AcDbEntity
  8
1
  6
Continuous
100
AcDbLine
 10
236.792464
 20
169.734249
 30
0.0
 11
236.792464
 21
221.541073
 31
0.0
  0
LINE
  5
5CF0
330
5CA4
100
AcDbEntity
  8
1
  6
Continuous
100
AcDbLine
 10
242.792464
 20
169.734249
 30
0.0
 11
242.792464
 21
221.541073
 31
0.0
  0
LINE
  5
5CF1
330
5CA4
100
AcDbEntity
  8
1
  6
Continuous
100
AcDbLine
 10
234.792464
 20
173.637661
 30
0.0
 11
234.792464
 21
217.6376609999997
 31
0.0
  0
LINE
  5
5CF2
330
5CA4
100
AcDbEntity
  8
1
  6
Continuous
100
AcDbLine
 10
170.4970499999998
 20
202.831408
 30
0.0
 11
170.4970499999998
 21
213.6376609999998
 31
0.0
  0
LINE
  5
5CF3
330
5CA4
100
AcDbEntity
  8
1
  6
Continuous
100
AcDbLine
 10
153.49705
 20
202.831408
 30
0.0
 11
153.49705
 21
213.6376609999998
 31
0.0
  0
LINE
  5
5CF4
330
5CA4
100
AcDbEntity
  8
1
  6
Continuous
100
AcDbLine
 10
171.99705
 20
212.1376609999999
 30
0.0
 11
170.4970499999998
 21
213.6376609999998
 31
0.0
  0
LINE
  5
5CF5
330
5CA4
100
AcDbEntity
  8
1
  6
Continuous
100
AcDbLine
 10
151.4970499999997
 20
172.437661
 30
0.0
 11
151.4970499999997
 21
218.837661
 31
0.0
  0
LINE
  5
5CF6
330
5CA4
100
AcDbEntity
  8
1
  6
Continuous
100
AcDbLine
 10
148.89705
 20
226.637661
 30
0.0
 11
148.89705
 21
164.637661
 31
0.0
  0
LINE
  5
5CF7
330
5CA4
100
AcDbEntity
  8
1
  6
Continuous
100
AcDbLine
 10
149.1970499999998
 20
164.937661
 30
0.0
 11
149.1970499999998
 21
226.3376609999999
 31
0.0
  0
LINE
  5
5CF8
330
5CA4
100
AcDbEntity
  8
1
  6
Continuous
100
AcDbLine
 10
139.49705
 20
195.637661
 30
0.0
 11
139.49705
 21
225.82325
 31
0.0
  0
LINE
  5
5CF9
330
5CA4
100
AcDbEntity
  8
1
  6
Continuous
100
AcDbLine
 10
149.4970499999998
 20
165.637661
 30
0.0
 11
149.4970499999998
 21
225.6376609999998
 31
0.0
  0
LINE
  5
5CFA
330
5CA4
100
AcDbEntity
  8
1
  6
Continuous
100
AcDbLine
 10
150.4970499999997
 20
165.637661
 30
0.0
 11
150.4970499999997
 21
225.6376609999998
 31
0.0
  0
LINE
  5
5CFB
330
5CA4
100
AcDbEntity
  8
2
  6
Continuous
100
AcDbLine
 10
151.4970499999997
 20
177.6376609999998
 30
0.0
 11
153.49705
 21
178.7201609999999
 31
0.0
  0
LINE
  5
5CFC
330
5CA4
100
AcDbEntity
  8
1
  6
Continuous
100
AcDbLine
 10
170.4970499999998
 20
177.6376609999998
 30
0.0
 11
170.4970499999998
 21
188.4439139999997
 31
0.0
  0
LINE
  5
5CFD
330
5CA4
100
AcDbEntity
  8
1
  6
Continuous
100
AcDbLine
 10
153.49705
 20
177.6376609999998
 30
0.0
 11
153.49705
 21
188.4439139999997
 31
0.0
  0
LINE
  5
5CFE
330
5CA4
100
AcDbEntity
  8
1
  6
Continuous
100
AcDbLine
 10
170.4970499999998
 20
177.6376609999998
 30
0.0
 11
171.99705
 21
179.137661
 31
0.0
  0
ARC
  5
5CFF
330
5CA4
100
AcDbEntity
  8
1
  6
Continuous
100
AcDbCircle
 10
235.792464
 20
173.637661
 30
0.0
 40
1.0
100
AcDbArc
 50
180.0
 51
270.0
  0
LINE
  5
5D00
330
5CA4
100
AcDbEntity
  8
1
  6
Continuous
100
AcDbLine
 10
149.1970499999998
 20
164.937661
 30
0.0
 11
148.89705
 21
164.637661
 31
0.0
  0
LINE
  5
5D01
330
5CA4
100
AcDbEntity
  8
1
  6
Continuous
100
AcDbLine
 10
141.9970499999998
 20
164.637661
 30
0.0
 11
141.9970499999998
 21
173.637661
 31
0.0
  0
LINE
  5
5D02
330
5CA4
100
AcDbEntity
  8
1
  6
Continuous
100
AcDbLine
 10
141.9970499999998
 20
164.637661
 30
0.0
 11
148.89705
 21
164.637661
 31
0.0
  0
LINE
  5
5D03
330
5CA4
100
AcDbEntity
  8
1
  6
Continuous
100
AcDbLine
 10
149.4970499999998
 20
165.637661
 30
0.0
 11
150.4970499999997
 21
165.637661
 31
0.0
  0
LINE
  5
5D04
330
5CA4
100
AcDbEntity
  8
1
  6
Continuous
100
AcDbLine
 10
149.1970499999998
 20
167.387661
 30
0.0
 11
149.4970499999998
 21
167.6876609999998
 31
0.0
  0
ARC
  5
5D05
330
5CA4
100
AcDbEntity
  8
1
  6
Continuous
100
AcDbCircle
 10
151.1970499999998
 20
176.341507
 30
0.0
 40
0.3
100
AcDbArc
 50
270.0
 51
0.0
  0
ARC
  5
5D06
330
5CA4
100
AcDbEntity
  8
1
  6
Continuous
100
AcDbCircle
 10
151.1970499999998
 20
172.437661
 30
0.0
 40
0.3
100
AcDbArc
 50
270.0
 51
0.0
  0
LINE
  5
5D07
330
5CA4
100
AcDbEntity
  8
1
  6
Continuous
100
AcDbLine
 10
151.1970499999998
 20
176.041507
 30
0.0
 11
150.4970499999997
 21
176.041507
 31
0.0
  0
LINE
  5
5D08
330
5CA4
100
AcDbEntity
  8
1
  6
Continuous
100
AcDbLine
 10
150.4970499999997
 20
172.137661
 30
0.0
 11
151.1970499999998
 21
172.137661
 31
0.0
  0
LINE
  5
5D09
330
5CA4
100
AcDbEntity
  8
1
  6
Continuous
100
AcDbLine
 10
242.292464
 20
169.234249
 30
0.0
 11
237.292464
 21
169.234249
 31
0.0
  0
ARC
  5
5D0A
330
5CA4
100
AcDbEntity
  8
1
  6
Continuous
100
AcDbCircle
 10
237.292464
 20
169.734249
 30
0.0
 40
0.5
100
AcDbArc
 50
180.0
 51
270.0
  0
ARC
  5
5D0B
330
5CA4
100
AcDbEntity
  8
1
  6
Continuous
100
AcDbCircle
 10
242.292464
 20
169.734249
 30
0.0
 40
0.5
100
AcDbArc
 50
270.0
 51
0.0
  0
LINE
  5
5D0C
330
5CA4
100
AcDbEntity
  8
1
  6
Continuous
100
AcDbLine
 10
235.792464
 20
172.637661
 30
0.0
 11
236.792464
 21
172.637661
 31
0.0
  0
LINE
  5
5D0D
330
5CA4
100
AcDbEntity
  8
1
  6
Continuous
100
AcDbLine
 10
151.4970499999997
 20
177.6376609999998
 30
0.0
 11
170.4970499999998
 21
177.6376609999998
 31
0.0
  0
LINE
  5
5D0E
330
5CA4
100
AcDbEntity
  8
2
  6
Continuous
100
AcDbLine
 10
151.4970499999997
 20
188.4439139999997
 30
0.0
 11
170.4970529999999
 21
202.8314029999999
 31
0.0
  0
LINE
  5
5D0F
330
5CA4
100
AcDbEntity
  8
1
  6
Continuous
100
AcDbLine
 10
151.4970499999997
 20
188.4439139999997
 30
0.0
 11
170.497051
 21
188.4439139999997
 31
0.0
  0
LINE
  5
5D10
330
5CA4
100
AcDbEntity
  8
1
  6
Continuous
100
AcDbLine
 10
151.4970499999997
 20
202.831408
 30
0.0
 11
170.497051
 21
202.831408
 31
0.0
  0
LINE
  5
5D11
330
5CA4
100
AcDbEntity
  8
2
  6
Continuous
100
AcDbLine
 10
151.4970499999997
 20
202.831408
 30
0.0
 11
170.4970499999998
 21
188.4439129999999
 31
0.0
  0
ARC
  5
5D12
330
5CA4
100
AcDbEntity
  8
1
  6
Continuous
100
AcDbCircle
 10
153.99705
 20
195.637661
 30
0.0
 40
18.0
100
AcDbArc
 50
336.443536
 51
23.55646399999999
  0
LINE
  5
5D13
330
5CA4
100
AcDbEntity
  8
1
  6
Continuous
100
AcDbLine
 10
172.4970499999997
 20
179.637661
 30
0.0
 11
172.4970499999997
 21
207.435987
 31
0.0
  0
LINE
  5
5D14
330
5CA4
100
AcDbEntity
  8
1
  6
Continuous
100
AcDbLine
 10
171.99705
 20
179.137661
 30
0.0
 11
171.99705
 21
212.1376609999999
 31
0.0
  0
LINE
  5
5D15
330
5CA4
100
AcDbEntity
  8
1
  6
Continuous
100
AcDbLine
 10
179.4970499999998
 20
188.990857
 30
0.0
 11
179.4970499999998
 21
202.2844649999999
 31
0.0
  0
LINE
  5
5D16
330
5CA4
100
AcDbEntity
  8
1
  6
Continuous
100
AcDbLine
 10
174.4970499999998
 20
179.637661
 30
0.0
 11
174.4970499999998
 21
209.304069
 31
0.0
  0
LINE
  5
5D17
330
5CA4
100
AcDbEntity
  8
1
  6
Continuous
100
AcDbLine
 10
174.4970499999998
 20
189.137661
 30
0.0
 11
172.4970499999997
 21
189.137661
 31
0.0
  0
LINE
  5
5D18
330
5CA4
100
AcDbEntity
  8
1
  6
Continuous
100
AcDbLine
 10
174.4970499999998
 20
187.637661
 30
0.0
 11
172.4970499999997
 21
187.637661
 31
0.0
  0
LINE
  5
5D19
330
5CA4
100
AcDbEntity
  8
1
  6
Continuous
100
AcDbLine
 10
174.4970499999998
 20
179.637661
 30
0.0
 11
172.4970499999997
 21
179.637661
 31
0.0
  0
LINE
  5
5D1A
330
5CA4
100
AcDbEntity
  8
1
  6
Continuous
100
AcDbLine
 10
242.292464
 20
182.358605
 30
0.0
 11
237.292464
 21
182.358605
 31
0.0
  0
LINE
  5
5D1B
330
5CA4
100
AcDbEntity
  8
2
  6
Continuous
100
AcDbLine
 10
153.49705
 20
178.7201609999999
 30
0.0
 11
171.57955
 21
178.7201609999999
 31
0.0
  0
LINE
  5
5D1C
330
5CA4
100
AcDbEntity
  8
1
  6
Continuous
100
AcDbLine
 10
171.99705
 20
186.637661
 30
0.0
 11
172.4970499999997
 21
186.637661
 31
0.0
  0
LINE
  5
5D1D
330
5CA4
100
AcDbEntity
  8
2
  6
Continuous
100
AcDbLine
 10
174.4970499999998
 20
190.6756579999999
 30
0.0
 11
179.1970499999999
 21
195.3399409999999
 31
0.0
  0
LINE
  5
5D1E
330
5CA4
100
AcDbEntity
  8
2
  6
Continuous
100
AcDbLine
 10
174.4970499999998
 20
193.65286
 30
0.0
 11
179.1970499999999
 21
188.988577
 31
0.0
  0
LINE
  5
5D1F
330
5CA4
100
AcDbEntity
  8
1
  6
Continuous
100
AcDbLine
 10
174.4970499999998
 20
188.6908569999999
 30
0.0
 11
179.1970499999999
 21
188.6908569999999
 31
0.0
  0
ARC
  5
5D20
330
5CA4
100
AcDbEntity
  8
1
  6
Continuous
100
AcDbCircle
 10
179.1970499999999
 20
188.990857
 30
0.0
 40
0.3
100
AcDbArc
 50
270.0
 51
0.0
  0
LINE
  5
5D21
330
5CA4
100
AcDbEntity
  8
1
  6
Continuous
100
AcDbLine
 10
173.99705
 20
209.9270799999999
 30
0.0
 11
171.99705
 21
209.9270799999999
 31
0.0
  0
LINE
  5
5D22
330
5CA4
100
AcDbEntity
  8
1
  6
Continuous
100
AcDbLine
 10
173.99705
 20
207.435987
 30
0.0
 11
171.99705
 21
207.435987
 31
0.0
  0
LINE
  5
5D23
330
5CA4
100
AcDbEntity
  8
1
  6
Continuous
100
AcDbLine
 10
171.99705
 20
212.1376609999999
 30
0.0
 11
173.99705
 21
212.1376609999999
 31
0.0
  0
LINE
  5
5D24
330
5CA4
100
AcDbEntity
  8
1
  6
Continuous
100
AcDbLine
 10
242.292464
 20
208.916717
 30
0.0
 11
237.292464
 21
208.916717
 31
0.0
  0
LINE
  5
5D25
330
5CA4
100
AcDbEntity
  8
1
  6
Continuous
100
AcDbLine
 10
171.99705
 20
204.637661
 30
0.0
 11
172.4970499999997
 21
204.637661
 31
0.0
  0
LINE
  5
5D26
330
5CA4
100
AcDbEntity
  8
1
  6
Continuous
100
AcDbLine
 10
174.4970499999998
 20
202.5844649999999
 30
0.0
 11
179.1970499999999
 21
202.5844649999999
 31
0.0
  0
LINE
  5
5D27
330
5CA4
100
AcDbEntity
  8
2
  6
Continuous
100
AcDbLine
 10
174.4970499999998
 20
197.622462
 30
0.0
 11
179.1970499999999
 21
202.286745
 31
0.0
  0
LINE
  5
5D28
330
5CA4
100
AcDbEntity
  8
2
  6
Continuous
100
AcDbLine
 10
174.4970499999998
 20
200.5996639999999
 30
0.0
 11
179.1970499999999
 21
195.9353809999998
 31
0.0
  0
LINE
  5
5D29
330
5CA4
100
AcDbEntity
  8
1
  6
Continuous
100
AcDbLine
 10
174.4970499999998
 20
195.637661
 30
0.0
 11
179.1970499999999
 21
195.637661
 31
0.0
  0
ARC
  5
5D2A
330
5CA4
100
AcDbEntity
  8
1
  6
Continuous
100
AcDbCircle
 10
179.1970499999999
 20
202.2844649999999
 30
0.0
 40
0.3
100
AcDbArc
 50
0.0
 51
90.0
  0
LINE
  5
5D2B
330
5CA4
100
AcDbEntity
  8
1
  6
Continuous
100
AcDbLine
 10
174.4970499999998
 20
209.304069
 30
0.0
 11
174.29705
 21
209.304069
 31
0.0
  0
LINE
  5
5D2C
330
5CA4
100
AcDbEntity
  8
1
  6
Continuous
100
AcDbLine
 10
174.4970499999998
 20
208.637661
 30
0.0
 11
174.29705
 21
208.637661
 31
0.0
  0
ARC
  5
5D2D
330
5CA4
100
AcDbEntity
  8
1
  6
Continuous
100
AcDbCircle
 10
173.99705
 20
209.62708
 30
0.0
 40
0.3
100
AcDbArc
 50
0.0
 51
90.0
  0
ARC
  5
5D2E
330
5CA4
100
AcDbEntity
  8
1
  6
Continuous
100
AcDbCircle
 10
173.99705
 20
207.7359869999999
 30
0.0
 40
0.3
100
AcDbArc
 50
270.0
 51
0.0
  0
ARC
  5
5D2F
330
5CA4
100
AcDbEntity
  8
1
  6
Continuous
100
AcDbCircle
 10
173.99705
 20
211.8376609999998
 30
0.0
 40
0.3
100
AcDbArc
 50
0.0
 51
90.0
  0
LINE
  5
5D30
330
5CA4
100
AcDbEntity
  8
1
  6
Continuous
100
AcDbLine
 10
174.29705
 20
207.7359869999999
 30
0.0
 11
174.29705
 21
211.8376609999998
 31
0.0
  0
LINE
  5
5D31
330
5CA4
100
AcDbEntity
  8
1
  6
Continuous
100
AcDbLine
 10
287.59705
 20
187.637661
 30
0.0
 11
287.59705
 21
203.637661
 31
0.0
  0
LINE
  5
5D32
330
5CA4
100
AcDbEntity
  8
1
  6
Continuous
100
AcDbLine
 10
285.99705
 20
187.637661
 30
0.0
 11
285.99705
 21
203.637661
 31
0.0
  0
LINE
  5
5D33
330
5CA4
100
AcDbEntity
  8
1
  6
Continuous
100
AcDbLine
 10
265.3947569999999
 20
184.637661
 30
0.0
 11
265.3947569999999
 21
206.637661
 31
0.0
  0
LINE
  5
5D34
330
5CA4
100
AcDbEntity
  8
1
  6
Continuous
100
AcDbLine
 10
263.3947569999999
 20
184.637661
 30
0.0
 11
263.3947569999999
 21
206.637661
 31
0.0
  0
LINE
  5
5D35
330
5CA4
100
AcDbEntity
  8
1
  6
Continuous
100
AcDbLine
 10
265.3947569999999
 20
184.637661
 30
0.0
 11
263.3947569999999
 21
184.637661
 31
0.0
  0
LINE
  5
5D36
330
5CA4
100
AcDbEntity
  8
1
  6
Continuous
100
AcDbLine
 10
285.99705
 20
187.637661
 30
0.0
 11
287.59705
 21
187.637661
 31
0.0
  0
LINE
  5
5D37
330
5CA4
100
AcDbEntity
  8
1
  6
Continuous
100
AcDbLine
 10
265.3947569999999
 20
206.637661
 30
0.0
 11
263.3947569999999
 21
206.637661
 31
0.0
  0
LINE
  5
5D38
330
5CA4
100
AcDbEntity
  8
1
  6
Continuous
100
AcDbLine
 10
285.99705
 20
203.637661
 30
0.0
 11
287.59705
 21
203.637661
 31
0.0
  0
ARC
  5
5D39
330
5CA4
100
AcDbEntity
  8
1
  6
Continuous
100
AcDbCircle
 10
296.92723
 20
195.637661
 30
0.0
 40
7.83018
100
AcDbArc
 50
158.366392
 51
201.633608
  0
LINE
  5
5D3A
330
5CA4
100
AcDbEntity
  8
1
  6
Continuous
100
AcDbLine
 10
289.09705
 20
201.387661
 30
0.0
 11
289.09705
 21
189.887661
 31
0.0
  0
ARC
  5
5D3B
330
5CA4
100
AcDbEntity
  8
1
  6
Continuous
100
AcDbCircle
 10
285.2668709999999
 20
195.637661
 30
0.0
 40
7.83018
100
AcDbArc
 50
338.366392
 51
21.63360799999999
  0
LINE
  5
5D3C
330
5CA4
100
AcDbEntity
  8
1
  6
Continuous
100
AcDbLine
 10
293.09705
 20
200.537661
 30
0.0
 11
293.09705
 21
190.737661
 31
0.0
  0
LINE
  5
5D3D
330
5CA4
100
AcDbEntity
  8
1
  6
Continuous
100
AcDbLine
 10
287.59705
 20
189.887661
 30
0.0
 11
287.59705
 21
201.387661
 31
0.0
  0
LINE
  5
5D3E
330
5CA4
100
AcDbEntity
  8
1
  6
Continuous
100
AcDbLine
 10
287.59705
 20
189.887661
 30
0.0
 11
289.09705
 21
189.887661
 31
0.0
  0
ARC
  5
5D3F
330
5CA4
100
AcDbEntity
  8
1
  6
Continuous
100
AcDbCircle
 10
291.2614279999999
 20
191.3075339999998
 30
0.0
 40
2.164377999999996
100
AcDbArc
 50
138.1734519999999
 51
180.0
  0
LINE
  5
5D40
330
5CA4
100
AcDbEntity
  8
1
  6
Continuous
100
AcDbLine
 10
289.6013669999998
 20
189.8641579999998
 30
0.0
 11
289.09705
 21
190.737661
 31
0.0
  0
ARC
  5
5D41
330
5CA4
100
AcDbEntity
  8
1
  6
Continuous
100
AcDbCircle
 10
290.9326720000001
 20
191.3075339999998
 30
0.0
 40
2.164377999999996
100
AcDbArc
 50
0.0
 51
41.82654799999999
  0
LINE
  5
5D42
330
5CA4
100
AcDbEntity
  8
1
  6
Continuous
100
AcDbLine
 10
292.592733
 20
189.8641579999998
 30
0.0
 11
293.09705
 21
190.737661
 31
0.0
  0
LINE
  5
5D43
330
5CA4
100
AcDbEntity
  8
1
  6
Continuous
100
AcDbLine
 10
292.545496
 20
192.75091
 30
0.0
 11
289.6486049999999
 21
192.75091
 31
0.0
  0
LINE
  5
5D44
330
5CA4
100
AcDbEntity
  8
1
  6
Continuous
100
AcDbLine
 10
292.592733
 20
189.8641579999998
 30
0.0
 11
289.6013669999998
 21
189.8641579999998
 31
0.0
  0
LINE
  5
5D45
330
5CA4
100
AcDbEntity
  8
1
  6
Continuous
100
AcDbLine
 10
287.59705
 20
201.387661
 30
0.0
 11
289.09705
 21
201.387661
 31
0.0
  0
LINE
  5
5D46
330
5CA4
100
AcDbEntity
  8
1
  6
Continuous
100
AcDbLine
 10
289.6013669999998
 20
201.4111639999999
 30
0.0
 11
289.09705
 21
200.537661
 31
0.0
  0
ARC
  5
5D47
330
5CA4
100
AcDbEntity
  8
1
  6
Continuous
100
AcDbCircle
 10
291.2614279999999
 20
199.9677879999999
 30
0.0
 40
2.164377999999996
100
AcDbArc
 50
180.0
 51
221.8265479999999
  0
ARC
  5
5D48
330
5CA4
100
AcDbEntity
  8
1
  6
Continuous
100
AcDbCircle
 10
290.9326720000001
 20
199.9677879999999
 30
0.0
 40
2.164377999999996
100
AcDbArc
 50
318.173452
 51
0.0
  0
LINE
  5
5D49
330
5CA4
100
AcDbEntity
  8
1
  6
Continuous
100
AcDbLine
 10
292.592733
 20
201.4111639999999
 30
0.0
 11
293.09705
 21
200.537661
 31
0.0
  0
LINE
  5
5D4A
330
5CA4
100
AcDbEntity
  8
1
  6
Continuous
100
AcDbLine
 10
292.545496
 20
198.524412
 30
0.0
 11
289.6486049999999
 21
198.524412
 31
0.0
  0
LINE
  5
5D4B
330
5CA4
100
AcDbEntity
  8
1
  6
Continuous
100
AcDbLine
 10
292.592733
 20
201.4111639999999
 30
0.0
 11
289.6013669999998
 21
201.4111639999999
 31
0.0
  0
ARC
  5
5D4C
330
5CA4
100
AcDbEntity
  8
1
  6
Continuous
100
AcDbCircle
 10
235.792464
 20
217.6376609999997
 30
0.0
 40
1.0
100
AcDbArc
 50
90.0
 51
180.0
  0
LINE
  5
5D4D
330
5CA4
100
AcDbEntity
  8
1
  6
Continuous
100
AcDbLine
 10
149.1970499999998
 20
226.3376609999999
 30
0.0
 11
148.89705
 21
226.637661
 31
0.0
  0
LINE
  5
5D4E
330
5CA4
100
AcDbEntity
  8
1
  6
Continuous
100
AcDbLine
 10
139.741592
 20
226.637661
 30
0.0
 11
148.89705
 21
226.637661
 31
0.0
  0
ARC
  5
5D4F
330
5CA4
100
AcDbEntity
  8
1
  6
Continuous
100
AcDbCircle
 10
139.741592
 20
226.1376609999998
 30
0.0
 40
0.5
100
AcDbArc
 50
90.0
 51
142.1250159999999
  0
ARC
  5
5D50
330
5CA4
100
AcDbEntity
  8
1
  6
Continuous
100
AcDbCircle
 10
151.1970499999998
 20
214.9338149999999
 30
0.0
 40
0.3
100
AcDbArc
 50
0.0
 51
90.0
  0
LINE
  5
5D51
330
5CA4
100
AcDbEntity
  8
2
  6
Continuous
100
AcDbLine
 10
151.4970499999997
 20
213.6376609999998
 30
0.0
 11
153.49705
 21
212.555161
 31
0.0
  0
ARC
  5
5D52
330
5CA4
100
AcDbEntity
  8
1
  6
Continuous
100
AcDbCircle
 10
151.1970499999998
 20
218.837661
 30
0.0
 40
0.3
100
AcDbArc
 50
0.0
 51
90.0
  0
LINE
  5
5D53
330
5CA4
100
AcDbEntity
  8
1
  6
Continuous
100
AcDbLine
 10
151.1970499999998
 20
215.2338149999999
 30
0.0
 11
150.4970499999997
 21
215.2338149999999
 31
0.0
  0
LINE
  5
5D54
330
5CA4
100
AcDbEntity
  8
1
  6
Continuous
100
AcDbLine
 10
150.4970499999997
 20
219.1376609999998
 30
0.0
 11
151.1970499999998
 21
219.1376609999998
 31
0.0
  0
LINE
  5
5D55
330
5CA4
100
AcDbEntity
  8
1
  6
Continuous
100
AcDbLine
 10
149.1970499999998
 20
223.8876609999997
 30
0.0
 11
149.4970499999998
 21
223.587661
 31
0.0
  0
LINE
  5
5D56
330
5CA4
100
AcDbEntity
  8
1
  6
Continuous
100
AcDbLine
 10
149.4970499999998
 20
225.6376609999998
 30
0.0
 11
150.4970499999997
 21
225.6376609999998
 31
0.0
  0
LINE
  5
5D57
330
5CA4
100
AcDbEntity
  8
1
  6
Continuous
100
AcDbLine
 10
235.792464
 20
218.6376609999999
 30
0.0
 11
236.792464
 21
218.6376609999999
 31
0.0
  0
LINE
  5
5D58
330
5CA4
100
AcDbEntity
  8
2
  6
Continuous
100
AcDbLine
 10
153.49705
 20
212.555161
 30
0.0
 11
171.57955
 21
212.555161
 31
0.0
  0
LINE
  5
5D59
330
5CA4
100
AcDbEntity
  8
1
  6
Continuous
100
AcDbLine
 10
151.4970499999997
 20
213.6376609999998
 30
0.0
 11
170.4970499999998
 21
213.6376609999998
 31
0.0
  0
LINE
  5
5D5A
330
5CA4
100
AcDbEntity
  8
1
  6
Continuous
100
AcDbLine
 10
242.292464
 20
222.041073
 30
0.0
 11
237.292464
 21
222.041073
 31
0.0
  0
ARC
  5
5D5B
330
5CA4
100
AcDbEntity
  8
1
  6
Continuous
100
AcDbCircle
 10
237.292464
 20
221.541073
 30
0.0
 40
0.5
100
AcDbArc
 50
90.0
 51
180.0
  0
ARC
  5
5D5C
330
5CA4
100
AcDbEntity
  8
1
  6
Continuous
100
AcDbCircle
 10
242.292464
 20
221.541073
 30
0.0
 40
0.5
100
AcDbArc
 50
0.0
 51
90.0
  0
ARC
  5
5D5D
330
5CA4
100
AcDbEntity
  8
1
  6
Continuous
100
AcDbCircle
 10
374.09701
 20
195.637661
 30
0.0
 40
13.0
100
AcDbArc
 50
62.122551
 51
207.8774489999999
  0
ARC
  5
5D5E
330
5CA4
100
AcDbEntity
  8
1
  6
Continuous
100
AcDbCircle
 10
374.09701
 20
195.637661
 30
0.0
 40
13.5
100
AcDbArc
 50
60.0
 51
210.0
  0
ARC
  5
5D5F
330
5CA4
100
AcDbEntity
  8
2
  6
Continuous
100
AcDbCircle
 10
374.09701
 20
195.637661
 30
0.0
 40
16.9175
100
AcDbArc
 50
12.755427
 51
167.2445729999997
  0
ARC
  5
5D60
330
5CA4
100
AcDbEntity
  8
1
  6
Continuous
100
AcDbCircle
 10
374.09701
 20
195.637661
 30
0.0
 40
18.0
100
AcDbArc
 50
23.55646399999999
 51
156.443536
  0
CIRCLE
  5
5D61
330
5CA4
100
AcDbEntity
  8
1
  6
Continuous
100
AcDbCircle
 10
374.09701
 20
195.637661
 30
0.0
 40
30.0
  0
CIRCLE
  5
5D62
330
5CA4
100
AcDbEntity
  8
1
  6
Continuous
100
AcDbCircle
 10
374.09701
 20
195.637661
 30
0.0
 40
30.7
  0
LINE
  5
5D63
330
5CA4
100
AcDbEntity
  8
4
  6
CENTER
100
AcDbLine
 10
374.09701
 20
229.6376609999998
 30
0.0
 11
374.09701
 21
161.637661
 31
0.0
  0
CIRCLE
  5
5D64
330
5CA4
100
AcDbEntity
  8
1
  6
Continuous
100
AcDbCircle
 10
374.09701
 20
195.637661
 30
0.0
 40
31.0
  0
LINE
  5
5D65
330
5CA4
100
AcDbEntity
  8
1
  6
Continuous
100
AcDbLine
 10
362.4136889999999
 20
188.8922919999999
 30
0.0
 11
360.680602
 21
187.891694
 31
0.0
  0
ARC
  5
5D66
330
5CA4
100
AcDbEntity
  8
1
  6
Continuous
100
AcDbCircle
 10
374.09701
 20
195.637661
 30
0.0
 40
16.0
100
AcDbArc
 50
211.848572
 51
58.15142800000001
  0
ARC
  5
5D67
330
5CA4
100
AcDbEntity
  8
2
  6
Continuous
100
AcDbCircle
 10
374.09701
 20
195.637661
 30
0.0
 40
16.9175
100
AcDbArc
 50
192.7554269999999
 51
347.244573
  0
ARC
  5
5D68
330
5CA4
100
AcDbEntity
  8
1
  6
Continuous
100
AcDbCircle
 10
374.09701
 20
195.637661
 30
0.0
 40
18.0
100
AcDbArc
 50
203.556464
 51
336.443536
  0
CIRCLE
  5
5D69
330
5CA4
100
AcDbEntity
  8
1
  6
Continuous
100
AcDbCircle
 10
374.09701
 20
195.637661
 30
0.0
 40
16.5
  0
LINE
  5
5D6A
330
5CA4
100
AcDbEntity
  8
4
  6
CENTER
100
AcDbLine
 10
408.09701
 20
195.637661
 30
0.0
 11
340.09701
 21
195.637661
 31
0.0
  0
LINE
  5
5D6B
330
5CA4
100
AcDbEntity
  8
1
  6
Continuous
100
AcDbLine
 10
357.59701
 20
188.4439139999997
 30
0.0
 11
357.59701
 21
202.831408
 31
0.0
  0
ARC
  5
5D6C
330
5CA4
100
AcDbEntity
  8
1
  6
Continuous
100
AcDbCircle
 10
360.930602
 20
187.458682
 30
0.0
 40
0.5
100
AcDbArc
 50
119.9999999999999
 51
211.848572
  0
ARC
  5
5D6D
330
5CA4
100
AcDbEntity
  8
1
  6
Continuous
100
AcDbCircle
 10
362.1636889999999
 20
189.325305
 30
0.0
 40
0.5
100
AcDbArc
 50
300.0
 51
27.87744899999999
  0
ARC
  5
5D6E
330
5CA4
100
AcDbEntity
  8
1
  6
Continuous
100
AcDbCircle
 10
367.458448
 20
207.7359869999999
 30
0.0
 40
0.3
100
AcDbArc
 50
210.0
 51
298.754341
  0
ARC
  5
5D6F
330
5CA4
100
AcDbEntity
  8
1
  6
Continuous
100
AcDbCircle
 10
366.2582069999999
 20
209.814867
 30
0.0
 40
0.3
100
AcDbArc
 50
118.938906
 51
210.0
  0
LINE
  5
5D70
330
5CA4
100
AcDbEntity
  8
1
  6
Continuous
100
AcDbLine
 10
367.198641
 20
207.5859869999999
 30
0.0
 11
365.998399
 21
209.6648669999999
 31
0.0
  0
ARC
  5
5D71
330
5CA4
100
AcDbEntity
  8
1
  6
Continuous
100
AcDbCircle
 10
380.4093659999999
 20
207.5709819999999
 30
0.0
 40
0.5
100
AcDbArc
 50
242.1225509999999
 51
330.0
  0
ARC
  5
5D72
330
5CA4
100
AcDbEntity
  8
1
  6
Continuous
100
AcDbCircle
 10
382.275989
 20
208.804069
 30
0.0
 40
0.5
100
AcDbArc
 50
58.15142800000001
 51
150.0
  0
ARC
  5
5D73
330
5CA4
100
AcDbEntity
  8
1
  6
Continuous
100
AcDbCircle
 10
381.9358129999998
 20
209.814867
 30
0.0
 40
0.3
100
AcDbArc
 50
330.0
 51
61.06109399999999
  0
ARC
  5
5D74
330
5CA4
100
AcDbEntity
  8
1
  6
Continuous
100
AcDbCircle
 10
380.7355719999998
 20
207.7359869999999
 30
0.0
 40
0.3
100
AcDbArc
 50
241.245659
 51
330.0
  0
LINE
  5
5D75
330
5CA4
100
AcDbEntity
  8
1
  6
Continuous
100
AcDbLine
 10
380.8423789999998
 20
207.3209819999999
 30
0.0
 11
382.195621
 21
209.6648669999999
 31
0.0
  0
LINE
  5
5D76
330
5CA4
100
AcDbEntity
  8
1
  6
Continuous
100
AcDbLine
 10
390.59701
 20
188.4439139999997
 30
0.0
 11
390.59701
 21
202.831408
 31
0.0
  0
LINE
  5
5D77
330
5CA4
100
AcDbEntity
  8
1
  6
Continuous
100
AcDbLine
 10
287.59705
 20
195.637661
 30
0.0
 11
289.09705
 21
197.137661
 31
0.0
  0
LINE
  5
5D78
330
5CA4
100
AcDbEntity
  8
1
  6
Continuous
100
AcDbLine
 10
287.59705
 20
194.137661
 30
0.0
 11
289.09705
 21
195.637661
 31
0.0
  0
LINE
  5
5D79
330
5CA4
100
AcDbEntity
  8
1
  6
Continuous
100
AcDbLine
 10
229.792464
 20
175.137661
 30
0.0
 11
229.792464
 21
216.137661
 31
0.0
  0
ARC
  5
5D7A
330
5CA4
100
AcDbEntity
  8
1
  6
Continuous
100
AcDbCircle
 10
232.292464
 20
216.137661
 30
0.0
 40
2.5
100
AcDbArc
 50
0.0
 51
180.0
  0
ARC
  5
5D7B
330
5CA4
100
AcDbEntity
  8
1
  6
Continuous
100
AcDbCircle
 10
232.292464
 20
175.137661
 30
0.0
 40
2.5
100
AcDbArc
 50
180.0
 51
0.0
  0
LINE
  5
5D7C
330
5CA4
100
AcDbEntity
  8
1
  6
Continuous
100
AcDbLine
 10
234.792464
 20
200.637661
 30
0.0
 11
229.792464
 21
195.637661
 31
0.0
  0
LINE
  5
5D7D
330
5CA4
100
AcDbEntity
  8
1
  6
Continuous
100
AcDbLine
 10
234.792464
 20
195.637661
 30
0.0
 11
229.792464
 21
190.637661
 31
0.0
  0
CIRCLE
  5
5D7E
330
5CA4
100
AcDbEntity
  8
1
  6
Continuous
100
AcDbCircle
 10
374.09701
 20
265.6376609999999
 30
0.0
 40
11.0
  0
CIRCLE
  5
5D7F
330
5CA4
100
AcDbEntity
  8
1
  6
Continuous
100
AcDbCircle
 10
374.09701
 20
265.6376609999999
 30
0.0
 40
8.0
  0
CIRCLE
  5
5D80
330
5CA4
100
AcDbEntity
  8
1
  6
Continuous
100
AcDbCircle
 10
374.09701
 20
265.6376609999999
 30
0.0
 40
5.75
  0
ARC
  5
5D81
330
5CA4
100
AcDbEntity
  8
1
  6
Continuous
100
AcDbCircle
 10
374.09701
 20
265.6376609999999
 30
0.0
 40
3.1
100
AcDbArc
 50
25.887785
 51
64.112215
  0
LINE
  5
5D82
330
5CA4
100
AcDbEntity
  8
1
  6
Continuous
100
AcDbLine
 10
375.5817399999998
 20
265.6406249999997
 30
0.0
 11
376.885928
 21
266.9911519999997
 31
0.0
  0
LINE
  5
5D83
330
5CA4
100
AcDbEntity
  8
1
  6
Continuous
100
AcDbLine
 10
376.885928
 20
264.28417
 30
0.0
 11
375.5817399999998
 21
265.634696
 31
0.0
  0
ARC
  5
5D84
330
5CA4
100
AcDbEntity
  8
1
  6
Continuous
100
AcDbCircle
 10
374.09701
 20
265.6376609999999
 30
0.0
 40
3.1
100
AcDbArc
 50
295.887785
 51
334.1122149999999
  0
CIRCLE
  5
5D85
330
5CA4
100
AcDbEntity
  8
1
  6
Continuous
100
AcDbCircle
 10
374.09701
 20
265.6376609999999
 30
0.0
 40
4.049999999999998
  0
CIRCLE
  5
5D86
330
5CA4
100
AcDbEntity
  8
1
  6
Continuous
100
AcDbCircle
 10
374.09701
 20
265.6376609999999
 30
0.0
 40
5.0
  0
LINE
  5
5D87
330
5CA4
100
AcDbEntity
  8
1
  6
Continuous
100
AcDbLine
 10
379.09701
 20
262.7506609999999
 30
0.0
 11
374.09701
 21
259.8636609999999
 31
0.0
  0
LINE
  5
5D88
330
5CA4
100
AcDbEntity
  8
1
  6
Continuous
100
AcDbLine
 10
374.09701
 20
271.4106609999999
 30
0.0
 11
379.09701
 21
268.5246609999999
 31
0.0
  0
LINE
  5
5D89
330
5CA4
100
AcDbEntity
  8
1
  6
Continuous
100
AcDbLine
 10
371.3080929999999
 20
266.9911519999997
 30
0.0
 11
372.612281
 21
265.6406249999997
 31
0.0
  0
LINE
  5
5D8A
330
5CA4
100
AcDbEntity
  8
1
  6
Continuous
100
AcDbLine
 10
369.09701
 20
262.7506609999999
 30
0.0
 11
369.09701
 21
268.5246609999999
 31
0.0
  0
LINE
  5
5D8B
330
5CA4
100
AcDbEntity
  8
1
  6
Continuous
100
AcDbLine
 10
372.612281
 20
265.634696
 30
0.0
 11
371.3080929999999
 21
264.28417
 31
0.0
  0
ARC
  5
5D8C
330
5CA4
100
AcDbEntity
  8
1
  6
Continuous
100
AcDbCircle
 10
374.09701
 20
265.6376609999999
 30
0.0
 40
3.1
100
AcDbArc
 50
205.887785
 51
244.112215
  0
LINE
  5
5D8D
330
5CA4
100
AcDbEntity
  8
1
  6
Continuous
100
AcDbLine
 10
369.09701
 20
262.7506609999999
 30
0.0
 11
374.09701
 21
259.8636609999999
 31
0.0
  0
LINE
  5
5D8E
330
5CA4
100
AcDbEntity
  8
1
  6
Continuous
100
AcDbLine
 10
374.094046
 20
264.152931
 30
0.0
 11
372.7435199999998
 21
262.848743
 31
0.0
  0
LINE
  5
5D8F
330
5CA4
100
AcDbEntity
  8
1
  6
Continuous
100
AcDbLine
 10
372.6131869999999
 20
265.6376609999999
 30
0.0
 11
372.612281
 21
265.6406249999997
 31
0.0
  0
LINE
  5
5D90
330
5CA4
100
AcDbEntity
  8
1
  6
Continuous
100
AcDbLine
 10
372.6131869999999
 20
265.6376609999999
 30
0.0
 11
372.612281
 21
265.634696
 31
0.0
  0
LINE
  5
5D91
330
5CA4
100
AcDbEntity
  8
1
  6
Continuous
100
AcDbLine
 10
374.09701
 20
264.153837
 30
0.0
 11
374.094046
 21
264.152931
 31
0.0
  0
LINE
  5
5D92
330
5CA4
100
AcDbEntity
  8
1
  6
Continuous
100
AcDbLine
 10
374.09701
 20
264.153837
 30
0.0
 11
374.0999749999998
 21
264.152931
 31
0.0
  0
LINE
  5
5D93
330
5CA4
100
AcDbEntity
  8
1
  6
Continuous
100
AcDbLine
 10
375.5808339999999
 20
265.6376609999999
 30
0.0
 11
375.5817399999998
 21
265.634696
 31
0.0
  0
LINE
  5
5D94
330
5CA4
100
AcDbEntity
  8
1
  6
Continuous
100
AcDbLine
 10
375.5808339999999
 20
265.6376609999999
 30
0.0
 11
375.5817399999998
 21
265.6406249999997
 31
0.0
  0
LINE
  5
5D95
330
5CA4
100
AcDbEntity
  8
1
  6
Continuous
100
AcDbLine
 10
375.4505009999999
 20
262.848743
 30
0.0
 11
374.0999749999998
 21
264.152931
 31
0.0
  0
ARC
  5
5D96
330
5CA4
100
AcDbEntity
  8
1
  6
Continuous
100
AcDbCircle
 10
374.09701
 20
265.6376609999999
 30
0.0
 40
3.1
100
AcDbArc
 50
115.8877849999998
 51
154.1122149999999
  0
LINE
  5
5D97
330
5CA4
100
AcDbEntity
  8
1
  6
Continuous
100
AcDbLine
 10
374.09701
 20
271.4106609999999
 30
0.0
 11
369.09701
 21
268.5246609999999
 31
0.0
  0
LINE
  5
5D98
330
5CA4
100
AcDbEntity
  8
1
  6
Continuous
100
AcDbLine
 10
372.7435199999998
 20
268.426578
 30
0.0
 11
374.094046
 21
267.12239
 31
0.0
  0
LINE
  5
5D99
330
5CA4
100
AcDbEntity
  8
1
  6
Continuous
100
AcDbLine
 10
374.0999749999998
 20
267.12239
 30
0.0
 11
375.4505009999999
 21
268.426578
 31
0.0
  0
LINE
  5
5D9A
330
5CA4
100
AcDbEntity
  8
1
  6
Continuous
100
AcDbLine
 10
374.09701
 20
267.121484
 30
0.0
 11
374.0999749999998
 21
267.12239
 31
0.0
  0
LINE
  5
5D9B
330
5CA4
100
AcDbEntity
  8
1
  6
Continuous
100
AcDbLine
 10
374.09701
 20
267.121484
 30
0.0
 11
374.094046
 21
267.12239
 31
0.0
  0
LINE
  5
5D9C
330
5CA4
100
AcDbEntity
  8
1
  6
Continuous
100
AcDbLine
 10
379.09701
 20
262.7506609999999
 30
0.0
 11
379.09701
 21
268.5246609999999
 31
0.0
  0
LINE
  5
5D9D
330
5CA4
100
AcDbEntity
  8
4
  6
CENTER
100
AcDbLine
 10
219.49705
 20
320.6376609999999
 30
0.0
 11
296.09705
 21
320.6376609999999
 31
0.0
  0
LINE
  5
5D9E
330
5CA4
100
AcDbEntity
  8
1
  6
Continuous
100
AcDbLine
 10
150.4970499999997
 20
290.6376609999999
 30
0.0
 11
150.4970499999997
 21
350.6376609999999
 31
0.0
  0
LINE
  5
5D9F
330
5CA4
100
AcDbEntity
  8
1
  6
Continuous
100
AcDbLine
 10
149.4970499999998
 20
290.6376609999999
 30
0.0
 11
149.4970499999998
 21
350.6376609999999
 31
0.0
  0
LINE
  5
5DA0
330
5CA4
100
AcDbEntity
  8
1
  6
Continuous
100
AcDbLine
 10
139.49705
 20
290.4520719999998
 30
0.0
 11
139.49705
 21
350.8232499999999
 31
0.0
  0
LINE
  5
5DA1
330
5CA4
100
AcDbEntity
  8
1
  6
Continuous
100
AcDbLine
 10
149.1970499999998
 20
289.937661
 30
0.0
 11
149.1970499999998
 21
351.3376609999999
 31
0.0
  0
LINE
  5
5DA2
330
5CA4
100
AcDbEntity
  8
1
  6
Continuous
100
AcDbLine
 10
148.89705
 20
351.637661
 30
0.0
 11
148.89705
 21
289.6376609999999
 31
0.0
  0
LINE
  5
5DA3
330
5CA4
100
AcDbEntity
  8
1
  6
Continuous
100
AcDbLine
 10
151.4970499999997
 20
300.9376609999999
 30
0.0
 11
151.4970499999997
 21
340.3376609999999
 31
0.0
  0
LINE
  5
5DA4
330
5CA4
100
AcDbEntity
  8
1
  6
Continuous
100
AcDbLine
 10
132.49705
 20
298.8092149999999
 30
0.0
 11
132.49705
 21
342.4661069999999
 31
0.0
  0
LINE
  5
5DA5
330
5CA4
100
AcDbEntity
  8
4
  6
CENTER
100
AcDbLine
 10
129.49705
 20
320.6376609999999
 30
0.0
 11
182.49705
 21
320.6376609999999
 31
0.0
  0
LINE
  5
5DA6
330
5CA4
100
AcDbEntity
  8
1
  6
Continuous
100
AcDbLine
 10
149.1970499999998
 20
292.3876609999999
 30
0.0
 11
149.4970499999998
 21
292.6876609999998
 31
0.0
  0
LINE
  5
5DA7
330
5CA4
100
AcDbEntity
  8
1
  6
Continuous
100
AcDbLine
 10
149.4970499999998
 20
290.6376609999999
 30
0.0
 11
150.4970499999997
 21
290.6376609999999
 31
0.0
  0
LINE
  5
5DA8
330
5CA4
100
AcDbEntity
  8
1
  6
Continuous
100
AcDbLine
 10
149.1970499999998
 20
289.937661
 30
0.0
 11
148.89705
 21
289.6376609999999
 31
0.0
  0
LINE
  5
5DA9
330
5CA4
100
AcDbEntity
  8
1
  6
Continuous
100
AcDbLine
 10
139.741592
 20
289.6376609999999
 30
0.0
 11
148.89705
 21
289.6376609999999
 31
0.0
  0
LINE
  5
5DAA
330
5CA4
100
AcDbEntity
  8
1
  6
Continuous
100
AcDbLine
 10
151.1970499999998
 20
324.636505
 30
0.0
 11
150.4970499999997
 21
324.636505
 31
0.0
  0
LINE
  5
5DAB
330
5CA4
100
AcDbEntity
  8
1
  6
Continuous
100
AcDbLine
 10
153.49705
 20
304.1376609999999
 30
0.0
 11
153.49705
 21
337.1376609999999
 31
0.0
  0
LINE
  5
5DAC
330
5CA4
100
AcDbEntity
  8
1
  6
Continuous
100
AcDbLine
 10
174.29705
 20
312.798858
 30
0.0
 11
174.29705
 21
328.476464
 31
0.0
  0
ARC
  5
5DAD
330
5CA4
100
AcDbEntity
  8
1
  6
Continuous
100
AcDbCircle
 10
173.99705
 20
328.476464
 30
0.0
 40
0.3
100
AcDbArc
 50
0.0
 51
90.0
  0
LINE
  5
5DAE
330
5CA4
100
AcDbEntity
  8
1
  6
Continuous
100
AcDbLine
 10
171.99705
 20
329.6376609999999
 30
0.0
 11
172.4970499999997
 21
329.6376609999999
 31
0.0
  0
LINE
  5
5DAF
330
5CA4
100
AcDbEntity
  8
1
  6
Continuous
100
AcDbLine
 10
171.99705
 20
328.7764639999999
 30
0.0
 11
173.99705
 21
328.7764639999999
 31
0.0
  0
ARC
  5
5DB0
330
5CA4
100
AcDbEntity
  8
1
  6
Continuous
100
AcDbCircle
 10
179.1970499999999
 20
327.284465
 30
0.0
 40
0.3
100
AcDbArc
 50
0.0
 51
90.0
  0
LINE
  5
5DB1
330
5CA4
100
AcDbEntity
  8
2
  6
Continuous
100
AcDbLine
 10
174.4970499999998
 20
325.599664
 30
0.0
 11
179.1970499999999
 21
320.935381
 31
0.0
  0
LINE
  5
5DB2
330
5CA4
100
AcDbEntity
  8
2
  6
Continuous
100
AcDbLine
 10
174.4970499999998
 20
322.6224619999999
 30
0.0
 11
179.1970499999999
 21
327.286745
 31
0.0
  0
LINE
  5
5DB3
330
5CA4
100
AcDbEntity
  8
1
  6
Continuous
100
AcDbLine
 10
174.4970499999998
 20
320.6376609999999
 30
0.0
 11
179.1970499999999
 21
320.6376609999999
 31
0.0
  0
LINE
  5
5DB4
330
5CA4
100
AcDbEntity
  8
1
  6
Continuous
100
AcDbLine
 10
174.4970499999998
 20
327.5844649999999
 30
0.0
 11
179.1970499999999
 21
327.5844649999999
 31
0.0
  0
LINE
  5
5DB5
330
5CA4
100
AcDbEntity
  8
1
  6
Continuous
100
AcDbLine
 10
170.4970499999998
 20
304.1376609999999
 30
0.0
 11
170.4970499999998
 21
337.1376609999999
 31
0.0
  0
ARC
  5
5DB6
330
5CA4
100
AcDbEntity
  8
1
  6
Continuous
100
AcDbCircle
 10
179.1970499999999
 20
313.990857
 30
0.0
 40
0.3
100
AcDbArc
 50
270.0
 51
0.0
  0
LINE
  5
5DB7
330
5CA4
100
AcDbEntity
  8
1
  6
Continuous
100
AcDbLine
 10
171.99705
 20
311.6376609999999
 30
0.0
 11
172.4970499999997
 21
311.6376609999999
 31
0.0
  0
LINE
  5
5DB8
330
5CA4
100
AcDbEntity
  8
1
  6
Continuous
100
AcDbLine
 10
174.4970499999998
 20
313.690857
 30
0.0
 11
179.1970499999999
 21
313.690857
 31
0.0
  0
LINE
  5
5DB9
330
5CA4
100
AcDbEntity
  8
1
  6
Continuous
100
AcDbLine
 10
174.4970499999998
 20
306.9712529999998
 30
0.0
 11
172.4970499999997
 21
306.9712529999998
 31
0.0
  0
LINE
  5
5DBA
330
5CA4
100
AcDbEntity
  8
2
  6
Continuous
100
AcDbLine
 10
174.4970499999998
 20
318.6528599999999
 30
0.0
 11
179.1970499999999
 21
313.988577
 31
0.0
  0
LINE
  5
5DBB
330
5CA4
100
AcDbEntity
  8
2
  6
Continuous
100
AcDbLine
 10
174.4970499999998
 20
315.675658
 30
0.0
 11
179.1970499999999
 21
320.339941
 31
0.0
  0
LINE
  5
5DBC
330
5CA4
100
AcDbEntity
  8
1
  6
Continuous
100
AcDbLine
 10
174.4970499999998
 20
306.9712529999998
 30
0.0
 11
174.4970499999998
 21
336.6376609999999
 31
0.0
  0
LINE
  5
5DBD
330
5CA4
100
AcDbEntity
  8
1
  6
Continuous
100
AcDbLine
 10
179.4970499999998
 20
313.990857
 30
0.0
 11
179.4970499999998
 21
327.284465
 31
0.0
  0
LINE
  5
5DBE
330
5CA4
100
AcDbEntity
  8
1
  6
Continuous
100
AcDbLine
 10
171.99705
 20
304.1376609999999
 30
0.0
 11
171.99705
 21
337.1376609999999
 31
0.0
  0
LINE
  5
5DBF
330
5CA4
100
AcDbEntity
  8
1
  6
Continuous
100
AcDbLine
 10
172.4970499999997
 20
306.9712529999998
 30
0.0
 11
172.4970499999997
 21
312.498858
 31
0.0
  0
LINE
  5
5DC0
330
5CA4
100
AcDbEntity
  8
1
  6
Continuous
100
AcDbLine
 10
132.6023739999999
 20
342.773077
 30
0.0
 11
139.3469159999999
 21
351.444631
 31
0.0
  0
ARC
  5
5DC1
330
5CA4
100
AcDbEntity
  8
1
  6
Continuous
100
AcDbCircle
 10
132.9970499999997
 20
342.4661069999999
 30
0.0
 40
0.5
100
AcDbArc
 50
142.1250159999999
 51
180.0
  0
LINE
  5
5DC2
330
5CA4
100
AcDbEntity
  8
1
  6
Continuous
100
AcDbLine
 10
149.4970499999998
 20
350.6376609999999
 30
0.0
 11
150.4970499999997
 21
350.6376609999999
 31
0.0
  0
LINE
  5
5DC3
330
5CA4
100
AcDbEntity
  8
1
  6
Continuous
100
AcDbLine
 10
149.1970499999998
 20
351.3376609999999
 30
0.0
 11
148.89705
 21
351.637661
 31
0.0
  0
ARC
  5
5DC4
330
5CA4
100
AcDbEntity
  8
1
  6
Continuous
100
AcDbCircle
 10
139.741592
 20
351.1376609999999
 30
0.0
 40
0.5
100
AcDbArc
 50
90.0
 51
142.1250159999999
  0
LINE
  5
5DC5
330
5CA4
100
AcDbEntity
  8
1
  6
Continuous
100
AcDbLine
 10
139.741592
 20
351.637661
 30
0.0
 11
148.89705
 21
351.637661
 31
0.0
  0
LINE
  5
5DC6
330
5CA4
100
AcDbEntity
  8
1
  6
Continuous
100
AcDbLine
 10
149.1970499999998
 20
348.8876609999999
 30
0.0
 11
149.4970499999998
 21
348.5876609999999
 31
0.0
  0
LINE
  5
5DC7
330
5CA4
100
AcDbEntity
  8
1
  6
Continuous
100
AcDbLine
 10
150.4970499999997
 20
340.6376609999999
 30
0.0
 11
151.1970499999998
 21
340.6376609999999
 31
0.0
  0
ARC
  5
5DC8
330
5CA4
100
AcDbEntity
  8
1
  6
Continuous
100
AcDbCircle
 10
151.1970499999998
 20
340.3376609999999
 30
0.0
 40
0.3
100
AcDbArc
 50
0.0
 51
90.0
  0
ARC
  5
5DC9
330
5CA4
100
AcDbEntity
  8
1
  6
Continuous
100
AcDbCircle
 10
232.292464
 20
341.137661
 30
0.0
 40
2.5
100
AcDbArc
 50
0.0
 51
180.0
  0
LINE
  5
5DCA
330
5CA4
100
AcDbEntity
  8
1
  6
Continuous
100
AcDbLine
 10
234.792464
 20
298.6376609999999
 30
0.0
 11
234.792464
 21
342.6376609999999
 31
0.0
  0
LINE
  5
5DCB
330
5CA4
100
AcDbEntity
  8
1
  6
Continuous
100
AcDbLine
 10
236.792464
 20
297.6376609999999
 30
0.0
 11
236.792464
 21
343.6376609999999
 31
0.0
  0
LINE
  5
5DCC
330
5CA4
100
AcDbEntity
  8
1
  6
Continuous
100
AcDbLine
 10
242.792464
 20
298.1376609999998
 30
0.0
 11
242.792464
 21
343.137661
 31
0.0
  0
LINE
  5
5DCD
330
5CA4
100
AcDbEntity
  8
1
  6
Continuous
100
AcDbLine
 10
229.792464
 20
300.1376609999999
 30
0.0
 11
229.792464
 21
341.137661
 31
0.0
  0
ARC
  5
5DCE
330
5CA4
100
AcDbEntity
  8
1
  6
Continuous
100
AcDbCircle
 10
235.792464
 20
298.6376609999999
 30
0.0
 40
1.0
100
AcDbArc
 50
180.0
 51
270.0
  0
LINE
  5
5DCF
330
5CA4
100
AcDbEntity
  8
1
  6
Continuous
100
AcDbLine
 10
235.792464
 20
297.6376609999999
 30
0.0
 11
242.292464
 21
297.6376609999999
 31
0.0
  0
ARC
  5
5DD0
330
5CA4
100
AcDbEntity
  8
1
  6
Continuous
100
AcDbCircle
 10
232.292464
 20
300.1376609999999
 30
0.0
 40
2.5
100
AcDbArc
 50
180.0
 51
0.0
  0
LINE
  5
5DD1
330
5CA4
100
AcDbEntity
  8
1
  6
Continuous
100
AcDbLine
 10
234.792464
 20
325.6376609999999
 30
0.0
 11
229.792464
 21
320.6376609999999
 31
0.0
  0
LINE
  5
5DD2
330
5CA4
100
AcDbEntity
  8
1
  6
Continuous
100
AcDbLine
 10
234.792464
 20
320.6376609999999
 30
0.0
 11
229.792464
 21
315.6376609999999
 31
0.0
  0
LINE
  5
5DD3
330
5CA4
100
AcDbEntity
  8
1
  6
Continuous
100
AcDbLine
 10
285.99705
 20
328.637661
 30
0.0
 11
287.59705
 21
328.637661
 31
0.0
  0
LINE
  5
5DD4
330
5CA4
100
AcDbEntity
  8
1
  6
Continuous
100
AcDbLine
 10
287.59705
 20
319.1376609999999
 30
0.0
 11
289.09705
 21
320.6376609999999
 31
0.0
  0
LINE
  5
5DD5
330
5CA4
100
AcDbEntity
  8
1
  6
Continuous
100
AcDbLine
 10
287.59705
 20
320.6376609999999
 30
0.0
 11
289.09705
 21
322.137661
 31
0.0
  0
LINE
  5
5DD6
330
5CA4
100
AcDbEntity
  8
1
  6
Continuous
100
AcDbLine
 10
287.59705
 20
326.387661
 30
0.0
 11
289.09705
 21
326.387661
 31
0.0
  0
LINE
  5
5DD7
330
5CA4
100
AcDbEntity
  8
1
  6
Continuous
100
AcDbLine
 10
285.99705
 20
312.6376609999999
 30
0.0
 11
287.59705
 21
312.6376609999999
 31
0.0
  0
LINE
  5
5DD8
330
5CA4
100
AcDbEntity
  8
1
  6
Continuous
100
AcDbLine
 10
287.59705
 20
314.8876609999998
 30
0.0
 11
289.09705
 21
314.8876609999998
 31
0.0
  0
LINE
  5
5DD9
330
5CA4
100
AcDbEntity
  8
1
  6
Continuous
100
AcDbLine
 10
265.3947569999999
 20
309.637661
 30
0.0
 11
265.3947569999999
 21
331.6376609999999
 31
0.0
  0
LINE
  5
5DDA
330
5CA4
100
AcDbEntity
  8
1
  6
Continuous
100
AcDbLine
 10
287.59705
 20
312.6376609999999
 30
0.0
 11
287.59705
 21
328.637661
 31
0.0
  0
LINE
  5
5DDB
330
5CA4
100
AcDbEntity
  8
1
  6
Continuous
100
AcDbLine
 10
285.99705
 20
312.6376609999999
 30
0.0
 11
285.99705
 21
328.637661
 31
0.0
  0
LINE
  5
5DDC
330
5CA4
100
AcDbEntity
  8
1
  6
Continuous
100
AcDbLine
 10
287.59705
 20
314.8876609999998
 30
0.0
 11
287.59705
 21
326.387661
 31
0.0
  0
LINE
  5
5DDD
330
5CA4
100
AcDbEntity
  8
1
  6
Continuous
100
AcDbLine
 10
289.09705
 20
326.387661
 30
0.0
 11
289.09705
 21
314.8876609999998
 31
0.0
  0
LINE
  5
5DDE
330
5CA4
100
AcDbEntity
  8
1
  6
Continuous
100
AcDbLine
 10
263.3947569999999
 20
309.637661
 30
0.0
 11
263.3947569999999
 21
331.6376609999999
 31
0.0
  0
LINE
  5
5DDF
330
5CA4
100
AcDbEntity
  8
1
  6
Continuous
100
AcDbLine
 10
265.3947569999999
 20
309.637661
 30
0.0
 11
263.3947569999999
 21
309.637661
 31
0.0
  0
LINE
  5
5DE0
330
5CA4
100
AcDbEntity
  8
1
  6
Continuous
100
AcDbLine
 10
265.3947569999999
 20
331.6376609999999
 30
0.0
 11
263.3947569999999
 21
331.6376609999999
 31
0.0
  0
ARC
  5
5DE1
330
5CA4
100
AcDbEntity
  8
1
  6
Continuous
100
AcDbCircle
 10
235.792464
 20
342.6376609999999
 30
0.0
 40
1.0
100
AcDbArc
 50
90.0
 51
180.0
  0
LINE
  5
5DE2
330
5CA4
100
AcDbEntity
  8
1
  6
Continuous
100
AcDbLine
 10
235.792464
 20
343.6376609999999
 30
0.0
 11
242.292464
 21
343.6376609999999
 31
0.0
  0
LINE
  5
5DE3
330
5CA4
100
AcDbEntity
  8
1
  6
Continuous
100
AcDbLine
 10
150.4970499999997
 20
40.637661
 30
0.0
 11
150.4970499999997
 21
100.637661
 31
0.0
  0
LINE
  5
5DE4
330
5CA4
100
AcDbEntity
  8
1
  6
Continuous
100
AcDbLine
 10
149.4970499999998
 20
40.637661
 30
0.0
 11
149.4970499999998
 21
100.637661
 31
0.0
  0
LINE
  5
5DE5
330
5CA4
100
AcDbEntity
  8
1
  6
Continuous
100
AcDbLine
 10
149.1970499999998
 20
39.937661
 30
0.0
 11
149.1970499999998
 21
101.3376609999999
 31
0.0
  0
LINE
  5
5DE6
330
5CA4
100
AcDbEntity
  8
1
  6
Continuous
100
AcDbLine
 10
148.89705
 20
101.637661
 30
0.0
 11
148.89705
 21
39.637661
 31
0.0
  0
LINE
  5
5DE7
330
5CA4
100
AcDbEntity
  8
1
  6
Continuous
100
AcDbLine
 10
151.4970499999997
 20
50.93766099999999
 30
0.0
 11
151.4970499999997
 21
90.33766099999999
 31
0.0
  0
LINE
  5
5DE8
330
5CA4
100
AcDbEntity
  8
1
  6
Continuous
100
AcDbLine
 10
132.49705
 20
48.808585
 30
0.0
 11
132.49705
 21
92.46610699999999
 31
0.0
  0
LINE
  5
5DE9
330
5CA4
100
AcDbEntity
  8
4
  6
CENTER
100
AcDbLine
 10
129.49705
 20
70.63766099999998
 30
0.0
 11
182.49705
 21
70.63766099999998
 31
0.0
  0
LINE
  5
5DEA
330
5CA4
100
AcDbEntity
  8
1
  6
Continuous
100
AcDbLine
 10
134.89705
 20
48.797332
 30
0.0
 11
134.89705
 21
92.47799099999999
 31
0.0
  0
LINE
  5
5DEB
330
5CA4
100
AcDbEntity
  8
1
  6
Continuous
100
AcDbLine
 10
149.1970499999998
 20
42.387661
 30
0.0
 11
149.4970499999998
 21
42.68766099999999
 31
0.0
  0
LINE
  5
5DEC
330
5CA4
100
AcDbEntity
  8
1
  6
Continuous
100
AcDbLine
 10
149.4970499999998
 20
40.637661
 30
0.0
 11
150.4970499999997
 21
40.637661
 31
0.0
  0
LINE
  5
5DED
330
5CA4
100
AcDbEntity
  8
1
  6
Continuous
100
AcDbLine
 10
149.1970499999998
 20
39.937661
 30
0.0
 11
148.89705
 21
39.637661
 31
0.0
  0
LINE
  5
5DEE
330
5CA4
100
AcDbEntity
  8
1
  6
Continuous
100
AcDbLine
 10
139.741229
 20
39.637661
 30
0.0
 11
148.89705
 21
39.637661
 31
0.0
  0
LINE
  5
5DEF
330
5CA4
100
AcDbEntity
  8
1
  6
Continuous
100
AcDbLine
 10
141.9970499999998
 20
48.797332
 30
0.0
 11
141.9970499999998
 21
92.47799099999999
 31
0.0
  0
LINE
  5
5DF0
330
5CA4
100
AcDbEntity
  8
1
  6
Continuous
100
AcDbLine
 10
153.49705
 20
54.13734599999999
 30
0.0
 11
153.49705
 21
87.13797499999998
 31
0.0
  0
LINE
  5
5DF1
330
5CA4
100
AcDbEntity
  8
1
  6
Continuous
100
AcDbLine
 10
171.99705
 20
79.63766099999998
 30
0.0
 11
172.4970499999997
 21
79.63766099999998
 31
0.0
  0
ARC
  5
5DF2
330
5CA4
100
AcDbEntity
  8
1
  6
Continuous
100
AcDbCircle
 10
179.1970499999999
 20
77.28446499999998
 30
0.0
 40
0.3
100
AcDbArc
 50
0.0
 51
90.0
  0
LINE
  5
5DF3
330
5CA4
100
AcDbEntity
  8
2
  6
Continuous
100
AcDbLine
 10
174.4970499999998
 20
75.599664
 30
0.0
 11
179.1970499999999
 21
70.93538100000002
 31
0.0
  0
LINE
  5
5DF4
330
5CA4
100
AcDbEntity
  8
2
  6
Continuous
100
AcDbLine
 10
174.4970499999998
 20
72.62246199999998
 30
0.0
 11
179.1970499999999
 21
77.28674499999998
 31
0.0
  0
LINE
  5
5DF5
330
5CA4
100
AcDbEntity
  8
1
  6
Continuous
100
AcDbLine
 10
174.4970499999998
 20
70.63766099999998
 30
0.0
 11
179.1970499999999
 21
70.63766099999998
 31
0.0
  0
LINE
  5
5DF6
330
5CA4
100
AcDbEntity
  8
1
  6
Continuous
100
AcDbLine
 10
174.4970499999998
 20
77.58446500000002
 30
0.0
 11
179.1970499999999
 21
77.58446500000002
 31
0.0
  0
ARC
  5
5DF7
330
5CA4
100
AcDbEntity
  8
1
  6
Continuous
100
AcDbCircle
 10
179.1970499999999
 20
63.990857
 30
0.0
 40
0.3
100
AcDbArc
 50
270.0
 51
0.0
  0
LINE
  5
5DF8
330
5CA4
100
AcDbEntity
  8
1
  6
Continuous
100
AcDbLine
 10
171.99705
 20
61.637661
 30
0.0
 11
172.4970499999997
 21
61.637661
 31
0.0
  0
LINE
  5
5DF9
330
5CA4
100
AcDbEntity
  8
1
  6
Continuous
100
AcDbLine
 10
174.4970499999998
 20
63.69085699999999
 30
0.0
 11
179.1970499999999
 21
63.69085699999999
 31
0.0
  0
LINE
  5
5DFA
330
5CA4
100
AcDbEntity
  8
1
  6
Continuous
100
AcDbLine
 10
174.4970499999998
 20
84.494068
 30
0.0
 11
172.4970499999997
 21
84.494068
 31
0.0
  0
LINE
  5
5DFB
330
5CA4
100
AcDbEntity
  8
1
  6
Continuous
100
AcDbLine
 10
170.4970499999998
 20
54.13734599999999
 30
0.0
 11
170.4970499999998
 21
87.13797499999998
 31
0.0
  0
LINE
  5
5DFC
330
5CA4
100
AcDbEntity
  8
2
  6
Continuous
100
AcDbLine
 10
174.4970499999998
 20
68.65286000000001
 30
0.0
 11
179.1970499999999
 21
63.988577
 31
0.0
  0
LINE
  5
5DFD
330
5CA4
100
AcDbEntity
  8
2
  6
Continuous
100
AcDbLine
 10
174.4970499999998
 20
65.675658
 30
0.0
 11
179.1970499999999
 21
70.33994100000001
 31
0.0
  0
LINE
  5
5DFE
330
5CA4
100
AcDbEntity
  8
1
  6
Continuous
100
AcDbLine
 10
174.4970499999998
 20
84.494068
 30
0.0
 11
174.4970499999998
 21
54.637661
 31
0.0
  0
LINE
  5
5DFF
330
5CA4
100
AcDbEntity
  8
1
  6
Continuous
100
AcDbLine
 10
179.4970499999998
 20
63.990857
 30
0.0
 11
179.4970499999998
 21
77.28446499999998
 31
0.0
  0
LINE
  5
5E00
330
5CA4
100
AcDbEntity
  8
1
  6
Continuous
100
AcDbLine
 10
171.99705
 20
54.137661
 30
0.0
 11
171.99705
 21
87.13766099999999
 31
0.0
  0
LINE
  5
5E01
330
5CA4
100
AcDbEntity
  8
1
  6
Continuous
100
AcDbLine
 10
172.4970499999997
 20
84.494068
 30
0.0
 11
172.4970499999997
 21
54.637661
 31
0.0
  0
LINE
  5
5E02
330
5CA4
100
AcDbEntity
  8
1
  6
Continuous
100
AcDbLine
 10
132.602053
 20
92.772664
 30
0.0
 11
139.3469159999999
 21
101.444631
 31
0.0
  0
ARC
  5
5E03
330
5CA4
100
AcDbEntity
  8
1
  6
Continuous
100
AcDbCircle
 10
132.9970499999997
 20
92.46610699999999
 30
0.0
 40
0.5
100
AcDbArc
 50
142.1250159999999
 51
180.0
  0
LINE
  5
5E04
330
5CA4
100
AcDbEntity
  8
1
  6
Continuous
100
AcDbLine
 10
149.4970499999998
 20
100.637661
 30
0.0
 11
150.4970499999997
 21
100.637661
 31
0.0
  0
LINE
  5
5E05
330
5CA4
100
AcDbEntity
  8
1
  6
Continuous
100
AcDbLine
 10
149.1970499999998
 20
101.3376609999999
 30
0.0
 11
148.89705
 21
101.637661
 31
0.0
  0
ARC
  5
5E06
330
5CA4
100
AcDbEntity
  8
1
  6
Continuous
100
AcDbCircle
 10
139.741592
 20
101.1376609999997
 30
0.0
 40
0.5
100
AcDbArc
 50
90.0
 51
142.1250159999999
  0
LINE
  5
5E07
330
5CA4
100
AcDbEntity
  8
1
  6
Continuous
100
AcDbLine
 10
139.741592
 20
101.637661
 30
0.0
 11
148.89705
 21
101.637661
 31
0.0
  0
LINE
  5
5E08
330
5CA4
100
AcDbEntity
  8
1
  6
Continuous
100
AcDbLine
 10
149.1970499999998
 20
98.88766099999999
 30
0.0
 11
149.4970499999998
 21
98.587661
 31
0.0
  0
LINE
  5
5E09
330
5CA4
100
AcDbEntity
  8
1
  6
Continuous
100
AcDbLine
 10
132.6023739999999
 20
298.502245
 30
0.0
 11
139.3469159999999
 21
289.830691
 31
0.0
  0
ARC
  5
5E0A
330
5CA4
100
AcDbEntity
  8
1
  6
Continuous
100
AcDbCircle
 10
132.9970499999997
 20
298.8092149999999
 30
0.0
 40
0.5
100
AcDbArc
 50
180.0
 51
217.874984
  0
ARC
  5
5E0B
330
5CA4
100
AcDbEntity
  8
1
  6
Continuous
100
AcDbCircle
 10
139.741592
 20
290.1376609999999
 30
0.0
 40
0.5
100
AcDbArc
 50
217.874984
 51
270.0
  0
LINE
  5
5E0C
330
5CA4
100
AcDbEntity
  8
1
  6
Continuous
100
AcDbLine
 10
289.5433419999998
 20
320.6376609999999
 30
0.0
 11
292.6507589999999
 21
320.6376609999999
 31
0.0
  0
LINE
  5
5E0D
330
5CA4
100
AcDbEntity
  8
1
  6
Continuous
100
AcDbLine
 10
293.09705
 20
325.6376609999999
 30
0.0
 11
289.09705
 21
325.6376609999999
 31
0.0
  0
LINE
  5
5E0E
330
5CA4
100
AcDbEntity
  8
1
  6
Continuous
100
AcDbLine
 10
293.09705
 20
315.6376609999999
 30
0.0
 11
289.09705
 21
315.6376609999999
 31
0.0
  0
ARC
  5
5E0F
330
5CA4
100
AcDbEntity
  8
1
  6
Continuous
100
AcDbCircle
 10
296.3223419999998
 20
323.1376609999998
 30
0.0
 40
7.225291999999996
100
AcDbArc
 50
159.7567339999999
 51
200.243266
  0
LINE
  5
5E10
330
5CA4
100
AcDbEntity
  8
1
  6
Continuous
100
AcDbLine
 10
289.09705
 20
325.6376609999999
 30
0.0
 11
289.09705
 21
315.6376609999999
 31
0.0
  0
ARC
  5
5E11
330
5CA4
100
AcDbEntity
  8
1
  6
Continuous
100
AcDbCircle
 10
296.3223419999998
 20
318.137661
 30
0.0
 40
7.225291999999996
100
AcDbArc
 50
159.7567339999999
 51
200.243266
  0
ARC
  5
5E12
330
5CA4
100
AcDbEntity
  8
1
  6
Continuous
100
AcDbCircle
 10
285.8717589999999
 20
323.1376609999998
 30
0.0
 40
7.225291999999996
100
AcDbArc
 50
339.756734
 51
20.24326599999999
  0
LINE
  5
5E13
330
5CA4
100
AcDbEntity
  8
1
  6
Continuous
100
AcDbLine
 10
293.09705
 20
325.6376609999999
 30
0.0
 11
293.09705
 21
315.6376609999999
 31
0.0
  0
ARC
  5
5E14
330
5CA4
100
AcDbEntity
  8
1
  6
Continuous
100
AcDbCircle
 10
285.8717589999999
 20
318.137661
 30
0.0
 40
7.225291999999996
100
AcDbArc
 50
339.756734
 51
20.24326599999999
  0
LINE
  5
5E15
330
5CA4
100
AcDbEntity
  8
1
  6
Continuous
100
AcDbLine
 10
171.99705
 20
337.1376609999999
 30
0.0
 11
151.4970499999997
 21
337.1376609999999
 31
0.0
  0
LINE
  5
5E16
330
5CA4
100
AcDbEntity
  8
1
  6
Continuous
100
AcDbLine
 10
171.99705
 20
304.1376609999999
 30
0.0
 11
151.4970499999997
 21
304.1376609999999
 31
0.0
  0
LINE
  5
5E17
330
5CA4
100
AcDbEntity
  8
1
  6
Continuous
100
AcDbLine
 10
171.99705
 20
304.1376609999999
 30
0.0
 11
151.4970499999997
 21
304.1376609999999
 31
0.0
  0
LINE
  5
5E18
330
5CA4
100
AcDbEntity
  8
1
  6
Continuous
100
AcDbLine
 10
171.99705
 20
312.498858
 30
0.0
 11
173.99705
 21
312.498858
 31
0.0
  0
ARC
  5
5E19
330
5CA4
100
AcDbEntity
  8
1
  6
Continuous
100
AcDbCircle
 10
173.99705
 20
312.798858
 30
0.0
 40
0.3
100
AcDbArc
 50
270.0
 51
0.0
  0
LINE
  5
5E1A
330
5CA4
100
AcDbEntity
  8
1
  6
Continuous
100
AcDbLine
 10
172.4970499999997
 20
328.7764639999999
 30
0.0
 11
172.4970499999997
 21
336.6376609999999
 31
0.0
  0
LINE
  5
5E1B
330
5CA4
100
AcDbEntity
  8
1
  6
Continuous
100
AcDbLine
 10
174.4970499999998
 20
336.6376609999999
 30
0.0
 11
172.4970499999997
 21
336.6376609999999
 31
0.0
  0
LINE
  5
5E1C
330
5CA4
100
AcDbEntity
  8
1
  6
Continuous
100
AcDbLine
 10
172.4970499999997
 20
307.637661
 30
0.0
 11
174.4970499999998
 21
307.637661
 31
0.0
  0
LINE
  5
5E1D
330
5CA4
100
AcDbEntity
  8
1
  6
Continuous
100
AcDbLine
 10
174.4970499999998
 20
328.637661
 30
0.0
 11
174.2500629999999
 21
328.637661
 31
0.0
  0
LINE
  5
5E1E
330
5CA4
100
AcDbEntity
  8
1
  6
Continuous
100
AcDbLine
 10
174.29705
 20
327.1376609999999
 30
0.0
 11
174.4970499999998
 21
327.1376609999999
 31
0.0
  0
LINE
  5
5E1F
330
5CA4
100
AcDbEntity
  8
1
  6
Continuous
100
AcDbLine
 10
150.4970499999997
 20
300.6376609999999
 30
0.0
 11
151.1970499999998
 21
300.6376609999999
 31
0.0
  0
ARC
  5
5E20
330
5CA4
100
AcDbEntity
  8
1
  6
Continuous
100
AcDbCircle
 10
151.1970499999998
 20
300.9376609999999
 30
0.0
 40
0.3
100
AcDbArc
 50
270.0
 51
0.0
  0
LINE
  5
5E21
330
5CA4
100
AcDbEntity
  8
1
  6
Continuous
100
AcDbLine
 10
151.1970499999998
 20
316.638817
 30
0.0
 11
150.4970499999997
 21
316.638817
 31
0.0
  0
ARC
  5
5E22
330
5CA4
100
AcDbEntity
  8
1
  6
Continuous
100
AcDbCircle
 10
151.1970499999998
 20
324.3365049999998
 30
0.0
 40
0.3
100
AcDbArc
 50
0.0
 51
90.0
  0
ARC
  5
5E23
330
5CA4
100
AcDbEntity
  8
1
  6
Continuous
100
AcDbCircle
 10
151.1970499999998
 20
316.9388169999999
 30
0.0
 40
0.3
100
AcDbArc
 50
270.0
 51
0.0
  0
LINE
  5
5E24
330
5CA4
100
AcDbEntity
  8
1
  6
Continuous
100
AcDbLine
 10
132.602053
 20
48.50265799999998
 30
0.0
 11
139.3469159999999
 21
39.83069099999997
 31
0.0
  0
ARC
  5
5E25
330
5CA4
100
AcDbEntity
  8
1
  6
Continuous
100
AcDbCircle
 10
132.9970499999997
 20
48.809215
 30
0.0
 40
0.5
100
AcDbArc
 50
179.999999
 51
217.874983
  0
ARC
  5
5E26
330
5CA4
100
AcDbEntity
  8
1
  6
Continuous
100
AcDbCircle
 10
139.741592
 20
40.137661
 30
0.0
 40
0.5
100
AcDbArc
 50
217.874983
 51
269.999999
  0
LINE
  5
5E27
330
5CA4
100
AcDbEntity
  8
1
  6
Continuous
100
AcDbLine
 10
134.89705
 20
55.537661
 30
0.0
 11
141.9970499999998
 21
55.537661
 31
0.0
  0
LINE
  5
5E28
330
5CA4
100
AcDbEntity
  8
1
  6
Continuous
100
AcDbLine
 10
134.89705
 20
85.737661
 30
0.0
 11
141.9970499999998
 21
85.737661
 31
0.0
  0
LINE
  5
5E29
330
5CA4
100
AcDbEntity
  8
1
  6
Continuous
100
AcDbLine
 10
150.4970499999997
 20
90.637661
 30
0.0
 11
151.1970499999998
 21
90.637661
 31
0.0
  0
ARC
  5
5E2A
330
5CA4
100
AcDbEntity
  8
1
  6
Continuous
100
AcDbCircle
 10
151.1970499999998
 20
90.33766099999999
 30
0.0
 40
0.3
100
AcDbArc
 50
0.0
 51
90.0
  0
ARC
  5
5E2B
330
5CA4
100
AcDbEntity
  8
1
  6
Continuous
100
AcDbCircle
 10
151.1970499999998
 20
74.336505
 30
0.0
 40
0.3
100
AcDbArc
 50
0.0
 51
90.0
  0
LINE
  5
5E2C
330
5CA4
100
AcDbEntity
  8
1
  6
Continuous
100
AcDbLine
 10
151.1970499999998
 20
74.63650499999999
 30
0.0
 11
150.4970499999997
 21
74.63650499999999
 31
0.0
  0
ARC
  5
5E2D
330
5CA4
100
AcDbEntity
  8
1
  6
Continuous
100
AcDbCircle
 10
151.1970499999998
 20
66.938817
 30
0.0
 40
0.3
100
AcDbArc
 50
270.0
 51
0.0
  0
LINE
  5
5E2E
330
5CA4
100
AcDbEntity
  8
1
  6
Continuous
100
AcDbLine
 10
151.1970499999998
 20
66.63881700000001
 30
0.0
 11
150.4970499999997
 21
66.63881700000001
 31
0.0
  0
ARC
  5
5E2F
330
5CA4
100
AcDbEntity
  8
1
  6
Continuous
100
AcDbCircle
 10
151.1970499999998
 20
50.93766099999999
 30
0.0
 40
0.3
100
AcDbArc
 50
270.0
 51
0.0
  0
LINE
  5
5E30
330
5CA4
100
AcDbEntity
  8
1
  6
Continuous
100
AcDbLine
 10
150.4970499999997
 20
50.637661
 30
0.0
 11
151.1970499999998
 21
50.637661
 31
0.0
  0
LINE
  5
5E31
330
5CA4
100
AcDbEntity
  8
1
  6
Continuous
100
AcDbLine
 10
172.4970499999997
 20
54.637661
 30
0.0
 11
174.4970499999998
 21
54.637661
 31
0.0
  0
LINE
  5
5E32
330
5CA4
100
AcDbEntity
  8
1
  6
Continuous
100
AcDbLine
 10
242.292464
 20
320.6376609999999
 30
0.0
 11
237.292464
 21
320.6376609999999
 31
0.0
  0
LINE
  5
5E33
330
5CA4
100
AcDbEntity
  8
1
  6
Continuous
100
AcDbLine
 10
171.99705
 20
87.13766099999999
 30
0.0
 11
151.4970499999997
 21
87.13766099999999
 31
0.0
  0
LINE
  5
5E34
330
5CA4
100
AcDbEntity
  8
1
  6
Continuous
100
AcDbLine
 10
171.99705
 20
54.137661
 30
0.0
 11
151.4970499999997
 21
54.137661
 31
0.0
  0
LINE
  5
5E35
330
5CA4
100
AcDbEntity
  8
1
  6
Continuous
100
AcDbLine
 10
171.99705
 20
54.137661
 30
0.0
 11
151.4970499999997
 21
54.137661
 31
0.0
  0
LINE
  5
5E36
330
5CA4
100
AcDbEntity
  8
4
  6
CENTER
100
AcDbLine
 10
129.49705
 20
195.637661
 30
0.0
 11
182.49705
 21
195.637661
 31
0.0
  0
ARC
  5
5E37
330
5CA4
100
AcDbEntity
  8
2
  6
Continuous
100
AcDbCircle
 10
374.09701
 20
195.637661
 30
0.0
 40
18.0
100
AcDbArc
 50
156.4435369999999
 51
203.556464
  0
ARC
  5
5E38
330
5CA4
100
AcDbEntity
  8
2
  6
Continuous
100
AcDbCircle
 10
374.09701
 20
195.637661
 30
0.0
 40
18.0
100
AcDbArc
 50
336.443536
 51
23.55646299999999
  0
ARC
  5
5E39
330
5CA4
100
AcDbEntity
  8
1
  6
Continuous
100
AcDbCircle
 10
374.09701
 20
195.637661
 30
0.0
 40
16.9175
100
AcDbArc
 50
167.2445729999997
 51
192.7554269999999
  0
ARC
  5
5E3A
330
5CA4
100
AcDbEntity
  8
1
  6
Continuous
100
AcDbCircle
 10
374.09701
 20
195.637661
 30
0.0
 40
16.9175
100
AcDbArc
 50
347.244573
 51
12.755427
  0
ARC
  5
5E3B
330
5CA4
100
AcDbEntity
  8
1
  6
Continuous
100
AcDbCircle
 10
242.292464
 20
298.1376609999998
 30
0.0
 40
0.5
100
AcDbArc
 50
270.0
 51
0.0
  0
ARC
  5
5E3C
330
5CA4
100
AcDbEntity
  8
1
  6
Continuous
100
AcDbCircle
 10
242.292464
 20
343.137661
 30
0.0
 40
0.5
100
AcDbArc
 50
0.0
 51
90.0
  0
LINE
  5
5E3D
330
5CA4
100
AcDbEntity
  8
1
  6
Continuous
100
AcDbLine
 10
134.89705
 20
92.47799099999999
 30
0.0
 11
141.9970499999998
 21
92.47799099999999
 31
0.0
  0
LINE
  5
5E3E
330
5CA4
100
AcDbEntity
  8
1
  6
Continuous
100
AcDbLine
 10
134.89705
 20
48.797332
 30
0.0
 11
141.9970499999998
 21
48.797332
 31
0.0
  0
LINE
  5
5E3F
330
5CA4
100
AcDbEntity
  8
4
  6
CENTER
100
AcDbLine
 10
219.49705
 20
70.63766099999998
 30
0.0
 11
296.09705
 21
70.63766099999998
 31
0.0
  0
LINE
  5
5E40
330
5CA4
100
AcDbEntity
  8
1
  6
Continuous
100
AcDbLine
 10
236.792464
 20
47.637661
 30
0.0
 11
236.792464
 21
93.63766099999999
 31
0.0
  0
LINE
  5
5E41
330
5CA4
100
AcDbEntity
  8
1
  6
Continuous
100
AcDbLine
 10
242.792464
 20
48.137661
 30
0.0
 11
242.792464
 21
93.137661
 31
0.0
  0
LINE
  5
5E42
330
5CA4
100
AcDbEntity
  8
1
  6
Continuous
100
AcDbLine
 10
229.792464
 20
50.137661
 30
0.0
 11
229.792464
 21
91.13766099999999
 31
0.0
  0
LINE
  5
5E43
330
5CA4
100
AcDbEntity
  8
1
  6
Continuous
100
AcDbLine
 10
234.792464
 20
48.637661
 30
0.0
 11
234.792464
 21
92.63766099999999
 31
0.0
  0
LINE
  5
5E44
330
5CA4
100
AcDbEntity
  8
1
  6
Continuous
100
AcDbLine
 10
234.792464
 20
70.63766099999998
 30
0.0
 11
229.792464
 21
65.63766099999999
 31
0.0
  0
ARC
  5
5E45
330
5CA4
100
AcDbEntity
  8
1
  6
Continuous
100
AcDbCircle
 10
232.292464
 20
50.137661
 30
0.0
 40
2.5
100
AcDbArc
 50
180.0
 51
0.0
  0
LINE
  5
5E46
330
5CA4
100
AcDbEntity
  8
1
  6
Continuous
100
AcDbLine
 10
235.792464
 20
47.637661
 30
0.0
 11
242.292464
 21
47.637661
 31
0.0
  0
ARC
  5
5E47
330
5CA4
100
AcDbEntity
  8
1
  6
Continuous
100
AcDbCircle
 10
235.792464
 20
48.637661
 30
0.0
 40
1.0
100
AcDbArc
 50
180.0
 51
270.0
  0
ARC
  5
5E48
330
5CA4
100
AcDbEntity
  8
1
  6
Continuous
100
AcDbCircle
 10
242.292464
 20
48.137661
 30
0.0
 40
0.5
100
AcDbArc
 50
270.0
 51
0.0
  0
LINE
  5
5E49
330
5CA4
100
AcDbEntity
  8
1
  6
Continuous
100
AcDbLine
 10
234.792464
 20
75.63766099999998
 30
0.0
 11
229.792464
 21
70.63766099999998
 31
0.0
  0
LINE
  5
5E4A
330
5CA4
100
AcDbEntity
  8
1
  6
Continuous
100
AcDbLine
 10
242.292464
 20
70.63766099999998
 30
0.0
 11
237.292464
 21
70.63766099999998
 31
0.0
  0
ARC
  5
5E4B
330
5CA4
100
AcDbEntity
  8
1
  6
Continuous
100
AcDbCircle
 10
232.292464
 20
91.13766099999999
 30
0.0
 40
2.5
100
AcDbArc
 50
0.0
 51
180.0
  0
LINE
  5
5E4C
330
5CA4
100
AcDbEntity
  8
1
  6
Continuous
100
AcDbLine
 10
235.792464
 20
93.63766099999999
 30
0.0
 11
242.292464
 21
93.63766099999999
 31
0.0
  0
ARC
  5
5E4D
330
5CA4
100
AcDbEntity
  8
1
  6
Continuous
100
AcDbCircle
 10
235.792464
 20
92.63766099999999
 30
0.0
 40
1.0
100
AcDbArc
 50
90.0
 51
180.0
  0
ARC
  5
5E4E
330
5CA4
100
AcDbEntity
  8
1
  6
Continuous
100
AcDbCircle
 10
242.292464
 20
93.137661
 30
0.0
 40
0.5
100
AcDbArc
 50
0.0
 51
90.0
  0
LINE
  5
5E4F
330
5CA4
100
AcDbEntity
  8
1
  6
Continuous
100
AcDbLine
 10
263.3947569999999
 20
59.637661
 30
0.0
 11
263.3947569999999
 21
81.63766099999998
 31
0.0
  0
LINE
  5
5E50
330
5CA4
100
AcDbEntity
  8
1
  6
Continuous
100
AcDbLine
 10
265.3947569999999
 20
59.637661
 30
0.0
 11
265.3947569999999
 21
81.63766099999998
 31
0.0
  0
LINE
  5
5E51
330
5CA4
100
AcDbEntity
  8
1
  6
Continuous
100
AcDbLine
 10
265.3947569999999
 20
59.637661
 30
0.0
 11
263.3947569999999
 21
59.637661
 31
0.0
  0
LINE
  5
5E52
330
5CA4
100
AcDbEntity
  8
1
  6
Continuous
100
AcDbLine
 10
265.3947569999999
 20
81.63766099999998
 30
0.0
 11
263.3947569999999
 21
81.63766099999998
 31
0.0
  0
ARC
  5
5E53
330
5CA4
100
AcDbEntity
  8
1
  6
Continuous
100
AcDbCircle
 10
285.8717589999999
 20
68.13766099999999
 30
0.0
 40
7.225291999999996
100
AcDbArc
 50
339.756734
 51
20.24326599999999
  0
LINE
  5
5E54
330
5CA4
100
AcDbEntity
  8
1
  6
Continuous
100
AcDbLine
 10
293.09705
 20
75.63766099999998
 30
0.0
 11
293.09705
 21
65.63766099999999
 31
0.0
  0
ARC
  5
5E55
330
5CA4
100
AcDbEntity
  8
1
  6
Continuous
100
AcDbCircle
 10
296.3223419999998
 20
68.13766099999999
 30
0.0
 40
7.225291999999996
100
AcDbArc
 50
159.7567339999999
 51
200.243266
  0
LINE
  5
5E56
330
5CA4
100
AcDbEntity
  8
1
  6
Continuous
100
AcDbLine
 10
289.09705
 20
75.63766099999998
 30
0.0
 11
289.09705
 21
65.63766099999999
 31
0.0
  0
LINE
  5
5E57
330
5CA4
100
AcDbEntity
  8
1
  6
Continuous
100
AcDbLine
 10
289.09705
 20
76.38766099999998
 30
0.0
 11
289.09705
 21
64.88766099999999
 31
0.0
  0
LINE
  5
5E58
330
5CA4
100
AcDbEntity
  8
1
  6
Continuous
100
AcDbLine
 10
287.59705
 20
64.88766099999999
 30
0.0
 11
287.59705
 21
76.38766099999998
 31
0.0
  0
LINE
  5
5E59
330
5CA4
100
AcDbEntity
  8
1
  6
Continuous
100
AcDbLine
 10
285.99705
 20
62.637661
 30
0.0
 11
285.99705
 21
78.63766099999998
 31
0.0
  0
LINE
  5
5E5A
330
5CA4
100
AcDbEntity
  8
1
  6
Continuous
100
AcDbLine
 10
287.59705
 20
62.637661
 30
0.0
 11
287.59705
 21
78.63766099999998
 31
0.0
  0
LINE
  5
5E5B
330
5CA4
100
AcDbEntity
  8
1
  6
Continuous
100
AcDbLine
 10
285.99705
 20
62.637661
 30
0.0
 11
287.59705
 21
62.637661
 31
0.0
  0
LINE
  5
5E5C
330
5CA4
100
AcDbEntity
  8
1
  6
Continuous
100
AcDbLine
 10
293.09705
 20
65.63766099999999
 30
0.0
 11
289.09705
 21
65.63766099999999
 31
0.0
  0
LINE
  5
5E5D
330
5CA4
100
AcDbEntity
  8
1
  6
Continuous
100
AcDbLine
 10
287.59705
 20
64.88766099999999
 30
0.0
 11
289.09705
 21
64.88766099999999
 31
0.0
  0
LINE
  5
5E5E
330
5CA4
100
AcDbEntity
  8
1
  6
Continuous
100
AcDbLine
 10
285.99705
 20
78.63766099999998
 30
0.0
 11
287.59705
 21
78.63766099999998
 31
0.0
  0
ARC
  5
5E5F
330
5CA4
100
AcDbEntity
  8
1
  6
Continuous
100
AcDbCircle
 10
285.8717589999999
 20
73.13766099999998
 30
0.0
 40
7.225291999999996
100
AcDbArc
 50
339.756734
 51
20.24326599999999
  0
ARC
  5
5E60
330
5CA4
100
AcDbEntity
  8
1
  6
Continuous
100
AcDbCircle
 10
296.3223419999998
 20
73.13766099999998
 30
0.0
 40
7.225291999999996
100
AcDbArc
 50
159.7567339999999
 51
200.243266
  0
LINE
  5
5E61
330
5CA4
100
AcDbEntity
  8
1
  6
Continuous
100
AcDbLine
 10
293.09705
 20
75.63766099999998
 30
0.0
 11
289.09705
 21
75.63766099999998
 31
0.0
  0
LINE
  5
5E62
330
5CA4
100
AcDbEntity
  8
1
  6
Continuous
100
AcDbLine
 10
289.5433419999998
 20
70.63766099999998
 30
0.0
 11
292.6507589999999
 21
70.63766099999998
 31
0.0
  0
LINE
  5
5E63
330
5CA4
100
AcDbEntity
  8
1
  6
Continuous
100
AcDbLine
 10
287.59705
 20
76.38766099999998
 30
0.0
 11
289.09705
 21
76.38766099999998
 31
0.0
  0
LINE
  5
5E64
330
5CA4
100
AcDbEntity
  8
1
  6
Continuous
100
AcDbLine
 10
287.59705
 20
70.63766099999998
 30
0.0
 11
289.09705
 21
72.13766099999998
 31
0.0
  0
LINE
  5
5E65
330
5CA4
100
AcDbEntity
  8
1
  6
Continuous
100
AcDbLine
 10
287.59705
 20
69.137661
 30
0.0
 11
289.09705
 21
70.63766099999998
 31
0.0
  0
LINE
  5
5E66
330
5CA4
100
AcDbEntity
  8
4
  6
CENTER
100
AcDbLine
 10
618.6969699999997
 20
195.637661
 30
0.0
 11
565.6969699999997
 21
195.637661
 31
0.0
  0
LINE
  5
5E67
330
5CA4
100
AcDbEntity
  8
1
  6
Continuous
100
AcDbLine
 10
615.1969699999997
 20
164.637661
 30
0.0
 11
613.29697
 21
164.637661
 31
0.0
  0
LINE
  5
5E68
330
5CA4
100
AcDbEntity
  8
1
  6
Continuous
100
AcDbLine
 10
615.5919669999998
 20
217.7726639999999
 30
0.0
 11
608.8471039999998
 21
226.4446309999999
 31
0.0
  0
LINE
  5
5E69
330
5CA4
100
AcDbEntity
  8
1
  6
Continuous
100
AcDbLine
 10
615.6969699999997
 20
165.1376609999998
 30
0.0
 11
615.6969699999997
 21
217.4661069999999
 31
0.0
  0
ARC
  5
5E6A
330
5CA4
100
AcDbEntity
  8
1
  6
Continuous
100
AcDbCircle
 10
615.1969699999997
 20
165.1376609999998
 30
0.0
 40
0.5
100
AcDbArc
 50
270.0
 51
0.0
  0
ARC
  5
5E6B
330
5CA4
100
AcDbEntity
  8
1
  6
Continuous
100
AcDbCircle
 10
615.1969699999997
 20
217.4661069999999
 30
0.0
 40
0.5
100
AcDbArc
 50
0.0
 51
37.874984
  0
LINE
  5
5E6C
330
5CA4
100
AcDbEntity
  8
4
  6
CENTER
100
AcDbLine
 10
528.6969699999998
 20
195.637661
 30
0.0
 11
452.09697
 21
195.637661
 31
0.0
  0
LINE
  5
5E6D
330
5CA4
100
AcDbEntity
  8
1
  6
Continuous
100
AcDbLine
 10
573.6969699999997
 20
179.637661
 30
0.0
 11
573.6969699999997
 21
209.304069
 31
0.0
  0
LINE
  5
5E6E
330
5CA4
100
AcDbEntity
  8
1
  6
Continuous
100
AcDbLine
 10
576.1969699999997
 20
179.137661
 30
0.0
 11
576.1969699999997
 21
212.1376609999999
 31
0.0
  0
LINE
  5
5E6F
330
5CA4
100
AcDbEntity
  8
1
  6
Continuous
100
AcDbLine
 10
575.6969699999997
 20
179.637661
 30
0.0
 11
575.6969699999997
 21
209.304069
 31
0.0
  0
LINE
  5
5E70
330
5CA4
100
AcDbEntity
  8
1
  6
Continuous
100
AcDbLine
 10
597.6969699999997
 20
165.637661
 30
0.0
 11
597.6969699999997
 21
225.6376609999998
 31
0.0
  0
LINE
  5
5E71
330
5CA4
100
AcDbEntity
  8
1
  6
Continuous
100
AcDbLine
 10
598.6969699999997
 20
165.637661
 30
0.0
 11
598.6969699999997
 21
225.6376609999998
 31
0.0
  0
LINE
  5
5E72
330
5CA4
100
AcDbEntity
  8
1
  6
Continuous
100
AcDbLine
 10
608.69697
 20
195.637661
 30
0.0
 11
608.69697
 21
225.82325
 31
0.0
  0
LINE
  5
5E73
330
5CA4
100
AcDbEntity
  8
1
  6
Continuous
100
AcDbLine
 10
598.99697
 20
164.937661
 30
0.0
 11
598.99697
 21
226.3376609999999
 31
0.0
  0
LINE
  5
5E74
330
5CA4
100
AcDbEntity
  8
1
  6
Continuous
100
AcDbLine
 10
599.2969699999997
 20
226.637661
 30
0.0
 11
599.2969699999997
 21
164.637661
 31
0.0
  0
LINE
  5
5E75
330
5CA4
100
AcDbEntity
  8
1
  6
Continuous
100
AcDbLine
 10
596.6969699999999
 20
172.437661
 30
0.0
 11
596.6969699999999
 21
218.837661
 31
0.0
  0
LINE
  5
5E76
330
5CA4
100
AcDbEntity
  8
1
  6
Continuous
100
AcDbLine
 10
594.6969699999997
 20
202.831408
 30
0.0
 11
594.6969699999997
 21
213.6376609999998
 31
0.0
  0
LINE
  5
5E77
330
5CA4
100
AcDbEntity
  8
1
  6
Continuous
100
AcDbLine
 10
577.6969699999997
 20
202.831408
 30
0.0
 11
577.6969699999997
 21
213.6376609999998
 31
0.0
  0
LINE
  5
5E78
330
5CA4
100
AcDbEntity
  8
2
  6
Continuous
100
AcDbLine
 10
594.6969699999997
 20
178.7201609999999
 30
0.0
 11
576.6144699999999
 21
178.7201609999999
 31
0.0
  0
LINE
  5
5E79
330
5CA4
100
AcDbEntity
  8
2
  6
Continuous
100
AcDbLine
 10
596.6969699999999
 20
202.831408
 30
0.0
 11
577.6969699999997
 21
188.4439129999999
 31
0.0
  0
LINE
  5
5E7A
330
5CA4
100
AcDbEntity
  8
1
  6
Continuous
100
AcDbLine
 10
596.6969699999999
 20
202.831408
 30
0.0
 11
577.6969689999997
 21
202.831408
 31
0.0
  0
LINE
  5
5E7B
330
5CA4
100
AcDbEntity
  8
1
  6
Continuous
100
AcDbLine
 10
596.6969699999999
 20
188.4439139999997
 30
0.0
 11
577.6969689999997
 21
188.4439139999997
 31
0.0
  0
LINE
  5
5E7C
330
5CA4
100
AcDbEntity
  8
2
  6
Continuous
100
AcDbLine
 10
596.6969699999999
 20
188.4439139999997
 30
0.0
 11
577.6969669999996
 21
202.8314029999999
 31
0.0
  0
LINE
  5
5E7D
330
5CA4
100
AcDbEntity
  8
1
  6
Continuous
100
AcDbLine
 10
596.6969699999999
 20
177.6376609999998
 30
0.0
 11
577.6969699999997
 21
177.6376609999998
 31
0.0
  0
LINE
  5
5E7E
330
5CA4
100
AcDbEntity
  8
1
  6
Continuous
100
AcDbLine
 10
594.6969699999997
 20
177.6376609999998
 30
0.0
 11
594.6969699999997
 21
188.4439139999997
 31
0.0
  0
LINE
  5
5E7F
330
5CA4
100
AcDbEntity
  8
1
  6
Continuous
100
AcDbLine
 10
598.99697
 20
167.387661
 30
0.0
 11
598.6969699999997
 21
167.6876609999998
 31
0.0
  0
LINE
  5
5E80
330
5CA4
100
AcDbEntity
  8
1
  6
Continuous
100
AcDbLine
 10
613.29697
 20
173.637661
 30
0.0
 11
606.1969699999997
 21
173.637661
 31
0.0
  0
LINE
  5
5E81
330
5CA4
100
AcDbEntity
  8
1
  6
Continuous
100
AcDbLine
 10
613.29697
 20
164.637661
 30
0.0
 11
613.29697
 21
173.637661
 31
0.0
  0
LINE
  5
5E82
330
5CA4
100
AcDbEntity
  8
1
  6
Continuous
100
AcDbLine
 10
606.1969699999997
 20
164.637661
 30
0.0
 11
599.2969699999997
 21
164.637661
 31
0.0
  0
LINE
  5
5E83
330
5CA4
100
AcDbEntity
  8
1
  6
Continuous
100
AcDbLine
 10
606.1969699999997
 20
164.637661
 30
0.0
 11
606.1969699999997
 21
173.637661
 31
0.0
  0
LINE
  5
5E84
330
5CA4
100
AcDbEntity
  8
1
  6
Continuous
100
AcDbLine
 10
598.99697
 20
164.937661
 30
0.0
 11
599.2969699999997
 21
164.637661
 31
0.0
  0
LINE
  5
5E85
330
5CA4
100
AcDbEntity
  8
1
  6
Continuous
100
AcDbLine
 10
597.6969699999997
 20
172.137661
 30
0.0
 11
596.99697
 21
172.137661
 31
0.0
  0
ARC
  5
5E86
330
5CA4
100
AcDbEntity
  8
1
  6
Continuous
100
AcDbCircle
 10
596.99697
 20
172.437661
 30
0.0
 40
0.3
100
AcDbArc
 50
180.0
 51
270.0
  0
LINE
  5
5E87
330
5CA4
100
AcDbEntity
  8
1
  6
Continuous
100
AcDbLine
 10
598.6969699999997
 20
165.637661
 30
0.0
 11
597.6969699999997
 21
165.637661
 31
0.0
  0
LINE
  5
5E88
330
5CA4
100
AcDbEntity
  8
1
  6
Continuous
100
AcDbLine
 10
596.99697
 20
176.041507
 30
0.0
 11
597.6969699999997
 21
176.041507
 31
0.0
  0
ARC
  5
5E89
330
5CA4
100
AcDbEntity
  8
1
  6
Continuous
100
AcDbCircle
 10
596.99697
 20
176.341507
 30
0.0
 40
0.3
100
AcDbArc
 50
180.0
 51
270.0
  0
LINE
  5
5E8A
330
5CA4
100
AcDbEntity
  8
2
  6
Continuous
100
AcDbLine
 10
596.6969699999999
 20
177.6376609999998
 30
0.0
 11
594.6969699999997
 21
178.7201609999999
 31
0.0
  0
LINE
  5
5E8B
330
5CA4
100
AcDbEntity
  8
1
  6
Continuous
100
AcDbLine
 10
577.6969699999997
 20
177.6376609999998
 30
0.0
 11
577.6969699999997
 21
188.4439139999997
 31
0.0
  0
LINE
  5
5E8C
330
5CA4
100
AcDbEntity
  8
1
  6
Continuous
100
AcDbLine
 10
577.6969699999997
 20
177.6376609999998
 30
0.0
 11
576.1969699999997
 21
179.137661
 31
0.0
  0
LINE
  5
5E8D
330
5CA4
100
AcDbEntity
  8
1
  6
Continuous
100
AcDbLine
 10
573.6969699999997
 20
179.637661
 30
0.0
 11
575.6969699999997
 21
179.637661
 31
0.0
  0
LINE
  5
5E8E
330
5CA4
100
AcDbEntity
  8
2
  6
Continuous
100
AcDbLine
 10
573.6969699999997
 20
200.5996639999999
 30
0.0
 11
568.99697
 21
195.9353809999998
 31
0.0
  0
LINE
  5
5E8F
330
5CA4
100
AcDbEntity
  8
1
  6
Continuous
100
AcDbLine
 10
568.6969699999997
 20
188.990857
 30
0.0
 11
568.6969699999997
 21
202.2844649999999
 31
0.0
  0
ARC
  5
5E90
330
5CA4
100
AcDbEntity
  8
1
  6
Continuous
100
AcDbCircle
 10
594.1969699999997
 20
195.637661
 30
0.0
 40
18.0
100
AcDbArc
 50
156.443536
 51
203.556464
  0
LINE
  5
5E91
330
5CA4
100
AcDbEntity
  8
1
  6
Continuous
100
AcDbLine
 10
576.1969699999997
 20
186.637661
 30
0.0
 11
575.6969699999997
 21
186.637661
 31
0.0
  0
LINE
  5
5E92
330
5CA4
100
AcDbEntity
  8
1
  6
Continuous
100
AcDbLine
 10
573.6969699999997
 20
195.637661
 30
0.0
 11
568.99697
 21
195.637661
 31
0.0
  0
ARC
  5
5E93
330
5CA4
100
AcDbEntity
  8
1
  6
Continuous
100
AcDbCircle
 10
568.99697
 20
188.990857
 30
0.0
 40
0.3
100
AcDbArc
 50
180.0
 51
270.0
  0
LINE
  5
5E94
330
5CA4
100
AcDbEntity
  8
1
  6
Continuous
100
AcDbLine
 10
573.6969699999997
 20
188.6908569999999
 30
0.0
 11
568.99697
 21
188.6908569999999
 31
0.0
  0
LINE
  5
5E95
330
5CA4
100
AcDbEntity
  8
2
  6
Continuous
100
AcDbLine
 10
573.6969699999997
 20
193.65286
 30
0.0
 11
568.99697
 21
188.988577
 31
0.0
  0
LINE
  5
5E96
330
5CA4
100
AcDbEntity
  8
2
  6
Continuous
100
AcDbLine
 10
573.6969699999997
 20
190.6756579999999
 30
0.0
 11
568.99697
 21
195.3399409999999
 31
0.0
  0
LINE
  5
5E97
330
5CA4
100
AcDbEntity
  8
1
  6
Continuous
100
AcDbLine
 10
576.1969699999997
 20
204.637661
 30
0.0
 11
575.6969699999997
 21
204.637661
 31
0.0
  0
ARC
  5
5E98
330
5CA4
100
AcDbEntity
  8
1
  6
Continuous
100
AcDbCircle
 10
568.99697
 20
202.2844649999999
 30
0.0
 40
0.3
100
AcDbArc
 50
90.0
 51
180.0
  0
LINE
  5
5E99
330
5CA4
100
AcDbEntity
  8
2
  6
Continuous
100
AcDbLine
 10
573.6969699999997
 20
197.622462
 30
0.0
 11
568.99697
 21
202.286745
 31
0.0
  0
LINE
  5
5E9A
330
5CA4
100
AcDbEntity
  8
1
  6
Continuous
100
AcDbLine
 10
573.6969699999997
 20
202.5844649999999
 30
0.0
 11
568.99697
 21
202.5844649999999
 31
0.0
  0
LINE
  5
5E9B
330
5CA4
100
AcDbEntity
  8
1
  6
Continuous
100
AcDbLine
 10
596.6969699999999
 20
213.6376609999998
 30
0.0
 11
577.6969699999997
 21
213.6376609999998
 31
0.0
  0
LINE
  5
5E9C
330
5CA4
100
AcDbEntity
  8
2
  6
Continuous
100
AcDbLine
 10
594.6969699999997
 20
212.555161
 30
0.0
 11
576.6144699999999
 21
212.555161
 31
0.0
  0
LINE
  5
5E9D
330
5CA4
100
AcDbEntity
  8
1
  6
Continuous
100
AcDbLine
 10
598.99697
 20
223.8876609999997
 30
0.0
 11
598.6969699999997
 21
223.587661
 31
0.0
  0
LINE
  5
5E9E
330
5CA4
100
AcDbEntity
  8
1
  6
Continuous
100
AcDbLine
 10
608.4524280000001
 20
226.637661
 30
0.0
 11
599.2969699999997
 21
226.637661
 31
0.0
  0
ARC
  5
5E9F
330
5CA4
100
AcDbEntity
  8
1
  6
Continuous
100
AcDbCircle
 10
608.4524280000001
 20
226.1376609999998
 30
0.0
 40
0.5
100
AcDbArc
 50
37.874984
 51
90.0
  0
LINE
  5
5EA0
330
5CA4
100
AcDbEntity
  8
1
  6
Continuous
100
AcDbLine
 10
598.99697
 20
226.3376609999999
 30
0.0
 11
599.2969699999997
 21
226.637661
 31
0.0
  0
LINE
  5
5EA1
330
5CA4
100
AcDbEntity
  8
1
  6
Continuous
100
AcDbLine
 10
596.99697
 20
215.2338149999999
 30
0.0
 11
597.6969699999997
 21
215.2338149999999
 31
0.0
  0
LINE
  5
5EA2
330
5CA4
100
AcDbEntity
  8
2
  6
Continuous
100
AcDbLine
 10
596.6969699999999
 20
213.6376609999998
 30
0.0
 11
594.6969699999997
 21
212.555161
 31
0.0
  0
ARC
  5
5EA3
330
5CA4
100
AcDbEntity
  8
1
  6
Continuous
100
AcDbCircle
 10
596.99697
 20
214.9338149999999
 30
0.0
 40
0.3
100
AcDbArc
 50
90.0
 51
180.0
  0
LINE
  5
5EA4
330
5CA4
100
AcDbEntity
  8
1
  6
Continuous
100
AcDbLine
 10
598.6969699999997
 20
225.6376609999998
 30
0.0
 11
597.6969699999997
 21
225.6376609999998
 31
0.0
  0
LINE
  5
5EA5
330
5CA4
100
AcDbEntity
  8
1
  6
Continuous
100
AcDbLine
 10
597.6969699999997
 20
219.1376609999998
 30
0.0
 11
596.99697
 21
219.1376609999998
 31
0.0
  0
ARC
  5
5EA6
330
5CA4
100
AcDbEntity
  8
1
  6
Continuous
100
AcDbCircle
 10
596.99697
 20
218.837661
 30
0.0
 40
0.3
100
AcDbArc
 50
90.0
 51
180.0
  0
LINE
  5
5EA7
330
5CA4
100
AcDbEntity
  8
1
  6
Continuous
100
AcDbLine
 10
576.1969699999997
 20
212.1376609999999
 30
0.0
 11
574.1969699999997
 21
212.1376609999999
 31
0.0
  0
LINE
  5
5EA8
330
5CA4
100
AcDbEntity
  8
1
  6
Continuous
100
AcDbLine
 10
575.6969699999997
 20
207.435987
 30
0.0
 11
576.1969699999997
 21
207.435987
 31
0.0
  0
LINE
  5
5EA9
330
5CA4
100
AcDbEntity
  8
1
  6
Continuous
100
AcDbLine
 10
574.1969699999997
 20
209.9270799999999
 30
0.0
 11
576.1969699999997
 21
209.9270799999999
 31
0.0
  0
LINE
  5
5EAA
330
5CA4
100
AcDbEntity
  8
1
  6
Continuous
100
AcDbLine
 10
576.1969699999997
 20
212.1376609999999
 30
0.0
 11
577.6969699999997
 21
213.6376609999998
 31
0.0
  0
LINE
  5
5EAB
330
5CA4
100
AcDbEntity
  8
1
  6
Continuous
100
AcDbLine
 10
573.89697
 20
209.304069
 30
0.0
 11
573.89697
 21
211.8376609999998
 31
0.0
  0
ARC
  5
5EAC
330
5CA4
100
AcDbEntity
  8
1
  6
Continuous
100
AcDbCircle
 10
574.1969699999997
 20
211.8376609999998
 30
0.0
 40
0.3
100
AcDbArc
 50
90.0
 51
180.0
  0
ARC
  5
5EAD
330
5CA4
100
AcDbEntity
  8
1
  6
Continuous
100
AcDbCircle
 10
574.1969699999997
 20
209.62708
 30
0.0
 40
0.3
100
AcDbArc
 50
90.0
 51
180.0
  0
LINE
  5
5EAE
330
5CA4
100
AcDbEntity
  8
1
  6
Continuous
100
AcDbLine
 10
573.6969699999997
 20
209.304069
 30
0.0
 11
575.6969699999997
 21
209.304069
 31
0.0
  0
LINE
  5
5EAF
330
5CA4
100
AcDbEntity
  8
1
  6
Continuous
100
AcDbLine
 10
518.4015559999997
 20
175.137661
 30
0.0
 11
518.4015559999997
 21
216.137661
 31
0.0
  0
LINE
  5
5EB0
330
5CA4
100
AcDbEntity
  8
1
  6
Continuous
100
AcDbLine
 10
513.4015559999998
 20
173.637661
 30
0.0
 11
513.4015559999998
 21
217.6376609999997
 31
0.0
  0
LINE
  5
5EB1
330
5CA4
100
AcDbEntity
  8
1
  6
Continuous
100
AcDbLine
 10
505.4015559999998
 20
169.734249
 30
0.0
 11
505.4015559999998
 21
221.541073
 31
0.0
  0
LINE
  5
5EB2
330
5CA4
100
AcDbEntity
  8
1
  6
Continuous
100
AcDbLine
 10
511.4015559999998
 20
169.734249
 30
0.0
 11
511.4015559999998
 21
221.541073
 31
0.0
  0
ARC
  5
5EB3
330
5CA4
100
AcDbEntity
  8
1
  6
Continuous
100
AcDbCircle
 10
515.9015559999998
 20
175.137661
 30
0.0
 40
2.5
100
AcDbArc
 50
180.0
 51
0.0
  0
LINE
  5
5EB4
330
5CA4
100
AcDbEntity
  8
1
  6
Continuous
100
AcDbLine
 10
505.9015559999998
 20
169.234249
 30
0.0
 11
510.9015559999998
 21
169.234249
 31
0.0
  0
LINE
  5
5EB5
330
5CA4
100
AcDbEntity
  8
1
  6
Continuous
100
AcDbLine
 10
512.4015559999998
 20
172.637661
 30
0.0
 11
511.4015559999998
 21
172.637661
 31
0.0
  0
ARC
  5
5EB6
330
5CA4
100
AcDbEntity
  8
1
  6
Continuous
100
AcDbCircle
 10
510.9015559999998
 20
169.734249
 30
0.0
 40
0.5
100
AcDbArc
 50
270.0
 51
0.0
  0
ARC
  5
5EB7
330
5CA4
100
AcDbEntity
  8
1
  6
Continuous
100
AcDbCircle
 10
512.4015559999998
 20
173.637661
 30
0.0
 40
1.0
100
AcDbArc
 50
270.0
 51
0.0
  0
ARC
  5
5EB8
330
5CA4
100
AcDbEntity
  8
1
  6
Continuous
100
AcDbCircle
 10
505.9015559999998
 20
169.734249
 30
0.0
 40
0.5
100
AcDbArc
 50
180.0
 51
270.0
  0
LINE
  5
5EB9
330
5CA4
100
AcDbEntity
  8
1
  6
Continuous
100
AcDbLine
 10
505.9015559999998
 20
182.358605
 30
0.0
 11
510.9015559999998
 21
182.358605
 31
0.0
  0
LINE
  5
5EBA
330
5CA4
100
AcDbEntity
  8
1
  6
Continuous
100
AcDbLine
 10
513.4015559999998
 20
195.637661
 30
0.0
 11
518.4015559999997
 21
200.637661
 31
0.0
  0
LINE
  5
5EBB
330
5CA4
100
AcDbEntity
  8
1
  6
Continuous
100
AcDbLine
 10
513.4015559999998
 20
190.637661
 30
0.0
 11
518.4015559999997
 21
195.637661
 31
0.0
  0
ARC
  5
5EBC
330
5CA4
100
AcDbEntity
  8
1
  6
Continuous
100
AcDbCircle
 10
515.9015559999998
 20
216.137661
 30
0.0
 40
2.5
100
AcDbArc
 50
0.0
 51
180.0
  0
ARC
  5
5EBD
330
5CA4
100
AcDbEntity
  8
1
  6
Continuous
100
AcDbCircle
 10
512.4015559999998
 20
217.6376609999997
 30
0.0
 40
1.0
100
AcDbArc
 50
0.0
 51
90.0
  0
LINE
  5
5EBE
330
5CA4
100
AcDbEntity
  8
1
  6
Continuous
100
AcDbLine
 10
505.9015559999998
 20
208.916717
 30
0.0
 11
510.9015559999998
 21
208.916717
 31
0.0
  0
LINE
  5
5EBF
330
5CA4
100
AcDbEntity
  8
1
  6
Continuous
100
AcDbLine
 10
505.9015559999998
 20
222.041073
 30
0.0
 11
510.9015559999998
 21
222.041073
 31
0.0
  0
ARC
  5
5EC0
330
5CA4
100
AcDbEntity
  8
1
  6
Continuous
100
AcDbCircle
 10
510.9015559999998
 20
221.541073
 30
0.0
 40
0.5
100
AcDbArc
 50
0.0
 51
90.0
  0
LINE
  5
5EC1
330
5CA4
100
AcDbEntity
  8
1
  6
Continuous
100
AcDbLine
 10
512.4015559999998
 20
218.6376609999999
 30
0.0
 11
511.4015559999998
 21
218.6376609999999
 31
0.0
  0
ARC
  5
5EC2
330
5CA4
100
AcDbEntity
  8
1
  6
Continuous
100
AcDbCircle
 10
505.9015559999998
 20
221.541073
 30
0.0
 40
0.5
100
AcDbArc
 50
90.0
 51
180.0
  0
LINE
  5
5EC3
330
5CA4
100
AcDbEntity
  8
1
  6
Continuous
100
AcDbLine
 10
484.799263
 20
184.637661
 30
0.0
 11
484.799263
 21
206.637661
 31
0.0
  0
LINE
  5
5EC4
330
5CA4
100
AcDbEntity
  8
1
  6
Continuous
100
AcDbLine
 10
482.7992629999998
 20
184.637661
 30
0.0
 11
482.7992629999998
 21
206.637661
 31
0.0
  0
LINE
  5
5EC5
330
5CA4
100
AcDbEntity
  8
1
  6
Continuous
100
AcDbLine
 10
482.7992629999998
 20
184.637661
 30
0.0
 11
484.799263
 21
184.637661
 31
0.0
  0
LINE
  5
5EC6
330
5CA4
100
AcDbEntity
  8
1
  6
Continuous
100
AcDbLine
 10
482.7992629999998
 20
206.637661
 30
0.0
 11
484.799263
 21
206.637661
 31
0.0
  0
LINE
  5
5EC7
330
5CA4
100
AcDbEntity
  8
1
  6
Continuous
100
AcDbLine
 10
460.59697
 20
195.637661
 30
0.0
 11
459.09697
 21
194.137661
 31
0.0
  0
LINE
  5
5EC8
330
5CA4
100
AcDbEntity
  8
1
  6
Continuous
100
AcDbLine
 10
460.59697
 20
189.887661
 30
0.0
 11
460.59697
 21
201.387661
 31
0.0
  0
LINE
  5
5EC9
330
5CA4
100
AcDbEntity
  8
1
  6
Continuous
100
AcDbLine
 10
455.09697
 20
200.537661
 30
0.0
 11
455.09697
 21
190.737661
 31
0.0
  0
ARC
  5
5ECA
330
5CA4
100
AcDbEntity
  8
1
  6
Continuous
100
AcDbCircle
 10
462.9271489999998
 20
195.637661
 30
0.0
 40
7.83018
100
AcDbArc
 50
158.366392
 51
201.633608
  0
LINE
  5
5ECB
330
5CA4
100
AcDbEntity
  8
1
  6
Continuous
100
AcDbLine
 10
459.09697
 20
201.387661
 30
0.0
 11
459.09697
 21
189.887661
 31
0.0
  0
ARC
  5
5ECC
330
5CA4
100
AcDbEntity
  8
1
  6
Continuous
100
AcDbCircle
 10
451.26679
 20
195.637661
 30
0.0
 40
7.83018
100
AcDbArc
 50
338.366392
 51
21.63360799999999
  0
LINE
  5
5ECD
330
5CA4
100
AcDbEntity
  8
1
  6
Continuous
100
AcDbLine
 10
462.19697
 20
187.637661
 30
0.0
 11
462.19697
 21
203.637661
 31
0.0
  0
LINE
  5
5ECE
330
5CA4
100
AcDbEntity
  8
1
  6
Continuous
100
AcDbLine
 10
460.59697
 20
187.637661
 30
0.0
 11
460.59697
 21
203.637661
 31
0.0
  0
LINE
  5
5ECF
330
5CA4
100
AcDbEntity
  8
1
  6
Continuous
100
AcDbLine
 10
462.19697
 20
187.637661
 30
0.0
 11
460.59697
 21
187.637661
 31
0.0
  0
LINE
  5
5ED0
330
5CA4
100
AcDbEntity
  8
1
  6
Continuous
100
AcDbLine
 10
460.59697
 20
197.137661
 30
0.0
 11
459.09697
 21
195.637661
 31
0.0
  0
LINE
  5
5ED1
330
5CA4
100
AcDbEntity
  8
1
  6
Continuous
100
AcDbLine
 10
455.6012869999998
 20
189.8641579999998
 30
0.0
 11
458.592653
 21
189.8641579999998
 31
0.0
  0
LINE
  5
5ED2
330
5CA4
100
AcDbEntity
  8
1
  6
Continuous
100
AcDbLine
 10
455.6485239999997
 20
192.75091
 30
0.0
 11
458.545415
 21
192.75091
 31
0.0
  0
LINE
  5
5ED3
330
5CA4
100
AcDbEntity
  8
1
  6
Continuous
100
AcDbLine
 10
455.6012869999998
 20
189.8641579999998
 30
0.0
 11
455.09697
 21
190.737661
 31
0.0
  0
ARC
  5
5ED4
330
5CA4
100
AcDbEntity
  8
1
  6
Continuous
100
AcDbCircle
 10
457.261348
 20
191.3075339999998
 30
0.0
 40
2.164377999999996
100
AcDbArc
 50
138.1734519999999
 51
180.0
  0
LINE
  5
5ED5
330
5CA4
100
AcDbEntity
  8
1
  6
Continuous
100
AcDbLine
 10
458.592653
 20
189.8641579999998
 30
0.0
 11
459.09697
 21
190.737661
 31
0.0
  0
ARC
  5
5ED6
330
5CA4
100
AcDbEntity
  8
1
  6
Continuous
100
AcDbCircle
 10
456.9325919999998
 20
191.3075339999998
 30
0.0
 40
2.164377999999996
100
AcDbArc
 50
0.0
 51
41.82654799999999
  0
LINE
  5
5ED7
330
5CA4
100
AcDbEntity
  8
1
  6
Continuous
100
AcDbLine
 10
460.59697
 20
189.887661
 30
0.0
 11
459.09697
 21
189.887661
 31
0.0
  0
LINE
  5
5ED8
330
5CA4
100
AcDbEntity
  8
1
  6
Continuous
100
AcDbLine
 10
462.19697
 20
203.637661
 30
0.0
 11
460.59697
 21
203.637661
 31
0.0
  0
LINE
  5
5ED9
330
5CA4
100
AcDbEntity
  8
1
  6
Continuous
100
AcDbLine
 10
455.6012869999998
 20
201.4111639999999
 30
0.0
 11
458.592653
 21
201.4111639999999
 31
0.0
  0
LINE
  5
5EDA
330
5CA4
100
AcDbEntity
  8
1
  6
Continuous
100
AcDbLine
 10
455.6485239999997
 20
198.524412
 30
0.0
 11
458.545415
 21
198.524412
 31
0.0
  0
LINE
  5
5EDB
330
5CA4
100
AcDbEntity
  8
1
  6
Continuous
100
AcDbLine
 10
455.6012869999998
 20
201.4111639999999
 30
0.0
 11
455.09697
 21
200.537661
 31
0.0
  0
ARC
  5
5EDC
330
5CA4
100
AcDbEntity
  8
1
  6
Continuous
100
AcDbCircle
 10
457.261348
 20
199.9677879999999
 30
0.0
 40
2.164377999999996
100
AcDbArc
 50
180.0
 51
221.8265479999999
  0
ARC
  5
5EDD
330
5CA4
100
AcDbEntity
  8
1
  6
Continuous
100
AcDbCircle
 10
456.9325919999998
 20
199.9677879999999
 30
0.0
 40
2.164377999999996
100
AcDbArc
 50
318.173452
 51
0.0
  0
LINE
  5
5EDE
330
5CA4
100
AcDbEntity
  8
1
  6
Continuous
100
AcDbLine
 10
458.592653
 20
201.4111639999999
 30
0.0
 11
459.09697
 21
200.537661
 31
0.0
  0
LINE
  5
5EDF
330
5CA4
100
AcDbEntity
  8
1
  6
Continuous
100
AcDbLine
 10
460.59697
 20
201.387661
 30
0.0
 11
459.09697
 21
201.387661
 31
0.0
  0
LINE
  5
5EE0
330
5CA4
100
AcDbEntity
  8
4
  6
CENTER
100
AcDbLine
 10
390.09701
 20
265.6376609999999
 30
0.0
 11
358.09701
 21
265.6376609999999
 31
0.0
  0
LINE
  5
5EE1
330
5CA4
100
AcDbEntity
  8
4
  6
CENTER
100
AcDbLine
 10
374.09701
 20
281.6376609999998
 30
0.0
 11
374.09701
 21
249.6376609999999
 31
0.0
  0
LINE
  5
5EE2
330
5CA4
100
AcDbEntity
  8
1
  6
Continuous
100
AcDbLine
 10
374.309142
 20
202.496597
 30
0.0
 11
380.955946
 21
195.849793
 31
0.0
  0
LINE
  5
5EE3
330
5CA4
100
AcDbEntity
  8
1
  6
Continuous
100
AcDbLine
 10
380.955946
 20
195.425529
 30
0.0
 11
374.309142
 21
188.778725
 31
0.0
  0
CIRCLE
  5
5EE4
330
5CA4
100
AcDbEntity
  8
1
  6
Continuous
100
AcDbCircle
 10
374.09701
 20
195.637661
 30
0.0
 40
3.5
  0
LINE
  5
5EE5
330
5CA4
100
AcDbEntity
  8
1
  6
Continuous
100
AcDbLine
 10
367.2380749999998
 20
195.425529
 30
0.0
 11
373.8848779999997
 21
188.778725
 31
0.0
  0
CIRCLE
  5
5EE6
330
5CA4
100
AcDbEntity
  8
2
  6
Continuous
100
AcDbCircle
 10
374.09701
 20
195.637661
 30
0.0
 40
3.0
  0
ARC
  5
5EE7
330
5CA4
100
AcDbEntity
  8
1
  6
Continuous
100
AcDbCircle
 10
374.09701
 20
188.990857
 30
0.0
 40
0.3
100
AcDbArc
 50
225.0
 51
315.0
  0
LINE
  5
5EE8
330
5CA4
100
AcDbEntity
  8
1
  6
Continuous
100
AcDbLine
 10
367.2380749999998
 20
195.849793
 30
0.0
 11
373.8848779999997
 21
202.496597
 31
0.0
  0
CIRCLE
  5
5EE9
330
5CA4
100
AcDbEntity
  8
1
  6
Continuous
100
AcDbCircle
 10
374.09701
 20
195.637661
 30
0.0
 40
2.458499999999999
  0
ARC
  5
5EEA
330
5CA4
100
AcDbEntity
  8
1
  6
Continuous
100
AcDbCircle
 10
367.4502069999999
 20
195.637661
 30
0.0
 40
0.3
100
AcDbArc
 50
135.0
 51
225.0
  0
ARC
  5
5EEB
330
5CA4
100
AcDbEntity
  8
1
  6
Continuous
100
AcDbCircle
 10
374.09701
 20
202.2844649999999
 30
0.0
 40
0.3
100
AcDbArc
 50
45.0
 51
135.0
  0
ARC
  5
5EEC
330
5CA4
100
AcDbEntity
  8
1
  6
Continuous
100
AcDbCircle
 10
380.743814
 20
195.637661
 30
0.0
 40
0.3
100
AcDbArc
 50
315.0
 51
45.0
  0
ARC
  5
5EED
330
5CA4
100
AcDbEntity
  8
1
  6
Continuous
100
AcDbCircle
 10
103.31226
 20
195.1701139999999
 30
0.0
 40
36.187765
100
AcDbArc
 50
325.114605
 51
0.7408200000000002
  0
ARC
  5
5EEE
330
5CA4
100
AcDbEntity
  8
1
  6
Continuous
100
AcDbCircle
 10
644.8817599999999
 20
195.1701139999999
 30
0.0
 40
36.187765
100
AcDbArc
 50
179.2591799999999
 51
214.8853949999999
  0
ENDSEC
  0
SECTION
  2
OBJECTS
  0
DICTIONARY
  5
5C92
330
0
100
AcDbDictionary
281
     1
  3
ACAD_CIP_PREVIOUS_PRODUCT_INFO
350
5F53
  3
ACAD_COLOR
350
5F36
  3
ACAD_DETAILVIEWSTYLE
350
5F4F
  3
ACAD_GROUP
350
5C93
  3
ACAD_LAYOUT
350
5C9F
  3
ACAD_MATERIAL
350
5F04
  3
ACAD_MLEADERSTYLE
350
5F4B
  3
ACAD_MLINESTYLE
350
5C9C
  3
ACAD_PLOTSETTINGS
350
5C9E
  3
ACAD_PLOTSTYLENAME
350
5F02
  3
ACAD_SCALELIST
350
5F39
  3
ACAD_SECTIONVIEWSTYLE
350
5F4D
  3
ACAD_TABLESTYLE
350
5F37
  3
ACAD_VISUALSTYLE
350
5F1D
  3
ACDB_RECOMPOSE_DATA
350
5F71
  3
AcDbVariableDictionary
350
5F64
  3
DWGPROPS
350
5F72
  0
DICTIONARY
  5
5F54
330
5C96
100
AcDbDictionary
280
     1
281
     1
  3
ADSK_XREC_LAYER_RECONCILED
360
5F55
  0
DICTIONARY
  5
5F56
330
5CAC
100
AcDbDictionary
280
     1
281
     1
  3
ADSK_XREC_LAYER_RECONCILED
360
5F57
  0
DICTIONARY
  5
5F58
330
5CAD
100
AcDbDictionary
280
     1
281
     1
  3
ADSK_XREC_LAYER_RECONCILED
360
5F59
  0
DICTIONARY
  5
5F5A
330
5CAE
100
AcDbDictionary
280
     1
281
     1
  3
ADSK_XREC_LAYER_RECONCILED
360
5F5B
  0
DICTIONARY
  5
5F5C
330
5CAF
100
AcDbDictionary
280
     1
281
     1
  3
ADSK_XREC_LAYER_RECONCILED
360
5F5D
  0
DICTIONARY
  5
5F5E
330
5CB0
100
AcDbDictionary
280
     1
281
     1
  3
ADSK_XREC_LAYER_RECONCILED
360
5F5F
  0
DICTIONARY
  5
5F60
330
5CB1
100
AcDbDictionary
280
     1
281
     1
  3
ADSK_XREC_LAYER_RECONCILED
360
5F61
  0
DICTIONARY
  5
5F62
330
5CB2
100
AcDbDictionary
280
     1
281
     1
  3
ADSK_XREC_LAYER_RECONCILED
360
5F63
  0
DICTIONARY
  5
5EFD
330
5CA4
100
AcDbDictionary
281
     1
  3
ACAD_LAYOUTSELFREF
350
5EFE
  0
DICTIONARY
  5
5EFB
330
5CA0
100
AcDbDictionary
281
     1
  3
ACAD_LAYOUTSELFREF
350
5EFC
  0
XRECORD
  5
5F53
102
{ACAD_REACTORS
330
5C92
102
}
330
5C92
100
AcDbXrecord
280
     1
300
ACDLT
300
2014
300
ACDLT_F_S
  0
DICTIONARY
  5
5F36
102
{ACAD_REACTORS
330
5C92
102
}
330
5C92
100
AcDbDictionary
281
     1
  0
DICTIONARY
  5
5F4F
102
{ACAD_REACTORS
330
5C92
102
}
330
5C92
100
AcDbDictionary
281
     1
  3
Imperial24
350
5F50
  0
DICTIONARY
  5
5C93
102
{ACAD_REACTORS
330
5C92
102
}
330
5C92
100
AcDbDictionary
281
     1
  0
DICTIONARY
  5
5C9F
102
{ACAD_REACTORS
330
5C92
102
}
330
5C92
100
AcDbDictionary
281
     1
  3
Model
350
5F51
  3
レイアウト1
350
5F52
  0
DICTIONARY
  5
5F04
102
{ACAD_REACTORS
330
5C92
102
}
330
5C92
100
AcDbDictionary
281
     1
  3
ByBlock
350
5F0D
  3
ByLayer
350
5F05
  3
Global
350
5F15
  0
DICTIONARY
  5
5F4B
102
{ACAD_REACTORS
330
5C92
102
}
330
5C92
100
AcDbDictionary
281
     1
  3
Standard
350
5F4C
  0
DICTIONARY
  5
5C9C
102
{ACAD_REACTORS
330
5C92
102
}
330
5C92
100
AcDbDictionary
281
     1
  3
STANDARD
350
5C9D
  0
DICTIONARY
  5
5C9E
102
{ACAD_REACTORS
330
5C92
102
}
330
5C92
100
AcDbDictionary
281
     1
  0
ACDBDICTIONARYWDFLT
  5
5F02
102
{ACAD_REACTORS
330
5C92
102
}
330
5C92
100
AcDbDictionary
281
     1
  3
Normal
350
5F03
100
AcDbDictionaryWithDefault
340
5F03
  0
DICTIONARY
  5
5F39
102
{ACAD_REACTORS
330
5C92
102
}
330
5C92
100
AcDbDictionary
281
     1
  3
A0
350
5F3A
  3
A1
350
5F3B
  3
A2
350
5F3C
  3
A3
350
5F3D
  3
A4
350
5F3E
  3
A5
350
5F3F
  3
A6
350
5F40
  3
A7
350
5F41
  3
A8
350
5F42
  3
A9
350
5F43
  3
B0
350
5F44
  3
B1
350
5F45
  3
B2
350
5F46
  3
B3
350
5F47
  3
B4
350
5F48
  3
B5
350
5F49
  3
B6
350
5F4A
  0
DICTIONARY
  5
5F4D
102
{ACAD_REACTORS
330
5C92
102
}
330
5C92
100
AcDbDictionary
281
     1
  3
Imperial24
350
5F4E
  0
DICTIONARY
  5
5F37
102
{ACAD_REACTORS
330
5C92
102
}
330
5C92
100
AcDbDictionary
281
     1
  3
Standard
350
5F38
  0
DICTIONARY
  5
5F1D
102
{ACAD_REACTORS
330
5C92
102
}
330
5C92
100
AcDbDictionary
281
     1
  3
2dWireframe
350
5F23
  3
Basic
350
5F22
  3
Brighten
350
5F29
  3
ColorChange
350
5F2D
  3
Conceptual
350
5F26
  3
Dim
350
5F28
  3
EdgeColorOff
350
5F35
  3
Facepattern
350
5F2C
  3
Flat
350
5F1E
  3
FlatWithEdges
350
5F1F
  3
Gouraud
350
5F20
  3
GouraudWithEdges
350
5F21
  3
Hidden
350
5F25
  3
JitterOff
350
5F33
  3
Linepattern
350
5F2B
  3
OverhangOff
350
5F34
  3
Realistic
350
5F27
  3
Shaded
350
5F32
  3
Shaded with edges
350
5F31
  3
Shades of Gray
350
5F2E
  3
Sketchy
350
5F2F
  3
Thicken
350
5F2A
  3
Wireframe
350
5F24
  3
X-Ray
350
5F30
  0
XRECORD
  5
5F71
102
{ACAD_REACTORS
330
5C92
102
}
330
5C92
100
AcDbXrecord
280
     1
 90
        1
330
5F38
  0
DICTIONARY
  5
5F64
102
{ACAD_REACTORS
330
5C92
102
}
330
5C92
100
AcDbDictionary
281
     1
  3
CANNOSCALE
350
5F69
  3
CMLEADERSTYLE
350
5F66
  3
CTABLESTYLE
350
5F65
  3
CVIEWDETAILSTYLE
350
5F67
  3
CVIEWSECTIONSTYLE
350
5F68
  3
DIMASSOC
350
5F6C
  3
INDEXCTL
350
5F6B
  3
SORTENTS
350
5F6A
  3
XCLIPFRAME
350
5F6D
  0
XRECORD
  5
5F72
102
{ACAD_REACTORS
330
5C92
102
}
330
5C92
100
AcDbXrecord
280
     1
  1
DWGPROPS COOKIE
  2

  3

  4

  6

  7

  8
Yoshitsune
  9

300
=
301
=
302
=
303
=
304
=
305
=
306
=
307
=
308
=
309
=
 40
0.3127533796296296
 41
2452065.587445
 42
2457192.64182669
  1

 90
        0
  0
XRECORD
  5
5F55
102
{ACAD_REACTORS
330
5F54
102
}
330
5F54
100
AcDbXrecord
280
     1
290
     1
  0
XRECORD
  5
5F57
102
{ACAD_REACTORS
330
5F56
102
}
330
5F56
100
AcDbXrecord
280
     1
290
     1
  0
XRECORD
  5
5F59
102
{ACAD_REACTORS
330
5F58
102
}
330
5F58
100
AcDbXrecord
280
     1
290
     1
  0
XRECORD
  5
5F5B
102
{ACAD_REACTORS
330
5F5A
102
}
330
5F5A
100
AcDbXrecord
280
     1
290
     1
  0
XRECORD
  5
5F5D
102
{ACAD_REACTORS
330
5F5C
102
}
330
5F5C
100
AcDbXrecord
280
     1
290
     1
  0
XRECORD
  5
5F5F
102
{ACAD_REACTORS
330
5F5E
102
}
330
5F5E
100
AcDbXrecord
280
     1
290
     1
  0
XRECORD
  5
5F61
102
{ACAD_REACTORS
330
5F60
102
}
330
5F60
100
AcDbXrecord
280
     1
290
     1
  0
XRECORD
  5
5F63
102
{ACAD_REACTORS
330
5F62
102
}
330
5F62
100
AcDbXrecord
280
     1
290
     1
  0
XRECORD
  5
5EFE
102
{ACAD_REACTORS
330
5EFD
102
}
330
5EFD
100
AcDbXrecord
280
     1
340
5CA4
  0
XRECORD
  5
5EFC
102
{ACAD_REACTORS
330
5EFB
102
}
330
5EFB
100
AcDbXrecord
280
     1
340
5CA0
  0
ACDBDETAILVIEWSTYLE
  5
5F50
102
{ACAD_XDICTIONARY
360
5FAA
102
}
102
{ACAD_REACTORS
330
5F4F
102
}
330
5F4F
100
AcDbModelDocViewStyle
 70
     0
  3
Imperial24
290
     0
100
AcDbDetailViewStyle
 70
     0
 71
     0
 90
        3
 71
     1
340
5C97
 40
0.24
340
0
 40
0.24
300

 40
0.36
280
     3
 71
     2
340
5C9B
 90
       25
 71
     3
340
5C97
 40
0.24
 90
        1
 40
0.75
 90
        1
300
%<\AcVar ViewType \f "%tc1">% %<\AcVar ViewDetailId>%\PSCALE %<\AcVar ViewScale \f "%sn">%
 71
     4
340
5C9B
 90
       25
340
5C9B
 90
       25
280
     0
  0
LAYOUT
  5
5F51
102
{ACAD_XDICTIONARY
360
5FAC
102
}
102
{ACAD_REACTORS
330
5C9F
102
}
330
5C9F
100
AcDbPlotSettings
  1

  2
Canon LBP9100C
  4

  6

 40
0.0
 41
0.0
 42
0.0
 43
0.0
 44
0.0
 45
0.0
 46
0.0
 47
0.0
 48
0.0
 49
0.0
140
0.0
141
0.0
142
1.0
143
1.0
 70
  1712
 72
     0
 73
     0
 74
     0
  7

 75
     0
147
1.0
148
0.0
149
0.0
100
AcDbLayout
  1
Model
 70
     1
 71
     0
 10
0.0
 20
0.0
 11
12.0
 21
9.0
 12
0.0
 22
0.0
 32
0.0
 14
0.0
 24
0.0
 34
0.0
 15
0.0
 25
0.0
 35
0.0
146
0.0
 13
0.0
 23
0.0
 33
0.0
 16
1.0
 26
0.0
 36
0.0
 17
0.0
 27
1.0
 37
0.0
 76
     0
330
5CA4
331
5EFA
  0
LAYOUT
  5
5F52
102
{ACAD_XDICTIONARY
360
5FAE
102
}
102
{ACAD_REACTORS
330
5C9F
102
}
330
5C9F
100
AcDbPlotSettings
  1

  2
Canon LBP9100C
  4

  6

 40
0.0
 41
0.0
 42
0.0
 43
0.0
 44
0.0
 45
0.0
 46
0.0
 47
0.0
 48
0.0
 49
0.0
140
0.0
141
0.0
142
1.0
143
1.0
 70
   688
 72
     0
 73
     0
 74
     5
  7

 75
    16
147
1.0
148
0.0
149
0.0
100
AcDbLayout
  1
レイアウト1
 70
     1
 71
     1
 10
0.0
 20
0.0
 11
420.0
 21
297.0
 12
0.0
 22
0.0
 32
0.0
 14
1.000000000000000E+20
 24
1.000000000000000E+20
 34
1.000000000000000E+20
 15
-1.000000000000000E+20
 25
-1.000000000000000E+20
 35
-1.000000000000000E+20
146
0.0
 13
0.0
 23
0.0
 33
0.0
 16
1.0
 26
0.0
 36
0.0
 17
0.0
 27
1.0
 37
0.0
 76
     0
330
5CA0
  0
MATERIAL
  5
5F0D
102
{ACAD_XDICTIONARY
360
5F0E
102
}
102
{ACAD_REACTORS
330
5F04
102
}
330
5F04
100
AcDbMaterial
  1
ByBlock
 72
     0
 43
0.0208333333333333
 43
0.0
 43
0.0
 43
0.0
 43
0.0
 43
0.0208333333333333
 43
0.0
 43
0.0
 43
0.0
 43
0.0
 43
1.0
 43
0.0
 43
0.0
 43
0.0
 43
0.0
 43
1.0
 77
     0
 47
0.0208333333333333
 47
0.0
 47
0.0
 47
0.0
 47
0.0
 47
0.0208333333333333
 47
0.0
 47
0.0
 47
0.0
 47
0.0
 47
1.0
 47
0.0
 47
0.0
 47
0.0
 47
0.0
 47
1.0
171
     0
 49
0.0208333333333333
 49
0.0
 49
0.0
 49
0.0
 49
0.0
 49
0.0208333333333333
 49
0.0
 49
0.0
 49
0.0
 49
0.0
 49
1.0
 49
0.0
 49
0.0
 49
0.0
 49
0.0
 49
1.0
175
     0
142
0.0208333333333333
142
0.0
142
0.0
142
0.0
142
0.0
142
0.0208333333333333
142
0.0
142
0.0
142
0.0
142
0.0
142
1.0
142
0.0
142
0.0
142
0.0
142
0.0
142
1.0
179
     0
144
0.0208333333333333
144
0.0
144
0.0
144
0.0
144
0.0
144
0.0208333333333333
144
0.0
144
0.0
144
0.0
144
0.0
144
1.0
144
0.0
144
0.0
144
0.0
144
0.0
144
1.0
147
0.0208333333333333
147
0.0
147
0.0
147
0.0
147
0.0
147
0.0208333333333333
147
0.0
147
0.0
147
0.0
147
0.0
147
1.0
147
0.0
147
0.0
147
0.0
147
0.0
147
1.0
  0
MATERIAL
  5
5F05
102
{ACAD_XDICTIONARY
360
5F06
102
}
102
{ACAD_REACTORS
330
5F04
102
}
330
5F04
100
AcDbMaterial
  1
ByLayer
 72
     0
 43
0.0208333333333333
 43
0.0
 43
0.0
 43
0.0
 43
0.0
 43
0.0208333333333333
 43
0.0
 43
0.0
 43
0.0
 43
0.0
 43
1.0
 43
0.0
 43
0.0
 43
0.0
 43
0.0
 43
1.0
 77
     0
 47
0.0208333333333333
 47
0.0
 47
0.0
 47
0.0
 47
0.0
 47
0.0208333333333333
 47
0.0
 47
0.0
 47
0.0
 47
0.0
 47
1.0
 47
0.0
 47
0.0
 47
0.0
 47
0.0
 47
1.0
171
     0
 49
0.0208333333333333
 49
0.0
 49
0.0
 49
0.0
 49
0.0
 49
0.0208333333333333
 49
0.0
 49
0.0
 49
0.0
 49
0.0
 49
1.0
 49
0.0
 49
0.0
 49
0.0
 49
0.0
 49
1.0
175
     0
142
0.0208333333333333
142
0.0
142
0.0
142
0.0
142
0.0
142
0.0208333333333333
142
0.0
142
0.0
142
0.0
142
0.0
142
1.0
142
0.0
142
0.0
142
0.0
142
0.0
142
1.0
179
     0
144
0.0208333333333333
144
0.0
144
0.0
144
0.0
144
0.0
144
0.0208333333333333
144
0.0
144
0.0
144
0.0
144
0.0
144
1.0
144
0.0
144
0.0
144
0.0
144
0.0
144
1.0
147
0.0208333333333333
147
0.0
147
0.0
147
0.0
147
0.0
147
0.0208333333333333
147
0.0
147
0.0
147
0.0
147
0.0
147
1.0
147
0.0
147
0.0
147
0.0
147
0.0
147
1.0
  0
MATERIAL
  5
5F15
102
{ACAD_XDICTIONARY
360
5F16
102
}
102
{ACAD_REACTORS
330
5F04
102
}
330
5F04
100
AcDbMaterial
  1
Global
 72
     0
 43
0.0208333333333333
 43
0.0
 43
0.0
 43
0.0
 43
0.0
 43
0.0208333333333333
 43
0.0
 43
0.0
 43
0.0
 43
0.0
 43
1.0
 43
0.0
 43
0.0
 43
0.0
 43
0.0
 43
1.0
 77
     0
 47
0.0208333333333333
 47
0.0
 47
0.0
 47
0.0
 47
0.0
 47
0.0208333333333333
 47
0.0
 47
0.0
 47
0.0
 47
0.0
 47
1.0
 47
0.0
 47
0.0
 47
0.0
 47
0.0
 47
1.0
171
     0
 49
0.0208333333333333
 49
0.0
 49
0.0
 49
0.0
 49
0.0
 49
0.0208333333333333
 49
0.0
 49
0.0
 49
0.0
 49
0.0
 49
1.0
 49
0.0
 49
0.0
 49
0.0
 49
0.0
 49
1.0
175
     0
142
0.0208333333333333
142
0.0
142
0.0
142
0.0
142
0.0
142
0.0208333333333333
142
0.0
142
0.0
142
0.0
142
0.0
142
1.0
142
0.0
142
0.0
142
0.0
142
0.0
142
1.0
179
     0
144
0.0208333333333333
144
0.0
144
0.0
144
0.0
144
0.0
144
0.0208333333333333
144
0.0
144
0.0
144
0.0
144
0.0
144
1.0
144
0.0
144
0.0
144
0.0
144
0.0
144
1.0
147
0.0208333333333333
147
0.0
147
0.0
147
0.0
147
0.0
147
0.0208333333333333
147
0.0
147
0.0
147
0.0
147
0.0
147
1.0
147
0.0
147
0.0
147
0.0
147
0.0
147
1.0
  0
MLEADERSTYLE
  5
5F4C
102
{ACAD_REACTORS
330
5F4B
102
}
330
5F4B
100
AcDbMLeaderStyle
170
     2
171
     1
172
     0
 90
        2
 40
0.0
 41
0.0
173
     1
 91
-1056964608
340
5C99
 92
       -2
290
     1
 42
0.09
291
     1
 43
0.36
  3
Standard
 44
0.18
300

342
5C97
174
     1
178
     6
175
     1
176
     0
 93
-1056964608
 45
0.18
292
     0
297
     0
 46
0.18
 94
-1056964608
 47
1.0
 49
1.0
140
1.0
293
     1
141
0.0
294
     1
177
     0
142
1.0
295
     0
296
     0
143
0.125
1001
ACAD_MLEADERVER
1070
     2
  0
MLINESTYLE
  5
5C9D
102
{ACAD_REACTORS
330
5C9C
102
}
330
5C9C
100
AcDbMlineStyle
  2
STANDARD
 70
     0
  3

 62
   256
 51
90.0
 52
90.0
 71
     2
 49
0.5
 62
   256
  6
BYLAYER
 49
-0.5
 62
   256
  6
BYLAYER
  0
ACDBPLACEHOLDER
  5
5F03
102
{ACAD_REACTORS
330
5F02
102
}
330
5F02
  0
SCALE
  5
5F3A
102
{ACAD_REACTORS
330
5F39
102
}
330
5F39
100
AcDbScale
 70
     0
300
1:1
140
1.0
141
1.0
290
     1
  0
SCALE
  5
5F3B
102
{ACAD_REACTORS
330
5F39
102
}
330
5F39
100
AcDbScale
 70
     0
300
1/128" = 1'-0"
140
0.0078125
141
12.0
290
     0
  0
SCALE
  5
5F3C
102
{ACAD_REACTORS
330
5F39
102
}
330
5F39
100
AcDbScale
 70
     0
300
1/64" = 1'-0"
140
0.015625
141
12.0
290
     0
  0
SCALE
  5
5F3D
102
{ACAD_REACTORS
330
5F39
102
}
330
5F39
100
AcDbScale
 70
     0
300
1/32" = 1'-0"
140
0.03125
141
12.0
290
     0
  0
SCALE
  5
5F3E
102
{ACAD_REACTORS
330
5F39
102
}
330
5F39
100
AcDbScale
 70
     0
300
1/16" = 1'-0"
140
0.0625
141
12.0
290
     0
  0
SCALE
  5
5F3F
102
{ACAD_REACTORS
330
5F39
102
}
330
5F39
100
AcDbScale
 70
     0
300
3/32" = 1'-0"
140
0.09375
141
12.0
290
     0
  0
SCALE
  5
5F40
102
{ACAD_REACTORS
330
5F39
102
}
330
5F39
100
AcDbScale
 70
     0
300
1/8" = 1'-0"
140
0.125
141
12.0
290
     0
  0
SCALE
  5
5F41
102
{ACAD_REACTORS
330
5F39
102
}
330
5F39
100
AcDbScale
 70
     0
300
3/16" = 1'-0"
140
0.1875
141
12.0
290
     0
  0
SCALE
  5
5F42
102
{ACAD_REACTORS
330
5F39
102
}
330
5F39
100
AcDbScale
 70
     0
300
1/4" = 1'-0"
140
0.25
141
12.0
290
     0
  0
SCALE
  5
5F43
102
{ACAD_REACTORS
330
5F39
102
}
330
5F39
100
AcDbScale
 70
     0
300
3/8" = 1'-0"
140
0.375
141
12.0
290
     0
  0
SCALE
  5
5F44
102
{ACAD_REACTORS
330
5F39
102
}
330
5F39
100
AcDbScale
 70
     0
300
1/2" = 1'-0"
140
0.5
141
12.0
290
     0
  0
SCALE
  5
5F45
102
{ACAD_REACTORS
330
5F39
102
}
330
5F39
100
AcDbScale
 70
     0
300
3/4" = 1'-0"
140
0.75
141
12.0
290
     0
  0
SCALE
  5
5F46
102
{ACAD_REACTORS
330
5F39
102
}
330
5F39
100
AcDbScale
 70
     0
300
1" = 1'-0"
140
1.0
141
12.0
290
     0
  0
SCALE
  5
5F47
102
{ACAD_REACTORS
330
5F39
102
}
330
5F39
100
AcDbScale
 70
     0
300
1-1/2" = 1'-0"
140
1.5
141
12.0
290
     0
  0
SCALE
  5
5F48
102
{ACAD_REACTORS
330
5F39
102
}
330
5F39
100
AcDbScale
 70
     0
300
3" = 1'-0"
140
3.0
141
12.0
290
     0
  0
SCALE
  5
5F49
102
{ACAD_REACTORS
330
5F39
102
}
330
5F39
100
AcDbScale
 70
     0
300
6" = 1'-0"
140
6.0
141
12.0
290
     0
  0
SCALE
  5
5F4A
102
{ACAD_REACTORS
330
5F39
102
}
330
5F39
100
AcDbScale
 70
     0
300
1'-0" = 1'-0"
140
12.0
141
12.0
290
     0
  0
ACDBSECTIONVIEWSTYLE
  5
5F4E
102
{ACAD_XDICTIONARY
360
5FA8
102
}
102
{ACAD_REACTORS
330
5F4D
102
}
330
5F4D
100
AcDbModelDocViewStyle
 70
     0
  3
Imperial24
290
     0
100
AcDbSectionViewStyle
 70
     0
 71
     0
 90
       78
 71
     1
340
5C97
 40
0.24
340
0
340
0
 40
0.24
300
I, O, Q, S, X, Z
 40
0.48
 90
        3
 40
0.18
 90
        1
 71
     2
340
5C9B
 90
       25
340
5C9B
 90
       50
 40
0.24
 40
0.0
 40
0.24
 71
     3
340
5C97
 40
0.24
 90
        1
 40
0.75
 90
        1
300
%<\AcVar ViewType \f "%tc1">% %<\AcVar ViewSectionStartId>%-%<\AcVar ViewSectionEndId>%\PSCALE %<\AcVar ViewScale \f "%sn">%
 71
     4
300
ANSI31
 40
1.0
 90
        0
290
     0
290
     0
 90
        6
 40
0.0
 40
1.570796326794896
 40
0.2617993877991494
 40
1.308996938995747
 40
-0.2617993877991494
 40
1.832595714594046
  0
TABLESTYLE
  5
5F38
102
{ACAD_XDICTIONARY
360
5F6F
102
}
102
{ACAD_REACTORS
330
5F37
102
}
330
5F37
100
AcDbTableStyle
  3
Standard
 70
     0
 71
     0
 40
0.06
 41
0.06
280
     0
281
     0
  7
STANDARD
140
0.18
170
     2
 62
     0
 63
     7
283
     0
274
    -2
284
     1
 64
     0
275
    -2
285
     1
 65
     0
276
    -2
286
     1
 66
     0
277
    -2
287
     1
 67
     0
278
    -2
288
     1
 68
     0
279
    -2
289
     1
 69
     0
  7
STANDARD
140
0.25
170
     5
 62
     0
 63
     7
283
     0
274
    -2
284
     1
 64
     0
275
    -2
285
     1
 65
     0
276
    -2
286
     1
 66
     0
277
    -2
287
     1
 67
     0
278
    -2
288
     1
 68
     0
279
    -2
289
     1
 69
     0
  7
STANDARD
140
0.18
170
     5
 62
     0
 63
     7
283
     0
274
    -2
284
     1
 64
     0
275
    -2
285
     1
 65
     0
276
    -2
286
     1
 66
     0
277
    -2
287
     1
 67
     0
278
    -2
288
     1
 68
     0
279
    -2
289
     1
 69
     0
  0
VISUALSTYLE
  5
5F23
102
{ACAD_XDICTIONARY
360
5F80
102
}
102
{ACAD_REACTORS
330
5F1D
102
}
330
5F1D
100
AcDbVisualStyle
  2
2dWireframe
 70
     4
 71
     0
 72
     2
 73
     0
 90
        0
 40
-0.6
 41
-30.0
 62
     5
 63
     7
 74
     1
 91
        4
 64
     7
 65
   257
 75
     1
175
     1
 42
1.0
 92
        0
 66
   257
 43
1.0
 76
     1
 77
     6
 78
     2
 67
     7
 79
     5
170
     0
171
     0
290
     0
174
     0
 93
        1
 44
0.0
173
     0
291
     0
 45
0.0
1001
ACAD
1000
AcDbSavedByObjectVersion
1070
     0
  0
VISUALSTYLE
  5
5F22
102
{ACAD_XDICTIONARY
360
5F7E
102
}
102
{ACAD_REACTORS
330
5F1D
102
}
330
5F1D
100
AcDbVisualStyle
  2
Basic
 70
     7
 71
     1
 72
     0
 73
     1
 90
        0
 40
-0.6
 41
-30.0
 62
     5
 63
     7
 74
     0
 91
        4
 64
     7
 65
   257
 75
     1
175
     1
 42
1.0
 92
        8
 66
     7
 43
1.0
 76
     1
 77
     6
 78
     2
 67
     7
 79
     5
170
     0
171
     0
290
     0
174
     0
 93
        1
 44
0.0
173
     0
291
     1
 45
0.0
1001
ACAD
1000
AcDbSavedByObjectVersion
1070
     0
  0
VISUALSTYLE
  5
5F29
102
{ACAD_XDICTIONARY
360
5F8C
102
}
102
{ACAD_REACTORS
330
5F1D
102
}
330
5F1D
100
AcDbVisualStyle
  2
Brighten
 70
    12
 71
     2
 72
     2
 73
     0
 90
        0
 40
-0.6
 41
-30.0
 62
     5
 63
     7
 74
     1
 91
        4
 64
     7
 65
   257
 75
     1
175
     1
 42
1.0
 92
        8
 66
     7
 43
1.0
 76
     1
 77
     6
 78
     2
 67
     7
 79
     5
170
     0
171
     0
290
     0
174
     0
 93
        1
 44
50.0
173
     0
291
     1
 45
0.0
1001
ACAD
1000
AcDbSavedByObjectVersion
1070
     0
  0
VISUALSTYLE
  5
5F2D
102
{ACAD_XDICTIONARY
360
5F94
102
}
102
{ACAD_REACTORS
330
5F1D
102
}
330
5F1D
100
AcDbVisualStyle
  2
ColorChange
 70
    16
 71
     2
 72
     2
 73
     3
 90
        0
 40
-0.6
 41
-30.0
 62
     5
 63
     8
 74
     1
 91
        4
 64
     7
 65
   257
 75
     1
175
     1
 42
1.0
 92
        8
 66
     8
 43
1.0
 76
     1
 77
     6
 78
     2
 67
     7
 79
     5
170
     0
171
     0
290
     0
174
     0
 93
        1
 44
0.0
173
     0
291
     1
 45
0.0
1001
ACAD
1000
AcDbSavedByObjectVersion
1070
     0
  0
VISUALSTYLE
  5
5F26
102
{ACAD_XDICTIONARY
360
5F86
102
}
102
{ACAD_REACTORS
330
5F1D
102
}
330
5F1D
100
AcDbVisualStyle
  2
Conceptual
 70
     9
 71
     3
 72
     2
 73
     0
 90
        0
 40
-0.6
 41
-30.0
 62
     5
 63
     7
 74
     2
 91
        2
 64
     7
 65
   257
 75
     1
175
     1
 42
179.0
 92
        8
 66
     7
 43
1.0
 76
     1
 77
     6
 78
     2
 67
     7
 79
     3
170
     0
171
     0
290
     0
174
     0
 93
        1
 44
0.0
173
     0
291
     0
 45
0.0
1001
ACAD
1000
AcDbSavedByObjectVersion
1070
     0
  0
VISUALSTYLE
  5
5F28
102
{ACAD_XDICTIONARY
360
5F8A
102
}
102
{ACAD_REACTORS
330
5F1D
102
}
330
5F1D
100
AcDbVisualStyle
  2
Dim
 70
    11
 71
     2
 72
     2
 73
     0
 90
        0
 40
-0.6
 41
-30.0
 62
     5
 63
     7
 74
     1
 91
        4
 64
     7
 65
   257
 75
     1
175
     1
 42
1.0
 92
        8
 66
     7
 43
1.0
 76
     1
 77
     6
 78
     2
 67
     7
 79
     5
170
     0
171
     0
290
     0
174
     0
 93
        1
 44
-50.0
173
     0
291
     1
 45
0.0
1001
ACAD
1000
AcDbSavedByObjectVersion
1070
     0
  0
VISUALSTYLE
  5
5F35
102
{ACAD_XDICTIONARY
360
5FA4
102
}
102
{ACAD_REACTORS
330
5F1D
102
}
330
5F1D
100
AcDbVisualStyle
  2
EdgeColorOff
 70
    22
 71
     2
 72
     2
 73
     0
 90
        0
 40
-0.6
 41
-30.0
 62
     5
 63
     7
 74
     1
 91
        4
 64
     7
 65
   257
 75
     1
175
     1
 42
1.0
 92
        8
 66
     7
 43
1.0
 76
     1
 77
     6
 78
     2
 67
     7
 79
     5
170
     0
171
     0
290
     0
174
     0
 93
        1
 44
0.0
173
     0
291
     1
 45
0.0
1001
ACAD
1000
AcDbSavedByObjectVersion
1070
     0
  0
VISUALSTYLE
  5
5F2C
102
{ACAD_XDICTIONARY
360
5F92
102
}
102
{ACAD_REACTORS
330
5F1D
102
}
330
5F1D
100
AcDbVisualStyle
  2
Facepattern
 70
    15
 71
     2
 72
     2
 73
     0
 90
        0
 40
-0.6
 41
-30.0
 62
     5
 63
     7
 74
     1
 91
        4
 64
     7
 65
   257
 75
     1
175
     1
 42
1.0
 92
        8
 66
     7
 43
1.0
 76
     1
 77
     6
 78
     2
 67
     7
 79
     5
170
     0
171
     0
290
     0
174
     0
 93
        1
 44
0.0
173
     0
291
     1
 45
0.0
1001
ACAD
1000
AcDbSavedByObjectVersion
1070
     0
  0
VISUALSTYLE
  5
5F1E
102
{ACAD_XDICTIONARY
360
5F76
102
}
102
{ACAD_REACTORS
330
5F1D
102
}
330
5F1D
100
AcDbVisualStyle
  2
Flat
 70
     0
 71
     2
 72
     1
 73
     1
 90
        2
 40
-0.6
 41
30.0
 62
     5
 63
     7
 74
     0
 91
        0
 64
     7
 65
   257
 75
     1
175
     1
 42
1.0
 92
        8
 66
     7
 43
1.0
 76
     1
 77
     6
 78
     2
 67
     7
 79
     5
170
     0
171
     0
290
     0
174
     0
 93
       13
 44
0.0
173
     0
291
     1
 45
0.0
1001
ACAD
1000
AcDbSavedByObjectVersion
1070
     0
  0
VISUALSTYLE
  5
5F1F
102
{ACAD_XDICTIONARY
360
5F78
102
}
102
{ACAD_REACTORS
330
5F1D
102
}
330
5F1D
100
AcDbVisualStyle
  2
FlatWithEdges
 70
     1
 71
     2
 72
     1
 73
     1
 90
        2
 40
-0.6
 41
30.0
 62
     5
 63
     7
 74
     1
 91
        0
 64
     7
 65
   257
 75
     1
175
     1
 42
1.0
 92
        0
 66
   257
 43
1.0
 76
     1
 77
     6
 78
     2
 67
     7
 79
     5
170
     0
171
     0
290
     0
174
     0
 93
       13
 44
0.0
173
     0
291
     1
 45
0.0
1001
ACAD
1000
AcDbSavedByObjectVersion
1070
     0
  0
VISUALSTYLE
  5
5F20
102
{ACAD_XDICTIONARY
360
5F7A
102
}
102
{ACAD_REACTORS
330
5F1D
102
}
330
5F1D
100
AcDbVisualStyle
  2
Gouraud
 70
     2
 71
     2
 72
     2
 73
     1
 90
        2
 40
-0.6
 41
30.0
 62
     5
 63
     7
 74
     0
 91
        0
 64
     7
 65
   257
 75
     1
175
     1
 42
1.0
 92
        0
 66
     7
 43
1.0
 76
     1
 77
     6
 78
     2
 67
     7
 79
     5
170
     0
171
     0
290
     0
174
     0
 93
       13
 44
0.0
173
     0
291
     1
 45
0.0
1001
ACAD
1000
AcDbSavedByObjectVersion
1070
     0
  0
VISUALSTYLE
  5
5F21
102
{ACAD_XDICTIONARY
360
5F7C
102
}
102
{ACAD_REACTORS
330
5F1D
102
}
330
5F1D
100
AcDbVisualStyle
  2
GouraudWithEdges
 70
     3
 71
     2
 72
     2
 73
     1
 90
        2
 40
-0.6
 41
30.0
 62
     5
 63
     7
 74
     1
 91
        0
 64
     7
 65
   257
 75
     1
175
     1
 42
1.0
 92
        0
 66
   257
 43
1.0
 76
     1
 77
     6
 78
     2
 67
     7
 79
     5
170
     0
171
     0
290
     0
174
     0
 93
       13
 44
0.0
173
     0
291
     1
 45
0.0
1001
ACAD
1000
AcDbSavedByObjectVersion
1070
     0
  0
VISUALSTYLE
  5
5F25
102
{ACAD_XDICTIONARY
360
5F84
102
}
102
{ACAD_REACTORS
330
5F1D
102
}
330
5F1D
100
AcDbVisualStyle
  2
Hidden
 70
     6
 71
     1
 72
     2
 73
     2
 90
        0
 40
-0.6
 41
-30.0
 62
     5
 63
     7
 74
     2
 91
        2
 64
     7
 65
   257
 75
     2
175
     1
 42
40.0
 92
        0
 66
   257
 43
1.0
 76
     1
 77
     6
 78
     2
 67
     7
 79
     3
170
     0
171
     0
290
     0
174
     0
 93
        1
 44
0.0
173
     0
291
     0
 45
0.0
1001
ACAD
1000
AcDbSavedByObjectVersion
1070
     0
  0
VISUALSTYLE
  5
5F33
102
{ACAD_XDICTIONARY
360
5FA0
102
}
102
{ACAD_REACTORS
330
5F1D
102
}
330
5F1D
100
AcDbVisualStyle
  2
JitterOff
 70
    20
 71
     2
 72
     2
 73
     0
 90
        0
 40
-0.6
 41
-30.0
 62
     5
 63
     7
 74
     1
 91
        4
 64
     7
 65
   257
 75
     1
175
     1
 42
1.0
 92
       10
 66
     7
 43
1.0
 76
     1
 77
     6
 78
     2
 67
     7
 79
     5
170
     0
171
     0
290
     0
174
     0
 93
        1
 44
0.0
173
     0
291
     1
 45
0.0
1001
ACAD
1000
AcDbSavedByObjectVersion
1070
     0
  0
VISUALSTYLE
  5
5F2B
102
{ACAD_XDICTIONARY
360
5F90
102
}
102
{ACAD_REACTORS
330
5F1D
102
}
330
5F1D
100
AcDbVisualStyle
  2
Linepattern
 70
    14
 71
     2
 72
     2
 73
     0
 90
        0
 40
-0.6
 41
-30.0
 62
     5
 63
     7
 74
     1
 91
        4
 64
     7
 65
   257
 75
     7
175
     7
 42
1.0
 92
        8
 66
     7
 43
1.0
 76
     1
 77
     6
 78
     2
 67
     7
 79
     5
170
     0
171
     0
290
     0
174
     0
 93
        1
 44
0.0
173
     0
291
     1
 45
0.0
1001
ACAD
1000
AcDbSavedByObjectVersion
1070
     0
  0
VISUALSTYLE
  5
5F34
102
{ACAD_XDICTIONARY
360
5FA2
102
}
102
{ACAD_REACTORS
330
5F1D
102
}
330
5F1D
100
AcDbVisualStyle
  2
OverhangOff
 70
    21
 71
     2
 72
     2
 73
     0
 90
        0
 40
-0.6
 41
-30.0
 62
     5
 63
     7
 74
     1
 91
        4
 64
     7
 65
   257
 75
     1
175
     1
 42
1.0
 92
        9
 66
     7
 43
1.0
 76
     1
 77
     6
 78
     2
 67
     7
 79
     5
170
     0
171
     0
290
     0
174
     0
 93
        1
 44
0.0
173
     0
291
     1
 45
0.0
1001
ACAD
1000
AcDbSavedByObjectVersion
1070
     0
  0
VISUALSTYLE
  5
5F27
102
{ACAD_XDICTIONARY
360
5F88
102
}
102
{ACAD_REACTORS
330
5F1D
102
}
330
5F1D
100
AcDbVisualStyle
  2
Realistic
 70
     8
 71
     2
 72
     3
 73
     0
 90
        2
 40
-0.6
 41
30.0
 62
     5
 63
     7
 74
     0
 91
        0
 64
     7
 65
   257
 75
     1
175
     1
 42
1.0
 92
        8
 66
   257
 43
1.0
 76
     1
 77
     6
 78
     2
 67
     7
 79
     3
170
     0
171
     0
290
     0
174
     0
 93
       13
 44
0.0
173
     0
291
     0
 45
0.0
1001
ACAD
1000
AcDbSavedByObjectVersion
1070
     0
  0
VISUALSTYLE
  5
5F32
102
{ACAD_XDICTIONARY
360
5F9E
102
}
102
{ACAD_REACTORS
330
5F1D
102
}
330
5F1D
100
AcDbVisualStyle
  2
Shaded
 70
    27
 71
     2
 72
     2
 73
     1
 90
        2
 40
-0.6
 41
30.0
 62
     5
 63
     7
 74
     0
 91
        4
 64
     7
 65
   257
 75
     1
175
     1
 42
1.0
 92
        8
 66
   257
 43
1.0
 76
     1
 77
     6
 78
     2
 67
     8
 79
     3
170
     0
171
     0
290
     0
174
     0
 93
        5
 44
0.0
173
     0
291
     0
 45
0.0
1001
ACAD
1000
AcDbSavedByObjectVersion
1070
     0
  0
VISUALSTYLE
  5
5F31
102
{ACAD_XDICTIONARY
360
5F9C
102
}
102
{ACAD_REACTORS
330
5F1D
102
}
330
5F1D
100
AcDbVisualStyle
  2
Shaded with edges
 70
    26
 71
     2
 72
     2
 73
     1
 90
        2
 40
-0.6
 41
30.0
 62
     5
 63
     7
 74
     1
 91
       10
 64
     7
 65
   257
 75
     2
175
     1
 42
1.0
 92
        8
 66
   257
 43
1.0
 76
     1
 77
     6
 78
     2
 67
     7
 79
     3
170
     0
171
     0
290
     0
174
     0
 93
        5
 44
0.0
173
     0
291
     0
 45
0.0
1001
ACAD
1000
AcDbSavedByObjectVersion
1070
     0
  0
VISUALSTYLE
  5
5F2E
102
{ACAD_XDICTIONARY
360
5F96
102
}
102
{ACAD_REACTORS
330
5F1D
102
}
330
5F1D
100
AcDbVisualStyle
  2
Shades of Gray
 70
    23
 71
     2
 72
     2
 73
     3
 90
        0
 40
-0.6
 41
-30.0
 62
     5
 63
     7
 74
     2
 91
        2
 64
     7
 65
     7
 75
     1
175
     1
 42
40.0
 92
        8
 66
     7
 43
1.0
 76
     1
 77
     6
 78
     2
 67
     7
 79
     3
170
     0
171
     0
290
     0
174
     0
 93
        1
 44
0.0
173
     0
291
     0
 45
0.0
1001
ACAD
1000
AcDbSavedByObjectVersion
1070
     0
  0
VISUALSTYLE
  5
5F2F
102
{ACAD_XDICTIONARY
360
5F98
102
}
102
{ACAD_REACTORS
330
5F1D
102
}
330
5F1D
100
AcDbVisualStyle
  2
Sketchy
 70
    24
 71
     1
 72
     2
 73
     2
 90
        0
 40
-0.6
 41
-30.0
 62
     5
 63
     7
 74
     2
 91
        2
 64
     7
 65
     7
 75
     1
175
     1
 42
40.0
 92
       11
 66
     7
 43
1.0
 76
     1
 77
     6
 78
     2
 67
     7
 79
     6
170
     0
171
     0
290
     0
174
     0
 93
        1
 44
0.0
173
     0
291
     0
 45
0.0
1001
ACAD
1000
AcDbSavedByObjectVersion
1070
     0
  0
VISUALSTYLE
  5
5F2A
102
{ACAD_XDICTIONARY
360
5F8E
102
}
102
{ACAD_REACTORS
330
5F1D
102
}
330
5F1D
100
AcDbVisualStyle
  2
Thicken
 70
    13
 71
     2
 72
     2
 73
     0
 90
        0
 40
-0.6
 41
-30.0
 62
     5
 63
     7
 74
     1
 91
        4
 64
     7
 65
   257
 75
     1
175
     1
 42
1.0
 92
       12
 66
     7
 43
1.0
 76
     1
 77
     6
 78
     2
 67
     7
 79
     5
170
     0
171
     0
290
     0
174
     0
 93
        1
 44
0.0
173
     0
291
     1
 45
0.0
1001
ACAD
1000
AcDbSavedByObjectVersion
1070
     0
  0
VISUALSTYLE
  5
5F24
102
{ACAD_XDICTIONARY
360
5F82
102
}
102
{ACAD_REACTORS
330
5F1D
102
}
330
5F1D
100
AcDbVisualStyle
  2
Wireframe
 70
     5
 71
     0
 72
     2
 73
     0
 90
        0
 40
-0.6
 41
-30.0
 62
     5
 63
     7
 74
     1
 91
        4
 64
     7
 65
   257
 75
     1
175
     1
 42
1.0
 92
        0
 66
   257
 43
1.0
 76
     1
 77
     6
 78
     2
 67
     7
 79
     3
170
     0
171
     0
290
     0
174
     0
 93
        1
 44
0.0
173
     0
291
     0
 45
0.0
1001
ACAD
1000
AcDbSavedByObjectVersion
1070
     0
  0
VISUALSTYLE
  5
5F30
102
{ACAD_XDICTIONARY
360
5F9A
102
}
102
{ACAD_REACTORS
330
5F1D
102
}
330
5F1D
100
AcDbVisualStyle
  2
X-Ray
 70
    25
 71
     2
 72
     2
 73
     1
 90
        1
 40
0.5
 41
-30.0
 62
     5
 63
     7
 74
     1
 91
        0
 64
     7
 65
   257
 75
     1
175
     1
 42
1.0
 92
        8
 66
     7
 43
1.0
 76
     1
 77
     6
 78
     2
 67
     7
 79
     3
170
     0
171
     0
290
     0
174
     0
 93
       13
 44
0.0
173
     0
291
     0
 45
0.0
1001
ACAD
1000
AcDbSavedByObjectVersion
1070
     0
  0
DICTIONARYVAR
  5
5F69
102
{ACAD_REACTORS
330
5F64
102
}
330
5F64
100
DictionaryVariables
280
     0
  1
1:1
  0
DICTIONARYVAR
  5
5F66
102
{ACAD_REACTORS
330
5F64
102
}
330
5F64
100
DictionaryVariables
280
     0
  1
STANDARD
  0
DICTIONARYVAR
  5
5F65
102
{ACAD_REACTORS
330
5F64
102
}
330
5F64
100
DictionaryVariables
280
     0
  1
STANDARD
  0
DICTIONARYVAR
  5
5F67
102
{ACAD_REACTORS
330
5F64
102
}
330
5F64
100
DictionaryVariables
280
     0
  1
Imperial24
  0
DICTIONARYVAR
  5
5F68
102
{ACAD_REACTORS
330
5F64
102
}
330
5F64
100
DictionaryVariables
280
     0
  1
Imperial24
  0
DICTIONARYVAR
  5
5F6C
102
{ACAD_REACTORS
330
5F64
102
}
330
5F64
100
DictionaryVariables
280
     0
  1
1
  0
DICTIONARYVAR
  5
5F6B
102
{ACAD_REACTORS
330
5F64
102
}
330
5F64
100
DictionaryVariables
280
     0
  1
0
  0
DICTIONARYVAR
  5
5F6A
102
{ACAD_REACTORS
330
5F64
102
}
330
5F64
100
DictionaryVariables
280
     0
  1
127
  0
DICTIONARYVAR
  5
5F6D
102
{ACAD_REACTORS
330
5F64
102
}
330
5F64
100
DictionaryVariables
280
     0
  1
2
  0
DICTIONARY
  5
5FAA
330
5F50
100
AcDbDictionary
280
     1
281
     1
  3
ACAD_XREC_ROUNDTRIP
360
5FAB
  0
DICTIONARY
  5
5FAC
330
5F51
100
AcDbDictionary
280
     1
281
     1
  3
ACAD_XREC_ROUNDTRIP
360
5FAD
  0
DICTIONARY
  5
5FAE
330
5F52
100
AcDbDictionary
280
     1
281
     1
  3
ACAD_XREC_ROUNDTRIP
360
5FAF
  0
DICTIONARY
  5
5F0E
330
5F0D
100
AcDbDictionary
280
     1
281
     1
  3
ACAD_XREC_ROUNDTRIP
360
5F74
  3
BUMPTILE
360
5F10
  3
DIFFUSETILE
360
5F0F
  3
OPACITYTILE
360
5F13
  3
REFLECTIONTILE
360
5F12
  3
REFRACTIONTILE
360
5F14
  3
SPECULARTILE
360
5F11
  0
DICTIONARY
  5
5F06
330
5F05
100
AcDbDictionary
280
     1
281
     1
  3
ACAD_XREC_ROUNDTRIP
360
5F73
  3
BUMPTILE
360
5F08
  3
DIFFUSETILE
360
5F07
  3
OPACITYTILE
360
5F0B
  3
REFLECTIONTILE
360
5F0A
  3
REFRACTIONTILE
360
5F0C
  3
SPECULARTILE
360
5F09
  0
DICTIONARY
  5
5F16
330
5F15
100
AcDbDictionary
280
     1
281
     1
  3
ACAD_XREC_ROUNDTRIP
360
5F75
  3
BUMPTILE
360
5F18
  3
DIFFUSETILE
360
5F17
  3
OPACITYTILE
360
5F1B
  3
REFLECTIONTILE
360
5F1A
  3
REFRACTIONTILE
360
5F1C
  3
SPECULARTILE
360
5F19
  0
DICTIONARY
  5
5FA8
330
5F4E
100
AcDbDictionary
280
     1
281
     1
  3
ACAD_XREC_ROUNDTRIP
360
5FA9
  0
DICTIONARY
  5
5F6F
330
5F38
100
AcDbDictionary
280
     1
281
     1
  3
ACAD_ROUNDTRIP_2008_TABLESTYLE_CELLSTYLEMAP
360
5F70
  3
ACAD_XREC_ROUNDTRIP
360
5FA6
  0
DICTIONARY
  5
5F80
330
5F23
100
AcDbDictionary
280
     1
281
     1
  3
ACAD_XREC_ROUNDTRIP
360
5F81
  0
DICTIONARY
  5
5F7E
330
5F22
100
AcDbDictionary
280
     1
281
     1
  3
ACAD_XREC_ROUNDTRIP
360
5F7F
  0
DICTIONARY
  5
5F8C
330
5F29
100
AcDbDictionary
280
     1
281
     1
  3
ACAD_XREC_ROUNDTRIP
360
5F8D
  0
DICTIONARY
  5
5F94
330
5F2D
100
AcDbDictionary
280
     1
281
     1
  3
ACAD_XREC_ROUNDTRIP
360
5F95
  0
DICTIONARY
  5
5F86
330
5F26
100
AcDbDictionary
280
     1
281
     1
  3
ACAD_XREC_ROUNDTRIP
360
5F87
  0
DICTIONARY
  5
5F8A
330
5F28
100
AcDbDictionary
280
     1
281
     1
  3
ACAD_XREC_ROUNDTRIP
360
5F8B
  0
DICTIONARY
  5
5FA4
330
5F35
100
AcDbDictionary
280
     1
281
     1
  3
ACAD_XREC_ROUNDTRIP
360
5FA5
  0
DICTIONARY
  5
5F92
330
5F2C
100
AcDbDictionary
280
     1
281
     1
  3
ACAD_XREC_ROUNDTRIP
360
5F93
  0
DICTIONARY
  5
5F76
330
5F1E
100
AcDbDictionary
280
     1
281
     1
  3
ACAD_XREC_ROUNDTRIP
360
5F77
  0
DICTIONARY
  5
5F78
330
5F1F
100
AcDbDictionary
280
     1
281
     1
  3
ACAD_XREC_ROUNDTRIP
360
5F79
  0
DICTIONARY
  5
5F7A
330
5F20
100
AcDbDictionary
280
     1
281
     1
  3
ACAD_XREC_ROUNDTRIP
360
5F7B
  0
DICTIONARY
  5
5F7C
330
5F21
100
AcDbDictionary
280
     1
281
     1
  3
ACAD_XREC_ROUNDTRIP
360
5F7D
  0
DICTIONARY
  5
5F84
330
5F25
100
AcDbDictionary
280
     1
281
     1
  3
ACAD_XREC_ROUNDTRIP
360
5F85
  0
DICTIONARY
  5
5FA0
330
5F33
100
AcDbDictionary
280
     1
281
     1
  3
ACAD_XREC_ROUNDTRIP
360
5FA1
  0
DICTIONARY
  5
5F90
330
5F2B
100
AcDbDictionary
280
     1
281
     1
  3
ACAD_XREC_ROUNDTRIP
360
5F91
  0
DICTIONARY
  5
5FA2
330
5F34
100
AcDbDictionary
280
     1
281
     1
  3
ACAD_XREC_ROUNDTRIP
360
5FA3
  0
DICTIONARY
  5
5F88
330
5F27
100
AcDbDictionary
280
     1
281
     1
  3
ACAD_XREC_ROUNDTRIP
360
5F89
  0
DICTIONARY
  5
5F9E
330
5F32
100
AcDbDictionary
280
     1
281
     1
  3
ACAD_XREC_ROUNDTRIP
360
5F9F
  0
DICTIONARY
  5
5F9C
330
5F31
100
AcDbDictionary
280
     1
281
     1
  3
ACAD_XREC_ROUNDTRIP
360
5F9D
  0
DICTIONARY
  5
5F96
330
5F2E
100
AcDbDictionary
280
     1
281
     1
  3
ACAD_XREC_ROUNDTRIP
360
5F97
  0
DICTIONARY
  5
5F98
330
5F2F
100
AcDbDictionary
280
     1
281
     1
  3
ACAD_XREC_ROUNDTRIP
360
5F99
  0
DICTIONARY
  5
5F8E
330
5F2A
100
AcDbDictionary
280
     1
281
     1
  3
ACAD_XREC_ROUNDTRIP
360
5F8F
  0
DICTIONARY
  5
5F82
330
5F24
100
AcDbDictionary
280
     1
281
     1
  3
ACAD_XREC_ROUNDTRIP
360
5F83
  0
DICTIONARY
  5
5F9A
330
5F30
100
AcDbDictionary
280
     1
281
     1
  3
ACAD_XREC_ROUNDTRIP
360
5F9B
  0
XRECORD
  5
5FAB
102
{ACAD_REACTORS
330
5FAA
102
}
330
5FAA
100
AcDbXrecord
280
     1
102
DISPLAYNAME
  1
Imperial24
102
FLAGS
 90
        0
  0
XRECORD
  5
5FAD
102
{ACAD_REACTORS
330
5FAC
102
}
330
5FAC
100
AcDbXrecord
280
     1
102
SHADEPLOT
 70
     0
102
SHADEPLOTRESLEVEL
 70
     2
102
SHADEPLOTCUSTOMDPI
 70
   300
  0
XRECORD
  5
5FAF
102
{ACAD_REACTORS
330
5FAE
102
}
330
5FAE
100
AcDbXrecord
280
     1
102
SHADEPLOT
 70
     0
102
SHADEPLOTRESLEVEL
 70
     2
102
SHADEPLOTCUSTOMDPI
 70
   300
  0
XRECORD
  5
5F74
102
{ACAD_REACTORS
330
5F0E
102
}
330
5F0E
100
AcDbXrecord
280
     1
102
MATERIAL
148
0.0
149
0.0
149
0.0
 93
        0
 94
      127
282
     0
 72
     0
 77
     0
171
     0
175
     0
179
     0
273
     0
  0
XRECORD
  5
5F10
102
{ACAD_REACTORS
330
5F0E
102
}
330
5F0E
100
AcDbXrecord
280
     1
270
     1
271
     1
  0
XRECORD
  5
5F0F
102
{ACAD_REACTORS
330
5F0E
102
}
330
5F0E
100
AcDbXrecord
280
     1
270
     1
271
     1
  0
XRECORD
  5
5F13
102
{ACAD_REACTORS
330
5F0E
102
}
330
5F0E
100
AcDbXrecord
280
     1
270
     1
271
     1
  0
XRECORD
  5
5F12
102
{ACAD_REACTORS
330
5F0E
102
}
330
5F0E
100
AcDbXrecord
280
     1
270
     1
271
     1
  0
XRECORD
  5
5F14
102
{ACAD_REACTORS
330
5F0E
102
}
330
5F0E
100
AcDbXrecord
280
     1
270
     1
271
     1
  0
XRECORD
  5
5F11
102
{ACAD_REACTORS
330
5F0E
102
}
330
5F0E
100
AcDbXrecord
280
     1
270
     1
271
     1
  0
XRECORD
  5
5F73
102
{ACAD_REACTORS
330
5F06
102
}
330
5F06
100
AcDbXrecord
280
     1
102
MATERIAL
148
0.0
149
0.0
149
0.0
 93
        0
 94
      127
282
     0
 72
     0
 77
     0
171
     0
175
     0
179
     0
273
     0
  0
XRECORD
  5
5F08
102
{ACAD_REACTORS
330
5F06
102
}
330
5F06
100
AcDbXrecord
280
     1
270
     1
271
     1
  0
XRECORD
  5
5F07
102
{ACAD_REACTORS
330
5F06
102
}
330
5F06
100
AcDbXrecord
280
     1
270
     1
271
     1
  0
XRECORD
  5
5F0B
102
{ACAD_REACTORS
330
5F06
102
}
330
5F06
100
AcDbXrecord
280
     1
270
     1
271
     1
  0
XRECORD
  5
5F0A
102
{ACAD_REACTORS
330
5F06
102
}
330
5F06
100
AcDbXrecord
280
     1
270
     1
271
     1
  0
XRECORD
  5
5F0C
102
{ACAD_REACTORS
330
5F06
102
}
330
5F06
100
AcDbXrecord
280
     1
270
     1
271
     1
  0
XRECORD
  5
5F09
102
{ACAD_REACTORS
330
5F06
102
}
330
5F06
100
AcDbXrecord
280
     1
270
     1
271
     1
  0
XRECORD
  5
5F75
102
{ACAD_REACTORS
330
5F16
102
}
330
5F16
100
AcDbXrecord
280
     1
102
MATERIAL
148
0.0
149
0.0
149
0.0
 93
        0
 94
      127
282
     0
 72
     0
 77
     0
171
     0
175
     0
179
     0
273
     0
  0
XRECORD
  5
5F18
102
{ACAD_REACTORS
330
5F16
102
}
330
5F16
100
AcDbXrecord
280
     1
270
     1
271
     1
  0
XRECORD
  5
5F17
102
{ACAD_REACTORS
330
5F16
102
}
330
5F16
100
AcDbXrecord
280
     1
270
     1
271
     1
  0
XRECORD
  5
5F1B
102
{ACAD_REACTORS
330
5F16
102
}
330
5F16
100
AcDbXrecord
280
     1
270
     1
271
     1
  0
XRECORD
  5
5F1A
102
{ACAD_REACTORS
330
5F16
102
}
330
5F16
100
AcDbXrecord
280
     1
270
     1
271
     1
  0
XRECORD
  5
5F1C
102
{ACAD_REACTORS
330
5F16
102
}
330
5F16
100
AcDbXrecord
280
     1
270
     1
271
     1
  0
XRECORD
  5
5F19
102
{ACAD_REACTORS
330
5F16
102
}
330
5F16
100
AcDbXrecord
280
     1
270
     1
271
     1
  0
XRECORD
  5
5FA9
102
{ACAD_REACTORS
330
5FA8
102
}
330
5FA8
100
AcDbXrecord
280
     1
102
DISPLAYNAME
  1
Imperial24
102
FLAGS
 90
        0
  0
CELLSTYLEMAP
  5
5F70
102
{ACAD_REACTORS
330
5F6F
102
}
330
5F6F
100
AcDbCellStyleMap
 90
        3
300
CELLSTYLE
  1
TABLEFORMAT_BEGIN
 90
        5
170
     1
 91
        0
 92
    32768
 62
   257
 93
        1
300
CONTENTFORMAT
  1
CONTENTFORMAT_BEGIN
 90
        0
 91
        0
 92
      512
 93
        0
300

 40
0.0
140
1.0
 94
        5
 62
     0
340
5C97
144
0.25
309
CONTENTFORMAT_END
171
     0
 94
        0
309
TABLEFORMAT_END
  1
CELLSTYLE_BEGIN
 90
        1
 91
        1
300
_TITLE
309
CELLSTYLE_END
300
CELLSTYLE
  1
TABLEFORMAT_BEGIN
 90
        5
170
     1
 91
        0
 92
        0
 62
   257
 93
        1
300
CONTENTFORMAT
  1
CONTENTFORMAT_BEGIN
 90
        0
 91
        0
 92
      512
 93
        0
300

 40
0.0
140
1.0
 94
        5
 62
     0
340
5C97
144
0.18
309
CONTENTFORMAT_END
171
     0
 94
        0
309
TABLEFORMAT_END
  1
CELLSTYLE_BEGIN
 90
        2
 91
        1
300
_HEADER
309
CELLSTYLE_END
300
CELLSTYLE
  1
TABLEFORMAT_BEGIN
 90
        5
170
     1
 91
        0
 92
        0
 62
   257
 93
        1
300
CONTENTFORMAT
  1
CONTENTFORMAT_BEGIN
 90
        0
 91
        0
 92
      512
 93
        0
300

 40
0.0
140
1.0
 94
        2
 62
     0
340
5C97
144
0.18
309
CONTENTFORMAT_END
171
     0
 94
        0
309
TABLEFORMAT_END
  1
CELLSTYLE_BEGIN
 90
        3
 91
        2
300
_DATA
309
CELLSTYLE_END
  0
XRECORD
  5
5FA6
102
{ACAD_REACTORS
330
5F6F
102
}
330
5F6F
100
AcDbXrecord
280
     1
102
ACAD_ROUNDTRIP_PRE2007_TABLESTYLE
 90
      512
 91
        0
  1

 92
      512
 93
        0
  2

 94
      512
 95
        0
  3

  0
XRECORD
  5
5F81
102
{ACAD_REACTORS
330
5F80
102
}
330
5F80
100
AcDbXrecord
280
     1
102
RTVSPost2010Prop28
280
     1
102
RTVSPost2010PropOp28
 70
     1
102
RTVSPost2010Prop29
280
     1
102
RTVSPost2010PropOp29
 70
     1
102
RTVSPost2010Prop30
280
     0
102
RTVSPost2010PropOp30
 70
     1
102
RTVSPost2010Prop31
280
     0
102
RTVSPost2010PropOp31
 70
     1
102
RTVSPost2010Prop32
280
     0
102
RTVSPost2010PropOp32
 70
     1
102
RTVSPost2010Prop33
280
     0
102
RTVSPost2010PropOp33
 70
     1
102
RTVSPost2010Prop34
280
     0
102
RTVSPost2010PropOp34
 70
     1
102
RTVSPost2010Prop35
280
     0
102
RTVSPost2010PropOp35
 70
     1
102
RTVSPost2010Prop36
280
     0
102
RTVSPost2010PropOp36
 70
     1
102
RTVSPost2010Prop37
 90
       50
102
RTVSPost2010PropOp37
 70
     1
102
RTVSPost2010Prop38
140
0.0
102
RTVSPost2010PropOp38
 70
     1
102
RTVSPost2010Prop39
140
1.0
102
RTVSPost2010PropOp39
 70
     1
102
RTVSPost2010Prop40
 90
        0
102
RTVSPost2010PropOp40
 70
     1
102
RTVSPost2010Prop41ColorIndex
 90
       18
102
RTVSPost2010Prop41ColorRGB
 90
        0
102
RTVSPost2010PropOp41
 70
     1
102
RTVSPost2010Prop42
 90
       50
102
RTVSPost2010PropOp42
 70
     1
102
RTVSPost2010Prop43
 90
        3
102
RTVSPost2010PropOp43
 70
     1
102
RTVSPost2010Prop44ColorIndex
 90
        5
102
RTVSPost2010Prop44ColorRGB
 90
      255
102
RTVSPost2010PropOp44
 70
     1
102
RTVSPost2010Prop45
280
     0
102
RTVSPost2010PropOp45
 70
     1
102
RTVSPost2010Prop46
 90
       50
102
RTVSPost2010PropOp46
 70
     1
102
RTVSPost2010Prop47
 90
       50
102
RTVSPost2010PropOp47
 70
     1
102
RTVSPost2010Prop48
 90
       50
102
RTVSPost2010PropOp48
 70
     1
102
RTVSPost2010Prop49
280
     0
102
RTVSPost2010PropOp49
 70
     1
102
RTVSPost2010Prop50
 90
       50
102
RTVSPost2010PropOp50
 70
     1
102
RTVSPost2010Prop51ColorIndex
 90
      256
102
RTVSPost2010Prop51ColorRGB
 90
-16777216
102
RTVSPost2010PropOp51
 70
     0
102
RTVSPost2010Prop52
140
1.0
102
RTVSPost2010PropOp52
 70
     0
102
RTVSPost2010Prop53
 90
        2
102
RTVSPost2010PropOp53
 70
     1
102
RTVSPost2010Prop54
  1
strokes_ogs.tif
102
RTVSPost2010PropOp54
 70
     1
102
RTVSPost2010Prop55
280
     0
102
RTVSPost2010PropOp55
 70
     1
102
RTVSPost2010Prop56
140
1.0
102
RTVSPost2010PropOp56
 70
     1
102
RTVSPost2010Prop57
140
1.0
102
RTVSPost2010PropOp57
 70
     1
102
RTVSPropertyOp0
 70
     1
102
RTVSPropertyOp1
 70
     1
102
RTVSPropertyOp2
 70
     1
102
RTVSPropertyOp3
 70
     1
102
RTVSPropertyOp4
 70
     1
102
RTVSPropertyOp5
 70
     1
102
RTVSPropertyOp6
 70
     1
102
RTVSPropertyOp7
 70
     1
102
RTVSPropertyOp8
 70
     1
102
RTVSPropertyOp9
 70
     1
102
RTVSPropertyOp10
 70
     1
102
RTVSPropertyOp11
 70
     1
102
RTVSPropertyOp12
 70
     1
102
RTVSPropertyOp13
 70
     1
102
RTVSPropertyOp14
 70
     1
102
RTVSPropertyOp15
 70
     1
102
RTVSPropertyOp16
 70
     1
102
RTVSPropertyOp17
 70
     1
102
RTVSPropertyOp18
 70
     1
102
RTVSPropertyOp19
 70
     1
102
RTVSPropertyOp20
 70
     1
102
RTVSPropertyOp21
 70
     1
102
RTVSPropertyOp22
 70
     1
102
RTVSPropertyOp23
 70
     1
102
RTVSPropertyOp24
 70
     1
102
RTVSPropertyOp25
 70
     1
102
RTVSPropertyOp26
 70
     1
102
RTVSPropertyOp27
 70
     1
102
RTVSPropertyOp28
 70
     1
102
RTVSPropertyOp29
 70
     1
102
RTVSPropertyOp30
 70
     1
102
RTVSPropertyOp31
 70
     1
102
RTVSPropertyOp32
 70
     1
102
RTVSPropertyOp33
 70
     1
102
RTVSPropertyOp34
 70
     1
102
RTVSPropertyOp35
 70
     1
102
RTVSPropertyOp36
 70
     1
102
RTVSPropertyOp37
 70
     1
102
RTVSPropertyOp38
 70
     1
102
RTVSPropertyOp39
 70
     1
102
RTVSPropertyOp40
 70
     1
102
RTVSPropertyOp41
 70
     1
102
RTVSPropertyOp42
 70
     1
102
RTVSPropertyOp43
 70
     1
102
RTVSPropertyOp44
 70
     1
102
RTVSPropertyOp45
 70
     1
102
RTVSPropertyOp46
 70
     1
102
RTVSPropertyOp47
 70
     1
102
RTVSPropertyOp48
 70
     1
102
RTVSPropertyOp49
 70
     1
102
RTVSPropertyOp50
 70
     1
102
RTVSPropertyOp51
 70
     0
102
RTVSPropertyOp52
 70
     0
102
RTVSPropertyOp53
 70
     1
102
RTVSPropertyOp54
 70
     1
102
RTVSPropertyOp55
 70
     1
102
RTVSPropertyOp56
 70
     1
102
RTVSPropertyOp57
 70
     1
102
RTVSPropertyOp58
 70
     1
102
RTVSPropertyOp59
 70
     1
102
RTVSPropertyOp60
 70
     1
102
RTVSPropertyOp61
 70
     1
102
RTVSPropertyOp62
 70
     1
  0
XRECORD
  5
5F7F
102
{ACAD_REACTORS
330
5F7E
102
}
330
5F7E
100
AcDbXrecord
280
     1
102
RTVSPost2010Prop28
280
     0
102
RTVSPost2010PropOp28
 70
     1
102
RTVSPost2010Prop29
280
     1
102
RTVSPost2010PropOp29
 70
     1
102
RTVSPost2010Prop30
280
     1
102
RTVSPost2010PropOp30
 70
     1
102
RTVSPost2010Prop31
280
     0
102
RTVSPost2010PropOp31
 70
     1
102
RTVSPost2010Prop32
280
     0
102
RTVSPost2010PropOp32
 70
     1
102
RTVSPost2010Prop33
280
     0
102
RTVSPost2010PropOp33
 70
     1
102
RTVSPost2010Prop34
280
     0
102
RTVSPost2010PropOp34
 70
     1
102
RTVSPost2010Prop35
280
     0
102
RTVSPost2010PropOp35
 70
     1
102
RTVSPost2010Prop36
280
     0
102
RTVSPost2010PropOp36
 70
     1
102
RTVSPost2010Prop37
 90
       50
102
RTVSPost2010PropOp37
 70
     1
102
RTVSPost2010Prop38
140
0.0
102
RTVSPost2010PropOp38
 70
     1
102
RTVSPost2010Prop39
140
1.0
102
RTVSPost2010PropOp39
 70
     1
102
RTVSPost2010Prop40
 90
        0
102
RTVSPost2010PropOp40
 70
     1
102
RTVSPost2010Prop41ColorIndex
 90
       18
102
RTVSPost2010Prop41ColorRGB
 90
        0
102
RTVSPost2010PropOp41
 70
     1
102
RTVSPost2010Prop42
 90
       50
102
RTVSPost2010PropOp42
 70
     1
102
RTVSPost2010Prop43
 90
        3
102
RTVSPost2010PropOp43
 70
     1
102
RTVSPost2010Prop44ColorIndex
 90
        5
102
RTVSPost2010Prop44ColorRGB
 90
      255
102
RTVSPost2010PropOp44
 70
     1
102
RTVSPost2010Prop45
280
     0
102
RTVSPost2010PropOp45
 70
     1
102
RTVSPost2010Prop46
 90
       50
102
RTVSPost2010PropOp46
 70
     1
102
RTVSPost2010Prop47
 90
       50
102
RTVSPost2010PropOp47
 70
     1
102
RTVSPost2010Prop48
 90
       50
102
RTVSPost2010PropOp48
 70
     1
102
RTVSPost2010Prop49
280
     0
102
RTVSPost2010PropOp49
 70
     1
102
RTVSPost2010Prop50
 90
       50
102
RTVSPost2010PropOp50
 70
     1
102
RTVSPost2010Prop51ColorIndex
 90
      256
102
RTVSPost2010Prop51ColorRGB
 90
-16777216
102
RTVSPost2010PropOp51
 70
     0
102
RTVSPost2010Prop52
140
1.0
102
RTVSPost2010PropOp52
 70
     0
102
RTVSPost2010Prop53
 90
        2
102
RTVSPost2010PropOp53
 70
     1
102
RTVSPost2010Prop54
  1
strokes_ogs.tif
102
RTVSPost2010PropOp54
 70
     1
102
RTVSPost2010Prop55
280
     0
102
RTVSPost2010PropOp55
 70
     1
102
RTVSPost2010Prop56
140
1.0
102
RTVSPost2010PropOp56
 70
     1
102
RTVSPost2010Prop57
140
1.0
102
RTVSPost2010PropOp57
 70
     1
102
RTVSPropertyOp0
 70
     1
102
RTVSPropertyOp1
 70
     1
102
RTVSPropertyOp2
 70
     1
102
RTVSPropertyOp3
 70
     1
102
RTVSPropertyOp4
 70
     1
102
RTVSPropertyOp5
 70
     1
102
RTVSPropertyOp6
 70
     1
102
RTVSPropertyOp7
 70
     1
102
RTVSPropertyOp8
 70
     1
102
RTVSPropertyOp9
 70
     1
102
RTVSPropertyOp10
 70
     1
102
RTVSPropertyOp11
 70
     1
102
RTVSPropertyOp12
 70
     1
102
RTVSPropertyOp13
 70
     1
102
RTVSPropertyOp14
 70
     1
102
RTVSPropertyOp15
 70
     1
102
RTVSPropertyOp16
 70
     1
102
RTVSPropertyOp17
 70
     1
102
RTVSPropertyOp18
 70
     1
102
RTVSPropertyOp19
 70
     1
102
RTVSPropertyOp20
 70
     1
102
RTVSPropertyOp21
 70
     1
102
RTVSPropertyOp22
 70
     1
102
RTVSPropertyOp23
 70
     1
102
RTVSPropertyOp24
 70
     1
102
RTVSPropertyOp25
 70
     1
102
RTVSPropertyOp26
 70
     1
102
RTVSPropertyOp27
 70
     1
102
RTVSPropertyOp28
 70
     1
102
RTVSPropertyOp29
 70
     1
102
RTVSPropertyOp30
 70
     1
102
RTVSPropertyOp31
 70
     1
102
RTVSPropertyOp32
 70
     1
102
RTVSPropertyOp33
 70
     1
102
RTVSPropertyOp34
 70
     1
102
RTVSPropertyOp35
 70
     1
102
RTVSPropertyOp36
 70
     1
102
RTVSPropertyOp37
 70
     1
102
RTVSPropertyOp38
 70
     1
102
RTVSPropertyOp39
 70
     1
102
RTVSPropertyOp40
 70
     1
102
RTVSPropertyOp41
 70
     1
102
RTVSPropertyOp42
 70
     1
102
RTVSPropertyOp43
 70
     1
102
RTVSPropertyOp44
 70
     1
102
RTVSPropertyOp45
 70
     1
102
RTVSPropertyOp46
 70
     1
102
RTVSPropertyOp47
 70
     1
102
RTVSPropertyOp48
 70
     1
102
RTVSPropertyOp49
 70
     1
102
RTVSPropertyOp50
 70
     1
102
RTVSPropertyOp51
 70
     0
102
RTVSPropertyOp52
 70
     0
102
RTVSPropertyOp53
 70
     1
102
RTVSPropertyOp54
 70
     1
102
RTVSPropertyOp55
 70
     1
102
RTVSPropertyOp56
 70
     1
102
RTVSPropertyOp57
 70
     1
102
RTVSPropertyOp58
 70
     1
102
RTVSPropertyOp59
 70
     1
102
RTVSPropertyOp60
 70
     1
102
RTVSPropertyOp61
 70
     1
102
RTVSPropertyOp62
 70
     1
  0
XRECORD
  5
5F8D
102
{ACAD_REACTORS
330
5F8C
102
}
330
5F8C
100
AcDbXrecord
280
     1
102
RTVSPost2010Prop28
280
     0
102
RTVSPost2010PropOp28
 70
     1
102
RTVSPost2010Prop29
280
     1
102
RTVSPost2010PropOp29
 70
     1
102
RTVSPost2010Prop30
280
     1
102
RTVSPost2010PropOp30
 70
     1
102
RTVSPost2010Prop31
280
     0
102
RTVSPost2010PropOp31
 70
     1
102
RTVSPost2010Prop32
280
     0
102
RTVSPost2010PropOp32
 70
     1
102
RTVSPost2010Prop33
280
     0
102
RTVSPost2010PropOp33
 70
     1
102
RTVSPost2010Prop34
280
     0
102
RTVSPost2010PropOp34
 70
     1
102
RTVSPost2010Prop35
280
     0
102
RTVSPost2010PropOp35
 70
     1
102
RTVSPost2010Prop36
280
     0
102
RTVSPost2010PropOp36
 70
     1
102
RTVSPost2010Prop37
 90
       50
102
RTVSPost2010PropOp37
 70
     1
102
RTVSPost2010Prop38
140
0.0
102
RTVSPost2010PropOp38
 70
     1
102
RTVSPost2010Prop39
140
1.0
102
RTVSPost2010PropOp39
 70
     1
102
RTVSPost2010Prop40
 90
        0
102
RTVSPost2010PropOp40
 70
     1
102
RTVSPost2010Prop41ColorIndex
 90
       18
102
RTVSPost2010Prop41ColorRGB
 90
        0
102
RTVSPost2010PropOp41
 70
     1
102
RTVSPost2010Prop42
 90
       50
102
RTVSPost2010PropOp42
 70
     1
102
RTVSPost2010Prop43
 90
        3
102
RTVSPost2010PropOp43
 70
     1
102
RTVSPost2010Prop44ColorIndex
 90
        5
102
RTVSPost2010Prop44ColorRGB
 90
      255
102
RTVSPost2010PropOp44
 70
     1
102
RTVSPost2010Prop45
280
     0
102
RTVSPost2010PropOp45
 70
     1
102
RTVSPost2010Prop46
 90
       50
102
RTVSPost2010PropOp46
 70
     1
102
RTVSPost2010Prop47
 90
       50
102
RTVSPost2010PropOp47
 70
     1
102
RTVSPost2010Prop48
 90
       50
102
RTVSPost2010PropOp48
 70
     1
102
RTVSPost2010Prop49
280
     0
102
RTVSPost2010PropOp49
 70
     1
102
RTVSPost2010Prop50
 90
       50
102
RTVSPost2010PropOp50
 70
     1
102
RTVSPost2010Prop51ColorIndex
 90
      256
102
RTVSPost2010Prop51ColorRGB
 90
-16777216
102
RTVSPost2010PropOp51
 70
     0
102
RTVSPost2010Prop52
140
1.0
102
RTVSPost2010PropOp52
 70
     0
102
RTVSPost2010Prop53
 90
        2
102
RTVSPost2010PropOp53
 70
     1
102
RTVSPost2010Prop54
  1
strokes_ogs.tif
102
RTVSPost2010PropOp54
 70
     1
102
RTVSPost2010Prop55
280
     0
102
RTVSPost2010PropOp55
 70
     1
102
RTVSPost2010Prop56
140
1.0
102
RTVSPost2010PropOp56
 70
     1
102
RTVSPost2010Prop57
140
1.0
102
RTVSPost2010PropOp57
 70
     1
102
RTVSPropertyOp0
 70
     1
102
RTVSPropertyOp1
 70
     1
102
RTVSPropertyOp2
 70
     1
102
RTVSPropertyOp3
 70
     1
102
RTVSPropertyOp4
 70
     1
102
RTVSPropertyOp5
 70
     1
102
RTVSPropertyOp6
 70
     1
102
RTVSPropertyOp7
 70
     1
102
RTVSPropertyOp8
 70
     1
102
RTVSPropertyOp9
 70
     1
102
RTVSPropertyOp10
 70
     1
102
RTVSPropertyOp11
 70
     1
102
RTVSPropertyOp12
 70
     1
102
RTVSPropertyOp13
 70
     1
102
RTVSPropertyOp14
 70
     1
102
RTVSPropertyOp15
 70
     1
102
RTVSPropertyOp16
 70
     1
102
RTVSPropertyOp17
 70
     1
102
RTVSPropertyOp18
 70
     1
102
RTVSPropertyOp19
 70
     1
102
RTVSPropertyOp20
 70
     1
102
RTVSPropertyOp21
 70
     1
102
RTVSPropertyOp22
 70
     1
102
RTVSPropertyOp23
 70
     1
102
RTVSPropertyOp24
 70
     1
102
RTVSPropertyOp25
 70
     1
102
RTVSPropertyOp26
 70
     1
102
RTVSPropertyOp27
 70
     1
102
RTVSPropertyOp28
 70
     1
102
RTVSPropertyOp29
 70
     1
102
RTVSPropertyOp30
 70
     1
102
RTVSPropertyOp31
 70
     1
102
RTVSPropertyOp32
 70
     1
102
RTVSPropertyOp33
 70
     1
102
RTVSPropertyOp34
 70
     1
102
RTVSPropertyOp35
 70
     1
102
RTVSPropertyOp36
 70
     1
102
RTVSPropertyOp37
 70
     1
102
RTVSPropertyOp38
 70
     1
102
RTVSPropertyOp39
 70
     1
102
RTVSPropertyOp40
 70
     1
102
RTVSPropertyOp41
 70
     1
102
RTVSPropertyOp42
 70
     1
102
RTVSPropertyOp43
 70
     1
102
RTVSPropertyOp44
 70
     1
102
RTVSPropertyOp45
 70
     1
102
RTVSPropertyOp46
 70
     1
102
RTVSPropertyOp47
 70
     1
102
RTVSPropertyOp48
 70
     1
102
RTVSPropertyOp49
 70
     1
102
RTVSPropertyOp50
 70
     1
102
RTVSPropertyOp51
 70
     0
102
RTVSPropertyOp52
 70
     0
102
RTVSPropertyOp53
 70
     1
102
RTVSPropertyOp54
 70
     1
102
RTVSPropertyOp55
 70
     1
102
RTVSPropertyOp56
 70
     1
102
RTVSPropertyOp57
 70
     1
102
RTVSPropertyOp58
 70
     1
102
RTVSPropertyOp59
 70
     1
102
RTVSPropertyOp60
 70
     1
102
RTVSPropertyOp61
 70
     1
102
RTVSPropertyOp62
 70
     1
  0
XRECORD
  5
5F95
102
{ACAD_REACTORS
330
5F94
102
}
330
5F94
100
AcDbXrecord
280
     1
102
RTVSPost2010Prop28
280
     0
102
RTVSPost2010PropOp28
 70
     1
102
RTVSPost2010Prop29
280
     1
102
RTVSPost2010PropOp29
 70
     1
102
RTVSPost2010Prop30
280
     1
102
RTVSPost2010PropOp30
 70
     1
102
RTVSPost2010Prop31
280
     0
102
RTVSPost2010PropOp31
 70
     1
102
RTVSPost2010Prop32
280
     0
102
RTVSPost2010PropOp32
 70
     1
102
RTVSPost2010Prop33
280
     0
102
RTVSPost2010PropOp33
 70
     1
102
RTVSPost2010Prop34
280
     0
102
RTVSPost2010PropOp34
 70
     1
102
RTVSPost2010Prop35
280
     0
102
RTVSPost2010PropOp35
 70
     1
102
RTVSPost2010Prop36
280
     0
102
RTVSPost2010PropOp36
 70
     1
102
RTVSPost2010Prop37
 90
       50
102
RTVSPost2010PropOp37
 70
     1
102
RTVSPost2010Prop38
140
0.0
102
RTVSPost2010PropOp38
 70
     1
102
RTVSPost2010Prop39
140
1.0
102
RTVSPost2010PropOp39
 70
     1
102
RTVSPost2010Prop40
 90
        0
102
RTVSPost2010PropOp40
 70
     1
102
RTVSPost2010Prop41ColorIndex
 90
       18
102
RTVSPost2010Prop41ColorRGB
 90
        0
102
RTVSPost2010PropOp41
 70
     1
102
RTVSPost2010Prop42
 90
       50
102
RTVSPost2010PropOp42
 70
     1
102
RTVSPost2010Prop43
 90
        3
102
RTVSPost2010PropOp43
 70
     1
102
RTVSPost2010Prop44ColorIndex
 90
        5
102
RTVSPost2010Prop44ColorRGB
 90
      255
102
RTVSPost2010PropOp44
 70
     1
102
RTVSPost2010Prop45
280
     0
102
RTVSPost2010PropOp45
 70
     1
102
RTVSPost2010Prop46
 90
       50
102
RTVSPost2010PropOp46
 70
     1
102
RTVSPost2010Prop47
 90
       50
102
RTVSPost2010PropOp47
 70
     1
102
RTVSPost2010Prop48
 90
       50
102
RTVSPost2010PropOp48
 70
     1
102
RTVSPost2010Prop49
280
     0
102
RTVSPost2010PropOp49
 70
     1
102
RTVSPost2010Prop50
 90
       50
102
RTVSPost2010PropOp50
 70
     1
102
RTVSPost2010Prop51ColorIndex
 90
      256
102
RTVSPost2010Prop51ColorRGB
 90
-16777216
102
RTVSPost2010PropOp51
 70
     0
102
RTVSPost2010Prop52
140
1.0
102
RTVSPost2010PropOp52
 70
     0
102
RTVSPost2010Prop53
 90
        2
102
RTVSPost2010PropOp53
 70
     1
102
RTVSPost2010Prop54
  1
strokes_ogs.tif
102
RTVSPost2010PropOp54
 70
     1
102
RTVSPost2010Prop55
280
     0
102
RTVSPost2010PropOp55
 70
     1
102
RTVSPost2010Prop56
140
1.0
102
RTVSPost2010PropOp56
 70
     1
102
RTVSPost2010Prop57
140
1.0
102
RTVSPost2010PropOp57
 70
     1
102
RTVSPropertyOp0
 70
     1
102
RTVSPropertyOp1
 70
     1
102
RTVSPropertyOp2
 70
     1
102
RTVSPropertyOp3
 70
     1
102
RTVSPropertyOp4
 70
     1
102
RTVSPropertyOp5
 70
     1
102
RTVSPropertyOp6
 70
     1
102
RTVSPropertyOp7
 70
     1
102
RTVSPropertyOp8
 70
     1
102
RTVSPropertyOp9
 70
     1
102
RTVSPropertyOp10
 70
     1
102
RTVSPropertyOp11
 70
     1
102
RTVSPropertyOp12
 70
     1
102
RTVSPropertyOp13
 70
     1
102
RTVSPropertyOp14
 70
     1
102
RTVSPropertyOp15
 70
     1
102
RTVSPropertyOp16
 70
     1
102
RTVSPropertyOp17
 70
     1
102
RTVSPropertyOp18
 70
     1
102
RTVSPropertyOp19
 70
     1
102
RTVSPropertyOp20
 70
     1
102
RTVSPropertyOp21
 70
     1
102
RTVSPropertyOp22
 70
     1
102
RTVSPropertyOp23
 70
     1
102
RTVSPropertyOp24
 70
     1
102
RTVSPropertyOp25
 70
     1
102
RTVSPropertyOp26
 70
     1
102
RTVSPropertyOp27
 70
     1
102
RTVSPropertyOp28
 70
     1
102
RTVSPropertyOp29
 70
     1
102
RTVSPropertyOp30
 70
     1
102
RTVSPropertyOp31
 70
     1
102
RTVSPropertyOp32
 70
     1
102
RTVSPropertyOp33
 70
     1
102
RTVSPropertyOp34
 70
     1
102
RTVSPropertyOp35
 70
     1
102
RTVSPropertyOp36
 70
     1
102
RTVSPropertyOp37
 70
     1
102
RTVSPropertyOp38
 70
     1
102
RTVSPropertyOp39
 70
     1
102
RTVSPropertyOp40
 70
     1
102
RTVSPropertyOp41
 70
     1
102
RTVSPropertyOp42
 70
     1
102
RTVSPropertyOp43
 70
     1
102
RTVSPropertyOp44
 70
     1
102
RTVSPropertyOp45
 70
     1
102
RTVSPropertyOp46
 70
     1
102
RTVSPropertyOp47
 70
     1
102
RTVSPropertyOp48
 70
     1
102
RTVSPropertyOp49
 70
     1
102
RTVSPropertyOp50
 70
     1
102
RTVSPropertyOp51
 70
     0
102
RTVSPropertyOp52
 70
     0
102
RTVSPropertyOp53
 70
     1
102
RTVSPropertyOp54
 70
     1
102
RTVSPropertyOp55
 70
     1
102
RTVSPropertyOp56
 70
     1
102
RTVSPropertyOp57
 70
     1
102
RTVSPropertyOp58
 70
     1
102
RTVSPropertyOp59
 70
     1
102
RTVSPropertyOp60
 70
     1
102
RTVSPropertyOp61
 70
     1
102
RTVSPropertyOp62
 70
     1
  0
XRECORD
  5
5F87
102
{ACAD_REACTORS
330
5F86
102
}
330
5F86
100
AcDbXrecord
280
     1
102
RTVSPost2010Prop28
280
     0
102
RTVSPost2010PropOp28
 70
     1
102
RTVSPost2010Prop29
280
     1
102
RTVSPost2010PropOp29
 70
     1
102
RTVSPost2010Prop30
280
     1
102
RTVSPost2010PropOp30
 70
     1
102
RTVSPost2010Prop31
280
     0
102
RTVSPost2010PropOp31
 70
     1
102
RTVSPost2010Prop32
280
     0
102
RTVSPost2010PropOp32
 70
     1
102
RTVSPost2010Prop33
280
     0
102
RTVSPost2010PropOp33
 70
     1
102
RTVSPost2010Prop34
280
     0
102
RTVSPost2010PropOp34
 70
     1
102
RTVSPost2010Prop35
280
     0
102
RTVSPost2010PropOp35
 70
     1
102
RTVSPost2010Prop36
280
     0
102
RTVSPost2010PropOp36
 70
     1
102
RTVSPost2010Prop37
 90
       50
102
RTVSPost2010PropOp37
 70
     1
102
RTVSPost2010Prop38
140
0.0
102
RTVSPost2010PropOp38
 70
     1
102
RTVSPost2010Prop39
140
1.0
102
RTVSPost2010PropOp39
 70
     1
102
RTVSPost2010Prop40
 90
        0
102
RTVSPost2010PropOp40
 70
     1
102
RTVSPost2010Prop41ColorIndex
 90
       18
102
RTVSPost2010Prop41ColorRGB
 90
        0
102
RTVSPost2010PropOp41
 70
     1
102
RTVSPost2010Prop42
 90
       50
102
RTVSPost2010PropOp42
 70
     1
102
RTVSPost2010Prop43
 90
        3
102
RTVSPost2010PropOp43
 70
     1
102
RTVSPost2010Prop44ColorIndex
 90
        5
102
RTVSPost2010Prop44ColorRGB
 90
      255
102
RTVSPost2010PropOp44
 70
     1
102
RTVSPost2010Prop45
280
     0
102
RTVSPost2010PropOp45
 70
     1
102
RTVSPost2010Prop46
 90
       50
102
RTVSPost2010PropOp46
 70
     1
102
RTVSPost2010Prop47
 90
       50
102
RTVSPost2010PropOp47
 70
     1
102
RTVSPost2010Prop48
 90
       50
102
RTVSPost2010PropOp48
 70
     1
102
RTVSPost2010Prop49
280
     0
102
RTVSPost2010PropOp49
 70
     1
102
RTVSPost2010Prop50
 90
       50
102
RTVSPost2010PropOp50
 70
     1
102
RTVSPost2010Prop51ColorIndex
 90
      256
102
RTVSPost2010Prop51ColorRGB
 90
-16777216
102
RTVSPost2010PropOp51
 70
     0
102
RTVSPost2010Prop52
140
1.0
102
RTVSPost2010PropOp52
 70
     0
102
RTVSPost2010Prop53
 90
        2
102
RTVSPost2010PropOp53
 70
     1
102
RTVSPost2010Prop54
  1
strokes_ogs.tif
102
RTVSPost2010PropOp54
 70
     1
102
RTVSPost2010Prop55
280
     0
102
RTVSPost2010PropOp55
 70
     1
102
RTVSPost2010Prop56
140
1.0
102
RTVSPost2010PropOp56
 70
     1
102
RTVSPost2010Prop57
140
1.0
102
RTVSPost2010PropOp57
 70
     1
102
RTVSPropertyOp0
 70
     1
102
RTVSPropertyOp1
 70
     1
102
RTVSPropertyOp2
 70
     1
102
RTVSPropertyOp3
 70
     1
102
RTVSPropertyOp4
 70
     1
102
RTVSPropertyOp5
 70
     1
102
RTVSPropertyOp6
 70
     1
102
RTVSPropertyOp7
 70
     1
102
RTVSPropertyOp8
 70
     1
102
RTVSPropertyOp9
 70
     1
102
RTVSPropertyOp10
 70
     1
102
RTVSPropertyOp11
 70
     1
102
RTVSPropertyOp12
 70
     1
102
RTVSPropertyOp13
 70
     1
102
RTVSPropertyOp14
 70
     1
102
RTVSPropertyOp15
 70
     1
102
RTVSPropertyOp16
 70
     1
102
RTVSPropertyOp17
 70
     1
102
RTVSPropertyOp18
 70
     1
102
RTVSPropertyOp19
 70
     1
102
RTVSPropertyOp20
 70
     1
102
RTVSPropertyOp21
 70
     1
102
RTVSPropertyOp22
 70
     1
102
RTVSPropertyOp23
 70
     1
102
RTVSPropertyOp24
 70
     1
102
RTVSPropertyOp25
 70
     1
102
RTVSPropertyOp26
 70
     1
102
RTVSPropertyOp27
 70
     1
102
RTVSPropertyOp28
 70
     1
102
RTVSPropertyOp29
 70
     1
102
RTVSPropertyOp30
 70
     1
102
RTVSPropertyOp31
 70
     1
102
RTVSPropertyOp32
 70
     1
102
RTVSPropertyOp33
 70
     1
102
RTVSPropertyOp34
 70
     1
102
RTVSPropertyOp35
 70
     1
102
RTVSPropertyOp36
 70
     1
102
RTVSPropertyOp37
 70
     1
102
RTVSPropertyOp38
 70
     1
102
RTVSPropertyOp39
 70
     1
102
RTVSPropertyOp40
 70
     1
102
RTVSPropertyOp41
 70
     1
102
RTVSPropertyOp42
 70
     1
102
RTVSPropertyOp43
 70
     1
102
RTVSPropertyOp44
 70
     1
102
RTVSPropertyOp45
 70
     1
102
RTVSPropertyOp46
 70
     1
102
RTVSPropertyOp47
 70
     1
102
RTVSPropertyOp48
 70
     1
102
RTVSPropertyOp49
 70
     1
102
RTVSPropertyOp50
 70
     1
102
RTVSPropertyOp51
 70
     0
102
RTVSPropertyOp52
 70
     0
102
RTVSPropertyOp53
 70
     1
102
RTVSPropertyOp54
 70
     1
102
RTVSPropertyOp55
 70
     1
102
RTVSPropertyOp56
 70
     1
102
RTVSPropertyOp57
 70
     1
102
RTVSPropertyOp58
 70
     1
102
RTVSPropertyOp59
 70
     1
102
RTVSPropertyOp60
 70
     1
102
RTVSPropertyOp61
 70
     1
102
RTVSPropertyOp62
 70
     1
  0
XRECORD
  5
5F8B
102
{ACAD_REACTORS
330
5F8A
102
}
330
5F8A
100
AcDbXrecord
280
     1
102
RTVSPost2010Prop28
280
     0
102
RTVSPost2010PropOp28
 70
     1
102
RTVSPost2010Prop29
280
     1
102
RTVSPost2010PropOp29
 70
     1
102
RTVSPost2010Prop30
280
     1
102
RTVSPost2010PropOp30
 70
     1
102
RTVSPost2010Prop31
280
     0
102
RTVSPost2010PropOp31
 70
     1
102
RTVSPost2010Prop32
280
     0
102
RTVSPost2010PropOp32
 70
     1
102
RTVSPost2010Prop33
280
     0
102
RTVSPost2010PropOp33
 70
     1
102
RTVSPost2010Prop34
280
     0
102
RTVSPost2010PropOp34
 70
     1
102
RTVSPost2010Prop35
280
     0
102
RTVSPost2010PropOp35
 70
     1
102
RTVSPost2010Prop36
280
     0
102
RTVSPost2010PropOp36
 70
     1
102
RTVSPost2010Prop37
 90
       50
102
RTVSPost2010PropOp37
 70
     1
102
RTVSPost2010Prop38
140
0.0
102
RTVSPost2010PropOp38
 70
     1
102
RTVSPost2010Prop39
140
1.0
102
RTVSPost2010PropOp39
 70
     1
102
RTVSPost2010Prop40
 90
        0
102
RTVSPost2010PropOp40
 70
     1
102
RTVSPost2010Prop41ColorIndex
 90
       18
102
RTVSPost2010Prop41ColorRGB
 90
        0
102
RTVSPost2010PropOp41
 70
     1
102
RTVSPost2010Prop42
 90
       50
102
RTVSPost2010PropOp42
 70
     1
102
RTVSPost2010Prop43
 90
        3
102
RTVSPost2010PropOp43
 70
     1
102
RTVSPost2010Prop44ColorIndex
 90
        5
102
RTVSPost2010Prop44ColorRGB
 90
      255
102
RTVSPost2010PropOp44
 70
     1
102
RTVSPost2010Prop45
280
     0
102
RTVSPost2010PropOp45
 70
     1
102
RTVSPost2010Prop46
 90
       50
102
RTVSPost2010PropOp46
 70
     1
102
RTVSPost2010Prop47
 90
       50
102
RTVSPost2010PropOp47
 70
     1
102
RTVSPost2010Prop48
 90
       50
102
RTVSPost2010PropOp48
 70
     1
102
RTVSPost2010Prop49
280
     0
102
RTVSPost2010PropOp49
 70
     1
102
RTVSPost2010Prop50
 90
       50
102
RTVSPost2010PropOp50
 70
     1
102
RTVSPost2010Prop51ColorIndex
 90
      256
102
RTVSPost2010Prop51ColorRGB
 90
-16777216
102
RTVSPost2010PropOp51
 70
     0
102
RTVSPost2010Prop52
140
1.0
102
RTVSPost2010PropOp52
 70
     0
102
RTVSPost2010Prop53
 90
        2
102
RTVSPost2010PropOp53
 70
     1
102
RTVSPost2010Prop54
  1
strokes_ogs.tif
102
RTVSPost2010PropOp54
 70
     1
102
RTVSPost2010Prop55
280
     0
102
RTVSPost2010PropOp55
 70
     1
102
RTVSPost2010Prop56
140
1.0
102
RTVSPost2010PropOp56
 70
     1
102
RTVSPost2010Prop57
140
1.0
102
RTVSPost2010PropOp57
 70
     1
102
RTVSPropertyOp0
 70
     1
102
RTVSPropertyOp1
 70
     1
102
RTVSPropertyOp2
 70
     1
102
RTVSPropertyOp3
 70
     1
102
RTVSPropertyOp4
 70
     1
102
RTVSPropertyOp5
 70
     1
102
RTVSPropertyOp6
 70
     1
102
RTVSPropertyOp7
 70
     1
102
RTVSPropertyOp8
 70
     1
102
RTVSPropertyOp9
 70
     1
102
RTVSPropertyOp10
 70
     1
102
RTVSPropertyOp11
 70
     1
102
RTVSPropertyOp12
 70
     1
102
RTVSPropertyOp13
 70
     1
102
RTVSPropertyOp14
 70
     1
102
RTVSPropertyOp15
 70
     1
102
RTVSPropertyOp16
 70
     1
102
RTVSPropertyOp17
 70
     1
102
RTVSPropertyOp18
 70
     1
102
RTVSPropertyOp19
 70
     1
102
RTVSPropertyOp20
 70
     1
102
RTVSPropertyOp21
 70
     1
102
RTVSPropertyOp22
 70
     1
102
RTVSPropertyOp23
 70
     1
102
RTVSPropertyOp24
 70
     1
102
RTVSPropertyOp25
 70
     1
102
RTVSPropertyOp26
 70
     1
102
RTVSPropertyOp27
 70
     1
102
RTVSPropertyOp28
 70
     1
102
RTVSPropertyOp29
 70
     1
102
RTVSPropertyOp30
 70
     1
102
RTVSPropertyOp31
 70
     1
102
RTVSPropertyOp32
 70
     1
102
RTVSPropertyOp33
 70
     1
102
RTVSPropertyOp34
 70
     1
102
RTVSPropertyOp35
 70
     1
102
RTVSPropertyOp36
 70
     1
102
RTVSPropertyOp37
 70
     1
102
RTVSPropertyOp38
 70
     1
102
RTVSPropertyOp39
 70
     1
102
RTVSPropertyOp40
 70
     1
102
RTVSPropertyOp41
 70
     1
102
RTVSPropertyOp42
 70
     1
102
RTVSPropertyOp43
 70
     1
102
RTVSPropertyOp44
 70
     1
102
RTVSPropertyOp45
 70
     1
102
RTVSPropertyOp46
 70
     1
102
RTVSPropertyOp47
 70
     1
102
RTVSPropertyOp48
 70
     1
102
RTVSPropertyOp49
 70
     1
102
RTVSPropertyOp50
 70
     1
102
RTVSPropertyOp51
 70
     0
102
RTVSPropertyOp52
 70
     0
102
RTVSPropertyOp53
 70
     1
102
RTVSPropertyOp54
 70
     1
102
RTVSPropertyOp55
 70
     1
102
RTVSPropertyOp56
 70
     1
102
RTVSPropertyOp57
 70
     1
102
RTVSPropertyOp58
 70
     1
102
RTVSPropertyOp59
 70
     1
102
RTVSPropertyOp60
 70
     1
102
RTVSPropertyOp61
 70
     1
102
RTVSPropertyOp62
 70
     1
  0
XRECORD
  5
5FA5
102
{ACAD_REACTORS
330
5FA4
102
}
330
5FA4
100
AcDbXrecord
280
     1
102
RTVSPost2010Prop28
280
     0
102
RTVSPost2010PropOp28
 70
     1
102
RTVSPost2010Prop29
280
     1
102
RTVSPost2010PropOp29
 70
     1
102
RTVSPost2010Prop30
280
     1
102
RTVSPost2010PropOp30
 70
     1
102
RTVSPost2010Prop31
280
     0
102
RTVSPost2010PropOp31
 70
     1
102
RTVSPost2010Prop32
280
     0
102
RTVSPost2010PropOp32
 70
     1
102
RTVSPost2010Prop33
280
     0
102
RTVSPost2010PropOp33
 70
     1
102
RTVSPost2010Prop34
280
     0
102
RTVSPost2010PropOp34
 70
     1
102
RTVSPost2010Prop35
280
     0
102
RTVSPost2010PropOp35
 70
     1
102
RTVSPost2010Prop36
280
     0
102
RTVSPost2010PropOp36
 70
     1
102
RTVSPost2010Prop37
 90
       50
102
RTVSPost2010PropOp37
 70
     0
102
RTVSPost2010Prop38
140
0.0
102
RTVSPost2010PropOp38
 70
     0
102
RTVSPost2010Prop39
140
1.0
102
RTVSPost2010PropOp39
 70
     0
102
RTVSPost2010Prop40
 90
        0
102
RTVSPost2010PropOp40
 70
     0
102
RTVSPost2010Prop41ColorIndex
 90
       18
102
RTVSPost2010Prop41ColorRGB
 90
        0
102
RTVSPost2010PropOp41
 70
     0
102
RTVSPost2010Prop42
 90
       50
102
RTVSPost2010PropOp42
 70
     0
102
RTVSPost2010Prop43
 90
        3
102
RTVSPost2010PropOp43
 70
     0
102
RTVSPost2010Prop44ColorIndex
 90
        5
102
RTVSPost2010Prop44ColorRGB
 90
      255
102
RTVSPost2010PropOp44
 70
     0
102
RTVSPost2010Prop45
280
     0
102
RTVSPost2010PropOp45
 70
     1
102
RTVSPost2010Prop46
 90
       50
102
RTVSPost2010PropOp46
 70
     0
102
RTVSPost2010Prop47
 90
       50
102
RTVSPost2010PropOp47
 70
     0
102
RTVSPost2010Prop48
 90
       50
102
RTVSPost2010PropOp48
 70
     0
102
RTVSPost2010Prop49
280
     0
102
RTVSPost2010PropOp49
 70
     1
102
RTVSPost2010Prop50
 90
       50
102
RTVSPost2010PropOp50
 70
     0
102
RTVSPost2010Prop51ColorIndex
 90
      256
102
RTVSPost2010Prop51ColorRGB
 90
-16777216
102
RTVSPost2010PropOp51
 70
     0
102
RTVSPost2010Prop52
140
1.0
102
RTVSPost2010PropOp52
 70
     0
102
RTVSPost2010Prop53
 90
        2
102
RTVSPost2010PropOp53
 70
     0
102
RTVSPost2010Prop54
  1
strokes_ogs.tif
102
RTVSPost2010PropOp54
 70
     0
102
RTVSPost2010Prop55
280
     0
102
RTVSPost2010PropOp55
 70
     1
102
RTVSPost2010Prop56
140
1.0
102
RTVSPost2010PropOp56
 70
     0
102
RTVSPost2010Prop57
140
1.0
102
RTVSPost2010PropOp57
 70
     0
102
RTVSPropertyOp0
 70
     0
102
RTVSPropertyOp1
 70
     0
102
RTVSPropertyOp2
 70
     0
102
RTVSPropertyOp3
 70
     0
102
RTVSPropertyOp4
 70
     0
102
RTVSPropertyOp5
 70
     0
102
RTVSPropertyOp6
 70
     0
102
RTVSPropertyOp7
 70
     0
102
RTVSPropertyOp8
 70
     0
102
RTVSPropertyOp9
 70
     0
102
RTVSPropertyOp10
 70
     0
102
RTVSPropertyOp11
 70
     0
102
RTVSPropertyOp12
 70
     0
102
RTVSPropertyOp13
 70
     0
102
RTVSPropertyOp14
 70
     2
102
RTVSPropertyOp15
 70
     0
102
RTVSPropertyOp16
 70
     0
102
RTVSPropertyOp17
 70
     0
102
RTVSPropertyOp18
 70
     0
102
RTVSPropertyOp19
 70
     0
102
RTVSPropertyOp20
 70
     0
102
RTVSPropertyOp21
 70
     0
102
RTVSPropertyOp22
 70
     0
102
RTVSPropertyOp23
 70
     0
102
RTVSPropertyOp24
 70
     0
102
RTVSPropertyOp25
 70
     0
102
RTVSPropertyOp26
 70
     0
102
RTVSPropertyOp27
 70
     0
102
RTVSPropertyOp28
 70
     1
102
RTVSPropertyOp29
 70
     1
102
RTVSPropertyOp30
 70
     1
102
RTVSPropertyOp31
 70
     1
102
RTVSPropertyOp32
 70
     1
102
RTVSPropertyOp33
 70
     1
102
RTVSPropertyOp34
 70
     1
102
RTVSPropertyOp35
 70
     1
102
RTVSPropertyOp36
 70
     1
102
RTVSPropertyOp37
 70
     0
102
RTVSPropertyOp38
 70
     0
102
RTVSPropertyOp39
 70
     0
102
RTVSPropertyOp40
 70
     0
102
RTVSPropertyOp41
 70
     0
102
RTVSPropertyOp42
 70
     0
102
RTVSPropertyOp43
 70
     0
102
RTVSPropertyOp44
 70
     0
102
RTVSPropertyOp45
 70
     1
102
RTVSPropertyOp46
 70
     0
102
RTVSPropertyOp47
 70
     0
102
RTVSPropertyOp48
 70
     0
102
RTVSPropertyOp49
 70
     1
102
RTVSPropertyOp50
 70
     0
102
RTVSPropertyOp51
 70
     0
102
RTVSPropertyOp52
 70
     0
102
RTVSPropertyOp53
 70
     0
102
RTVSPropertyOp54
 70
     0
102
RTVSPropertyOp55
 70
     1
102
RTVSPropertyOp56
 70
     0
102
RTVSPropertyOp57
 70
     0
102
RTVSPropertyOp58
 70
     0
102
RTVSPropertyOp59
 70
     0
102
RTVSPropertyOp60
 70
     0
102
RTVSPropertyOp61
 70
     0
102
RTVSPropertyOp62
 70
     0
  0
XRECORD
  5
5F93
102
{ACAD_REACTORS
330
5F92
102
}
330
5F92
100
AcDbXrecord
280
     1
102
RTVSPost2010Prop28
280
     0
102
RTVSPost2010PropOp28
 70
     1
102
RTVSPost2010Prop29
280
     1
102
RTVSPost2010PropOp29
 70
     1
102
RTVSPost2010Prop30
280
     1
102
RTVSPost2010PropOp30
 70
     1
102
RTVSPost2010Prop31
280
     0
102
RTVSPost2010PropOp31
 70
     1
102
RTVSPost2010Prop32
280
     0
102
RTVSPost2010PropOp32
 70
     1
102
RTVSPost2010Prop33
280
     0
102
RTVSPost2010PropOp33
 70
     1
102
RTVSPost2010Prop34
280
     0
102
RTVSPost2010PropOp34
 70
     1
102
RTVSPost2010Prop35
280
     0
102
RTVSPost2010PropOp35
 70
     1
102
RTVSPost2010Prop36
280
     0
102
RTVSPost2010PropOp36
 70
     1
102
RTVSPost2010Prop37
 90
       50
102
RTVSPost2010PropOp37
 70
     1
102
RTVSPost2010Prop38
140
0.0
102
RTVSPost2010PropOp38
 70
     1
102
RTVSPost2010Prop39
140
1.0
102
RTVSPost2010PropOp39
 70
     1
102
RTVSPost2010Prop40
 90
        0
102
RTVSPost2010PropOp40
 70
     1
102
RTVSPost2010Prop41ColorIndex
 90
       18
102
RTVSPost2010Prop41ColorRGB
 90
        0
102
RTVSPost2010PropOp41
 70
     1
102
RTVSPost2010Prop42
 90
       50
102
RTVSPost2010PropOp42
 70
     1
102
RTVSPost2010Prop43
 90
        3
102
RTVSPost2010PropOp43
 70
     1
102
RTVSPost2010Prop44ColorIndex
 90
        5
102
RTVSPost2010Prop44ColorRGB
 90
      255
102
RTVSPost2010PropOp44
 70
     1
102
RTVSPost2010Prop45
280
     0
102
RTVSPost2010PropOp45
 70
     1
102
RTVSPost2010Prop46
 90
       50
102
RTVSPost2010PropOp46
 70
     1
102
RTVSPost2010Prop47
 90
       50
102
RTVSPost2010PropOp47
 70
     1
102
RTVSPost2010Prop48
 90
       50
102
RTVSPost2010PropOp48
 70
     1
102
RTVSPost2010Prop49
280
     0
102
RTVSPost2010PropOp49
 70
     1
102
RTVSPost2010Prop50
 90
       50
102
RTVSPost2010PropOp50
 70
     1
102
RTVSPost2010Prop51ColorIndex
 90
      256
102
RTVSPost2010Prop51ColorRGB
 90
-16777216
102
RTVSPost2010PropOp51
 70
     0
102
RTVSPost2010Prop52
140
1.0
102
RTVSPost2010PropOp52
 70
     0
102
RTVSPost2010Prop53
 90
        2
102
RTVSPost2010PropOp53
 70
     1
102
RTVSPost2010Prop54
  1
strokes_ogs.tif
102
RTVSPost2010PropOp54
 70
     1
102
RTVSPost2010Prop55
280
     0
102
RTVSPost2010PropOp55
 70
     1
102
RTVSPost2010Prop56
140
1.0
102
RTVSPost2010PropOp56
 70
     1
102
RTVSPost2010Prop57
140
1.0
102
RTVSPost2010PropOp57
 70
     1
102
RTVSPropertyOp0
 70
     1
102
RTVSPropertyOp1
 70
     1
102
RTVSPropertyOp2
 70
     1
102
RTVSPropertyOp3
 70
     1
102
RTVSPropertyOp4
 70
     1
102
RTVSPropertyOp5
 70
     1
102
RTVSPropertyOp6
 70
     1
102
RTVSPropertyOp7
 70
     1
102
RTVSPropertyOp8
 70
     1
102
RTVSPropertyOp9
 70
     1
102
RTVSPropertyOp10
 70
     1
102
RTVSPropertyOp11
 70
     1
102
RTVSPropertyOp12
 70
     1
102
RTVSPropertyOp13
 70
     1
102
RTVSPropertyOp14
 70
     1
102
RTVSPropertyOp15
 70
     1
102
RTVSPropertyOp16
 70
     1
102
RTVSPropertyOp17
 70
     1
102
RTVSPropertyOp18
 70
     1
102
RTVSPropertyOp19
 70
     1
102
RTVSPropertyOp20
 70
     1
102
RTVSPropertyOp21
 70
     1
102
RTVSPropertyOp22
 70
     1
102
RTVSPropertyOp23
 70
     1
102
RTVSPropertyOp24
 70
     1
102
RTVSPropertyOp25
 70
     1
102
RTVSPropertyOp26
 70
     1
102
RTVSPropertyOp27
 70
     1
102
RTVSPropertyOp28
 70
     1
102
RTVSPropertyOp29
 70
     1
102
RTVSPropertyOp30
 70
     1
102
RTVSPropertyOp31
 70
     1
102
RTVSPropertyOp32
 70
     1
102
RTVSPropertyOp33
 70
     1
102
RTVSPropertyOp34
 70
     1
102
RTVSPropertyOp35
 70
     1
102
RTVSPropertyOp36
 70
     1
102
RTVSPropertyOp37
 70
     1
102
RTVSPropertyOp38
 70
     1
102
RTVSPropertyOp39
 70
     1
102
RTVSPropertyOp40
 70
     1
102
RTVSPropertyOp41
 70
     1
102
RTVSPropertyOp42
 70
     1
102
RTVSPropertyOp43
 70
     1
102
RTVSPropertyOp44
 70
     1
102
RTVSPropertyOp45
 70
     1
102
RTVSPropertyOp46
 70
     1
102
RTVSPropertyOp47
 70
     1
102
RTVSPropertyOp48
 70
     1
102
RTVSPropertyOp49
 70
     1
102
RTVSPropertyOp50
 70
     1
102
RTVSPropertyOp51
 70
     0
102
RTVSPropertyOp52
 70
     0
102
RTVSPropertyOp53
 70
     1
102
RTVSPropertyOp54
 70
     1
102
RTVSPropertyOp55
 70
     1
102
RTVSPropertyOp56
 70
     1
102
RTVSPropertyOp57
 70
     1
102
RTVSPropertyOp58
 70
     1
102
RTVSPropertyOp59
 70
     1
102
RTVSPropertyOp60
 70
     1
102
RTVSPropertyOp61
 70
     1
102
RTVSPropertyOp62
 70
     1
  0
XRECORD
  5
5F77
102
{ACAD_REACTORS
330
5F76
102
}
330
5F76
100
AcDbXrecord
280
     1
102
RTVSPost2010Prop28
280
     0
102
RTVSPost2010PropOp28
 70
     1
102
RTVSPost2010Prop29
280
     1
102
RTVSPost2010PropOp29
 70
     1
102
RTVSPost2010Prop30
280
     1
102
RTVSPost2010PropOp30
 70
     1
102
RTVSPost2010Prop31
280
     0
102
RTVSPost2010PropOp31
 70
     1
102
RTVSPost2010Prop32
280
     0
102
RTVSPost2010PropOp32
 70
     1
102
RTVSPost2010Prop33
280
     0
102
RTVSPost2010PropOp33
 70
     1
102
RTVSPost2010Prop34
280
     0
102
RTVSPost2010PropOp34
 70
     1
102
RTVSPost2010Prop35
280
     0
102
RTVSPost2010PropOp35
 70
     1
102
RTVSPost2010Prop36
280
     0
102
RTVSPost2010PropOp36
 70
     1
102
RTVSPost2010Prop37
 90
       50
102
RTVSPost2010PropOp37
 70
     1
102
RTVSPost2010Prop38
140
0.0
102
RTVSPost2010PropOp38
 70
     1
102
RTVSPost2010Prop39
140
1.0
102
RTVSPost2010PropOp39
 70
     1
102
RTVSPost2010Prop40
 90
        0
102
RTVSPost2010PropOp40
 70
     1
102
RTVSPost2010Prop41ColorIndex
 90
       18
102
RTVSPost2010Prop41ColorRGB
 90
        0
102
RTVSPost2010PropOp41
 70
     1
102
RTVSPost2010Prop42
 90
       50
102
RTVSPost2010PropOp42
 70
     1
102
RTVSPost2010Prop43
 90
        3
102
RTVSPost2010PropOp43
 70
     1
102
RTVSPost2010Prop44ColorIndex
 90
        5
102
RTVSPost2010Prop44ColorRGB
 90
      255
102
RTVSPost2010PropOp44
 70
     1
102
RTVSPost2010Prop45
280
     0
102
RTVSPost2010PropOp45
 70
     1
102
RTVSPost2010Prop46
 90
       50
102
RTVSPost2010PropOp46
 70
     1
102
RTVSPost2010Prop47
 90
       50
102
RTVSPost2010PropOp47
 70
     1
102
RTVSPost2010Prop48
 90
       50
102
RTVSPost2010PropOp48
 70
     1
102
RTVSPost2010Prop49
280
     0
102
RTVSPost2010PropOp49
 70
     1
102
RTVSPost2010Prop50
 90
       50
102
RTVSPost2010PropOp50
 70
     1
102
RTVSPost2010Prop51ColorIndex
 90
      256
102
RTVSPost2010Prop51ColorRGB
 90
-16777216
102
RTVSPost2010PropOp51
 70
     0
102
RTVSPost2010Prop52
140
1.0
102
RTVSPost2010PropOp52
 70
     0
102
RTVSPost2010Prop53
 90
        2
102
RTVSPost2010PropOp53
 70
     1
102
RTVSPost2010Prop54
  1
strokes_ogs.tif
102
RTVSPost2010PropOp54
 70
     1
102
RTVSPost2010Prop55
280
     0
102
RTVSPost2010PropOp55
 70
     1
102
RTVSPost2010Prop56
140
1.0
102
RTVSPost2010PropOp56
 70
     1
102
RTVSPost2010Prop57
140
1.0
102
RTVSPost2010PropOp57
 70
     1
102
RTVSPropertyOp0
 70
     1
102
RTVSPropertyOp1
 70
     1
102
RTVSPropertyOp2
 70
     1
102
RTVSPropertyOp3
 70
     1
102
RTVSPropertyOp4
 70
     1
102
RTVSPropertyOp5
 70
     1
102
RTVSPropertyOp6
 70
     1
102
RTVSPropertyOp7
 70
     1
102
RTVSPropertyOp8
 70
     1
102
RTVSPropertyOp9
 70
     1
102
RTVSPropertyOp10
 70
     1
102
RTVSPropertyOp11
 70
     1
102
RTVSPropertyOp12
 70
     1
102
RTVSPropertyOp13
 70
     1
102
RTVSPropertyOp14
 70
     1
102
RTVSPropertyOp15
 70
     1
102
RTVSPropertyOp16
 70
     1
102
RTVSPropertyOp17
 70
     1
102
RTVSPropertyOp18
 70
     1
102
RTVSPropertyOp19
 70
     1
102
RTVSPropertyOp20
 70
     1
102
RTVSPropertyOp21
 70
     1
102
RTVSPropertyOp22
 70
     1
102
RTVSPropertyOp23
 70
     1
102
RTVSPropertyOp24
 70
     1
102
RTVSPropertyOp25
 70
     1
102
RTVSPropertyOp26
 70
     1
102
RTVSPropertyOp27
 70
     1
102
RTVSPropertyOp28
 70
     1
102
RTVSPropertyOp29
 70
     1
102
RTVSPropertyOp30
 70
     1
102
RTVSPropertyOp31
 70
     1
102
RTVSPropertyOp32
 70
     1
102
RTVSPropertyOp33
 70
     1
102
RTVSPropertyOp34
 70
     1
102
RTVSPropertyOp35
 70
     1
102
RTVSPropertyOp36
 70
     1
102
RTVSPropertyOp37
 70
     1
102
RTVSPropertyOp38
 70
     1
102
RTVSPropertyOp39
 70
     1
102
RTVSPropertyOp40
 70
     1
102
RTVSPropertyOp41
 70
     1
102
RTVSPropertyOp42
 70
     1
102
RTVSPropertyOp43
 70
     1
102
RTVSPropertyOp44
 70
     1
102
RTVSPropertyOp45
 70
     1
102
RTVSPropertyOp46
 70
     1
102
RTVSPropertyOp47
 70
     1
102
RTVSPropertyOp48
 70
     1
102
RTVSPropertyOp49
 70
     1
102
RTVSPropertyOp50
 70
     1
102
RTVSPropertyOp51
 70
     0
102
RTVSPropertyOp52
 70
     0
102
RTVSPropertyOp53
 70
     1
102
RTVSPropertyOp54
 70
     1
102
RTVSPropertyOp55
 70
     1
102
RTVSPropertyOp56
 70
     1
102
RTVSPropertyOp57
 70
     1
102
RTVSPropertyOp58
 70
     1
102
RTVSPropertyOp59
 70
     1
102
RTVSPropertyOp60
 70
     1
102
RTVSPropertyOp61
 70
     1
102
RTVSPropertyOp62
 70
     1
  0
XRECORD
  5
5F79
102
{ACAD_REACTORS
330
5F78
102
}
330
5F78
100
AcDbXrecord
280
     1
102
RTVSPost2010Prop28
280
     0
102
RTVSPost2010PropOp28
 70
     1
102
RTVSPost2010Prop29
280
     1
102
RTVSPost2010PropOp29
 70
     1
102
RTVSPost2010Prop30
280
     1
102
RTVSPost2010PropOp30
 70
     1
102
RTVSPost2010Prop31
280
     0
102
RTVSPost2010PropOp31
 70
     1
102
RTVSPost2010Prop32
280
     0
102
RTVSPost2010PropOp32
 70
     1
102
RTVSPost2010Prop33
280
     0
102
RTVSPost2010PropOp33
 70
     1
102
RTVSPost2010Prop34
280
     0
102
RTVSPost2010PropOp34
 70
     1
102
RTVSPost2010Prop35
280
     0
102
RTVSPost2010PropOp35
 70
     1
102
RTVSPost2010Prop36
280
     0
102
RTVSPost2010PropOp36
 70
     1
102
RTVSPost2010Prop37
 90
       50
102
RTVSPost2010PropOp37
 70
     1
102
RTVSPost2010Prop38
140
0.0
102
RTVSPost2010PropOp38
 70
     1
102
RTVSPost2010Prop39
140
1.0
102
RTVSPost2010PropOp39
 70
     1
102
RTVSPost2010Prop40
 90
        0
102
RTVSPost2010PropOp40
 70
     1
102
RTVSPost2010Prop41ColorIndex
 90
       18
102
RTVSPost2010Prop41ColorRGB
 90
        0
102
RTVSPost2010PropOp41
 70
     1
102
RTVSPost2010Prop42
 90
       50
102
RTVSPost2010PropOp42
 70
     1
102
RTVSPost2010Prop43
 90
        3
102
RTVSPost2010PropOp43
 70
     1
102
RTVSPost2010Prop44ColorIndex
 90
        5
102
RTVSPost2010Prop44ColorRGB
 90
      255
102
RTVSPost2010PropOp44
 70
     1
102
RTVSPost2010Prop45
280
     0
102
RTVSPost2010PropOp45
 70
     1
102
RTVSPost2010Prop46
 90
       50
102
RTVSPost2010PropOp46
 70
     1
102
RTVSPost2010Prop47
 90
       50
102
RTVSPost2010PropOp47
 70
     1
102
RTVSPost2010Prop48
 90
       50
102
RTVSPost2010PropOp48
 70
     1
102
RTVSPost2010Prop49
280
     0
102
RTVSPost2010PropOp49
 70
     1
102
RTVSPost2010Prop50
 90
       50
102
RTVSPost2010PropOp50
 70
     1
102
RTVSPost2010Prop51ColorIndex
 90
      256
102
RTVSPost2010Prop51ColorRGB
 90
-16777216
102
RTVSPost2010PropOp51
 70
     0
102
RTVSPost2010Prop52
140
1.0
102
RTVSPost2010PropOp52
 70
     0
102
RTVSPost2010Prop53
 90
        2
102
RTVSPost2010PropOp53
 70
     1
102
RTVSPost2010Prop54
  1
strokes_ogs.tif
102
RTVSPost2010PropOp54
 70
     1
102
RTVSPost2010Prop55
280
     0
102
RTVSPost2010PropOp55
 70
     1
102
RTVSPost2010Prop56
140
1.0
102
RTVSPost2010PropOp56
 70
     1
102
RTVSPost2010Prop57
140
1.0
102
RTVSPost2010PropOp57
 70
     1
102
RTVSPropertyOp0
 70
     1
102
RTVSPropertyOp1
 70
     1
102
RTVSPropertyOp2
 70
     1
102
RTVSPropertyOp3
 70
     1
102
RTVSPropertyOp4
 70
     1
102
RTVSPropertyOp5
 70
     1
102
RTVSPropertyOp6
 70
     1
102
RTVSPropertyOp7
 70
     1
102
RTVSPropertyOp8
 70
     1
102
RTVSPropertyOp9
 70
     1
102
RTVSPropertyOp10
 70
     1
102
RTVSPropertyOp11
 70
     1
102
RTVSPropertyOp12
 70
     1
102
RTVSPropertyOp13
 70
     1
102
RTVSPropertyOp14
 70
     1
102
RTVSPropertyOp15
 70
     1
102
RTVSPropertyOp16
 70
     1
102
RTVSPropertyOp17
 70
     1
102
RTVSPropertyOp18
 70
     1
102
RTVSPropertyOp19
 70
     1
102
RTVSPropertyOp20
 70
     1
102
RTVSPropertyOp21
 70
     1
102
RTVSPropertyOp22
 70
     1
102
RTVSPropertyOp23
 70
     1
102
RTVSPropertyOp24
 70
     1
102
RTVSPropertyOp25
 70
     1
102
RTVSPropertyOp26
 70
     1
102
RTVSPropertyOp27
 70
     1
102
RTVSPropertyOp28
 70
     1
102
RTVSPropertyOp29
 70
     1
102
RTVSPropertyOp30
 70
     1
102
RTVSPropertyOp31
 70
     1
102
RTVSPropertyOp32
 70
     1
102
RTVSPropertyOp33
 70
     1
102
RTVSPropertyOp34
 70
     1
102
RTVSPropertyOp35
 70
     1
102
RTVSPropertyOp36
 70
     1
102
RTVSPropertyOp37
 70
     1
102
RTVSPropertyOp38
 70
     1
102
RTVSPropertyOp39
 70
     1
102
RTVSPropertyOp40
 70
     1
102
RTVSPropertyOp41
 70
     1
102
RTVSPropertyOp42
 70
     1
102
RTVSPropertyOp43
 70
     1
102
RTVSPropertyOp44
 70
     1
102
RTVSPropertyOp45
 70
     1
102
RTVSPropertyOp46
 70
     1
102
RTVSPropertyOp47
 70
     1
102
RTVSPropertyOp48
 70
     1
102
RTVSPropertyOp49
 70
     1
102
RTVSPropertyOp50
 70
     1
102
RTVSPropertyOp51
 70
     0
102
RTVSPropertyOp52
 70
     0
102
RTVSPropertyOp53
 70
     1
102
RTVSPropertyOp54
 70
     1
102
RTVSPropertyOp55
 70
     1
102
RTVSPropertyOp56
 70
     1
102
RTVSPropertyOp57
 70
     1
102
RTVSPropertyOp58
 70
     1
102
RTVSPropertyOp59
 70
     1
102
RTVSPropertyOp60
 70
     1
102
RTVSPropertyOp61
 70
     1
102
RTVSPropertyOp62
 70
     1
  0
XRECORD
  5
5F7B
102
{ACAD_REACTORS
330
5F7A
102
}
330
5F7A
100
AcDbXrecord
280
     1
102
RTVSPost2010Prop28
280
     0
102
RTVSPost2010PropOp28
 70
     1
102
RTVSPost2010Prop29
280
     1
102
RTVSPost2010PropOp29
 70
     1
102
RTVSPost2010Prop30
280
     1
102
RTVSPost2010PropOp30
 70
     1
102
RTVSPost2010Prop31
280
     0
102
RTVSPost2010PropOp31
 70
     1
102
RTVSPost2010Prop32
280
     0
102
RTVSPost2010PropOp32
 70
     1
102
RTVSPost2010Prop33
280
     0
102
RTVSPost2010PropOp33
 70
     1
102
RTVSPost2010Prop34
280
     0
102
RTVSPost2010PropOp34
 70
     1
102
RTVSPost2010Prop35
280
     0
102
RTVSPost2010PropOp35
 70
     1
102
RTVSPost2010Prop36
280
     0
102
RTVSPost2010PropOp36
 70
     1
102
RTVSPost2010Prop37
 90
       50
102
RTVSPost2010PropOp37
 70
     1
102
RTVSPost2010Prop38
140
0.0
102
RTVSPost2010PropOp38
 70
     1
102
RTVSPost2010Prop39
140
1.0
102
RTVSPost2010PropOp39
 70
     1
102
RTVSPost2010Prop40
 90
        0
102
RTVSPost2010PropOp40
 70
     1
102
RTVSPost2010Prop41ColorIndex
 90
       18
102
RTVSPost2010Prop41ColorRGB
 90
        0
102
RTVSPost2010PropOp41
 70
     1
102
RTVSPost2010Prop42
 90
       50
102
RTVSPost2010PropOp42
 70
     1
102
RTVSPost2010Prop43
 90
        3
102
RTVSPost2010PropOp43
 70
     1
102
RTVSPost2010Prop44ColorIndex
 90
        5
102
RTVSPost2010Prop44ColorRGB
 90
      255
102
RTVSPost2010PropOp44
 70
     1
102
RTVSPost2010Prop45
280
     0
102
RTVSPost2010PropOp45
 70
     1
102
RTVSPost2010Prop46
 90
       50
102
RTVSPost2010PropOp46
 70
     1
102
RTVSPost2010Prop47
 90
       50
102
RTVSPost2010PropOp47
 70
     1
102
RTVSPost2010Prop48
 90
       50
102
RTVSPost2010PropOp48
 70
     1
102
RTVSPost2010Prop49
280
     0
102
RTVSPost2010PropOp49
 70
     1
102
RTVSPost2010Prop50
 90
       50
102
RTVSPost2010PropOp50
 70
     1
102
RTVSPost2010Prop51ColorIndex
 90
      256
102
RTVSPost2010Prop51ColorRGB
 90
-16777216
102
RTVSPost2010PropOp51
 70
     0
102
RTVSPost2010Prop52
140
1.0
102
RTVSPost2010PropOp52
 70
     0
102
RTVSPost2010Prop53
 90
        2
102
RTVSPost2010PropOp53
 70
     1
102
RTVSPost2010Prop54
  1
strokes_ogs.tif
102
RTVSPost2010PropOp54
 70
     1
102
RTVSPost2010Prop55
280
     0
102
RTVSPost2010PropOp55
 70
     1
102
RTVSPost2010Prop56
140
1.0
102
RTVSPost2010PropOp56
 70
     1
102
RTVSPost2010Prop57
140
1.0
102
RTVSPost2010PropOp57
 70
     1
102
RTVSPropertyOp0
 70
     1
102
RTVSPropertyOp1
 70
     1
102
RTVSPropertyOp2
 70
     1
102
RTVSPropertyOp3
 70
     1
102
RTVSPropertyOp4
 70
     1
102
RTVSPropertyOp5
 70
     1
102
RTVSPropertyOp6
 70
     1
102
RTVSPropertyOp7
 70
     1
102
RTVSPropertyOp8
 70
     1
102
RTVSPropertyOp9
 70
     1
102
RTVSPropertyOp10
 70
     1
102
RTVSPropertyOp11
 70
     1
102
RTVSPropertyOp12
 70
     1
102
RTVSPropertyOp13
 70
     1
102
RTVSPropertyOp14
 70
     1
102
RTVSPropertyOp15
 70
     1
102
RTVSPropertyOp16
 70
     1
102
RTVSPropertyOp17
 70
     1
102
RTVSPropertyOp18
 70
     1
102
RTVSPropertyOp19
 70
     1
102
RTVSPropertyOp20
 70
     1
102
RTVSPropertyOp21
 70
     1
102
RTVSPropertyOp22
 70
     1
102
RTVSPropertyOp23
 70
     1
102
RTVSPropertyOp24
 70
     1
102
RTVSPropertyOp25
 70
     1
102
RTVSPropertyOp26
 70
     1
102
RTVSPropertyOp27
 70
     1
102
RTVSPropertyOp28
 70
     1
102
RTVSPropertyOp29
 70
     1
102
RTVSPropertyOp30
 70
     1
102
RTVSPropertyOp31
 70
     1
102
RTVSPropertyOp32
 70
     1
102
RTVSPropertyOp33
 70
     1
102
RTVSPropertyOp34
 70
     1
102
RTVSPropertyOp35
 70
     1
102
RTVSPropertyOp36
 70
     1
102
RTVSPropertyOp37
 70
     1
102
RTVSPropertyOp38
 70
     1
102
RTVSPropertyOp39
 70
     1
102
RTVSPropertyOp40
 70
     1
102
RTVSPropertyOp41
 70
     1
102
RTVSPropertyOp42
 70
     1
102
RTVSPropertyOp43
 70
     1
102
RTVSPropertyOp44
 70
     1
102
RTVSPropertyOp45
 70
     1
102
RTVSPropertyOp46
 70
     1
102
RTVSPropertyOp47
 70
     1
102
RTVSPropertyOp48
 70
     1
102
RTVSPropertyOp49
 70
     1
102
RTVSPropertyOp50
 70
     1
102
RTVSPropertyOp51
 70
     0
102
RTVSPropertyOp52
 70
     0
102
RTVSPropertyOp53
 70
     1
102
RTVSPropertyOp54
 70
     1
102
RTVSPropertyOp55
 70
     1
102
RTVSPropertyOp56
 70
     1
102
RTVSPropertyOp57
 70
     1
102
RTVSPropertyOp58
 70
     1
102
RTVSPropertyOp59
 70
     1
102
RTVSPropertyOp60
 70
     1
102
RTVSPropertyOp61
 70
     1
102
RTVSPropertyOp62
 70
     1
  0
XRECORD
  5
5F7D
102
{ACAD_REACTORS
330
5F7C
102
}
330
5F7C
100
AcDbXrecord
280
     1
102
RTVSPost2010Prop28
280
     0
102
RTVSPost2010PropOp28
 70
     1
102
RTVSPost2010Prop29
280
     1
102
RTVSPost2010PropOp29
 70
     1
102
RTVSPost2010Prop30
280
     1
102
RTVSPost2010PropOp30
 70
     1
102
RTVSPost2010Prop31
280
     0
102
RTVSPost2010PropOp31
 70
     1
102
RTVSPost2010Prop32
280
     0
102
RTVSPost2010PropOp32
 70
     1
102
RTVSPost2010Prop33
280
     0
102
RTVSPost2010PropOp33
 70
     1
102
RTVSPost2010Prop34
280
     0
102
RTVSPost2010PropOp34
 70
     1
102
RTVSPost2010Prop35
280
     0
102
RTVSPost2010PropOp35
 70
     1
102
RTVSPost2010Prop36
280
     0
102
RTVSPost2010PropOp36
 70
     1
102
RTVSPost2010Prop37
 90
       50
102
RTVSPost2010PropOp37
 70
     1
102
RTVSPost2010Prop38
140
0.0
102
RTVSPost2010PropOp38
 70
     1
102
RTVSPost2010Prop39
140
1.0
102
RTVSPost2010PropOp39
 70
     1
102
RTVSPost2010Prop40
 90
        0
102
RTVSPost2010PropOp40
 70
     1
102
RTVSPost2010Prop41ColorIndex
 90
       18
102
RTVSPost2010Prop41ColorRGB
 90
        0
102
RTVSPost2010PropOp41
 70
     1
102
RTVSPost2010Prop42
 90
       50
102
RTVSPost2010PropOp42
 70
     1
102
RTVSPost2010Prop43
 90
        3
102
RTVSPost2010PropOp43
 70
     1
102
RTVSPost2010Prop44ColorIndex
 90
        5
102
RTVSPost2010Prop44ColorRGB
 90
      255
102
RTVSPost2010PropOp44
 70
     1
102
RTVSPost2010Prop45
280
     0
102
RTVSPost2010PropOp45
 70
     1
102
RTVSPost2010Prop46
 90
       50
102
RTVSPost2010PropOp46
 70
     1
102
RTVSPost2010Prop47
 90
       50
102
RTVSPost2010PropOp47
 70
     1
102
RTVSPost2010Prop48
 90
       50
102
RTVSPost2010PropOp48
 70
     1
102
RTVSPost2010Prop49
280
     0
102
RTVSPost2010PropOp49
 70
     1
102
RTVSPost2010Prop50
 90
       50
102
RTVSPost2010PropOp50
 70
     1
102
RTVSPost2010Prop51ColorIndex
 90
      256
102
RTVSPost2010Prop51ColorRGB
 90
-16777216
102
RTVSPost2010PropOp51
 70
     0
102
RTVSPost2010Prop52
140
1.0
102
RTVSPost2010PropOp52
 70
     0
102
RTVSPost2010Prop53
 90
        2
102
RTVSPost2010PropOp53
 70
     1
102
RTVSPost2010Prop54
  1
strokes_ogs.tif
102
RTVSPost2010PropOp54
 70
     1
102
RTVSPost2010Prop55
280
     0
102
RTVSPost2010PropOp55
 70
     1
102
RTVSPost2010Prop56
140
1.0
102
RTVSPost2010PropOp56
 70
     1
102
RTVSPost2010Prop57
140
1.0
102
RTVSPost2010PropOp57
 70
     1
102
RTVSPropertyOp0
 70
     1
102
RTVSPropertyOp1
 70
     1
102
RTVSPropertyOp2
 70
     1
102
RTVSPropertyOp3
 70
     1
102
RTVSPropertyOp4
 70
     1
102
RTVSPropertyOp5
 70
     1
102
RTVSPropertyOp6
 70
     1
102
RTVSPropertyOp7
 70
     1
102
RTVSPropertyOp8
 70
     1
102
RTVSPropertyOp9
 70
     1
102
RTVSPropertyOp10
 70
     1
102
RTVSPropertyOp11
 70
     1
102
RTVSPropertyOp12
 70
     1
102
RTVSPropertyOp13
 70
     1
102
RTVSPropertyOp14
 70
     1
102
RTVSPropertyOp15
 70
     1
102
RTVSPropertyOp16
 70
     1
102
RTVSPropertyOp17
 70
     1
102
RTVSPropertyOp18
 70
     1
102
RTVSPropertyOp19
 70
     1
102
RTVSPropertyOp20
 70
     1
102
RTVSPropertyOp21
 70
     1
102
RTVSPropertyOp22
 70
     1
102
RTVSPropertyOp23
 70
     1
102
RTVSPropertyOp24
 70
     1
102
RTVSPropertyOp25
 70
     1
102
RTVSPropertyOp26
 70
     1
102
RTVSPropertyOp27
 70
     1
102
RTVSPropertyOp28
 70
     1
102
RTVSPropertyOp29
 70
     1
102
RTVSPropertyOp30
 70
     1
102
RTVSPropertyOp31
 70
     1
102
RTVSPropertyOp32
 70
     1
102
RTVSPropertyOp33
 70
     1
102
RTVSPropertyOp34
 70
     1
102
RTVSPropertyOp35
 70
     1
102
RTVSPropertyOp36
 70
     1
102
RTVSPropertyOp37
 70
     1
102
RTVSPropertyOp38
 70
     1
102
RTVSPropertyOp39
 70
     1
102
RTVSPropertyOp40
 70
     1
102
RTVSPropertyOp41
 70
     1
102
RTVSPropertyOp42
 70
     1
102
RTVSPropertyOp43
 70
     1
102
RTVSPropertyOp44
 70
     1
102
RTVSPropertyOp45
 70
     1
102
RTVSPropertyOp46
 70
     1
102
RTVSPropertyOp47
 70
     1
102
RTVSPropertyOp48
 70
     1
102
RTVSPropertyOp49
 70
     1
102
RTVSPropertyOp50
 70
     1
102
RTVSPropertyOp51
 70
     0
102
RTVSPropertyOp52
 70
     0
102
RTVSPropertyOp53
 70
     1
102
RTVSPropertyOp54
 70
     1
102
RTVSPropertyOp55
 70
     1
102
RTVSPropertyOp56
 70
     1
102
RTVSPropertyOp57
 70
     1
102
RTVSPropertyOp58
 70
     1
102
RTVSPropertyOp59
 70
     1
102
RTVSPropertyOp60
 70
     1
102
RTVSPropertyOp61
 70
     1
102
RTVSPropertyOp62
 70
     1
  0
XRECORD
  5
5F85
102
{ACAD_REACTORS
330
5F84
102
}
330
5F84
100
AcDbXrecord
280
     1
102
RTVSPost2010Prop28
280
     0
102
RTVSPost2010PropOp28
 70
     1
102
RTVSPost2010Prop29
280
     1
102
RTVSPost2010PropOp29
 70
     1
102
RTVSPost2010Prop30
280
     1
102
RTVSPost2010PropOp30
 70
     1
102
RTVSPost2010Prop31
280
     0
102
RTVSPost2010PropOp31
 70
     1
102
RTVSPost2010Prop32
280
     0
102
RTVSPost2010PropOp32
 70
     1
102
RTVSPost2010Prop33
280
     0
102
RTVSPost2010PropOp33
 70
     1
102
RTVSPost2010Prop34
280
     0
102
RTVSPost2010PropOp34
 70
     1
102
RTVSPost2010Prop35
280
     0
102
RTVSPost2010PropOp35
 70
     1
102
RTVSPost2010Prop36
280
     0
102
RTVSPost2010PropOp36
 70
     1
102
RTVSPost2010Prop37
 90
       50
102
RTVSPost2010PropOp37
 70
     1
102
RTVSPost2010Prop38
140
0.0
102
RTVSPost2010PropOp38
 70
     1
102
RTVSPost2010Prop39
140
1.0
102
RTVSPost2010PropOp39
 70
     1
102
RTVSPost2010Prop40
 90
        0
102
RTVSPost2010PropOp40
 70
     1
102
RTVSPost2010Prop41ColorIndex
 90
       18
102
RTVSPost2010Prop41ColorRGB
 90
        0
102
RTVSPost2010PropOp41
 70
     1
102
RTVSPost2010Prop42
 90
       50
102
RTVSPost2010PropOp42
 70
     1
102
RTVSPost2010Prop43
 90
        3
102
RTVSPost2010PropOp43
 70
     1
102
RTVSPost2010Prop44ColorIndex
 90
        5
102
RTVSPost2010Prop44ColorRGB
 90
      255
102
RTVSPost2010PropOp44
 70
     1
102
RTVSPost2010Prop45
280
     0
102
RTVSPost2010PropOp45
 70
     1
102
RTVSPost2010Prop46
 90
       50
102
RTVSPost2010PropOp46
 70
     1
102
RTVSPost2010Prop47
 90
       50
102
RTVSPost2010PropOp47
 70
     1
102
RTVSPost2010Prop48
 90
       50
102
RTVSPost2010PropOp48
 70
     1
102
RTVSPost2010Prop49
280
     0
102
RTVSPost2010PropOp49
 70
     1
102
RTVSPost2010Prop50
 90
       50
102
RTVSPost2010PropOp50
 70
     1
102
RTVSPost2010Prop51ColorIndex
 90
      256
102
RTVSPost2010Prop51ColorRGB
 90
-16777216
102
RTVSPost2010PropOp51
 70
     0
102
RTVSPost2010Prop52
140
1.0
102
RTVSPost2010PropOp52
 70
     0
102
RTVSPost2010Prop53
 90
        2
102
RTVSPost2010PropOp53
 70
     1
102
RTVSPost2010Prop54
  1
strokes_ogs.tif
102
RTVSPost2010PropOp54
 70
     1
102
RTVSPost2010Prop55
280
     0
102
RTVSPost2010PropOp55
 70
     1
102
RTVSPost2010Prop56
140
1.0
102
RTVSPost2010PropOp56
 70
     1
102
RTVSPost2010Prop57
140
1.0
102
RTVSPost2010PropOp57
 70
     1
102
RTVSPropertyOp0
 70
     1
102
RTVSPropertyOp1
 70
     1
102
RTVSPropertyOp2
 70
     1
102
RTVSPropertyOp3
 70
     1
102
RTVSPropertyOp4
 70
     1
102
RTVSPropertyOp5
 70
     1
102
RTVSPropertyOp6
 70
     1
102
RTVSPropertyOp7
 70
     1
102
RTVSPropertyOp8
 70
     1
102
RTVSPropertyOp9
 70
     1
102
RTVSPropertyOp10
 70
     1
102
RTVSPropertyOp11
 70
     1
102
RTVSPropertyOp12
 70
     1
102
RTVSPropertyOp13
 70
     1
102
RTVSPropertyOp14
 70
     1
102
RTVSPropertyOp15
 70
     1
102
RTVSPropertyOp16
 70
     1
102
RTVSPropertyOp17
 70
     1
102
RTVSPropertyOp18
 70
     1
102
RTVSPropertyOp19
 70
     1
102
RTVSPropertyOp20
 70
     1
102
RTVSPropertyOp21
 70
     1
102
RTVSPropertyOp22
 70
     1
102
RTVSPropertyOp23
 70
     1
102
RTVSPropertyOp24
 70
     1
102
RTVSPropertyOp25
 70
     1
102
RTVSPropertyOp26
 70
     1
102
RTVSPropertyOp27
 70
     1
102
RTVSPropertyOp28
 70
     1
102
RTVSPropertyOp29
 70
     1
102
RTVSPropertyOp30
 70
     1
102
RTVSPropertyOp31
 70
     1
102
RTVSPropertyOp32
 70
     1
102
RTVSPropertyOp33
 70
     1
102
RTVSPropertyOp34
 70
     1
102
RTVSPropertyOp35
 70
     1
102
RTVSPropertyOp36
 70
     1
102
RTVSPropertyOp37
 70
     1
102
RTVSPropertyOp38
 70
     1
102
RTVSPropertyOp39
 70
     1
102
RTVSPropertyOp40
 70
     1
102
RTVSPropertyOp41
 70
     1
102
RTVSPropertyOp42
 70
     1
102
RTVSPropertyOp43
 70
     1
102
RTVSPropertyOp44
 70
     1
102
RTVSPropertyOp45
 70
     1
102
RTVSPropertyOp46
 70
     1
102
RTVSPropertyOp47
 70
     1
102
RTVSPropertyOp48
 70
     1
102
RTVSPropertyOp49
 70
     1
102
RTVSPropertyOp50
 70
     1
102
RTVSPropertyOp51
 70
     0
102
RTVSPropertyOp52
 70
     0
102
RTVSPropertyOp53
 70
     1
102
RTVSPropertyOp54
 70
     1
102
RTVSPropertyOp55
 70
     1
102
RTVSPropertyOp56
 70
     1
102
RTVSPropertyOp57
 70
     1
102
RTVSPropertyOp58
 70
     1
102
RTVSPropertyOp59
 70
     1
102
RTVSPropertyOp60
 70
     1
102
RTVSPropertyOp61
 70
     1
102
RTVSPropertyOp62
 70
     1
  0
XRECORD
  5
5FA1
102
{ACAD_REACTORS
330
5FA0
102
}
330
5FA0
100
AcDbXrecord
280
     1
102
RTVSPost2010Prop28
280
     0
102
RTVSPost2010PropOp28
 70
     1
102
RTVSPost2010Prop29
280
     1
102
RTVSPost2010PropOp29
 70
     1
102
RTVSPost2010Prop30
280
     1
102
RTVSPost2010PropOp30
 70
     1
102
RTVSPost2010Prop31
280
     0
102
RTVSPost2010PropOp31
 70
     1
102
RTVSPost2010Prop32
280
     0
102
RTVSPost2010PropOp32
 70
     1
102
RTVSPost2010Prop33
280
     0
102
RTVSPost2010PropOp33
 70
     1
102
RTVSPost2010Prop34
280
     0
102
RTVSPost2010PropOp34
 70
     1
102
RTVSPost2010Prop35
280
     0
102
RTVSPost2010PropOp35
 70
     1
102
RTVSPost2010Prop36
280
     0
102
RTVSPost2010PropOp36
 70
     1
102
RTVSPost2010Prop37
 90
       50
102
RTVSPost2010PropOp37
 70
     0
102
RTVSPost2010Prop38
140
0.0
102
RTVSPost2010PropOp38
 70
     0
102
RTVSPost2010Prop39
140
1.0
102
RTVSPost2010PropOp39
 70
     0
102
RTVSPost2010Prop40
 90
        0
102
RTVSPost2010PropOp40
 70
     0
102
RTVSPost2010Prop41ColorIndex
 90
       18
102
RTVSPost2010Prop41ColorRGB
 90
        0
102
RTVSPost2010PropOp41
 70
     0
102
RTVSPost2010Prop42
 90
       50
102
RTVSPost2010PropOp42
 70
     0
102
RTVSPost2010Prop43
 90
        3
102
RTVSPost2010PropOp43
 70
     0
102
RTVSPost2010Prop44ColorIndex
 90
        5
102
RTVSPost2010Prop44ColorRGB
 90
      255
102
RTVSPost2010PropOp44
 70
     0
102
RTVSPost2010Prop45
280
     0
102
RTVSPost2010PropOp45
 70
     1
102
RTVSPost2010Prop46
 90
       50
102
RTVSPost2010PropOp46
 70
     0
102
RTVSPost2010Prop47
 90
       50
102
RTVSPost2010PropOp47
 70
     0
102
RTVSPost2010Prop48
 90
       50
102
RTVSPost2010PropOp48
 70
     0
102
RTVSPost2010Prop49
280
     0
102
RTVSPost2010PropOp49
 70
     1
102
RTVSPost2010Prop50
 90
       50
102
RTVSPost2010PropOp50
 70
     0
102
RTVSPost2010Prop51ColorIndex
 90
      256
102
RTVSPost2010Prop51ColorRGB
 90
-16777216
102
RTVSPost2010PropOp51
 70
     0
102
RTVSPost2010Prop52
140
1.0
102
RTVSPost2010PropOp52
 70
     0
102
RTVSPost2010Prop53
 90
        2
102
RTVSPost2010PropOp53
 70
     0
102
RTVSPost2010Prop54
  1
strokes_ogs.tif
102
RTVSPost2010PropOp54
 70
     0
102
RTVSPost2010Prop55
280
     0
102
RTVSPost2010PropOp55
 70
     1
102
RTVSPost2010Prop56
140
1.0
102
RTVSPost2010PropOp56
 70
     0
102
RTVSPost2010Prop57
140
1.0
102
RTVSPost2010PropOp57
 70
     0
102
RTVSPropertyOp0
 70
     0
102
RTVSPropertyOp1
 70
     0
102
RTVSPropertyOp2
 70
     0
102
RTVSPropertyOp3
 70
     0
102
RTVSPropertyOp4
 70
     0
102
RTVSPropertyOp5
 70
     0
102
RTVSPropertyOp6
 70
     0
102
RTVSPropertyOp7
 70
     0
102
RTVSPropertyOp8
 70
     0
102
RTVSPropertyOp9
 70
     0
102
RTVSPropertyOp10
 70
     0
102
RTVSPropertyOp11
 70
     0
102
RTVSPropertyOp12
 70
     0
102
RTVSPropertyOp13
 70
     0
102
RTVSPropertyOp14
 70
     2
102
RTVSPropertyOp15
 70
     0
102
RTVSPropertyOp16
 70
     0
102
RTVSPropertyOp17
 70
     0
102
RTVSPropertyOp18
 70
     0
102
RTVSPropertyOp19
 70
     0
102
RTVSPropertyOp20
 70
     0
102
RTVSPropertyOp21
 70
     0
102
RTVSPropertyOp22
 70
     0
102
RTVSPropertyOp23
 70
     0
102
RTVSPropertyOp24
 70
     0
102
RTVSPropertyOp25
 70
     0
102
RTVSPropertyOp26
 70
     0
102
RTVSPropertyOp27
 70
     0
102
RTVSPropertyOp28
 70
     1
102
RTVSPropertyOp29
 70
     1
102
RTVSPropertyOp30
 70
     1
102
RTVSPropertyOp31
 70
     1
102
RTVSPropertyOp32
 70
     1
102
RTVSPropertyOp33
 70
     1
102
RTVSPropertyOp34
 70
     1
102
RTVSPropertyOp35
 70
     1
102
RTVSPropertyOp36
 70
     1
102
RTVSPropertyOp37
 70
     0
102
RTVSPropertyOp38
 70
     0
102
RTVSPropertyOp39
 70
     0
102
RTVSPropertyOp40
 70
     0
102
RTVSPropertyOp41
 70
     0
102
RTVSPropertyOp42
 70
     0
102
RTVSPropertyOp43
 70
     0
102
RTVSPropertyOp44
 70
     0
102
RTVSPropertyOp45
 70
     1
102
RTVSPropertyOp46
 70
     0
102
RTVSPropertyOp47
 70
     0
102
RTVSPropertyOp48
 70
     0
102
RTVSPropertyOp49
 70
     1
102
RTVSPropertyOp50
 70
     0
102
RTVSPropertyOp51
 70
     0
102
RTVSPropertyOp52
 70
     0
102
RTVSPropertyOp53
 70
     0
102
RTVSPropertyOp54
 70
     0
102
RTVSPropertyOp55
 70
     1
102
RTVSPropertyOp56
 70
     0
102
RTVSPropertyOp57
 70
     0
102
RTVSPropertyOp58
 70
     0
102
RTVSPropertyOp59
 70
     0
102
RTVSPropertyOp60
 70
     0
102
RTVSPropertyOp61
 70
     0
102
RTVSPropertyOp62
 70
     0
  0
XRECORD
  5
5F91
102
{ACAD_REACTORS
330
5F90
102
}
330
5F90
100
AcDbXrecord
280
     1
102
RTVSPost2010Prop28
280
     0
102
RTVSPost2010PropOp28
 70
     1
102
RTVSPost2010Prop29
280
     1
102
RTVSPost2010PropOp29
 70
     1
102
RTVSPost2010Prop30
280
     1
102
RTVSPost2010PropOp30
 70
     1
102
RTVSPost2010Prop31
280
     0
102
RTVSPost2010PropOp31
 70
     1
102
RTVSPost2010Prop32
280
     0
102
RTVSPost2010PropOp32
 70
     1
102
RTVSPost2010Prop33
280
     0
102
RTVSPost2010PropOp33
 70
     1
102
RTVSPost2010Prop34
280
     0
102
RTVSPost2010PropOp34
 70
     1
102
RTVSPost2010Prop35
280
     0
102
RTVSPost2010PropOp35
 70
     1
102
RTVSPost2010Prop36
280
     0
102
RTVSPost2010PropOp36
 70
     1
102
RTVSPost2010Prop37
 90
       50
102
RTVSPost2010PropOp37
 70
     1
102
RTVSPost2010Prop38
140
0.0
102
RTVSPost2010PropOp38
 70
     1
102
RTVSPost2010Prop39
140
1.0
102
RTVSPost2010PropOp39
 70
     1
102
RTVSPost2010Prop40
 90
        0
102
RTVSPost2010PropOp40
 70
     1
102
RTVSPost2010Prop41ColorIndex
 90
       18
102
RTVSPost2010Prop41ColorRGB
 90
        0
102
RTVSPost2010PropOp41
 70
     1
102
RTVSPost2010Prop42
 90
       50
102
RTVSPost2010PropOp42
 70
     1
102
RTVSPost2010Prop43
 90
        3
102
RTVSPost2010PropOp43
 70
     1
102
RTVSPost2010Prop44ColorIndex
 90
        5
102
RTVSPost2010Prop44ColorRGB
 90
      255
102
RTVSPost2010PropOp44
 70
     1
102
RTVSPost2010Prop45
280
     0
102
RTVSPost2010PropOp45
 70
     1
102
RTVSPost2010Prop46
 90
       50
102
RTVSPost2010PropOp46
 70
     1
102
RTVSPost2010Prop47
 90
       50
102
RTVSPost2010PropOp47
 70
     1
102
RTVSPost2010Prop48
 90
       50
102
RTVSPost2010PropOp48
 70
     1
102
RTVSPost2010Prop49
280
     0
102
RTVSPost2010PropOp49
 70
     1
102
RTVSPost2010Prop50
 90
       50
102
RTVSPost2010PropOp50
 70
     1
102
RTVSPost2010Prop51ColorIndex
 90
      256
102
RTVSPost2010Prop51ColorRGB
 90
-16777216
102
RTVSPost2010PropOp51
 70
     0
102
RTVSPost2010Prop52
140
1.0
102
RTVSPost2010PropOp52
 70
     0
102
RTVSPost2010Prop53
 90
        2
102
RTVSPost2010PropOp53
 70
     1
102
RTVSPost2010Prop54
  1
strokes_ogs.tif
102
RTVSPost2010PropOp54
 70
     1
102
RTVSPost2010Prop55
280
     0
102
RTVSPost2010PropOp55
 70
     1
102
RTVSPost2010Prop56
140
1.0
102
RTVSPost2010PropOp56
 70
     1
102
RTVSPost2010Prop57
140
1.0
102
RTVSPost2010PropOp57
 70
     1
102
RTVSPropertyOp0
 70
     1
102
RTVSPropertyOp1
 70
     1
102
RTVSPropertyOp2
 70
     1
102
RTVSPropertyOp3
 70
     1
102
RTVSPropertyOp4
 70
     1
102
RTVSPropertyOp5
 70
     1
102
RTVSPropertyOp6
 70
     1
102
RTVSPropertyOp7
 70
     1
102
RTVSPropertyOp8
 70
     1
102
RTVSPropertyOp9
 70
     1
102
RTVSPropertyOp10
 70
     1
102
RTVSPropertyOp11
 70
     1
102
RTVSPropertyOp12
 70
     1
102
RTVSPropertyOp13
 70
     1
102
RTVSPropertyOp14
 70
     1
102
RTVSPropertyOp15
 70
     1
102
RTVSPropertyOp16
 70
     1
102
RTVSPropertyOp17
 70
     1
102
RTVSPropertyOp18
 70
     1
102
RTVSPropertyOp19
 70
     1
102
RTVSPropertyOp20
 70
     1
102
RTVSPropertyOp21
 70
     1
102
RTVSPropertyOp22
 70
     1
102
RTVSPropertyOp23
 70
     1
102
RTVSPropertyOp24
 70
     1
102
RTVSPropertyOp25
 70
     1
102
RTVSPropertyOp26
 70
     1
102
RTVSPropertyOp27
 70
     1
102
RTVSPropertyOp28
 70
     1
102
RTVSPropertyOp29
 70
     1
102
RTVSPropertyOp30
 70
     1
102
RTVSPropertyOp31
 70
     1
102
RTVSPropertyOp32
 70
     1
102
RTVSPropertyOp33
 70
     1
102
RTVSPropertyOp34
 70
     1
102
RTVSPropertyOp35
 70
     1
102
RTVSPropertyOp36
 70
     1
102
RTVSPropertyOp37
 70
     1
102
RTVSPropertyOp38
 70
     1
102
RTVSPropertyOp39
 70
     1
102
RTVSPropertyOp40
 70
     1
102
RTVSPropertyOp41
 70
     1
102
RTVSPropertyOp42
 70
     1
102
RTVSPropertyOp43
 70
     1
102
RTVSPropertyOp44
 70
     1
102
RTVSPropertyOp45
 70
     1
102
RTVSPropertyOp46
 70
     1
102
RTVSPropertyOp47
 70
     1
102
RTVSPropertyOp48
 70
     1
102
RTVSPropertyOp49
 70
     1
102
RTVSPropertyOp50
 70
     1
102
RTVSPropertyOp51
 70
     0
102
RTVSPropertyOp52
 70
     0
102
RTVSPropertyOp53
 70
     1
102
RTVSPropertyOp54
 70
     1
102
RTVSPropertyOp55
 70
     1
102
RTVSPropertyOp56
 70
     1
102
RTVSPropertyOp57
 70
     1
102
RTVSPropertyOp58
 70
     1
102
RTVSPropertyOp59
 70
     1
102
RTVSPropertyOp60
 70
     1
102
RTVSPropertyOp61
 70
     1
102
RTVSPropertyOp62
 70
     1
  0
XRECORD
  5
5FA3
102
{ACAD_REACTORS
330
5FA2
102
}
330
5FA2
100
AcDbXrecord
280
     1
102
RTVSPost2010Prop28
280
     0
102
RTVSPost2010PropOp28
 70
     1
102
RTVSPost2010Prop29
280
     1
102
RTVSPost2010PropOp29
 70
     1
102
RTVSPost2010Prop30
280
     1
102
RTVSPost2010PropOp30
 70
     1
102
RTVSPost2010Prop31
280
     0
102
RTVSPost2010PropOp31
 70
     1
102
RTVSPost2010Prop32
280
     0
102
RTVSPost2010PropOp32
 70
     1
102
RTVSPost2010Prop33
280
     0
102
RTVSPost2010PropOp33
 70
     1
102
RTVSPost2010Prop34
280
     0
102
RTVSPost2010PropOp34
 70
     1
102
RTVSPost2010Prop35
280
     0
102
RTVSPost2010PropOp35
 70
     1
102
RTVSPost2010Prop36
280
     0
102
RTVSPost2010PropOp36
 70
     1
102
RTVSPost2010Prop37
 90
       50
102
RTVSPost2010PropOp37
 70
     0
102
RTVSPost2010Prop38
140
0.0
102
RTVSPost2010PropOp38
 70
     0
102
RTVSPost2010Prop39
140
1.0
102
RTVSPost2010PropOp39
 70
     0
102
RTVSPost2010Prop40
 90
        0
102
RTVSPost2010PropOp40
 70
     0
102
RTVSPost2010Prop41ColorIndex
 90
       18
102
RTVSPost2010Prop41ColorRGB
 90
        0
102
RTVSPost2010PropOp41
 70
     0
102
RTVSPost2010Prop42
 90
       50
102
RTVSPost2010PropOp42
 70
     0
102
RTVSPost2010Prop43
 90
        3
102
RTVSPost2010PropOp43
 70
     0
102
RTVSPost2010Prop44ColorIndex
 90
        5
102
RTVSPost2010Prop44ColorRGB
 90
      255
102
RTVSPost2010PropOp44
 70
     0
102
RTVSPost2010Prop45
280
     0
102
RTVSPost2010PropOp45
 70
     1
102
RTVSPost2010Prop46
 90
       50
102
RTVSPost2010PropOp46
 70
     0
102
RTVSPost2010Prop47
 90
       50
102
RTVSPost2010PropOp47
 70
     0
102
RTVSPost2010Prop48
 90
       50
102
RTVSPost2010PropOp48
 70
     0
102
RTVSPost2010Prop49
280
     0
102
RTVSPost2010PropOp49
 70
     1
102
RTVSPost2010Prop50
 90
       50
102
RTVSPost2010PropOp50
 70
     0
102
RTVSPost2010Prop51ColorIndex
 90
      256
102
RTVSPost2010Prop51ColorRGB
 90
-16777216
102
RTVSPost2010PropOp51
 70
     0
102
RTVSPost2010Prop52
140
1.0
102
RTVSPost2010PropOp52
 70
     0
102
RTVSPost2010Prop53
 90
        2
102
RTVSPost2010PropOp53
 70
     0
102
RTVSPost2010Prop54
  1
strokes_ogs.tif
102
RTVSPost2010PropOp54
 70
     0
102
RTVSPost2010Prop55
280
     0
102
RTVSPost2010PropOp55
 70
     1
102
RTVSPost2010Prop56
140
1.0
102
RTVSPost2010PropOp56
 70
     0
102
RTVSPost2010Prop57
140
1.0
102
RTVSPost2010PropOp57
 70
     0
102
RTVSPropertyOp0
 70
     0
102
RTVSPropertyOp1
 70
     0
102
RTVSPropertyOp2
 70
     0
102
RTVSPropertyOp3
 70
     0
102
RTVSPropertyOp4
 70
     0
102
RTVSPropertyOp5
 70
     0
102
RTVSPropertyOp6
 70
     0
102
RTVSPropertyOp7
 70
     0
102
RTVSPropertyOp8
 70
     0
102
RTVSPropertyOp9
 70
     0
102
RTVSPropertyOp10
 70
     0
102
RTVSPropertyOp11
 70
     0
102
RTVSPropertyOp12
 70
     0
102
RTVSPropertyOp13
 70
     0
102
RTVSPropertyOp14
 70
     2
102
RTVSPropertyOp15
 70
     0
102
RTVSPropertyOp16
 70
     0
102
RTVSPropertyOp17
 70
     0
102
RTVSPropertyOp18
 70
     0
102
RTVSPropertyOp19
 70
     0
102
RTVSPropertyOp20
 70
     0
102
RTVSPropertyOp21
 70
     0
102
RTVSPropertyOp22
 70
     0
102
RTVSPropertyOp23
 70
     0
102
RTVSPropertyOp24
 70
     0
102
RTVSPropertyOp25
 70
     0
102
RTVSPropertyOp26
 70
     0
102
RTVSPropertyOp27
 70
     0
102
RTVSPropertyOp28
 70
     1
102
RTVSPropertyOp29
 70
     1
102
RTVSPropertyOp30
 70
     1
102
RTVSPropertyOp31
 70
     1
102
RTVSPropertyOp32
 70
     1
102
RTVSPropertyOp33
 70
     1
102
RTVSPropertyOp34
 70
     1
102
RTVSPropertyOp35
 70
     1
102
RTVSPropertyOp36
 70
     1
102
RTVSPropertyOp37
 70
     0
102
RTVSPropertyOp38
 70
     0
102
RTVSPropertyOp39
 70
     0
102
RTVSPropertyOp40
 70
     0
102
RTVSPropertyOp41
 70
     0
102
RTVSPropertyOp42
 70
     0
102
RTVSPropertyOp43
 70
     0
102
RTVSPropertyOp44
 70
     0
102
RTVSPropertyOp45
 70
     1
102
RTVSPropertyOp46
 70
     0
102
RTVSPropertyOp47
 70
     0
102
RTVSPropertyOp48
 70
     0
102
RTVSPropertyOp49
 70
     1
102
RTVSPropertyOp50
 70
     0
102
RTVSPropertyOp51
 70
     0
102
RTVSPropertyOp52
 70
     0
102
RTVSPropertyOp53
 70
     0
102
RTVSPropertyOp54
 70
     0
102
RTVSPropertyOp55
 70
     1
102
RTVSPropertyOp56
 70
     0
102
RTVSPropertyOp57
 70
     0
102
RTVSPropertyOp58
 70
     0
102
RTVSPropertyOp59
 70
     0
102
RTVSPropertyOp60
 70
     0
102
RTVSPropertyOp61
 70
     0
102
RTVSPropertyOp62
 70
     0
  0
XRECORD
  5
5F89
102
{ACAD_REACTORS
330
5F88
102
}
330
5F88
100
AcDbXrecord
280
     1
102
RTVSPost2010Prop28
280
     0
102
RTVSPost2010PropOp28
 70
     1
102
RTVSPost2010Prop29
280
     1
102
RTVSPost2010PropOp29
 70
     1
102
RTVSPost2010Prop30
280
     1
102
RTVSPost2010PropOp30
 70
     1
102
RTVSPost2010Prop31
280
     0
102
RTVSPost2010PropOp31
 70
     1
102
RTVSPost2010Prop32
280
     0
102
RTVSPost2010PropOp32
 70
     1
102
RTVSPost2010Prop33
280
     0
102
RTVSPost2010PropOp33
 70
     1
102
RTVSPost2010Prop34
280
     0
102
RTVSPost2010PropOp34
 70
     1
102
RTVSPost2010Prop35
280
     0
102
RTVSPost2010PropOp35
 70
     1
102
RTVSPost2010Prop36
280
     0
102
RTVSPost2010PropOp36
 70
     1
102
RTVSPost2010Prop37
 90
       50
102
RTVSPost2010PropOp37
 70
     1
102
RTVSPost2010Prop38
140
0.0
102
RTVSPost2010PropOp38
 70
     1
102
RTVSPost2010Prop39
140
1.0
102
RTVSPost2010PropOp39
 70
     1
102
RTVSPost2010Prop40
 90
        0
102
RTVSPost2010PropOp40
 70
     1
102
RTVSPost2010Prop41ColorIndex
 90
       18
102
RTVSPost2010Prop41ColorRGB
 90
        0
102
RTVSPost2010PropOp41
 70
     1
102
RTVSPost2010Prop42
 90
       50
102
RTVSPost2010PropOp42
 70
     1
102
RTVSPost2010Prop43
 90
        3
102
RTVSPost2010PropOp43
 70
     1
102
RTVSPost2010Prop44ColorIndex
 90
        5
102
RTVSPost2010Prop44ColorRGB
 90
      255
102
RTVSPost2010PropOp44
 70
     1
102
RTVSPost2010Prop45
280
     0
102
RTVSPost2010PropOp45
 70
     1
102
RTVSPost2010Prop46
 90
       50
102
RTVSPost2010PropOp46
 70
     1
102
RTVSPost2010Prop47
 90
       50
102
RTVSPost2010PropOp47
 70
     1
102
RTVSPost2010Prop48
 90
       50
102
RTVSPost2010PropOp48
 70
     1
102
RTVSPost2010Prop49
280
     0
102
RTVSPost2010PropOp49
 70
     1
102
RTVSPost2010Prop50
 90
       50
102
RTVSPost2010PropOp50
 70
     1
102
RTVSPost2010Prop51ColorIndex
 90
      256
102
RTVSPost2010Prop51ColorRGB
 90
-16777216
102
RTVSPost2010PropOp51
 70
     0
102
RTVSPost2010Prop52
140
1.0
102
RTVSPost2010PropOp52
 70
     0
102
RTVSPost2010Prop53
 90
        2
102
RTVSPost2010PropOp53
 70
     1
102
RTVSPost2010Prop54
  1
strokes_ogs.tif
102
RTVSPost2010PropOp54
 70
     1
102
RTVSPost2010Prop55
280
     0
102
RTVSPost2010PropOp55
 70
     1
102
RTVSPost2010Prop56
140
1.0
102
RTVSPost2010PropOp56
 70
     1
102
RTVSPost2010Prop57
140
1.0
102
RTVSPost2010PropOp57
 70
     1
102
RTVSPropertyOp0
 70
     1
102
RTVSPropertyOp1
 70
     1
102
RTVSPropertyOp2
 70
     1
102
RTVSPropertyOp3
 70
     1
102
RTVSPropertyOp4
 70
     1
102
RTVSPropertyOp5
 70
     1
102
RTVSPropertyOp6
 70
     1
102
RTVSPropertyOp7
 70
     1
102
RTVSPropertyOp8
 70
     1
102
RTVSPropertyOp9
 70
     1
102
RTVSPropertyOp10
 70
     1
102
RTVSPropertyOp11
 70
     1
102
RTVSPropertyOp12
 70
     1
102
RTVSPropertyOp13
 70
     1
102
RTVSPropertyOp14
 70
     1
102
RTVSPropertyOp15
 70
     1
102
RTVSPropertyOp16
 70
     1
102
RTVSPropertyOp17
 70
     1
102
RTVSPropertyOp18
 70
     1
102
RTVSPropertyOp19
 70
     1
102
RTVSPropertyOp20
 70
     1
102
RTVSPropertyOp21
 70
     1
102
RTVSPropertyOp22
 70
     1
102
RTVSPropertyOp23
 70
     1
102
RTVSPropertyOp24
 70
     1
102
RTVSPropertyOp25
 70
     1
102
RTVSPropertyOp26
 70
     1
102
RTVSPropertyOp27
 70
     1
102
RTVSPropertyOp28
 70
     1
102
RTVSPropertyOp29
 70
     1
102
RTVSPropertyOp30
 70
     1
102
RTVSPropertyOp31
 70
     1
102
RTVSPropertyOp32
 70
     1
102
RTVSPropertyOp33
 70
     1
102
RTVSPropertyOp34
 70
     1
102
RTVSPropertyOp35
 70
     1
102
RTVSPropertyOp36
 70
     1
102
RTVSPropertyOp37
 70
     1
102
RTVSPropertyOp38
 70
     1
102
RTVSPropertyOp39
 70
     1
102
RTVSPropertyOp40
 70
     1
102
RTVSPropertyOp41
 70
     1
102
RTVSPropertyOp42
 70
     1
102
RTVSPropertyOp43
 70
     1
102
RTVSPropertyOp44
 70
     1
102
RTVSPropertyOp45
 70
     1
102
RTVSPropertyOp46
 70
     1
102
RTVSPropertyOp47
 70
     1
102
RTVSPropertyOp48
 70
     1
102
RTVSPropertyOp49
 70
     1
102
RTVSPropertyOp50
 70
     1
102
RTVSPropertyOp51
 70
     0
102
RTVSPropertyOp52
 70
     0
102
RTVSPropertyOp53
 70
     1
102
RTVSPropertyOp54
 70
     1
102
RTVSPropertyOp55
 70
     1
102
RTVSPropertyOp56
 70
     1
102
RTVSPropertyOp57
 70
     1
102
RTVSPropertyOp58
 70
     1
102
RTVSPropertyOp59
 70
     1
102
RTVSPropertyOp60
 70
     1
102
RTVSPropertyOp61
 70
     1
102
RTVSPropertyOp62
 70
     1
  0
XRECORD
  5
5F9F
102
{ACAD_REACTORS
330
5F9E
102
}
330
5F9E
100
AcDbXrecord
280
     1
102
RTVSPost2010Prop28
280
     0
102
RTVSPost2010PropOp28
 70
     1
102
RTVSPost2010Prop29
280
     1
102
RTVSPost2010PropOp29
 70
     1
102
RTVSPost2010Prop30
280
     1
102
RTVSPost2010PropOp30
 70
     1
102
RTVSPost2010Prop31
280
     0
102
RTVSPost2010PropOp31
 70
     1
102
RTVSPost2010Prop32
280
     0
102
RTVSPost2010PropOp32
 70
     1
102
RTVSPost2010Prop33
280
     0
102
RTVSPost2010PropOp33
 70
     1
102
RTVSPost2010Prop34
280
     0
102
RTVSPost2010PropOp34
 70
     1
102
RTVSPost2010Prop35
280
     0
102
RTVSPost2010PropOp35
 70
     1
102
RTVSPost2010Prop36
280
     0
102
RTVSPost2010PropOp36
 70
     1
102
RTVSPost2010Prop37
 90
       50
102
RTVSPost2010PropOp37
 70
     1
102
RTVSPost2010Prop38
140
0.0
102
RTVSPost2010PropOp38
 70
     1
102
RTVSPost2010Prop39
140
1.0
102
RTVSPost2010PropOp39
 70
     1
102
RTVSPost2010Prop40
 90
        0
102
RTVSPost2010PropOp40
 70
     1
102
RTVSPost2010Prop41ColorIndex
 90
       18
102
RTVSPost2010Prop41ColorRGB
 90
        0
102
RTVSPost2010PropOp41
 70
     1
102
RTVSPost2010Prop42
 90
       50
102
RTVSPost2010PropOp42
 70
     1
102
RTVSPost2010Prop43
 90
        3
102
RTVSPost2010PropOp43
 70
     1
102
RTVSPost2010Prop44ColorIndex
 90
        5
102
RTVSPost2010Prop44ColorRGB
 90
      255
102
RTVSPost2010PropOp44
 70
     1
102
RTVSPost2010Prop45
280
     0
102
RTVSPost2010PropOp45
 70
     1
102
RTVSPost2010Prop46
 90
       50
102
RTVSPost2010PropOp46
 70
     1
102
RTVSPost2010Prop47
 90
       50
102
RTVSPost2010PropOp47
 70
     1
102
RTVSPost2010Prop48
 90
       50
102
RTVSPost2010PropOp48
 70
     1
102
RTVSPost2010Prop49
280
     0
102
RTVSPost2010PropOp49
 70
     1
102
RTVSPost2010Prop50
 90
       50
102
RTVSPost2010PropOp50
 70
     1
102
RTVSPost2010Prop51ColorIndex
 90
      256
102
RTVSPost2010Prop51ColorRGB
 90
-16777216
102
RTVSPost2010PropOp51
 70
     0
102
RTVSPost2010Prop52
140
1.0
102
RTVSPost2010PropOp52
 70
     0
102
RTVSPost2010Prop53
 90
        2
102
RTVSPost2010PropOp53
 70
     1
102
RTVSPost2010Prop54
  1
strokes_ogs.tif
102
RTVSPost2010PropOp54
 70
     1
102
RTVSPost2010Prop55
280
     0
102
RTVSPost2010PropOp55
 70
     1
102
RTVSPost2010Prop56
140
1.0
102
RTVSPost2010PropOp56
 70
     1
102
RTVSPost2010Prop57
140
1.0
102
RTVSPost2010PropOp57
 70
     1
102
RTVSPropertyOp0
 70
     1
102
RTVSPropertyOp1
 70
     1
102
RTVSPropertyOp2
 70
     1
102
RTVSPropertyOp3
 70
     1
102
RTVSPropertyOp4
 70
     1
102
RTVSPropertyOp5
 70
     1
102
RTVSPropertyOp6
 70
     1
102
RTVSPropertyOp7
 70
     1
102
RTVSPropertyOp8
 70
     1
102
RTVSPropertyOp9
 70
     1
102
RTVSPropertyOp10
 70
     1
102
RTVSPropertyOp11
 70
     1
102
RTVSPropertyOp12
 70
     1
102
RTVSPropertyOp13
 70
     1
102
RTVSPropertyOp14
 70
     1
102
RTVSPropertyOp15
 70
     1
102
RTVSPropertyOp16
 70
     1
102
RTVSPropertyOp17
 70
     1
102
RTVSPropertyOp18
 70
     1
102
RTVSPropertyOp19
 70
     1
102
RTVSPropertyOp20
 70
     1
102
RTVSPropertyOp21
 70
     1
102
RTVSPropertyOp22
 70
     1
102
RTVSPropertyOp23
 70
     1
102
RTVSPropertyOp24
 70
     1
102
RTVSPropertyOp25
 70
     1
102
RTVSPropertyOp26
 70
     1
102
RTVSPropertyOp27
 70
     1
102
RTVSPropertyOp28
 70
     1
102
RTVSPropertyOp29
 70
     1
102
RTVSPropertyOp30
 70
     1
102
RTVSPropertyOp31
 70
     1
102
RTVSPropertyOp32
 70
     1
102
RTVSPropertyOp33
 70
     1
102
RTVSPropertyOp34
 70
     1
102
RTVSPropertyOp35
 70
     1
102
RTVSPropertyOp36
 70
     1
102
RTVSPropertyOp37
 70
     1
102
RTVSPropertyOp38
 70
     1
102
RTVSPropertyOp39
 70
     1
102
RTVSPropertyOp40
 70
     1
102
RTVSPropertyOp41
 70
     1
102
RTVSPropertyOp42
 70
     1
102
RTVSPropertyOp43
 70
     1
102
RTVSPropertyOp44
 70
     1
102
RTVSPropertyOp45
 70
     1
102
RTVSPropertyOp46
 70
     1
102
RTVSPropertyOp47
 70
     1
102
RTVSPropertyOp48
 70
     1
102
RTVSPropertyOp49
 70
     1
102
RTVSPropertyOp50
 70
     1
102
RTVSPropertyOp51
 70
     0
102
RTVSPropertyOp52
 70
     0
102
RTVSPropertyOp53
 70
     1
102
RTVSPropertyOp54
 70
     1
102
RTVSPropertyOp55
 70
     1
102
RTVSPropertyOp56
 70
     1
102
RTVSPropertyOp57
 70
     1
102
RTVSPropertyOp58
 70
     1
102
RTVSPropertyOp59
 70
     1
102
RTVSPropertyOp60
 70
     1
102
RTVSPropertyOp61
 70
     1
102
RTVSPropertyOp62
 70
     1
  0
XRECORD
  5
5F9D
102
{ACAD_REACTORS
330
5F9C
102
}
330
5F9C
100
AcDbXrecord
280
     1
102
RTVSPost2010Prop28
280
     0
102
RTVSPost2010PropOp28
 70
     1
102
RTVSPost2010Prop29
280
     1
102
RTVSPost2010PropOp29
 70
     1
102
RTVSPost2010Prop30
280
     1
102
RTVSPost2010PropOp30
 70
     1
102
RTVSPost2010Prop31
280
     0
102
RTVSPost2010PropOp31
 70
     1
102
RTVSPost2010Prop32
280
     0
102
RTVSPost2010PropOp32
 70
     1
102
RTVSPost2010Prop33
280
     0
102
RTVSPost2010PropOp33
 70
     1
102
RTVSPost2010Prop34
280
     0
102
RTVSPost2010PropOp34
 70
     1
102
RTVSPost2010Prop35
280
     0
102
RTVSPost2010PropOp35
 70
     1
102
RTVSPost2010Prop36
280
     0
102
RTVSPost2010PropOp36
 70
     1
102
RTVSPost2010Prop37
 90
       50
102
RTVSPost2010PropOp37
 70
     1
102
RTVSPost2010Prop38
140
0.0
102
RTVSPost2010PropOp38
 70
     1
102
RTVSPost2010Prop39
140
1.0
102
RTVSPost2010PropOp39
 70
     1
102
RTVSPost2010Prop40
 90
        0
102
RTVSPost2010PropOp40
 70
     1
102
RTVSPost2010Prop41ColorIndex
 90
       18
102
RTVSPost2010Prop41ColorRGB
 90
        0
102
RTVSPost2010PropOp41
 70
     1
102
RTVSPost2010Prop42
 90
       50
102
RTVSPost2010PropOp42
 70
     1
102
RTVSPost2010Prop43
 90
        3
102
RTVSPost2010PropOp43
 70
     1
102
RTVSPost2010Prop44ColorIndex
 90
        5
102
RTVSPost2010Prop44ColorRGB
 90
      255
102
RTVSPost2010PropOp44
 70
     1
102
RTVSPost2010Prop45
280
     0
102
RTVSPost2010PropOp45
 70
     1
102
RTVSPost2010Prop46
 90
       50
102
RTVSPost2010PropOp46
 70
     1
102
RTVSPost2010Prop47
 90
       50
102
RTVSPost2010PropOp47
 70
     1
102
RTVSPost2010Prop48
 90
       50
102
RTVSPost2010PropOp48
 70
     1
102
RTVSPost2010Prop49
280
     0
102
RTVSPost2010PropOp49
 70
     1
102
RTVSPost2010Prop50
 90
       50
102
RTVSPost2010PropOp50
 70
     1
102
RTVSPost2010Prop51ColorIndex
 90
      256
102
RTVSPost2010Prop51ColorRGB
 90
-16777216
102
RTVSPost2010PropOp51
 70
     0
102
RTVSPost2010Prop52
140
1.0
102
RTVSPost2010PropOp52
 70
     0
102
RTVSPost2010Prop53
 90
        2
102
RTVSPost2010PropOp53
 70
     1
102
RTVSPost2010Prop54
  1
strokes_ogs.tif
102
RTVSPost2010PropOp54
 70
     1
102
RTVSPost2010Prop55
280
     0
102
RTVSPost2010PropOp55
 70
     1
102
RTVSPost2010Prop56
140
1.0
102
RTVSPost2010PropOp56
 70
     1
102
RTVSPost2010Prop57
140
1.0
102
RTVSPost2010PropOp57
 70
     1
102
RTVSPropertyOp0
 70
     1
102
RTVSPropertyOp1
 70
     1
102
RTVSPropertyOp2
 70
     1
102
RTVSPropertyOp3
 70
     1
102
RTVSPropertyOp4
 70
     1
102
RTVSPropertyOp5
 70
     1
102
RTVSPropertyOp6
 70
     1
102
RTVSPropertyOp7
 70
     1
102
RTVSPropertyOp8
 70
     1
102
RTVSPropertyOp9
 70
     1
102
RTVSPropertyOp10
 70
     1
102
RTVSPropertyOp11
 70
     1
102
RTVSPropertyOp12
 70
     1
102
RTVSPropertyOp13
 70
     1
102
RTVSPropertyOp14
 70
     1
102
RTVSPropertyOp15
 70
     1
102
RTVSPropertyOp16
 70
     1
102
RTVSPropertyOp17
 70
     1
102
RTVSPropertyOp18
 70
     1
102
RTVSPropertyOp19
 70
     1
102
RTVSPropertyOp20
 70
     1
102
RTVSPropertyOp21
 70
     1
102
RTVSPropertyOp22
 70
     1
102
RTVSPropertyOp23
 70
     1
102
RTVSPropertyOp24
 70
     1
102
RTVSPropertyOp25
 70
     1
102
RTVSPropertyOp26
 70
     1
102
RTVSPropertyOp27
 70
     1
102
RTVSPropertyOp28
 70
     1
102
RTVSPropertyOp29
 70
     1
102
RTVSPropertyOp30
 70
     1
102
RTVSPropertyOp31
 70
     1
102
RTVSPropertyOp32
 70
     1
102
RTVSPropertyOp33
 70
     1
102
RTVSPropertyOp34
 70
     1
102
RTVSPropertyOp35
 70
     1
102
RTVSPropertyOp36
 70
     1
102
RTVSPropertyOp37
 70
     1
102
RTVSPropertyOp38
 70
     1
102
RTVSPropertyOp39
 70
     1
102
RTVSPropertyOp40
 70
     1
102
RTVSPropertyOp41
 70
     1
102
RTVSPropertyOp42
 70
     1
102
RTVSPropertyOp43
 70
     1
102
RTVSPropertyOp44
 70
     1
102
RTVSPropertyOp45
 70
     1
102
RTVSPropertyOp46
 70
     1
102
RTVSPropertyOp47
 70
     1
102
RTVSPropertyOp48
 70
     1
102
RTVSPropertyOp49
 70
     1
102
RTVSPropertyOp50
 70
     1
102
RTVSPropertyOp51
 70
     0
102
RTVSPropertyOp52
 70
     0
102
RTVSPropertyOp53
 70
     1
102
RTVSPropertyOp54
 70
     1
102
RTVSPropertyOp55
 70
     1
102
RTVSPropertyOp56
 70
     1
102
RTVSPropertyOp57
 70
     1
102
RTVSPropertyOp58
 70
     1
102
RTVSPropertyOp59
 70
     1
102
RTVSPropertyOp60
 70
     1
102
RTVSPropertyOp61
 70
     1
102
RTVSPropertyOp62
 70
     1
  0
XRECORD
  5
5F97
102
{ACAD_REACTORS
330
5F96
102
}
330
5F96
100
AcDbXrecord
280
     1
102
RTVSPost2010Prop28
280
     0
102
RTVSPost2010PropOp28
 70
     1
102
RTVSPost2010Prop29
280
     1
102
RTVSPost2010PropOp29
 70
     1
102
RTVSPost2010Prop30
280
     1
102
RTVSPost2010PropOp30
 70
     1
102
RTVSPost2010Prop31
280
     0
102
RTVSPost2010PropOp31
 70
     1
102
RTVSPost2010Prop32
280
     0
102
RTVSPost2010PropOp32
 70
     1
102
RTVSPost2010Prop33
280
     0
102
RTVSPost2010PropOp33
 70
     1
102
RTVSPost2010Prop34
280
     0
102
RTVSPost2010PropOp34
 70
     1
102
RTVSPost2010Prop35
280
     0
102
RTVSPost2010PropOp35
 70
     1
102
RTVSPost2010Prop36
280
     0
102
RTVSPost2010PropOp36
 70
     1
102
RTVSPost2010Prop37
 90
       50
102
RTVSPost2010PropOp37
 70
     1
102
RTVSPost2010Prop38
140
0.0
102
RTVSPost2010PropOp38
 70
     1
102
RTVSPost2010Prop39
140
1.0
102
RTVSPost2010PropOp39
 70
     1
102
RTVSPost2010Prop40
 90
        0
102
RTVSPost2010PropOp40
 70
     1
102
RTVSPost2010Prop41ColorIndex
 90
       18
102
RTVSPost2010Prop41ColorRGB
 90
        0
102
RTVSPost2010PropOp41
 70
     1
102
RTVSPost2010Prop42
 90
       50
102
RTVSPost2010PropOp42
 70
     1
102
RTVSPost2010Prop43
 90
        3
102
RTVSPost2010PropOp43
 70
     1
102
RTVSPost2010Prop44ColorIndex
 90
        5
102
RTVSPost2010Prop44ColorRGB
 90
      255
102
RTVSPost2010PropOp44
 70
     1
102
RTVSPost2010Prop45
280
     0
102
RTVSPost2010PropOp45
 70
     1
102
RTVSPost2010Prop46
 90
       50
102
RTVSPost2010PropOp46
 70
     1
102
RTVSPost2010Prop47
 90
       50
102
RTVSPost2010PropOp47
 70
     1
102
RTVSPost2010Prop48
 90
       50
102
RTVSPost2010PropOp48
 70
     1
102
RTVSPost2010Prop49
280
     0
102
RTVSPost2010PropOp49
 70
     1
102
RTVSPost2010Prop50
 90
       50
102
RTVSPost2010PropOp50
 70
     1
102
RTVSPost2010Prop51ColorIndex
 90
      256
102
RTVSPost2010Prop51ColorRGB
 90
-16777216
102
RTVSPost2010PropOp51
 70
     0
102
RTVSPost2010Prop52
140
1.0
102
RTVSPost2010PropOp52
 70
     0
102
RTVSPost2010Prop53
 90
        2
102
RTVSPost2010PropOp53
 70
     1
102
RTVSPost2010Prop54
  1
strokes_ogs.tif
102
RTVSPost2010PropOp54
 70
     1
102
RTVSPost2010Prop55
280
     0
102
RTVSPost2010PropOp55
 70
     1
102
RTVSPost2010Prop56
140
1.0
102
RTVSPost2010PropOp56
 70
     1
102
RTVSPost2010Prop57
140
1.0
102
RTVSPost2010PropOp57
 70
     1
102
RTVSPropertyOp0
 70
     1
102
RTVSPropertyOp1
 70
     1
102
RTVSPropertyOp2
 70
     1
102
RTVSPropertyOp3
 70
     1
102
RTVSPropertyOp4
 70
     1
102
RTVSPropertyOp5
 70
     1
102
RTVSPropertyOp6
 70
     1
102
RTVSPropertyOp7
 70
     1
102
RTVSPropertyOp8
 70
     1
102
RTVSPropertyOp9
 70
     1
102
RTVSPropertyOp10
 70
     1
102
RTVSPropertyOp11
 70
     1
102
RTVSPropertyOp12
 70
     1
102
RTVSPropertyOp13
 70
     1
102
RTVSPropertyOp14
 70
     1
102
RTVSPropertyOp15
 70
     1
102
RTVSPropertyOp16
 70
     1
102
RTVSPropertyOp17
 70
     1
102
RTVSPropertyOp18
 70
     1
102
RTVSPropertyOp19
 70
     1
102
RTVSPropertyOp20
 70
     1
102
RTVSPropertyOp21
 70
     1
102
RTVSPropertyOp22
 70
     1
102
RTVSPropertyOp23
 70
     1
102
RTVSPropertyOp24
 70
     1
102
RTVSPropertyOp25
 70
     1
102
RTVSPropertyOp26
 70
     1
102
RTVSPropertyOp27
 70
     1
102
RTVSPropertyOp28
 70
     1
102
RTVSPropertyOp29
 70
     1
102
RTVSPropertyOp30
 70
     1
102
RTVSPropertyOp31
 70
     1
102
RTVSPropertyOp32
 70
     1
102
RTVSPropertyOp33
 70
     1
102
RTVSPropertyOp34
 70
     1
102
RTVSPropertyOp35
 70
     1
102
RTVSPropertyOp36
 70
     1
102
RTVSPropertyOp37
 70
     1
102
RTVSPropertyOp38
 70
     1
102
RTVSPropertyOp39
 70
     1
102
RTVSPropertyOp40
 70
     1
102
RTVSPropertyOp41
 70
     1
102
RTVSPropertyOp42
 70
     1
102
RTVSPropertyOp43
 70
     1
102
RTVSPropertyOp44
 70
     1
102
RTVSPropertyOp45
 70
     1
102
RTVSPropertyOp46
 70
     1
102
RTVSPropertyOp47
 70
     1
102
RTVSPropertyOp48
 70
     1
102
RTVSPropertyOp49
 70
     1
102
RTVSPropertyOp50
 70
     1
102
RTVSPropertyOp51
 70
     0
102
RTVSPropertyOp52
 70
     0
102
RTVSPropertyOp53
 70
     1
102
RTVSPropertyOp54
 70
     1
102
RTVSPropertyOp55
 70
     1
102
RTVSPropertyOp56
 70
     1
102
RTVSPropertyOp57
 70
     1
102
RTVSPropertyOp58
 70
     1
102
RTVSPropertyOp59
 70
     1
102
RTVSPropertyOp60
 70
     1
102
RTVSPropertyOp61
 70
     1
102
RTVSPropertyOp62
 70
     1
  0
XRECORD
  5
5F99
102
{ACAD_REACTORS
330
5F98
102
}
330
5F98
100
AcDbXrecord
280
     1
102
RTVSPost2010Prop28
280
     0
102
RTVSPost2010PropOp28
 70
     1
102
RTVSPost2010Prop29
280
     1
102
RTVSPost2010PropOp29
 70
     1
102
RTVSPost2010Prop30
280
     1
102
RTVSPost2010PropOp30
 70
     1
102
RTVSPost2010Prop31
280
     0
102
RTVSPost2010PropOp31
 70
     1
102
RTVSPost2010Prop32
280
     0
102
RTVSPost2010PropOp32
 70
     1
102
RTVSPost2010Prop33
280
     0
102
RTVSPost2010PropOp33
 70
     1
102
RTVSPost2010Prop34
280
     0
102
RTVSPost2010PropOp34
 70
     1
102
RTVSPost2010Prop35
280
     0
102
RTVSPost2010PropOp35
 70
     1
102
RTVSPost2010Prop36
280
     0
102
RTVSPost2010PropOp36
 70
     1
102
RTVSPost2010Prop37
 90
       50
102
RTVSPost2010PropOp37
 70
     1
102
RTVSPost2010Prop38
140
0.0
102
RTVSPost2010PropOp38
 70
     1
102
RTVSPost2010Prop39
140
1.0
102
RTVSPost2010PropOp39
 70
     1
102
RTVSPost2010Prop40
 90
        0
102
RTVSPost2010PropOp40
 70
     1
102
RTVSPost2010Prop41ColorIndex
 90
       18
102
RTVSPost2010Prop41ColorRGB
 90
        0
102
RTVSPost2010PropOp41
 70
     1
102
RTVSPost2010Prop42
 90
       50
102
RTVSPost2010PropOp42
 70
     1
102
RTVSPost2010Prop43
 90
        3
102
RTVSPost2010PropOp43
 70
     1
102
RTVSPost2010Prop44ColorIndex
 90
        5
102
RTVSPost2010Prop44ColorRGB
 90
      255
102
RTVSPost2010PropOp44
 70
     1
102
RTVSPost2010Prop45
280
     0
102
RTVSPost2010PropOp45
 70
     1
102
RTVSPost2010Prop46
 90
       50
102
RTVSPost2010PropOp46
 70
     1
102
RTVSPost2010Prop47
 90
       50
102
RTVSPost2010PropOp47
 70
     1
102
RTVSPost2010Prop48
 90
       50
102
RTVSPost2010PropOp48
 70
     1
102
RTVSPost2010Prop49
280
     0
102
RTVSPost2010PropOp49
 70
     1
102
RTVSPost2010Prop50
 90
       50
102
RTVSPost2010PropOp50
 70
     1
102
RTVSPost2010Prop51ColorIndex
 90
      256
102
RTVSPost2010Prop51ColorRGB
 90
-16777216
102
RTVSPost2010PropOp51
 70
     0
102
RTVSPost2010Prop52
140
1.0
102
RTVSPost2010PropOp52
 70
     0
102
RTVSPost2010Prop53
 90
        2
102
RTVSPost2010PropOp53
 70
     1
102
RTVSPost2010Prop54
  1
strokes_ogs.tif
102
RTVSPost2010PropOp54
 70
     1
102
RTVSPost2010Prop55
280
     0
102
RTVSPost2010PropOp55
 70
     1
102
RTVSPost2010Prop56
140
1.0
102
RTVSPost2010PropOp56
 70
     1
102
RTVSPost2010Prop57
140
1.0
102
RTVSPost2010PropOp57
 70
     1
102
RTVSPropertyOp0
 70
     1
102
RTVSPropertyOp1
 70
     1
102
RTVSPropertyOp2
 70
     1
102
RTVSPropertyOp3
 70
     1
102
RTVSPropertyOp4
 70
     1
102
RTVSPropertyOp5
 70
     1
102
RTVSPropertyOp6
 70
     1
102
RTVSPropertyOp7
 70
     1
102
RTVSPropertyOp8
 70
     1
102
RTVSPropertyOp9
 70
     1
102
RTVSPropertyOp10
 70
     1
102
RTVSPropertyOp11
 70
     1
102
RTVSPropertyOp12
 70
     1
102
RTVSPropertyOp13
 70
     1
102
RTVSPropertyOp14
 70
     1
102
RTVSPropertyOp15
 70
     1
102
RTVSPropertyOp16
 70
     1
102
RTVSPropertyOp17
 70
     1
102
RTVSPropertyOp18
 70
     1
102
RTVSPropertyOp19
 70
     1
102
RTVSPropertyOp20
 70
     1
102
RTVSPropertyOp21
 70
     1
102
RTVSPropertyOp22
 70
     1
102
RTVSPropertyOp23
 70
     1
102
RTVSPropertyOp24
 70
     1
102
RTVSPropertyOp25
 70
     1
102
RTVSPropertyOp26
 70
     1
102
RTVSPropertyOp27
 70
     1
102
RTVSPropertyOp28
 70
     1
102
RTVSPropertyOp29
 70
     1
102
RTVSPropertyOp30
 70
     1
102
RTVSPropertyOp31
 70
     1
102
RTVSPropertyOp32
 70
     1
102
RTVSPropertyOp33
 70
     1
102
RTVSPropertyOp34
 70
     1
102
RTVSPropertyOp35
 70
     1
102
RTVSPropertyOp36
 70
     1
102
RTVSPropertyOp37
 70
     1
102
RTVSPropertyOp38
 70
     1
102
RTVSPropertyOp39
 70
     1
102
RTVSPropertyOp40
 70
     1
102
RTVSPropertyOp41
 70
     1
102
RTVSPropertyOp42
 70
     1
102
RTVSPropertyOp43
 70
     1
102
RTVSPropertyOp44
 70
     1
102
RTVSPropertyOp45
 70
     1
102
RTVSPropertyOp46
 70
     1
102
RTVSPropertyOp47
 70
     1
102
RTVSPropertyOp48
 70
     1
102
RTVSPropertyOp49
 70
     1
102
RTVSPropertyOp50
 70
     1
102
RTVSPropertyOp51
 70
     0
102
RTVSPropertyOp52
 70
     0
102
RTVSPropertyOp53
 70
     1
102
RTVSPropertyOp54
 70
     1
102
RTVSPropertyOp55
 70
     1
102
RTVSPropertyOp56
 70
     1
102
RTVSPropertyOp57
 70
     1
102
RTVSPropertyOp58
 70
     1
102
RTVSPropertyOp59
 70
     1
102
RTVSPropertyOp60
 70
     1
102
RTVSPropertyOp61
 70
     1
102
RTVSPropertyOp62
 70
     1
  0
XRECORD
  5
5F8F
102
{ACAD_REACTORS
330
5F8E
102
}
330
5F8E
100
AcDbXrecord
280
     1
102
RTVSPost2010Prop28
280
     0
102
RTVSPost2010PropOp28
 70
     1
102
RTVSPost2010Prop29
280
     1
102
RTVSPost2010PropOp29
 70
     1
102
RTVSPost2010Prop30
280
     1
102
RTVSPost2010PropOp30
 70
     1
102
RTVSPost2010Prop31
280
     0
102
RTVSPost2010PropOp31
 70
     1
102
RTVSPost2010Prop32
280
     0
102
RTVSPost2010PropOp32
 70
     1
102
RTVSPost2010Prop33
280
     0
102
RTVSPost2010PropOp33
 70
     1
102
RTVSPost2010Prop34
280
     0
102
RTVSPost2010PropOp34
 70
     1
102
RTVSPost2010Prop35
280
     0
102
RTVSPost2010PropOp35
 70
     1
102
RTVSPost2010Prop36
280
     0
102
RTVSPost2010PropOp36
 70
     1
102
RTVSPost2010Prop37
 90
       50
102
RTVSPost2010PropOp37
 70
     1
102
RTVSPost2010Prop38
140
0.0
102
RTVSPost2010PropOp38
 70
     1
102
RTVSPost2010Prop39
140
1.0
102
RTVSPost2010PropOp39
 70
     1
102
RTVSPost2010Prop40
 90
        0
102
RTVSPost2010PropOp40
 70
     1
102
RTVSPost2010Prop41ColorIndex
 90
       18
102
RTVSPost2010Prop41ColorRGB
 90
        0
102
RTVSPost2010PropOp41
 70
     1
102
RTVSPost2010Prop42
 90
       50
102
RTVSPost2010PropOp42
 70
     1
102
RTVSPost2010Prop43
 90
        3
102
RTVSPost2010PropOp43
 70
     1
102
RTVSPost2010Prop44ColorIndex
 90
        5
102
RTVSPost2010Prop44ColorRGB
 90
      255
102
RTVSPost2010PropOp44
 70
     1
102
RTVSPost2010Prop45
280
     0
102
RTVSPost2010PropOp45
 70
     1
102
RTVSPost2010Prop46
 90
       50
102
RTVSPost2010PropOp46
 70
     1
102
RTVSPost2010Prop47
 90
       50
102
RTVSPost2010PropOp47
 70
     1
102
RTVSPost2010Prop48
 90
       50
102
RTVSPost2010PropOp48
 70
     1
102
RTVSPost2010Prop49
280
     0
102
RTVSPost2010PropOp49
 70
     1
102
RTVSPost2010Prop50
 90
       50
102
RTVSPost2010PropOp50
 70
     1
102
RTVSPost2010Prop51ColorIndex
 90
      256
102
RTVSPost2010Prop51ColorRGB
 90
-16777216
102
RTVSPost2010PropOp51
 70
     0
102
RTVSPost2010Prop52
140
1.0
102
RTVSPost2010PropOp52
 70
     0
102
RTVSPost2010Prop53
 90
        2
102
RTVSPost2010PropOp53
 70
     1
102
RTVSPost2010Prop54
  1
strokes_ogs.tif
102
RTVSPost2010PropOp54
 70
     1
102
RTVSPost2010Prop55
280
     0
102
RTVSPost2010PropOp55
 70
     1
102
RTVSPost2010Prop56
140
1.0
102
RTVSPost2010PropOp56
 70
     1
102
RTVSPost2010Prop57
140
1.0
102
RTVSPost2010PropOp57
 70
     1
102
RTVSPropertyOp0
 70
     1
102
RTVSPropertyOp1
 70
     1
102
RTVSPropertyOp2
 70
     1
102
RTVSPropertyOp3
 70
     1
102
RTVSPropertyOp4
 70
     1
102
RTVSPropertyOp5
 70
     1
102
RTVSPropertyOp6
 70
     1
102
RTVSPropertyOp7
 70
     1
102
RTVSPropertyOp8
 70
     1
102
RTVSPropertyOp9
 70
     1
102
RTVSPropertyOp10
 70
     1
102
RTVSPropertyOp11
 70
     1
102
RTVSPropertyOp12
 70
     1
102
RTVSPropertyOp13
 70
     1
102
RTVSPropertyOp14
 70
     1
102
RTVSPropertyOp15
 70
     1
102
RTVSPropertyOp16
 70
     1
102
RTVSPropertyOp17
 70
     1
102
RTVSPropertyOp18
 70
     1
102
RTVSPropertyOp19
 70
     1
102
RTVSPropertyOp20
 70
     1
102
RTVSPropertyOp21
 70
     1
102
RTVSPropertyOp22
 70
     1
102
RTVSPropertyOp23
 70
     1
102
RTVSPropertyOp24
 70
     1
102
RTVSPropertyOp25
 70
     1
102
RTVSPropertyOp26
 70
     1
102
RTVSPropertyOp27
 70
     1
102
RTVSPropertyOp28
 70
     1
102
RTVSPropertyOp29
 70
     1
102
RTVSPropertyOp30
 70
     1
102
RTVSPropertyOp31
 70
     1
102
RTVSPropertyOp32
 70
     1
102
RTVSPropertyOp33
 70
     1
102
RTVSPropertyOp34
 70
     1
102
RTVSPropertyOp35
 70
     1
102
RTVSPropertyOp36
 70
     1
102
RTVSPropertyOp37
 70
     1
102
RTVSPropertyOp38
 70
     1
102
RTVSPropertyOp39
 70
     1
102
RTVSPropertyOp40
 70
     1
102
RTVSPropertyOp41
 70
     1
102
RTVSPropertyOp42
 70
     1
102
RTVSPropertyOp43
 70
     1
102
RTVSPropertyOp44
 70
     1
102
RTVSPropertyOp45
 70
     1
102
RTVSPropertyOp46
 70
     1
102
RTVSPropertyOp47
 70
     1
102
RTVSPropertyOp48
 70
     1
102
RTVSPropertyOp49
 70
     1
102
RTVSPropertyOp50
 70
     1
102
RTVSPropertyOp51
 70
     0
102
RTVSPropertyOp52
 70
     0
102
RTVSPropertyOp53
 70
     1
102
RTVSPropertyOp54
 70
     1
102
RTVSPropertyOp55
 70
     1
102
RTVSPropertyOp56
 70
     1
102
RTVSPropertyOp57
 70
     1
102
RTVSPropertyOp58
 70
     1
102
RTVSPropertyOp59
 70
     1
102
RTVSPropertyOp60
 70
     1
102
RTVSPropertyOp61
 70
     1
102
RTVSPropertyOp62
 70
     1
  0
XRECORD
  5
5F83
102
{ACAD_REACTORS
330
5F82
102
}
330
5F82
100
AcDbXrecord
280
     1
102
RTVSPost2010Prop28
280
     0
102
RTVSPost2010PropOp28
 70
     1
102
RTVSPost2010Prop29
280
     1
102
RTVSPost2010PropOp29
 70
     1
102
RTVSPost2010Prop30
280
     1
102
RTVSPost2010PropOp30
 70
     1
102
RTVSPost2010Prop31
280
     0
102
RTVSPost2010PropOp31
 70
     1
102
RTVSPost2010Prop32
280
     0
102
RTVSPost2010PropOp32
 70
     1
102
RTVSPost2010Prop33
280
     0
102
RTVSPost2010PropOp33
 70
     1
102
RTVSPost2010Prop34
280
     0
102
RTVSPost2010PropOp34
 70
     1
102
RTVSPost2010Prop35
280
     0
102
RTVSPost2010PropOp35
 70
     1
102
RTVSPost2010Prop36
280
     0
102
RTVSPost2010PropOp36
 70
     1
102
RTVSPost2010Prop37
 90
       50
102
RTVSPost2010PropOp37
 70
     1
102
RTVSPost2010Prop38
140
0.0
102
RTVSPost2010PropOp38
 70
     1
102
RTVSPost2010Prop39
140
1.0
102
RTVSPost2010PropOp39
 70
     1
102
RTVSPost2010Prop40
 90
        0
102
RTVSPost2010PropOp40
 70
     1
102
RTVSPost2010Prop41ColorIndex
 90
       18
102
RTVSPost2010Prop41ColorRGB
 90
        0
102
RTVSPost2010PropOp41
 70
     1
102
RTVSPost2010Prop42
 90
       50
102
RTVSPost2010PropOp42
 70
     1
102
RTVSPost2010Prop43
 90
        3
102
RTVSPost2010PropOp43
 70
     1
102
RTVSPost2010Prop44ColorIndex
 90
        5
102
RTVSPost2010Prop44ColorRGB
 90
      255
102
RTVSPost2010PropOp44
 70
     1
102
RTVSPost2010Prop45
280
     0
102
RTVSPost2010PropOp45
 70
     1
102
RTVSPost2010Prop46
 90
       50
102
RTVSPost2010PropOp46
 70
     1
102
RTVSPost2010Prop47
 90
       50
102
RTVSPost2010PropOp47
 70
     1
102
RTVSPost2010Prop48
 90
       50
102
RTVSPost2010PropOp48
 70
     1
102
RTVSPost2010Prop49
280
     0
102
RTVSPost2010PropOp49
 70
     1
102
RTVSPost2010Prop50
 90
       50
102
RTVSPost2010PropOp50
 70
     1
102
RTVSPost2010Prop51ColorIndex
 90
      256
102
RTVSPost2010Prop51ColorRGB
 90
-16777216
102
RTVSPost2010PropOp51
 70
     0
102
RTVSPost2010Prop52
140
1.0
102
RTVSPost2010PropOp52
 70
     0
102
RTVSPost2010Prop53
 90
        2
102
RTVSPost2010PropOp53
 70
     1
102
RTVSPost2010Prop54
  1
strokes_ogs.tif
102
RTVSPost2010PropOp54
 70
     1
102
RTVSPost2010Prop55
280
     0
102
RTVSPost2010PropOp55
 70
     1
102
RTVSPost2010Prop56
140
1.0
102
RTVSPost2010PropOp56
 70
     1
102
RTVSPost2010Prop57
140
1.0
102
RTVSPost2010PropOp57
 70
     1
102
RTVSPropertyOp0
 70
     1
102
RTVSPropertyOp1
 70
     1
102
RTVSPropertyOp2
 70
     1
102
RTVSPropertyOp3
 70
     1
102
RTVSPropertyOp4
 70
     1
102
RTVSPropertyOp5
 70
     1
102
RTVSPropertyOp6
 70
     1
102
RTVSPropertyOp7
 70
     1
102
RTVSPropertyOp8
 70
     1
102
RTVSPropertyOp9
 70
     1
102
RTVSPropertyOp10
 70
     1
102
RTVSPropertyOp11
 70
     1
102
RTVSPropertyOp12
 70
     1
102
RTVSPropertyOp13
 70
     1
102
RTVSPropertyOp14
 70
     1
102
RTVSPropertyOp15
 70
     1
102
RTVSPropertyOp16
 70
     1
102
RTVSPropertyOp17
 70
     1
102
RTVSPropertyOp18
 70
     1
102
RTVSPropertyOp19
 70
     1
102
RTVSPropertyOp20
 70
     1
102
RTVSPropertyOp21
 70
     1
102
RTVSPropertyOp22
 70
     1
102
RTVSPropertyOp23
 70
     1
102
RTVSPropertyOp24
 70
     1
102
RTVSPropertyOp25
 70
     1
102
RTVSPropertyOp26
 70
     1
102
RTVSPropertyOp27
 70
     1
102
RTVSPropertyOp28
 70
     1
102
RTVSPropertyOp29
 70
     1
102
RTVSPropertyOp30
 70
     1
102
RTVSPropertyOp31
 70
     1
102
RTVSPropertyOp32
 70
     1
102
RTVSPropertyOp33
 70
     1
102
RTVSPropertyOp34
 70
     1
102
RTVSPropertyOp35
 70
     1
102
RTVSPropertyOp36
 70
     1
102
RTVSPropertyOp37
 70
     1
102
RTVSPropertyOp38
 70
     1
102
RTVSPropertyOp39
 70
     1
102
RTVSPropertyOp40
 70
     1
102
RTVSPropertyOp41
 70
     1
102
RTVSPropertyOp42
 70
     1
102
RTVSPropertyOp43
 70
     1
102
RTVSPropertyOp44
 70
     1
102
RTVSPropertyOp45
 70
     1
102
RTVSPropertyOp46
 70
     1
102
RTVSPropertyOp47
 70
     1
102
RTVSPropertyOp48
 70
     1
102
RTVSPropertyOp49
 70
     1
102
RTVSPropertyOp50
 70
     1
102
RTVSPropertyOp51
 70
     0
102
RTVSPropertyOp52
 70
     0
102
RTVSPropertyOp53
 70
     1
102
RTVSPropertyOp54
 70
     1
102
RTVSPropertyOp55
 70
     1
102
RTVSPropertyOp56
 70
     1
102
RTVSPropertyOp57
 70
     1
102
RTVSPropertyOp58
 70
     1
102
RTVSPropertyOp59
 70
     1
102
RTVSPropertyOp60
 70
     1
102
RTVSPropertyOp61
 70
     1
102
RTVSPropertyOp62
 70
     1
  0
XRECORD
  5
5F9B
102
{ACAD_REACTORS
330
5F9A
102
}
330
5F9A
100
AcDbXrecord
280
     1
102
RTVSPost2010Prop28
280
     0
102
RTVSPost2010PropOp28
 70
     1
102
RTVSPost2010Prop29
280
     1
102
RTVSPost2010PropOp29
 70
     1
102
RTVSPost2010Prop30
280
     1
102
RTVSPost2010PropOp30
 70
     1
102
RTVSPost2010Prop31
280
     0
102
RTVSPost2010PropOp31
 70
     1
102
RTVSPost2010Prop32
280
     0
102
RTVSPost2010PropOp32
 70
     1
102
RTVSPost2010Prop33
280
     0
102
RTVSPost2010PropOp33
 70
     1
102
RTVSPost2010Prop34
280
     0
102
RTVSPost2010PropOp34
 70
     1
102
RTVSPost2010Prop35
280
     0
102
RTVSPost2010PropOp35
 70
     1
102
RTVSPost2010Prop36
280
     0
102
RTVSPost2010PropOp36
 70
     1
102
RTVSPost2010Prop37
 90
       50
102
RTVSPost2010PropOp37
 70
     1
102
RTVSPost2010Prop38
140
0.0
102
RTVSPost2010PropOp38
 70
     1
102
RTVSPost2010Prop39
140
1.0
102
RTVSPost2010PropOp39
 70
     1
102
RTVSPost2010Prop40
 90
        0
102
RTVSPost2010PropOp40
 70
     1
102
RTVSPost2010Prop41ColorIndex
 90
       18
102
RTVSPost2010Prop41ColorRGB
 90
        0
102
RTVSPost2010PropOp41
 70
     1
102
RTVSPost2010Prop42
 90
       50
102
RTVSPost2010PropOp42
 70
     1
102
RTVSPost2010Prop43
 90
        3
102
RTVSPost2010PropOp43
 70
     1
102
RTVSPost2010Prop44ColorIndex
 90
        5
102
RTVSPost2010Prop44ColorRGB
 90
      255
102
RTVSPost2010PropOp44
 70
     1
102
RTVSPost2010Prop45
280
     0
102
RTVSPost2010PropOp45
 70
     1
102
RTVSPost2010Prop46
 90
       50
102
RTVSPost2010PropOp46
 70
     1
102
RTVSPost2010Prop47
 90
       50
102
RTVSPost2010PropOp47
 70
     1
102
RTVSPost2010Prop48
 90
       50
102
RTVSPost2010PropOp48
 70
     1
102
RTVSPost2010Prop49
280
     0
102
RTVSPost2010PropOp49
 70
     1
102
RTVSPost2010Prop50
 90
       50
102
RTVSPost2010PropOp50
 70
     1
102
RTVSPost2010Prop51ColorIndex
 90
      256
102
RTVSPost2010Prop51ColorRGB
 90
-16777216
102
RTVSPost2010PropOp51
 70
     0
102
RTVSPost2010Prop52
140
1.0
102
RTVSPost2010PropOp52
 70
     0
102
RTVSPost2010Prop53
 90
        2
102
RTVSPost2010PropOp53
 70
     1
102
RTVSPost2010Prop54
  1
strokes_ogs.tif
102
RTVSPost2010PropOp54
 70
     1
102
RTVSPost2010Prop55
280
     0
102
RTVSPost2010PropOp55
 70
     1
102
RTVSPost2010Prop56
140
1.0
102
RTVSPost2010PropOp56
 70
     1
102
RTVSPost2010Prop57
140
1.0
102
RTVSPost2010PropOp57
 70
     1
102
RTVSPropertyOp0
 70
     1
102
RTVSPropertyOp1
 70
     1
102
RTVSPropertyOp2
 70
     1
102
RTVSPropertyOp3
 70
     1
102
RTVSPropertyOp4
 70
     1
102
RTVSPropertyOp5
 70
     1
102
RTVSPropertyOp6
 70
     1
102
RTVSPropertyOp7
 70
     1
102
RTVSPropertyOp8
 70
     1
102
RTVSPropertyOp9
 70
     1
102
RTVSPropertyOp10
 70
     1
102
RTVSPropertyOp11
 70
     1
102
RTVSPropertyOp12
 70
     1
102
RTVSPropertyOp13
 70
     1
102
RTVSPropertyOp14
 70
     1
102
RTVSPropertyOp15
 70
     1
102
RTVSPropertyOp16
 70
     1
102
RTVSPropertyOp17
 70
     1
102
RTVSPropertyOp18
 70
     1
102
RTVSPropertyOp19
 70
     1
102
RTVSPropertyOp20
 70
     1
102
RTVSPropertyOp21
 70
     1
102
RTVSPropertyOp22
 70
     1
102
RTVSPropertyOp23
 70
     1
102
RTVSPropertyOp24
 70
     1
102
RTVSPropertyOp25
 70
     1
102
RTVSPropertyOp26
 70
     1
102
RTVSPropertyOp27
 70
     1
102
RTVSPropertyOp28
 70
     1
102
RTVSPropertyOp29
 70
     1
102
RTVSPropertyOp30
 70
     1
102
RTVSPropertyOp31
 70
     1
102
RTVSPropertyOp32
 70
     1
102
RTVSPropertyOp33
 70
     1
102
RTVSPropertyOp34
 70
     1
102
RTVSPropertyOp35
 70
     1
102
RTVSPropertyOp36
 70
     1
102
RTVSPropertyOp37
 70
     1
102
RTVSPropertyOp38
 70
     1
102
RTVSPropertyOp39
 70
     1
102
RTVSPropertyOp40
 70
     1
102
RTVSPropertyOp41
 70
     1
102
RTVSPropertyOp42
 70
     1
102
RTVSPropertyOp43
 70
     1
102
RTVSPropertyOp44
 70
     1
102
RTVSPropertyOp45
 70
     1
102
RTVSPropertyOp46
 70
     1
102
RTVSPropertyOp47
 70
     1
102
RTVSPropertyOp48
 70
     1
102
RTVSPropertyOp49
 70
     1
102
RTVSPropertyOp50
 70
     1
102
RTVSPropertyOp51
 70
     0
102
RTVSPropertyOp52
 70
     0
102
RTVSPropertyOp53
 70
     1
102
RTVSPropertyOp54
 70
     1
102
RTVSPropertyOp55
 70
     1
102
RTVSPropertyOp56
 70
     1
102
RTVSPropertyOp57
 70
     1
102
RTVSPropertyOp58
 70
     1
102
RTVSPropertyOp59
 70
     1
102
RTVSPropertyOp60
 70
     1
102
RTVSPropertyOp61
 70
     1
102
RTVSPropertyOp62
 70
     1
  0
ENDSEC
  0
EOF
