  0
SECTION
  2
HEADER
  9
$ACADVER
  1
AC1015
  9
$ACADMAINTVER
 70
    20
  9
$DWGCODEPAGE
  3
ANSI_932
  9
$INSBASE
 10
0.0
 20
0.0
 30
0.0
  9
$EXTMIN
 10
9.999997999999997
 20
10.0
 30
0.0
  9
$EXTMAX
 10
481.277819
 20
297.562095
 30
0.0
  9
$LIMMIN
 10
0.000002
 20
0.0
  9
$LIMMAX
 10
494.999999
 20
341.25
  9
$ORTHOMODE
 70
     0
  9
$REGENMODE
 70
     1
  9
$FILLMODE
 70
     1
  9
$QTEXTMODE
 70
     0
  9
$MIRRTEXT
 70
     1
  9
$LTSCALE
 40
1.0
  9
$ATTMODE
 70
     1
  9
$TEXTSIZE
 40
2.5
  9
$TRACEWID
 40
1.0
  9
$TEXTSTYLE
  7
STANDARD
  9
$CLAYER
  8
0
  9
$CELTYPE
  6
BYLAYER
  9
$CECOLOR
 62
   256
  9
$CELTSCALE
 40
1.0
  9
$DISPSILH
 70
     0
  9
$DIMSCALE
 40
1.0
  9
$DIMASZ
 40
3.0
  9
$DIMEXO
 40
1.0
  9
$DIMDLI
 40
10.0
  9
$DIMRND
 40
0.0
  9
$DIMDLE
 40
0.0
  9
$DIMEXE
 40
1.0
  9
$DIMTP
 40
0.0
  9
$DIMTM
 40
0.0
  9
$DIMTXT
 40
3.2
  9
$DIMCEN
 40
0.0
  9
$DIMTSZ
 40
0.0
  9
$DIMTOL
 70
     0
  9
$DIMLIM
 70
     0
  9
$DIMTIH
 70
     0
  9
$DIMTOH
 70
     0
  9
$DIMSE1
 70
     0
  9
$DIMSE2
 70
     0
  9
$DIMTAD
 70
     3
  9
$DIMZIN
 70
     8
  9
$DIMBLK
  1

  9
$DIMASO
 70
     1
  9
$DIMSHO
 70
     1
  9
$DIMPOST
  1

  9
$DIMAPOST
  1

  9
$DIMALT
 70
     0
  9
$DIMALTD
 70
     2
  9
$DIMALTF
 40
25.4
  9
$DIMLFAC
 40
1.0
  9
$DIMTOFL
 70
     1
  9
$DIMTVP
 40
0.0
  9
$DIMTIX
 70
     0
  9
$DIMSOXD
 70
     0
  9
$DIMSAH
 70
     1
  9
$DIMBLK1
  1
OPEN
  9
$DIMBLK2
  1
OPEN
  9
$DIMSTYLE
  2
STANDARD
  9
$DIMCLRD
 70
     0
  9
$DIMCLRE
 70
     0
  9
$DIMCLRT
 70
     0
  9
$DIMTFAC
 40
1.0
  9
$DIMGAP
 40
1.0
  9
$DIMJUST
 70
     0
  9
$DIMSD1
 70
     0
  9
$DIMSD2
 70
     0
  9
$DIMTOLJ
 70
     1
  9
$DIMTZIN
 70
     0
  9
$DIMALTZ
 70
     0
  9
$DIMALTTZ
 70
     0
  9
$DIMUPT
 70
     0
  9
$DIMDEC
 70
     4
  9
$DIMTDEC
 70
     4
  9
$DIMALTU
 70
     2
  9
$DIMALTTD
 70
     2
  9
$DIMTXSTY
  7
STANDARD
  9
$DIMAUNIT
 70
     0
  9
$DIMADEC
 70
     0
  9
$DIMALTRND
 40
0.0
  9
$DIMAZIN
 70
     0
  9
$DIMDSEP
 70
    46
  9
$DIMATFIT
 70
     3
  9
$DIMFRAC
 70
     0
  9
$DIMLDRBLK
  1
OPEN
  9
$DIMLUNIT
 70
     2
  9
$DIMLWD
 70
    -2
  9
$DIMLWE
 70
    -2
  9
$DIMTMOVE
 70
     0
  9
$LUNITS
 70
     2
  9
$LUPREC
 70
     4
  9
$SKETCHINC
 40
1.0
  9
$FILLETRAD
 40
0.0
  9
$AUNITS
 70
     0
  9
$AUPREC
 70
     0
  9
$MENU
  1
.
  9
$ELEVATION
 40
0.0
  9
$PELEVATION
 40
0.0
  9
$THICKNESS
 40
0.0
  9
$LIMCHECK
 70
     0
  9
$CHAMFERA
 40
0.0
  9
$CHAMFERB
 40
0.0
  9
$CHAMFERC
 40
0.0
  9
$CHAMFERD
 40
0.0
  9
$SKPOLY
 70
     0
  9
$TDCREATE
 40
2452066.412515996
  9
$TDUCREATE
 40
2452066.037515996
  9
$TDUPDATE
 40
2457192.641851122
  9
$TDUUPDATE
 40
2457192.266851123
  9
$TDINDWG
 40
0.2070628356
  9
$TDUSRTIMER
 40
0.2070621412
  9
$USRTIMER
 70
     1
  9
$ANGBASE
 50
0.0
  9
$ANGDIR
 70
     0
  9
$PDMODE
 70
     0
  9
$PDSIZE
 40
0.0
  9
$PLINEWID
 40
0.0
  9
$SPLFRAME
 70
     0
  9
$SPLINETYPE
 70
     6
  9
$SPLINESEGS
 70
     8
  9
$HANDSEED
  5
332A
  9
$SURFTAB1
 70
     6
  9
$SURFTAB2
 70
     6
  9
$SURFTYPE
 70
     6
  9
$SURFU
 70
     6
  9
$SURFV
 70
     6
  9
$UCSBASE
  2

  9
$UCSNAME
  2

  9
$UCSORG
 10
0.0
 20
0.0
 30
0.0
  9
$UCSXDIR
 10
1.0
 20
0.0
 30
0.0
  9
$UCSYDIR
 10
0.0
 20
1.0
 30
0.0
  9
$UCSORTHOREF
  2

  9
$UCSORTHOVIEW
 70
     0
  9
$UCSORGTOP
 10
0.0
 20
0.0
 30
0.0
  9
$UCSORGBOTTOM
 10
0.0
 20
0.0
 30
0.0
  9
$UCSORGLEFT
 10
0.0
 20
0.0
 30
0.0
  9
$UCSORGRIGHT
 10
0.0
 20
0.0
 30
0.0
  9
$UCSORGFRONT
 10
0.0
 20
0.0
 30
0.0
  9
$UCSORGBACK
 10
0.0
 20
0.0
 30
0.0
  9
$PUCSBASE
  2

  9
$PUCSNAME
  2

  9
$PUCSORG
 10
0.0
 20
0.0
 30
0.0
  9
$PUCSXDIR
 10
1.0
 20
0.0
 30
0.0
  9
$PUCSYDIR
 10
0.0
 20
1.0
 30
0.0
  9
$PUCSORTHOREF
  2

  9
$PUCSORTHOVIEW
 70
     0
  9
$PUCSORGTOP
 10
0.0
 20
0.0
 30
0.0
  9
$PUCSORGBOTTOM
 10
0.0
 20
0.0
 30
0.0
  9
$PUCSORGLEFT
 10
0.0
 20
0.0
 30
0.0
  9
$PUCSORGRIGHT
 10
0.0
 20
0.0
 30
0.0
  9
$PUCSORGFRONT
 10
0.0
 20
0.0
 30
0.0
  9
$PUCSORGBACK
 10
0.0
 20
0.0
 30
0.0
  9
$USERI1
 70
     0
  9
$USERI2
 70
     0
  9
$USERI3
 70
     0
  9
$USERI4
 70
     0
  9
$USERI5
 70
     0
  9
$USERR1
 40
0.0
  9
$USERR2
 40
0.0
  9
$USERR3
 40
0.0
  9
$USERR4
 40
0.0
  9
$USERR5
 40
0.0
  9
$WORLDVIEW
 70
     1
  9
$SHADEDGE
 70
     3
  9
$SHADEDIF
 70
    70
  9
$TILEMODE
 70
     1
  9
$MAXACTVP
 70
    48
  9
$PINSBASE
 10
0.0
 20
0.0
 30
0.0
  9
$PLIMCHECK
 70
     0
  9
$PEXTMIN
 10
1.000000000000000E+20
 20
1.000000000000000E+20
 30
1.000000000000000E+20
  9
$PEXTMAX
 10
-1.000000000000000E+20
 20
-1.000000000000000E+20
 30
-1.000000000000000E+20
  9
$PLIMMIN
 10
0.0
 20
0.0
  9
$PLIMMAX
 10
420.0
 20
297.0
  9
$UNITMODE
 70
     0
  9
$VISRETAIN
 70
     1
  9
$PLINEGEN
 70
     0
  9
$PSLTSCALE
 70
     1
  9
$TREEDEPTH
 70
  3020
  9
$CMLSTYLE
  2
STANDARD
  9
$CMLJUST
 70
     0
  9
$CMLSCALE
 40
1.0
  9
$PROXYGRAPHICS
 70
     1
  9
$MEASUREMENT
 70
     0
  9
$CELWEIGHT
370
    -1
  9
$ENDCAPS
280
     0
  9
$JOINSTYLE
280
     0
  9
$LWDISPLAY
290
     0
  9
$INSUNITS
 70
     0
  9
$HYPERLINKBASE
  1

  9
$STYLESHEET
  1

  9
$XEDIT
290
     1
  9
$CEPSNTYPE
380
     0
  9
$PSTYLEMODE
290
     1
  9
$FINGERPRINTGUID
  2
{0A329CB4-E769-40A5-B955-860D51A62D55}
  9
$VERSIONGUID
  2
{72F32DB5-6EA5-4010-9DDB-16E068D49331}
  9
$EXTNAMES
290
     1
  9
$PSVPSCALE
 40
0.0
  9
$OLESTARTUP
290
     0
  0
ENDSEC
  0
SECTION
  2
CLASSES
  0
CLASS
  1
ACDBDICTIONARYWDFLT
  2
AcDbDictionaryWithDefault
  3
ObjectDBX Classes
 90
        0
280
     0
281
     0
  0
CLASS
  1
ACDBPLACEHOLDER
  2
AcDbPlaceHolder
  3
ObjectDBX Classes
 90
        0
280
     0
281
     0
  0
CLASS
  1
LAYOUT
  2
AcDbLayout
  3
ObjectDBX Classes
 90
        0
280
     0
281
     0
  0
CLASS
  1
DICTIONARYVAR
  2
AcDbDictionaryVar
  3
ObjectDBX Classes
 90
        0
280
     0
281
     0
  0
CLASS
  1
MATERIAL
  2
AcDbMaterial
  3
ObjectDBX Classes
 90
     1153
280
     0
281
     0
  0
CLASS
  1
VISUALSTYLE
  2
AcDbVisualStyle
  3
ObjectDBX Classes
 90
     4095
280
     0
281
     0
  0
CLASS
  1
TABLESTYLE
  2
AcDbTableStyle
  3
ObjectDBX Classes
 90
     4095
280
     0
281
     0
  0
CLASS
  1
SCALE
  2
AcDbScale
  3
ObjectDBX Classes
 90
     1153
280
     0
281
     0
  0
CLASS
  1
MLEADERSTYLE
  2
AcDbMLeaderStyle
  3
ACDB_MLEADERSTYLE_CLASS
 90
     4095
280
     0
281
     0
  0
CLASS
  1
ACDBSECTIONVIEWSTYLE
  2
AcDbSectionViewStyle
  3
ObjectDBX Classes
 90
     1025
280
     0
281
     0
  0
CLASS
  1
ACDBDETAILVIEWSTYLE
  2
AcDbDetailViewStyle
  3
ObjectDBX Classes
 90
     1025
280
     0
281
     0
  0
CLASS
  1
CELLSTYLEMAP
  2
AcDbCellStyleMap
  3
ObjectDBX Classes
 90
     1152
280
     0
281
     0
  0
ENDSEC
  0
SECTION
  2
TABLES
  0
TABLE
  2
VPORT
  5
3009
330
0
100
AcDbSymbolTable
 70
     1
  0
VPORT
  5
3274
330
3009
100
AcDbSymbolTableRecord
100
AcDbViewportTableRecord
  2
*ACTIVE
 70
     0
 10
0.0
 20
0.0
 11
1.0
 21
1.0
 12
332.754108627322
 22
153.7801559568093
 13
0.0
 23
0.0
 14
10.0
 24
10.0
 15
10.0
 25
10.0
 16
0.0
 26
0.0
 36
1.0
 17
0.0
 27
0.0
 37
0.0
 40
290.8025035429762
 41
1.899603698811096
 42
50.0
 43
0.0
 44
0.0
 50
0.0
 51
0.0
 71
     0
 72
   100
 73
     1
 74
     0
 75
     0
 76
     0
 77
     0
 78
     0
281
     0
 65
     1
110
0.0
120
0.0
130
0.0
111
1.0
121
0.0
131
0.0
112
0.0
122
1.0
132
0.0
 79
     0
146
0.0
1001
ACAD_NAV_VCDISPLAY
1070
     3
  0
ENDTAB
  0
TABLE
  2
LTYPE
  5
3006
330
0
100
AcDbSymbolTable
 70
     4
  0
LTYPE
  5
3014
330
3006
100
AcDbSymbolTableRecord
100
AcDbLinetypeTableRecord
  2
BYBLOCK
 70
     0
  3

 72
    65
 73
     0
 40
0.0
  0
LTYPE
  5
3015
330
3006
100
AcDbSymbolTableRecord
100
AcDbLinetypeTableRecord
  2
BYLAYER
 70
     0
  3

 72
    65
 73
     0
 40
0.0
  0
LTYPE
  5
3016
330
3006
100
AcDbSymbolTableRecord
100
AcDbLinetypeTableRecord
  2
CONTINUOUS
 70
     0
  3
Solid line
 72
    65
 73
     0
 40
0.0
  0
LTYPE
  5
3024
330
3006
100
AcDbSymbolTableRecord
100
AcDbLinetypeTableRecord
  2
DASHED
 70
     0
  3
Dashed __ __ __ __ __ __ __ __ __ __ __ __ __ _
 72
    65
 73
     2
 40
19.05
 49
12.7
 74
     0
 49
-6.349999999999997
 74
     0
  0
LTYPE
  5
3025
330
3006
100
AcDbSymbolTableRecord
100
AcDbLinetypeTableRecord
  2
CENTER
 70
     0
  3
Center ____ _ ____ _ ____ _ ____ _ ____ _ ____
 72
    65
 73
     4
 40
50.8
 49
31.75
 74
     0
 49
-6.349999999999997
 74
     0
 49
6.349999999999997
 74
     0
 49
-6.349999999999997
 74
     0
  0
LTYPE
  5
3026
330
3006
100
AcDbSymbolTableRecord
100
AcDbLinetypeTableRecord
  2
PHANTOM
 70
     0
  3
Phantom ______  __  __  ______  __  __  ______
 72
    65
 73
     6
 40
63.5
 49
31.75
 74
     0
 49
-6.349999999999997
 74
     0
 49
6.349999999999997
 74
     0
 49
-6.349999999999997
 74
     0
 49
6.349999999999997
 74
     0
 49
-6.349999999999997
 74
     0
  0
ENDTAB
  0
TABLE
  2
LAYER
  5
3003
330
0
100
AcDbSymbolTable
 70
     8
  0
LAYER
  5
3011
102
{ACAD_XDICTIONARY
360
32CE
102
}
330
3003
100
AcDbSymbolTableRecord
100
AcDbLayerTableRecord
  2
0
 70
     0
 62
     7
  6
CONTINUOUS
370
    -3
390
327D
  0
LAYER
  5
3027
102
{ACAD_XDICTIONARY
360
32D0
102
}
330
3003
100
AcDbSymbolTableRecord
100
AcDbLayerTableRecord
  2
4
 70
     0
 62
     1
  6
CENTER
370
    -3
390
327D
  0
LAYER
  5
3028
102
{ACAD_XDICTIONARY
360
32D2
102
}
330
3003
100
AcDbSymbolTableRecord
100
AcDbLayerTableRecord
  2
5
 70
     0
 62
     6
  6
PHANTOM
370
    -3
390
327D
  0
LAYER
  5
3029
102
{ACAD_XDICTIONARY
360
32D4
102
}
330
3003
100
AcDbSymbolTableRecord
100
AcDbLayerTableRecord
  2
1
 70
     0
 62
     7
  6
CONTINUOUS
370
    -3
390
327D
  0
LAYER
  5
302A
102
{ACAD_XDICTIONARY
360
32D6
102
}
330
3003
100
AcDbSymbolTableRecord
100
AcDbLayerTableRecord
  2
2
 70
     0
 62
     4
  6
CONTINUOUS
370
    -3
390
327D
  0
LAYER
  5
302B
102
{ACAD_XDICTIONARY
360
32D8
102
}
330
3003
100
AcDbSymbolTableRecord
100
AcDbLayerTableRecord
  2
3
 70
     0
 62
     2
  6
DASHED
370
    -3
390
327D
  0
LAYER
  5
302C
102
{ACAD_XDICTIONARY
360
32DA
102
}
330
3003
100
AcDbSymbolTableRecord
100
AcDbLayerTableRecord
  2
6
 70
     0
 62
     5
  6
CONTINUOUS
370
    -3
390
327D
  0
LAYER
  5
302D
102
{ACAD_XDICTIONARY
360
32DC
102
}
330
3003
100
AcDbSymbolTableRecord
100
AcDbLayerTableRecord
  2
7
 70
     0
 62
     3
  6
CONTINUOUS
370
    -3
390
327D
  0
ENDTAB
  0
TABLE
  2
STYLE
  5
3004
330
0
100
AcDbSymbolTable
 70
     1
  0
STYLE
  5
3012
330
3004
100
AcDbSymbolTableRecord
100
AcDbTextStyleTableRecord
  2
STANDARD
 70
     0
 40
0.0
 41
1.0
 50
0.0
 71
     0
 42
2.5
  3
simplex.shx
  4

  0
ENDTAB
  0
TABLE
  2
VIEW
  5
3007
330
0
100
AcDbSymbolTable
 70
     0
  0
ENDTAB
  0
TABLE
  2
UCS
  5
3008
330
0
100
AcDbSymbolTable
 70
     0
  0
ENDTAB
  0
TABLE
  2
APPID
  5
300A
330
0
100
AcDbSymbolTable
 70
     7
  0
APPID
  5
3013
330
300A
100
AcDbSymbolTableRecord
100
AcDbRegAppTableRecord
  2
ACAD
 70
     0
  0
APPID
  5
302E
330
300A
100
AcDbSymbolTableRecord
100
AcDbRegAppTableRecord
  2
CONTENTTABDATA
 70
     0
  0
APPID
  5
302F
330
300A
100
AcDbSymbolTableRecord
100
AcDbRegAppTableRecord
  2
CONTENTCURRENTTAB
 70
     0
  0
APPID
  5
3030
330
300A
100
AcDbSymbolTableRecord
100
AcDbRegAppTableRecord
  2
CONTENTBLOCKICON
 70
     0
  0
APPID
  5
3031
330
300A
100
AcDbSymbolTableRecord
100
AcDbRegAppTableRecord
  2
CONTENTBLOCKDESCRIPTION
 70
     0
  0
APPID
  5
32E8
330
300A
100
AcDbSymbolTableRecord
100
AcDbRegAppTableRecord
  2
ACAD_NAV_VCDISPLAY
 70
     0
  0
APPID
  5
3321
330
300A
100
AcDbSymbolTableRecord
100
AcDbRegAppTableRecord
  2
ACAD_MLEADERVER
 70
     0
  0
ENDTAB
  0
TABLE
  2
DIMSTYLE
  5
300B
330
0
100
AcDbSymbolTable
 70
     1
100
AcDbDimStyleTable
 71
     0
  0
DIMSTYLE
105
3032
330
300B
100
AcDbSymbolTableRecord
100
AcDbDimStyleTableRecord
  2
STANDARD
 70
     0
 41
3.0
 42
1.0
 43
10.0
 44
1.0
 73
     0
 74
     0
 77
     3
 78
     8
140
3.2
141
0.0
147
1.0
172
     1
173
     1
284
     8
285
     8
286
     8
340
3012
  0
ENDTAB
  0
TABLE
  2
BLOCK_RECORD
  5
3002
330
0
100
AcDbSymbolTable
 70
     1
  0
BLOCK_RECORD
  5
301F
102
{ACAD_XDICTIONARY
360
3277
102
}
330
3002
100
AcDbSymbolTableRecord
100
AcDbBlockTableRecord
  2
*MODEL_SPACE
340
32CB
  0
BLOCK_RECORD
  5
301B
102
{ACAD_XDICTIONARY
360
3275
102
}
330
3002
100
AcDbSymbolTableRecord
100
AcDbBlockTableRecord
  2
*PAPER_SPACE
340
32CC
  0
BLOCK_RECORD
  5
303A
330
3002
100
AcDbSymbolTableRecord
100
AcDbBlockTableRecord
  2
_OPEN
340
0
  0
ENDTAB
  0
ENDSEC
  0
SECTION
  2
BLOCKS
  0
BLOCK
  5
3020
330
301F
100
AcDbEntity
  8
0
100
AcDbBlockBegin
  2
*MODEL_SPACE
 70
     0
 10
0.0
 20
0.0
 30
0.0
  3
*MODEL_SPACE
  1

  0
ENDBLK
  5
3021
330
301F
100
AcDbEntity
  8
0
100
AcDbBlockEnd
  0
BLOCK
  5
301C
330
301B
100
AcDbEntity
 67
     1
  8
0
100
AcDbBlockBegin
  2
*PAPER_SPACE
 70
     0
 10
0.0
 20
0.0
 30
0.0
  3
*PAPER_SPACE
  1

  0
ENDBLK
  5
301D
330
301B
100
AcDbEntity
 67
     1
  8
0
100
AcDbBlockEnd
  0
BLOCK
  5
303B
330
303A
100
AcDbEntity
  8
0
100
AcDbBlockBegin
  2
_OPEN
 70
     0
 10
0.0
 20
0.0
 30
0.0
  3
_OPEN
  1

  0
LINE
  5
303C
330
303A
100
AcDbEntity
  8
0
  6
ByBlock
 62
     0
100
AcDbLine
 10
-1.0
 20
0.166667
 30
0.0
 11
0.0
 21
0.0
 31
0.0
  0
LINE
  5
303D
330
303A
100
AcDbEntity
  8
0
  6
ByBlock
 62
     0
100
AcDbLine
 10
0.0
 20
0.0
 30
0.0
 11
-1.0
 21
-0.166667
 31
0.0
  0
LINE
  5
303E
330
303A
100
AcDbEntity
  8
0
  6
ByBlock
 62
     0
100
AcDbLine
 10
0.0
 20
0.0
 30
0.0
 11
-1.0
 21
0.0
 31
0.0
  0
ENDBLK
  5
303F
330
303A
100
AcDbEntity
  8
0
100
AcDbBlockEnd
  0
ENDSEC
  0
SECTION
  2
ENTITIES
  0
TEXT
  5
3040
330
301F
100
AcDbEntity
  8
4
  6
CENTER
100
AcDbText
 10
23.979509
 20
10.0
 30
0.0
 40
1.399999999999999
  1
4
100
AcDbText
  0
TEXT
  5
3041
330
301F
100
AcDbEntity
  8
7
  6
Continuous
100
AcDbText
 10
9.999997999999999
 20
26.000001
 30
0.0
 40
3.0
  1
CODE No.13132
100
AcDbText
  0
TEXT
  5
3042
330
301F
100
AcDbEntity
  8
7
  6
Continuous
100
AcDbText
 10
9.999997999999999
 20
18.000001
 30
0.0
 40
3.0
  1
TYPE No.THA-333-2B
100
AcDbText
  0
TEXT
  5
3043
330
301F
100
AcDbEntity
  8
1
  6
Continuous
100
AcDbText
 10
9.999997999999999
 20
10.000001
 30
0.0
 40
1.399999999999999
  1
LAYER
100
AcDbText
  0
TEXT
  5
3044
330
301F
100
AcDbEntity
  8
2
  6
Continuous
100
AcDbText
 10
19.979509
 20
10.0
 30
0.0
 40
1.399999999999999
  1
2
100
AcDbText
  0
TEXT
  5
3045
330
301F
100
AcDbEntity
  8
3
  6
DASHED
100
AcDbText
 10
21.97950899999999
 20
10.0
 30
0.0
 40
1.399999999999999
  1
3
100
AcDbText
  0
TEXT
  5
3046
330
301F
100
AcDbEntity
  8
1
  6
Continuous
100
AcDbText
 10
17.979509
 20
10.0
 30
0.0
 40
1.399999999999999
  1
1
100
AcDbText
  0
TEXT
  5
3047
330
301F
100
AcDbEntity
  8
5
  6
PHANTOM
100
AcDbText
 10
25.979509
 20
10.0
 30
0.0
 40
1.399999999999999
  1
5
100
AcDbText
  0
TEXT
  5
3048
330
301F
100
AcDbEntity
  8
6
  6
Continuous
100
AcDbText
 10
27.979509
 20
10.0
 30
0.0
 40
1.399999999999999
  1
6
100
AcDbText
  0
TEXT
  5
3049
330
301F
100
AcDbEntity
  8
7
  6
Continuous
100
AcDbText
 10
29.97950900000001
 20
10.0
 30
0.0
 40
1.399999999999999
  1
7
100
AcDbText
  0
LINE
  5
304A
330
301F
100
AcDbEntity
  8
4
  6
CENTER
100
AcDbLine
 10
68.27775799999999
 20
167.562095
 30
0.0
 11
12.277758
 21
167.562095
 31
0.0
  0
CIRCLE
  5
304B
330
301F
100
AcDbEntity
  8
1
  6
Continuous
100
AcDbCircle
 10
40.27775799999999
 20
167.562095
 30
0.0
 40
25.0
  0
LINE
  5
304C
330
301F
100
AcDbEntity
  8
1
  6
Continuous
100
AcDbLine
 10
316.7777889999999
 20
179.6864509999998
 30
0.0
 11
297.2777889999999
 21
190.9447809999998
 31
0.0
  0
LINE
  5
304D
330
301F
100
AcDbEntity
  8
1
  6
Continuous
100
AcDbLine
 10
276.777789
 20
179.6864509999998
 30
0.0
 11
296.2777889999999
 21
190.9447809999998
 31
0.0
  0
ARC
  5
304E
330
301F
100
AcDbEntity
  8
1
  6
Continuous
100
AcDbCircle
 10
40.27775799999999
 20
167.562095
 30
0.0
 40
17.0
100
AcDbArc
 50
0.0
 51
180.0
  0
LINE
  5
304F
330
301F
100
AcDbEntity
  8
4
  6
CENTER
100
AcDbLine
 10
40.27775799999999
 20
195.562095
 30
0.0
 11
40.27775799999999
 21
139.562095
 31
0.0
  0
LINE
  5
3050
330
301F
100
AcDbEntity
  8
1
  6
Continuous
100
AcDbLine
 10
40.739296
 20
155.2544029999999
 30
0.0
 11
43.239296
 21
149.2544029999999
 31
0.0
  0
LINE
  5
3051
330
301F
100
AcDbEntity
  8
1
  6
Continuous
100
AcDbLine
 10
37.31621899999999
 20
149.2544029999999
 30
0.0
 11
39.816219
 21
155.2544029999999
 31
0.0
  0
LINE
  5
3052
330
301F
100
AcDbEntity
  8
1
  6
Continuous
100
AcDbLine
 10
276.777789
 20
155.4377399999999
 30
0.0
 11
296.2777889999999
 21
144.1794089999999
 31
0.0
  0
LINE
  5
3053
330
301F
100
AcDbEntity
  8
1
  6
Continuous
100
AcDbLine
 10
316.7777889999999
 20
155.4377399999999
 30
0.0
 11
297.2777889999999
 21
144.1794089999999
 31
0.0
  0
LINE
  5
3054
330
301F
100
AcDbEntity
  8
1
  6
Continuous
100
AcDbLine
 10
42.77775799999999
 20
148.5620949999999
 30
0.0
 11
37.777758
 21
148.5620949999999
 31
0.0
  0
ARC
  5
3055
330
301F
100
AcDbEntity
  8
1
  6
Continuous
100
AcDbCircle
 10
37.777758
 20
149.062095
 30
0.0
 40
0.5
100
AcDbArc
 50
157.380135
 51
270.0
  0
ARC
  5
3056
330
301F
100
AcDbEntity
  8
1
  6
Continuous
100
AcDbCircle
 10
296.7777889999999
 20
145.045435
 30
0.0
 40
1.0
100
AcDbArc
 50
239.9999999999999
 51
300.0
  0
ARC
  5
3057
330
301F
100
AcDbEntity
  8
1
  6
Continuous
100
AcDbCircle
 10
42.77775799999999
 20
149.062095
 30
0.0
 40
0.5
100
AcDbArc
 50
270.0
 51
22.619865
  0
LINE
  5
3058
330
301F
100
AcDbEntity
  8
1
  6
Continuous
100
AcDbLine
 10
276.2777889999999
 20
178.8204249999997
 30
0.0
 11
276.2777889999999
 21
156.303765
 31
0.0
  0
LINE
  5
3059
330
301F
100
AcDbEntity
  8
1
  6
Continuous
100
AcDbLine
 10
23.27775799999999
 20
167.562095
 30
0.0
 11
23.27775799999999
 21
149.9198159999999
 31
0.0
  0
ARC
  5
305A
330
301F
100
AcDbEntity
  8
1
  6
Continuous
100
AcDbCircle
 10
277.2777889999999
 20
156.303765
 30
0.0
 40
1.0
100
AcDbArc
 50
180.0
 51
239.9999999999999
  0
ARC
  5
305B
330
301F
100
AcDbEntity
  8
1
  6
Continuous
100
AcDbCircle
 10
40.27775799999999
 20
155.062095
 30
0.0
 40
0.5
100
AcDbArc
 50
22.619865
 51
157.380135
  0
ARC
  5
305C
330
301F
100
AcDbEntity
  8
1
  6
Continuous
100
AcDbCircle
 10
277.2777889999999
 20
178.8204249999997
 30
0.0
 40
1.0
100
AcDbArc
 50
119.9999999999999
 51
180.0
  0
LINE
  5
305D
330
301F
100
AcDbEntity
  8
1
  6
Continuous
100
AcDbLine
 10
317.2777889999999
 20
178.8204249999997
 30
0.0
 11
317.2777889999999
 21
156.303765
 31
0.0
  0
LINE
  5
305E
330
301F
100
AcDbEntity
  8
1
  6
Continuous
100
AcDbLine
 10
57.27775799999999
 20
167.562095
 30
0.0
 11
57.27775799999999
 21
149.9198159999999
 31
0.0
  0
ARC
  5
305F
330
301F
100
AcDbEntity
  8
1
  6
Continuous
100
AcDbCircle
 10
316.277789
 20
156.303765
 30
0.0
 40
1.0
100
AcDbArc
 50
300.0
 51
0.0
  0
ARC
  5
3060
330
301F
100
AcDbEntity
  8
1
  6
Continuous
100
AcDbCircle
 10
316.277789
 20
178.8204249999997
 30
0.0
 40
1.0
100
AcDbArc
 50
0.0
 51
60.0
  0
ARC
  5
3061
330
301F
100
AcDbEntity
  8
1
  6
Continuous
100
AcDbCircle
 10
296.7777889999999
 20
190.0787559999999
 30
0.0
 40
1.0
100
AcDbArc
 50
60.0
 51
119.9999999999999
  0
LINE
  5
3062
330
301F
100
AcDbEntity
  8
1
  6
Continuous
100
AcDbLine
 10
179.277758
 20
187.0620949999999
 30
0.0
 11
179.277758
 21
148.062095
 31
0.0
  0
LINE
  5
3063
330
301F
100
AcDbEntity
  8
1
  6
Continuous
100
AcDbLine
 10
180.7777579999997
 20
190.578756
 30
0.0
 11
180.7777579999997
 21
144.545435
 31
0.0
  0
LINE
  5
3064
330
301F
100
AcDbEntity
  8
1
  6
Continuous
100
AcDbLine
 10
185.277758
 20
190.578756
 30
0.0
 11
185.277758
 21
144.545435
 31
0.0
  0
LINE
  5
3065
330
301F
100
AcDbEntity
  8
1
  6
Continuous
100
AcDbLine
 10
127.677758
 20
142.562095
 30
0.0
 11
127.677758
 21
192.562095
 31
0.0
  0
LINE
  5
3066
330
301F
100
AcDbEntity
  8
1
  6
Continuous
100
AcDbLine
 10
127.9777579999998
 20
142.8620949999998
 30
0.0
 11
127.9777579999998
 21
192.2620949999999
 31
0.0
  0
LINE
  5
3067
330
301F
100
AcDbEntity
  8
1
  6
Continuous
100
AcDbLine
 10
129.277758
 20
191.562095
 30
0.0
 11
129.277758
 21
143.562095
 31
0.0
  0
LINE
  5
3068
330
301F
100
AcDbEntity
  8
1
  6
Continuous
100
AcDbLine
 10
130.0777579999998
 20
185.5120949999999
 30
0.0
 11
130.0777579999998
 21
182.2057799999998
 31
0.0
  0
LINE
  5
3069
330
301F
100
AcDbEntity
  8
1
  6
Continuous
100
AcDbLine
 10
120.777758
 20
191.679528
 30
0.0
 11
120.777758
 21
167.562095
 31
0.0
  0
LINE
  5
306A
330
301F
100
AcDbEntity
  8
1
  6
Continuous
100
AcDbLine
 10
128.277758
 20
191.562095
 30
0.0
 11
128.277758
 21
143.562095
 31
0.0
  0
LINE
  5
306B
330
301F
100
AcDbEntity
  8
1
  6
Continuous
100
AcDbLine
 10
115.277758
 20
184.4068
 30
0.0
 11
115.277758
 21
143.0620949999999
 31
0.0
  0
LINE
  5
306C
330
301F
100
AcDbEntity
  8
1
  6
Continuous
100
AcDbLine
 10
122.777758
 20
142.562095
 30
0.0
 11
122.777758
 21
149.5620949999999
 31
0.0
  0
LINE
  5
306D
330
301F
100
AcDbEntity
  8
1
  6
Continuous
100
AcDbLine
 10
117.677758
 20
142.562095
 30
0.0
 11
117.677758
 21
149.5620949999999
 31
0.0
  0
ARC
  5
306E
330
301F
100
AcDbEntity
  8
1
  6
Continuous
100
AcDbCircle
 10
129.7777579999997
 20
149.6120949999999
 30
0.0
 40
0.3
100
AcDbArc
 50
270.0
 51
0.0
  0
LINE
  5
306F
330
301F
100
AcDbEntity
  8
1
  6
Continuous
100
AcDbLine
 10
129.7777579999997
 20
149.3120949999999
 30
0.0
 11
129.277758
 21
149.3120949999999
 31
0.0
  0
LINE
  5
3070
330
301F
100
AcDbEntity
  8
1
  6
Continuous
100
AcDbLine
 10
115.777758
 20
142.562095
 30
0.0
 11
117.677758
 21
142.562095
 31
0.0
  0
ARC
  5
3071
330
301F
100
AcDbEntity
  8
1
  6
Continuous
100
AcDbCircle
 10
115.777758
 20
143.0620949999999
 30
0.0
 40
0.5
100
AcDbArc
 50
180.0
 51
270.0
  0
LINE
  5
3072
330
301F
100
AcDbEntity
  8
1
  6
Continuous
100
AcDbLine
 10
122.777758
 20
142.562095
 30
0.0
 11
127.677758
 21
142.562095
 31
0.0
  0
LINE
  5
3073
330
301F
100
AcDbEntity
  8
1
  6
Continuous
100
AcDbLine
 10
127.9777579999998
 20
144.812095
 30
0.0
 11
128.277758
 21
145.1120949999999
 31
0.0
  0
LINE
  5
3074
330
301F
100
AcDbEntity
  8
1
  6
Continuous
100
AcDbLine
 10
128.277758
 20
143.562095
 30
0.0
 11
129.277758
 21
143.562095
 31
0.0
  0
LINE
  5
3075
330
301F
100
AcDbEntity
  8
1
  6
Continuous
100
AcDbLine
 10
127.9777579999998
 20
142.8620949999998
 30
0.0
 11
127.677758
 21
142.562095
 31
0.0
  0
ARC
  5
3076
330
301F
100
AcDbEntity
  8
1
  6
Continuous
100
AcDbCircle
 10
180.277758
 20
148.062095
 30
0.0
 40
1.0
100
AcDbArc
 50
180.0
 51
270.0
  0
ARC
  5
3077
330
301F
100
AcDbEntity
  8
1
  6
Continuous
100
AcDbCircle
 10
181.277758
 20
144.545435
 30
0.0
 40
0.5
100
AcDbArc
 50
180.0
 51
270.0
  0
ARC
  5
3078
330
301F
100
AcDbEntity
  8
1
  6
Continuous
100
AcDbCircle
 10
184.7777579999998
 20
144.545435
 30
0.0
 40
0.5
100
AcDbArc
 50
270.0
 51
0.0
  0
LINE
  5
3079
330
301F
100
AcDbEntity
  8
1
  6
Continuous
100
AcDbLine
 10
181.277758
 20
144.0454349999999
 30
0.0
 11
184.7777579999998
 21
144.0454349999999
 31
0.0
  0
LINE
  5
307A
330
301F
100
AcDbEntity
  8
4
  6
CENTER
100
AcDbLine
 10
112.277758
 20
167.562095
 30
0.0
 11
149.9777579999999
 21
167.562095
 31
0.0
  0
LINE
  5
307B
330
301F
100
AcDbEntity
  8
1
  6
Continuous
100
AcDbLine
 10
130.0777579999998
 20
152.9184109999999
 30
0.0
 11
129.277758
 21
152.9184109999999
 31
0.0
  0
LINE
  5
307C
330
301F
100
AcDbEntity
  8
1
  6
Continuous
100
AcDbLine
 10
130.0777579999998
 20
182.2057799999998
 30
0.0
 11
129.277758
 21
182.2057799999998
 31
0.0
  0
LINE
  5
307D
330
301F
100
AcDbEntity
  8
1
  6
Continuous
100
AcDbLine
 10
117.677758
 20
149.5620949999999
 30
0.0
 11
122.777758
 21
149.5620949999999
 31
0.0
  0
LINE
  5
307E
330
301F
100
AcDbEntity
  8
2
  6
Continuous
100
AcDbLine
 10
144.277758
 20
164.2425409999999
 30
0.0
 11
146.9777579999997
 21
167.2301399999998
 31
0.0
  0
LINE
  5
307F
330
301F
100
AcDbEntity
  8
1
  6
Continuous
100
AcDbLine
 10
147.2777579999998
 20
172.7946849999999
 30
0.0
 11
147.2777579999998
 21
162.329505
 31
0.0
  0
LINE
  5
3080
330
301F
100
AcDbEntity
  8
1
  6
Continuous
100
AcDbLine
 10
144.277758
 20
179.062095
 30
0.0
 11
144.277758
 21
154.062095
 31
0.0
  0
ARC
  5
3081
330
301F
100
AcDbEntity
  8
1
  6
Continuous
100
AcDbCircle
 10
126.777758
 20
167.562095
 30
0.0
 40
15.0
100
AcDbArc
 50
338.9605299999999
 51
21.03947
  0
LINE
  5
3082
330
301F
100
AcDbEntity
  8
1
  6
Continuous
100
AcDbLine
 10
141.777758
 20
181.5620949999999
 30
0.0
 11
141.777758
 21
153.562095
 31
0.0
  0
LINE
  5
3083
330
301F
100
AcDbEntity
  8
1
  6
Continuous
100
AcDbLine
 10
142.2777579999998
 20
177.627892
 30
0.0
 11
142.2777579999998
 21
154.062095
 31
0.0
  0
LINE
  5
3084
330
301F
100
AcDbEntity
  8
2
  6
Continuous
100
AcDbLine
 10
131.577758
 20
153.3740949999998
 30
0.0
 11
141.589758
 21
153.3740949999998
 31
0.0
  0
LINE
  5
3085
330
301F
100
AcDbEntity
  8
1
  6
Continuous
100
AcDbLine
 10
141.777758
 20
153.562095
 30
0.0
 11
140.777758
 21
152.5620949999999
 31
0.0
  0
LINE
  5
3086
330
301F
100
AcDbEntity
  8
1
  6
Continuous
100
AcDbLine
 10
140.777758
 20
152.5620949999999
 30
0.0
 11
140.777758
 21
162.1769299999999
 31
0.0
  0
LINE
  5
3087
330
301F
100
AcDbEntity
  8
2
  6
Continuous
100
AcDbLine
 10
130.0777579999998
 20
152.5620949999999
 30
0.0
 11
131.577758
 21
153.3740949999998
 31
0.0
  0
LINE
  5
3088
330
301F
100
AcDbEntity
  8
1
  6
Continuous
100
AcDbLine
 10
130.0777579999998
 20
152.5620949999999
 30
0.0
 11
140.777758
 21
152.5620949999999
 31
0.0
  0
LINE
  5
3089
330
301F
100
AcDbEntity
  8
2
  6
Continuous
100
AcDbLine
 10
129.277758
 20
172.085634
 30
0.0
 11
140.777758
 21
162.1769299999999
 31
0.0
  0
LINE
  5
308A
330
301F
100
AcDbEntity
  8
1
  6
Continuous
100
AcDbLine
 10
140.777758
 20
162.1769299999999
 30
0.0
 11
129.277758
 21
162.1769299999999
 31
0.0
  0
LINE
  5
308B
330
301F
100
AcDbEntity
  8
1
  6
Continuous
100
AcDbLine
 10
144.277758
 20
154.062095
 30
0.0
 11
142.2777579999998
 21
154.062095
 31
0.0
  0
LINE
  5
308C
330
301F
100
AcDbEntity
  8
1
  6
Continuous
100
AcDbLine
 10
144.277758
 20
162.029505
 30
0.0
 11
146.9777579999997
 21
162.029505
 31
0.0
  0
LINE
  5
308D
330
301F
100
AcDbEntity
  8
2
  6
Continuous
100
AcDbLine
 10
144.277758
 20
165.349059
 30
0.0
 11
146.9777579999997
 21
162.3614599999999
 31
0.0
  0
LINE
  5
308E
330
301F
100
AcDbEntity
  8
1
  6
Continuous
100
AcDbLine
 10
144.277758
 20
160.8120949999999
 30
0.0
 11
142.2777579999998
 21
160.8120949999999
 31
0.0
  0
LINE
  5
308F
330
301F
100
AcDbEntity
  8
1
  6
Continuous
100
AcDbLine
 10
144.277758
 20
162.0620949999999
 30
0.0
 11
142.2777579999998
 21
162.0620949999999
 31
0.0
  0
LINE
  5
3090
330
301F
100
AcDbEntity
  8
1
  6
Continuous
100
AcDbLine
 10
141.777758
 20
160.562095
 30
0.0
 11
142.2777579999998
 21
160.562095
 31
0.0
  0
ARC
  5
3091
330
301F
100
AcDbEntity
  8
1
  6
Continuous
100
AcDbCircle
 10
146.9777579999997
 20
162.329505
 30
0.0
 40
0.3
100
AcDbArc
 50
270.0
 51
0.0
  0
LINE
  5
3092
330
301F
100
AcDbEntity
  8
2
  6
Continuous
100
AcDbLine
 10
131.577758
 20
181.7500949999999
 30
0.0
 11
141.589758
 21
181.7500949999999
 31
0.0
  0
LINE
  5
3093
330
301F
100
AcDbEntity
  8
1
  6
Continuous
100
AcDbLine
 10
141.777758
 20
181.5620949999999
 30
0.0
 11
140.777758
 21
182.562095
 31
0.0
  0
LINE
  5
3094
330
301F
100
AcDbEntity
  8
1
  6
Continuous
100
AcDbLine
 10
131.577758
 20
182.562095
 30
0.0
 11
131.577758
 21
172.94726
 31
0.0
  0
LINE
  5
3095
330
301F
100
AcDbEntity
  8
1
  6
Continuous
100
AcDbLine
 10
140.777758
 20
182.562095
 30
0.0
 11
140.777758
 21
172.94726
 31
0.0
  0
LINE
  5
3096
330
301F
100
AcDbEntity
  8
1
  6
Continuous
100
AcDbLine
 10
140.777758
 20
172.94726
 30
0.0
 11
129.277758
 21
172.94726
 31
0.0
  0
LINE
  5
3097
330
301F
100
AcDbEntity
  8
2
  6
Continuous
100
AcDbLine
 10
129.277758
 20
163.038557
 30
0.0
 11
140.777758
 21
172.94726
 31
0.0
  0
LINE
  5
3098
330
301F
100
AcDbEntity
  8
2
  6
Continuous
100
AcDbLine
 10
130.0777579999998
 20
182.562095
 30
0.0
 11
131.577758
 21
181.7500949999999
 31
0.0
  0
LINE
  5
3099
330
301F
100
AcDbEntity
  8
1
  6
Continuous
100
AcDbLine
 10
130.0777579999998
 20
182.562095
 30
0.0
 11
140.777758
 21
182.562095
 31
0.0
  0
LINE
  5
309A
330
301F
100
AcDbEntity
  8
1
  6
Continuous
100
AcDbLine
 10
144.277758
 20
167.562095
 30
0.0
 11
146.9777579999997
 21
167.562095
 31
0.0
  0
LINE
  5
309B
330
301F
100
AcDbEntity
  8
2
  6
Continuous
100
AcDbLine
 10
144.277758
 20
170.881649
 30
0.0
 11
146.9777579999997
 21
167.8940509999998
 31
0.0
  0
LINE
  5
309C
330
301F
100
AcDbEntity
  8
2
  6
Continuous
100
AcDbLine
 10
144.277758
 20
169.7751309999999
 30
0.0
 11
146.9777579999997
 21
172.7627299999998
 31
0.0
  0
LINE
  5
309D
330
301F
100
AcDbEntity
  8
1
  6
Continuous
100
AcDbLine
 10
144.277758
 20
173.094685
 30
0.0
 11
146.9777579999997
 21
173.094685
 31
0.0
  0
LINE
  5
309E
330
301F
100
AcDbEntity
  8
1
  6
Continuous
100
AcDbLine
 10
141.777758
 20
174.5620949999999
 30
0.0
 11
142.2777579999998
 21
174.5620949999999
 31
0.0
  0
ARC
  5
309F
330
301F
100
AcDbEntity
  8
1
  6
Continuous
100
AcDbCircle
 10
146.9777579999997
 20
172.7946849999999
 30
0.0
 40
0.3
100
AcDbArc
 50
0.0
 51
90.0
  0
LINE
  5
30A0
330
301F
100
AcDbEntity
  8
1
  6
Continuous
100
AcDbLine
 10
144.277758
 20
179.062095
 30
0.0
 11
144.0777579999999
 21
179.062095
 31
0.0
  0
LINE
  5
30A1
330
301F
100
AcDbEntity
  8
1
  6
Continuous
100
AcDbLine
 10
144.277758
 20
178.562095
 30
0.0
 11
144.0777579999999
 21
178.562095
 31
0.0
  0
ARC
  5
30A2
330
301F
100
AcDbEntity
  8
1
  6
Continuous
100
AcDbCircle
 10
143.777758
 20
177.9278919999999
 30
0.0
 40
0.3
100
AcDbArc
 50
270.0
 51
0.0
  0
LINE
  5
30A3
330
301F
100
AcDbEntity
  8
1
  6
Continuous
100
AcDbLine
 10
143.777758
 20
177.627892
 30
0.0
 11
141.777758
 21
177.627892
 31
0.0
  0
ARC
  5
30A4
330
301F
100
AcDbEntity
  8
1
  6
Continuous
100
AcDbCircle
 10
143.777758
 20
179.3864509999999
 30
0.0
 40
0.3
100
AcDbArc
 50
0.0
 51
90.0
  0
LINE
  5
30A5
330
301F
100
AcDbEntity
  8
1
  6
Continuous
100
AcDbLine
 10
143.777758
 20
179.6864509999998
 30
0.0
 11
141.777758
 21
179.6864509999998
 31
0.0
  0
ARC
  5
30A6
330
301F
100
AcDbEntity
  8
1
  6
Continuous
100
AcDbCircle
 10
143.777758
 20
181.2620949999999
 30
0.0
 40
0.3
100
AcDbArc
 50
0.0
 51
90.0
  0
LINE
  5
30A7
330
301F
100
AcDbEntity
  8
1
  6
Continuous
100
AcDbLine
 10
141.777758
 20
181.5620949999999
 30
0.0
 11
143.777758
 21
181.5620949999999
 31
0.0
  0
LINE
  5
30A8
330
301F
100
AcDbEntity
  8
1
  6
Continuous
100
AcDbLine
 10
144.0777579999999
 20
181.2620949999999
 30
0.0
 11
144.0777579999999
 21
177.9278919999999
 31
0.0
  0
LINE
  5
30A9
330
301F
100
AcDbEntity
  8
1
  6
Continuous
100
AcDbLine
 10
221.977758
 20
171.812095
 30
0.0
 11
223.277758
 21
171.812095
 31
0.0
  0
LINE
  5
30AA
330
301F
100
AcDbEntity
  8
1
  6
Continuous
100
AcDbLine
 10
221.977758
 20
163.312095
 30
0.0
 11
223.277758
 21
163.312095
 31
0.0
  0
LINE
  5
30AB
330
301F
100
AcDbEntity
  8
1
  6
Continuous
100
AcDbLine
 10
221.177758
 20
173.5620949999999
 30
0.0
 11
221.177758
 21
161.562095
 31
0.0
  0
LINE
  5
30AC
330
301F
100
AcDbEntity
  8
1
  6
Continuous
100
AcDbLine
 10
221.977758
 20
173.5620949999999
 30
0.0
 11
221.977758
 21
161.562095
 31
0.0
  0
LINE
  5
30AD
330
301F
100
AcDbEntity
  8
1
  6
Continuous
100
AcDbLine
 10
202.277758
 20
176.5620949999999
 30
0.0
 11
202.277758
 21
158.562095
 31
0.0
  0
LINE
  5
30AE
330
301F
100
AcDbEntity
  8
1
  6
Continuous
100
AcDbLine
 10
203.277758
 20
176.5620949999999
 30
0.0
 11
203.277758
 21
158.562095
 31
0.0
  0
LINE
  5
30AF
330
301F
100
AcDbEntity
  8
1
  6
Continuous
100
AcDbLine
 10
202.277758
 20
158.562095
 30
0.0
 11
203.277758
 21
158.562095
 31
0.0
  0
LINE
  5
30B0
330
301F
100
AcDbEntity
  8
1
  6
Continuous
100
AcDbLine
 10
221.177758
 20
161.562095
 30
0.0
 11
221.977758
 21
161.562095
 31
0.0
  0
LINE
  5
30B1
330
301F
100
AcDbEntity
  8
1
  6
Continuous
100
AcDbLine
 10
202.277758
 20
176.5620949999999
 30
0.0
 11
203.277758
 21
176.5620949999999
 31
0.0
  0
LINE
  5
30B2
330
301F
100
AcDbEntity
  8
1
  6
Continuous
100
AcDbLine
 10
221.177758
 20
173.5620949999999
 30
0.0
 11
221.977758
 21
173.5620949999999
 31
0.0
  0
ARC
  5
30B3
330
301F
100
AcDbEntity
  8
1
  6
Continuous
100
AcDbCircle
 10
229.541902
 20
167.562095
 30
0.0
 40
6.264143999999999
100
AcDbArc
 50
158.366392
 51
201.633608
  0
ARC
  5
30B4
330
301F
100
AcDbEntity
  8
1
  6
Continuous
100
AcDbCircle
 10
220.513614
 20
167.562095
 30
0.0
 40
6.264143999999999
100
AcDbArc
 50
338.366392
 51
21.63360799999999
  0
LINE
  5
30B5
330
301F
100
AcDbEntity
  8
1
  6
Continuous
100
AcDbLine
 10
226.777758
 20
171.462095
 30
0.0
 11
226.777758
 21
163.662095
 31
0.0
  0
LINE
  5
30B6
330
301F
100
AcDbEntity
  8
1
  6
Continuous
100
AcDbLine
 10
223.277758
 20
171.812095
 30
0.0
 11
223.277758
 21
163.312095
 31
0.0
  0
LINE
  5
30B7
330
301F
100
AcDbEntity
  8
1
  6
Continuous
100
AcDbLine
 10
223.692759
 20
162.9432929999999
 30
0.0
 11
223.277758
 21
163.662095
 31
0.0
  0
ARC
  5
30B8
330
301F
100
AcDbEntity
  8
1
  6
Continuous
100
AcDbCircle
 10
225.00926
 20
164.097994
 30
0.0
 40
1.731502
100
AcDbArc
 50
138.1734519999999
 51
180.0
  0
ARC
  5
30B9
330
301F
100
AcDbEntity
  8
1
  6
Continuous
100
AcDbCircle
 10
225.0462559999999
 20
164.097994
 30
0.0
 40
1.731502
100
AcDbArc
 50
0.0
 51
41.82654799999999
  0
LINE
  5
30BA
330
301F
100
AcDbEntity
  8
1
  6
Continuous
100
AcDbLine
 10
226.362757
 20
162.9432929999999
 30
0.0
 11
226.777758
 21
163.662095
 31
0.0
  0
LINE
  5
30BB
330
301F
100
AcDbEntity
  8
1
  6
Continuous
100
AcDbLine
 10
226.3365139999999
 20
165.2526939999999
 30
0.0
 11
223.7190019999999
 21
165.2526939999999
 31
0.0
  0
LINE
  5
30BC
330
301F
100
AcDbEntity
  8
1
  6
Continuous
100
AcDbLine
 10
226.362757
 20
162.9432929999999
 30
0.0
 11
223.692759
 21
162.9432929999999
 31
0.0
  0
ARC
  5
30BD
330
301F
100
AcDbEntity
  8
1
  6
Continuous
100
AcDbCircle
 10
225.00926
 20
171.0261969999999
 30
0.0
 40
1.731502
100
AcDbArc
 50
180.0
 51
221.8265479999999
  0
LINE
  5
30BE
330
301F
100
AcDbEntity
  8
1
  6
Continuous
100
AcDbLine
 10
223.692759
 20
172.1808969999999
 30
0.0
 11
223.277758
 21
171.462095
 31
0.0
  0
ARC
  5
30BF
330
301F
100
AcDbEntity
  8
1
  6
Continuous
100
AcDbCircle
 10
225.0462559999999
 20
171.0261969999999
 30
0.0
 40
1.731502
100
AcDbArc
 50
318.173452
 51
0.0
  0
LINE
  5
30C0
330
301F
100
AcDbEntity
  8
1
  6
Continuous
100
AcDbLine
 10
226.362757
 20
172.1808969999999
 30
0.0
 11
226.777758
 21
171.462095
 31
0.0
  0
LINE
  5
30C1
330
301F
100
AcDbEntity
  8
1
  6
Continuous
100
AcDbLine
 10
226.3365139999999
 20
169.871496
 30
0.0
 11
223.7190019999999
 21
169.871496
 31
0.0
  0
LINE
  5
30C2
330
301F
100
AcDbEntity
  8
1
  6
Continuous
100
AcDbLine
 10
226.362757
 20
172.1808969999999
 30
0.0
 11
223.692759
 21
172.1808969999999
 31
0.0
  0
LINE
  5
30C3
330
301F
100
AcDbEntity
  8
1
  6
Continuous
100
AcDbLine
 10
129.7777579999997
 20
185.8120949999999
 30
0.0
 11
129.277758
 21
185.8120949999999
 31
0.0
  0
LINE
  5
30C4
330
301F
100
AcDbEntity
  8
1
  6
Continuous
100
AcDbLine
 10
115.365737
 20
184.690065
 30
0.0
 11
120.628752
 21
192.34536
 31
0.0
  0
ARC
  5
30C5
330
301F
100
AcDbEntity
  8
1
  6
Continuous
100
AcDbCircle
 10
115.777758
 20
184.4068
 30
0.0
 40
0.5
100
AcDbArc
 50
145.491477
 51
180.0
  0
LINE
  5
30C6
330
301F
100
AcDbEntity
  8
1
  6
Continuous
100
AcDbLine
 10
127.9777579999998
 20
190.3120949999999
 30
0.0
 11
128.277758
 21
190.0120949999999
 31
0.0
  0
LINE
  5
30C7
330
301F
100
AcDbEntity
  8
1
  6
Continuous
100
AcDbLine
 10
128.277758
 20
191.562095
 30
0.0
 11
129.277758
 21
191.562095
 31
0.0
  0
LINE
  5
30C8
330
301F
100
AcDbEntity
  8
1
  6
Continuous
100
AcDbLine
 10
121.040773
 20
192.562095
 30
0.0
 11
127.677758
 21
192.562095
 31
0.0
  0
ARC
  5
30C9
330
301F
100
AcDbEntity
  8
1
  6
Continuous
100
AcDbCircle
 10
121.040773
 20
192.0620949999999
 30
0.0
 40
0.5
100
AcDbArc
 50
90.0
 51
145.491477
  0
LINE
  5
30CA
330
301F
100
AcDbEntity
  8
1
  6
Continuous
100
AcDbLine
 10
127.677758
 20
192.562095
 30
0.0
 11
127.9777579999998
 21
192.2620949999999
 31
0.0
  0
ARC
  5
30CB
330
301F
100
AcDbEntity
  8
1
  6
Continuous
100
AcDbCircle
 10
180.277758
 20
187.0620949999999
 30
0.0
 40
1.0
100
AcDbArc
 50
90.0
 51
180.0
  0
ARC
  5
30CC
330
301F
100
AcDbEntity
  8
1
  6
Continuous
100
AcDbCircle
 10
129.7777579999997
 20
185.5120949999999
 30
0.0
 40
0.3
100
AcDbArc
 50
0.0
 51
90.0
  0
ARC
  5
30CD
330
301F
100
AcDbEntity
  8
1
  6
Continuous
100
AcDbCircle
 10
184.7777579999998
 20
190.578756
 30
0.0
 40
0.5
100
AcDbArc
 50
0.0
 51
90.0
  0
ARC
  5
30CE
330
301F
100
AcDbEntity
  8
1
  6
Continuous
100
AcDbCircle
 10
181.277758
 20
190.578756
 30
0.0
 40
0.5
100
AcDbArc
 50
90.0
 51
180.0
  0
LINE
  5
30CF
330
301F
100
AcDbEntity
  8
1
  6
Continuous
100
AcDbLine
 10
181.277758
 20
191.0787559999999
 30
0.0
 11
184.7777579999998
 21
191.0787559999999
 31
0.0
  0
CIRCLE
  5
30D0
330
301F
100
AcDbEntity
  8
1
  6
Continuous
100
AcDbCircle
 10
296.7777889999999
 20
167.562095
 30
0.0
 40
24.0
  0
CIRCLE
  5
30D1
330
301F
100
AcDbEntity
  8
1
  6
Continuous
100
AcDbCircle
 10
296.7777889999999
 20
167.562095
 30
0.0
 40
24.7
  0
ARC
  5
30D2
330
301F
100
AcDbEntity
  8
1
  6
Continuous
100
AcDbCircle
 10
296.7777889999999
 20
167.562095
 30
0.0
 40
11.5
100
AcDbArc
 50
60.0
 51
210.0
  0
LINE
  5
30D3
330
301F
100
AcDbEntity
  8
4
  6
CENTER
100
AcDbLine
 10
296.7777889999999
 20
195.562095
 30
0.0
 11
296.7777889999999
 21
139.562095
 31
0.0
  0
CIRCLE
  5
30D4
330
301F
100
AcDbEntity
  8
1
  6
Continuous
100
AcDbCircle
 10
296.7777889999999
 20
167.562095
 30
0.0
 40
25.0
  0
ARC
  5
30D5
330
301F
100
AcDbEntity
  8
1
  6
Continuous
100
AcDbCircle
 10
296.7777889999999
 20
167.562095
 30
0.0
 40
15.0
100
AcDbArc
 50
21.03947
 51
158.96053
  0
ARC
  5
30D6
330
301F
100
AcDbEntity
  8
1
  6
Continuous
100
AcDbCircle
 10
296.7777889999999
 20
167.562095
 30
0.0
 40
15.0
100
AcDbArc
 50
201.03947
 51
338.9605299999999
  0
CIRCLE
  5
30D7
330
301F
100
AcDbEntity
  8
1
  6
Continuous
100
AcDbCircle
 10
296.7777889999999
 20
167.562095
 30
0.0
 40
14.0
  0
ARC
  5
30D8
330
301F
100
AcDbEntity
  8
2
  6
Continuous
100
AcDbCircle
 10
296.7777889999999
 20
167.562095
 30
0.0
 40
14.188
100
AcDbArc
 50
189.3376309999998
 51
350.662369
  0
ARC
  5
30D9
330
301F
100
AcDbEntity
  8
2
  6
Continuous
100
AcDbCircle
 10
296.7777889999999
 20
167.562095
 30
0.0
 40
14.188
100
AcDbArc
 50
9.337631
 51
170.6623689999999
  0
LINE
  5
30DA
330
301F
100
AcDbEntity
  8
4
  6
CENTER
100
AcDbLine
 10
268.777789
 20
167.562095
 30
0.0
 11
324.777789
 21
167.562095
 31
0.0
  0
LINE
  5
30DB
330
301F
100
AcDbEntity
  8
1
  6
Continuous
100
AcDbLine
 10
286.827914
 20
161.8175329999999
 30
0.0
 11
285.5277889999999
 21
161.066905
 31
0.0
  0
ARC
  5
30DC
330
301F
100
AcDbEntity
  8
1
  6
Continuous
100
AcDbCircle
 10
296.7777889999999
 20
167.562095
 30
0.0
 40
11.0
100
AcDbArc
 50
62.49190600000001
 51
207.5080939999998
  0
ARC
  5
30DD
330
301F
100
AcDbEntity
  8
1
  6
Continuous
100
AcDbCircle
 10
296.7777889999999
 20
167.562095
 30
0.0
 40
13.5
100
AcDbArc
 50
212.2042279999998
 51
57.79577200000001
  0
LINE
  5
30DE
330
301F
100
AcDbEntity
  8
1
  6
Continuous
100
AcDbLine
 10
282.7777889999999
 20
172.94726
 30
0.0
 11
282.7777889999999
 21
162.1769299999999
 31
0.0
  0
ARC
  5
30DF
330
301F
100
AcDbEntity
  8
1
  6
Continuous
100
AcDbCircle
 10
285.7777889999999
 20
160.6338919999998
 30
0.0
 40
0.5
100
AcDbArc
 50
119.9999999999999
 51
212.2042279999998
  0
ARC
  5
30E0
330
301F
100
AcDbEntity
  8
1
  6
Continuous
100
AcDbCircle
 10
286.577914
 20
162.250545
 30
0.0
 40
0.5
100
AcDbArc
 50
300.0
 51
27.508094
  0
ARC
  5
30E1
330
301F
100
AcDbEntity
  8
1
  6
Continuous
100
AcDbCircle
 10
291.1395029999998
 20
177.9278919999999
 30
0.0
 40
0.3
100
AcDbArc
 50
210.0
 51
298.5431709999998
  0
ARC
  5
30E2
330
301F
100
AcDbEntity
  8
1
  6
Continuous
100
AcDbCircle
 10
290.189239
 20
179.573798
 30
0.0
 40
0.3
100
AcDbArc
 50
118.745248
 51
210.0
  0
LINE
  5
30E3
330
301F
100
AcDbEntity
  8
1
  6
Continuous
100
AcDbLine
 10
290.879696
 20
177.7778919999998
 30
0.0
 11
289.929431
 21
179.423798
 31
0.0
  0
ARC
  5
30E4
330
301F
100
AcDbEntity
  8
1
  6
Continuous
100
AcDbCircle
 10
303.7059919999999
 20
178.562095
 30
0.0
 40
0.5
100
AcDbArc
 50
57.79577200000001
 51
150.0
  0
ARC
  5
30E5
330
301F
100
AcDbEntity
  8
1
  6
Continuous
100
AcDbCircle
 10
302.0893379999999
 20
177.7619699999999
 30
0.0
 40
0.5
100
AcDbArc
 50
242.4919059999997
 51
330.0
  0
ARC
  5
30E6
330
301F
100
AcDbEntity
  8
1
  6
Continuous
100
AcDbCircle
 10
302.4160739999999
 20
177.9278919999999
 30
0.0
 40
0.3
100
AcDbArc
 50
241.456829
 51
330.0
  0
ARC
  5
30E7
330
301F
100
AcDbEntity
  8
1
  6
Continuous
100
AcDbCircle
 10
303.366338
 20
179.573798
 30
0.0
 40
0.3
100
AcDbArc
 50
330.0
 51
61.254752
  0
LINE
  5
30E8
330
301F
100
AcDbEntity
  8
1
  6
Continuous
100
AcDbLine
 10
302.5223509999999
 20
177.5119699999999
 30
0.0
 11
303.6261459999999
 21
179.423798
 31
0.0
  0
LINE
  5
30E9
330
301F
100
AcDbEntity
  8
1
  6
Continuous
100
AcDbLine
 10
310.7777889999999
 20
172.94726
 30
0.0
 11
310.7777889999999
 21
162.1769299999999
 31
0.0
  0
LINE
  5
30EA
330
301F
100
AcDbEntity
  8
1
  6
Continuous
100
AcDbLine
 10
221.977758
 20
167.562095
 30
0.0
 11
223.277758
 21
168.8620949999998
 31
0.0
  0
LINE
  5
30EB
330
301F
100
AcDbEntity
  8
1
  6
Continuous
100
AcDbLine
 10
221.977758
 20
166.2620949999999
 30
0.0
 11
223.277758
 21
167.562095
 31
0.0
  0
ARC
  5
30EC
330
301F
100
AcDbEntity
  8
1
  6
Continuous
100
AcDbCircle
 10
178.277758
 20
183.812095
 30
0.0
 40
1.0
100
AcDbArc
 50
0.0
 51
180.0
  0
ARC
  5
30ED
330
301F
100
AcDbEntity
  8
1
  6
Continuous
100
AcDbCircle
 10
178.277758
 20
151.312095
 30
0.0
 40
1.0
100
AcDbArc
 50
180.0
 51
0.0
  0
LINE
  5
30EE
330
301F
100
AcDbEntity
  8
1
  6
Continuous
100
AcDbLine
 10
177.277758
 20
151.312095
 30
0.0
 11
177.277758
 21
183.812095
 31
0.0
  0
LINE
  5
30EF
330
301F
100
AcDbEntity
  8
1
  6
Continuous
100
AcDbLine
 10
180.277758
 20
188.0620949999999
 30
0.0
 11
180.7777579999997
 21
188.0620949999999
 31
0.0
  0
LINE
  5
30F0
330
301F
100
AcDbEntity
  8
1
  6
Continuous
100
AcDbLine
 10
180.277758
 20
147.0620949999999
 30
0.0
 11
180.7777579999997
 21
147.0620949999999
 31
0.0
  0
LINE
  5
30F1
330
301F
100
AcDbEntity
  8
1
  6
Continuous
100
AcDbLine
 10
181.277758
 20
179.3977759999999
 30
0.0
 11
184.7777579999998
 21
179.3977759999999
 31
0.0
  0
LINE
  5
30F2
330
301F
100
AcDbEntity
  8
1
  6
Continuous
100
AcDbLine
 10
181.277758
 20
155.7264149999998
 30
0.0
 11
184.7777579999998
 21
155.7264149999998
 31
0.0
  0
ARC
  5
30F3
330
301F
100
AcDbEntity
  8
1
  6
Continuous
100
AcDbCircle
 10
180.277758
 20
292.0620949999999
 30
0.0
 40
1.0
100
AcDbArc
 50
90.0
 51
180.0
  0
LINE
  5
30F4
330
301F
100
AcDbEntity
  8
1
  6
Continuous
100
AcDbLine
 10
115.365737
 20
289.690065
 30
0.0
 11
120.628752
 21
297.34536
 31
0.0
  0
LINE
  5
30F5
330
301F
100
AcDbEntity
  8
1
  6
Continuous
100
AcDbLine
 10
128.277758
 20
296.5620949999999
 30
0.0
 11
128.277758
 21
248.562095
 31
0.0
  0
LINE
  5
30F6
330
301F
100
AcDbEntity
  8
1
  6
Continuous
100
AcDbLine
 10
120.777758
 20
296.6795279999999
 30
0.0
 11
120.777758
 21
248.4446629999999
 31
0.0
  0
LINE
  5
30F7
330
301F
100
AcDbEntity
  8
1
  6
Continuous
100
AcDbLine
 10
129.277758
 20
296.5620949999999
 30
0.0
 11
129.277758
 21
248.562095
 31
0.0
  0
LINE
  5
30F8
330
301F
100
AcDbEntity
  8
1
  6
Continuous
100
AcDbLine
 10
127.9777579999998
 20
247.862095
 30
0.0
 11
127.9777579999998
 21
297.2620949999998
 31
0.0
  0
LINE
  5
30F9
330
301F
100
AcDbEntity
  8
1
  6
Continuous
100
AcDbLine
 10
127.677758
 20
247.562095
 30
0.0
 11
127.677758
 21
297.562095
 31
0.0
  0
LINE
  5
30FA
330
301F
100
AcDbEntity
  8
1
  6
Continuous
100
AcDbLine
 10
185.277758
 20
292.5620949999997
 30
0.0
 11
185.277758
 21
252.562095
 31
0.0
  0
LINE
  5
30FB
330
301F
100
AcDbEntity
  8
1
  6
Continuous
100
AcDbLine
 10
180.7777579999997
 20
293.062095
 30
0.0
 11
180.7777579999997
 21
252.062095
 31
0.0
  0
LINE
  5
30FC
330
301F
100
AcDbEntity
  8
1
  6
Continuous
100
AcDbLine
 10
180.277758
 20
252.062095
 30
0.0
 11
180.7777579999997
 21
252.062095
 31
0.0
  0
LINE
  5
30FD
330
301F
100
AcDbEntity
  8
1
  6
Continuous
100
AcDbLine
 10
180.277758
 20
293.062095
 30
0.0
 11
180.7777579999997
 21
293.062095
 31
0.0
  0
LINE
  5
30FE
330
301F
100
AcDbEntity
  8
4
  6
CENTER
100
AcDbLine
 10
112.277758
 20
272.562095
 30
0.0
 11
149.9777579999999
 21
272.562095
 31
0.0
  0
LINE
  5
30FF
330
301F
100
AcDbEntity
  8
1
  6
Continuous
100
AcDbLine
 10
177.277758
 20
256.312095
 30
0.0
 11
177.277758
 21
288.812095
 31
0.0
  0
LINE
  5
3100
330
301F
100
AcDbEntity
  8
1
  6
Continuous
100
AcDbLine
 10
131.577758
 20
286.5620949999997
 30
0.0
 11
131.577758
 21
258.562095
 31
0.0
  0
LINE
  5
3101
330
301F
100
AcDbEntity
  8
1
  6
Continuous
100
AcDbLine
 10
140.777758
 20
258.562095
 30
0.0
 11
140.777758
 21
286.5620949999997
 31
0.0
  0
LINE
  5
3102
330
301F
100
AcDbEntity
  8
1
  6
Continuous
100
AcDbLine
 10
142.2777579999998
 20
286.0620949999999
 30
0.0
 11
142.2777579999998
 21
279.5620949999999
 31
0.0
  0
LINE
  5
3103
330
301F
100
AcDbEntity
  8
1
  6
Continuous
100
AcDbLine
 10
141.777758
 20
286.5620949999997
 30
0.0
 11
141.777758
 21
258.562095
 31
0.0
  0
LINE
  5
3104
330
301F
100
AcDbEntity
  8
1
  6
Continuous
100
AcDbLine
 10
144.277758
 20
286.0620949999999
 30
0.0
 11
144.277758
 21
260.8707519999999
 31
0.0
  0
LINE
  5
3105
330
301F
100
AcDbEntity
  8
1
  6
Continuous
100
AcDbLine
 10
115.277758
 20
289.4067999999998
 30
0.0
 11
115.277758
 21
255.7173899999999
 31
0.0
  0
LINE
  5
3106
330
301F
100
AcDbEntity
  8
1
  6
Continuous
100
AcDbLine
 10
130.0777579999998
 20
275.5120949999998
 30
0.0
 11
130.0777579999998
 21
269.612095
 31
0.0
  0
LINE
  5
3107
330
301F
100
AcDbEntity
  8
1
  6
Continuous
100
AcDbLine
 10
179.277758
 20
292.0620949999999
 30
0.0
 11
179.277758
 21
253.062095
 31
0.0
  0
LINE
  5
3108
330
301F
100
AcDbEntity
  8
1
  6
Continuous
100
AcDbLine
 10
127.9777579999998
 20
247.862095
 30
0.0
 11
127.677758
 21
247.562095
 31
0.0
  0
LINE
  5
3109
330
301F
100
AcDbEntity
  8
1
  6
Continuous
100
AcDbLine
 10
128.277758
 20
248.562095
 30
0.0
 11
129.277758
 21
248.562095
 31
0.0
  0
LINE
  5
310A
330
301F
100
AcDbEntity
  8
1
  6
Continuous
100
AcDbLine
 10
121.040773
 20
247.562095
 30
0.0
 11
127.677758
 21
247.562095
 31
0.0
  0
LINE
  5
310B
330
301F
100
AcDbEntity
  8
1
  6
Continuous
100
AcDbLine
 10
127.9777579999998
 20
249.812095
 30
0.0
 11
128.277758
 21
250.112095
 31
0.0
  0
LINE
  5
310C
330
301F
100
AcDbEntity
  8
1
  6
Continuous
100
AcDbLine
 10
144.277758
 20
260.8707519999999
 30
0.0
 11
142.2777579999998
 21
260.8707519999999
 31
0.0
  0
ARC
  5
310D
330
301F
100
AcDbEntity
  8
1
  6
Continuous
100
AcDbCircle
 10
178.277758
 20
256.312095
 30
0.0
 40
1.0
100
AcDbArc
 50
180.0
 51
0.0
  0
ARC
  5
310E
330
301F
100
AcDbEntity
  8
1
  6
Continuous
100
AcDbCircle
 10
180.277758
 20
253.062095
 30
0.0
 40
1.0
100
AcDbArc
 50
180.0
 51
270.0
  0
ARC
  5
310F
330
301F
100
AcDbEntity
  8
1
  6
Continuous
100
AcDbCircle
 10
146.9777579999997
 20
277.794685
 30
0.0
 40
0.3
100
AcDbArc
 50
0.0
 51
90.0
  0
LINE
  5
3110
330
301F
100
AcDbEntity
  8
1
  6
Continuous
100
AcDbLine
 10
144.277758
 20
278.094685
 30
0.0
 11
146.9777579999997
 21
278.094685
 31
0.0
  0
LINE
  5
3111
330
301F
100
AcDbEntity
  8
2
  6
Continuous
100
AcDbLine
 10
144.277758
 20
274.7751309999998
 30
0.0
 11
146.9777579999997
 21
277.7627299999999
 31
0.0
  0
LINE
  5
3112
330
301F
100
AcDbEntity
  8
2
  6
Continuous
100
AcDbLine
 10
144.277758
 20
275.881649
 30
0.0
 11
146.9777579999997
 21
272.894051
 31
0.0
  0
LINE
  5
3113
330
301F
100
AcDbEntity
  8
1
  6
Continuous
100
AcDbLine
 10
144.277758
 20
272.562095
 30
0.0
 11
146.9777579999997
 21
272.562095
 31
0.0
  0
ARC
  5
3114
330
301F
100
AcDbEntity
  8
1
  6
Continuous
100
AcDbCircle
 10
146.9777579999997
 20
267.3295049999999
 30
0.0
 40
0.3
100
AcDbArc
 50
270.0
 51
0.0
  0
LINE
  5
3115
330
301F
100
AcDbEntity
  8
1
  6
Continuous
100
AcDbLine
 10
141.777758
 20
265.5620949999997
 30
0.0
 11
142.2777579999998
 21
265.5620949999997
 31
0.0
  0
LINE
  5
3116
330
301F
100
AcDbEntity
  8
1
  6
Continuous
100
AcDbLine
 10
144.277758
 20
261.5620949999997
 30
0.0
 11
142.2777579999998
 21
261.5620949999997
 31
0.0
  0
LINE
  5
3117
330
301F
100
AcDbEntity
  8
2
  6
Continuous
100
AcDbLine
 10
144.277758
 20
270.349059
 30
0.0
 11
146.9777579999997
 21
267.36146
 31
0.0
  0
LINE
  5
3118
330
301F
100
AcDbEntity
  8
1
  6
Continuous
100
AcDbLine
 10
144.277758
 20
267.0295049999999
 30
0.0
 11
146.9777579999997
 21
267.0295049999999
 31
0.0
  0
LINE
  5
3119
330
301F
100
AcDbEntity
  8
1
  6
Continuous
100
AcDbLine
 10
147.2777579999998
 20
277.794685
 30
0.0
 11
147.2777579999998
 21
267.3295049999999
 31
0.0
  0
LINE
  5
311A
330
301F
100
AcDbEntity
  8
2
  6
Continuous
100
AcDbLine
 10
144.277758
 20
269.242541
 30
0.0
 11
146.9777579999997
 21
272.23014
 31
0.0
  0
ARC
  5
311B
330
301F
100
AcDbEntity
  8
1
  6
Continuous
100
AcDbCircle
 10
115.777758
 20
289.4067999999998
 30
0.0
 40
0.5
100
AcDbArc
 50
145.491477
 51
180.0
  0
LINE
  5
311C
330
301F
100
AcDbEntity
  8
1
  6
Continuous
100
AcDbLine
 10
129.7777579999997
 20
275.8120949999999
 30
0.0
 11
129.277758
 21
275.8120949999999
 31
0.0
  0
LINE
  5
311D
330
301F
100
AcDbEntity
  8
1
  6
Continuous
100
AcDbLine
 10
144.0777579999999
 20
279.2620949999998
 30
0.0
 11
144.0777579999999
 21
265.8620949999999
 31
0.0
  0
LINE
  5
311E
330
301F
100
AcDbEntity
  8
1
  6
Continuous
100
AcDbLine
 10
143.777758
 20
265.5620949999997
 30
0.0
 11
141.777758
 21
265.5620949999997
 31
0.0
  0
ARC
  5
311F
330
301F
100
AcDbEntity
  8
1
  6
Continuous
100
AcDbCircle
 10
143.777758
 20
265.8620949999999
 30
0.0
 40
0.3
100
AcDbArc
 50
270.0
 51
0.0
  0
LINE
  5
3120
330
301F
100
AcDbEntity
  8
1
  6
Continuous
100
AcDbLine
 10
144.277758
 20
278.0620949999997
 30
0.0
 11
144.0777579999999
 21
278.0620949999997
 31
0.0
  0
LINE
  5
3121
330
301F
100
AcDbEntity
  8
1
  6
Continuous
100
AcDbLine
 10
144.277758
 20
279.312095
 30
0.0
 11
144.0777579999999
 21
279.312095
 31
0.0
  0
LINE
  5
3122
330
301F
100
AcDbEntity
  8
1
  6
Continuous
100
AcDbLine
 10
141.777758
 20
279.5620949999999
 30
0.0
 11
142.2777579999998
 21
279.5620949999999
 31
0.0
  0
ARC
  5
3123
330
301F
100
AcDbEntity
  8
1
  6
Continuous
100
AcDbCircle
 10
178.277758
 20
288.812095
 30
0.0
 40
1.0
100
AcDbArc
 50
0.0
 51
180.0
  0
LINE
  5
3124
330
301F
100
AcDbEntity
  8
4
  6
CENTER
100
AcDbLine
 10
174.277758
 20
272.562095
 30
0.0
 11
229.7777579999999
 21
272.562095
 31
0.0
  0
LINE
  5
3125
330
301F
100
AcDbEntity
  8
1
  6
Continuous
100
AcDbLine
 10
181.277758
 20
272.562095
 30
0.0
 11
184.7777579999998
 21
272.562095
 31
0.0
  0
LINE
  5
3126
330
301F
100
AcDbEntity
  8
1
  6
Continuous
100
AcDbLine
 10
203.277758
 20
281.5620949999999
 30
0.0
 11
203.277758
 21
263.5620949999997
 31
0.0
  0
LINE
  5
3127
330
301F
100
AcDbEntity
  8
1
  6
Continuous
100
AcDbLine
 10
202.277758
 20
281.5620949999999
 30
0.0
 11
202.277758
 21
263.5620949999997
 31
0.0
  0
LINE
  5
3128
330
301F
100
AcDbEntity
  8
1
  6
Continuous
100
AcDbLine
 10
202.277758
 20
263.5620949999997
 30
0.0
 11
203.277758
 21
263.5620949999997
 31
0.0
  0
LINE
  5
3129
330
301F
100
AcDbEntity
  8
1
  6
Continuous
100
AcDbLine
 10
221.977758
 20
278.562095
 30
0.0
 11
221.977758
 21
266.562095
 31
0.0
  0
LINE
  5
312A
330
301F
100
AcDbEntity
  8
1
  6
Continuous
100
AcDbLine
 10
221.177758
 20
278.562095
 30
0.0
 11
221.177758
 21
266.562095
 31
0.0
  0
LINE
  5
312B
330
301F
100
AcDbEntity
  8
1
  6
Continuous
100
AcDbLine
 10
221.977758
 20
271.2620949999998
 30
0.0
 11
223.277758
 21
272.562095
 31
0.0
  0
LINE
  5
312C
330
301F
100
AcDbEntity
  8
1
  6
Continuous
100
AcDbLine
 10
221.977758
 20
272.562095
 30
0.0
 11
223.277758
 21
273.862095
 31
0.0
  0
LINE
  5
312D
330
301F
100
AcDbEntity
  8
1
  6
Continuous
100
AcDbLine
 10
223.277758
 20
276.812095
 30
0.0
 11
223.277758
 21
268.312095
 31
0.0
  0
LINE
  5
312E
330
301F
100
AcDbEntity
  8
1
  6
Continuous
100
AcDbLine
 10
221.177758
 20
266.562095
 30
0.0
 11
221.977758
 21
266.562095
 31
0.0
  0
LINE
  5
312F
330
301F
100
AcDbEntity
  8
1
  6
Continuous
100
AcDbLine
 10
221.977758
 20
268.312095
 30
0.0
 11
223.277758
 21
268.312095
 31
0.0
  0
LINE
  5
3130
330
301F
100
AcDbEntity
  8
1
  6
Continuous
100
AcDbLine
 10
221.977758
 20
276.812095
 30
0.0
 11
223.277758
 21
276.812095
 31
0.0
  0
LINE
  5
3131
330
301F
100
AcDbEntity
  8
1
  6
Continuous
100
AcDbLine
 10
202.277758
 20
281.5620949999999
 30
0.0
 11
203.277758
 21
281.5620949999999
 31
0.0
  0
LINE
  5
3132
330
301F
100
AcDbEntity
  8
1
  6
Continuous
100
AcDbLine
 10
221.177758
 20
278.562095
 30
0.0
 11
221.977758
 21
278.562095
 31
0.0
  0
LINE
  5
3133
330
301F
100
AcDbEntity
  8
1
  6
Continuous
100
AcDbLine
 10
127.677758
 20
297.562095
 30
0.0
 11
127.9777579999998
 21
297.2620949999998
 31
0.0
  0
ARC
  5
3134
330
301F
100
AcDbEntity
  8
1
  6
Continuous
100
AcDbCircle
 10
121.040773
 20
297.062095
 30
0.0
 40
0.5
100
AcDbArc
 50
90.0
 51
145.491477
  0
LINE
  5
3135
330
301F
100
AcDbEntity
  8
1
  6
Continuous
100
AcDbLine
 10
121.040773
 20
297.562095
 30
0.0
 11
127.677758
 21
297.562095
 31
0.0
  0
LINE
  5
3136
330
301F
100
AcDbEntity
  8
1
  6
Continuous
100
AcDbLine
 10
128.277758
 20
296.5620949999999
 30
0.0
 11
129.277758
 21
296.5620949999999
 31
0.0
  0
LINE
  5
3137
330
301F
100
AcDbEntity
  8
1
  6
Continuous
100
AcDbLine
 10
127.9777579999998
 20
295.312095
 30
0.0
 11
128.277758
 21
295.012095
 31
0.0
  0
ARC
  5
3138
330
301F
100
AcDbEntity
  8
1
  6
Continuous
100
AcDbCircle
 10
184.7777579999998
 20
292.5620949999997
 30
0.0
 40
0.5
100
AcDbArc
 50
0.0
 51
90.0
  0
ARC
  5
3139
330
301F
100
AcDbEntity
  8
1
  6
Continuous
100
AcDbCircle
 10
121.040773
 20
248.062095
 30
0.0
 40
0.5
100
AcDbArc
 50
214.5085229999999
 51
270.0
  0
LINE
  5
313A
330
301F
100
AcDbEntity
  8
1
  6
Continuous
100
AcDbLine
 10
115.365737
 20
255.4341259999999
 30
0.0
 11
120.628752
 21
247.778831
 31
0.0
  0
ARC
  5
313B
330
301F
100
AcDbEntity
  8
1
  6
Continuous
100
AcDbCircle
 10
115.777758
 20
255.7173899999999
 30
0.0
 40
0.5
100
AcDbArc
 50
180.0
 51
214.5085229999999
  0
LINE
  5
313C
330
301F
100
AcDbEntity
  8
1
  6
Continuous
100
AcDbLine
 10
177.277758
 20
272.562095
 30
0.0
 11
179.277758
 21
274.562095
 31
0.0
  0
LINE
  5
313D
330
301F
100
AcDbEntity
  8
1
  6
Continuous
100
AcDbLine
 10
177.277758
 20
270.562095
 30
0.0
 11
179.277758
 21
272.562095
 31
0.0
  0
LINE
  5
313E
330
301F
100
AcDbEntity
  8
1
  6
Continuous
100
AcDbLine
 10
180.7777579999997
 20
293.062095
 30
0.0
 11
184.7777579999998
 21
293.062095
 31
0.0
  0
LINE
  5
313F
330
301F
100
AcDbEntity
  8
1
  6
Continuous
100
AcDbLine
 10
180.7777579999997
 20
252.062095
 30
0.0
 11
184.7777579999998
 21
252.062095
 31
0.0
  0
ARC
  5
3140
330
301F
100
AcDbEntity
  8
1
  6
Continuous
100
AcDbCircle
 10
184.7777579999998
 20
252.562095
 30
0.0
 40
0.5
100
AcDbArc
 50
270.0
 51
0.0
  0
LINE
  5
3141
330
301F
100
AcDbEntity
  8
1
  6
Continuous
100
AcDbLine
 10
177.277758
 20
167.562095
 30
0.0
 11
179.277758
 21
169.562095
 31
0.0
  0
LINE
  5
3142
330
301F
100
AcDbEntity
  8
1
  6
Continuous
100
AcDbLine
 10
177.277758
 20
165.562095
 30
0.0
 11
179.277758
 21
167.562095
 31
0.0
  0
ARC
  5
3143
330
301F
100
AcDbEntity
  8
2
  6
Continuous
100
AcDbCircle
 10
296.7777889999999
 20
167.562095
 30
0.0
 40
15.0
100
AcDbArc
 50
158.96053
 51
201.03947
  0
ARC
  5
3144
330
301F
100
AcDbEntity
  8
2
  6
Continuous
100
AcDbCircle
 10
296.7777889999999
 20
167.562095
 30
0.0
 40
15.0
100
AcDbArc
 50
338.9605299999999
 51
21.03947
  0
ARC
  5
3145
330
301F
100
AcDbEntity
  8
1
  6
Continuous
100
AcDbCircle
 10
296.7777889999999
 20
167.562095
 30
0.0
 40
14.188
100
AcDbArc
 50
170.6623689999999
 51
189.3376309999998
  0
ARC
  5
3146
330
301F
100
AcDbEntity
  8
1
  6
Continuous
100
AcDbCircle
 10
296.7777889999999
 20
167.562095
 30
0.0
 40
14.188
100
AcDbArc
 50
350.662369
 51
9.337631
  0
LINE
  5
3147
330
301F
100
AcDbEntity
  8
1
  6
Continuous
100
AcDbLine
 10
129.277758
 20
258.562095
 30
0.0
 11
141.777758
 21
258.562095
 31
0.0
  0
LINE
  5
3148
330
301F
100
AcDbEntity
  8
1
  6
Continuous
100
AcDbLine
 10
129.277758
 20
286.5620949999997
 30
0.0
 11
141.777758
 21
286.5620949999997
 31
0.0
  0
LINE
  5
3149
330
301F
100
AcDbEntity
  8
1
  6
Continuous
100
AcDbLine
 10
129.7777579999997
 20
269.3120949999999
 30
0.0
 11
129.277758
 21
269.3120949999999
 31
0.0
  0
LINE
  5
314A
330
301F
100
AcDbEntity
  8
1
  6
Continuous
100
AcDbLine
 10
143.777758
 20
279.5620949999999
 30
0.0
 11
141.777758
 21
279.5620949999999
 31
0.0
  0
ARC
  5
314B
330
301F
100
AcDbEntity
  8
1
  6
Continuous
100
AcDbCircle
 10
143.777758
 20
279.2620949999998
 30
0.0
 40
0.3
100
AcDbArc
 50
0.0
 51
90.0
  0
LINE
  5
314C
330
301F
100
AcDbEntity
  8
1
  6
Continuous
100
AcDbLine
 10
142.2777579999998
 20
265.5620949999997
 30
0.0
 11
142.2777579999998
 21
260.8707519999999
 31
0.0
  0
LINE
  5
314D
330
301F
100
AcDbEntity
  8
1
  6
Continuous
100
AcDbLine
 10
142.2777579999998
 20
286.0620949999999
 30
0.0
 11
144.277758
 21
286.0620949999999
 31
0.0
  0
LINE
  5
314E
330
301F
100
AcDbEntity
  8
1
  6
Continuous
100
AcDbLine
 10
141.777758
 20
279.5620949999999
 30
0.0
 11
142.2777579999998
 21
279.5620949999999
 31
0.0
  0
LINE
  5
314F
330
301F
100
AcDbEntity
  8
1
  6
Continuous
100
AcDbLine
 10
141.777758
 20
265.5620949999997
 30
0.0
 11
142.2777579999998
 21
265.5620949999997
 31
0.0
  0
ARC
  5
3150
330
301F
100
AcDbEntity
  8
1
  6
Continuous
100
AcDbCircle
 10
221.002781
 20
274.562095
 30
0.0
 40
5.774976999999998
100
AcDbArc
 50
339.7375
 51
20.2625
  0
ARC
  5
3151
330
301F
100
AcDbEntity
  8
1
  6
Continuous
100
AcDbCircle
 10
229.052735
 20
274.562095
 30
0.0
 40
5.774976999999998
100
AcDbArc
 50
159.7375
 51
200.2625
  0
LINE
  5
3152
330
301F
100
AcDbEntity
  8
1
  6
Continuous
100
AcDbLine
 10
226.777758
 20
276.562095
 30
0.0
 11
226.777758
 21
268.562095
 31
0.0
  0
LINE
  5
3153
330
301F
100
AcDbEntity
  8
1
  6
Continuous
100
AcDbLine
 10
223.277758
 20
276.562095
 30
0.0
 11
223.277758
 21
268.562095
 31
0.0
  0
LINE
  5
3154
330
301F
100
AcDbEntity
  8
1
  6
Continuous
100
AcDbLine
 10
223.6351379999999
 20
272.562095
 30
0.0
 11
226.4203779999998
 21
272.562095
 31
0.0
  0
LINE
  5
3155
330
301F
100
AcDbEntity
  8
1
  6
Continuous
100
AcDbLine
 10
226.777758
 20
268.562095
 30
0.0
 11
223.277758
 21
268.562095
 31
0.0
  0
ARC
  5
3156
330
301F
100
AcDbEntity
  8
1
  6
Continuous
100
AcDbCircle
 10
229.052735
 20
270.562095
 30
0.0
 40
5.774976999999998
100
AcDbArc
 50
159.7375
 51
200.2625
  0
ARC
  5
3157
330
301F
100
AcDbEntity
  8
1
  6
Continuous
100
AcDbCircle
 10
221.002781
 20
270.562095
 30
0.0
 40
5.774976999999998
100
AcDbArc
 50
339.7375
 51
20.2625
  0
LINE
  5
3158
330
301F
100
AcDbEntity
  8
1
  6
Continuous
100
AcDbLine
 10
226.777758
 20
276.562095
 30
0.0
 11
223.277758
 21
276.562095
 31
0.0
  0
LINE
  5
3159
330
301F
100
AcDbEntity
  8
1
  6
Continuous
100
AcDbLine
 10
298.745641
 20
228.9359779999998
 30
0.0
 11
297.9883849999998
 21
228.151816
 31
0.0
  0
LINE
  5
315A
330
301F
100
AcDbEntity
  8
1
  6
Continuous
100
AcDbLine
 10
294.809936
 20
228.9359779999998
 30
0.0
 11
295.5671919999998
 21
228.151816
 31
0.0
  0
LINE
  5
315B
330
301F
100
AcDbEntity
  8
1
  6
Continuous
100
AcDbLine
 10
295.403905
 20
229.529948
 30
0.0
 11
296.1880679999998
 21
228.7726909999999
 31
0.0
  0
LINE
  5
315C
330
301F
100
AcDbEntity
  8
1
  6
Continuous
100
AcDbLine
 10
298.151672
 20
229.529948
 30
0.0
 11
297.3675099999999
 21
228.7726909999999
 31
0.0
  0
CIRCLE
  5
315D
330
301F
100
AcDbEntity
  8
1
  6
Continuous
100
AcDbCircle
 10
296.7777889999999
 20
227.562095
 30
0.0
 40
3.1
  0
CIRCLE
  5
315E
330
301F
100
AcDbEntity
  8
1
  6
Continuous
100
AcDbCircle
 10
296.7777889999999
 20
227.562095
 30
0.0
 40
4.0
  0
LINE
  5
315F
330
301F
100
AcDbEntity
  8
1
  6
Continuous
100
AcDbLine
 10
300.7777889999999
 20
225.252095
 30
0.0
 11
300.7777889999999
 21
229.871095
 31
0.0
  0
LINE
  5
3160
330
301F
100
AcDbEntity
  8
1
  6
Continuous
100
AcDbLine
 10
292.7777889999999
 20
225.252095
 30
0.0
 11
292.7777889999999
 21
229.871095
 31
0.0
  0
ARC
  5
3161
330
301F
100
AcDbEntity
  8
1
  6
Continuous
100
AcDbCircle
 10
296.7777889999999
 20
227.562095
 30
0.0
 40
2.399999999999999
100
AcDbArc
 50
304.921342
 51
325.078658
  0
LINE
  5
3162
330
301F
100
AcDbEntity
  8
1
  6
Continuous
100
AcDbLine
 10
298.745641
 20
226.188212
 30
0.0
 11
297.9883849999998
 21
226.972374
 31
0.0
  0
LINE
  5
3163
330
301F
100
AcDbEntity
  8
1
  6
Continuous
100
AcDbLine
 10
300.7777889999999
 20
225.253095
 30
0.0
 11
296.7777889999999
 21
222.943095
 31
0.0
  0
LINE
  5
3164
330
301F
100
AcDbEntity
  8
1
  6
Continuous
100
AcDbLine
 10
292.7777889999999
 20
225.252095
 30
0.0
 11
296.7777889999999
 21
222.943095
 31
0.0
  0
LINE
  5
3165
330
301F
100
AcDbEntity
  8
1
  6
Continuous
100
AcDbLine
 10
296.7777889999999
 20
228.5580509999999
 30
0.0
 11
296.1880679999998
 21
228.7726909999999
 31
0.0
  0
LINE
  5
3166
330
301F
100
AcDbEntity
  8
1
  6
Continuous
100
AcDbLine
 10
296.7777889999999
 20
226.5661399999999
 30
0.0
 11
296.1880679999998
 21
226.351499
 31
0.0
  0
ARC
  5
3167
330
301F
100
AcDbEntity
  8
1
  6
Continuous
100
AcDbCircle
 10
296.7777889999999
 20
227.562095
 30
0.0
 40
2.399999999999999
100
AcDbArc
 50
214.921342
 51
235.0786579999998
  0
LINE
  5
3168
330
301F
100
AcDbEntity
  8
1
  6
Continuous
100
AcDbLine
 10
294.809936
 20
226.188212
 30
0.0
 11
295.5671919999998
 21
226.972374
 31
0.0
  0
LINE
  5
3169
330
301F
100
AcDbEntity
  8
1
  6
Continuous
100
AcDbLine
 10
295.781833
 20
227.562095
 30
0.0
 11
295.5671919999998
 21
226.972374
 31
0.0
  0
LINE
  5
316A
330
301F
100
AcDbEntity
  8
1
  6
Continuous
100
AcDbLine
 10
295.781833
 20
227.562095
 30
0.0
 11
295.5671919999998
 21
228.151816
 31
0.0
  0
LINE
  5
316B
330
301F
100
AcDbEntity
  8
1
  6
Continuous
100
AcDbLine
 10
295.403905
 20
225.5942419999998
 30
0.0
 11
296.1880679999998
 21
226.351499
 31
0.0
  0
LINE
  5
316C
330
301F
100
AcDbEntity
  8
1
  6
Continuous
100
AcDbLine
 10
296.7777889999999
 20
226.5661399999999
 30
0.0
 11
297.3675099999999
 21
226.351499
 31
0.0
  0
LINE
  5
316D
330
301F
100
AcDbEntity
  8
1
  6
Continuous
100
AcDbLine
 10
296.7777889999999
 20
228.5580509999999
 30
0.0
 11
297.3675099999999
 21
228.7726909999999
 31
0.0
  0
LINE
  5
316E
330
301F
100
AcDbEntity
  8
1
  6
Continuous
100
AcDbLine
 10
297.773744
 20
227.562095
 30
0.0
 11
297.9883849999998
 21
226.972374
 31
0.0
  0
LINE
  5
316F
330
301F
100
AcDbEntity
  8
1
  6
Continuous
100
AcDbLine
 10
298.151672
 20
225.5942419999998
 30
0.0
 11
297.3675099999999
 21
226.351499
 31
0.0
  0
LINE
  5
3170
330
301F
100
AcDbEntity
  8
1
  6
Continuous
100
AcDbLine
 10
297.773744
 20
227.562095
 30
0.0
 11
297.9883849999998
 21
228.151816
 31
0.0
  0
ARC
  5
3171
330
301F
100
AcDbEntity
  8
1
  6
Continuous
100
AcDbCircle
 10
296.7777889999999
 20
227.562095
 30
0.0
 40
2.399999999999999
100
AcDbArc
 50
34.92134199999998
 51
55.078658
  0
LINE
  5
3172
330
301F
100
AcDbEntity
  8
1
  6
Continuous
100
AcDbLine
 10
296.7777889999999
 20
232.181095
 30
0.0
 11
300.7777889999999
 21
229.871095
 31
0.0
  0
LINE
  5
3173
330
301F
100
AcDbEntity
  8
1
  6
Continuous
100
AcDbLine
 10
296.7777889999999
 20
232.181095
 30
0.0
 11
292.7777889999999
 21
229.871095
 31
0.0
  0
ARC
  5
3174
330
301F
100
AcDbEntity
  8
1
  6
Continuous
100
AcDbCircle
 10
296.7777889999999
 20
227.562095
 30
0.0
 40
2.399999999999999
100
AcDbArc
 50
124.921342
 51
145.0786579999999
  0
CIRCLE
  5
3175
330
301F
100
AcDbEntity
  8
1
  6
Continuous
100
AcDbCircle
 10
296.7777889999999
 20
227.562095
 30
0.0
 40
9.0
  0
CIRCLE
  5
3176
330
301F
100
AcDbEntity
  8
1
  6
Continuous
100
AcDbCircle
 10
296.7777889999999
 20
227.562095
 30
0.0
 40
6.0
  0
ARC
  5
3177
330
301F
100
AcDbEntity
  8
1
  6
Continuous
100
AcDbCircle
 10
296.7777889999999
 20
227.562095
 30
0.0
 40
4.25
100
AcDbArc
 50
100.2529999999999
 51
139.7598679999999
  0
ARC
  5
3178
330
301F
100
AcDbEntity
  8
1
  6
Continuous
100
AcDbCircle
 10
296.7777889999999
 20
227.562095
 30
0.0
 40
4.25
100
AcDbArc
 50
40.240132
 51
79.747
  0
ARC
  5
3179
330
301F
100
AcDbEntity
  8
1
  6
Continuous
100
AcDbCircle
 10
296.7777889999999
 20
227.562095
 30
0.0
 40
4.25
100
AcDbArc
 50
340.2500769999999
 51
19.749923
  0
ARC
  5
317A
330
301F
100
AcDbEntity
  8
1
  6
Continuous
100
AcDbCircle
 10
296.7777889999999
 20
227.562095
 30
0.0
 40
4.25
100
AcDbArc
 50
280.2529999999998
 51
319.759868
  0
ARC
  5
317B
330
301F
100
AcDbEntity
  8
1
  6
Continuous
100
AcDbCircle
 10
296.7777889999999
 20
227.562095
 30
0.0
 40
4.25
100
AcDbArc
 50
220.268155
 51
259.7404629999999
  0
ARC
  5
317C
330
301F
100
AcDbEntity
  8
1
  6
Continuous
100
AcDbCircle
 10
296.7777889999999
 20
227.562095
 30
0.0
 40
4.25
100
AcDbArc
 50
160.2500769999998
 51
199.749923
  0
LINE
  5
317D
330
301F
100
AcDbEntity
  8
4
  6
CENTER
100
AcDbLine
 10
174.277758
 20
167.562095
 30
0.0
 11
229.7777579999999
 21
167.562095
 31
0.0
  0
LINE
  5
317E
330
301F
100
AcDbEntity
  8
4
  6
CENTER
100
AcDbLine
 10
481.277819
 20
167.562095
 30
0.0
 11
443.5778189999998
 21
167.562095
 31
0.0
  0
LINE
  5
317F
330
301F
100
AcDbEntity
  8
2
  6
Continuous
100
AcDbLine
 10
461.9778189999998
 20
153.3740949999998
 30
0.0
 11
451.965819
 21
153.3740949999998
 31
0.0
  0
LINE
  5
3180
330
301F
100
AcDbEntity
  8
2
  6
Continuous
100
AcDbLine
 10
463.477819
 20
152.5620949999999
 30
0.0
 11
461.9778189999998
 21
153.3740949999998
 31
0.0
  0
LINE
  5
3181
330
301F
100
AcDbEntity
  8
1
  6
Continuous
100
AcDbLine
 10
463.477819
 20
152.5620949999999
 30
0.0
 11
452.777819
 21
152.5620949999999
 31
0.0
  0
LINE
  5
3182
330
301F
100
AcDbEntity
  8
2
  6
Continuous
100
AcDbLine
 10
464.277819
 20
172.085634
 30
0.0
 11
452.777819
 21
162.1769299999999
 31
0.0
  0
LINE
  5
3183
330
301F
100
AcDbEntity
  8
1
  6
Continuous
100
AcDbLine
 10
452.777819
 20
162.1769299999999
 30
0.0
 11
464.277819
 21
162.1769299999999
 31
0.0
  0
LINE
  5
3184
330
301F
100
AcDbEntity
  8
1
  6
Continuous
100
AcDbLine
 10
452.777819
 20
172.94726
 30
0.0
 11
464.277819
 21
172.94726
 31
0.0
  0
LINE
  5
3185
330
301F
100
AcDbEntity
  8
2
  6
Continuous
100
AcDbLine
 10
464.277819
 20
163.038557
 30
0.0
 11
452.777819
 21
172.94726
 31
0.0
  0
LINE
  5
3186
330
301F
100
AcDbEntity
  8
2
  6
Continuous
100
AcDbLine
 10
463.477819
 20
182.562095
 30
0.0
 11
461.9778189999998
 21
181.7500949999999
 31
0.0
  0
LINE
  5
3187
330
301F
100
AcDbEntity
  8
1
  6
Continuous
100
AcDbLine
 10
463.477819
 20
182.562095
 30
0.0
 11
452.777819
 21
182.562095
 31
0.0
  0
LINE
  5
3188
330
301F
100
AcDbEntity
  8
1
  6
Continuous
100
AcDbLine
 10
465.8778189999998
 20
142.562095
 30
0.0
 11
465.8778189999998
 21
192.562095
 31
0.0
  0
LINE
  5
3189
330
301F
100
AcDbEntity
  8
1
  6
Continuous
100
AcDbLine
 10
465.5778189999998
 20
142.8620949999998
 30
0.0
 11
465.5778189999998
 21
192.2620949999999
 31
0.0
  0
LINE
  5
318A
330
301F
100
AcDbEntity
  8
1
  6
Continuous
100
AcDbLine
 10
464.277819
 20
191.562095
 30
0.0
 11
464.277819
 21
143.562095
 31
0.0
  0
LINE
  5
318B
330
301F
100
AcDbEntity
  8
1
  6
Continuous
100
AcDbLine
 10
463.477819
 20
185.5120949999999
 30
0.0
 11
463.477819
 21
182.2057799999998
 31
0.0
  0
LINE
  5
318C
330
301F
100
AcDbEntity
  8
1
  6
Continuous
100
AcDbLine
 10
465.277819
 20
191.562095
 30
0.0
 11
465.277819
 21
143.562095
 31
0.0
  0
LINE
  5
318D
330
301F
100
AcDbEntity
  8
1
  6
Continuous
100
AcDbLine
 10
478.277819
 20
184.4068
 30
0.0
 11
478.277819
 21
143.0620949999999
 31
0.0
  0
LINE
  5
318E
330
301F
100
AcDbEntity
  8
1
  6
Continuous
100
AcDbLine
 10
470.7778189999998
 20
142.562095
 30
0.0
 11
470.7778189999998
 21
149.5620949999999
 31
0.0
  0
LINE
  5
318F
330
301F
100
AcDbEntity
  8
1
  6
Continuous
100
AcDbLine
 10
475.877819
 20
142.562095
 30
0.0
 11
475.877819
 21
149.5620949999999
 31
0.0
  0
LINE
  5
3190
330
301F
100
AcDbEntity
  8
1
  6
Continuous
100
AcDbLine
 10
477.777819
 20
142.562095
 30
0.0
 11
475.877819
 21
142.562095
 31
0.0
  0
ARC
  5
3191
330
301F
100
AcDbEntity
  8
1
  6
Continuous
100
AcDbCircle
 10
477.777819
 20
143.0620949999999
 30
0.0
 40
0.5
100
AcDbArc
 50
270.0
 51
0.0
  0
LINE
  5
3192
330
301F
100
AcDbEntity
  8
1
  6
Continuous
100
AcDbLine
 10
470.7778189999998
 20
142.562095
 30
0.0
 11
465.8778189999998
 21
142.562095
 31
0.0
  0
LINE
  5
3193
330
301F
100
AcDbEntity
  8
1
  6
Continuous
100
AcDbLine
 10
465.5778189999998
 20
144.812095
 30
0.0
 11
465.277819
 21
145.1120949999999
 31
0.0
  0
LINE
  5
3194
330
301F
100
AcDbEntity
  8
1
  6
Continuous
100
AcDbLine
 10
465.277819
 20
143.562095
 30
0.0
 11
464.277819
 21
143.562095
 31
0.0
  0
LINE
  5
3195
330
301F
100
AcDbEntity
  8
1
  6
Continuous
100
AcDbLine
 10
465.5778189999998
 20
142.8620949999998
 30
0.0
 11
465.8778189999998
 21
142.562095
 31
0.0
  0
LINE
  5
3196
330
301F
100
AcDbEntity
  8
1
  6
Continuous
100
AcDbLine
 10
475.877819
 20
149.5620949999999
 30
0.0
 11
470.7778189999998
 21
149.5620949999999
 31
0.0
  0
ARC
  5
3197
330
301F
100
AcDbEntity
  8
1
  6
Continuous
100
AcDbCircle
 10
463.777819
 20
149.6120949999999
 30
0.0
 40
0.3
100
AcDbArc
 50
180.0
 51
270.0
  0
LINE
  5
3198
330
301F
100
AcDbEntity
  8
1
  6
Continuous
100
AcDbLine
 10
463.777819
 20
149.3120949999999
 30
0.0
 11
464.277819
 21
149.3120949999999
 31
0.0
  0
LINE
  5
3199
330
301F
100
AcDbEntity
  8
1
  6
Continuous
100
AcDbLine
 10
463.477819
 20
152.9184109999999
 30
0.0
 11
464.277819
 21
152.9184109999999
 31
0.0
  0
LINE
  5
319A
330
301F
100
AcDbEntity
  8
1
  6
Continuous
100
AcDbLine
 10
472.777819
 20
191.679528
 30
0.0
 11
472.777819
 21
167.562095
 31
0.0
  0
LINE
  5
319B
330
301F
100
AcDbEntity
  8
1
  6
Continuous
100
AcDbLine
 10
478.1898400000001
 20
184.690065
 30
0.0
 11
472.926825
 21
192.34536
 31
0.0
  0
ARC
  5
319C
330
301F
100
AcDbEntity
  8
1
  6
Continuous
100
AcDbCircle
 10
477.777819
 20
184.4068
 30
0.0
 40
0.5
100
AcDbArc
 50
0.0
 51
34.50852299999999
  0
LINE
  5
319D
330
301F
100
AcDbEntity
  8
1
  6
Continuous
100
AcDbLine
 10
463.777819
 20
185.8120949999999
 30
0.0
 11
464.277819
 21
185.8120949999999
 31
0.0
  0
LINE
  5
319E
330
301F
100
AcDbEntity
  8
1
  6
Continuous
100
AcDbLine
 10
465.5778189999998
 20
190.3120949999999
 30
0.0
 11
465.277819
 21
190.0120949999999
 31
0.0
  0
ARC
  5
319F
330
301F
100
AcDbEntity
  8
1
  6
Continuous
100
AcDbCircle
 10
463.777819
 20
185.5120949999999
 30
0.0
 40
0.3
100
AcDbArc
 50
90.0
 51
180.0
  0
LINE
  5
31A0
330
301F
100
AcDbEntity
  8
1
  6
Continuous
100
AcDbLine
 10
463.477819
 20
182.2057799999998
 30
0.0
 11
464.277819
 21
182.2057799999998
 31
0.0
  0
LINE
  5
31A1
330
301F
100
AcDbEntity
  8
1
  6
Continuous
100
AcDbLine
 10
472.514804
 20
192.562095
 30
0.0
 11
465.8778189999998
 21
192.562095
 31
0.0
  0
ARC
  5
31A2
330
301F
100
AcDbEntity
  8
1
  6
Continuous
100
AcDbCircle
 10
472.514804
 20
192.0620949999999
 30
0.0
 40
0.5
100
AcDbArc
 50
34.50852299999999
 51
90.0
  0
LINE
  5
31A3
330
301F
100
AcDbEntity
  8
1
  6
Continuous
100
AcDbLine
 10
465.277819
 20
191.562095
 30
0.0
 11
464.277819
 21
191.562095
 31
0.0
  0
LINE
  5
31A4
330
301F
100
AcDbEntity
  8
1
  6
Continuous
100
AcDbLine
 10
465.8778189999998
 20
192.562095
 30
0.0
 11
465.5778189999998
 21
192.2620949999999
 31
0.0
  0
LINE
  5
31A5
330
301F
100
AcDbEntity
  8
4
  6
CENTER
100
AcDbLine
 10
419.277819
 20
167.562095
 30
0.0
 11
363.777819
 21
167.562095
 31
0.0
  0
LINE
  5
31A6
330
301F
100
AcDbEntity
  8
1
  6
Continuous
100
AcDbLine
 10
414.277819
 20
187.0620949999999
 30
0.0
 11
414.277819
 21
148.062095
 31
0.0
  0
LINE
  5
31A7
330
301F
100
AcDbEntity
  8
1
  6
Continuous
100
AcDbLine
 10
412.7778189999999
 20
190.578756
 30
0.0
 11
412.7778189999999
 21
144.545435
 31
0.0
  0
LINE
  5
31A8
330
301F
100
AcDbEntity
  8
1
  6
Continuous
100
AcDbLine
 10
408.2778189999998
 20
190.578756
 30
0.0
 11
408.2778189999998
 21
144.545435
 31
0.0
  0
LINE
  5
31A9
330
301F
100
AcDbEntity
  8
1
  6
Continuous
100
AcDbLine
 10
416.277819
 20
151.312095
 30
0.0
 11
416.277819
 21
183.812095
 31
0.0
  0
LINE
  5
31AA
330
301F
100
AcDbEntity
  8
1
  6
Continuous
100
AcDbLine
 10
449.277819
 20
179.062095
 30
0.0
 11
449.277819
 21
154.062095
 31
0.0
  0
LINE
  5
31AB
330
301F
100
AcDbEntity
  8
1
  6
Continuous
100
AcDbLine
 10
451.777819
 20
181.5620949999999
 30
0.0
 11
451.777819
 21
153.562095
 31
0.0
  0
LINE
  5
31AC
330
301F
100
AcDbEntity
  8
1
  6
Continuous
100
AcDbLine
 10
451.277819
 20
179.062095
 30
0.0
 11
451.277819
 21
154.062095
 31
0.0
  0
LINE
  5
31AD
330
301F
100
AcDbEntity
  8
1
  6
Continuous
100
AcDbLine
 10
452.777819
 20
152.5620949999999
 30
0.0
 11
452.777819
 21
162.1769299999999
 31
0.0
  0
LINE
  5
31AE
330
301F
100
AcDbEntity
  8
1
  6
Continuous
100
AcDbLine
 10
461.9778189999998
 20
182.562095
 30
0.0
 11
461.9778189999998
 21
172.94726
 31
0.0
  0
LINE
  5
31AF
330
301F
100
AcDbEntity
  8
1
  6
Continuous
100
AcDbLine
 10
449.277819
 20
154.062095
 30
0.0
 11
451.277819
 21
154.062095
 31
0.0
  0
LINE
  5
31B0
330
301F
100
AcDbEntity
  8
1
  6
Continuous
100
AcDbLine
 10
451.777819
 20
153.562095
 30
0.0
 11
452.777819
 21
152.5620949999999
 31
0.0
  0
ARC
  5
31B1
330
301F
100
AcDbEntity
  8
1
  6
Continuous
100
AcDbCircle
 10
413.277819
 20
148.062095
 30
0.0
 40
1.0
100
AcDbArc
 50
270.0
 51
0.0
  0
ARC
  5
31B2
330
301F
100
AcDbEntity
  8
1
  6
Continuous
100
AcDbCircle
 10
412.277819
 20
144.545435
 30
0.0
 40
0.5
100
AcDbArc
 50
270.0
 51
0.0
  0
ARC
  5
31B3
330
301F
100
AcDbEntity
  8
1
  6
Continuous
100
AcDbCircle
 10
408.7778189999998
 20
144.545435
 30
0.0
 40
0.5
100
AcDbArc
 50
180.0
 51
270.0
  0
LINE
  5
31B4
330
301F
100
AcDbEntity
  8
1
  6
Continuous
100
AcDbLine
 10
412.277819
 20
144.0454349999999
 30
0.0
 11
408.7778189999998
 21
144.0454349999999
 31
0.0
  0
LINE
  5
31B5
330
301F
100
AcDbEntity
  8
1
  6
Continuous
100
AcDbLine
 10
413.277819
 20
147.0620949999999
 30
0.0
 11
412.7778189999999
 21
147.0620949999999
 31
0.0
  0
ARC
  5
31B6
330
301F
100
AcDbEntity
  8
1
  6
Continuous
100
AcDbCircle
 10
415.277819
 20
151.312095
 30
0.0
 40
1.0
100
AcDbArc
 50
180.0
 51
0.0
  0
LINE
  5
31B7
330
301F
100
AcDbEntity
  8
1
  6
Continuous
100
AcDbLine
 10
412.277819
 20
155.7264149999998
 30
0.0
 11
408.7778189999998
 21
155.7264149999998
 31
0.0
  0
LINE
  5
31B8
330
301F
100
AcDbEntity
  8
1
  6
Continuous
100
AcDbLine
 10
449.4778189999998
 20
181.2620949999999
 30
0.0
 11
449.4778189999998
 21
179.062095
 31
0.0
  0
LINE
  5
31B9
330
301F
100
AcDbEntity
  8
1
  6
Continuous
100
AcDbLine
 10
452.777819
 20
182.562095
 30
0.0
 11
452.777819
 21
172.94726
 31
0.0
  0
LINE
  5
31BA
330
301F
100
AcDbEntity
  8
2
  6
Continuous
100
AcDbLine
 10
449.277819
 20
164.2425409999999
 30
0.0
 11
446.5778189999999
 21
167.2301399999998
 31
0.0
  0
LINE
  5
31BB
330
301F
100
AcDbEntity
  8
1
  6
Continuous
100
AcDbLine
 10
449.277819
 20
162.029505
 30
0.0
 11
446.5778189999999
 21
162.029505
 31
0.0
  0
LINE
  5
31BC
330
301F
100
AcDbEntity
  8
2
  6
Continuous
100
AcDbLine
 10
449.277819
 20
165.349059
 30
0.0
 11
446.5778189999999
 21
162.3614599999999
 31
0.0
  0
LINE
  5
31BD
330
301F
100
AcDbEntity
  8
1
  6
Continuous
100
AcDbLine
 10
449.277819
 20
167.562095
 30
0.0
 11
446.5778189999999
 21
167.562095
 31
0.0
  0
LINE
  5
31BE
330
301F
100
AcDbEntity
  8
2
  6
Continuous
100
AcDbLine
 10
449.277819
 20
170.881649
 30
0.0
 11
446.5778189999999
 21
167.8940509999998
 31
0.0
  0
LINE
  5
31BF
330
301F
100
AcDbEntity
  8
2
  6
Continuous
100
AcDbLine
 10
449.277819
 20
169.7751309999999
 30
0.0
 11
446.5778189999999
 21
172.7627299999998
 31
0.0
  0
LINE
  5
31C0
330
301F
100
AcDbEntity
  8
1
  6
Continuous
100
AcDbLine
 10
449.277819
 20
173.094685
 30
0.0
 11
446.5778189999999
 21
173.094685
 31
0.0
  0
ARC
  5
31C1
330
301F
100
AcDbEntity
  8
1
  6
Continuous
100
AcDbCircle
 10
466.7778189999999
 20
167.562095
 30
0.0
 40
15.0
100
AcDbArc
 50
158.96053
 51
201.03947
  0
LINE
  5
31C2
330
301F
100
AcDbEntity
  8
1
  6
Continuous
100
AcDbLine
 10
451.777819
 20
160.562095
 30
0.0
 11
451.277819
 21
160.562095
 31
0.0
  0
LINE
  5
31C3
330
301F
100
AcDbEntity
  8
1
  6
Continuous
100
AcDbLine
 10
451.777819
 20
174.5620949999999
 30
0.0
 11
451.277819
 21
174.5620949999999
 31
0.0
  0
LINE
  5
31C4
330
301F
100
AcDbEntity
  8
1
  6
Continuous
100
AcDbLine
 10
449.277819
 20
179.062095
 30
0.0
 11
451.277819
 21
179.062095
 31
0.0
  0
LINE
  5
31C5
330
301F
100
AcDbEntity
  8
1
  6
Continuous
100
AcDbLine
 10
451.277819
 20
177.627892
 30
0.0
 11
451.777819
 21
177.627892
 31
0.0
  0
ARC
  5
31C6
330
301F
100
AcDbEntity
  8
1
  6
Continuous
100
AcDbCircle
 10
449.777819
 20
179.3864509999999
 30
0.0
 40
0.3
100
AcDbArc
 50
90.0
 51
180.0
  0
LINE
  5
31C7
330
301F
100
AcDbEntity
  8
1
  6
Continuous
100
AcDbLine
 10
449.777819
 20
179.6864509999998
 30
0.0
 11
451.777819
 21
179.6864509999998
 31
0.0
  0
LINE
  5
31C8
330
301F
100
AcDbEntity
  8
1
  6
Continuous
100
AcDbLine
 10
446.277819
 20
172.7946849999999
 30
0.0
 11
446.277819
 21
162.329505
 31
0.0
  0
ARC
  5
31C9
330
301F
100
AcDbEntity
  8
1
  6
Continuous
100
AcDbCircle
 10
446.5778189999999
 20
162.329505
 30
0.0
 40
0.3
100
AcDbArc
 50
180.0
 51
270.0
  0
ARC
  5
31CA
330
301F
100
AcDbEntity
  8
1
  6
Continuous
100
AcDbCircle
 10
446.5778189999999
 20
172.7946849999999
 30
0.0
 40
0.3
100
AcDbArc
 50
90.0
 51
180.0
  0
LINE
  5
31CB
330
301F
100
AcDbEntity
  8
2
  6
Continuous
100
AcDbLine
 10
461.9778189999998
 20
181.7500949999999
 30
0.0
 11
451.965819
 21
181.7500949999999
 31
0.0
  0
LINE
  5
31CC
330
301F
100
AcDbEntity
  8
1
  6
Continuous
100
AcDbLine
 10
451.777819
 20
181.5620949999999
 30
0.0
 11
452.777819
 21
182.562095
 31
0.0
  0
ARC
  5
31CD
330
301F
100
AcDbEntity
  8
1
  6
Continuous
100
AcDbCircle
 10
449.777819
 20
181.2620949999999
 30
0.0
 40
0.3
100
AcDbArc
 50
90.0
 51
180.0
  0
LINE
  5
31CE
330
301F
100
AcDbEntity
  8
1
  6
Continuous
100
AcDbLine
 10
451.777819
 20
181.5620949999999
 30
0.0
 11
449.777819
 21
181.5620949999999
 31
0.0
  0
LINE
  5
31CF
330
301F
100
AcDbEntity
  8
1
  6
Continuous
100
AcDbLine
 10
416.277819
 20
167.562095
 30
0.0
 11
414.277819
 21
165.562095
 31
0.0
  0
LINE
  5
31D0
330
301F
100
AcDbEntity
  8
1
  6
Continuous
100
AcDbLine
 10
416.277819
 20
169.562095
 30
0.0
 11
414.277819
 21
167.562095
 31
0.0
  0
LINE
  5
31D1
330
301F
100
AcDbEntity
  8
1
  6
Continuous
100
AcDbLine
 10
412.277819
 20
179.3977759999999
 30
0.0
 11
408.7778189999998
 21
179.3977759999999
 31
0.0
  0
ARC
  5
31D2
330
301F
100
AcDbEntity
  8
1
  6
Continuous
100
AcDbCircle
 10
413.277819
 20
187.0620949999999
 30
0.0
 40
1.0
100
AcDbArc
 50
0.0
 51
90.0
  0
ARC
  5
31D3
330
301F
100
AcDbEntity
  8
1
  6
Continuous
100
AcDbCircle
 10
415.277819
 20
183.812095
 30
0.0
 40
1.0
100
AcDbArc
 50
0.0
 51
180.0
  0
LINE
  5
31D4
330
301F
100
AcDbEntity
  8
1
  6
Continuous
100
AcDbLine
 10
413.277819
 20
188.0620949999999
 30
0.0
 11
412.7778189999999
 21
188.0620949999999
 31
0.0
  0
ARC
  5
31D5
330
301F
100
AcDbEntity
  8
1
  6
Continuous
100
AcDbCircle
 10
408.7778189999998
 20
190.578756
 30
0.0
 40
0.5
100
AcDbArc
 50
90.0
 51
180.0
  0
ARC
  5
31D6
330
301F
100
AcDbEntity
  8
1
  6
Continuous
100
AcDbCircle
 10
412.277819
 20
190.578756
 30
0.0
 40
0.5
100
AcDbArc
 50
0.0
 51
90.0
  0
LINE
  5
31D7
330
301F
100
AcDbEntity
  8
1
  6
Continuous
100
AcDbLine
 10
412.277819
 20
191.0787559999999
 30
0.0
 11
408.7778189999998
 21
191.0787559999999
 31
0.0
  0
LINE
  5
31D8
330
301F
100
AcDbEntity
  8
1
  6
Continuous
100
AcDbLine
 10
391.277819
 20
176.5620949999999
 30
0.0
 11
391.277819
 21
158.562095
 31
0.0
  0
LINE
  5
31D9
330
301F
100
AcDbEntity
  8
1
  6
Continuous
100
AcDbLine
 10
390.277819
 20
176.5620949999999
 30
0.0
 11
390.277819
 21
158.562095
 31
0.0
  0
LINE
  5
31DA
330
301F
100
AcDbEntity
  8
1
  6
Continuous
100
AcDbLine
 10
391.277819
 20
158.562095
 30
0.0
 11
390.277819
 21
158.562095
 31
0.0
  0
LINE
  5
31DB
330
301F
100
AcDbEntity
  8
1
  6
Continuous
100
AcDbLine
 10
391.277819
 20
176.5620949999999
 30
0.0
 11
390.277819
 21
176.5620949999999
 31
0.0
  0
ARC
  5
31DC
330
301F
100
AcDbEntity
  8
1
  6
Continuous
100
AcDbCircle
 10
364.0136749999999
 20
167.562095
 30
0.0
 40
6.264143999999999
100
AcDbArc
 50
338.366392
 51
21.63360799999999
  0
ARC
  5
31DD
330
301F
100
AcDbEntity
  8
1
  6
Continuous
100
AcDbCircle
 10
373.041963
 20
167.562095
 30
0.0
 40
6.264143999999999
100
AcDbArc
 50
158.366392
 51
201.633608
  0
LINE
  5
31DE
330
301F
100
AcDbEntity
  8
1
  6
Continuous
100
AcDbLine
 10
366.777819
 20
171.462095
 30
0.0
 11
366.777819
 21
163.662095
 31
0.0
  0
LINE
  5
31DF
330
301F
100
AcDbEntity
  8
1
  6
Continuous
100
AcDbLine
 10
372.3778189999999
 20
173.5620949999999
 30
0.0
 11
372.3778189999999
 21
161.562095
 31
0.0
  0
LINE
  5
31E0
330
301F
100
AcDbEntity
  8
1
  6
Continuous
100
AcDbLine
 10
371.5778189999999
 20
173.5620949999999
 30
0.0
 11
371.5778189999999
 21
161.562095
 31
0.0
  0
LINE
  5
31E1
330
301F
100
AcDbEntity
  8
1
  6
Continuous
100
AcDbLine
 10
370.277819
 20
171.812095
 30
0.0
 11
370.277819
 21
163.312095
 31
0.0
  0
LINE
  5
31E2
330
301F
100
AcDbEntity
  8
1
  6
Continuous
100
AcDbLine
 10
371.5778189999999
 20
167.562095
 30
0.0
 11
370.277819
 21
166.2620949999999
 31
0.0
  0
LINE
  5
31E3
330
301F
100
AcDbEntity
  8
1
  6
Continuous
100
AcDbLine
 10
371.5778189999999
 20
168.8620949999998
 30
0.0
 11
370.277819
 21
167.562095
 31
0.0
  0
LINE
  5
31E4
330
301F
100
AcDbEntity
  8
1
  6
Continuous
100
AcDbLine
 10
371.5778189999999
 20
163.312095
 30
0.0
 11
370.277819
 21
163.312095
 31
0.0
  0
LINE
  5
31E5
330
301F
100
AcDbEntity
  8
1
  6
Continuous
100
AcDbLine
 10
372.3778189999999
 20
161.562095
 30
0.0
 11
371.5778189999999
 21
161.562095
 31
0.0
  0
ARC
  5
31E6
330
301F
100
AcDbEntity
  8
1
  6
Continuous
100
AcDbCircle
 10
368.5463169999999
 20
164.097994
 30
0.0
 40
1.731502
100
AcDbArc
 50
0.0
 51
41.82654799999999
  0
ARC
  5
31E7
330
301F
100
AcDbEntity
  8
1
  6
Continuous
100
AcDbCircle
 10
368.509322
 20
164.097994
 30
0.0
 40
1.731502
100
AcDbArc
 50
138.1734519999999
 51
180.0
  0
LINE
  5
31E8
330
301F
100
AcDbEntity
  8
1
  6
Continuous
100
AcDbLine
 10
367.219063
 20
165.2526939999999
 30
0.0
 11
369.8365749999999
 21
165.2526939999999
 31
0.0
  0
LINE
  5
31E9
330
301F
100
AcDbEntity
  8
1
  6
Continuous
100
AcDbLine
 10
367.1928199999999
 20
162.9432929999999
 30
0.0
 11
369.862818
 21
162.9432929999999
 31
0.0
  0
LINE
  5
31EA
330
301F
100
AcDbEntity
  8
1
  6
Continuous
100
AcDbLine
 10
369.862818
 20
162.9432929999999
 30
0.0
 11
370.277819
 21
163.662095
 31
0.0
  0
LINE
  5
31EB
330
301F
100
AcDbEntity
  8
1
  6
Continuous
100
AcDbLine
 10
367.1928199999999
 20
162.9432929999999
 30
0.0
 11
366.777819
 21
163.662095
 31
0.0
  0
LINE
  5
31EC
330
301F
100
AcDbEntity
  8
1
  6
Continuous
100
AcDbLine
 10
371.5778189999999
 20
171.812095
 30
0.0
 11
370.277819
 21
171.812095
 31
0.0
  0
LINE
  5
31ED
330
301F
100
AcDbEntity
  8
1
  6
Continuous
100
AcDbLine
 10
372.3778189999999
 20
173.5620949999999
 30
0.0
 11
371.5778189999999
 21
173.5620949999999
 31
0.0
  0
ARC
  5
31EE
330
301F
100
AcDbEntity
  8
1
  6
Continuous
100
AcDbCircle
 10
368.5463169999999
 20
171.0261969999999
 30
0.0
 40
1.731502
100
AcDbArc
 50
318.173452
 51
0.0
  0
LINE
  5
31EF
330
301F
100
AcDbEntity
  8
1
  6
Continuous
100
AcDbLine
 10
369.862818
 20
172.1808969999999
 30
0.0
 11
370.277819
 21
171.462095
 31
0.0
  0
ARC
  5
31F0
330
301F
100
AcDbEntity
  8
1
  6
Continuous
100
AcDbCircle
 10
368.509322
 20
171.0261969999999
 30
0.0
 40
1.731502
100
AcDbArc
 50
180.0
 51
221.8265479999999
  0
LINE
  5
31F1
330
301F
100
AcDbEntity
  8
1
  6
Continuous
100
AcDbLine
 10
367.1928199999999
 20
172.1808969999999
 30
0.0
 11
366.777819
 21
171.462095
 31
0.0
  0
LINE
  5
31F2
330
301F
100
AcDbEntity
  8
1
  6
Continuous
100
AcDbLine
 10
367.219063
 20
169.871496
 30
0.0
 11
369.8365749999999
 21
169.871496
 31
0.0
  0
LINE
  5
31F3
330
301F
100
AcDbEntity
  8
1
  6
Continuous
100
AcDbLine
 10
367.1928199999999
 20
172.1808969999999
 30
0.0
 11
369.862818
 21
172.1808969999999
 31
0.0
  0
LINE
  5
31F4
330
301F
100
AcDbEntity
  8
1
  6
Continuous
100
AcDbLine
 10
461.9778189999998
 20
162.1769299999999
 30
0.0
 11
461.9778189999998
 21
152.5620949999999
 31
0.0
  0
LINE
  5
31F5
330
301F
100
AcDbEntity
  8
1
  6
Continuous
100
AcDbLine
 10
463.477819
 20
152.9184109999999
 30
0.0
 11
463.477819
 21
149.6120949999999
 31
0.0
  0
LINE
  5
31F6
330
301F
100
AcDbEntity
  8
1
  6
Continuous
100
AcDbLine
 10
130.0777579999998
 20
152.9184109999999
 30
0.0
 11
130.0777579999998
 21
149.6120949999999
 31
0.0
  0
LINE
  5
31F7
330
301F
100
AcDbEntity
  8
1
  6
Continuous
100
AcDbLine
 10
131.577758
 20
162.1769299999999
 30
0.0
 11
131.577758
 21
152.5620949999999
 31
0.0
  0
LINE
  5
31F8
330
301F
100
AcDbEntity
  8
1
  6
Continuous
100
AcDbLine
 10
115.365737
 20
79.690065
 30
0.0
 11
120.628752
 21
87.34536
 31
0.0
  0
LINE
  5
31F9
330
301F
100
AcDbEntity
  8
1
  6
Continuous
100
AcDbLine
 10
127.677758
 20
87.562095
 30
0.0
 11
127.677758
 21
37.562095
 31
0.0
  0
LINE
  5
31FA
330
301F
100
AcDbEntity
  8
1
  6
Continuous
100
AcDbLine
 10
127.9777579999998
 20
87.26209500000001
 30
0.0
 11
127.9777579999998
 21
37.862095
 31
0.0
  0
LINE
  5
31FB
330
301F
100
AcDbEntity
  8
1
  6
Continuous
100
AcDbLine
 10
129.277758
 20
38.562095
 30
0.0
 11
129.277758
 21
86.56209500000001
 31
0.0
  0
LINE
  5
31FC
330
301F
100
AcDbEntity
  8
1
  6
Continuous
100
AcDbLine
 10
128.277758
 20
38.562095
 30
0.0
 11
128.277758
 21
86.56209500000001
 31
0.0
  0
LINE
  5
31FD
330
301F
100
AcDbEntity
  8
1
  6
Continuous
100
AcDbLine
 10
121.040773
 20
87.562095
 30
0.0
 11
127.677758
 21
87.562095
 31
0.0
  0
ARC
  5
31FE
330
301F
100
AcDbEntity
  8
1
  6
Continuous
100
AcDbCircle
 10
121.040773
 20
87.06209499999998
 30
0.0
 40
0.5
100
AcDbArc
 50
90.0
 51
145.491477
  0
LINE
  5
31FF
330
301F
100
AcDbEntity
  8
1
  6
Continuous
100
AcDbLine
 10
128.277758
 20
86.56209500000001
 30
0.0
 11
129.277758
 21
86.56209500000001
 31
0.0
  0
LINE
  5
3200
330
301F
100
AcDbEntity
  8
1
  6
Continuous
100
AcDbLine
 10
127.9777579999998
 20
87.26209500000001
 30
0.0
 11
127.677758
 21
87.562095
 31
0.0
  0
LINE
  5
3201
330
301F
100
AcDbEntity
  8
1
  6
Continuous
100
AcDbLine
 10
129.277758
 20
48.562095
 30
0.0
 11
141.777758
 21
48.562095
 31
0.0
  0
LINE
  5
3202
330
301F
100
AcDbEntity
  8
1
  6
Continuous
100
AcDbLine
 10
129.277758
 20
76.562095
 30
0.0
 11
141.777758
 21
76.562095
 31
0.0
  0
LINE
  5
3203
330
301F
100
AcDbEntity
  8
4
  6
CENTER
100
AcDbLine
 10
112.277758
 20
62.56209499999999
 30
0.0
 11
149.9777579999999
 21
62.56209499999999
 31
0.0
  0
LINE
  5
3204
330
301F
100
AcDbEntity
  8
1
  6
Continuous
100
AcDbLine
 10
115.365737
 20
45.43412599999999
 30
0.0
 11
120.628752
 21
37.77883099999999
 31
0.0
  0
LINE
  5
3205
330
301F
100
AcDbEntity
  8
1
  6
Continuous
100
AcDbLine
 10
130.0777579999998
 20
59.61209499999998
 30
0.0
 11
130.0777579999998
 21
65.512095
 31
0.0
  0
LINE
  5
3206
330
301F
100
AcDbEntity
  8
1
  6
Continuous
100
AcDbLine
 10
115.277758
 20
45.71738999999999
 30
0.0
 11
115.277758
 21
79.4068
 31
0.0
  0
ARC
  5
3207
330
301F
100
AcDbEntity
  8
1
  6
Continuous
100
AcDbCircle
 10
115.777758
 20
79.4068
 30
0.0
 40
0.5
100
AcDbArc
 50
145.491477
 51
180.0
  0
LINE
  5
3208
330
301F
100
AcDbEntity
  8
1
  6
Continuous
100
AcDbLine
 10
127.9777579999998
 20
85.31209500000001
 30
0.0
 11
128.277758
 21
85.01209499999999
 31
0.0
  0
LINE
  5
3209
330
301F
100
AcDbEntity
  8
1
  6
Continuous
100
AcDbLine
 10
129.7777579999997
 20
65.81209499999999
 30
0.0
 11
129.277758
 21
65.81209499999999
 31
0.0
  0
LINE
  5
320A
330
301F
100
AcDbEntity
  8
1
  6
Continuous
100
AcDbLine
 10
129.7777579999997
 20
59.31209499999999
 30
0.0
 11
129.277758
 21
59.31209499999999
 31
0.0
  0
ARC
  5
320B
330
301F
100
AcDbEntity
  8
1
  6
Continuous
100
AcDbCircle
 10
115.777758
 20
45.71738999999999
 30
0.0
 40
0.5
100
AcDbArc
 50
180.0
 51
214.5085229999999
  0
LINE
  5
320C
330
301F
100
AcDbEntity
  8
1
  6
Continuous
100
AcDbLine
 10
121.040773
 20
37.562095
 30
0.0
 11
127.677758
 21
37.562095
 31
0.0
  0
ARC
  5
320D
330
301F
100
AcDbEntity
  8
1
  6
Continuous
100
AcDbCircle
 10
121.040773
 20
38.06209499999999
 30
0.0
 40
0.5
100
AcDbArc
 50
214.5085229999999
 51
270.0
  0
LINE
  5
320E
330
301F
100
AcDbEntity
  8
1
  6
Continuous
100
AcDbLine
 10
127.9777579999998
 20
39.812095
 30
0.0
 11
128.277758
 21
40.11209499999997
 31
0.0
  0
LINE
  5
320F
330
301F
100
AcDbEntity
  8
1
  6
Continuous
100
AcDbLine
 10
128.277758
 20
38.562095
 30
0.0
 11
129.277758
 21
38.562095
 31
0.0
  0
LINE
  5
3210
330
301F
100
AcDbEntity
  8
1
  6
Continuous
100
AcDbLine
 10
127.677758
 20
37.562095
 30
0.0
 11
127.9777579999998
 21
37.862095
 31
0.0
  0
LINE
  5
3211
330
301F
100
AcDbEntity
  8
4
  6
CENTER
100
AcDbLine
 10
174.277758
 20
62.56209499999999
 30
0.0
 11
229.7777579999999
 21
62.56209499999999
 31
0.0
  0
LINE
  5
3212
330
301F
100
AcDbEntity
  8
2
  6
Continuous
100
AcDbLine
 10
144.277758
 20
65.88164899999999
 30
0.0
 11
146.9777579999997
 21
62.89405099999999
 31
0.0
  0
LINE
  5
3213
330
301F
100
AcDbEntity
  8
1
  6
Continuous
100
AcDbLine
 10
147.2777579999998
 20
57.32950500000001
 30
0.0
 11
147.2777579999998
 21
67.794685
 31
0.0
  0
LINE
  5
3214
330
301F
100
AcDbEntity
  8
2
  6
Continuous
100
AcDbLine
 10
144.277758
 20
64.775131
 30
0.0
 11
146.9777579999997
 21
67.76273
 31
0.0
  0
LINE
  5
3215
330
301F
100
AcDbEntity
  8
1
  6
Continuous
100
AcDbLine
 10
144.277758
 20
49.062095
 30
0.0
 11
144.277758
 21
74.253438
 31
0.0
  0
LINE
  5
3216
330
301F
100
AcDbEntity
  8
1
  6
Continuous
100
AcDbLine
 10
141.777758
 20
48.562095
 30
0.0
 11
141.777758
 21
76.562095
 31
0.0
  0
LINE
  5
3217
330
301F
100
AcDbEntity
  8
1
  6
Continuous
100
AcDbLine
 10
140.777758
 20
76.562095
 30
0.0
 11
140.777758
 21
48.562095
 31
0.0
  0
LINE
  5
3218
330
301F
100
AcDbEntity
  8
1
  6
Continuous
100
AcDbLine
 10
131.577758
 20
48.562095
 30
0.0
 11
131.577758
 21
76.562095
 31
0.0
  0
LINE
  5
3219
330
301F
100
AcDbEntity
  8
1
  6
Continuous
100
AcDbLine
 10
144.277758
 20
68.094685
 30
0.0
 11
146.9777579999997
 21
68.094685
 31
0.0
  0
LINE
  5
321A
330
301F
100
AcDbEntity
  8
1
  6
Continuous
100
AcDbLine
 10
141.777758
 20
69.56209499999999
 30
0.0
 11
142.2777579999998
 21
69.56209499999999
 31
0.0
  0
LINE
  5
321B
330
301F
100
AcDbEntity
  8
1
  6
Continuous
100
AcDbLine
 10
142.2777579999998
 20
49.062095
 30
0.0
 11
142.2777579999998
 21
74.253438
 31
0.0
  0
LINE
  5
321C
330
301F
100
AcDbEntity
  8
1
  6
Continuous
100
AcDbLine
 10
142.2777579999998
 20
69.56209499999999
 30
0.0
 11
141.777758
 21
69.56209499999999
 31
0.0
  0
LINE
  5
321D
330
301F
100
AcDbEntity
  8
1
  6
Continuous
100
AcDbLine
 10
141.777758
 20
69.56209499999999
 30
0.0
 11
142.2777579999998
 21
69.56209499999999
 31
0.0
  0
LINE
  5
321E
330
301F
100
AcDbEntity
  8
1
  6
Continuous
100
AcDbLine
 10
144.277758
 20
74.253438
 30
0.0
 11
142.2777579999998
 21
74.253438
 31
0.0
  0
ARC
  5
321F
330
301F
100
AcDbEntity
  8
1
  6
Continuous
100
AcDbCircle
 10
146.9777579999997
 20
67.794685
 30
0.0
 40
0.3
100
AcDbArc
 50
0.0
 51
90.0
  0
LINE
  5
3220
330
301F
100
AcDbEntity
  8
1
  6
Continuous
100
AcDbLine
 10
144.277758
 20
62.56209499999999
 30
0.0
 11
146.9777579999997
 21
62.56209499999999
 31
0.0
  0
LINE
  5
3221
330
301F
100
AcDbEntity
  8
2
  6
Continuous
100
AcDbLine
 10
144.277758
 20
59.242541
 30
0.0
 11
146.9777579999997
 21
62.23014
 31
0.0
  0
LINE
  5
3222
330
301F
100
AcDbEntity
  8
2
  6
Continuous
100
AcDbLine
 10
144.277758
 20
60.349059
 30
0.0
 11
146.9777579999997
 21
57.36146
 31
0.0
  0
LINE
  5
3223
330
301F
100
AcDbEntity
  8
1
  6
Continuous
100
AcDbLine
 10
144.277758
 20
57.029505
 30
0.0
 11
146.9777579999997
 21
57.029505
 31
0.0
  0
LINE
  5
3224
330
301F
100
AcDbEntity
  8
1
  6
Continuous
100
AcDbLine
 10
141.777758
 20
55.56209499999999
 30
0.0
 11
142.2777579999998
 21
55.56209499999999
 31
0.0
  0
LINE
  5
3225
330
301F
100
AcDbEntity
  8
1
  6
Continuous
100
AcDbLine
 10
142.2777579999998
 20
55.56209499999999
 30
0.0
 11
141.777758
 21
55.56209499999999
 31
0.0
  0
LINE
  5
3226
330
301F
100
AcDbEntity
  8
1
  6
Continuous
100
AcDbLine
 10
141.777758
 20
55.56209499999999
 30
0.0
 11
142.2777579999998
 21
55.56209499999999
 31
0.0
  0
LINE
  5
3227
330
301F
100
AcDbEntity
  8
1
  6
Continuous
100
AcDbLine
 10
142.2777579999998
 20
49.062095
 30
0.0
 11
144.277758
 21
49.062095
 31
0.0
  0
ARC
  5
3228
330
301F
100
AcDbEntity
  8
1
  6
Continuous
100
AcDbCircle
 10
146.9777579999997
 20
57.32950500000001
 30
0.0
 40
0.3
100
AcDbArc
 50
270.0
 51
0.0
  0
LINE
  5
3229
330
301F
100
AcDbEntity
  8
1
  6
Continuous
100
AcDbLine
 10
179.277758
 20
82.06209499999998
 30
0.0
 11
179.277758
 21
43.062095
 31
0.0
  0
LINE
  5
322A
330
301F
100
AcDbEntity
  8
1
  6
Continuous
100
AcDbLine
 10
180.7777579999997
 20
83.06209499999999
 30
0.0
 11
180.7777579999997
 21
42.06209499999999
 31
0.0
  0
LINE
  5
322B
330
301F
100
AcDbEntity
  8
1
  6
Continuous
100
AcDbLine
 10
185.277758
 20
82.562095
 30
0.0
 11
185.277758
 21
42.56209499999999
 31
0.0
  0
LINE
  5
322C
330
301F
100
AcDbEntity
  8
1
  6
Continuous
100
AcDbLine
 10
177.277758
 20
46.31209499999999
 30
0.0
 11
177.277758
 21
78.812095
 31
0.0
  0
ARC
  5
322D
330
301F
100
AcDbEntity
  8
1
  6
Continuous
100
AcDbCircle
 10
180.277758
 20
43.062095
 30
0.0
 40
1.0
100
AcDbArc
 50
180.0
 51
270.0
  0
ARC
  5
322E
330
301F
100
AcDbEntity
  8
1
  6
Continuous
100
AcDbCircle
 10
178.277758
 20
46.31209499999999
 30
0.0
 40
1.0
100
AcDbArc
 50
180.0
 51
0.0
  0
ARC
  5
322F
330
301F
100
AcDbEntity
  8
1
  6
Continuous
100
AcDbCircle
 10
184.7777579999998
 20
42.56209499999999
 30
0.0
 40
0.5
100
AcDbArc
 50
270.0
 51
0.0
  0
LINE
  5
3230
330
301F
100
AcDbEntity
  8
1
  6
Continuous
100
AcDbLine
 10
180.7777579999997
 20
42.06209499999999
 30
0.0
 11
184.7777579999998
 21
42.06209499999999
 31
0.0
  0
LINE
  5
3231
330
301F
100
AcDbEntity
  8
1
  6
Continuous
100
AcDbLine
 10
180.277758
 20
42.06209499999999
 30
0.0
 11
180.7777579999997
 21
42.06209499999999
 31
0.0
  0
LINE
  5
3232
330
301F
100
AcDbEntity
  8
1
  6
Continuous
100
AcDbLine
 10
177.277758
 20
60.56209499999999
 30
0.0
 11
179.277758
 21
62.56209499999999
 31
0.0
  0
LINE
  5
3233
330
301F
100
AcDbEntity
  8
1
  6
Continuous
100
AcDbLine
 10
177.277758
 20
62.56209499999999
 30
0.0
 11
179.277758
 21
64.56209499999999
 31
0.0
  0
LINE
  5
3234
330
301F
100
AcDbEntity
  8
1
  6
Continuous
100
AcDbLine
 10
181.277758
 20
62.56209499999999
 30
0.0
 11
184.7777579999998
 21
62.56209499999999
 31
0.0
  0
ARC
  5
3235
330
301F
100
AcDbEntity
  8
1
  6
Continuous
100
AcDbCircle
 10
178.277758
 20
78.812095
 30
0.0
 40
1.0
100
AcDbArc
 50
0.0
 51
180.0
  0
LINE
  5
3236
330
301F
100
AcDbEntity
  8
1
  6
Continuous
100
AcDbLine
 10
202.277758
 20
71.562095
 30
0.0
 11
202.277758
 21
53.56209499999999
 31
0.0
  0
LINE
  5
3237
330
301F
100
AcDbEntity
  8
1
  6
Continuous
100
AcDbLine
 10
203.277758
 20
71.562095
 30
0.0
 11
203.277758
 21
53.56209499999999
 31
0.0
  0
LINE
  5
3238
330
301F
100
AcDbEntity
  8
1
  6
Continuous
100
AcDbLine
 10
202.277758
 20
53.56209499999999
 30
0.0
 11
203.277758
 21
53.56209499999999
 31
0.0
  0
LINE
  5
3239
330
301F
100
AcDbEntity
  8
1
  6
Continuous
100
AcDbLine
 10
202.277758
 20
71.562095
 30
0.0
 11
203.277758
 21
71.562095
 31
0.0
  0
ARC
  5
323A
330
301F
100
AcDbEntity
  8
1
  6
Continuous
100
AcDbCircle
 10
180.277758
 20
82.06209499999998
 30
0.0
 40
1.0
100
AcDbArc
 50
90.0
 51
180.0
  0
LINE
  5
323B
330
301F
100
AcDbEntity
  8
1
  6
Continuous
100
AcDbLine
 10
180.7777579999997
 20
83.06209499999999
 30
0.0
 11
184.7777579999998
 21
83.06209499999999
 31
0.0
  0
ARC
  5
323C
330
301F
100
AcDbEntity
  8
1
  6
Continuous
100
AcDbCircle
 10
184.7777579999998
 20
82.562095
 30
0.0
 40
0.5
100
AcDbArc
 50
0.0
 51
90.0
  0
LINE
  5
323D
330
301F
100
AcDbEntity
  8
1
  6
Continuous
100
AcDbLine
 10
180.277758
 20
83.06209499999999
 30
0.0
 11
180.7777579999997
 21
83.06209499999999
 31
0.0
  0
ARC
  5
323E
330
301F
100
AcDbEntity
  8
1
  6
Continuous
100
AcDbCircle
 10
221.002781
 20
60.56209499999999
 30
0.0
 40
5.774976999999998
100
AcDbArc
 50
339.7375
 51
20.2625
  0
ARC
  5
323F
330
301F
100
AcDbEntity
  8
1
  6
Continuous
100
AcDbCircle
 10
229.052735
 20
60.56209499999999
 30
0.0
 40
5.774976999999998
100
AcDbArc
 50
159.7375
 51
200.2625
  0
LINE
  5
3240
330
301F
100
AcDbEntity
  8
1
  6
Continuous
100
AcDbLine
 10
223.277758
 20
66.562095
 30
0.0
 11
223.277758
 21
58.56209499999999
 31
0.0
  0
LINE
  5
3241
330
301F
100
AcDbEntity
  8
1
  6
Continuous
100
AcDbLine
 10
226.777758
 20
66.562095
 30
0.0
 11
226.777758
 21
58.56209499999999
 31
0.0
  0
LINE
  5
3242
330
301F
100
AcDbEntity
  8
1
  6
Continuous
100
AcDbLine
 10
223.277758
 20
66.812095
 30
0.0
 11
223.277758
 21
58.31209499999999
 31
0.0
  0
LINE
  5
3243
330
301F
100
AcDbEntity
  8
1
  6
Continuous
100
AcDbLine
 10
221.177758
 20
68.562095
 30
0.0
 11
221.177758
 21
56.56209499999999
 31
0.0
  0
LINE
  5
3244
330
301F
100
AcDbEntity
  8
1
  6
Continuous
100
AcDbLine
 10
221.977758
 20
68.562095
 30
0.0
 11
221.977758
 21
56.56209499999999
 31
0.0
  0
LINE
  5
3245
330
301F
100
AcDbEntity
  8
1
  6
Continuous
100
AcDbLine
 10
221.177758
 20
56.56209499999999
 30
0.0
 11
221.977758
 21
56.56209499999999
 31
0.0
  0
LINE
  5
3246
330
301F
100
AcDbEntity
  8
1
  6
Continuous
100
AcDbLine
 10
226.777758
 20
58.56209499999999
 30
0.0
 11
223.277758
 21
58.56209499999999
 31
0.0
  0
LINE
  5
3247
330
301F
100
AcDbEntity
  8
1
  6
Continuous
100
AcDbLine
 10
221.977758
 20
58.31209499999999
 30
0.0
 11
223.277758
 21
58.31209499999999
 31
0.0
  0
LINE
  5
3248
330
301F
100
AcDbEntity
  8
1
  6
Continuous
100
AcDbLine
 10
221.177758
 20
68.562095
 30
0.0
 11
221.977758
 21
68.562095
 31
0.0
  0
LINE
  5
3249
330
301F
100
AcDbEntity
  8
1
  6
Continuous
100
AcDbLine
 10
226.777758
 20
66.562095
 30
0.0
 11
223.277758
 21
66.562095
 31
0.0
  0
LINE
  5
324A
330
301F
100
AcDbEntity
  8
1
  6
Continuous
100
AcDbLine
 10
223.6351379999999
 20
62.56209499999999
 30
0.0
 11
226.4203779999998
 21
62.56209499999999
 31
0.0
  0
ARC
  5
324B
330
301F
100
AcDbEntity
  8
1
  6
Continuous
100
AcDbCircle
 10
229.052735
 20
64.56209499999999
 30
0.0
 40
5.774976999999998
100
AcDbArc
 50
159.7375
 51
200.2625
  0
ARC
  5
324C
330
301F
100
AcDbEntity
  8
1
  6
Continuous
100
AcDbCircle
 10
221.002781
 20
64.56209499999999
 30
0.0
 40
5.774976999999998
100
AcDbArc
 50
339.7375
 51
20.2625
  0
LINE
  5
324D
330
301F
100
AcDbEntity
  8
1
  6
Continuous
100
AcDbLine
 10
221.977758
 20
66.812095
 30
0.0
 11
223.277758
 21
66.812095
 31
0.0
  0
LINE
  5
324E
330
301F
100
AcDbEntity
  8
1
  6
Continuous
100
AcDbLine
 10
221.977758
 20
62.56209499999999
 30
0.0
 11
223.277758
 21
63.86209499999999
 31
0.0
  0
LINE
  5
324F
330
301F
100
AcDbEntity
  8
1
  6
Continuous
100
AcDbLine
 10
221.977758
 20
61.26209499999998
 30
0.0
 11
223.277758
 21
62.56209499999999
 31
0.0
  0
ARC
  5
3250
330
301F
100
AcDbEntity
  8
1
  6
Continuous
100
AcDbCircle
 10
129.7777579999997
 20
275.5120949999998
 30
0.0
 40
0.3
100
AcDbArc
 50
0.0
 51
90.0
  0
ARC
  5
3251
330
301F
100
AcDbEntity
  8
1
  6
Continuous
100
AcDbCircle
 10
129.7777579999997
 20
269.612095
 30
0.0
 40
0.3
100
AcDbArc
 50
270.0
 51
0.0
  0
ARC
  5
3252
330
301F
100
AcDbEntity
  8
1
  6
Continuous
100
AcDbCircle
 10
129.7777579999997
 20
59.61209499999998
 30
0.0
 40
0.3
100
AcDbArc
 50
270.0
 51
0.0
  0
ARC
  5
3253
330
301F
100
AcDbEntity
  8
1
  6
Continuous
100
AcDbCircle
 10
129.7777579999997
 20
65.512095
 30
0.0
 40
0.3
100
AcDbArc
 50
0.0
 51
90.0
  0
LINE
  5
3254
330
301F
100
AcDbEntity
  8
1
  6
Continuous
100
AcDbLine
 10
117.677758
 20
45.212744
 30
0.0
 11
117.677758
 21
79.91144699999998
 31
0.0
  0
LINE
  5
3255
330
301F
100
AcDbEntity
  8
1
  6
Continuous
100
AcDbLine
 10
122.777758
 20
45.212744
 30
0.0
 11
122.777758
 21
79.91144699999998
 31
0.0
  0
LINE
  5
3256
330
301F
100
AcDbEntity
  8
1
  6
Continuous
100
AcDbLine
 10
117.677758
 20
73.66209499999998
 30
0.0
 11
122.777758
 21
73.66209499999998
 31
0.0
  0
LINE
  5
3257
330
301F
100
AcDbEntity
  8
1
  6
Continuous
100
AcDbLine
 10
117.677758
 20
51.462095
 30
0.0
 11
122.777758
 21
51.462095
 31
0.0
  0
LINE
  5
3258
330
301F
100
AcDbEntity
  8
1
  6
Continuous
100
AcDbLine
 10
117.677758
 20
79.91144699999998
 30
0.0
 11
122.777758
 21
79.91144699999998
 31
0.0
  0
LINE
  5
3259
330
301F
100
AcDbEntity
  8
1
  6
Continuous
100
AcDbLine
 10
117.677758
 20
45.212744
 30
0.0
 11
122.777758
 21
45.212744
 31
0.0
  0
LINE
  5
325A
330
301F
100
AcDbEntity
  8
1
  6
Continuous
100
AcDbLine
 10
302.2225109999999
 20
167.7742269999999
 30
0.0
 11
296.9899209999999
 21
173.0068169999999
 31
0.0
  0
LINE
  5
325B
330
301F
100
AcDbEntity
  8
1
  6
Continuous
100
AcDbLine
 10
302.2225109999999
 20
167.349963
 30
0.0
 11
296.9899209999999
 21
162.1173729999999
 31
0.0
  0
LINE
  5
325C
330
301F
100
AcDbEntity
  8
1
  6
Continuous
100
AcDbLine
 10
291.3330659999999
 20
167.349963
 30
0.0
 11
296.5656559999998
 21
162.1173729999999
 31
0.0
  0
ARC
  5
325D
330
301F
100
AcDbEntity
  8
1
  6
Continuous
100
AcDbCircle
 10
296.7777889999999
 20
162.329505
 30
0.0
 40
0.3
100
AcDbArc
 50
225.0
 51
315.0
  0
LINE
  5
325E
330
301F
100
AcDbEntity
  8
1
  6
Continuous
100
AcDbLine
 10
291.3330659999999
 20
167.7742269999999
 30
0.0
 11
296.5656559999998
 21
173.0068169999999
 31
0.0
  0
CIRCLE
  5
325F
330
301F
100
AcDbEntity
  8
1
  6
Continuous
100
AcDbCircle
 10
296.7777889999999
 20
167.562095
 30
0.0
 40
2.066999999999996
  0
CIRCLE
  5
3260
330
301F
100
AcDbEntity
  8
1
  6
Continuous
100
AcDbCircle
 10
296.7777889999999
 20
167.562095
 30
0.0
 40
3.0
  0
CIRCLE
  5
3261
330
301F
100
AcDbEntity
  8
2
  6
Continuous
100
AcDbCircle
 10
296.7777889999999
 20
167.562095
 30
0.0
 40
2.5
  0
ARC
  5
3262
330
301F
100
AcDbEntity
  8
1
  6
Continuous
100
AcDbCircle
 10
291.5451979999999
 20
167.562095
 30
0.0
 40
0.3
100
AcDbArc
 50
135.0
 51
225.0
  0
ARC
  5
3263
330
301F
100
AcDbEntity
  8
1
  6
Continuous
100
AcDbCircle
 10
296.7777889999999
 20
172.7946849999999
 30
0.0
 40
0.3
100
AcDbArc
 50
45.0
 51
135.0
  0
ARC
  5
3264
330
301F
100
AcDbEntity
  8
1
  6
Continuous
100
AcDbCircle
 10
302.010379
 20
167.562095
 30
0.0
 40
0.3
100
AcDbArc
 50
315.0
 51
45.0
  0
LINE
  5
3265
330
301F
100
AcDbEntity
  8
4
  6
CENTER
100
AcDbLine
 10
296.7777889999999
 20
241.562095
 30
0.0
 11
296.7777889999999
 21
213.562095
 31
0.0
  0
LINE
  5
3266
330
301F
100
AcDbEntity
  8
4
  6
CENTER
100
AcDbLine
 10
282.7777889999999
 20
227.562095
 30
0.0
 11
310.7777889999999
 21
227.562095
 31
0.0
  0
ARC
  5
3267
330
301F
100
AcDbEntity
  8
1
  6
Continuous
100
AcDbCircle
 10
89.00785
 20
167.050713
 30
0.0
 40
31.774023
100
AcDbArc
 50
327.406854
 51
0.922178
  0
ARC
  5
3268
330
301F
100
AcDbEntity
  8
1
  6
Continuous
100
AcDbCircle
 10
504.547728
 20
167.050713
 30
0.0
 40
31.774023
100
AcDbArc
 50
179.0778219999999
 51
212.593146
  0
ENDSEC
  0
SECTION
  2
OBJECTS
  0
DICTIONARY
  5
300D
330
0
100
AcDbDictionary
281
     1
  3
ACAD_CIP_PREVIOUS_PRODUCT_INFO
350
32CD
  3
ACAD_COLOR
350
32B0
  3
ACAD_DETAILVIEWSTYLE
350
32C9
  3
ACAD_GROUP
350
300E
  3
ACAD_LAYOUT
350
301A
  3
ACAD_MATERIAL
350
327E
  3
ACAD_MLEADERSTYLE
350
32C5
  3
ACAD_MLINESTYLE
350
3017
  3
ACAD_PLOTSETTINGS
350
3019
  3
ACAD_PLOTSTYLENAME
350
327C
  3
ACAD_SCALELIST
350
32B3
  3
ACAD_SECTIONVIEWSTYLE
350
32C7
  3
ACAD_TABLESTYLE
350
32B1
  3
ACAD_VISUALSTYLE
350
3297
  3
ACDB_RECOMPOSE_DATA
350
32EB
  3
AcDbVariableDictionary
350
32DE
  3
DWGPROPS
350
32EC
  0
DICTIONARY
  5
32CE
330
3011
100
AcDbDictionary
280
     1
281
     1
  3
ADSK_XREC_LAYER_RECONCILED
360
32CF
  0
DICTIONARY
  5
32D0
330
3027
100
AcDbDictionary
280
     1
281
     1
  3
ADSK_XREC_LAYER_RECONCILED
360
32D1
  0
DICTIONARY
  5
32D2
330
3028
100
AcDbDictionary
280
     1
281
     1
  3
ADSK_XREC_LAYER_RECONCILED
360
32D3
  0
DICTIONARY
  5
32D4
330
3029
100
AcDbDictionary
280
     1
281
     1
  3
ADSK_XREC_LAYER_RECONCILED
360
32D5
  0
DICTIONARY
  5
32D6
330
302A
100
AcDbDictionary
280
     1
281
     1
  3
ADSK_XREC_LAYER_RECONCILED
360
32D7
  0
DICTIONARY
  5
32D8
330
302B
100
AcDbDictionary
280
     1
281
     1
  3
ADSK_XREC_LAYER_RECONCILED
360
32D9
  0
DICTIONARY
  5
32DA
330
302C
100
AcDbDictionary
280
     1
281
     1
  3
ADSK_XREC_LAYER_RECONCILED
360
32DB
  0
DICTIONARY
  5
32DC
330
302D
100
AcDbDictionary
280
     1
281
     1
  3
ADSK_XREC_LAYER_RECONCILED
360
32DD
  0
DICTIONARY
  5
3277
330
301F
100
AcDbDictionary
281
     1
  3
ACAD_LAYOUTSELFREF
350
3278
  0
DICTIONARY
  5
3275
330
301B
100
AcDbDictionary
281
     1
  3
ACAD_LAYOUTSELFREF
350
3276
  0
XRECORD
  5
32CD
102
{ACAD_REACTORS
330
300D
102
}
330
300D
100
AcDbXrecord
280
     1
300
ACDLT
300
2014
300
ACDLT_F_S
  0
DICTIONARY
  5
32B0
102
{ACAD_REACTORS
330
300D
102
}
330
300D
100
AcDbDictionary
281
     1
  0
DICTIONARY
  5
32C9
102
{ACAD_REACTORS
330
300D
102
}
330
300D
100
AcDbDictionary
281
     1
  3
Imperial24
350
32CA
  0
DICTIONARY
  5
300E
102
{ACAD_REACTORS
330
300D
102
}
330
300D
100
AcDbDictionary
281
     1
  0
DICTIONARY
  5
301A
102
{ACAD_REACTORS
330
300D
102
}
330
300D
100
AcDbDictionary
281
     1
  3
Model
350
32CB
  3
レイアウト1
350
32CC
  0
DICTIONARY
  5
327E
102
{ACAD_REACTORS
330
300D
102
}
330
300D
100
AcDbDictionary
281
     1
  3
ByBlock
350
3287
  3
ByLayer
350
327F
  3
Global
350
328F
  0
DICTIONARY
  5
32C5
102
{ACAD_REACTORS
330
300D
102
}
330
300D
100
AcDbDictionary
281
     1
  3
Standard
350
32C6
  0
DICTIONARY
  5
3017
102
{ACAD_REACTORS
330
300D
102
}
330
300D
100
AcDbDictionary
281
     1
  3
STANDARD
350
3018
  0
DICTIONARY
  5
3019
102
{ACAD_REACTORS
330
300D
102
}
330
300D
100
AcDbDictionary
281
     1
  0
ACDBDICTIONARYWDFLT
  5
327C
102
{ACAD_REACTORS
330
300D
102
}
330
300D
100
AcDbDictionary
281
     1
  3
Normal
350
327D
100
AcDbDictionaryWithDefault
340
327D
  0
DICTIONARY
  5
32B3
102
{ACAD_REACTORS
330
300D
102
}
330
300D
100
AcDbDictionary
281
     1
  3
A0
350
32B4
  3
A1
350
32B5
  3
A2
350
32B6
  3
A3
350
32B7
  3
A4
350
32B8
  3
A5
350
32B9
  3
A6
350
32BA
  3
A7
350
32BB
  3
A8
350
32BC
  3
A9
350
32BD
  3
B0
350
32BE
  3
B1
350
32BF
  3
B2
350
32C0
  3
B3
350
32C1
  3
B4
350
32C2
  3
B5
350
32C3
  3
B6
350
32C4
  0
DICTIONARY
  5
32C7
102
{ACAD_REACTORS
330
300D
102
}
330
300D
100
AcDbDictionary
281
     1
  3
Imperial24
350
32C8
  0
DICTIONARY
  5
32B1
102
{ACAD_REACTORS
330
300D
102
}
330
300D
100
AcDbDictionary
281
     1
  3
Standard
350
32B2
  0
DICTIONARY
  5
3297
102
{ACAD_REACTORS
330
300D
102
}
330
300D
100
AcDbDictionary
281
     1
  3
2dWireframe
350
329D
  3
Basic
350
329C
  3
Brighten
350
32A3
  3
ColorChange
350
32A7
  3
Conceptual
350
32A0
  3
Dim
350
32A2
  3
EdgeColorOff
350
32AF
  3
Facepattern
350
32A6
  3
Flat
350
3298
  3
FlatWithEdges
350
3299
  3
Gouraud
350
329A
  3
GouraudWithEdges
350
329B
  3
Hidden
350
329F
  3
JitterOff
350
32AD
  3
Linepattern
350
32A5
  3
OverhangOff
350
32AE
  3
Realistic
350
32A1
  3
Shaded
350
32AC
  3
Shaded with edges
350
32AB
  3
Shades of Gray
350
32A8
  3
Sketchy
350
32A9
  3
Thicken
350
32A4
  3
Wireframe
350
329E
  3
X-Ray
350
32AA
  0
XRECORD
  5
32EB
102
{ACAD_REACTORS
330
300D
102
}
330
300D
100
AcDbXrecord
280
     1
 90
        1
330
32B2
  0
DICTIONARY
  5
32DE
102
{ACAD_REACTORS
330
300D
102
}
330
300D
100
AcDbDictionary
281
     1
  3
CANNOSCALE
350
32E3
  3
CMLEADERSTYLE
350
32E0
  3
CTABLESTYLE
350
32DF
  3
CVIEWDETAILSTYLE
350
32E1
  3
CVIEWSECTIONSTYLE
350
32E2
  3
DIMASSOC
350
32E6
  3
INDEXCTL
350
32E5
  3
SORTENTS
350
32E4
  3
XCLIPFRAME
350
32E7
  0
XRECORD
  5
32EC
102
{ACAD_REACTORS
330
300D
102
}
330
300D
100
AcDbXrecord
280
     1
  1
DWGPROPS COOKIE
  2

  3

  4

  6

  7

  8
Yoshitsune
  9

300
=
301
=
302
=
303
=
304
=
305
=
306
=
307
=
308
=
309
=
 40
0.2070621064814815
 41
2452066.412515996
 42
2457192.641851122
  1

 90
        0
  0
XRECORD
  5
32CF
102
{ACAD_REACTORS
330
32CE
102
}
330
32CE
100
AcDbXrecord
280
     1
290
     1
  0
XRECORD
  5
32D1
102
{ACAD_REACTORS
330
32D0
102
}
330
32D0
100
AcDbXrecord
280
     1
290
     1
  0
XRECORD
  5
32D3
102
{ACAD_REACTORS
330
32D2
102
}
330
32D2
100
AcDbXrecord
280
     1
290
     1
  0
XRECORD
  5
32D5
102
{ACAD_REACTORS
330
32D4
102
}
330
32D4
100
AcDbXrecord
280
     1
290
     1
  0
XRECORD
  5
32D7
102
{ACAD_REACTORS
330
32D6
102
}
330
32D6
100
AcDbXrecord
280
     1
290
     1
  0
XRECORD
  5
32D9
102
{ACAD_REACTORS
330
32D8
102
}
330
32D8
100
AcDbXrecord
280
     1
290
     1
  0
XRECORD
  5
32DB
102
{ACAD_REACTORS
330
32DA
102
}
330
32DA
100
AcDbXrecord
280
     1
290
     1
  0
XRECORD
  5
32DD
102
{ACAD_REACTORS
330
32DC
102
}
330
32DC
100
AcDbXrecord
280
     1
290
     1
  0
XRECORD
  5
3278
102
{ACAD_REACTORS
330
3277
102
}
330
3277
100
AcDbXrecord
280
     1
340
301F
  0
XRECORD
  5
3276
102
{ACAD_REACTORS
330
3275
102
}
330
3275
100
AcDbXrecord
280
     1
340
301B
  0
ACDBDETAILVIEWSTYLE
  5
32CA
102
{ACAD_XDICTIONARY
360
3324
102
}
102
{ACAD_REACTORS
330
32C9
102
}
330
32C9
100
AcDbModelDocViewStyle
 70
     0
  3
Imperial24
290
     0
100
AcDbDetailViewStyle
 70
     0
 71
     0
 90
        3
 71
     1
340
3012
 40
0.24
340
0
 40
0.24
300

 40
0.36
280
     3
 71
     2
340
3016
 90
       25
 71
     3
340
3012
 40
0.24
 90
        1
 40
0.75
 90
        1
300
%<\AcVar ViewType \f "%tc1">% %<\AcVar ViewDetailId>%\PSCALE %<\AcVar ViewScale \f "%sn">%
 71
     4
340
3016
 90
       25
340
3016
 90
       25
280
     0
  0
LAYOUT
  5
32CB
102
{ACAD_XDICTIONARY
360
3326
102
}
102
{ACAD_REACTORS
330
301A
102
}
330
301A
100
AcDbPlotSettings
  1

  2
Canon LBP9100C
  4

  6

 40
0.0
 41
0.0
 42
0.0
 43
0.0
 44
0.0
 45
0.0
 46
0.0
 47
0.0
 48
0.0
 49
0.0
140
0.0
141
0.0
142
1.0
143
1.0
 70
  1712
 72
     0
 73
     0
 74
     0
  7

 75
     0
147
1.0
148
0.0
149
0.0
100
AcDbLayout
  1
Model
 70
     1
 71
     0
 10
0.0
 20
0.0
 11
12.0
 21
9.0
 12
0.0
 22
0.0
 32
0.0
 14
0.0
 24
0.0
 34
0.0
 15
0.0
 25
0.0
 35
0.0
146
0.0
 13
0.0
 23
0.0
 33
0.0
 16
1.0
 26
0.0
 36
0.0
 17
0.0
 27
1.0
 37
0.0
 76
     0
330
301F
331
3274
  0
LAYOUT
  5
32CC
102
{ACAD_XDICTIONARY
360
3328
102
}
102
{ACAD_REACTORS
330
301A
102
}
330
301A
100
AcDbPlotSettings
  1

  2
Canon LBP9100C
  4

  6

 40
0.0
 41
0.0
 42
0.0
 43
0.0
 44
0.0
 45
0.0
 46
0.0
 47
0.0
 48
0.0
 49
0.0
140
0.0
141
0.0
142
1.0
143
1.0
 70
   688
 72
     0
 73
     0
 74
     5
  7

 75
    16
147
1.0
148
0.0
149
0.0
100
AcDbLayout
  1
レイアウト1
 70
     1
 71
     1
 10
0.0
 20
0.0
 11
420.0
 21
297.0
 12
0.0
 22
0.0
 32
0.0
 14
1.000000000000000E+20
 24
1.000000000000000E+20
 34
1.000000000000000E+20
 15
-1.000000000000000E+20
 25
-1.000000000000000E+20
 35
-1.000000000000000E+20
146
0.0
 13
0.0
 23
0.0
 33
0.0
 16
1.0
 26
0.0
 36
0.0
 17
0.0
 27
1.0
 37
0.0
 76
     0
330
301B
  0
MATERIAL
  5
3287
102
{ACAD_XDICTIONARY
360
3288
102
}
102
{ACAD_REACTORS
330
327E
102
}
330
327E
100
AcDbMaterial
  1
ByBlock
 72
     0
 43
0.0208333333333333
 43
0.0
 43
0.0
 43
0.0
 43
0.0
 43
0.0208333333333333
 43
0.0
 43
0.0
 43
0.0
 43
0.0
 43
1.0
 43
0.0
 43
0.0
 43
0.0
 43
0.0
 43
1.0
 77
     0
 47
0.0208333333333333
 47
0.0
 47
0.0
 47
0.0
 47
0.0
 47
0.0208333333333333
 47
0.0
 47
0.0
 47
0.0
 47
0.0
 47
1.0
 47
0.0
 47
0.0
 47
0.0
 47
0.0
 47
1.0
171
     0
 49
0.0208333333333333
 49
0.0
 49
0.0
 49
0.0
 49
0.0
 49
0.0208333333333333
 49
0.0
 49
0.0
 49
0.0
 49
0.0
 49
1.0
 49
0.0
 49
0.0
 49
0.0
 49
0.0
 49
1.0
175
     0
142
0.0208333333333333
142
0.0
142
0.0
142
0.0
142
0.0
142
0.0208333333333333
142
0.0
142
0.0
142
0.0
142
0.0
142
1.0
142
0.0
142
0.0
142
0.0
142
0.0
142
1.0
179
     0
144
0.0208333333333333
144
0.0
144
0.0
144
0.0
144
0.0
144
0.0208333333333333
144
0.0
144
0.0
144
0.0
144
0.0
144
1.0
144
0.0
144
0.0
144
0.0
144
0.0
144
1.0
147
0.0208333333333333
147
0.0
147
0.0
147
0.0
147
0.0
147
0.0208333333333333
147
0.0
147
0.0
147
0.0
147
0.0
147
1.0
147
0.0
147
0.0
147
0.0
147
0.0
147
1.0
  0
MATERIAL
  5
327F
102
{ACAD_XDICTIONARY
360
3280
102
}
102
{ACAD_REACTORS
330
327E
102
}
330
327E
100
AcDbMaterial
  1
ByLayer
 72
     0
 43
0.0208333333333333
 43
0.0
 43
0.0
 43
0.0
 43
0.0
 43
0.0208333333333333
 43
0.0
 43
0.0
 43
0.0
 43
0.0
 43
1.0
 43
0.0
 43
0.0
 43
0.0
 43
0.0
 43
1.0
 77
     0
 47
0.0208333333333333
 47
0.0
 47
0.0
 47
0.0
 47
0.0
 47
0.0208333333333333
 47
0.0
 47
0.0
 47
0.0
 47
0.0
 47
1.0
 47
0.0
 47
0.0
 47
0.0
 47
0.0
 47
1.0
171
     0
 49
0.0208333333333333
 49
0.0
 49
0.0
 49
0.0
 49
0.0
 49
0.0208333333333333
 49
0.0
 49
0.0
 49
0.0
 49
0.0
 49
1.0
 49
0.0
 49
0.0
 49
0.0
 49
0.0
 49
1.0
175
     0
142
0.0208333333333333
142
0.0
142
0.0
142
0.0
142
0.0
142
0.0208333333333333
142
0.0
142
0.0
142
0.0
142
0.0
142
1.0
142
0.0
142
0.0
142
0.0
142
0.0
142
1.0
179
     0
144
0.0208333333333333
144
0.0
144
0.0
144
0.0
144
0.0
144
0.0208333333333333
144
0.0
144
0.0
144
0.0
144
0.0
144
1.0
144
0.0
144
0.0
144
0.0
144
0.0
144
1.0
147
0.0208333333333333
147
0.0
147
0.0
147
0.0
147
0.0
147
0.0208333333333333
147
0.0
147
0.0
147
0.0
147
0.0
147
1.0
147
0.0
147
0.0
147
0.0
147
0.0
147
1.0
  0
MATERIAL
  5
328F
102
{ACAD_XDICTIONARY
360
3290
102
}
102
{ACAD_REACTORS
330
327E
102
}
330
327E
100
AcDbMaterial
  1
Global
 72
     0
 43
0.0208333333333333
 43
0.0
 43
0.0
 43
0.0
 43
0.0
 43
0.0208333333333333
 43
0.0
 43
0.0
 43
0.0
 43
0.0
 43
1.0
 43
0.0
 43
0.0
 43
0.0
 43
0.0
 43
1.0
 77
     0
 47
0.0208333333333333
 47
0.0
 47
0.0
 47
0.0
 47
0.0
 47
0.0208333333333333
 47
0.0
 47
0.0
 47
0.0
 47
0.0
 47
1.0
 47
0.0
 47
0.0
 47
0.0
 47
0.0
 47
1.0
171
     0
 49
0.0208333333333333
 49
0.0
 49
0.0
 49
0.0
 49
0.0
 49
0.0208333333333333
 49
0.0
 49
0.0
 49
0.0
 49
0.0
 49
1.0
 49
0.0
 49
0.0
 49
0.0
 49
0.0
 49
1.0
175
     0
142
0.0208333333333333
142
0.0
142
0.0
142
0.0
142
0.0
142
0.0208333333333333
142
0.0
142
0.0
142
0.0
142
0.0
142
1.0
142
0.0
142
0.0
142
0.0
142
0.0
142
1.0
179
     0
144
0.0208333333333333
144
0.0
144
0.0
144
0.0
144
0.0
144
0.0208333333333333
144
0.0
144
0.0
144
0.0
144
0.0
144
1.0
144
0.0
144
0.0
144
0.0
144
0.0
144
1.0
147
0.0208333333333333
147
0.0
147
0.0
147
0.0
147
0.0
147
0.0208333333333333
147
0.0
147
0.0
147
0.0
147
0.0
147
1.0
147
0.0
147
0.0
147
0.0
147
0.0
147
1.0
  0
MLEADERSTYLE
  5
32C6
102
{ACAD_REACTORS
330
32C5
102
}
330
32C5
100
AcDbMLeaderStyle
170
     2
171
     1
172
     0
 90
        2
 40
0.0
 41
0.0
173
     1
 91
-1056964608
340
3014
 92
       -2
290
     1
 42
0.09
291
     1
 43
0.36
  3
Standard
 44
0.18
300

342
3012
174
     1
178
     6
175
     1
176
     0
 93
-1056964608
 45
0.18
292
     0
297
     0
 46
0.18
 94
-1056964608
 47
1.0
 49
1.0
140
1.0
293
     1
141
0.0
294
     1
177
     0
142
1.0
295
     0
296
     0
143
0.125
1001
ACAD_MLEADERVER
1070
     2
  0
MLINESTYLE
  5
3018
102
{ACAD_REACTORS
330
3017
102
}
330
3017
100
AcDbMlineStyle
  2
STANDARD
 70
     0
  3

 62
   256
 51
90.0
 52
90.0
 71
     2
 49
0.5
 62
   256
  6
BYLAYER
 49
-0.5
 62
   256
  6
BYLAYER
  0
ACDBPLACEHOLDER
  5
327D
102
{ACAD_REACTORS
330
327C
102
}
330
327C
  0
SCALE
  5
32B4
102
{ACAD_REACTORS
330
32B3
102
}
330
32B3
100
AcDbScale
 70
     0
300
1:1
140
1.0
141
1.0
290
     1
  0
SCALE
  5
32B5
102
{ACAD_REACTORS
330
32B3
102
}
330
32B3
100
AcDbScale
 70
     0
300
1/128" = 1'-0"
140
0.0078125
141
12.0
290
     0
  0
SCALE
  5
32B6
102
{ACAD_REACTORS
330
32B3
102
}
330
32B3
100
AcDbScale
 70
     0
300
1/64" = 1'-0"
140
0.015625
141
12.0
290
     0
  0
SCALE
  5
32B7
102
{ACAD_REACTORS
330
32B3
102
}
330
32B3
100
AcDbScale
 70
     0
300
1/32" = 1'-0"
140
0.03125
141
12.0
290
     0
  0
SCALE
  5
32B8
102
{ACAD_REACTORS
330
32B3
102
}
330
32B3
100
AcDbScale
 70
     0
300
1/16" = 1'-0"
140
0.0625
141
12.0
290
     0
  0
SCALE
  5
32B9
102
{ACAD_REACTORS
330
32B3
102
}
330
32B3
100
AcDbScale
 70
     0
300
3/32" = 1'-0"
140
0.09375
141
12.0
290
     0
  0
SCALE
  5
32BA
102
{ACAD_REACTORS
330
32B3
102
}
330
32B3
100
AcDbScale
 70
     0
300
1/8" = 1'-0"
140
0.125
141
12.0
290
     0
  0
SCALE
  5
32BB
102
{ACAD_REACTORS
330
32B3
102
}
330
32B3
100
AcDbScale
 70
     0
300
3/16" = 1'-0"
140
0.1875
141
12.0
290
     0
  0
SCALE
  5
32BC
102
{ACAD_REACTORS
330
32B3
102
}
330
32B3
100
AcDbScale
 70
     0
300
1/4" = 1'-0"
140
0.25
141
12.0
290
     0
  0
SCALE
  5
32BD
102
{ACAD_REACTORS
330
32B3
102
}
330
32B3
100
AcDbScale
 70
     0
300
3/8" = 1'-0"
140
0.375
141
12.0
290
     0
  0
SCALE
  5
32BE
102
{ACAD_REACTORS
330
32B3
102
}
330
32B3
100
AcDbScale
 70
     0
300
1/2" = 1'-0"
140
0.5
141
12.0
290
     0
  0
SCALE
  5
32BF
102
{ACAD_REACTORS
330
32B3
102
}
330
32B3
100
AcDbScale
 70
     0
300
3/4" = 1'-0"
140
0.75
141
12.0
290
     0
  0
SCALE
  5
32C0
102
{ACAD_REACTORS
330
32B3
102
}
330
32B3
100
AcDbScale
 70
     0
300
1" = 1'-0"
140
1.0
141
12.0
290
     0
  0
SCALE
  5
32C1
102
{ACAD_REACTORS
330
32B3
102
}
330
32B3
100
AcDbScale
 70
     0
300
1-1/2" = 1'-0"
140
1.5
141
12.0
290
     0
  0
SCALE
  5
32C2
102
{ACAD_REACTORS
330
32B3
102
}
330
32B3
100
AcDbScale
 70
     0
300
3" = 1'-0"
140
3.0
141
12.0
290
     0
  0
SCALE
  5
32C3
102
{ACAD_REACTORS
330
32B3
102
}
330
32B3
100
AcDbScale
 70
     0
300
6" = 1'-0"
140
6.0
141
12.0
290
     0
  0
SCALE
  5
32C4
102
{ACAD_REACTORS
330
32B3
102
}
330
32B3
100
AcDbScale
 70
     0
300
1'-0" = 1'-0"
140
12.0
141
12.0
290
     0
  0
ACDBSECTIONVIEWSTYLE
  5
32C8
102
{ACAD_XDICTIONARY
360
3322
102
}
102
{ACAD_REACTORS
330
32C7
102
}
330
32C7
100
AcDbModelDocViewStyle
 70
     0
  3
Imperial24
290
     0
100
AcDbSectionViewStyle
 70
     0
 71
     0
 90
       78
 71
     1
340
3012
 40
0.24
340
0
340
0
 40
0.24
300
I, O, Q, S, X, Z
 40
0.48
 90
        3
 40
0.18
 90
        1
 71
     2
340
3016
 90
       25
340
3016
 90
       50
 40
0.24
 40
0.0
 40
0.24
 71
     3
340
3012
 40
0.24
 90
        1
 40
0.75
 90
        1
300
%<\AcVar ViewType \f "%tc1">% %<\AcVar ViewSectionStartId>%-%<\AcVar ViewSectionEndId>%\PSCALE %<\AcVar ViewScale \f "%sn">%
 71
     4
300
ANSI31
 40
1.0
 90
        0
290
     0
290
     0
 90
        6
 40
0.0
 40
1.570796326794896
 40
0.2617993877991494
 40
1.308996938995747
 40
-0.2617993877991494
 40
1.832595714594046
  0
TABLESTYLE
  5
32B2
102
{ACAD_XDICTIONARY
360
32E9
102
}
102
{ACAD_REACTORS
330
32B1
102
}
330
32B1
100
AcDbTableStyle
  3
Standard
 70
     0
 71
     0
 40
0.06
 41
0.06
280
     0
281
     0
  7
STANDARD
140
0.18
170
     2
 62
     0
 63
     7
283
     0
274
    -2
284
     1
 64
     0
275
    -2
285
     1
 65
     0
276
    -2
286
     1
 66
     0
277
    -2
287
     1
 67
     0
278
    -2
288
     1
 68
     0
279
    -2
289
     1
 69
     0
  7
STANDARD
140
0.25
170
     5
 62
     0
 63
     7
283
     0
274
    -2
284
     1
 64
     0
275
    -2
285
     1
 65
     0
276
    -2
286
     1
 66
     0
277
    -2
287
     1
 67
     0
278
    -2
288
     1
 68
     0
279
    -2
289
     1
 69
     0
  7
STANDARD
140
0.18
170
     5
 62
     0
 63
     7
283
     0
274
    -2
284
     1
 64
     0
275
    -2
285
     1
 65
     0
276
    -2
286
     1
 66
     0
277
    -2
287
     1
 67
     0
278
    -2
288
     1
 68
     0
279
    -2
289
     1
 69
     0
  0
VISUALSTYLE
  5
329D
102
{ACAD_XDICTIONARY
360
32FA
102
}
102
{ACAD_REACTORS
330
3297
102
}
330
3297
100
AcDbVisualStyle
  2
2dWireframe
 70
     4
 71
     0
 72
     2
 73
     0
 90
        0
 40
-0.6
 41
-30.0
 62
     5
 63
     7
 74
     1
 91
        4
 64
     7
 65
   257
 75
     1
175
     1
 42
1.0
 92
        0
 66
   257
 43
1.0
 76
     1
 77
     6
 78
     2
 67
     7
 79
     5
170
     0
171
     0
290
     0
174
     0
 93
        1
 44
0.0
173
     0
291
     0
 45
0.0
1001
ACAD
1000
AcDbSavedByObjectVersion
1070
     0
  0
VISUALSTYLE
  5
329C
102
{ACAD_XDICTIONARY
360
32F8
102
}
102
{ACAD_REACTORS
330
3297
102
}
330
3297
100
AcDbVisualStyle
  2
Basic
 70
     7
 71
     1
 72
     0
 73
     1
 90
        0
 40
-0.6
 41
-30.0
 62
     5
 63
     7
 74
     0
 91
        4
 64
     7
 65
   257
 75
     1
175
     1
 42
1.0
 92
        8
 66
     7
 43
1.0
 76
     1
 77
     6
 78
     2
 67
     7
 79
     5
170
     0
171
     0
290
     0
174
     0
 93
        1
 44
0.0
173
     0
291
     1
 45
0.0
1001
ACAD
1000
AcDbSavedByObjectVersion
1070
     0
  0
VISUALSTYLE
  5
32A3
102
{ACAD_XDICTIONARY
360
3306
102
}
102
{ACAD_REACTORS
330
3297
102
}
330
3297
100
AcDbVisualStyle
  2
Brighten
 70
    12
 71
     2
 72
     2
 73
     0
 90
        0
 40
-0.6
 41
-30.0
 62
     5
 63
     7
 74
     1
 91
        4
 64
     7
 65
   257
 75
     1
175
     1
 42
1.0
 92
        8
 66
     7
 43
1.0
 76
     1
 77
     6
 78
     2
 67
     7
 79
     5
170
     0
171
     0
290
     0
174
     0
 93
        1
 44
50.0
173
     0
291
     1
 45
0.0
1001
ACAD
1000
AcDbSavedByObjectVersion
1070
     0
  0
VISUALSTYLE
  5
32A7
102
{ACAD_XDICTIONARY
360
330E
102
}
102
{ACAD_REACTORS
330
3297
102
}
330
3297
100
AcDbVisualStyle
  2
ColorChange
 70
    16
 71
     2
 72
     2
 73
     3
 90
        0
 40
-0.6
 41
-30.0
 62
     5
 63
     8
 74
     1
 91
        4
 64
     7
 65
   257
 75
     1
175
     1
 42
1.0
 92
        8
 66
     8
 43
1.0
 76
     1
 77
     6
 78
     2
 67
     7
 79
     5
170
     0
171
     0
290
     0
174
     0
 93
        1
 44
0.0
173
     0
291
     1
 45
0.0
1001
ACAD
1000
AcDbSavedByObjectVersion
1070
     0
  0
VISUALSTYLE
  5
32A0
102
{ACAD_XDICTIONARY
360
3300
102
}
102
{ACAD_REACTORS
330
3297
102
}
330
3297
100
AcDbVisualStyle
  2
Conceptual
 70
     9
 71
     3
 72
     2
 73
     0
 90
        0
 40
-0.6
 41
-30.0
 62
     5
 63
     7
 74
     2
 91
        2
 64
     7
 65
   257
 75
     1
175
     1
 42
179.0
 92
        8
 66
     7
 43
1.0
 76
     1
 77
     6
 78
     2
 67
     7
 79
     3
170
     0
171
     0
290
     0
174
     0
 93
        1
 44
0.0
173
     0
291
     0
 45
0.0
1001
ACAD
1000
AcDbSavedByObjectVersion
1070
     0
  0
VISUALSTYLE
  5
32A2
102
{ACAD_XDICTIONARY
360
3304
102
}
102
{ACAD_REACTORS
330
3297
102
}
330
3297
100
AcDbVisualStyle
  2
Dim
 70
    11
 71
     2
 72
     2
 73
     0
 90
        0
 40
-0.6
 41
-30.0
 62
     5
 63
     7
 74
     1
 91
        4
 64
     7
 65
   257
 75
     1
175
     1
 42
1.0
 92
        8
 66
     7
 43
1.0
 76
     1
 77
     6
 78
     2
 67
     7
 79
     5
170
     0
171
     0
290
     0
174
     0
 93
        1
 44
-50.0
173
     0
291
     1
 45
0.0
1001
ACAD
1000
AcDbSavedByObjectVersion
1070
     0
  0
VISUALSTYLE
  5
32AF
102
{ACAD_XDICTIONARY
360
331E
102
}
102
{ACAD_REACTORS
330
3297
102
}
330
3297
100
AcDbVisualStyle
  2
EdgeColorOff
 70
    22
 71
     2
 72
     2
 73
     0
 90
        0
 40
-0.6
 41
-30.0
 62
     5
 63
     7
 74
     1
 91
        4
 64
     7
 65
   257
 75
     1
175
     1
 42
1.0
 92
        8
 66
     7
 43
1.0
 76
     1
 77
     6
 78
     2
 67
     7
 79
     5
170
     0
171
     0
290
     0
174
     0
 93
        1
 44
0.0
173
     0
291
     1
 45
0.0
1001
ACAD
1000
AcDbSavedByObjectVersion
1070
     0
  0
VISUALSTYLE
  5
32A6
102
{ACAD_XDICTIONARY
360
330C
102
}
102
{ACAD_REACTORS
330
3297
102
}
330
3297
100
AcDbVisualStyle
  2
Facepattern
 70
    15
 71
     2
 72
     2
 73
     0
 90
        0
 40
-0.6
 41
-30.0
 62
     5
 63
     7
 74
     1
 91
        4
 64
     7
 65
   257
 75
     1
175
     1
 42
1.0
 92
        8
 66
     7
 43
1.0
 76
     1
 77
     6
 78
     2
 67
     7
 79
     5
170
     0
171
     0
290
     0
174
     0
 93
        1
 44
0.0
173
     0
291
     1
 45
0.0
1001
ACAD
1000
AcDbSavedByObjectVersion
1070
     0
  0
VISUALSTYLE
  5
3298
102
{ACAD_XDICTIONARY
360
32F0
102
}
102
{ACAD_REACTORS
330
3297
102
}
330
3297
100
AcDbVisualStyle
  2
Flat
 70
     0
 71
     2
 72
     1
 73
     1
 90
        2
 40
-0.6
 41
30.0
 62
     5
 63
     7
 74
     0
 91
        0
 64
     7
 65
   257
 75
     1
175
     1
 42
1.0
 92
        8
 66
     7
 43
1.0
 76
     1
 77
     6
 78
     2
 67
     7
 79
     5
170
     0
171
     0
290
     0
174
     0
 93
       13
 44
0.0
173
     0
291
     1
 45
0.0
1001
ACAD
1000
AcDbSavedByObjectVersion
1070
     0
  0
VISUALSTYLE
  5
3299
102
{ACAD_XDICTIONARY
360
32F2
102
}
102
{ACAD_REACTORS
330
3297
102
}
330
3297
100
AcDbVisualStyle
  2
FlatWithEdges
 70
     1
 71
     2
 72
     1
 73
     1
 90
        2
 40
-0.6
 41
30.0
 62
     5
 63
     7
 74
     1
 91
        0
 64
     7
 65
   257
 75
     1
175
     1
 42
1.0
 92
        0
 66
   257
 43
1.0
 76
     1
 77
     6
 78
     2
 67
     7
 79
     5
170
     0
171
     0
290
     0
174
     0
 93
       13
 44
0.0
173
     0
291
     1
 45
0.0
1001
ACAD
1000
AcDbSavedByObjectVersion
1070
     0
  0
VISUALSTYLE
  5
329A
102
{ACAD_XDICTIONARY
360
32F4
102
}
102
{ACAD_REACTORS
330
3297
102
}
330
3297
100
AcDbVisualStyle
  2
Gouraud
 70
     2
 71
     2
 72
     2
 73
     1
 90
        2
 40
-0.6
 41
30.0
 62
     5
 63
     7
 74
     0
 91
        0
 64
     7
 65
   257
 75
     1
175
     1
 42
1.0
 92
        0
 66
     7
 43
1.0
 76
     1
 77
     6
 78
     2
 67
     7
 79
     5
170
     0
171
     0
290
     0
174
     0
 93
       13
 44
0.0
173
     0
291
     1
 45
0.0
1001
ACAD
1000
AcDbSavedByObjectVersion
1070
     0
  0
VISUALSTYLE
  5
329B
102
{ACAD_XDICTIONARY
360
32F6
102
}
102
{ACAD_REACTORS
330
3297
102
}
330
3297
100
AcDbVisualStyle
  2
GouraudWithEdges
 70
     3
 71
     2
 72
     2
 73
     1
 90
        2
 40
-0.6
 41
30.0
 62
     5
 63
     7
 74
     1
 91
        0
 64
     7
 65
   257
 75
     1
175
     1
 42
1.0
 92
        0
 66
   257
 43
1.0
 76
     1
 77
     6
 78
     2
 67
     7
 79
     5
170
     0
171
     0
290
     0
174
     0
 93
       13
 44
0.0
173
     0
291
     1
 45
0.0
1001
ACAD
1000
AcDbSavedByObjectVersion
1070
     0
  0
VISUALSTYLE
  5
329F
102
{ACAD_XDICTIONARY
360
32FE
102
}
102
{ACAD_REACTORS
330
3297
102
}
330
3297
100
AcDbVisualStyle
  2
Hidden
 70
     6
 71
     1
 72
     2
 73
     2
 90
        0
 40
-0.6
 41
-30.0
 62
     5
 63
     7
 74
     2
 91
        2
 64
     7
 65
   257
 75
     2
175
     1
 42
40.0
 92
        0
 66
   257
 43
1.0
 76
     1
 77
     6
 78
     2
 67
     7
 79
     3
170
     0
171
     0
290
     0
174
     0
 93
        1
 44
0.0
173
     0
291
     0
 45
0.0
1001
ACAD
1000
AcDbSavedByObjectVersion
1070
     0
  0
VISUALSTYLE
  5
32AD
102
{ACAD_XDICTIONARY
360
331A
102
}
102
{ACAD_REACTORS
330
3297
102
}
330
3297
100
AcDbVisualStyle
  2
JitterOff
 70
    20
 71
     2
 72
     2
 73
     0
 90
        0
 40
-0.6
 41
-30.0
 62
     5
 63
     7
 74
     1
 91
        4
 64
     7
 65
   257
 75
     1
175
     1
 42
1.0
 92
       10
 66
     7
 43
1.0
 76
     1
 77
     6
 78
     2
 67
     7
 79
     5
170
     0
171
     0
290
     0
174
     0
 93
        1
 44
0.0
173
     0
291
     1
 45
0.0
1001
ACAD
1000
AcDbSavedByObjectVersion
1070
     0
  0
VISUALSTYLE
  5
32A5
102
{ACAD_XDICTIONARY
360
330A
102
}
102
{ACAD_REACTORS
330
3297
102
}
330
3297
100
AcDbVisualStyle
  2
Linepattern
 70
    14
 71
     2
 72
     2
 73
     0
 90
        0
 40
-0.6
 41
-30.0
 62
     5
 63
     7
 74
     1
 91
        4
 64
     7
 65
   257
 75
     7
175
     7
 42
1.0
 92
        8
 66
     7
 43
1.0
 76
     1
 77
     6
 78
     2
 67
     7
 79
     5
170
     0
171
     0
290
     0
174
     0
 93
        1
 44
0.0
173
     0
291
     1
 45
0.0
1001
ACAD
1000
AcDbSavedByObjectVersion
1070
     0
  0
VISUALSTYLE
  5
32AE
102
{ACAD_XDICTIONARY
360
331C
102
}
102
{ACAD_REACTORS
330
3297
102
}
330
3297
100
AcDbVisualStyle
  2
OverhangOff
 70
    21
 71
     2
 72
     2
 73
     0
 90
        0
 40
-0.6
 41
-30.0
 62
     5
 63
     7
 74
     1
 91
        4
 64
     7
 65
   257
 75
     1
175
     1
 42
1.0
 92
        9
 66
     7
 43
1.0
 76
     1
 77
     6
 78
     2
 67
     7
 79
     5
170
     0
171
     0
290
     0
174
     0
 93
        1
 44
0.0
173
     0
291
     1
 45
0.0
1001
ACAD
1000
AcDbSavedByObjectVersion
1070
     0
  0
VISUALSTYLE
  5
32A1
102
{ACAD_XDICTIONARY
360
3302
102
}
102
{ACAD_REACTORS
330
3297
102
}
330
3297
100
AcDbVisualStyle
  2
Realistic
 70
     8
 71
     2
 72
     3
 73
     0
 90
        2
 40
-0.6
 41
30.0
 62
     5
 63
     7
 74
     0
 91
        0
 64
     7
 65
   257
 75
     1
175
     1
 42
1.0
 92
        8
 66
   257
 43
1.0
 76
     1
 77
     6
 78
     2
 67
     7
 79
     3
170
     0
171
     0
290
     0
174
     0
 93
       13
 44
0.0
173
     0
291
     0
 45
0.0
1001
ACAD
1000
AcDbSavedByObjectVersion
1070
     0
  0
VISUALSTYLE
  5
32AC
102
{ACAD_XDICTIONARY
360
3318
102
}
102
{ACAD_REACTORS
330
3297
102
}
330
3297
100
AcDbVisualStyle
  2
Shaded
 70
    27
 71
     2
 72
     2
 73
     1
 90
        2
 40
-0.6
 41
30.0
 62
     5
 63
     7
 74
     0
 91
        4
 64
     7
 65
   257
 75
     1
175
     1
 42
1.0
 92
        8
 66
   257
 43
1.0
 76
     1
 77
     6
 78
     2
 67
     8
 79
     3
170
     0
171
     0
290
     0
174
     0
 93
        5
 44
0.0
173
     0
291
     0
 45
0.0
1001
ACAD
1000
AcDbSavedByObjectVersion
1070
     0
  0
VISUALSTYLE
  5
32AB
102
{ACAD_XDICTIONARY
360
3316
102
}
102
{ACAD_REACTORS
330
3297
102
}
330
3297
100
AcDbVisualStyle
  2
Shaded with edges
 70
    26
 71
     2
 72
     2
 73
     1
 90
        2
 40
-0.6
 41
30.0
 62
     5
 63
     7
 74
     1
 91
       10
 64
     7
 65
   257
 75
     2
175
     1
 42
1.0
 92
        8
 66
   257
 43
1.0
 76
     1
 77
     6
 78
     2
 67
     7
 79
     3
170
     0
171
     0
290
     0
174
     0
 93
        5
 44
0.0
173
     0
291
     0
 45
0.0
1001
ACAD
1000
AcDbSavedByObjectVersion
1070
     0
  0
VISUALSTYLE
  5
32A8
102
{ACAD_XDICTIONARY
360
3310
102
}
102
{ACAD_REACTORS
330
3297
102
}
330
3297
100
AcDbVisualStyle
  2
Shades of Gray
 70
    23
 71
     2
 72
     2
 73
     3
 90
        0
 40
-0.6
 41
-30.0
 62
     5
 63
     7
 74
     2
 91
        2
 64
     7
 65
     7
 75
     1
175
     1
 42
40.0
 92
        8
 66
     7
 43
1.0
 76
     1
 77
     6
 78
     2
 67
     7
 79
     3
170
     0
171
     0
290
     0
174
     0
 93
        1
 44
0.0
173
     0
291
     0
 45
0.0
1001
ACAD
1000
AcDbSavedByObjectVersion
1070
     0
  0
VISUALSTYLE
  5
32A9
102
{ACAD_XDICTIONARY
360
3312
102
}
102
{ACAD_REACTORS
330
3297
102
}
330
3297
100
AcDbVisualStyle
  2
Sketchy
 70
    24
 71
     1
 72
     2
 73
     2
 90
        0
 40
-0.6
 41
-30.0
 62
     5
 63
     7
 74
     2
 91
        2
 64
     7
 65
     7
 75
     1
175
     1
 42
40.0
 92
       11
 66
     7
 43
1.0
 76
     1
 77
     6
 78
     2
 67
     7
 79
     6
170
     0
171
     0
290
     0
174
     0
 93
        1
 44
0.0
173
     0
291
     0
 45
0.0
1001
ACAD
1000
AcDbSavedByObjectVersion
1070
     0
  0
VISUALSTYLE
  5
32A4
102
{ACAD_XDICTIONARY
360
3308
102
}
102
{ACAD_REACTORS
330
3297
102
}
330
3297
100
AcDbVisualStyle
  2
Thicken
 70
    13
 71
     2
 72
     2
 73
     0
 90
        0
 40
-0.6
 41
-30.0
 62
     5
 63
     7
 74
     1
 91
        4
 64
     7
 65
   257
 75
     1
175
     1
 42
1.0
 92
       12
 66
     7
 43
1.0
 76
     1
 77
     6
 78
     2
 67
     7
 79
     5
170
     0
171
     0
290
     0
174
     0
 93
        1
 44
0.0
173
     0
291
     1
 45
0.0
1001
ACAD
1000
AcDbSavedByObjectVersion
1070
     0
  0
VISUALSTYLE
  5
329E
102
{ACAD_XDICTIONARY
360
32FC
102
}
102
{ACAD_REACTORS
330
3297
102
}
330
3297
100
AcDbVisualStyle
  2
Wireframe
 70
     5
 71
     0
 72
     2
 73
     0
 90
        0
 40
-0.6
 41
-30.0
 62
     5
 63
     7
 74
     1
 91
        4
 64
     7
 65
   257
 75
     1
175
     1
 42
1.0
 92
        0
 66
   257
 43
1.0
 76
     1
 77
     6
 78
     2
 67
     7
 79
     3
170
     0
171
     0
290
     0
174
     0
 93
        1
 44
0.0
173
     0
291
     0
 45
0.0
1001
ACAD
1000
AcDbSavedByObjectVersion
1070
     0
  0
VISUALSTYLE
  5
32AA
102
{ACAD_XDICTIONARY
360
3314
102
}
102
{ACAD_REACTORS
330
3297
102
}
330
3297
100
AcDbVisualStyle
  2
X-Ray
 70
    25
 71
     2
 72
     2
 73
     1
 90
        1
 40
0.5
 41
-30.0
 62
     5
 63
     7
 74
     1
 91
        0
 64
     7
 65
   257
 75
     1
175
     1
 42
1.0
 92
        8
 66
     7
 43
1.0
 76
     1
 77
     6
 78
     2
 67
     7
 79
     3
170
     0
171
     0
290
     0
174
     0
 93
       13
 44
0.0
173
     0
291
     0
 45
0.0
1001
ACAD
1000
AcDbSavedByObjectVersion
1070
     0
  0
DICTIONARYVAR
  5
32E3
102
{ACAD_REACTORS
330
32DE
102
}
330
32DE
100
DictionaryVariables
280
     0
  1
1:1
  0
DICTIONARYVAR
  5
32E0
102
{ACAD_REACTORS
330
32DE
102
}
330
32DE
100
DictionaryVariables
280
     0
  1
STANDARD
  0
DICTIONARYVAR
  5
32DF
102
{ACAD_REACTORS
330
32DE
102
}
330
32DE
100
DictionaryVariables
280
     0
  1
STANDARD
  0
DICTIONARYVAR
  5
32E1
102
{ACAD_REACTORS
330
32DE
102
}
330
32DE
100
DictionaryVariables
280
     0
  1
Imperial24
  0
DICTIONARYVAR
  5
32E2
102
{ACAD_REACTORS
330
32DE
102
}
330
32DE
100
DictionaryVariables
280
     0
  1
Imperial24
  0
DICTIONARYVAR
  5
32E6
102
{ACAD_REACTORS
330
32DE
102
}
330
32DE
100
DictionaryVariables
280
     0
  1
1
  0
DICTIONARYVAR
  5
32E5
102
{ACAD_REACTORS
330
32DE
102
}
330
32DE
100
DictionaryVariables
280
     0
  1
0
  0
DICTIONARYVAR
  5
32E4
102
{ACAD_REACTORS
330
32DE
102
}
330
32DE
100
DictionaryVariables
280
     0
  1
127
  0
DICTIONARYVAR
  5
32E7
102
{ACAD_REACTORS
330
32DE
102
}
330
32DE
100
DictionaryVariables
280
     0
  1
2
  0
DICTIONARY
  5
3324
330
32CA
100
AcDbDictionary
280
     1
281
     1
  3
ACAD_XREC_ROUNDTRIP
360
3325
  0
DICTIONARY
  5
3326
330
32CB
100
AcDbDictionary
280
     1
281
     1
  3
ACAD_XREC_ROUNDTRIP
360
3327
  0
DICTIONARY
  5
3328
330
32CC
100
AcDbDictionary
280
     1
281
     1
  3
ACAD_XREC_ROUNDTRIP
360
3329
  0
DICTIONARY
  5
3288
330
3287
100
AcDbDictionary
280
     1
281
     1
  3
ACAD_XREC_ROUNDTRIP
360
32EE
  3
BUMPTILE
360
328A
  3
DIFFUSETILE
360
3289
  3
OPACITYTILE
360
328D
  3
REFLECTIONTILE
360
328C
  3
REFRACTIONTILE
360
328E
  3
SPECULARTILE
360
328B
  0
DICTIONARY
  5
3280
330
327F
100
AcDbDictionary
280
     1
281
     1
  3
ACAD_XREC_ROUNDTRIP
360
32ED
  3
BUMPTILE
360
3282
  3
DIFFUSETILE
360
3281
  3
OPACITYTILE
360
3285
  3
REFLECTIONTILE
360
3284
  3
REFRACTIONTILE
360
3286
  3
SPECULARTILE
360
3283
  0
DICTIONARY
  5
3290
330
328F
100
AcDbDictionary
280
     1
281
     1
  3
ACAD_XREC_ROUNDTRIP
360
32EF
  3
BUMPTILE
360
3292
  3
DIFFUSETILE
360
3291
  3
OPACITYTILE
360
3295
  3
REFLECTIONTILE
360
3294
  3
REFRACTIONTILE
360
3296
  3
SPECULARTILE
360
3293
  0
DICTIONARY
  5
3322
330
32C8
100
AcDbDictionary
280
     1
281
     1
  3
ACAD_XREC_ROUNDTRIP
360
3323
  0
DICTIONARY
  5
32E9
330
32B2
100
AcDbDictionary
280
     1
281
     1
  3
ACAD_ROUNDTRIP_2008_TABLESTYLE_CELLSTYLEMAP
360
32EA
  3
ACAD_XREC_ROUNDTRIP
360
3320
  0
DICTIONARY
  5
32FA
330
329D
100
AcDbDictionary
280
     1
281
     1
  3
ACAD_XREC_ROUNDTRIP
360
32FB
  0
DICTIONARY
  5
32F8
330
329C
100
AcDbDictionary
280
     1
281
     1
  3
ACAD_XREC_ROUNDTRIP
360
32F9
  0
DICTIONARY
  5
3306
330
32A3
100
AcDbDictionary
280
     1
281
     1
  3
ACAD_XREC_ROUNDTRIP
360
3307
  0
DICTIONARY
  5
330E
330
32A7
100
AcDbDictionary
280
     1
281
     1
  3
ACAD_XREC_ROUNDTRIP
360
330F
  0
DICTIONARY
  5
3300
330
32A0
100
AcDbDictionary
280
     1
281
     1
  3
ACAD_XREC_ROUNDTRIP
360
3301
  0
DICTIONARY
  5
3304
330
32A2
100
AcDbDictionary
280
     1
281
     1
  3
ACAD_XREC_ROUNDTRIP
360
3305
  0
DICTIONARY
  5
331E
330
32AF
100
AcDbDictionary
280
     1
281
     1
  3
ACAD_XREC_ROUNDTRIP
360
331F
  0
DICTIONARY
  5
330C
330
32A6
100
AcDbDictionary
280
     1
281
     1
  3
ACAD_XREC_ROUNDTRIP
360
330D
  0
DICTIONARY
  5
32F0
330
3298
100
AcDbDictionary
280
     1
281
     1
  3
ACAD_XREC_ROUNDTRIP
360
32F1
  0
DICTIONARY
  5
32F2
330
3299
100
AcDbDictionary
280
     1
281
     1
  3
ACAD_XREC_ROUNDTRIP
360
32F3
  0
DICTIONARY
  5
32F4
330
329A
100
AcDbDictionary
280
     1
281
     1
  3
ACAD_XREC_ROUNDTRIP
360
32F5
  0
DICTIONARY
  5
32F6
330
329B
100
AcDbDictionary
280
     1
281
     1
  3
ACAD_XREC_ROUNDTRIP
360
32F7
  0
DICTIONARY
  5
32FE
330
329F
100
AcDbDictionary
280
     1
281
     1
  3
ACAD_XREC_ROUNDTRIP
360
32FF
  0
DICTIONARY
  5
331A
330
32AD
100
AcDbDictionary
280
     1
281
     1
  3
ACAD_XREC_ROUNDTRIP
360
331B
  0
DICTIONARY
  5
330A
330
32A5
100
AcDbDictionary
280
     1
281
     1
  3
ACAD_XREC_ROUNDTRIP
360
330B
  0
DICTIONARY
  5
331C
330
32AE
100
AcDbDictionary
280
     1
281
     1
  3
ACAD_XREC_ROUNDTRIP
360
331D
  0
DICTIONARY
  5
3302
330
32A1
100
AcDbDictionary
280
     1
281
     1
  3
ACAD_XREC_ROUNDTRIP
360
3303
  0
DICTIONARY
  5
3318
330
32AC
100
AcDbDictionary
280
     1
281
     1
  3
ACAD_XREC_ROUNDTRIP
360
3319
  0
DICTIONARY
  5
3316
330
32AB
100
AcDbDictionary
280
     1
281
     1
  3
ACAD_XREC_ROUNDTRIP
360
3317
  0
DICTIONARY
  5
3310
330
32A8
100
AcDbDictionary
280
     1
281
     1
  3
ACAD_XREC_ROUNDTRIP
360
3311
  0
DICTIONARY
  5
3312
330
32A9
100
AcDbDictionary
280
     1
281
     1
  3
ACAD_XREC_ROUNDTRIP
360
3313
  0
DICTIONARY
  5
3308
330
32A4
100
AcDbDictionary
280
     1
281
     1
  3
ACAD_XREC_ROUNDTRIP
360
3309
  0
DICTIONARY
  5
32FC
330
329E
100
AcDbDictionary
280
     1
281
     1
  3
ACAD_XREC_ROUNDTRIP
360
32FD
  0
DICTIONARY
  5
3314
330
32AA
100
AcDbDictionary
280
     1
281
     1
  3
ACAD_XREC_ROUNDTRIP
360
3315
  0
XRECORD
  5
3325
102
{ACAD_REACTORS
330
3324
102
}
330
3324
100
AcDbXrecord
280
     1
102
DISPLAYNAME
  1
Imperial24
102
FLAGS
 90
        0
  0
XRECORD
  5
3327
102
{ACAD_REACTORS
330
3326
102
}
330
3326
100
AcDbXrecord
280
     1
102
SHADEPLOT
 70
     0
102
SHADEPLOTRESLEVEL
 70
     2
102
SHADEPLOTCUSTOMDPI
 70
   300
  0
XRECORD
  5
3329
102
{ACAD_REACTORS
330
3328
102
}
330
3328
100
AcDbXrecord
280
     1
102
SHADEPLOT
 70
     0
102
SHADEPLOTRESLEVEL
 70
     2
102
SHADEPLOTCUSTOMDPI
 70
   300
  0
XRECORD
  5
32EE
102
{ACAD_REACTORS
330
3288
102
}
330
3288
100
AcDbXrecord
280
     1
102
MATERIAL
148
0.0
149
0.0
149
0.0
 93
        0
 94
      127
282
     0
 72
     0
 77
     0
171
     0
175
     0
179
     0
273
     0
  0
XRECORD
  5
328A
102
{ACAD_REACTORS
330
3288
102
}
330
3288
100
AcDbXrecord
280
     1
270
     1
271
     1
  0
XRECORD
  5
3289
102
{ACAD_REACTORS
330
3288
102
}
330
3288
100
AcDbXrecord
280
     1
270
     1
271
     1
  0
XRECORD
  5
328D
102
{ACAD_REACTORS
330
3288
102
}
330
3288
100
AcDbXrecord
280
     1
270
     1
271
     1
  0
XRECORD
  5
328C
102
{ACAD_REACTORS
330
3288
102
}
330
3288
100
AcDbXrecord
280
     1
270
     1
271
     1
  0
XRECORD
  5
328E
102
{ACAD_REACTORS
330
3288
102
}
330
3288
100
AcDbXrecord
280
     1
270
     1
271
     1
  0
XRECORD
  5
328B
102
{ACAD_REACTORS
330
3288
102
}
330
3288
100
AcDbXrecord
280
     1
270
     1
271
     1
  0
XRECORD
  5
32ED
102
{ACAD_REACTORS
330
3280
102
}
330
3280
100
AcDbXrecord
280
     1
102
MATERIAL
148
0.0
149
0.0
149
0.0
 93
        0
 94
      127
282
     0
 72
     0
 77
     0
171
     0
175
     0
179
     0
273
     0
  0
XRECORD
  5
3282
102
{ACAD_REACTORS
330
3280
102
}
330
3280
100
AcDbXrecord
280
     1
270
     1
271
     1
  0
XRECORD
  5
3281
102
{ACAD_REACTORS
330
3280
102
}
330
3280
100
AcDbXrecord
280
     1
270
     1
271
     1
  0
XRECORD
  5
3285
102
{ACAD_REACTORS
330
3280
102
}
330
3280
100
AcDbXrecord
280
     1
270
     1
271
     1
  0
XRECORD
  5
3284
102
{ACAD_REACTORS
330
3280
102
}
330
3280
100
AcDbXrecord
280
     1
270
     1
271
     1
  0
XRECORD
  5
3286
102
{ACAD_REACTORS
330
3280
102
}
330
3280
100
AcDbXrecord
280
     1
270
     1
271
     1
  0
XRECORD
  5
3283
102
{ACAD_REACTORS
330
3280
102
}
330
3280
100
AcDbXrecord
280
     1
270
     1
271
     1
  0
XRECORD
  5
32EF
102
{ACAD_REACTORS
330
3290
102
}
330
3290
100
AcDbXrecord
280
     1
102
MATERIAL
148
0.0
149
0.0
149
0.0
 93
        0
 94
      127
282
     0
 72
     0
 77
     0
171
     0
175
     0
179
     0
273
     0
  0
XRECORD
  5
3292
102
{ACAD_REACTORS
330
3290
102
}
330
3290
100
AcDbXrecord
280
     1
270
     1
271
     1
  0
XRECORD
  5
3291
102
{ACAD_REACTORS
330
3290
102
}
330
3290
100
AcDbXrecord
280
     1
270
     1
271
     1
  0
XRECORD
  5
3295
102
{ACAD_REACTORS
330
3290
102
}
330
3290
100
AcDbXrecord
280
     1
270
     1
271
     1
  0
XRECORD
  5
3294
102
{ACAD_REACTORS
330
3290
102
}
330
3290
100
AcDbXrecord
280
     1
270
     1
271
     1
  0
XRECORD
  5
3296
102
{ACAD_REACTORS
330
3290
102
}
330
3290
100
AcDbXrecord
280
     1
270
     1
271
     1
  0
XRECORD
  5
3293
102
{ACAD_REACTORS
330
3290
102
}
330
3290
100
AcDbXrecord
280
     1
270
     1
271
     1
  0
XRECORD
  5
3323
102
{ACAD_REACTORS
330
3322
102
}
330
3322
100
AcDbXrecord
280
     1
102
DISPLAYNAME
  1
Imperial24
102
FLAGS
 90
        0
  0
CELLSTYLEMAP
  5
32EA
102
{ACAD_REACTORS
330
32E9
102
}
330
32E9
100
AcDbCellStyleMap
 90
        3
300
CELLSTYLE
  1
TABLEFORMAT_BEGIN
 90
        5
170
     1
 91
        0
 92
    32768
 62
   257
 93
        1
300
CONTENTFORMAT
  1
CONTENTFORMAT_BEGIN
 90
        0
 91
        0
 92
      512
 93
        0
300

 40
0.0
140
1.0
 94
        5
 62
     0
340
3012
144
0.25
309
CONTENTFORMAT_END
171
     0
 94
        0
309
TABLEFORMAT_END
  1
CELLSTYLE_BEGIN
 90
        1
 91
        1
300
_TITLE
309
CELLSTYLE_END
300
CELLSTYLE
  1
TABLEFORMAT_BEGIN
 90
        5
170
     1
 91
        0
 92
        0
 62
   257
 93
        1
300
CONTENTFORMAT
  1
CONTENTFORMAT_BEGIN
 90
        0
 91
        0
 92
      512
 93
        0
300

 40
0.0
140
1.0
 94
        5
 62
     0
340
3012
144
0.18
309
CONTENTFORMAT_END
171
     0
 94
        0
309
TABLEFORMAT_END
  1
CELLSTYLE_BEGIN
 90
        2
 91
        1
300
_HEADER
309
CELLSTYLE_END
300
CELLSTYLE
  1
TABLEFORMAT_BEGIN
 90
        5
170
     1
 91
        0
 92
        0
 62
   257
 93
        1
300
CONTENTFORMAT
  1
CONTENTFORMAT_BEGIN
 90
        0
 91
        0
 92
      512
 93
        0
300

 40
0.0
140
1.0
 94
        2
 62
     0
340
3012
144
0.18
309
CONTENTFORMAT_END
171
     0
 94
        0
309
TABLEFORMAT_END
  1
CELLSTYLE_BEGIN
 90
        3
 91
        2
300
_DATA
309
CELLSTYLE_END
  0
XRECORD
  5
3320
102
{ACAD_REACTORS
330
32E9
102
}
330
32E9
100
AcDbXrecord
280
     1
102
ACAD_ROUNDTRIP_PRE2007_TABLESTYLE
 90
      512
 91
        0
  1

 92
      512
 93
        0
  2

 94
      512
 95
        0
  3

  0
XRECORD
  5
32FB
102
{ACAD_REACTORS
330
32FA
102
}
330
32FA
100
AcDbXrecord
280
     1
102
RTVSPost2010Prop28
280
     1
102
RTVSPost2010PropOp28
 70
     1
102
RTVSPost2010Prop29
280
     1
102
RTVSPost2010PropOp29
 70
     1
102
RTVSPost2010Prop30
280
     0
102
RTVSPost2010PropOp30
 70
     1
102
RTVSPost2010Prop31
280
     0
102
RTVSPost2010PropOp31
 70
     1
102
RTVSPost2010Prop32
280
     0
102
RTVSPost2010PropOp32
 70
     1
102
RTVSPost2010Prop33
280
     0
102
RTVSPost2010PropOp33
 70
     1
102
RTVSPost2010Prop34
280
     0
102
RTVSPost2010PropOp34
 70
     1
102
RTVSPost2010Prop35
280
     0
102
RTVSPost2010PropOp35
 70
     1
102
RTVSPost2010Prop36
280
     0
102
RTVSPost2010PropOp36
 70
     1
102
RTVSPost2010Prop37
 90
       50
102
RTVSPost2010PropOp37
 70
     1
102
RTVSPost2010Prop38
140
0.0
102
RTVSPost2010PropOp38
 70
     1
102
RTVSPost2010Prop39
140
1.0
102
RTVSPost2010PropOp39
 70
     1
102
RTVSPost2010Prop40
 90
        0
102
RTVSPost2010PropOp40
 70
     1
102
RTVSPost2010Prop41ColorIndex
 90
       18
102
RTVSPost2010Prop41ColorRGB
 90
        0
102
RTVSPost2010PropOp41
 70
     1
102
RTVSPost2010Prop42
 90
       50
102
RTVSPost2010PropOp42
 70
     1
102
RTVSPost2010Prop43
 90
        3
102
RTVSPost2010PropOp43
 70
     1
102
RTVSPost2010Prop44ColorIndex
 90
        5
102
RTVSPost2010Prop44ColorRGB
 90
      255
102
RTVSPost2010PropOp44
 70
     1
102
RTVSPost2010Prop45
280
     0
102
RTVSPost2010PropOp45
 70
     1
102
RTVSPost2010Prop46
 90
       50
102
RTVSPost2010PropOp46
 70
     1
102
RTVSPost2010Prop47
 90
       50
102
RTVSPost2010PropOp47
 70
     1
102
RTVSPost2010Prop48
 90
       50
102
RTVSPost2010PropOp48
 70
     1
102
RTVSPost2010Prop49
280
     0
102
RTVSPost2010PropOp49
 70
     1
102
RTVSPost2010Prop50
 90
       50
102
RTVSPost2010PropOp50
 70
     1
102
RTVSPost2010Prop51ColorIndex
 90
      256
102
RTVSPost2010Prop51ColorRGB
 90
-16777216
102
RTVSPost2010PropOp51
 70
     0
102
RTVSPost2010Prop52
140
1.0
102
RTVSPost2010PropOp52
 70
     0
102
RTVSPost2010Prop53
 90
        2
102
RTVSPost2010PropOp53
 70
     1
102
RTVSPost2010Prop54
  1
strokes_ogs.tif
102
RTVSPost2010PropOp54
 70
     1
102
RTVSPost2010Prop55
280
     0
102
RTVSPost2010PropOp55
 70
     1
102
RTVSPost2010Prop56
140
1.0
102
RTVSPost2010PropOp56
 70
     1
102
RTVSPost2010Prop57
140
1.0
102
RTVSPost2010PropOp57
 70
     1
102
RTVSPropertyOp0
 70
     1
102
RTVSPropertyOp1
 70
     1
102
RTVSPropertyOp2
 70
     1
102
RTVSPropertyOp3
 70
     1
102
RTVSPropertyOp4
 70
     1
102
RTVSPropertyOp5
 70
     1
102
RTVSPropertyOp6
 70
     1
102
RTVSPropertyOp7
 70
     1
102
RTVSPropertyOp8
 70
     1
102
RTVSPropertyOp9
 70
     1
102
RTVSPropertyOp10
 70
     1
102
RTVSPropertyOp11
 70
     1
102
RTVSPropertyOp12
 70
     1
102
RTVSPropertyOp13
 70
     1
102
RTVSPropertyOp14
 70
     1
102
RTVSPropertyOp15
 70
     1
102
RTVSPropertyOp16
 70
     1
102
RTVSPropertyOp17
 70
     1
102
RTVSPropertyOp18
 70
     1
102
RTVSPropertyOp19
 70
     1
102
RTVSPropertyOp20
 70
     1
102
RTVSPropertyOp21
 70
     1
102
RTVSPropertyOp22
 70
     1
102
RTVSPropertyOp23
 70
     1
102
RTVSPropertyOp24
 70
     1
102
RTVSPropertyOp25
 70
     1
102
RTVSPropertyOp26
 70
     1
102
RTVSPropertyOp27
 70
     1
102
RTVSPropertyOp28
 70
     1
102
RTVSPropertyOp29
 70
     1
102
RTVSPropertyOp30
 70
     1
102
RTVSPropertyOp31
 70
     1
102
RTVSPropertyOp32
 70
     1
102
RTVSPropertyOp33
 70
     1
102
RTVSPropertyOp34
 70
     1
102
RTVSPropertyOp35
 70
     1
102
RTVSPropertyOp36
 70
     1
102
RTVSPropertyOp37
 70
     1
102
RTVSPropertyOp38
 70
     1
102
RTVSPropertyOp39
 70
     1
102
RTVSPropertyOp40
 70
     1
102
RTVSPropertyOp41
 70
     1
102
RTVSPropertyOp42
 70
     1
102
RTVSPropertyOp43
 70
     1
102
RTVSPropertyOp44
 70
     1
102
RTVSPropertyOp45
 70
     1
102
RTVSPropertyOp46
 70
     1
102
RTVSPropertyOp47
 70
     1
102
RTVSPropertyOp48
 70
     1
102
RTVSPropertyOp49
 70
     1
102
RTVSPropertyOp50
 70
     1
102
RTVSPropertyOp51
 70
     0
102
RTVSPropertyOp52
 70
     0
102
RTVSPropertyOp53
 70
     1
102
RTVSPropertyOp54
 70
     1
102
RTVSPropertyOp55
 70
     1
102
RTVSPropertyOp56
 70
     1
102
RTVSPropertyOp57
 70
     1
102
RTVSPropertyOp58
 70
     1
102
RTVSPropertyOp59
 70
     1
102
RTVSPropertyOp60
 70
     1
102
RTVSPropertyOp61
 70
     1
102
RTVSPropertyOp62
 70
     1
  0
XRECORD
  5
32F9
102
{ACAD_REACTORS
330
32F8
102
}
330
32F8
100
AcDbXrecord
280
     1
102
RTVSPost2010Prop28
280
     0
102
RTVSPost2010PropOp28
 70
     1
102
RTVSPost2010Prop29
280
     1
102
RTVSPost2010PropOp29
 70
     1
102
RTVSPost2010Prop30
280
     1
102
RTVSPost2010PropOp30
 70
     1
102
RTVSPost2010Prop31
280
     0
102
RTVSPost2010PropOp31
 70
     1
102
RTVSPost2010Prop32
280
     0
102
RTVSPost2010PropOp32
 70
     1
102
RTVSPost2010Prop33
280
     0
102
RTVSPost2010PropOp33
 70
     1
102
RTVSPost2010Prop34
280
     0
102
RTVSPost2010PropOp34
 70
     1
102
RTVSPost2010Prop35
280
     0
102
RTVSPost2010PropOp35
 70
     1
102
RTVSPost2010Prop36
280
     0
102
RTVSPost2010PropOp36
 70
     1
102
RTVSPost2010Prop37
 90
       50
102
RTVSPost2010PropOp37
 70
     1
102
RTVSPost2010Prop38
140
0.0
102
RTVSPost2010PropOp38
 70
     1
102
RTVSPost2010Prop39
140
1.0
102
RTVSPost2010PropOp39
 70
     1
102
RTVSPost2010Prop40
 90
        0
102
RTVSPost2010PropOp40
 70
     1
102
RTVSPost2010Prop41ColorIndex
 90
       18
102
RTVSPost2010Prop41ColorRGB
 90
        0
102
RTVSPost2010PropOp41
 70
     1
102
RTVSPost2010Prop42
 90
       50
102
RTVSPost2010PropOp42
 70
     1
102
RTVSPost2010Prop43
 90
        3
102
RTVSPost2010PropOp43
 70
     1
102
RTVSPost2010Prop44ColorIndex
 90
        5
102
RTVSPost2010Prop44ColorRGB
 90
      255
102
RTVSPost2010PropOp44
 70
     1
102
RTVSPost2010Prop45
280
     0
102
RTVSPost2010PropOp45
 70
     1
102
RTVSPost2010Prop46
 90
       50
102
RTVSPost2010PropOp46
 70
     1
102
RTVSPost2010Prop47
 90
       50
102
RTVSPost2010PropOp47
 70
     1
102
RTVSPost2010Prop48
 90
       50
102
RTVSPost2010PropOp48
 70
     1
102
RTVSPost2010Prop49
280
     0
102
RTVSPost2010PropOp49
 70
     1
102
RTVSPost2010Prop50
 90
       50
102
RTVSPost2010PropOp50
 70
     1
102
RTVSPost2010Prop51ColorIndex
 90
      256
102
RTVSPost2010Prop51ColorRGB
 90
-16777216
102
RTVSPost2010PropOp51
 70
     0
102
RTVSPost2010Prop52
140
1.0
102
RTVSPost2010PropOp52
 70
     0
102
RTVSPost2010Prop53
 90
        2
102
RTVSPost2010PropOp53
 70
     1
102
RTVSPost2010Prop54
  1
strokes_ogs.tif
102
RTVSPost2010PropOp54
 70
     1
102
RTVSPost2010Prop55
280
     0
102
RTVSPost2010PropOp55
 70
     1
102
RTVSPost2010Prop56
140
1.0
102
RTVSPost2010PropOp56
 70
     1
102
RTVSPost2010Prop57
140
1.0
102
RTVSPost2010PropOp57
 70
     1
102
RTVSPropertyOp0
 70
     1
102
RTVSPropertyOp1
 70
     1
102
RTVSPropertyOp2
 70
     1
102
RTVSPropertyOp3
 70
     1
102
RTVSPropertyOp4
 70
     1
102
RTVSPropertyOp5
 70
     1
102
RTVSPropertyOp6
 70
     1
102
RTVSPropertyOp7
 70
     1
102
RTVSPropertyOp8
 70
     1
102
RTVSPropertyOp9
 70
     1
102
RTVSPropertyOp10
 70
     1
102
RTVSPropertyOp11
 70
     1
102
RTVSPropertyOp12
 70
     1
102
RTVSPropertyOp13
 70
     1
102
RTVSPropertyOp14
 70
     1
102
RTVSPropertyOp15
 70
     1
102
RTVSPropertyOp16
 70
     1
102
RTVSPropertyOp17
 70
     1
102
RTVSPropertyOp18
 70
     1
102
RTVSPropertyOp19
 70
     1
102
RTVSPropertyOp20
 70
     1
102
RTVSPropertyOp21
 70
     1
102
RTVSPropertyOp22
 70
     1
102
RTVSPropertyOp23
 70
     1
102
RTVSPropertyOp24
 70
     1
102
RTVSPropertyOp25
 70
     1
102
RTVSPropertyOp26
 70
     1
102
RTVSPropertyOp27
 70
     1
102
RTVSPropertyOp28
 70
     1
102
RTVSPropertyOp29
 70
     1
102
RTVSPropertyOp30
 70
     1
102
RTVSPropertyOp31
 70
     1
102
RTVSPropertyOp32
 70
     1
102
RTVSPropertyOp33
 70
     1
102
RTVSPropertyOp34
 70
     1
102
RTVSPropertyOp35
 70
     1
102
RTVSPropertyOp36
 70
     1
102
RTVSPropertyOp37
 70
     1
102
RTVSPropertyOp38
 70
     1
102
RTVSPropertyOp39
 70
     1
102
RTVSPropertyOp40
 70
     1
102
RTVSPropertyOp41
 70
     1
102
RTVSPropertyOp42
 70
     1
102
RTVSPropertyOp43
 70
     1
102
RTVSPropertyOp44
 70
     1
102
RTVSPropertyOp45
 70
     1
102
RTVSPropertyOp46
 70
     1
102
RTVSPropertyOp47
 70
     1
102
RTVSPropertyOp48
 70
     1
102
RTVSPropertyOp49
 70
     1
102
RTVSPropertyOp50
 70
     1
102
RTVSPropertyOp51
 70
     0
102
RTVSPropertyOp52
 70
     0
102
RTVSPropertyOp53
 70
     1
102
RTVSPropertyOp54
 70
     1
102
RTVSPropertyOp55
 70
     1
102
RTVSPropertyOp56
 70
     1
102
RTVSPropertyOp57
 70
     1
102
RTVSPropertyOp58
 70
     1
102
RTVSPropertyOp59
 70
     1
102
RTVSPropertyOp60
 70
     1
102
RTVSPropertyOp61
 70
     1
102
RTVSPropertyOp62
 70
     1
  0
XRECORD
  5
3307
102
{ACAD_REACTORS
330
3306
102
}
330
3306
100
AcDbXrecord
280
     1
102
RTVSPost2010Prop28
280
     0
102
RTVSPost2010PropOp28
 70
     1
102
RTVSPost2010Prop29
280
     1
102
RTVSPost2010PropOp29
 70
     1
102
RTVSPost2010Prop30
280
     1
102
RTVSPost2010PropOp30
 70
     1
102
RTVSPost2010Prop31
280
     0
102
RTVSPost2010PropOp31
 70
     1
102
RTVSPost2010Prop32
280
     0
102
RTVSPost2010PropOp32
 70
     1
102
RTVSPost2010Prop33
280
     0
102
RTVSPost2010PropOp33
 70
     1
102
RTVSPost2010Prop34
280
     0
102
RTVSPost2010PropOp34
 70
     1
102
RTVSPost2010Prop35
280
     0
102
RTVSPost2010PropOp35
 70
     1
102
RTVSPost2010Prop36
280
     0
102
RTVSPost2010PropOp36
 70
     1
102
RTVSPost2010Prop37
 90
       50
102
RTVSPost2010PropOp37
 70
     1
102
RTVSPost2010Prop38
140
0.0
102
RTVSPost2010PropOp38
 70
     1
102
RTVSPost2010Prop39
140
1.0
102
RTVSPost2010PropOp39
 70
     1
102
RTVSPost2010Prop40
 90
        0
102
RTVSPost2010PropOp40
 70
     1
102
RTVSPost2010Prop41ColorIndex
 90
       18
102
RTVSPost2010Prop41ColorRGB
 90
        0
102
RTVSPost2010PropOp41
 70
     1
102
RTVSPost2010Prop42
 90
       50
102
RTVSPost2010PropOp42
 70
     1
102
RTVSPost2010Prop43
 90
        3
102
RTVSPost2010PropOp43
 70
     1
102
RTVSPost2010Prop44ColorIndex
 90
        5
102
RTVSPost2010Prop44ColorRGB
 90
      255
102
RTVSPost2010PropOp44
 70
     1
102
RTVSPost2010Prop45
280
     0
102
RTVSPost2010PropOp45
 70
     1
102
RTVSPost2010Prop46
 90
       50
102
RTVSPost2010PropOp46
 70
     1
102
RTVSPost2010Prop47
 90
       50
102
RTVSPost2010PropOp47
 70
     1
102
RTVSPost2010Prop48
 90
       50
102
RTVSPost2010PropOp48
 70
     1
102
RTVSPost2010Prop49
280
     0
102
RTVSPost2010PropOp49
 70
     1
102
RTVSPost2010Prop50
 90
       50
102
RTVSPost2010PropOp50
 70
     1
102
RTVSPost2010Prop51ColorIndex
 90
      256
102
RTVSPost2010Prop51ColorRGB
 90
-16777216
102
RTVSPost2010PropOp51
 70
     0
102
RTVSPost2010Prop52
140
1.0
102
RTVSPost2010PropOp52
 70
     0
102
RTVSPost2010Prop53
 90
        2
102
RTVSPost2010PropOp53
 70
     1
102
RTVSPost2010Prop54
  1
strokes_ogs.tif
102
RTVSPost2010PropOp54
 70
     1
102
RTVSPost2010Prop55
280
     0
102
RTVSPost2010PropOp55
 70
     1
102
RTVSPost2010Prop56
140
1.0
102
RTVSPost2010PropOp56
 70
     1
102
RTVSPost2010Prop57
140
1.0
102
RTVSPost2010PropOp57
 70
     1
102
RTVSPropertyOp0
 70
     1
102
RTVSPropertyOp1
 70
     1
102
RTVSPropertyOp2
 70
     1
102
RTVSPropertyOp3
 70
     1
102
RTVSPropertyOp4
 70
     1
102
RTVSPropertyOp5
 70
     1
102
RTVSPropertyOp6
 70
     1
102
RTVSPropertyOp7
 70
     1
102
RTVSPropertyOp8
 70
     1
102
RTVSPropertyOp9
 70
     1
102
RTVSPropertyOp10
 70
     1
102
RTVSPropertyOp11
 70
     1
102
RTVSPropertyOp12
 70
     1
102
RTVSPropertyOp13
 70
     1
102
RTVSPropertyOp14
 70
     1
102
RTVSPropertyOp15
 70
     1
102
RTVSPropertyOp16
 70
     1
102
RTVSPropertyOp17
 70
     1
102
RTVSPropertyOp18
 70
     1
102
RTVSPropertyOp19
 70
     1
102
RTVSPropertyOp20
 70
     1
102
RTVSPropertyOp21
 70
     1
102
RTVSPropertyOp22
 70
     1
102
RTVSPropertyOp23
 70
     1
102
RTVSPropertyOp24
 70
     1
102
RTVSPropertyOp25
 70
     1
102
RTVSPropertyOp26
 70
     1
102
RTVSPropertyOp27
 70
     1
102
RTVSPropertyOp28
 70
     1
102
RTVSPropertyOp29
 70
     1
102
RTVSPropertyOp30
 70
     1
102
RTVSPropertyOp31
 70
     1
102
RTVSPropertyOp32
 70
     1
102
RTVSPropertyOp33
 70
     1
102
RTVSPropertyOp34
 70
     1
102
RTVSPropertyOp35
 70
     1
102
RTVSPropertyOp36
 70
     1
102
RTVSPropertyOp37
 70
     1
102
RTVSPropertyOp38
 70
     1
102
RTVSPropertyOp39
 70
     1
102
RTVSPropertyOp40
 70
     1
102
RTVSPropertyOp41
 70
     1
102
RTVSPropertyOp42
 70
     1
102
RTVSPropertyOp43
 70
     1
102
RTVSPropertyOp44
 70
     1
102
RTVSPropertyOp45
 70
     1
102
RTVSPropertyOp46
 70
     1
102
RTVSPropertyOp47
 70
     1
102
RTVSPropertyOp48
 70
     1
102
RTVSPropertyOp49
 70
     1
102
RTVSPropertyOp50
 70
     1
102
RTVSPropertyOp51
 70
     0
102
RTVSPropertyOp52
 70
     0
102
RTVSPropertyOp53
 70
     1
102
RTVSPropertyOp54
 70
     1
102
RTVSPropertyOp55
 70
     1
102
RTVSPropertyOp56
 70
     1
102
RTVSPropertyOp57
 70
     1
102
RTVSPropertyOp58
 70
     1
102
RTVSPropertyOp59
 70
     1
102
RTVSPropertyOp60
 70
     1
102
RTVSPropertyOp61
 70
     1
102
RTVSPropertyOp62
 70
     1
  0
XRECORD
  5
330F
102
{ACAD_REACTORS
330
330E
102
}
330
330E
100
AcDbXrecord
280
     1
102
RTVSPost2010Prop28
280
     0
102
RTVSPost2010PropOp28
 70
     1
102
RTVSPost2010Prop29
280
     1
102
RTVSPost2010PropOp29
 70
     1
102
RTVSPost2010Prop30
280
     1
102
RTVSPost2010PropOp30
 70
     1
102
RTVSPost2010Prop31
280
     0
102
RTVSPost2010PropOp31
 70
     1
102
RTVSPost2010Prop32
280
     0
102
RTVSPost2010PropOp32
 70
     1
102
RTVSPost2010Prop33
280
     0
102
RTVSPost2010PropOp33
 70
     1
102
RTVSPost2010Prop34
280
     0
102
RTVSPost2010PropOp34
 70
     1
102
RTVSPost2010Prop35
280
     0
102
RTVSPost2010PropOp35
 70
     1
102
RTVSPost2010Prop36
280
     0
102
RTVSPost2010PropOp36
 70
     1
102
RTVSPost2010Prop37
 90
       50
102
RTVSPost2010PropOp37
 70
     1
102
RTVSPost2010Prop38
140
0.0
102
RTVSPost2010PropOp38
 70
     1
102
RTVSPost2010Prop39
140
1.0
102
RTVSPost2010PropOp39
 70
     1
102
RTVSPost2010Prop40
 90
        0
102
RTVSPost2010PropOp40
 70
     1
102
RTVSPost2010Prop41ColorIndex
 90
       18
102
RTVSPost2010Prop41ColorRGB
 90
        0
102
RTVSPost2010PropOp41
 70
     1
102
RTVSPost2010Prop42
 90
       50
102
RTVSPost2010PropOp42
 70
     1
102
RTVSPost2010Prop43
 90
        3
102
RTVSPost2010PropOp43
 70
     1
102
RTVSPost2010Prop44ColorIndex
 90
        5
102
RTVSPost2010Prop44ColorRGB
 90
      255
102
RTVSPost2010PropOp44
 70
     1
102
RTVSPost2010Prop45
280
     0
102
RTVSPost2010PropOp45
 70
     1
102
RTVSPost2010Prop46
 90
       50
102
RTVSPost2010PropOp46
 70
     1
102
RTVSPost2010Prop47
 90
       50
102
RTVSPost2010PropOp47
 70
     1
102
RTVSPost2010Prop48
 90
       50
102
RTVSPost2010PropOp48
 70
     1
102
RTVSPost2010Prop49
280
     0
102
RTVSPost2010PropOp49
 70
     1
102
RTVSPost2010Prop50
 90
       50
102
RTVSPost2010PropOp50
 70
     1
102
RTVSPost2010Prop51ColorIndex
 90
      256
102
RTVSPost2010Prop51ColorRGB
 90
-16777216
102
RTVSPost2010PropOp51
 70
     0
102
RTVSPost2010Prop52
140
1.0
102
RTVSPost2010PropOp52
 70
     0
102
RTVSPost2010Prop53
 90
        2
102
RTVSPost2010PropOp53
 70
     1
102
RTVSPost2010Prop54
  1
strokes_ogs.tif
102
RTVSPost2010PropOp54
 70
     1
102
RTVSPost2010Prop55
280
     0
102
RTVSPost2010PropOp55
 70
     1
102
RTVSPost2010Prop56
140
1.0
102
RTVSPost2010PropOp56
 70
     1
102
RTVSPost2010Prop57
140
1.0
102
RTVSPost2010PropOp57
 70
     1
102
RTVSPropertyOp0
 70
     1
102
RTVSPropertyOp1
 70
     1
102
RTVSPropertyOp2
 70
     1
102
RTVSPropertyOp3
 70
     1
102
RTVSPropertyOp4
 70
     1
102
RTVSPropertyOp5
 70
     1
102
RTVSPropertyOp6
 70
     1
102
RTVSPropertyOp7
 70
     1
102
RTVSPropertyOp8
 70
     1
102
RTVSPropertyOp9
 70
     1
102
RTVSPropertyOp10
 70
     1
102
RTVSPropertyOp11
 70
     1
102
RTVSPropertyOp12
 70
     1
102
RTVSPropertyOp13
 70
     1
102
RTVSPropertyOp14
 70
     1
102
RTVSPropertyOp15
 70
     1
102
RTVSPropertyOp16
 70
     1
102
RTVSPropertyOp17
 70
     1
102
RTVSPropertyOp18
 70
     1
102
RTVSPropertyOp19
 70
     1
102
RTVSPropertyOp20
 70
     1
102
RTVSPropertyOp21
 70
     1
102
RTVSPropertyOp22
 70
     1
102
RTVSPropertyOp23
 70
     1
102
RTVSPropertyOp24
 70
     1
102
RTVSPropertyOp25
 70
     1
102
RTVSPropertyOp26
 70
     1
102
RTVSPropertyOp27
 70
     1
102
RTVSPropertyOp28
 70
     1
102
RTVSPropertyOp29
 70
     1
102
RTVSPropertyOp30
 70
     1
102
RTVSPropertyOp31
 70
     1
102
RTVSPropertyOp32
 70
     1
102
RTVSPropertyOp33
 70
     1
102
RTVSPropertyOp34
 70
     1
102
RTVSPropertyOp35
 70
     1
102
RTVSPropertyOp36
 70
     1
102
RTVSPropertyOp37
 70
     1
102
RTVSPropertyOp38
 70
     1
102
RTVSPropertyOp39
 70
     1
102
RTVSPropertyOp40
 70
     1
102
RTVSPropertyOp41
 70
     1
102
RTVSPropertyOp42
 70
     1
102
RTVSPropertyOp43
 70
     1
102
RTVSPropertyOp44
 70
     1
102
RTVSPropertyOp45
 70
     1
102
RTVSPropertyOp46
 70
     1
102
RTVSPropertyOp47
 70
     1
102
RTVSPropertyOp48
 70
     1
102
RTVSPropertyOp49
 70
     1
102
RTVSPropertyOp50
 70
     1
102
RTVSPropertyOp51
 70
     0
102
RTVSPropertyOp52
 70
     0
102
RTVSPropertyOp53
 70
     1
102
RTVSPropertyOp54
 70
     1
102
RTVSPropertyOp55
 70
     1
102
RTVSPropertyOp56
 70
     1
102
RTVSPropertyOp57
 70
     1
102
RTVSPropertyOp58
 70
     1
102
RTVSPropertyOp59
 70
     1
102
RTVSPropertyOp60
 70
     1
102
RTVSPropertyOp61
 70
     1
102
RTVSPropertyOp62
 70
     1
  0
XRECORD
  5
3301
102
{ACAD_REACTORS
330
3300
102
}
330
3300
100
AcDbXrecord
280
     1
102
RTVSPost2010Prop28
280
     0
102
RTVSPost2010PropOp28
 70
     1
102
RTVSPost2010Prop29
280
     1
102
RTVSPost2010PropOp29
 70
     1
102
RTVSPost2010Prop30
280
     1
102
RTVSPost2010PropOp30
 70
     1
102
RTVSPost2010Prop31
280
     0
102
RTVSPost2010PropOp31
 70
     1
102
RTVSPost2010Prop32
280
     0
102
RTVSPost2010PropOp32
 70
     1
102
RTVSPost2010Prop33
280
     0
102
RTVSPost2010PropOp33
 70
     1
102
RTVSPost2010Prop34
280
     0
102
RTVSPost2010PropOp34
 70
     1
102
RTVSPost2010Prop35
280
     0
102
RTVSPost2010PropOp35
 70
     1
102
RTVSPost2010Prop36
280
     0
102
RTVSPost2010PropOp36
 70
     1
102
RTVSPost2010Prop37
 90
       50
102
RTVSPost2010PropOp37
 70
     1
102
RTVSPost2010Prop38
140
0.0
102
RTVSPost2010PropOp38
 70
     1
102
RTVSPost2010Prop39
140
1.0
102
RTVSPost2010PropOp39
 70
     1
102
RTVSPost2010Prop40
 90
        0
102
RTVSPost2010PropOp40
 70
     1
102
RTVSPost2010Prop41ColorIndex
 90
       18
102
RTVSPost2010Prop41ColorRGB
 90
        0
102
RTVSPost2010PropOp41
 70
     1
102
RTVSPost2010Prop42
 90
       50
102
RTVSPost2010PropOp42
 70
     1
102
RTVSPost2010Prop43
 90
        3
102
RTVSPost2010PropOp43
 70
     1
102
RTVSPost2010Prop44ColorIndex
 90
        5
102
RTVSPost2010Prop44ColorRGB
 90
      255
102
RTVSPost2010PropOp44
 70
     1
102
RTVSPost2010Prop45
280
     0
102
RTVSPost2010PropOp45
 70
     1
102
RTVSPost2010Prop46
 90
       50
102
RTVSPost2010PropOp46
 70
     1
102
RTVSPost2010Prop47
 90
       50
102
RTVSPost2010PropOp47
 70
     1
102
RTVSPost2010Prop48
 90
       50
102
RTVSPost2010PropOp48
 70
     1
102
RTVSPost2010Prop49
280
     0
102
RTVSPost2010PropOp49
 70
     1
102
RTVSPost2010Prop50
 90
       50
102
RTVSPost2010PropOp50
 70
     1
102
RTVSPost2010Prop51ColorIndex
 90
      256
102
RTVSPost2010Prop51ColorRGB
 90
-16777216
102
RTVSPost2010PropOp51
 70
     0
102
RTVSPost2010Prop52
140
1.0
102
RTVSPost2010PropOp52
 70
     0
102
RTVSPost2010Prop53
 90
        2
102
RTVSPost2010PropOp53
 70
     1
102
RTVSPost2010Prop54
  1
strokes_ogs.tif
102
RTVSPost2010PropOp54
 70
     1
102
RTVSPost2010Prop55
280
     0
102
RTVSPost2010PropOp55
 70
     1
102
RTVSPost2010Prop56
140
1.0
102
RTVSPost2010PropOp56
 70
     1
102
RTVSPost2010Prop57
140
1.0
102
RTVSPost2010PropOp57
 70
     1
102
RTVSPropertyOp0
 70
     1
102
RTVSPropertyOp1
 70
     1
102
RTVSPropertyOp2
 70
     1
102
RTVSPropertyOp3
 70
     1
102
RTVSPropertyOp4
 70
     1
102
RTVSPropertyOp5
 70
     1
102
RTVSPropertyOp6
 70
     1
102
RTVSPropertyOp7
 70
     1
102
RTVSPropertyOp8
 70
     1
102
RTVSPropertyOp9
 70
     1
102
RTVSPropertyOp10
 70
     1
102
RTVSPropertyOp11
 70
     1
102
RTVSPropertyOp12
 70
     1
102
RTVSPropertyOp13
 70
     1
102
RTVSPropertyOp14
 70
     1
102
RTVSPropertyOp15
 70
     1
102
RTVSPropertyOp16
 70
     1
102
RTVSPropertyOp17
 70
     1
102
RTVSPropertyOp18
 70
     1
102
RTVSPropertyOp19
 70
     1
102
RTVSPropertyOp20
 70
     1
102
RTVSPropertyOp21
 70
     1
102
RTVSPropertyOp22
 70
     1
102
RTVSPropertyOp23
 70
     1
102
RTVSPropertyOp24
 70
     1
102
RTVSPropertyOp25
 70
     1
102
RTVSPropertyOp26
 70
     1
102
RTVSPropertyOp27
 70
     1
102
RTVSPropertyOp28
 70
     1
102
RTVSPropertyOp29
 70
     1
102
RTVSPropertyOp30
 70
     1
102
RTVSPropertyOp31
 70
     1
102
RTVSPropertyOp32
 70
     1
102
RTVSPropertyOp33
 70
     1
102
RTVSPropertyOp34
 70
     1
102
RTVSPropertyOp35
 70
     1
102
RTVSPropertyOp36
 70
     1
102
RTVSPropertyOp37
 70
     1
102
RTVSPropertyOp38
 70
     1
102
RTVSPropertyOp39
 70
     1
102
RTVSPropertyOp40
 70
     1
102
RTVSPropertyOp41
 70
     1
102
RTVSPropertyOp42
 70
     1
102
RTVSPropertyOp43
 70
     1
102
RTVSPropertyOp44
 70
     1
102
RTVSPropertyOp45
 70
     1
102
RTVSPropertyOp46
 70
     1
102
RTVSPropertyOp47
 70
     1
102
RTVSPropertyOp48
 70
     1
102
RTVSPropertyOp49
 70
     1
102
RTVSPropertyOp50
 70
     1
102
RTVSPropertyOp51
 70
     0
102
RTVSPropertyOp52
 70
     0
102
RTVSPropertyOp53
 70
     1
102
RTVSPropertyOp54
 70
     1
102
RTVSPropertyOp55
 70
     1
102
RTVSPropertyOp56
 70
     1
102
RTVSPropertyOp57
 70
     1
102
RTVSPropertyOp58
 70
     1
102
RTVSPropertyOp59
 70
     1
102
RTVSPropertyOp60
 70
     1
102
RTVSPropertyOp61
 70
     1
102
RTVSPropertyOp62
 70
     1
  0
XRECORD
  5
3305
102
{ACAD_REACTORS
330
3304
102
}
330
3304
100
AcDbXrecord
280
     1
102
RTVSPost2010Prop28
280
     0
102
RTVSPost2010PropOp28
 70
     1
102
RTVSPost2010Prop29
280
     1
102
RTVSPost2010PropOp29
 70
     1
102
RTVSPost2010Prop30
280
     1
102
RTVSPost2010PropOp30
 70
     1
102
RTVSPost2010Prop31
280
     0
102
RTVSPost2010PropOp31
 70
     1
102
RTVSPost2010Prop32
280
     0
102
RTVSPost2010PropOp32
 70
     1
102
RTVSPost2010Prop33
280
     0
102
RTVSPost2010PropOp33
 70
     1
102
RTVSPost2010Prop34
280
     0
102
RTVSPost2010PropOp34
 70
     1
102
RTVSPost2010Prop35
280
     0
102
RTVSPost2010PropOp35
 70
     1
102
RTVSPost2010Prop36
280
     0
102
RTVSPost2010PropOp36
 70
     1
102
RTVSPost2010Prop37
 90
       50
102
RTVSPost2010PropOp37
 70
     1
102
RTVSPost2010Prop38
140
0.0
102
RTVSPost2010PropOp38
 70
     1
102
RTVSPost2010Prop39
140
1.0
102
RTVSPost2010PropOp39
 70
     1
102
RTVSPost2010Prop40
 90
        0
102
RTVSPost2010PropOp40
 70
     1
102
RTVSPost2010Prop41ColorIndex
 90
       18
102
RTVSPost2010Prop41ColorRGB
 90
        0
102
RTVSPost2010PropOp41
 70
     1
102
RTVSPost2010Prop42
 90
       50
102
RTVSPost2010PropOp42
 70
     1
102
RTVSPost2010Prop43
 90
        3
102
RTVSPost2010PropOp43
 70
     1
102
RTVSPost2010Prop44ColorIndex
 90
        5
102
RTVSPost2010Prop44ColorRGB
 90
      255
102
RTVSPost2010PropOp44
 70
     1
102
RTVSPost2010Prop45
280
     0
102
RTVSPost2010PropOp45
 70
     1
102
RTVSPost2010Prop46
 90
       50
102
RTVSPost2010PropOp46
 70
     1
102
RTVSPost2010Prop47
 90
       50
102
RTVSPost2010PropOp47
 70
     1
102
RTVSPost2010Prop48
 90
       50
102
RTVSPost2010PropOp48
 70
     1
102
RTVSPost2010Prop49
280
     0
102
RTVSPost2010PropOp49
 70
     1
102
RTVSPost2010Prop50
 90
       50
102
RTVSPost2010PropOp50
 70
     1
102
RTVSPost2010Prop51ColorIndex
 90
      256
102
RTVSPost2010Prop51ColorRGB
 90
-16777216
102
RTVSPost2010PropOp51
 70
     0
102
RTVSPost2010Prop52
140
1.0
102
RTVSPost2010PropOp52
 70
     0
102
RTVSPost2010Prop53
 90
        2
102
RTVSPost2010PropOp53
 70
     1
102
RTVSPost2010Prop54
  1
strokes_ogs.tif
102
RTVSPost2010PropOp54
 70
     1
102
RTVSPost2010Prop55
280
     0
102
RTVSPost2010PropOp55
 70
     1
102
RTVSPost2010Prop56
140
1.0
102
RTVSPost2010PropOp56
 70
     1
102
RTVSPost2010Prop57
140
1.0
102
RTVSPost2010PropOp57
 70
     1
102
RTVSPropertyOp0
 70
     1
102
RTVSPropertyOp1
 70
     1
102
RTVSPropertyOp2
 70
     1
102
RTVSPropertyOp3
 70
     1
102
RTVSPropertyOp4
 70
     1
102
RTVSPropertyOp5
 70
     1
102
RTVSPropertyOp6
 70
     1
102
RTVSPropertyOp7
 70
     1
102
RTVSPropertyOp8
 70
     1
102
RTVSPropertyOp9
 70
     1
102
RTVSPropertyOp10
 70
     1
102
RTVSPropertyOp11
 70
     1
102
RTVSPropertyOp12
 70
     1
102
RTVSPropertyOp13
 70
     1
102
RTVSPropertyOp14
 70
     1
102
RTVSPropertyOp15
 70
     1
102
RTVSPropertyOp16
 70
     1
102
RTVSPropertyOp17
 70
     1
102
RTVSPropertyOp18
 70
     1
102
RTVSPropertyOp19
 70
     1
102
RTVSPropertyOp20
 70
     1
102
RTVSPropertyOp21
 70
     1
102
RTVSPropertyOp22
 70
     1
102
RTVSPropertyOp23
 70
     1
102
RTVSPropertyOp24
 70
     1
102
RTVSPropertyOp25
 70
     1
102
RTVSPropertyOp26
 70
     1
102
RTVSPropertyOp27
 70
     1
102
RTVSPropertyOp28
 70
     1
102
RTVSPropertyOp29
 70
     1
102
RTVSPropertyOp30
 70
     1
102
RTVSPropertyOp31
 70
     1
102
RTVSPropertyOp32
 70
     1
102
RTVSPropertyOp33
 70
     1
102
RTVSPropertyOp34
 70
     1
102
RTVSPropertyOp35
 70
     1
102
RTVSPropertyOp36
 70
     1
102
RTVSPropertyOp37
 70
     1
102
RTVSPropertyOp38
 70
     1
102
RTVSPropertyOp39
 70
     1
102
RTVSPropertyOp40
 70
     1
102
RTVSPropertyOp41
 70
     1
102
RTVSPropertyOp42
 70
     1
102
RTVSPropertyOp43
 70
     1
102
RTVSPropertyOp44
 70
     1
102
RTVSPropertyOp45
 70
     1
102
RTVSPropertyOp46
 70
     1
102
RTVSPropertyOp47
 70
     1
102
RTVSPropertyOp48
 70
     1
102
RTVSPropertyOp49
 70
     1
102
RTVSPropertyOp50
 70
     1
102
RTVSPropertyOp51
 70
     0
102
RTVSPropertyOp52
 70
     0
102
RTVSPropertyOp53
 70
     1
102
RTVSPropertyOp54
 70
     1
102
RTVSPropertyOp55
 70
     1
102
RTVSPropertyOp56
 70
     1
102
RTVSPropertyOp57
 70
     1
102
RTVSPropertyOp58
 70
     1
102
RTVSPropertyOp59
 70
     1
102
RTVSPropertyOp60
 70
     1
102
RTVSPropertyOp61
 70
     1
102
RTVSPropertyOp62
 70
     1
  0
XRECORD
  5
331F
102
{ACAD_REACTORS
330
331E
102
}
330
331E
100
AcDbXrecord
280
     1
102
RTVSPost2010Prop28
280
     0
102
RTVSPost2010PropOp28
 70
     1
102
RTVSPost2010Prop29
280
     1
102
RTVSPost2010PropOp29
 70
     1
102
RTVSPost2010Prop30
280
     1
102
RTVSPost2010PropOp30
 70
     1
102
RTVSPost2010Prop31
280
     0
102
RTVSPost2010PropOp31
 70
     1
102
RTVSPost2010Prop32
280
     0
102
RTVSPost2010PropOp32
 70
     1
102
RTVSPost2010Prop33
280
     0
102
RTVSPost2010PropOp33
 70
     1
102
RTVSPost2010Prop34
280
     0
102
RTVSPost2010PropOp34
 70
     1
102
RTVSPost2010Prop35
280
     0
102
RTVSPost2010PropOp35
 70
     1
102
RTVSPost2010Prop36
280
     0
102
RTVSPost2010PropOp36
 70
     1
102
RTVSPost2010Prop37
 90
       50
102
RTVSPost2010PropOp37
 70
     0
102
RTVSPost2010Prop38
140
0.0
102
RTVSPost2010PropOp38
 70
     0
102
RTVSPost2010Prop39
140
1.0
102
RTVSPost2010PropOp39
 70
     0
102
RTVSPost2010Prop40
 90
        0
102
RTVSPost2010PropOp40
 70
     0
102
RTVSPost2010Prop41ColorIndex
 90
       18
102
RTVSPost2010Prop41ColorRGB
 90
        0
102
RTVSPost2010PropOp41
 70
     0
102
RTVSPost2010Prop42
 90
       50
102
RTVSPost2010PropOp42
 70
     0
102
RTVSPost2010Prop43
 90
        3
102
RTVSPost2010PropOp43
 70
     0
102
RTVSPost2010Prop44ColorIndex
 90
        5
102
RTVSPost2010Prop44ColorRGB
 90
      255
102
RTVSPost2010PropOp44
 70
     0
102
RTVSPost2010Prop45
280
     0
102
RTVSPost2010PropOp45
 70
     1
102
RTVSPost2010Prop46
 90
       50
102
RTVSPost2010PropOp46
 70
     0
102
RTVSPost2010Prop47
 90
       50
102
RTVSPost2010PropOp47
 70
     0
102
RTVSPost2010Prop48
 90
       50
102
RTVSPost2010PropOp48
 70
     0
102
RTVSPost2010Prop49
280
     0
102
RTVSPost2010PropOp49
 70
     1
102
RTVSPost2010Prop50
 90
       50
102
RTVSPost2010PropOp50
 70
     0
102
RTVSPost2010Prop51ColorIndex
 90
      256
102
RTVSPost2010Prop51ColorRGB
 90
-16777216
102
RTVSPost2010PropOp51
 70
     0
102
RTVSPost2010Prop52
140
1.0
102
RTVSPost2010PropOp52
 70
     0
102
RTVSPost2010Prop53
 90
        2
102
RTVSPost2010PropOp53
 70
     0
102
RTVSPost2010Prop54
  1
strokes_ogs.tif
102
RTVSPost2010PropOp54
 70
     0
102
RTVSPost2010Prop55
280
     0
102
RTVSPost2010PropOp55
 70
     1
102
RTVSPost2010Prop56
140
1.0
102
RTVSPost2010PropOp56
 70
     0
102
RTVSPost2010Prop57
140
1.0
102
RTVSPost2010PropOp57
 70
     0
102
RTVSPropertyOp0
 70
     0
102
RTVSPropertyOp1
 70
     0
102
RTVSPropertyOp2
 70
     0
102
RTVSPropertyOp3
 70
     0
102
RTVSPropertyOp4
 70
     0
102
RTVSPropertyOp5
 70
     0
102
RTVSPropertyOp6
 70
     0
102
RTVSPropertyOp7
 70
     0
102
RTVSPropertyOp8
 70
     0
102
RTVSPropertyOp9
 70
     0
102
RTVSPropertyOp10
 70
     0
102
RTVSPropertyOp11
 70
     0
102
RTVSPropertyOp12
 70
     0
102
RTVSPropertyOp13
 70
     0
102
RTVSPropertyOp14
 70
     2
102
RTVSPropertyOp15
 70
     0
102
RTVSPropertyOp16
 70
     0
102
RTVSPropertyOp17
 70
     0
102
RTVSPropertyOp18
 70
     0
102
RTVSPropertyOp19
 70
     0
102
RTVSPropertyOp20
 70
     0
102
RTVSPropertyOp21
 70
     0
102
RTVSPropertyOp22
 70
     0
102
RTVSPropertyOp23
 70
     0
102
RTVSPropertyOp24
 70
     0
102
RTVSPropertyOp25
 70
     0
102
RTVSPropertyOp26
 70
     0
102
RTVSPropertyOp27
 70
     0
102
RTVSPropertyOp28
 70
     1
102
RTVSPropertyOp29
 70
     1
102
RTVSPropertyOp30
 70
     1
102
RTVSPropertyOp31
 70
     1
102
RTVSPropertyOp32
 70
     1
102
RTVSPropertyOp33
 70
     1
102
RTVSPropertyOp34
 70
     1
102
RTVSPropertyOp35
 70
     1
102
RTVSPropertyOp36
 70
     1
102
RTVSPropertyOp37
 70
     0
102
RTVSPropertyOp38
 70
     0
102
RTVSPropertyOp39
 70
     0
102
RTVSPropertyOp40
 70
     0
102
RTVSPropertyOp41
 70
     0
102
RTVSPropertyOp42
 70
     0
102
RTVSPropertyOp43
 70
     0
102
RTVSPropertyOp44
 70
     0
102
RTVSPropertyOp45
 70
     1
102
RTVSPropertyOp46
 70
     0
102
RTVSPropertyOp47
 70
     0
102
RTVSPropertyOp48
 70
     0
102
RTVSPropertyOp49
 70
     1
102
RTVSPropertyOp50
 70
     0
102
RTVSPropertyOp51
 70
     0
102
RTVSPropertyOp52
 70
     0
102
RTVSPropertyOp53
 70
     0
102
RTVSPropertyOp54
 70
     0
102
RTVSPropertyOp55
 70
     1
102
RTVSPropertyOp56
 70
     0
102
RTVSPropertyOp57
 70
     0
102
RTVSPropertyOp58
 70
     0
102
RTVSPropertyOp59
 70
     0
102
RTVSPropertyOp60
 70
     0
102
RTVSPropertyOp61
 70
     0
102
RTVSPropertyOp62
 70
     0
  0
XRECORD
  5
330D
102
{ACAD_REACTORS
330
330C
102
}
330
330C
100
AcDbXrecord
280
     1
102
RTVSPost2010Prop28
280
     0
102
RTVSPost2010PropOp28
 70
     1
102
RTVSPost2010Prop29
280
     1
102
RTVSPost2010PropOp29
 70
     1
102
RTVSPost2010Prop30
280
     1
102
RTVSPost2010PropOp30
 70
     1
102
RTVSPost2010Prop31
280
     0
102
RTVSPost2010PropOp31
 70
     1
102
RTVSPost2010Prop32
280
     0
102
RTVSPost2010PropOp32
 70
     1
102
RTVSPost2010Prop33
280
     0
102
RTVSPost2010PropOp33
 70
     1
102
RTVSPost2010Prop34
280
     0
102
RTVSPost2010PropOp34
 70
     1
102
RTVSPost2010Prop35
280
     0
102
RTVSPost2010PropOp35
 70
     1
102
RTVSPost2010Prop36
280
     0
102
RTVSPost2010PropOp36
 70
     1
102
RTVSPost2010Prop37
 90
       50
102
RTVSPost2010PropOp37
 70
     1
102
RTVSPost2010Prop38
140
0.0
102
RTVSPost2010PropOp38
 70
     1
102
RTVSPost2010Prop39
140
1.0
102
RTVSPost2010PropOp39
 70
     1
102
RTVSPost2010Prop40
 90
        0
102
RTVSPost2010PropOp40
 70
     1
102
RTVSPost2010Prop41ColorIndex
 90
       18
102
RTVSPost2010Prop41ColorRGB
 90
        0
102
RTVSPost2010PropOp41
 70
     1
102
RTVSPost2010Prop42
 90
       50
102
RTVSPost2010PropOp42
 70
     1
102
RTVSPost2010Prop43
 90
        3
102
RTVSPost2010PropOp43
 70
     1
102
RTVSPost2010Prop44ColorIndex
 90
        5
102
RTVSPost2010Prop44ColorRGB
 90
      255
102
RTVSPost2010PropOp44
 70
     1
102
RTVSPost2010Prop45
280
     0
102
RTVSPost2010PropOp45
 70
     1
102
RTVSPost2010Prop46
 90
       50
102
RTVSPost2010PropOp46
 70
     1
102
RTVSPost2010Prop47
 90
       50
102
RTVSPost2010PropOp47
 70
     1
102
RTVSPost2010Prop48
 90
       50
102
RTVSPost2010PropOp48
 70
     1
102
RTVSPost2010Prop49
280
     0
102
RTVSPost2010PropOp49
 70
     1
102
RTVSPost2010Prop50
 90
       50
102
RTVSPost2010PropOp50
 70
     1
102
RTVSPost2010Prop51ColorIndex
 90
      256
102
RTVSPost2010Prop51ColorRGB
 90
-16777216
102
RTVSPost2010PropOp51
 70
     0
102
RTVSPost2010Prop52
140
1.0
102
RTVSPost2010PropOp52
 70
     0
102
RTVSPost2010Prop53
 90
        2
102
RTVSPost2010PropOp53
 70
     1
102
RTVSPost2010Prop54
  1
strokes_ogs.tif
102
RTVSPost2010PropOp54
 70
     1
102
RTVSPost2010Prop55
280
     0
102
RTVSPost2010PropOp55
 70
     1
102
RTVSPost2010Prop56
140
1.0
102
RTVSPost2010PropOp56
 70
     1
102
RTVSPost2010Prop57
140
1.0
102
RTVSPost2010PropOp57
 70
     1
102
RTVSPropertyOp0
 70
     1
102
RTVSPropertyOp1
 70
     1
102
RTVSPropertyOp2
 70
     1
102
RTVSPropertyOp3
 70
     1
102
RTVSPropertyOp4
 70
     1
102
RTVSPropertyOp5
 70
     1
102
RTVSPropertyOp6
 70
     1
102
RTVSPropertyOp7
 70
     1
102
RTVSPropertyOp8
 70
     1
102
RTVSPropertyOp9
 70
     1
102
RTVSPropertyOp10
 70
     1
102
RTVSPropertyOp11
 70
     1
102
RTVSPropertyOp12
 70
     1
102
RTVSPropertyOp13
 70
     1
102
RTVSPropertyOp14
 70
     1
102
RTVSPropertyOp15
 70
     1
102
RTVSPropertyOp16
 70
     1
102
RTVSPropertyOp17
 70
     1
102
RTVSPropertyOp18
 70
     1
102
RTVSPropertyOp19
 70
     1
102
RTVSPropertyOp20
 70
     1
102
RTVSPropertyOp21
 70
     1
102
RTVSPropertyOp22
 70
     1
102
RTVSPropertyOp23
 70
     1
102
RTVSPropertyOp24
 70
     1
102
RTVSPropertyOp25
 70
     1
102
RTVSPropertyOp26
 70
     1
102
RTVSPropertyOp27
 70
     1
102
RTVSPropertyOp28
 70
     1
102
RTVSPropertyOp29
 70
     1
102
RTVSPropertyOp30
 70
     1
102
RTVSPropertyOp31
 70
     1
102
RTVSPropertyOp32
 70
     1
102
RTVSPropertyOp33
 70
     1
102
RTVSPropertyOp34
 70
     1
102
RTVSPropertyOp35
 70
     1
102
RTVSPropertyOp36
 70
     1
102
RTVSPropertyOp37
 70
     1
102
RTVSPropertyOp38
 70
     1
102
RTVSPropertyOp39
 70
     1
102
RTVSPropertyOp40
 70
     1
102
RTVSPropertyOp41
 70
     1
102
RTVSPropertyOp42
 70
     1
102
RTVSPropertyOp43
 70
     1
102
RTVSPropertyOp44
 70
     1
102
RTVSPropertyOp45
 70
     1
102
RTVSPropertyOp46
 70
     1
102
RTVSPropertyOp47
 70
     1
102
RTVSPropertyOp48
 70
     1
102
RTVSPropertyOp49
 70
     1
102
RTVSPropertyOp50
 70
     1
102
RTVSPropertyOp51
 70
     0
102
RTVSPropertyOp52
 70
     0
102
RTVSPropertyOp53
 70
     1
102
RTVSPropertyOp54
 70
     1
102
RTVSPropertyOp55
 70
     1
102
RTVSPropertyOp56
 70
     1
102
RTVSPropertyOp57
 70
     1
102
RTVSPropertyOp58
 70
     1
102
RTVSPropertyOp59
 70
     1
102
RTVSPropertyOp60
 70
     1
102
RTVSPropertyOp61
 70
     1
102
RTVSPropertyOp62
 70
     1
  0
XRECORD
  5
32F1
102
{ACAD_REACTORS
330
32F0
102
}
330
32F0
100
AcDbXrecord
280
     1
102
RTVSPost2010Prop28
280
     0
102
RTVSPost2010PropOp28
 70
     1
102
RTVSPost2010Prop29
280
     1
102
RTVSPost2010PropOp29
 70
     1
102
RTVSPost2010Prop30
280
     1
102
RTVSPost2010PropOp30
 70
     1
102
RTVSPost2010Prop31
280
     0
102
RTVSPost2010PropOp31
 70
     1
102
RTVSPost2010Prop32
280
     0
102
RTVSPost2010PropOp32
 70
     1
102
RTVSPost2010Prop33
280
     0
102
RTVSPost2010PropOp33
 70
     1
102
RTVSPost2010Prop34
280
     0
102
RTVSPost2010PropOp34
 70
     1
102
RTVSPost2010Prop35
280
     0
102
RTVSPost2010PropOp35
 70
     1
102
RTVSPost2010Prop36
280
     0
102
RTVSPost2010PropOp36
 70
     1
102
RTVSPost2010Prop37
 90
       50
102
RTVSPost2010PropOp37
 70
     1
102
RTVSPost2010Prop38
140
0.0
102
RTVSPost2010PropOp38
 70
     1
102
RTVSPost2010Prop39
140
1.0
102
RTVSPost2010PropOp39
 70
     1
102
RTVSPost2010Prop40
 90
        0
102
RTVSPost2010PropOp40
 70
     1
102
RTVSPost2010Prop41ColorIndex
 90
       18
102
RTVSPost2010Prop41ColorRGB
 90
        0
102
RTVSPost2010PropOp41
 70
     1
102
RTVSPost2010Prop42
 90
       50
102
RTVSPost2010PropOp42
 70
     1
102
RTVSPost2010Prop43
 90
        3
102
RTVSPost2010PropOp43
 70
     1
102
RTVSPost2010Prop44ColorIndex
 90
        5
102
RTVSPost2010Prop44ColorRGB
 90
      255
102
RTVSPost2010PropOp44
 70
     1
102
RTVSPost2010Prop45
280
     0
102
RTVSPost2010PropOp45
 70
     1
102
RTVSPost2010Prop46
 90
       50
102
RTVSPost2010PropOp46
 70
     1
102
RTVSPost2010Prop47
 90
       50
102
RTVSPost2010PropOp47
 70
     1
102
RTVSPost2010Prop48
 90
       50
102
RTVSPost2010PropOp48
 70
     1
102
RTVSPost2010Prop49
280
     0
102
RTVSPost2010PropOp49
 70
     1
102
RTVSPost2010Prop50
 90
       50
102
RTVSPost2010PropOp50
 70
     1
102
RTVSPost2010Prop51ColorIndex
 90
      256
102
RTVSPost2010Prop51ColorRGB
 90
-16777216
102
RTVSPost2010PropOp51
 70
     0
102
RTVSPost2010Prop52
140
1.0
102
RTVSPost2010PropOp52
 70
     0
102
RTVSPost2010Prop53
 90
        2
102
RTVSPost2010PropOp53
 70
     1
102
RTVSPost2010Prop54
  1
strokes_ogs.tif
102
RTVSPost2010PropOp54
 70
     1
102
RTVSPost2010Prop55
280
     0
102
RTVSPost2010PropOp55
 70
     1
102
RTVSPost2010Prop56
140
1.0
102
RTVSPost2010PropOp56
 70
     1
102
RTVSPost2010Prop57
140
1.0
102
RTVSPost2010PropOp57
 70
     1
102
RTVSPropertyOp0
 70
     1
102
RTVSPropertyOp1
 70
     1
102
RTVSPropertyOp2
 70
     1
102
RTVSPropertyOp3
 70
     1
102
RTVSPropertyOp4
 70
     1
102
RTVSPropertyOp5
 70
     1
102
RTVSPropertyOp6
 70
     1
102
RTVSPropertyOp7
 70
     1
102
RTVSPropertyOp8
 70
     1
102
RTVSPropertyOp9
 70
     1
102
RTVSPropertyOp10
 70
     1
102
RTVSPropertyOp11
 70
     1
102
RTVSPropertyOp12
 70
     1
102
RTVSPropertyOp13
 70
     1
102
RTVSPropertyOp14
 70
     1
102
RTVSPropertyOp15
 70
     1
102
RTVSPropertyOp16
 70
     1
102
RTVSPropertyOp17
 70
     1
102
RTVSPropertyOp18
 70
     1
102
RTVSPropertyOp19
 70
     1
102
RTVSPropertyOp20
 70
     1
102
RTVSPropertyOp21
 70
     1
102
RTVSPropertyOp22
 70
     1
102
RTVSPropertyOp23
 70
     1
102
RTVSPropertyOp24
 70
     1
102
RTVSPropertyOp25
 70
     1
102
RTVSPropertyOp26
 70
     1
102
RTVSPropertyOp27
 70
     1
102
RTVSPropertyOp28
 70
     1
102
RTVSPropertyOp29
 70
     1
102
RTVSPropertyOp30
 70
     1
102
RTVSPropertyOp31
 70
     1
102
RTVSPropertyOp32
 70
     1
102
RTVSPropertyOp33
 70
     1
102
RTVSPropertyOp34
 70
     1
102
RTVSPropertyOp35
 70
     1
102
RTVSPropertyOp36
 70
     1
102
RTVSPropertyOp37
 70
     1
102
RTVSPropertyOp38
 70
     1
102
RTVSPropertyOp39
 70
     1
102
RTVSPropertyOp40
 70
     1
102
RTVSPropertyOp41
 70
     1
102
RTVSPropertyOp42
 70
     1
102
RTVSPropertyOp43
 70
     1
102
RTVSPropertyOp44
 70
     1
102
RTVSPropertyOp45
 70
     1
102
RTVSPropertyOp46
 70
     1
102
RTVSPropertyOp47
 70
     1
102
RTVSPropertyOp48
 70
     1
102
RTVSPropertyOp49
 70
     1
102
RTVSPropertyOp50
 70
     1
102
RTVSPropertyOp51
 70
     0
102
RTVSPropertyOp52
 70
     0
102
RTVSPropertyOp53
 70
     1
102
RTVSPropertyOp54
 70
     1
102
RTVSPropertyOp55
 70
     1
102
RTVSPropertyOp56
 70
     1
102
RTVSPropertyOp57
 70
     1
102
RTVSPropertyOp58
 70
     1
102
RTVSPropertyOp59
 70
     1
102
RTVSPropertyOp60
 70
     1
102
RTVSPropertyOp61
 70
     1
102
RTVSPropertyOp62
 70
     1
  0
XRECORD
  5
32F3
102
{ACAD_REACTORS
330
32F2
102
}
330
32F2
100
AcDbXrecord
280
     1
102
RTVSPost2010Prop28
280
     0
102
RTVSPost2010PropOp28
 70
     1
102
RTVSPost2010Prop29
280
     1
102
RTVSPost2010PropOp29
 70
     1
102
RTVSPost2010Prop30
280
     1
102
RTVSPost2010PropOp30
 70
     1
102
RTVSPost2010Prop31
280
     0
102
RTVSPost2010PropOp31
 70
     1
102
RTVSPost2010Prop32
280
     0
102
RTVSPost2010PropOp32
 70
     1
102
RTVSPost2010Prop33
280
     0
102
RTVSPost2010PropOp33
 70
     1
102
RTVSPost2010Prop34
280
     0
102
RTVSPost2010PropOp34
 70
     1
102
RTVSPost2010Prop35
280
     0
102
RTVSPost2010PropOp35
 70
     1
102
RTVSPost2010Prop36
280
     0
102
RTVSPost2010PropOp36
 70
     1
102
RTVSPost2010Prop37
 90
       50
102
RTVSPost2010PropOp37
 70
     1
102
RTVSPost2010Prop38
140
0.0
102
RTVSPost2010PropOp38
 70
     1
102
RTVSPost2010Prop39
140
1.0
102
RTVSPost2010PropOp39
 70
     1
102
RTVSPost2010Prop40
 90
        0
102
RTVSPost2010PropOp40
 70
     1
102
RTVSPost2010Prop41ColorIndex
 90
       18
102
RTVSPost2010Prop41ColorRGB
 90
        0
102
RTVSPost2010PropOp41
 70
     1
102
RTVSPost2010Prop42
 90
       50
102
RTVSPost2010PropOp42
 70
     1
102
RTVSPost2010Prop43
 90
        3
102
RTVSPost2010PropOp43
 70
     1
102
RTVSPost2010Prop44ColorIndex
 90
        5
102
RTVSPost2010Prop44ColorRGB
 90
      255
102
RTVSPost2010PropOp44
 70
     1
102
RTVSPost2010Prop45
280
     0
102
RTVSPost2010PropOp45
 70
     1
102
RTVSPost2010Prop46
 90
       50
102
RTVSPost2010PropOp46
 70
     1
102
RTVSPost2010Prop47
 90
       50
102
RTVSPost2010PropOp47
 70
     1
102
RTVSPost2010Prop48
 90
       50
102
RTVSPost2010PropOp48
 70
     1
102
RTVSPost2010Prop49
280
     0
102
RTVSPost2010PropOp49
 70
     1
102
RTVSPost2010Prop50
 90
       50
102
RTVSPost2010PropOp50
 70
     1
102
RTVSPost2010Prop51ColorIndex
 90
      256
102
RTVSPost2010Prop51ColorRGB
 90
-16777216
102
RTVSPost2010PropOp51
 70
     0
102
RTVSPost2010Prop52
140
1.0
102
RTVSPost2010PropOp52
 70
     0
102
RTVSPost2010Prop53
 90
        2
102
RTVSPost2010PropOp53
 70
     1
102
RTVSPost2010Prop54
  1
strokes_ogs.tif
102
RTVSPost2010PropOp54
 70
     1
102
RTVSPost2010Prop55
280
     0
102
RTVSPost2010PropOp55
 70
     1
102
RTVSPost2010Prop56
140
1.0
102
RTVSPost2010PropOp56
 70
     1
102
RTVSPost2010Prop57
140
1.0
102
RTVSPost2010PropOp57
 70
     1
102
RTVSPropertyOp0
 70
     1
102
RTVSPropertyOp1
 70
     1
102
RTVSPropertyOp2
 70
     1
102
RTVSPropertyOp3
 70
     1
102
RTVSPropertyOp4
 70
     1
102
RTVSPropertyOp5
 70
     1
102
RTVSPropertyOp6
 70
     1
102
RTVSPropertyOp7
 70
     1
102
RTVSPropertyOp8
 70
     1
102
RTVSPropertyOp9
 70
     1
102
RTVSPropertyOp10
 70
     1
102
RTVSPropertyOp11
 70
     1
102
RTVSPropertyOp12
 70
     1
102
RTVSPropertyOp13
 70
     1
102
RTVSPropertyOp14
 70
     1
102
RTVSPropertyOp15
 70
     1
102
RTVSPropertyOp16
 70
     1
102
RTVSPropertyOp17
 70
     1
102
RTVSPropertyOp18
 70
     1
102
RTVSPropertyOp19
 70
     1
102
RTVSPropertyOp20
 70
     1
102
RTVSPropertyOp21
 70
     1
102
RTVSPropertyOp22
 70
     1
102
RTVSPropertyOp23
 70
     1
102
RTVSPropertyOp24
 70
     1
102
RTVSPropertyOp25
 70
     1
102
RTVSPropertyOp26
 70
     1
102
RTVSPropertyOp27
 70
     1
102
RTVSPropertyOp28
 70
     1
102
RTVSPropertyOp29
 70
     1
102
RTVSPropertyOp30
 70
     1
102
RTVSPropertyOp31
 70
     1
102
RTVSPropertyOp32
 70
     1
102
RTVSPropertyOp33
 70
     1
102
RTVSPropertyOp34
 70
     1
102
RTVSPropertyOp35
 70
     1
102
RTVSPropertyOp36
 70
     1
102
RTVSPropertyOp37
 70
     1
102
RTVSPropertyOp38
 70
     1
102
RTVSPropertyOp39
 70
     1
102
RTVSPropertyOp40
 70
     1
102
RTVSPropertyOp41
 70
     1
102
RTVSPropertyOp42
 70
     1
102
RTVSPropertyOp43
 70
     1
102
RTVSPropertyOp44
 70
     1
102
RTVSPropertyOp45
 70
     1
102
RTVSPropertyOp46
 70
     1
102
RTVSPropertyOp47
 70
     1
102
RTVSPropertyOp48
 70
     1
102
RTVSPropertyOp49
 70
     1
102
RTVSPropertyOp50
 70
     1
102
RTVSPropertyOp51
 70
     0
102
RTVSPropertyOp52
 70
     0
102
RTVSPropertyOp53
 70
     1
102
RTVSPropertyOp54
 70
     1
102
RTVSPropertyOp55
 70
     1
102
RTVSPropertyOp56
 70
     1
102
RTVSPropertyOp57
 70
     1
102
RTVSPropertyOp58
 70
     1
102
RTVSPropertyOp59
 70
     1
102
RTVSPropertyOp60
 70
     1
102
RTVSPropertyOp61
 70
     1
102
RTVSPropertyOp62
 70
     1
  0
XRECORD
  5
32F5
102
{ACAD_REACTORS
330
32F4
102
}
330
32F4
100
AcDbXrecord
280
     1
102
RTVSPost2010Prop28
280
     0
102
RTVSPost2010PropOp28
 70
     1
102
RTVSPost2010Prop29
280
     1
102
RTVSPost2010PropOp29
 70
     1
102
RTVSPost2010Prop30
280
     1
102
RTVSPost2010PropOp30
 70
     1
102
RTVSPost2010Prop31
280
     0
102
RTVSPost2010PropOp31
 70
     1
102
RTVSPost2010Prop32
280
     0
102
RTVSPost2010PropOp32
 70
     1
102
RTVSPost2010Prop33
280
     0
102
RTVSPost2010PropOp33
 70
     1
102
RTVSPost2010Prop34
280
     0
102
RTVSPost2010PropOp34
 70
     1
102
RTVSPost2010Prop35
280
     0
102
RTVSPost2010PropOp35
 70
     1
102
RTVSPost2010Prop36
280
     0
102
RTVSPost2010PropOp36
 70
     1
102
RTVSPost2010Prop37
 90
       50
102
RTVSPost2010PropOp37
 70
     1
102
RTVSPost2010Prop38
140
0.0
102
RTVSPost2010PropOp38
 70
     1
102
RTVSPost2010Prop39
140
1.0
102
RTVSPost2010PropOp39
 70
     1
102
RTVSPost2010Prop40
 90
        0
102
RTVSPost2010PropOp40
 70
     1
102
RTVSPost2010Prop41ColorIndex
 90
       18
102
RTVSPost2010Prop41ColorRGB
 90
        0
102
RTVSPost2010PropOp41
 70
     1
102
RTVSPost2010Prop42
 90
       50
102
RTVSPost2010PropOp42
 70
     1
102
RTVSPost2010Prop43
 90
        3
102
RTVSPost2010PropOp43
 70
     1
102
RTVSPost2010Prop44ColorIndex
 90
        5
102
RTVSPost2010Prop44ColorRGB
 90
      255
102
RTVSPost2010PropOp44
 70
     1
102
RTVSPost2010Prop45
280
     0
102
RTVSPost2010PropOp45
 70
     1
102
RTVSPost2010Prop46
 90
       50
102
RTVSPost2010PropOp46
 70
     1
102
RTVSPost2010Prop47
 90
       50
102
RTVSPost2010PropOp47
 70
     1
102
RTVSPost2010Prop48
 90
       50
102
RTVSPost2010PropOp48
 70
     1
102
RTVSPost2010Prop49
280
     0
102
RTVSPost2010PropOp49
 70
     1
102
RTVSPost2010Prop50
 90
       50
102
RTVSPost2010PropOp50
 70
     1
102
RTVSPost2010Prop51ColorIndex
 90
      256
102
RTVSPost2010Prop51ColorRGB
 90
-16777216
102
RTVSPost2010PropOp51
 70
     0
102
RTVSPost2010Prop52
140
1.0
102
RTVSPost2010PropOp52
 70
     0
102
RTVSPost2010Prop53
 90
        2
102
RTVSPost2010PropOp53
 70
     1
102
RTVSPost2010Prop54
  1
strokes_ogs.tif
102
RTVSPost2010PropOp54
 70
     1
102
RTVSPost2010Prop55
280
     0
102
RTVSPost2010PropOp55
 70
     1
102
RTVSPost2010Prop56
140
1.0
102
RTVSPost2010PropOp56
 70
     1
102
RTVSPost2010Prop57
140
1.0
102
RTVSPost2010PropOp57
 70
     1
102
RTVSPropertyOp0
 70
     1
102
RTVSPropertyOp1
 70
     1
102
RTVSPropertyOp2
 70
     1
102
RTVSPropertyOp3
 70
     1
102
RTVSPropertyOp4
 70
     1
102
RTVSPropertyOp5
 70
     1
102
RTVSPropertyOp6
 70
     1
102
RTVSPropertyOp7
 70
     1
102
RTVSPropertyOp8
 70
     1
102
RTVSPropertyOp9
 70
     1
102
RTVSPropertyOp10
 70
     1
102
RTVSPropertyOp11
 70
     1
102
RTVSPropertyOp12
 70
     1
102
RTVSPropertyOp13
 70
     1
102
RTVSPropertyOp14
 70
     1
102
RTVSPropertyOp15
 70
     1
102
RTVSPropertyOp16
 70
     1
102
RTVSPropertyOp17
 70
     1
102
RTVSPropertyOp18
 70
     1
102
RTVSPropertyOp19
 70
     1
102
RTVSPropertyOp20
 70
     1
102
RTVSPropertyOp21
 70
     1
102
RTVSPropertyOp22
 70
     1
102
RTVSPropertyOp23
 70
     1
102
RTVSPropertyOp24
 70
     1
102
RTVSPropertyOp25
 70
     1
102
RTVSPropertyOp26
 70
     1
102
RTVSPropertyOp27
 70
     1
102
RTVSPropertyOp28
 70
     1
102
RTVSPropertyOp29
 70
     1
102
RTVSPropertyOp30
 70
     1
102
RTVSPropertyOp31
 70
     1
102
RTVSPropertyOp32
 70
     1
102
RTVSPropertyOp33
 70
     1
102
RTVSPropertyOp34
 70
     1
102
RTVSPropertyOp35
 70
     1
102
RTVSPropertyOp36
 70
     1
102
RTVSPropertyOp37
 70
     1
102
RTVSPropertyOp38
 70
     1
102
RTVSPropertyOp39
 70
     1
102
RTVSPropertyOp40
 70
     1
102
RTVSPropertyOp41
 70
     1
102
RTVSPropertyOp42
 70
     1
102
RTVSPropertyOp43
 70
     1
102
RTVSPropertyOp44
 70
     1
102
RTVSPropertyOp45
 70
     1
102
RTVSPropertyOp46
 70
     1
102
RTVSPropertyOp47
 70
     1
102
RTVSPropertyOp48
 70
     1
102
RTVSPropertyOp49
 70
     1
102
RTVSPropertyOp50
 70
     1
102
RTVSPropertyOp51
 70
     0
102
RTVSPropertyOp52
 70
     0
102
RTVSPropertyOp53
 70
     1
102
RTVSPropertyOp54
 70
     1
102
RTVSPropertyOp55
 70
     1
102
RTVSPropertyOp56
 70
     1
102
RTVSPropertyOp57
 70
     1
102
RTVSPropertyOp58
 70
     1
102
RTVSPropertyOp59
 70
     1
102
RTVSPropertyOp60
 70
     1
102
RTVSPropertyOp61
 70
     1
102
RTVSPropertyOp62
 70
     1
  0
XRECORD
  5
32F7
102
{ACAD_REACTORS
330
32F6
102
}
330
32F6
100
AcDbXrecord
280
     1
102
RTVSPost2010Prop28
280
     0
102
RTVSPost2010PropOp28
 70
     1
102
RTVSPost2010Prop29
280
     1
102
RTVSPost2010PropOp29
 70
     1
102
RTVSPost2010Prop30
280
     1
102
RTVSPost2010PropOp30
 70
     1
102
RTVSPost2010Prop31
280
     0
102
RTVSPost2010PropOp31
 70
     1
102
RTVSPost2010Prop32
280
     0
102
RTVSPost2010PropOp32
 70
     1
102
RTVSPost2010Prop33
280
     0
102
RTVSPost2010PropOp33
 70
     1
102
RTVSPost2010Prop34
280
     0
102
RTVSPost2010PropOp34
 70
     1
102
RTVSPost2010Prop35
280
     0
102
RTVSPost2010PropOp35
 70
     1
102
RTVSPost2010Prop36
280
     0
102
RTVSPost2010PropOp36
 70
     1
102
RTVSPost2010Prop37
 90
       50
102
RTVSPost2010PropOp37
 70
     1
102
RTVSPost2010Prop38
140
0.0
102
RTVSPost2010PropOp38
 70
     1
102
RTVSPost2010Prop39
140
1.0
102
RTVSPost2010PropOp39
 70
     1
102
RTVSPost2010Prop40
 90
        0
102
RTVSPost2010PropOp40
 70
     1
102
RTVSPost2010Prop41ColorIndex
 90
       18
102
RTVSPost2010Prop41ColorRGB
 90
        0
102
RTVSPost2010PropOp41
 70
     1
102
RTVSPost2010Prop42
 90
       50
102
RTVSPost2010PropOp42
 70
     1
102
RTVSPost2010Prop43
 90
        3
102
RTVSPost2010PropOp43
 70
     1
102
RTVSPost2010Prop44ColorIndex
 90
        5
102
RTVSPost2010Prop44ColorRGB
 90
      255
102
RTVSPost2010PropOp44
 70
     1
102
RTVSPost2010Prop45
280
     0
102
RTVSPost2010PropOp45
 70
     1
102
RTVSPost2010Prop46
 90
       50
102
RTVSPost2010PropOp46
 70
     1
102
RTVSPost2010Prop47
 90
       50
102
RTVSPost2010PropOp47
 70
     1
102
RTVSPost2010Prop48
 90
       50
102
RTVSPost2010PropOp48
 70
     1
102
RTVSPost2010Prop49
280
     0
102
RTVSPost2010PropOp49
 70
     1
102
RTVSPost2010Prop50
 90
       50
102
RTVSPost2010PropOp50
 70
     1
102
RTVSPost2010Prop51ColorIndex
 90
      256
102
RTVSPost2010Prop51ColorRGB
 90
-16777216
102
RTVSPost2010PropOp51
 70
     0
102
RTVSPost2010Prop52
140
1.0
102
RTVSPost2010PropOp52
 70
     0
102
RTVSPost2010Prop53
 90
        2
102
RTVSPost2010PropOp53
 70
     1
102
RTVSPost2010Prop54
  1
strokes_ogs.tif
102
RTVSPost2010PropOp54
 70
     1
102
RTVSPost2010Prop55
280
     0
102
RTVSPost2010PropOp55
 70
     1
102
RTVSPost2010Prop56
140
1.0
102
RTVSPost2010PropOp56
 70
     1
102
RTVSPost2010Prop57
140
1.0
102
RTVSPost2010PropOp57
 70
     1
102
RTVSPropertyOp0
 70
     1
102
RTVSPropertyOp1
 70
     1
102
RTVSPropertyOp2
 70
     1
102
RTVSPropertyOp3
 70
     1
102
RTVSPropertyOp4
 70
     1
102
RTVSPropertyOp5
 70
     1
102
RTVSPropertyOp6
 70
     1
102
RTVSPropertyOp7
 70
     1
102
RTVSPropertyOp8
 70
     1
102
RTVSPropertyOp9
 70
     1
102
RTVSPropertyOp10
 70
     1
102
RTVSPropertyOp11
 70
     1
102
RTVSPropertyOp12
 70
     1
102
RTVSPropertyOp13
 70
     1
102
RTVSPropertyOp14
 70
     1
102
RTVSPropertyOp15
 70
     1
102
RTVSPropertyOp16
 70
     1
102
RTVSPropertyOp17
 70
     1
102
RTVSPropertyOp18
 70
     1
102
RTVSPropertyOp19
 70
     1
102
RTVSPropertyOp20
 70
     1
102
RTVSPropertyOp21
 70
     1
102
RTVSPropertyOp22
 70
     1
102
RTVSPropertyOp23
 70
     1
102
RTVSPropertyOp24
 70
     1
102
RTVSPropertyOp25
 70
     1
102
RTVSPropertyOp26
 70
     1
102
RTVSPropertyOp27
 70
     1
102
RTVSPropertyOp28
 70
     1
102
RTVSPropertyOp29
 70
     1
102
RTVSPropertyOp30
 70
     1
102
RTVSPropertyOp31
 70
     1
102
RTVSPropertyOp32
 70
     1
102
RTVSPropertyOp33
 70
     1
102
RTVSPropertyOp34
 70
     1
102
RTVSPropertyOp35
 70
     1
102
RTVSPropertyOp36
 70
     1
102
RTVSPropertyOp37
 70
     1
102
RTVSPropertyOp38
 70
     1
102
RTVSPropertyOp39
 70
     1
102
RTVSPropertyOp40
 70
     1
102
RTVSPropertyOp41
 70
     1
102
RTVSPropertyOp42
 70
     1
102
RTVSPropertyOp43
 70
     1
102
RTVSPropertyOp44
 70
     1
102
RTVSPropertyOp45
 70
     1
102
RTVSPropertyOp46
 70
     1
102
RTVSPropertyOp47
 70
     1
102
RTVSPropertyOp48
 70
     1
102
RTVSPropertyOp49
 70
     1
102
RTVSPropertyOp50
 70
     1
102
RTVSPropertyOp51
 70
     0
102
RTVSPropertyOp52
 70
     0
102
RTVSPropertyOp53
 70
     1
102
RTVSPropertyOp54
 70
     1
102
RTVSPropertyOp55
 70
     1
102
RTVSPropertyOp56
 70
     1
102
RTVSPropertyOp57
 70
     1
102
RTVSPropertyOp58
 70
     1
102
RTVSPropertyOp59
 70
     1
102
RTVSPropertyOp60
 70
     1
102
RTVSPropertyOp61
 70
     1
102
RTVSPropertyOp62
 70
     1
  0
XRECORD
  5
32FF
102
{ACAD_REACTORS
330
32FE
102
}
330
32FE
100
AcDbXrecord
280
     1
102
RTVSPost2010Prop28
280
     0
102
RTVSPost2010PropOp28
 70
     1
102
RTVSPost2010Prop29
280
     1
102
RTVSPost2010PropOp29
 70
     1
102
RTVSPost2010Prop30
280
     1
102
RTVSPost2010PropOp30
 70
     1
102
RTVSPost2010Prop31
280
     0
102
RTVSPost2010PropOp31
 70
     1
102
RTVSPost2010Prop32
280
     0
102
RTVSPost2010PropOp32
 70
     1
102
RTVSPost2010Prop33
280
     0
102
RTVSPost2010PropOp33
 70
     1
102
RTVSPost2010Prop34
280
     0
102
RTVSPost2010PropOp34
 70
     1
102
RTVSPost2010Prop35
280
     0
102
RTVSPost2010PropOp35
 70
     1
102
RTVSPost2010Prop36
280
     0
102
RTVSPost2010PropOp36
 70
     1
102
RTVSPost2010Prop37
 90
       50
102
RTVSPost2010PropOp37
 70
     1
102
RTVSPost2010Prop38
140
0.0
102
RTVSPost2010PropOp38
 70
     1
102
RTVSPost2010Prop39
140
1.0
102
RTVSPost2010PropOp39
 70
     1
102
RTVSPost2010Prop40
 90
        0
102
RTVSPost2010PropOp40
 70
     1
102
RTVSPost2010Prop41ColorIndex
 90
       18
102
RTVSPost2010Prop41ColorRGB
 90
        0
102
RTVSPost2010PropOp41
 70
     1
102
RTVSPost2010Prop42
 90
       50
102
RTVSPost2010PropOp42
 70
     1
102
RTVSPost2010Prop43
 90
        3
102
RTVSPost2010PropOp43
 70
     1
102
RTVSPost2010Prop44ColorIndex
 90
        5
102
RTVSPost2010Prop44ColorRGB
 90
      255
102
RTVSPost2010PropOp44
 70
     1
102
RTVSPost2010Prop45
280
     0
102
RTVSPost2010PropOp45
 70
     1
102
RTVSPost2010Prop46
 90
       50
102
RTVSPost2010PropOp46
 70
     1
102
RTVSPost2010Prop47
 90
       50
102
RTVSPost2010PropOp47
 70
     1
102
RTVSPost2010Prop48
 90
       50
102
RTVSPost2010PropOp48
 70
     1
102
RTVSPost2010Prop49
280
     0
102
RTVSPost2010PropOp49
 70
     1
102
RTVSPost2010Prop50
 90
       50
102
RTVSPost2010PropOp50
 70
     1
102
RTVSPost2010Prop51ColorIndex
 90
      256
102
RTVSPost2010Prop51ColorRGB
 90
-16777216
102
RTVSPost2010PropOp51
 70
     0
102
RTVSPost2010Prop52
140
1.0
102
RTVSPost2010PropOp52
 70
     0
102
RTVSPost2010Prop53
 90
        2
102
RTVSPost2010PropOp53
 70
     1
102
RTVSPost2010Prop54
  1
strokes_ogs.tif
102
RTVSPost2010PropOp54
 70
     1
102
RTVSPost2010Prop55
280
     0
102
RTVSPost2010PropOp55
 70
     1
102
RTVSPost2010Prop56
140
1.0
102
RTVSPost2010PropOp56
 70
     1
102
RTVSPost2010Prop57
140
1.0
102
RTVSPost2010PropOp57
 70
     1
102
RTVSPropertyOp0
 70
     1
102
RTVSPropertyOp1
 70
     1
102
RTVSPropertyOp2
 70
     1
102
RTVSPropertyOp3
 70
     1
102
RTVSPropertyOp4
 70
     1
102
RTVSPropertyOp5
 70
     1
102
RTVSPropertyOp6
 70
     1
102
RTVSPropertyOp7
 70
     1
102
RTVSPropertyOp8
 70
     1
102
RTVSPropertyOp9
 70
     1
102
RTVSPropertyOp10
 70
     1
102
RTVSPropertyOp11
 70
     1
102
RTVSPropertyOp12
 70
     1
102
RTVSPropertyOp13
 70
     1
102
RTVSPropertyOp14
 70
     1
102
RTVSPropertyOp15
 70
     1
102
RTVSPropertyOp16
 70
     1
102
RTVSPropertyOp17
 70
     1
102
RTVSPropertyOp18
 70
     1
102
RTVSPropertyOp19
 70
     1
102
RTVSPropertyOp20
 70
     1
102
RTVSPropertyOp21
 70
     1
102
RTVSPropertyOp22
 70
     1
102
RTVSPropertyOp23
 70
     1
102
RTVSPropertyOp24
 70
     1
102
RTVSPropertyOp25
 70
     1
102
RTVSPropertyOp26
 70
     1
102
RTVSPropertyOp27
 70
     1
102
RTVSPropertyOp28
 70
     1
102
RTVSPropertyOp29
 70
     1
102
RTVSPropertyOp30
 70
     1
102
RTVSPropertyOp31
 70
     1
102
RTVSPropertyOp32
 70
     1
102
RTVSPropertyOp33
 70
     1
102
RTVSPropertyOp34
 70
     1
102
RTVSPropertyOp35
 70
     1
102
RTVSPropertyOp36
 70
     1
102
RTVSPropertyOp37
 70
     1
102
RTVSPropertyOp38
 70
     1
102
RTVSPropertyOp39
 70
     1
102
RTVSPropertyOp40
 70
     1
102
RTVSPropertyOp41
 70
     1
102
RTVSPropertyOp42
 70
     1
102
RTVSPropertyOp43
 70
     1
102
RTVSPropertyOp44
 70
     1
102
RTVSPropertyOp45
 70
     1
102
RTVSPropertyOp46
 70
     1
102
RTVSPropertyOp47
 70
     1
102
RTVSPropertyOp48
 70
     1
102
RTVSPropertyOp49
 70
     1
102
RTVSPropertyOp50
 70
     1
102
RTVSPropertyOp51
 70
     0
102
RTVSPropertyOp52
 70
     0
102
RTVSPropertyOp53
 70
     1
102
RTVSPropertyOp54
 70
     1
102
RTVSPropertyOp55
 70
     1
102
RTVSPropertyOp56
 70
     1
102
RTVSPropertyOp57
 70
     1
102
RTVSPropertyOp58
 70
     1
102
RTVSPropertyOp59
 70
     1
102
RTVSPropertyOp60
 70
     1
102
RTVSPropertyOp61
 70
     1
102
RTVSPropertyOp62
 70
     1
  0
XRECORD
  5
331B
102
{ACAD_REACTORS
330
331A
102
}
330
331A
100
AcDbXrecord
280
     1
102
RTVSPost2010Prop28
280
     0
102
RTVSPost2010PropOp28
 70
     1
102
RTVSPost2010Prop29
280
     1
102
RTVSPost2010PropOp29
 70
     1
102
RTVSPost2010Prop30
280
     1
102
RTVSPost2010PropOp30
 70
     1
102
RTVSPost2010Prop31
280
     0
102
RTVSPost2010PropOp31
 70
     1
102
RTVSPost2010Prop32
280
     0
102
RTVSPost2010PropOp32
 70
     1
102
RTVSPost2010Prop33
280
     0
102
RTVSPost2010PropOp33
 70
     1
102
RTVSPost2010Prop34
280
     0
102
RTVSPost2010PropOp34
 70
     1
102
RTVSPost2010Prop35
280
     0
102
RTVSPost2010PropOp35
 70
     1
102
RTVSPost2010Prop36
280
     0
102
RTVSPost2010PropOp36
 70
     1
102
RTVSPost2010Prop37
 90
       50
102
RTVSPost2010PropOp37
 70
     0
102
RTVSPost2010Prop38
140
0.0
102
RTVSPost2010PropOp38
 70
     0
102
RTVSPost2010Prop39
140
1.0
102
RTVSPost2010PropOp39
 70
     0
102
RTVSPost2010Prop40
 90
        0
102
RTVSPost2010PropOp40
 70
     0
102
RTVSPost2010Prop41ColorIndex
 90
       18
102
RTVSPost2010Prop41ColorRGB
 90
        0
102
RTVSPost2010PropOp41
 70
     0
102
RTVSPost2010Prop42
 90
       50
102
RTVSPost2010PropOp42
 70
     0
102
RTVSPost2010Prop43
 90
        3
102
RTVSPost2010PropOp43
 70
     0
102
RTVSPost2010Prop44ColorIndex
 90
        5
102
RTVSPost2010Prop44ColorRGB
 90
      255
102
RTVSPost2010PropOp44
 70
     0
102
RTVSPost2010Prop45
280
     0
102
RTVSPost2010PropOp45
 70
     1
102
RTVSPost2010Prop46
 90
       50
102
RTVSPost2010PropOp46
 70
     0
102
RTVSPost2010Prop47
 90
       50
102
RTVSPost2010PropOp47
 70
     0
102
RTVSPost2010Prop48
 90
       50
102
RTVSPost2010PropOp48
 70
     0
102
RTVSPost2010Prop49
280
     0
102
RTVSPost2010PropOp49
 70
     1
102
RTVSPost2010Prop50
 90
       50
102
RTVSPost2010PropOp50
 70
     0
102
RTVSPost2010Prop51ColorIndex
 90
      256
102
RTVSPost2010Prop51ColorRGB
 90
-16777216
102
RTVSPost2010PropOp51
 70
     0
102
RTVSPost2010Prop52
140
1.0
102
RTVSPost2010PropOp52
 70
     0
102
RTVSPost2010Prop53
 90
        2
102
RTVSPost2010PropOp53
 70
     0
102
RTVSPost2010Prop54
  1
strokes_ogs.tif
102
RTVSPost2010PropOp54
 70
     0
102
RTVSPost2010Prop55
280
     0
102
RTVSPost2010PropOp55
 70
     1
102
RTVSPost2010Prop56
140
1.0
102
RTVSPost2010PropOp56
 70
     0
102
RTVSPost2010Prop57
140
1.0
102
RTVSPost2010PropOp57
 70
     0
102
RTVSPropertyOp0
 70
     0
102
RTVSPropertyOp1
 70
     0
102
RTVSPropertyOp2
 70
     0
102
RTVSPropertyOp3
 70
     0
102
RTVSPropertyOp4
 70
     0
102
RTVSPropertyOp5
 70
     0
102
RTVSPropertyOp6
 70
     0
102
RTVSPropertyOp7
 70
     0
102
RTVSPropertyOp8
 70
     0
102
RTVSPropertyOp9
 70
     0
102
RTVSPropertyOp10
 70
     0
102
RTVSPropertyOp11
 70
     0
102
RTVSPropertyOp12
 70
     0
102
RTVSPropertyOp13
 70
     0
102
RTVSPropertyOp14
 70
     2
102
RTVSPropertyOp15
 70
     0
102
RTVSPropertyOp16
 70
     0
102
RTVSPropertyOp17
 70
     0
102
RTVSPropertyOp18
 70
     0
102
RTVSPropertyOp19
 70
     0
102
RTVSPropertyOp20
 70
     0
102
RTVSPropertyOp21
 70
     0
102
RTVSPropertyOp22
 70
     0
102
RTVSPropertyOp23
 70
     0
102
RTVSPropertyOp24
 70
     0
102
RTVSPropertyOp25
 70
     0
102
RTVSPropertyOp26
 70
     0
102
RTVSPropertyOp27
 70
     0
102
RTVSPropertyOp28
 70
     1
102
RTVSPropertyOp29
 70
     1
102
RTVSPropertyOp30
 70
     1
102
RTVSPropertyOp31
 70
     1
102
RTVSPropertyOp32
 70
     1
102
RTVSPropertyOp33
 70
     1
102
RTVSPropertyOp34
 70
     1
102
RTVSPropertyOp35
 70
     1
102
RTVSPropertyOp36
 70
     1
102
RTVSPropertyOp37
 70
     0
102
RTVSPropertyOp38
 70
     0
102
RTVSPropertyOp39
 70
     0
102
RTVSPropertyOp40
 70
     0
102
RTVSPropertyOp41
 70
     0
102
RTVSPropertyOp42
 70
     0
102
RTVSPropertyOp43
 70
     0
102
RTVSPropertyOp44
 70
     0
102
RTVSPropertyOp45
 70
     1
102
RTVSPropertyOp46
 70
     0
102
RTVSPropertyOp47
 70
     0
102
RTVSPropertyOp48
 70
     0
102
RTVSPropertyOp49
 70
     1
102
RTVSPropertyOp50
 70
     0
102
RTVSPropertyOp51
 70
     0
102
RTVSPropertyOp52
 70
     0
102
RTVSPropertyOp53
 70
     0
102
RTVSPropertyOp54
 70
     0
102
RTVSPropertyOp55
 70
     1
102
RTVSPropertyOp56
 70
     0
102
RTVSPropertyOp57
 70
     0
102
RTVSPropertyOp58
 70
     0
102
RTVSPropertyOp59
 70
     0
102
RTVSPropertyOp60
 70
     0
102
RTVSPropertyOp61
 70
     0
102
RTVSPropertyOp62
 70
     0
  0
XRECORD
  5
330B
102
{ACAD_REACTORS
330
330A
102
}
330
330A
100
AcDbXrecord
280
     1
102
RTVSPost2010Prop28
280
     0
102
RTVSPost2010PropOp28
 70
     1
102
RTVSPost2010Prop29
280
     1
102
RTVSPost2010PropOp29
 70
     1
102
RTVSPost2010Prop30
280
     1
102
RTVSPost2010PropOp30
 70
     1
102
RTVSPost2010Prop31
280
     0
102
RTVSPost2010PropOp31
 70
     1
102
RTVSPost2010Prop32
280
     0
102
RTVSPost2010PropOp32
 70
     1
102
RTVSPost2010Prop33
280
     0
102
RTVSPost2010PropOp33
 70
     1
102
RTVSPost2010Prop34
280
     0
102
RTVSPost2010PropOp34
 70
     1
102
RTVSPost2010Prop35
280
     0
102
RTVSPost2010PropOp35
 70
     1
102
RTVSPost2010Prop36
280
     0
102
RTVSPost2010PropOp36
 70
     1
102
RTVSPost2010Prop37
 90
       50
102
RTVSPost2010PropOp37
 70
     1
102
RTVSPost2010Prop38
140
0.0
102
RTVSPost2010PropOp38
 70
     1
102
RTVSPost2010Prop39
140
1.0
102
RTVSPost2010PropOp39
 70
     1
102
RTVSPost2010Prop40
 90
        0
102
RTVSPost2010PropOp40
 70
     1
102
RTVSPost2010Prop41ColorIndex
 90
       18
102
RTVSPost2010Prop41ColorRGB
 90
        0
102
RTVSPost2010PropOp41
 70
     1
102
RTVSPost2010Prop42
 90
       50
102
RTVSPost2010PropOp42
 70
     1
102
RTVSPost2010Prop43
 90
        3
102
RTVSPost2010PropOp43
 70
     1
102
RTVSPost2010Prop44ColorIndex
 90
        5
102
RTVSPost2010Prop44ColorRGB
 90
      255
102
RTVSPost2010PropOp44
 70
     1
102
RTVSPost2010Prop45
280
     0
102
RTVSPost2010PropOp45
 70
     1
102
RTVSPost2010Prop46
 90
       50
102
RTVSPost2010PropOp46
 70
     1
102
RTVSPost2010Prop47
 90
       50
102
RTVSPost2010PropOp47
 70
     1
102
RTVSPost2010Prop48
 90
       50
102
RTVSPost2010PropOp48
 70
     1
102
RTVSPost2010Prop49
280
     0
102
RTVSPost2010PropOp49
 70
     1
102
RTVSPost2010Prop50
 90
       50
102
RTVSPost2010PropOp50
 70
     1
102
RTVSPost2010Prop51ColorIndex
 90
      256
102
RTVSPost2010Prop51ColorRGB
 90
-16777216
102
RTVSPost2010PropOp51
 70
     0
102
RTVSPost2010Prop52
140
1.0
102
RTVSPost2010PropOp52
 70
     0
102
RTVSPost2010Prop53
 90
        2
102
RTVSPost2010PropOp53
 70
     1
102
RTVSPost2010Prop54
  1
strokes_ogs.tif
102
RTVSPost2010PropOp54
 70
     1
102
RTVSPost2010Prop55
280
     0
102
RTVSPost2010PropOp55
 70
     1
102
RTVSPost2010Prop56
140
1.0
102
RTVSPost2010PropOp56
 70
     1
102
RTVSPost2010Prop57
140
1.0
102
RTVSPost2010PropOp57
 70
     1
102
RTVSPropertyOp0
 70
     1
102
RTVSPropertyOp1
 70
     1
102
RTVSPropertyOp2
 70
     1
102
RTVSPropertyOp3
 70
     1
102
RTVSPropertyOp4
 70
     1
102
RTVSPropertyOp5
 70
     1
102
RTVSPropertyOp6
 70
     1
102
RTVSPropertyOp7
 70
     1
102
RTVSPropertyOp8
 70
     1
102
RTVSPropertyOp9
 70
     1
102
RTVSPropertyOp10
 70
     1
102
RTVSPropertyOp11
 70
     1
102
RTVSPropertyOp12
 70
     1
102
RTVSPropertyOp13
 70
     1
102
RTVSPropertyOp14
 70
     1
102
RTVSPropertyOp15
 70
     1
102
RTVSPropertyOp16
 70
     1
102
RTVSPropertyOp17
 70
     1
102
RTVSPropertyOp18
 70
     1
102
RTVSPropertyOp19
 70
     1
102
RTVSPropertyOp20
 70
     1
102
RTVSPropertyOp21
 70
     1
102
RTVSPropertyOp22
 70
     1
102
RTVSPropertyOp23
 70
     1
102
RTVSPropertyOp24
 70
     1
102
RTVSPropertyOp25
 70
     1
102
RTVSPropertyOp26
 70
     1
102
RTVSPropertyOp27
 70
     1
102
RTVSPropertyOp28
 70
     1
102
RTVSPropertyOp29
 70
     1
102
RTVSPropertyOp30
 70
     1
102
RTVSPropertyOp31
 70
     1
102
RTVSPropertyOp32
 70
     1
102
RTVSPropertyOp33
 70
     1
102
RTVSPropertyOp34
 70
     1
102
RTVSPropertyOp35
 70
     1
102
RTVSPropertyOp36
 70
     1
102
RTVSPropertyOp37
 70
     1
102
RTVSPropertyOp38
 70
     1
102
RTVSPropertyOp39
 70
     1
102
RTVSPropertyOp40
 70
     1
102
RTVSPropertyOp41
 70
     1
102
RTVSPropertyOp42
 70
     1
102
RTVSPropertyOp43
 70
     1
102
RTVSPropertyOp44
 70
     1
102
RTVSPropertyOp45
 70
     1
102
RTVSPropertyOp46
 70
     1
102
RTVSPropertyOp47
 70
     1
102
RTVSPropertyOp48
 70
     1
102
RTVSPropertyOp49
 70
     1
102
RTVSPropertyOp50
 70
     1
102
RTVSPropertyOp51
 70
     0
102
RTVSPropertyOp52
 70
     0
102
RTVSPropertyOp53
 70
     1
102
RTVSPropertyOp54
 70
     1
102
RTVSPropertyOp55
 70
     1
102
RTVSPropertyOp56
 70
     1
102
RTVSPropertyOp57
 70
     1
102
RTVSPropertyOp58
 70
     1
102
RTVSPropertyOp59
 70
     1
102
RTVSPropertyOp60
 70
     1
102
RTVSPropertyOp61
 70
     1
102
RTVSPropertyOp62
 70
     1
  0
XRECORD
  5
331D
102
{ACAD_REACTORS
330
331C
102
}
330
331C
100
AcDbXrecord
280
     1
102
RTVSPost2010Prop28
280
     0
102
RTVSPost2010PropOp28
 70
     1
102
RTVSPost2010Prop29
280
     1
102
RTVSPost2010PropOp29
 70
     1
102
RTVSPost2010Prop30
280
     1
102
RTVSPost2010PropOp30
 70
     1
102
RTVSPost2010Prop31
280
     0
102
RTVSPost2010PropOp31
 70
     1
102
RTVSPost2010Prop32
280
     0
102
RTVSPost2010PropOp32
 70
     1
102
RTVSPost2010Prop33
280
     0
102
RTVSPost2010PropOp33
 70
     1
102
RTVSPost2010Prop34
280
     0
102
RTVSPost2010PropOp34
 70
     1
102
RTVSPost2010Prop35
280
     0
102
RTVSPost2010PropOp35
 70
     1
102
RTVSPost2010Prop36
280
     0
102
RTVSPost2010PropOp36
 70
     1
102
RTVSPost2010Prop37
 90
       50
102
RTVSPost2010PropOp37
 70
     0
102
RTVSPost2010Prop38
140
0.0
102
RTVSPost2010PropOp38
 70
     0
102
RTVSPost2010Prop39
140
1.0
102
RTVSPost2010PropOp39
 70
     0
102
RTVSPost2010Prop40
 90
        0
102
RTVSPost2010PropOp40
 70
     0
102
RTVSPost2010Prop41ColorIndex
 90
       18
102
RTVSPost2010Prop41ColorRGB
 90
        0
102
RTVSPost2010PropOp41
 70
     0
102
RTVSPost2010Prop42
 90
       50
102
RTVSPost2010PropOp42
 70
     0
102
RTVSPost2010Prop43
 90
        3
102
RTVSPost2010PropOp43
 70
     0
102
RTVSPost2010Prop44ColorIndex
 90
        5
102
RTVSPost2010Prop44ColorRGB
 90
      255
102
RTVSPost2010PropOp44
 70
     0
102
RTVSPost2010Prop45
280
     0
102
RTVSPost2010PropOp45
 70
     1
102
RTVSPost2010Prop46
 90
       50
102
RTVSPost2010PropOp46
 70
     0
102
RTVSPost2010Prop47
 90
       50
102
RTVSPost2010PropOp47
 70
     0
102
RTVSPost2010Prop48
 90
       50
102
RTVSPost2010PropOp48
 70
     0
102
RTVSPost2010Prop49
280
     0
102
RTVSPost2010PropOp49
 70
     1
102
RTVSPost2010Prop50
 90
       50
102
RTVSPost2010PropOp50
 70
     0
102
RTVSPost2010Prop51ColorIndex
 90
      256
102
RTVSPost2010Prop51ColorRGB
 90
-16777216
102
RTVSPost2010PropOp51
 70
     0
102
RTVSPost2010Prop52
140
1.0
102
RTVSPost2010PropOp52
 70
     0
102
RTVSPost2010Prop53
 90
        2
102
RTVSPost2010PropOp53
 70
     0
102
RTVSPost2010Prop54
  1
strokes_ogs.tif
102
RTVSPost2010PropOp54
 70
     0
102
RTVSPost2010Prop55
280
     0
102
RTVSPost2010PropOp55
 70
     1
102
RTVSPost2010Prop56
140
1.0
102
RTVSPost2010PropOp56
 70
     0
102
RTVSPost2010Prop57
140
1.0
102
RTVSPost2010PropOp57
 70
     0
102
RTVSPropertyOp0
 70
     0
102
RTVSPropertyOp1
 70
     0
102
RTVSPropertyOp2
 70
     0
102
RTVSPropertyOp3
 70
     0
102
RTVSPropertyOp4
 70
     0
102
RTVSPropertyOp5
 70
     0
102
RTVSPropertyOp6
 70
     0
102
RTVSPropertyOp7
 70
     0
102
RTVSPropertyOp8
 70
     0
102
RTVSPropertyOp9
 70
     0
102
RTVSPropertyOp10
 70
     0
102
RTVSPropertyOp11
 70
     0
102
RTVSPropertyOp12
 70
     0
102
RTVSPropertyOp13
 70
     0
102
RTVSPropertyOp14
 70
     2
102
RTVSPropertyOp15
 70
     0
102
RTVSPropertyOp16
 70
     0
102
RTVSPropertyOp17
 70
     0
102
RTVSPropertyOp18
 70
     0
102
RTVSPropertyOp19
 70
     0
102
RTVSPropertyOp20
 70
     0
102
RTVSPropertyOp21
 70
     0
102
RTVSPropertyOp22
 70
     0
102
RTVSPropertyOp23
 70
     0
102
RTVSPropertyOp24
 70
     0
102
RTVSPropertyOp25
 70
     0
102
RTVSPropertyOp26
 70
     0
102
RTVSPropertyOp27
 70
     0
102
RTVSPropertyOp28
 70
     1
102
RTVSPropertyOp29
 70
     1
102
RTVSPropertyOp30
 70
     1
102
RTVSPropertyOp31
 70
     1
102
RTVSPropertyOp32
 70
     1
102
RTVSPropertyOp33
 70
     1
102
RTVSPropertyOp34
 70
     1
102
RTVSPropertyOp35
 70
     1
102
RTVSPropertyOp36
 70
     1
102
RTVSPropertyOp37
 70
     0
102
RTVSPropertyOp38
 70
     0
102
RTVSPropertyOp39
 70
     0
102
RTVSPropertyOp40
 70
     0
102
RTVSPropertyOp41
 70
     0
102
RTVSPropertyOp42
 70
     0
102
RTVSPropertyOp43
 70
     0
102
RTVSPropertyOp44
 70
     0
102
RTVSPropertyOp45
 70
     1
102
RTVSPropertyOp46
 70
     0
102
RTVSPropertyOp47
 70
     0
102
RTVSPropertyOp48
 70
     0
102
RTVSPropertyOp49
 70
     1
102
RTVSPropertyOp50
 70
     0
102
RTVSPropertyOp51
 70
     0
102
RTVSPropertyOp52
 70
     0
102
RTVSPropertyOp53
 70
     0
102
RTVSPropertyOp54
 70
     0
102
RTVSPropertyOp55
 70
     1
102
RTVSPropertyOp56
 70
     0
102
RTVSPropertyOp57
 70
     0
102
RTVSPropertyOp58
 70
     0
102
RTVSPropertyOp59
 70
     0
102
RTVSPropertyOp60
 70
     0
102
RTVSPropertyOp61
 70
     0
102
RTVSPropertyOp62
 70
     0
  0
XRECORD
  5
3303
102
{ACAD_REACTORS
330
3302
102
}
330
3302
100
AcDbXrecord
280
     1
102
RTVSPost2010Prop28
280
     0
102
RTVSPost2010PropOp28
 70
     1
102
RTVSPost2010Prop29
280
     1
102
RTVSPost2010PropOp29
 70
     1
102
RTVSPost2010Prop30
280
     1
102
RTVSPost2010PropOp30
 70
     1
102
RTVSPost2010Prop31
280
     0
102
RTVSPost2010PropOp31
 70
     1
102
RTVSPost2010Prop32
280
     0
102
RTVSPost2010PropOp32
 70
     1
102
RTVSPost2010Prop33
280
     0
102
RTVSPost2010PropOp33
 70
     1
102
RTVSPost2010Prop34
280
     0
102
RTVSPost2010PropOp34
 70
     1
102
RTVSPost2010Prop35
280
     0
102
RTVSPost2010PropOp35
 70
     1
102
RTVSPost2010Prop36
280
     0
102
RTVSPost2010PropOp36
 70
     1
102
RTVSPost2010Prop37
 90
       50
102
RTVSPost2010PropOp37
 70
     1
102
RTVSPost2010Prop38
140
0.0
102
RTVSPost2010PropOp38
 70
     1
102
RTVSPost2010Prop39
140
1.0
102
RTVSPost2010PropOp39
 70
     1
102
RTVSPost2010Prop40
 90
        0
102
RTVSPost2010PropOp40
 70
     1
102
RTVSPost2010Prop41ColorIndex
 90
       18
102
RTVSPost2010Prop41ColorRGB
 90
        0
102
RTVSPost2010PropOp41
 70
     1
102
RTVSPost2010Prop42
 90
       50
102
RTVSPost2010PropOp42
 70
     1
102
RTVSPost2010Prop43
 90
        3
102
RTVSPost2010PropOp43
 70
     1
102
RTVSPost2010Prop44ColorIndex
 90
        5
102
RTVSPost2010Prop44ColorRGB
 90
      255
102
RTVSPost2010PropOp44
 70
     1
102
RTVSPost2010Prop45
280
     0
102
RTVSPost2010PropOp45
 70
     1
102
RTVSPost2010Prop46
 90
       50
102
RTVSPost2010PropOp46
 70
     1
102
RTVSPost2010Prop47
 90
       50
102
RTVSPost2010PropOp47
 70
     1
102
RTVSPost2010Prop48
 90
       50
102
RTVSPost2010PropOp48
 70
     1
102
RTVSPost2010Prop49
280
     0
102
RTVSPost2010PropOp49
 70
     1
102
RTVSPost2010Prop50
 90
       50
102
RTVSPost2010PropOp50
 70
     1
102
RTVSPost2010Prop51ColorIndex
 90
      256
102
RTVSPost2010Prop51ColorRGB
 90
-16777216
102
RTVSPost2010PropOp51
 70
     0
102
RTVSPost2010Prop52
140
1.0
102
RTVSPost2010PropOp52
 70
     0
102
RTVSPost2010Prop53
 90
        2
102
RTVSPost2010PropOp53
 70
     1
102
RTVSPost2010Prop54
  1
strokes_ogs.tif
102
RTVSPost2010PropOp54
 70
     1
102
RTVSPost2010Prop55
280
     0
102
RTVSPost2010PropOp55
 70
     1
102
RTVSPost2010Prop56
140
1.0
102
RTVSPost2010PropOp56
 70
     1
102
RTVSPost2010Prop57
140
1.0
102
RTVSPost2010PropOp57
 70
     1
102
RTVSPropertyOp0
 70
     1
102
RTVSPropertyOp1
 70
     1
102
RTVSPropertyOp2
 70
     1
102
RTVSPropertyOp3
 70
     1
102
RTVSPropertyOp4
 70
     1
102
RTVSPropertyOp5
 70
     1
102
RTVSPropertyOp6
 70
     1
102
RTVSPropertyOp7
 70
     1
102
RTVSPropertyOp8
 70
     1
102
RTVSPropertyOp9
 70
     1
102
RTVSPropertyOp10
 70
     1
102
RTVSPropertyOp11
 70
     1
102
RTVSPropertyOp12
 70
     1
102
RTVSPropertyOp13
 70
     1
102
RTVSPropertyOp14
 70
     1
102
RTVSPropertyOp15
 70
     1
102
RTVSPropertyOp16
 70
     1
102
RTVSPropertyOp17
 70
     1
102
RTVSPropertyOp18
 70
     1
102
RTVSPropertyOp19
 70
     1
102
RTVSPropertyOp20
 70
     1
102
RTVSPropertyOp21
 70
     1
102
RTVSPropertyOp22
 70
     1
102
RTVSPropertyOp23
 70
     1
102
RTVSPropertyOp24
 70
     1
102
RTVSPropertyOp25
 70
     1
102
RTVSPropertyOp26
 70
     1
102
RTVSPropertyOp27
 70
     1
102
RTVSPropertyOp28
 70
     1
102
RTVSPropertyOp29
 70
     1
102
RTVSPropertyOp30
 70
     1
102
RTVSPropertyOp31
 70
     1
102
RTVSPropertyOp32
 70
     1
102
RTVSPropertyOp33
 70
     1
102
RTVSPropertyOp34
 70
     1
102
RTVSPropertyOp35
 70
     1
102
RTVSPropertyOp36
 70
     1
102
RTVSPropertyOp37
 70
     1
102
RTVSPropertyOp38
 70
     1
102
RTVSPropertyOp39
 70
     1
102
RTVSPropertyOp40
 70
     1
102
RTVSPropertyOp41
 70
     1
102
RTVSPropertyOp42
 70
     1
102
RTVSPropertyOp43
 70
     1
102
RTVSPropertyOp44
 70
     1
102
RTVSPropertyOp45
 70
     1
102
RTVSPropertyOp46
 70
     1
102
RTVSPropertyOp47
 70
     1
102
RTVSPropertyOp48
 70
     1
102
RTVSPropertyOp49
 70
     1
102
RTVSPropertyOp50
 70
     1
102
RTVSPropertyOp51
 70
     0
102
RTVSPropertyOp52
 70
     0
102
RTVSPropertyOp53
 70
     1
102
RTVSPropertyOp54
 70
     1
102
RTVSPropertyOp55
 70
     1
102
RTVSPropertyOp56
 70
     1
102
RTVSPropertyOp57
 70
     1
102
RTVSPropertyOp58
 70
     1
102
RTVSPropertyOp59
 70
     1
102
RTVSPropertyOp60
 70
     1
102
RTVSPropertyOp61
 70
     1
102
RTVSPropertyOp62
 70
     1
  0
XRECORD
  5
3319
102
{ACAD_REACTORS
330
3318
102
}
330
3318
100
AcDbXrecord
280
     1
102
RTVSPost2010Prop28
280
     0
102
RTVSPost2010PropOp28
 70
     1
102
RTVSPost2010Prop29
280
     1
102
RTVSPost2010PropOp29
 70
     1
102
RTVSPost2010Prop30
280
     1
102
RTVSPost2010PropOp30
 70
     1
102
RTVSPost2010Prop31
280
     0
102
RTVSPost2010PropOp31
 70
     1
102
RTVSPost2010Prop32
280
     0
102
RTVSPost2010PropOp32
 70
     1
102
RTVSPost2010Prop33
280
     0
102
RTVSPost2010PropOp33
 70
     1
102
RTVSPost2010Prop34
280
     0
102
RTVSPost2010PropOp34
 70
     1
102
RTVSPost2010Prop35
280
     0
102
RTVSPost2010PropOp35
 70
     1
102
RTVSPost2010Prop36
280
     0
102
RTVSPost2010PropOp36
 70
     1
102
RTVSPost2010Prop37
 90
       50
102
RTVSPost2010PropOp37
 70
     1
102
RTVSPost2010Prop38
140
0.0
102
RTVSPost2010PropOp38
 70
     1
102
RTVSPost2010Prop39
140
1.0
102
RTVSPost2010PropOp39
 70
     1
102
RTVSPost2010Prop40
 90
        0
102
RTVSPost2010PropOp40
 70
     1
102
RTVSPost2010Prop41ColorIndex
 90
       18
102
RTVSPost2010Prop41ColorRGB
 90
        0
102
RTVSPost2010PropOp41
 70
     1
102
RTVSPost2010Prop42
 90
       50
102
RTVSPost2010PropOp42
 70
     1
102
RTVSPost2010Prop43
 90
        3
102
RTVSPost2010PropOp43
 70
     1
102
RTVSPost2010Prop44ColorIndex
 90
        5
102
RTVSPost2010Prop44ColorRGB
 90
      255
102
RTVSPost2010PropOp44
 70
     1
102
RTVSPost2010Prop45
280
     0
102
RTVSPost2010PropOp45
 70
     1
102
RTVSPost2010Prop46
 90
       50
102
RTVSPost2010PropOp46
 70
     1
102
RTVSPost2010Prop47
 90
       50
102
RTVSPost2010PropOp47
 70
     1
102
RTVSPost2010Prop48
 90
       50
102
RTVSPost2010PropOp48
 70
     1
102
RTVSPost2010Prop49
280
     0
102
RTVSPost2010PropOp49
 70
     1
102
RTVSPost2010Prop50
 90
       50
102
RTVSPost2010PropOp50
 70
     1
102
RTVSPost2010Prop51ColorIndex
 90
      256
102
RTVSPost2010Prop51ColorRGB
 90
-16777216
102
RTVSPost2010PropOp51
 70
     0
102
RTVSPost2010Prop52
140
1.0
102
RTVSPost2010PropOp52
 70
     0
102
RTVSPost2010Prop53
 90
        2
102
RTVSPost2010PropOp53
 70
     1
102
RTVSPost2010Prop54
  1
strokes_ogs.tif
102
RTVSPost2010PropOp54
 70
     1
102
RTVSPost2010Prop55
280
     0
102
RTVSPost2010PropOp55
 70
     1
102
RTVSPost2010Prop56
140
1.0
102
RTVSPost2010PropOp56
 70
     1
102
RTVSPost2010Prop57
140
1.0
102
RTVSPost2010PropOp57
 70
     1
102
RTVSPropertyOp0
 70
     1
102
RTVSPropertyOp1
 70
     1
102
RTVSPropertyOp2
 70
     1
102
RTVSPropertyOp3
 70
     1
102
RTVSPropertyOp4
 70
     1
102
RTVSPropertyOp5
 70
     1
102
RTVSPropertyOp6
 70
     1
102
RTVSPropertyOp7
 70
     1
102
RTVSPropertyOp8
 70
     1
102
RTVSPropertyOp9
 70
     1
102
RTVSPropertyOp10
 70
     1
102
RTVSPropertyOp11
 70
     1
102
RTVSPropertyOp12
 70
     1
102
RTVSPropertyOp13
 70
     1
102
RTVSPropertyOp14
 70
     1
102
RTVSPropertyOp15
 70
     1
102
RTVSPropertyOp16
 70
     1
102
RTVSPropertyOp17
 70
     1
102
RTVSPropertyOp18
 70
     1
102
RTVSPropertyOp19
 70
     1
102
RTVSPropertyOp20
 70
     1
102
RTVSPropertyOp21
 70
     1
102
RTVSPropertyOp22
 70
     1
102
RTVSPropertyOp23
 70
     1
102
RTVSPropertyOp24
 70
     1
102
RTVSPropertyOp25
 70
     1
102
RTVSPropertyOp26
 70
     1
102
RTVSPropertyOp27
 70
     1
102
RTVSPropertyOp28
 70
     1
102
RTVSPropertyOp29
 70
     1
102
RTVSPropertyOp30
 70
     1
102
RTVSPropertyOp31
 70
     1
102
RTVSPropertyOp32
 70
     1
102
RTVSPropertyOp33
 70
     1
102
RTVSPropertyOp34
 70
     1
102
RTVSPropertyOp35
 70
     1
102
RTVSPropertyOp36
 70
     1
102
RTVSPropertyOp37
 70
     1
102
RTVSPropertyOp38
 70
     1
102
RTVSPropertyOp39
 70
     1
102
RTVSPropertyOp40
 70
     1
102
RTVSPropertyOp41
 70
     1
102
RTVSPropertyOp42
 70
     1
102
RTVSPropertyOp43
 70
     1
102
RTVSPropertyOp44
 70
     1
102
RTVSPropertyOp45
 70
     1
102
RTVSPropertyOp46
 70
     1
102
RTVSPropertyOp47
 70
     1
102
RTVSPropertyOp48
 70
     1
102
RTVSPropertyOp49
 70
     1
102
RTVSPropertyOp50
 70
     1
102
RTVSPropertyOp51
 70
     0
102
RTVSPropertyOp52
 70
     0
102
RTVSPropertyOp53
 70
     1
102
RTVSPropertyOp54
 70
     1
102
RTVSPropertyOp55
 70
     1
102
RTVSPropertyOp56
 70
     1
102
RTVSPropertyOp57
 70
     1
102
RTVSPropertyOp58
 70
     1
102
RTVSPropertyOp59
 70
     1
102
RTVSPropertyOp60
 70
     1
102
RTVSPropertyOp61
 70
     1
102
RTVSPropertyOp62
 70
     1
  0
XRECORD
  5
3317
102
{ACAD_REACTORS
330
3316
102
}
330
3316
100
AcDbXrecord
280
     1
102
RTVSPost2010Prop28
280
     0
102
RTVSPost2010PropOp28
 70
     1
102
RTVSPost2010Prop29
280
     1
102
RTVSPost2010PropOp29
 70
     1
102
RTVSPost2010Prop30
280
     1
102
RTVSPost2010PropOp30
 70
     1
102
RTVSPost2010Prop31
280
     0
102
RTVSPost2010PropOp31
 70
     1
102
RTVSPost2010Prop32
280
     0
102
RTVSPost2010PropOp32
 70
     1
102
RTVSPost2010Prop33
280
     0
102
RTVSPost2010PropOp33
 70
     1
102
RTVSPost2010Prop34
280
     0
102
RTVSPost2010PropOp34
 70
     1
102
RTVSPost2010Prop35
280
     0
102
RTVSPost2010PropOp35
 70
     1
102
RTVSPost2010Prop36
280
     0
102
RTVSPost2010PropOp36
 70
     1
102
RTVSPost2010Prop37
 90
       50
102
RTVSPost2010PropOp37
 70
     1
102
RTVSPost2010Prop38
140
0.0
102
RTVSPost2010PropOp38
 70
     1
102
RTVSPost2010Prop39
140
1.0
102
RTVSPost2010PropOp39
 70
     1
102
RTVSPost2010Prop40
 90
        0
102
RTVSPost2010PropOp40
 70
     1
102
RTVSPost2010Prop41ColorIndex
 90
       18
102
RTVSPost2010Prop41ColorRGB
 90
        0
102
RTVSPost2010PropOp41
 70
     1
102
RTVSPost2010Prop42
 90
       50
102
RTVSPost2010PropOp42
 70
     1
102
RTVSPost2010Prop43
 90
        3
102
RTVSPost2010PropOp43
 70
     1
102
RTVSPost2010Prop44ColorIndex
 90
        5
102
RTVSPost2010Prop44ColorRGB
 90
      255
102
RTVSPost2010PropOp44
 70
     1
102
RTVSPost2010Prop45
280
     0
102
RTVSPost2010PropOp45
 70
     1
102
RTVSPost2010Prop46
 90
       50
102
RTVSPost2010PropOp46
 70
     1
102
RTVSPost2010Prop47
 90
       50
102
RTVSPost2010PropOp47
 70
     1
102
RTVSPost2010Prop48
 90
       50
102
RTVSPost2010PropOp48
 70
     1
102
RTVSPost2010Prop49
280
     0
102
RTVSPost2010PropOp49
 70
     1
102
RTVSPost2010Prop50
 90
       50
102
RTVSPost2010PropOp50
 70
     1
102
RTVSPost2010Prop51ColorIndex
 90
      256
102
RTVSPost2010Prop51ColorRGB
 90
-16777216
102
RTVSPost2010PropOp51
 70
     0
102
RTVSPost2010Prop52
140
1.0
102
RTVSPost2010PropOp52
 70
     0
102
RTVSPost2010Prop53
 90
        2
102
RTVSPost2010PropOp53
 70
     1
102
RTVSPost2010Prop54
  1
strokes_ogs.tif
102
RTVSPost2010PropOp54
 70
     1
102
RTVSPost2010Prop55
280
     0
102
RTVSPost2010PropOp55
 70
     1
102
RTVSPost2010Prop56
140
1.0
102
RTVSPost2010PropOp56
 70
     1
102
RTVSPost2010Prop57
140
1.0
102
RTVSPost2010PropOp57
 70
     1
102
RTVSPropertyOp0
 70
     1
102
RTVSPropertyOp1
 70
     1
102
RTVSPropertyOp2
 70
     1
102
RTVSPropertyOp3
 70
     1
102
RTVSPropertyOp4
 70
     1
102
RTVSPropertyOp5
 70
     1
102
RTVSPropertyOp6
 70
     1
102
RTVSPropertyOp7
 70
     1
102
RTVSPropertyOp8
 70
     1
102
RTVSPropertyOp9
 70
     1
102
RTVSPropertyOp10
 70
     1
102
RTVSPropertyOp11
 70
     1
102
RTVSPropertyOp12
 70
     1
102
RTVSPropertyOp13
 70
     1
102
RTVSPropertyOp14
 70
     1
102
RTVSPropertyOp15
 70
     1
102
RTVSPropertyOp16
 70
     1
102
RTVSPropertyOp17
 70
     1
102
RTVSPropertyOp18
 70
     1
102
RTVSPropertyOp19
 70
     1
102
RTVSPropertyOp20
 70
     1
102
RTVSPropertyOp21
 70
     1
102
RTVSPropertyOp22
 70
     1
102
RTVSPropertyOp23
 70
     1
102
RTVSPropertyOp24
 70
     1
102
RTVSPropertyOp25
 70
     1
102
RTVSPropertyOp26
 70
     1
102
RTVSPropertyOp27
 70
     1
102
RTVSPropertyOp28
 70
     1
102
RTVSPropertyOp29
 70
     1
102
RTVSPropertyOp30
 70
     1
102
RTVSPropertyOp31
 70
     1
102
RTVSPropertyOp32
 70
     1
102
RTVSPropertyOp33
 70
     1
102
RTVSPropertyOp34
 70
     1
102
RTVSPropertyOp35
 70
     1
102
RTVSPropertyOp36
 70
     1
102
RTVSPropertyOp37
 70
     1
102
RTVSPropertyOp38
 70
     1
102
RTVSPropertyOp39
 70
     1
102
RTVSPropertyOp40
 70
     1
102
RTVSPropertyOp41
 70
     1
102
RTVSPropertyOp42
 70
     1
102
RTVSPropertyOp43
 70
     1
102
RTVSPropertyOp44
 70
     1
102
RTVSPropertyOp45
 70
     1
102
RTVSPropertyOp46
 70
     1
102
RTVSPropertyOp47
 70
     1
102
RTVSPropertyOp48
 70
     1
102
RTVSPropertyOp49
 70
     1
102
RTVSPropertyOp50
 70
     1
102
RTVSPropertyOp51
 70
     0
102
RTVSPropertyOp52
 70
     0
102
RTVSPropertyOp53
 70
     1
102
RTVSPropertyOp54
 70
     1
102
RTVSPropertyOp55
 70
     1
102
RTVSPropertyOp56
 70
     1
102
RTVSPropertyOp57
 70
     1
102
RTVSPropertyOp58
 70
     1
102
RTVSPropertyOp59
 70
     1
102
RTVSPropertyOp60
 70
     1
102
RTVSPropertyOp61
 70
     1
102
RTVSPropertyOp62
 70
     1
  0
XRECORD
  5
3311
102
{ACAD_REACTORS
330
3310
102
}
330
3310
100
AcDbXrecord
280
     1
102
RTVSPost2010Prop28
280
     0
102
RTVSPost2010PropOp28
 70
     1
102
RTVSPost2010Prop29
280
     1
102
RTVSPost2010PropOp29
 70
     1
102
RTVSPost2010Prop30
280
     1
102
RTVSPost2010PropOp30
 70
     1
102
RTVSPost2010Prop31
280
     0
102
RTVSPost2010PropOp31
 70
     1
102
RTVSPost2010Prop32
280
     0
102
RTVSPost2010PropOp32
 70
     1
102
RTVSPost2010Prop33
280
     0
102
RTVSPost2010PropOp33
 70
     1
102
RTVSPost2010Prop34
280
     0
102
RTVSPost2010PropOp34
 70
     1
102
RTVSPost2010Prop35
280
     0
102
RTVSPost2010PropOp35
 70
     1
102
RTVSPost2010Prop36
280
     0
102
RTVSPost2010PropOp36
 70
     1
102
RTVSPost2010Prop37
 90
       50
102
RTVSPost2010PropOp37
 70
     1
102
RTVSPost2010Prop38
140
0.0
102
RTVSPost2010PropOp38
 70
     1
102
RTVSPost2010Prop39
140
1.0
102
RTVSPost2010PropOp39
 70
     1
102
RTVSPost2010Prop40
 90
        0
102
RTVSPost2010PropOp40
 70
     1
102
RTVSPost2010Prop41ColorIndex
 90
       18
102
RTVSPost2010Prop41ColorRGB
 90
        0
102
RTVSPost2010PropOp41
 70
     1
102
RTVSPost2010Prop42
 90
       50
102
RTVSPost2010PropOp42
 70
     1
102
RTVSPost2010Prop43
 90
        3
102
RTVSPost2010PropOp43
 70
     1
102
RTVSPost2010Prop44ColorIndex
 90
        5
102
RTVSPost2010Prop44ColorRGB
 90
      255
102
RTVSPost2010PropOp44
 70
     1
102
RTVSPost2010Prop45
280
     0
102
RTVSPost2010PropOp45
 70
     1
102
RTVSPost2010Prop46
 90
       50
102
RTVSPost2010PropOp46
 70
     1
102
RTVSPost2010Prop47
 90
       50
102
RTVSPost2010PropOp47
 70
     1
102
RTVSPost2010Prop48
 90
       50
102
RTVSPost2010PropOp48
 70
     1
102
RTVSPost2010Prop49
280
     0
102
RTVSPost2010PropOp49
 70
     1
102
RTVSPost2010Prop50
 90
       50
102
RTVSPost2010PropOp50
 70
     1
102
RTVSPost2010Prop51ColorIndex
 90
      256
102
RTVSPost2010Prop51ColorRGB
 90
-16777216
102
RTVSPost2010PropOp51
 70
     0
102
RTVSPost2010Prop52
140
1.0
102
RTVSPost2010PropOp52
 70
     0
102
RTVSPost2010Prop53
 90
        2
102
RTVSPost2010PropOp53
 70
     1
102
RTVSPost2010Prop54
  1
strokes_ogs.tif
102
RTVSPost2010PropOp54
 70
     1
102
RTVSPost2010Prop55
280
     0
102
RTVSPost2010PropOp55
 70
     1
102
RTVSPost2010Prop56
140
1.0
102
RTVSPost2010PropOp56
 70
     1
102
RTVSPost2010Prop57
140
1.0
102
RTVSPost2010PropOp57
 70
     1
102
RTVSPropertyOp0
 70
     1
102
RTVSPropertyOp1
 70
     1
102
RTVSPropertyOp2
 70
     1
102
RTVSPropertyOp3
 70
     1
102
RTVSPropertyOp4
 70
     1
102
RTVSPropertyOp5
 70
     1
102
RTVSPropertyOp6
 70
     1
102
RTVSPropertyOp7
 70
     1
102
RTVSPropertyOp8
 70
     1
102
RTVSPropertyOp9
 70
     1
102
RTVSPropertyOp10
 70
     1
102
RTVSPropertyOp11
 70
     1
102
RTVSPropertyOp12
 70
     1
102
RTVSPropertyOp13
 70
     1
102
RTVSPropertyOp14
 70
     1
102
RTVSPropertyOp15
 70
     1
102
RTVSPropertyOp16
 70
     1
102
RTVSPropertyOp17
 70
     1
102
RTVSPropertyOp18
 70
     1
102
RTVSPropertyOp19
 70
     1
102
RTVSPropertyOp20
 70
     1
102
RTVSPropertyOp21
 70
     1
102
RTVSPropertyOp22
 70
     1
102
RTVSPropertyOp23
 70
     1
102
RTVSPropertyOp24
 70
     1
102
RTVSPropertyOp25
 70
     1
102
RTVSPropertyOp26
 70
     1
102
RTVSPropertyOp27
 70
     1
102
RTVSPropertyOp28
 70
     1
102
RTVSPropertyOp29
 70
     1
102
RTVSPropertyOp30
 70
     1
102
RTVSPropertyOp31
 70
     1
102
RTVSPropertyOp32
 70
     1
102
RTVSPropertyOp33
 70
     1
102
RTVSPropertyOp34
 70
     1
102
RTVSPropertyOp35
 70
     1
102
RTVSPropertyOp36
 70
     1
102
RTVSPropertyOp37
 70
     1
102
RTVSPropertyOp38
 70
     1
102
RTVSPropertyOp39
 70
     1
102
RTVSPropertyOp40
 70
     1
102
RTVSPropertyOp41
 70
     1
102
RTVSPropertyOp42
 70
     1
102
RTVSPropertyOp43
 70
     1
102
RTVSPropertyOp44
 70
     1
102
RTVSPropertyOp45
 70
     1
102
RTVSPropertyOp46
 70
     1
102
RTVSPropertyOp47
 70
     1
102
RTVSPropertyOp48
 70
     1
102
RTVSPropertyOp49
 70
     1
102
RTVSPropertyOp50
 70
     1
102
RTVSPropertyOp51
 70
     0
102
RTVSPropertyOp52
 70
     0
102
RTVSPropertyOp53
 70
     1
102
RTVSPropertyOp54
 70
     1
102
RTVSPropertyOp55
 70
     1
102
RTVSPropertyOp56
 70
     1
102
RTVSPropertyOp57
 70
     1
102
RTVSPropertyOp58
 70
     1
102
RTVSPropertyOp59
 70
     1
102
RTVSPropertyOp60
 70
     1
102
RTVSPropertyOp61
 70
     1
102
RTVSPropertyOp62
 70
     1
  0
XRECORD
  5
3313
102
{ACAD_REACTORS
330
3312
102
}
330
3312
100
AcDbXrecord
280
     1
102
RTVSPost2010Prop28
280
     0
102
RTVSPost2010PropOp28
 70
     1
102
RTVSPost2010Prop29
280
     1
102
RTVSPost2010PropOp29
 70
     1
102
RTVSPost2010Prop30
280
     1
102
RTVSPost2010PropOp30
 70
     1
102
RTVSPost2010Prop31
280
     0
102
RTVSPost2010PropOp31
 70
     1
102
RTVSPost2010Prop32
280
     0
102
RTVSPost2010PropOp32
 70
     1
102
RTVSPost2010Prop33
280
     0
102
RTVSPost2010PropOp33
 70
     1
102
RTVSPost2010Prop34
280
     0
102
RTVSPost2010PropOp34
 70
     1
102
RTVSPost2010Prop35
280
     0
102
RTVSPost2010PropOp35
 70
     1
102
RTVSPost2010Prop36
280
     0
102
RTVSPost2010PropOp36
 70
     1
102
RTVSPost2010Prop37
 90
       50
102
RTVSPost2010PropOp37
 70
     1
102
RTVSPost2010Prop38
140
0.0
102
RTVSPost2010PropOp38
 70
     1
102
RTVSPost2010Prop39
140
1.0
102
RTVSPost2010PropOp39
 70
     1
102
RTVSPost2010Prop40
 90
        0
102
RTVSPost2010PropOp40
 70
     1
102
RTVSPost2010Prop41ColorIndex
 90
       18
102
RTVSPost2010Prop41ColorRGB
 90
        0
102
RTVSPost2010PropOp41
 70
     1
102
RTVSPost2010Prop42
 90
       50
102
RTVSPost2010PropOp42
 70
     1
102
RTVSPost2010Prop43
 90
        3
102
RTVSPost2010PropOp43
 70
     1
102
RTVSPost2010Prop44ColorIndex
 90
        5
102
RTVSPost2010Prop44ColorRGB
 90
      255
102
RTVSPost2010PropOp44
 70
     1
102
RTVSPost2010Prop45
280
     0
102
RTVSPost2010PropOp45
 70
     1
102
RTVSPost2010Prop46
 90
       50
102
RTVSPost2010PropOp46
 70
     1
102
RTVSPost2010Prop47
 90
       50
102
RTVSPost2010PropOp47
 70
     1
102
RTVSPost2010Prop48
 90
       50
102
RTVSPost2010PropOp48
 70
     1
102
RTVSPost2010Prop49
280
     0
102
RTVSPost2010PropOp49
 70
     1
102
RTVSPost2010Prop50
 90
       50
102
RTVSPost2010PropOp50
 70
     1
102
RTVSPost2010Prop51ColorIndex
 90
      256
102
RTVSPost2010Prop51ColorRGB
 90
-16777216
102
RTVSPost2010PropOp51
 70
     0
102
RTVSPost2010Prop52
140
1.0
102
RTVSPost2010PropOp52
 70
     0
102
RTVSPost2010Prop53
 90
        2
102
RTVSPost2010PropOp53
 70
     1
102
RTVSPost2010Prop54
  1
strokes_ogs.tif
102
RTVSPost2010PropOp54
 70
     1
102
RTVSPost2010Prop55
280
     0
102
RTVSPost2010PropOp55
 70
     1
102
RTVSPost2010Prop56
140
1.0
102
RTVSPost2010PropOp56
 70
     1
102
RTVSPost2010Prop57
140
1.0
102
RTVSPost2010PropOp57
 70
     1
102
RTVSPropertyOp0
 70
     1
102
RTVSPropertyOp1
 70
     1
102
RTVSPropertyOp2
 70
     1
102
RTVSPropertyOp3
 70
     1
102
RTVSPropertyOp4
 70
     1
102
RTVSPropertyOp5
 70
     1
102
RTVSPropertyOp6
 70
     1
102
RTVSPropertyOp7
 70
     1
102
RTVSPropertyOp8
 70
     1
102
RTVSPropertyOp9
 70
     1
102
RTVSPropertyOp10
 70
     1
102
RTVSPropertyOp11
 70
     1
102
RTVSPropertyOp12
 70
     1
102
RTVSPropertyOp13
 70
     1
102
RTVSPropertyOp14
 70
     1
102
RTVSPropertyOp15
 70
     1
102
RTVSPropertyOp16
 70
     1
102
RTVSPropertyOp17
 70
     1
102
RTVSPropertyOp18
 70
     1
102
RTVSPropertyOp19
 70
     1
102
RTVSPropertyOp20
 70
     1
102
RTVSPropertyOp21
 70
     1
102
RTVSPropertyOp22
 70
     1
102
RTVSPropertyOp23
 70
     1
102
RTVSPropertyOp24
 70
     1
102
RTVSPropertyOp25
 70
     1
102
RTVSPropertyOp26
 70
     1
102
RTVSPropertyOp27
 70
     1
102
RTVSPropertyOp28
 70
     1
102
RTVSPropertyOp29
 70
     1
102
RTVSPropertyOp30
 70
     1
102
RTVSPropertyOp31
 70
     1
102
RTVSPropertyOp32
 70
     1
102
RTVSPropertyOp33
 70
     1
102
RTVSPropertyOp34
 70
     1
102
RTVSPropertyOp35
 70
     1
102
RTVSPropertyOp36
 70
     1
102
RTVSPropertyOp37
 70
     1
102
RTVSPropertyOp38
 70
     1
102
RTVSPropertyOp39
 70
     1
102
RTVSPropertyOp40
 70
     1
102
RTVSPropertyOp41
 70
     1
102
RTVSPropertyOp42
 70
     1
102
RTVSPropertyOp43
 70
     1
102
RTVSPropertyOp44
 70
     1
102
RTVSPropertyOp45
 70
     1
102
RTVSPropertyOp46
 70
     1
102
RTVSPropertyOp47
 70
     1
102
RTVSPropertyOp48
 70
     1
102
RTVSPropertyOp49
 70
     1
102
RTVSPropertyOp50
 70
     1
102
RTVSPropertyOp51
 70
     0
102
RTVSPropertyOp52
 70
     0
102
RTVSPropertyOp53
 70
     1
102
RTVSPropertyOp54
 70
     1
102
RTVSPropertyOp55
 70
     1
102
RTVSPropertyOp56
 70
     1
102
RTVSPropertyOp57
 70
     1
102
RTVSPropertyOp58
 70
     1
102
RTVSPropertyOp59
 70
     1
102
RTVSPropertyOp60
 70
     1
102
RTVSPropertyOp61
 70
     1
102
RTVSPropertyOp62
 70
     1
  0
XRECORD
  5
3309
102
{ACAD_REACTORS
330
3308
102
}
330
3308
100
AcDbXrecord
280
     1
102
RTVSPost2010Prop28
280
     0
102
RTVSPost2010PropOp28
 70
     1
102
RTVSPost2010Prop29
280
     1
102
RTVSPost2010PropOp29
 70
     1
102
RTVSPost2010Prop30
280
     1
102
RTVSPost2010PropOp30
 70
     1
102
RTVSPost2010Prop31
280
     0
102
RTVSPost2010PropOp31
 70
     1
102
RTVSPost2010Prop32
280
     0
102
RTVSPost2010PropOp32
 70
     1
102
RTVSPost2010Prop33
280
     0
102
RTVSPost2010PropOp33
 70
     1
102
RTVSPost2010Prop34
280
     0
102
RTVSPost2010PropOp34
 70
     1
102
RTVSPost2010Prop35
280
     0
102
RTVSPost2010PropOp35
 70
     1
102
RTVSPost2010Prop36
280
     0
102
RTVSPost2010PropOp36
 70
     1
102
RTVSPost2010Prop37
 90
       50
102
RTVSPost2010PropOp37
 70
     1
102
RTVSPost2010Prop38
140
0.0
102
RTVSPost2010PropOp38
 70
     1
102
RTVSPost2010Prop39
140
1.0
102
RTVSPost2010PropOp39
 70
     1
102
RTVSPost2010Prop40
 90
        0
102
RTVSPost2010PropOp40
 70
     1
102
RTVSPost2010Prop41ColorIndex
 90
       18
102
RTVSPost2010Prop41ColorRGB
 90
        0
102
RTVSPost2010PropOp41
 70
     1
102
RTVSPost2010Prop42
 90
       50
102
RTVSPost2010PropOp42
 70
     1
102
RTVSPost2010Prop43
 90
        3
102
RTVSPost2010PropOp43
 70
     1
102
RTVSPost2010Prop44ColorIndex
 90
        5
102
RTVSPost2010Prop44ColorRGB
 90
      255
102
RTVSPost2010PropOp44
 70
     1
102
RTVSPost2010Prop45
280
     0
102
RTVSPost2010PropOp45
 70
     1
102
RTVSPost2010Prop46
 90
       50
102
RTVSPost2010PropOp46
 70
     1
102
RTVSPost2010Prop47
 90
       50
102
RTVSPost2010PropOp47
 70
     1
102
RTVSPost2010Prop48
 90
       50
102
RTVSPost2010PropOp48
 70
     1
102
RTVSPost2010Prop49
280
     0
102
RTVSPost2010PropOp49
 70
     1
102
RTVSPost2010Prop50
 90
       50
102
RTVSPost2010PropOp50
 70
     1
102
RTVSPost2010Prop51ColorIndex
 90
      256
102
RTVSPost2010Prop51ColorRGB
 90
-16777216
102
RTVSPost2010PropOp51
 70
     0
102
RTVSPost2010Prop52
140
1.0
102
RTVSPost2010PropOp52
 70
     0
102
RTVSPost2010Prop53
 90
        2
102
RTVSPost2010PropOp53
 70
     1
102
RTVSPost2010Prop54
  1
strokes_ogs.tif
102
RTVSPost2010PropOp54
 70
     1
102
RTVSPost2010Prop55
280
     0
102
RTVSPost2010PropOp55
 70
     1
102
RTVSPost2010Prop56
140
1.0
102
RTVSPost2010PropOp56
 70
     1
102
RTVSPost2010Prop57
140
1.0
102
RTVSPost2010PropOp57
 70
     1
102
RTVSPropertyOp0
 70
     1
102
RTVSPropertyOp1
 70
     1
102
RTVSPropertyOp2
 70
     1
102
RTVSPropertyOp3
 70
     1
102
RTVSPropertyOp4
 70
     1
102
RTVSPropertyOp5
 70
     1
102
RTVSPropertyOp6
 70
     1
102
RTVSPropertyOp7
 70
     1
102
RTVSPropertyOp8
 70
     1
102
RTVSPropertyOp9
 70
     1
102
RTVSPropertyOp10
 70
     1
102
RTVSPropertyOp11
 70
     1
102
RTVSPropertyOp12
 70
     1
102
RTVSPropertyOp13
 70
     1
102
RTVSPropertyOp14
 70
     1
102
RTVSPropertyOp15
 70
     1
102
RTVSPropertyOp16
 70
     1
102
RTVSPropertyOp17
 70
     1
102
RTVSPropertyOp18
 70
     1
102
RTVSPropertyOp19
 70
     1
102
RTVSPropertyOp20
 70
     1
102
RTVSPropertyOp21
 70
     1
102
RTVSPropertyOp22
 70
     1
102
RTVSPropertyOp23
 70
     1
102
RTVSPropertyOp24
 70
     1
102
RTVSPropertyOp25
 70
     1
102
RTVSPropertyOp26
 70
     1
102
RTVSPropertyOp27
 70
     1
102
RTVSPropertyOp28
 70
     1
102
RTVSPropertyOp29
 70
     1
102
RTVSPropertyOp30
 70
     1
102
RTVSPropertyOp31
 70
     1
102
RTVSPropertyOp32
 70
     1
102
RTVSPropertyOp33
 70
     1
102
RTVSPropertyOp34
 70
     1
102
RTVSPropertyOp35
 70
     1
102
RTVSPropertyOp36
 70
     1
102
RTVSPropertyOp37
 70
     1
102
RTVSPropertyOp38
 70
     1
102
RTVSPropertyOp39
 70
     1
102
RTVSPropertyOp40
 70
     1
102
RTVSPropertyOp41
 70
     1
102
RTVSPropertyOp42
 70
     1
102
RTVSPropertyOp43
 70
     1
102
RTVSPropertyOp44
 70
     1
102
RTVSPropertyOp45
 70
     1
102
RTVSPropertyOp46
 70
     1
102
RTVSPropertyOp47
 70
     1
102
RTVSPropertyOp48
 70
     1
102
RTVSPropertyOp49
 70
     1
102
RTVSPropertyOp50
 70
     1
102
RTVSPropertyOp51
 70
     0
102
RTVSPropertyOp52
 70
     0
102
RTVSPropertyOp53
 70
     1
102
RTVSPropertyOp54
 70
     1
102
RTVSPropertyOp55
 70
     1
102
RTVSPropertyOp56
 70
     1
102
RTVSPropertyOp57
 70
     1
102
RTVSPropertyOp58
 70
     1
102
RTVSPropertyOp59
 70
     1
102
RTVSPropertyOp60
 70
     1
102
RTVSPropertyOp61
 70
     1
102
RTVSPropertyOp62
 70
     1
  0
XRECORD
  5
32FD
102
{ACAD_REACTORS
330
32FC
102
}
330
32FC
100
AcDbXrecord
280
     1
102
RTVSPost2010Prop28
280
     0
102
RTVSPost2010PropOp28
 70
     1
102
RTVSPost2010Prop29
280
     1
102
RTVSPost2010PropOp29
 70
     1
102
RTVSPost2010Prop30
280
     1
102
RTVSPost2010PropOp30
 70
     1
102
RTVSPost2010Prop31
280
     0
102
RTVSPost2010PropOp31
 70
     1
102
RTVSPost2010Prop32
280
     0
102
RTVSPost2010PropOp32
 70
     1
102
RTVSPost2010Prop33
280
     0
102
RTVSPost2010PropOp33
 70
     1
102
RTVSPost2010Prop34
280
     0
102
RTVSPost2010PropOp34
 70
     1
102
RTVSPost2010Prop35
280
     0
102
RTVSPost2010PropOp35
 70
     1
102
RTVSPost2010Prop36
280
     0
102
RTVSPost2010PropOp36
 70
     1
102
RTVSPost2010Prop37
 90
       50
102
RTVSPost2010PropOp37
 70
     1
102
RTVSPost2010Prop38
140
0.0
102
RTVSPost2010PropOp38
 70
     1
102
RTVSPost2010Prop39
140
1.0
102
RTVSPost2010PropOp39
 70
     1
102
RTVSPost2010Prop40
 90
        0
102
RTVSPost2010PropOp40
 70
     1
102
RTVSPost2010Prop41ColorIndex
 90
       18
102
RTVSPost2010Prop41ColorRGB
 90
        0
102
RTVSPost2010PropOp41
 70
     1
102
RTVSPost2010Prop42
 90
       50
102
RTVSPost2010PropOp42
 70
     1
102
RTVSPost2010Prop43
 90
        3
102
RTVSPost2010PropOp43
 70
     1
102
RTVSPost2010Prop44ColorIndex
 90
        5
102
RTVSPost2010Prop44ColorRGB
 90
      255
102
RTVSPost2010PropOp44
 70
     1
102
RTVSPost2010Prop45
280
     0
102
RTVSPost2010PropOp45
 70
     1
102
RTVSPost2010Prop46
 90
       50
102
RTVSPost2010PropOp46
 70
     1
102
RTVSPost2010Prop47
 90
       50
102
RTVSPost2010PropOp47
 70
     1
102
RTVSPost2010Prop48
 90
       50
102
RTVSPost2010PropOp48
 70
     1
102
RTVSPost2010Prop49
280
     0
102
RTVSPost2010PropOp49
 70
     1
102
RTVSPost2010Prop50
 90
       50
102
RTVSPost2010PropOp50
 70
     1
102
RTVSPost2010Prop51ColorIndex
 90
      256
102
RTVSPost2010Prop51ColorRGB
 90
-16777216
102
RTVSPost2010PropOp51
 70
     0
102
RTVSPost2010Prop52
140
1.0
102
RTVSPost2010PropOp52
 70
     0
102
RTVSPost2010Prop53
 90
        2
102
RTVSPost2010PropOp53
 70
     1
102
RTVSPost2010Prop54
  1
strokes_ogs.tif
102
RTVSPost2010PropOp54
 70
     1
102
RTVSPost2010Prop55
280
     0
102
RTVSPost2010PropOp55
 70
     1
102
RTVSPost2010Prop56
140
1.0
102
RTVSPost2010PropOp56
 70
     1
102
RTVSPost2010Prop57
140
1.0
102
RTVSPost2010PropOp57
 70
     1
102
RTVSPropertyOp0
 70
     1
102
RTVSPropertyOp1
 70
     1
102
RTVSPropertyOp2
 70
     1
102
RTVSPropertyOp3
 70
     1
102
RTVSPropertyOp4
 70
     1
102
RTVSPropertyOp5
 70
     1
102
RTVSPropertyOp6
 70
     1
102
RTVSPropertyOp7
 70
     1
102
RTVSPropertyOp8
 70
     1
102
RTVSPropertyOp9
 70
     1
102
RTVSPropertyOp10
 70
     1
102
RTVSPropertyOp11
 70
     1
102
RTVSPropertyOp12
 70
     1
102
RTVSPropertyOp13
 70
     1
102
RTVSPropertyOp14
 70
     1
102
RTVSPropertyOp15
 70
     1
102
RTVSPropertyOp16
 70
     1
102
RTVSPropertyOp17
 70
     1
102
RTVSPropertyOp18
 70
     1
102
RTVSPropertyOp19
 70
     1
102
RTVSPropertyOp20
 70
     1
102
RTVSPropertyOp21
 70
     1
102
RTVSPropertyOp22
 70
     1
102
RTVSPropertyOp23
 70
     1
102
RTVSPropertyOp24
 70
     1
102
RTVSPropertyOp25
 70
     1
102
RTVSPropertyOp26
 70
     1
102
RTVSPropertyOp27
 70
     1
102
RTVSPropertyOp28
 70
     1
102
RTVSPropertyOp29
 70
     1
102
RTVSPropertyOp30
 70
     1
102
RTVSPropertyOp31
 70
     1
102
RTVSPropertyOp32
 70
     1
102
RTVSPropertyOp33
 70
     1
102
RTVSPropertyOp34
 70
     1
102
RTVSPropertyOp35
 70
     1
102
RTVSPropertyOp36
 70
     1
102
RTVSPropertyOp37
 70
     1
102
RTVSPropertyOp38
 70
     1
102
RTVSPropertyOp39
 70
     1
102
RTVSPropertyOp40
 70
     1
102
RTVSPropertyOp41
 70
     1
102
RTVSPropertyOp42
 70
     1
102
RTVSPropertyOp43
 70
     1
102
RTVSPropertyOp44
 70
     1
102
RTVSPropertyOp45
 70
     1
102
RTVSPropertyOp46
 70
     1
102
RTVSPropertyOp47
 70
     1
102
RTVSPropertyOp48
 70
     1
102
RTVSPropertyOp49
 70
     1
102
RTVSPropertyOp50
 70
     1
102
RTVSPropertyOp51
 70
     0
102
RTVSPropertyOp52
 70
     0
102
RTVSPropertyOp53
 70
     1
102
RTVSPropertyOp54
 70
     1
102
RTVSPropertyOp55
 70
     1
102
RTVSPropertyOp56
 70
     1
102
RTVSPropertyOp57
 70
     1
102
RTVSPropertyOp58
 70
     1
102
RTVSPropertyOp59
 70
     1
102
RTVSPropertyOp60
 70
     1
102
RTVSPropertyOp61
 70
     1
102
RTVSPropertyOp62
 70
     1
  0
XRECORD
  5
3315
102
{ACAD_REACTORS
330
3314
102
}
330
3314
100
AcDbXrecord
280
     1
102
RTVSPost2010Prop28
280
     0
102
RTVSPost2010PropOp28
 70
     1
102
RTVSPost2010Prop29
280
     1
102
RTVSPost2010PropOp29
 70
     1
102
RTVSPost2010Prop30
280
     1
102
RTVSPost2010PropOp30
 70
     1
102
RTVSPost2010Prop31
280
     0
102
RTVSPost2010PropOp31
 70
     1
102
RTVSPost2010Prop32
280
     0
102
RTVSPost2010PropOp32
 70
     1
102
RTVSPost2010Prop33
280
     0
102
RTVSPost2010PropOp33
 70
     1
102
RTVSPost2010Prop34
280
     0
102
RTVSPost2010PropOp34
 70
     1
102
RTVSPost2010Prop35
280
     0
102
RTVSPost2010PropOp35
 70
     1
102
RTVSPost2010Prop36
280
     0
102
RTVSPost2010PropOp36
 70
     1
102
RTVSPost2010Prop37
 90
       50
102
RTVSPost2010PropOp37
 70
     1
102
RTVSPost2010Prop38
140
0.0
102
RTVSPost2010PropOp38
 70
     1
102
RTVSPost2010Prop39
140
1.0
102
RTVSPost2010PropOp39
 70
     1
102
RTVSPost2010Prop40
 90
        0
102
RTVSPost2010PropOp40
 70
     1
102
RTVSPost2010Prop41ColorIndex
 90
       18
102
RTVSPost2010Prop41ColorRGB
 90
        0
102
RTVSPost2010PropOp41
 70
     1
102
RTVSPost2010Prop42
 90
       50
102
RTVSPost2010PropOp42
 70
     1
102
RTVSPost2010Prop43
 90
        3
102
RTVSPost2010PropOp43
 70
     1
102
RTVSPost2010Prop44ColorIndex
 90
        5
102
RTVSPost2010Prop44ColorRGB
 90
      255
102
RTVSPost2010PropOp44
 70
     1
102
RTVSPost2010Prop45
280
     0
102
RTVSPost2010PropOp45
 70
     1
102
RTVSPost2010Prop46
 90
       50
102
RTVSPost2010PropOp46
 70
     1
102
RTVSPost2010Prop47
 90
       50
102
RTVSPost2010PropOp47
 70
     1
102
RTVSPost2010Prop48
 90
       50
102
RTVSPost2010PropOp48
 70
     1
102
RTVSPost2010Prop49
280
     0
102
RTVSPost2010PropOp49
 70
     1
102
RTVSPost2010Prop50
 90
       50
102
RTVSPost2010PropOp50
 70
     1
102
RTVSPost2010Prop51ColorIndex
 90
      256
102
RTVSPost2010Prop51ColorRGB
 90
-16777216
102
RTVSPost2010PropOp51
 70
     0
102
RTVSPost2010Prop52
140
1.0
102
RTVSPost2010PropOp52
 70
     0
102
RTVSPost2010Prop53
 90
        2
102
RTVSPost2010PropOp53
 70
     1
102
RTVSPost2010Prop54
  1
strokes_ogs.tif
102
RTVSPost2010PropOp54
 70
     1
102
RTVSPost2010Prop55
280
     0
102
RTVSPost2010PropOp55
 70
     1
102
RTVSPost2010Prop56
140
1.0
102
RTVSPost2010PropOp56
 70
     1
102
RTVSPost2010Prop57
140
1.0
102
RTVSPost2010PropOp57
 70
     1
102
RTVSPropertyOp0
 70
     1
102
RTVSPropertyOp1
 70
     1
102
RTVSPropertyOp2
 70
     1
102
RTVSPropertyOp3
 70
     1
102
RTVSPropertyOp4
 70
     1
102
RTVSPropertyOp5
 70
     1
102
RTVSPropertyOp6
 70
     1
102
RTVSPropertyOp7
 70
     1
102
RTVSPropertyOp8
 70
     1
102
RTVSPropertyOp9
 70
     1
102
RTVSPropertyOp10
 70
     1
102
RTVSPropertyOp11
 70
     1
102
RTVSPropertyOp12
 70
     1
102
RTVSPropertyOp13
 70
     1
102
RTVSPropertyOp14
 70
     1
102
RTVSPropertyOp15
 70
     1
102
RTVSPropertyOp16
 70
     1
102
RTVSPropertyOp17
 70
     1
102
RTVSPropertyOp18
 70
     1
102
RTVSPropertyOp19
 70
     1
102
RTVSPropertyOp20
 70
     1
102
RTVSPropertyOp21
 70
     1
102
RTVSPropertyOp22
 70
     1
102
RTVSPropertyOp23
 70
     1
102
RTVSPropertyOp24
 70
     1
102
RTVSPropertyOp25
 70
     1
102
RTVSPropertyOp26
 70
     1
102
RTVSPropertyOp27
 70
     1
102
RTVSPropertyOp28
 70
     1
102
RTVSPropertyOp29
 70
     1
102
RTVSPropertyOp30
 70
     1
102
RTVSPropertyOp31
 70
     1
102
RTVSPropertyOp32
 70
     1
102
RTVSPropertyOp33
 70
     1
102
RTVSPropertyOp34
 70
     1
102
RTVSPropertyOp35
 70
     1
102
RTVSPropertyOp36
 70
     1
102
RTVSPropertyOp37
 70
     1
102
RTVSPropertyOp38
 70
     1
102
RTVSPropertyOp39
 70
     1
102
RTVSPropertyOp40
 70
     1
102
RTVSPropertyOp41
 70
     1
102
RTVSPropertyOp42
 70
     1
102
RTVSPropertyOp43
 70
     1
102
RTVSPropertyOp44
 70
     1
102
RTVSPropertyOp45
 70
     1
102
RTVSPropertyOp46
 70
     1
102
RTVSPropertyOp47
 70
     1
102
RTVSPropertyOp48
 70
     1
102
RTVSPropertyOp49
 70
     1
102
RTVSPropertyOp50
 70
     1
102
RTVSPropertyOp51
 70
     0
102
RTVSPropertyOp52
 70
     0
102
RTVSPropertyOp53
 70
     1
102
RTVSPropertyOp54
 70
     1
102
RTVSPropertyOp55
 70
     1
102
RTVSPropertyOp56
 70
     1
102
RTVSPropertyOp57
 70
     1
102
RTVSPropertyOp58
 70
     1
102
RTVSPropertyOp59
 70
     1
102
RTVSPropertyOp60
 70
     1
102
RTVSPropertyOp61
 70
     1
102
RTVSPropertyOp62
 70
     1
  0
ENDSEC
  0
EOF
