  0
SECTION
  2
HEADER
  9
$ACADVER
  1
AC1015
  9
$ACADMAINTVER
 70
    20
  9
$DWGCODEPAGE
  3
ANSI_932
  9
$INSBASE
 10
0.0
 20
0.0
 30
0.0
  9
$EXTMIN
 10
10.0
 20
9.999999999999998
 30
0.0
  9
$EXTMAX
 10
384.0790139999999
 20
265.383709
 30
0.0
  9
$LIMMIN
 10
0.0
 20
0.0
  9
$LIMMAX
 10
396.0
 20
273.0
  9
$ORTHOMODE
 70
     0
  9
$REGENMODE
 70
     1
  9
$FILLMODE
 70
     1
  9
$QTEXTMODE
 70
     0
  9
$MIRRTEXT
 70
     1
  9
$LTSCALE
 40
20.0
  9
$ATTMODE
 70
     1
  9
$TEXTSIZE
 40
5.0
  9
$TRACEWID
 40
1.0
  9
$TEXTSTYLE
  7
STANDARD
  9
$CLAYER
  8
0
  9
$CELTYPE
  6
BYLAYER
  9
$CECOLOR
 62
   256
  9
$CELTSCALE
 40
1.0
  9
$DISPSILH
 70
     0
  9
$DIMSCALE
 40
1.0
  9
$DIMASZ
 40
3.0
  9
$DIMEXO
 40
1.0
  9
$DIMDLI
 40
10.0
  9
$DIMRND
 40
0.0
  9
$DIMDLE
 40
0.0
  9
$DIMEXE
 40
1.0
  9
$DIMTP
 40
0.0
  9
$DIMTM
 40
0.0
  9
$DIMTXT
 40
3.2
  9
$DIMCEN
 40
0.0
  9
$DIMTSZ
 40
0.0
  9
$DIMTOL
 70
     0
  9
$DIMLIM
 70
     0
  9
$DIMTIH
 70
     0
  9
$DIMTOH
 70
     0
  9
$DIMSE1
 70
     0
  9
$DIMSE2
 70
     0
  9
$DIMTAD
 70
     3
  9
$DIMZIN
 70
     8
  9
$DIMBLK
  1

  9
$DIMASO
 70
     1
  9
$DIMSHO
 70
     1
  9
$DIMPOST
  1

  9
$DIMAPOST
  1

  9
$DIMALT
 70
     0
  9
$DIMALTD
 70
     2
  9
$DIMALTF
 40
25.4
  9
$DIMLFAC
 40
1.0
  9
$DIMTOFL
 70
     1
  9
$DIMTVP
 40
0.0
  9
$DIMTIX
 70
     0
  9
$DIMSOXD
 70
     0
  9
$DIMSAH
 70
     1
  9
$DIMBLK1
  1

  9
$DIMBLK2
  1

  9
$DIMSTYLE
  2
STANDARD
  9
$DIMCLRD
 70
     0
  9
$DIMCLRE
 70
     0
  9
$DIMCLRT
 70
     0
  9
$DIMTFAC
 40
1.0
  9
$DIMGAP
 40
1.0
  9
$DIMJUST
 70
     0
  9
$DIMSD1
 70
     0
  9
$DIMSD2
 70
     0
  9
$DIMTOLJ
 70
     1
  9
$DIMTZIN
 70
     0
  9
$DIMALTZ
 70
     0
  9
$DIMALTTZ
 70
     0
  9
$DIMUPT
 70
     0
  9
$DIMDEC
 70
     4
  9
$DIMTDEC
 70
     4
  9
$DIMALTU
 70
     2
  9
$DIMALTTD
 70
     2
  9
$DIMTXSTY
  7
STANDARD
  9
$DIMAUNIT
 70
     0
  9
$DIMADEC
 70
     0
  9
$DIMALTRND
 40
0.0
  9
$DIMAZIN
 70
     0
  9
$DIMDSEP
 70
    46
  9
$DIMATFIT
 70
     3
  9
$DIMFRAC
 70
     0
  9
$DIMLDRBLK
  1

  9
$DIMLUNIT
 70
     2
  9
$DIMLWD
 70
    -2
  9
$DIMLWE
 70
    -2
  9
$DIMTMOVE
 70
     0
  9
$LUNITS
 70
     2
  9
$LUPREC
 70
     4
  9
$SKETCHINC
 40
1.0
  9
$FILLETRAD
 40
1.0
  9
$AUNITS
 70
     0
  9
$AUPREC
 70
     2
  9
$MENU
  1
.
  9
$ELEVATION
 40
0.0
  9
$PELEVATION
 40
0.0
  9
$THICKNESS
 40
0.0
  9
$LIMCHECK
 70
     0
  9
$CHAMFERA
 40
10.0
  9
$CHAMFERB
 40
10.0
  9
$CHAMFERC
 40
0.0
  9
$CHAMFERD
 40
0.0
  9
$SKPOLY
 70
     0
  9
$TDCREATE
 40
2450737.557865000
  9
$TDUCREATE
 40
2450737.182865000
  9
$TDUPDATE
 40
2457192.642143033
  9
$TDUUPDATE
 40
2457192.267143033
  9
$TDINDWG
 40
0.0004759028
  9
$TDUSRTIMER
 40
0.0004754167
  9
$USRTIMER
 70
     1
  9
$ANGBASE
 50
0.0
  9
$ANGDIR
 70
     0
  9
$PDMODE
 70
     0
  9
$PDSIZE
 40
0.0
  9
$PLINEWID
 40
0.0
  9
$SPLFRAME
 70
     0
  9
$SPLINETYPE
 70
     6
  9
$SPLINESEGS
 70
     8
  9
$HANDSEED
  5
9914
  9
$SURFTAB1
 70
     6
  9
$SURFTAB2
 70
     6
  9
$SURFTYPE
 70
     6
  9
$SURFU
 70
     6
  9
$SURFV
 70
     6
  9
$UCSBASE
  2

  9
$UCSNAME
  2

  9
$UCSORG
 10
0.0
 20
0.0
 30
0.0
  9
$UCSXDIR
 10
1.0
 20
0.0
 30
0.0
  9
$UCSYDIR
 10
0.0
 20
1.0
 30
0.0
  9
$UCSORTHOREF
  2

  9
$UCSORTHOVIEW
 70
     0
  9
$UCSORGTOP
 10
0.0
 20
0.0
 30
0.0
  9
$UCSORGBOTTOM
 10
0.0
 20
0.0
 30
0.0
  9
$UCSORGLEFT
 10
0.0
 20
0.0
 30
0.0
  9
$UCSORGRIGHT
 10
0.0
 20
0.0
 30
0.0
  9
$UCSORGFRONT
 10
0.0
 20
0.0
 30
0.0
  9
$UCSORGBACK
 10
0.0
 20
0.0
 30
0.0
  9
$PUCSBASE
  2

  9
$PUCSNAME
  2

  9
$PUCSORG
 10
0.0
 20
0.0
 30
0.0
  9
$PUCSXDIR
 10
1.0
 20
0.0
 30
0.0
  9
$PUCSYDIR
 10
0.0
 20
1.0
 30
0.0
  9
$PUCSORTHOREF
  2

  9
$PUCSORTHOVIEW
 70
     0
  9
$PUCSORGTOP
 10
0.0
 20
0.0
 30
0.0
  9
$PUCSORGBOTTOM
 10
0.0
 20
0.0
 30
0.0
  9
$PUCSORGLEFT
 10
0.0
 20
0.0
 30
0.0
  9
$PUCSORGRIGHT
 10
0.0
 20
0.0
 30
0.0
  9
$PUCSORGFRONT
 10
0.0
 20
0.0
 30
0.0
  9
$PUCSORGBACK
 10
0.0
 20
0.0
 30
0.0
  9
$USERI1
 70
     0
  9
$USERI2
 70
     0
  9
$USERI3
 70
     0
  9
$USERI4
 70
     0
  9
$USERI5
 70
     0
  9
$USERR1
 40
0.0
  9
$USERR2
 40
0.0
  9
$USERR3
 40
0.0
  9
$USERR4
 40
0.0
  9
$USERR5
 40
0.0
  9
$WORLDVIEW
 70
     1
  9
$SHADEDGE
 70
     3
  9
$SHADEDIF
 70
    70
  9
$TILEMODE
 70
     1
  9
$MAXACTVP
 70
    16
  9
$PINSBASE
 10
0.0
 20
0.0
 30
0.0
  9
$PLIMCHECK
 70
     0
  9
$PEXTMIN
 10
1.000000000000000E+20
 20
1.000000000000000E+20
 30
1.000000000000000E+20
  9
$PEXTMAX
 10
-1.000000000000000E+20
 20
-1.000000000000000E+20
 30
-1.000000000000000E+20
  9
$PLIMMIN
 10
0.0
 20
0.0
  9
$PLIMMAX
 10
420.0
 20
297.0
  9
$UNITMODE
 70
     0
  9
$VISRETAIN
 70
     0
  9
$PLINEGEN
 70
     0
  9
$PSLTSCALE
 70
     0
  9
$TREEDEPTH
 70
  3020
  9
$CMLSTYLE
  2
STANDARD
  9
$CMLJUST
 70
     0
  9
$CMLSCALE
 40
1.0
  9
$PROXYGRAPHICS
 70
     1
  9
$MEASUREMENT
 70
     0
  9
$CELWEIGHT
370
    -1
  9
$ENDCAPS
280
     0
  9
$JOINSTYLE
280
     0
  9
$LWDISPLAY
290
     0
  9
$INSUNITS
 70
     0
  9
$HYPERLINKBASE
  1

  9
$STYLESHEET
  1

  9
$XEDIT
290
     1
  9
$CEPSNTYPE
380
     0
  9
$PSTYLEMODE
290
     1
  9
$FINGERPRINTGUID
  2
{B8F56028-A668-4542-A780-331382D0B7A2}
  9
$VERSIONGUID
  2
{4340AB8F-4BDE-4160-AD78-3A48E535355F}
  9
$EXTNAMES
290
     1
  9
$PSVPSCALE
 40
0.0
  9
$OLESTARTUP
290
     0
  0
ENDSEC
  0
SECTION
  2
CLASSES
  0
CLASS
  1
ACDBDICTIONARYWDFLT
  2
AcDbDictionaryWithDefault
  3
ObjectDBX Classes
 90
        0
280
     0
281
     0
  0
CLASS
  1
ACDBPLACEHOLDER
  2
AcDbPlaceHolder
  3
ObjectDBX Classes
 90
        0
280
     0
281
     0
  0
CLASS
  1
LAYOUT
  2
AcDbLayout
  3
ObjectDBX Classes
 90
        0
280
     0
281
     0
  0
CLASS
  1
DICTIONARYVAR
  2
AcDbDictionaryVar
  3
ObjectDBX Classes
 90
        0
280
     0
281
     0
  0
CLASS
  1
MATERIAL
  2
AcDbMaterial
  3
ObjectDBX Classes
 90
     1153
280
     0
281
     0
  0
CLASS
  1
VISUALSTYLE
  2
AcDbVisualStyle
  3
ObjectDBX Classes
 90
     4095
280
     0
281
     0
  0
CLASS
  1
TABLESTYLE
  2
AcDbTableStyle
  3
ObjectDBX Classes
 90
     4095
280
     0
281
     0
  0
CLASS
  1
SCALE
  2
AcDbScale
  3
ObjectDBX Classes
 90
     1153
280
     0
281
     0
  0
CLASS
  1
MLEADERSTYLE
  2
AcDbMLeaderStyle
  3
ACDB_MLEADERSTYLE_CLASS
 90
     4095
280
     0
281
     0
  0
CLASS
  1
ACDBSECTIONVIEWSTYLE
  2
AcDbSectionViewStyle
  3
ObjectDBX Classes
 90
     1025
280
     0
281
     0
  0
CLASS
  1
ACDBDETAILVIEWSTYLE
  2
AcDbDetailViewStyle
  3
ObjectDBX Classes
 90
     1025
280
     0
281
     0
  0
CLASS
  1
CELLSTYLEMAP
  2
AcDbCellStyleMap
  3
ObjectDBX Classes
 90
     1152
280
     0
281
     0
  0
ENDSEC
  0
SECTION
  2
TABLES
  0
TABLE
  2
VPORT
  5
9654
330
0
100
AcDbSymbolTable
 70
     1
  0
VPORT
  5
985D
330
9654
100
AcDbSymbolTableRecord
100
AcDbViewportTableRecord
  2
*ACTIVE
 70
     0
 10
0.0
 20
0.0
 11
1.0
 21
1.0
 12
274.403139796927
 22
137.6872107200175
 13
0.0
 23
0.0
 14
10.0
 24
10.0
 15
10.0
 25
10.0
 16
0.0
 26
0.0
 36
1.0
 17
0.0
 27
0.0
 37
0.0
 40
258.2524207084884
 41
1.899603698811096
 42
50.0
 43
0.0
 44
0.0
 50
0.0
 51
0.0
 71
     0
 72
   100
 73
     1
 74
     0
 75
     0
 76
     0
 77
     0
 78
     0
281
     0
 65
     1
110
0.0
120
0.0
130
0.0
111
1.0
121
0.0
131
0.0
112
0.0
122
1.0
132
0.0
 79
     0
146
0.0
1001
ACAD_NAV_VCDISPLAY
1070
     3
  0
ENDTAB
  0
TABLE
  2
LTYPE
  5
9651
330
0
100
AcDbSymbolTable
 70
     4
  0
LTYPE
  5
965F
330
9651
100
AcDbSymbolTableRecord
100
AcDbLinetypeTableRecord
  2
BYBLOCK
 70
     0
  3

 72
    65
 73
     0
 40
0.0
  0
LTYPE
  5
9660
330
9651
100
AcDbSymbolTableRecord
100
AcDbLinetypeTableRecord
  2
BYLAYER
 70
     0
  3

 72
    65
 73
     0
 40
0.0
  0
LTYPE
  5
9661
330
9651
100
AcDbSymbolTableRecord
100
AcDbLinetypeTableRecord
  2
CONTINUOUS
 70
     0
  3
Solid line
 72
    65
 73
     0
 40
0.0
  0
LTYPE
  5
966F
330
9651
100
AcDbSymbolTableRecord
100
AcDbLinetypeTableRecord
  2
DASHED
 70
     0
  3
__ __ __ __ __ __ __ __ __ __ __ __ __ __ __ __
 72
    65
 73
     2
 40
0.75
 49
0.5
 74
     0
 49
-0.25
 74
     0
  0
LTYPE
  5
9670
330
9651
100
AcDbSymbolTableRecord
100
AcDbLinetypeTableRecord
  2
CENTER
 70
     0
  3
____ _ ____ _ ____ _ ____ _ ____ _ ____ _ ____ 
 72
    65
 73
     4
 40
2.0
 49
1.25
 74
     0
 49
-0.25
 74
     0
 49
0.25
 74
     0
 49
-0.25
 74
     0
  0
LTYPE
  5
9671
330
9651
100
AcDbSymbolTableRecord
100
AcDbLinetypeTableRecord
  2
PHANTOM
 70
     0
  3
______  __  __  ______  __  __  ______  __  __ 
 72
    65
 73
     6
 40
2.5
 49
1.25
 74
     0
 49
-0.25
 74
     0
 49
0.25
 74
     0
 49
-0.25
 74
     0
 49
0.25
 74
     0
 49
-0.25
 74
     0
  0
ENDTAB
  0
TABLE
  2
LAYER
  5
964E
330
0
100
AcDbSymbolTable
 70
     8
  0
LAYER
  5
965C
102
{ACAD_XDICTIONARY
360
98B8
102
}
330
964E
100
AcDbSymbolTableRecord
100
AcDbLayerTableRecord
  2
0
 70
     0
 62
     7
  6
CONTINUOUS
370
    -3
390
9866
  0
LAYER
  5
9672
102
{ACAD_XDICTIONARY
360
98BA
102
}
330
964E
100
AcDbSymbolTableRecord
100
AcDbLayerTableRecord
  2
4
 70
     0
 62
     1
  6
CENTER
370
    -3
390
9866
  0
LAYER
  5
9673
102
{ACAD_XDICTIONARY
360
98BC
102
}
330
964E
100
AcDbSymbolTableRecord
100
AcDbLayerTableRecord
  2
5
 70
     0
 62
     6
  6
PHANTOM
370
    -3
390
9866
  0
LAYER
  5
9674
102
{ACAD_XDICTIONARY
360
98BE
102
}
330
964E
100
AcDbSymbolTableRecord
100
AcDbLayerTableRecord
  2
1
 70
     0
 62
     7
  6
CONTINUOUS
370
    -3
390
9866
  0
LAYER
  5
9675
102
{ACAD_XDICTIONARY
360
98C0
102
}
330
964E
100
AcDbSymbolTableRecord
100
AcDbLayerTableRecord
  2
2
 70
     0
 62
     4
  6
CONTINUOUS
370
    -3
390
9866
  0
LAYER
  5
9676
102
{ACAD_XDICTIONARY
360
98C2
102
}
330
964E
100
AcDbSymbolTableRecord
100
AcDbLayerTableRecord
  2
3
 70
     0
 62
     2
  6
DASHED
370
    -3
390
9866
  0
LAYER
  5
9677
102
{ACAD_XDICTIONARY
360
98C4
102
}
330
964E
100
AcDbSymbolTableRecord
100
AcDbLayerTableRecord
  2
6
 70
     0
 62
     5
  6
CONTINUOUS
370
    -3
390
9866
  0
LAYER
  5
9678
102
{ACAD_XDICTIONARY
360
98C6
102
}
330
964E
100
AcDbSymbolTableRecord
100
AcDbLayerTableRecord
  2
7
 70
     0
 62
     3
  6
CONTINUOUS
370
    -3
390
9866
  0
ENDTAB
  0
TABLE
  2
STYLE
  5
964F
330
0
100
AcDbSymbolTable
 70
     1
  0
STYLE
  5
965D
330
964F
100
AcDbSymbolTableRecord
100
AcDbTextStyleTableRecord
  2
STANDARD
 70
     0
 40
0.0
 41
1.0
 50
0.0
 71
     0
 42
5.0
  3
txt
  4

  0
ENDTAB
  0
TABLE
  2
VIEW
  5
9652
330
0
100
AcDbSymbolTable
 70
     0
  0
ENDTAB
  0
TABLE
  2
UCS
  5
9653
330
0
100
AcDbSymbolTable
 70
     0
  0
ENDTAB
  0
TABLE
  2
APPID
  5
9655
330
0
100
AcDbSymbolTable
 70
     3
  0
APPID
  5
965E
330
9655
100
AcDbSymbolTableRecord
100
AcDbRegAppTableRecord
  2
ACAD
 70
     0
  0
APPID
  5
98D2
330
9655
100
AcDbSymbolTableRecord
100
AcDbRegAppTableRecord
  2
ACAD_NAV_VCDISPLAY
 70
     0
  0
APPID
  5
990B
330
9655
100
AcDbSymbolTableRecord
100
AcDbRegAppTableRecord
  2
ACAD_MLEADERVER
 70
     0
  0
ENDTAB
  0
TABLE
  2
DIMSTYLE
  5
9656
330
0
100
AcDbSymbolTable
 70
     1
100
AcDbDimStyleTable
 71
     0
  0
DIMSTYLE
105
967A
330
9656
100
AcDbSymbolTableRecord
100
AcDbDimStyleTableRecord
  2
STANDARD
 70
     0
 41
3.0
 42
1.0
 43
10.0
 44
1.0
 73
     0
 74
     0
 77
     3
 78
     8
140
3.2
141
0.0
147
1.0
172
     1
173
     1
284
     8
285
     8
286
     8
340
965D
  0
ENDTAB
  0
TABLE
  2
BLOCK_RECORD
  5
964D
330
0
100
AcDbSymbolTable
 70
     0
  0
BLOCK_RECORD
  5
966A
102
{ACAD_XDICTIONARY
360
9860
102
}
330
964D
100
AcDbSymbolTableRecord
100
AcDbBlockTableRecord
  2
*MODEL_SPACE
340
98B4
  0
BLOCK_RECORD
  5
9666
102
{ACAD_XDICTIONARY
360
985E
102
}
330
964D
100
AcDbSymbolTableRecord
100
AcDbBlockTableRecord
  2
*PAPER_SPACE
340
98B5
  0
ENDTAB
  0
ENDSEC
  0
SECTION
  2
BLOCKS
  0
BLOCK
  5
966B
330
966A
100
AcDbEntity
  8
0
100
AcDbBlockBegin
  2
*MODEL_SPACE
 70
     0
 10
0.0
 20
0.0
 30
0.0
  3
*MODEL_SPACE
  1

  0
ENDBLK
  5
966C
330
966A
100
AcDbEntity
  8
0
100
AcDbBlockEnd
  0
BLOCK
  5
9667
330
9666
100
AcDbEntity
 67
     1
  8
0
100
AcDbBlockBegin
  2
*PAPER_SPACE
 70
     0
 10
0.0
 20
0.0
 30
0.0
  3
*PAPER_SPACE
  1

  0
ENDBLK
  5
9668
330
9666
100
AcDbEntity
 67
     1
  8
0
100
AcDbBlockEnd
  0
ENDSEC
  0
SECTION
  2
ENTITIES
  0
TEXT
  5
9682
330
966A
100
AcDbEntity
  8
7
  6
Continuous
100
AcDbText
 10
10.0
 20
18.0
 30
0.0
 40
3.0
  1
TYPE No.THA-405D-1
100
AcDbText
  0
TEXT
  5
9683
330
966A
100
AcDbEntity
  8
7
  6
Continuous
100
AcDbText
 10
10.0
 20
26.0
 30
0.0
 40
3.0
  1
CODE No.3059
100
AcDbText
  0
TEXT
  5
9684
330
966A
100
AcDbEntity
  8
1
  6
Continuous
100
AcDbText
 10
10.0
 20
10.0
 30
0.0
 40
1.399999999999999
  1
LAYER
100
AcDbText
  0
TEXT
  5
9685
330
966A
100
AcDbEntity
  8
1
  6
Continuous
100
AcDbText
 10
17.97951099999998
 20
10.04873699999998
 30
0.0
 40
1.399999999999999
  1
1
100
AcDbText
  0
TEXT
  5
9686
330
966A
100
AcDbEntity
  8
7
  6
Continuous
100
AcDbText
 10
29.97951099999999
 20
10.04873699999998
 30
0.0
 40
1.399999999999999
  1
7
100
AcDbText
  0
TEXT
  5
9687
330
966A
100
AcDbEntity
  8
4
  6
CENTER
100
AcDbText
 10
23.97951099999999
 20
10.04873699999998
 30
0.0
 40
1.399999999999999
  1
4
100
AcDbText
  0
TEXT
  5
9688
330
966A
100
AcDbEntity
  8
3
  6
DASHED
100
AcDbText
 10
21.979511
 20
10.04873699999998
 30
0.0
 40
1.399999999999999
  1
3
100
AcDbText
  0
TEXT
  5
9689
330
966A
100
AcDbEntity
  8
2
  6
Continuous
100
AcDbText
 10
19.97951099999999
 20
10.04873699999998
 30
0.0
 40
1.399999999999999
  1
2
100
AcDbText
  0
TEXT
  5
968A
330
966A
100
AcDbEntity
  8
6
  6
Continuous
100
AcDbText
 10
27.979511
 20
10.04873699999998
 30
0.0
 40
1.399999999999999
  1
6
100
AcDbText
  0
TEXT
  5
968B
330
966A
100
AcDbEntity
  8
5
  6
PHANTOM
100
AcDbText
 10
25.97951099999999
 20
10.04873699999998
 30
0.0
 40
1.399999999999999
  1
5
100
AcDbText
  0
LINE
  5
968C
330
966A
100
AcDbEntity
  8
1
  6
Continuous
100
AcDbLine
 10
347.582014
 20
73.066709
 30
0.0
 11
351.582014
 21
73.066709
 31
0.0
  0
LINE
  5
968D
330
966A
100
AcDbEntity
  8
1
  6
Continuous
100
AcDbLine
 10
349.082014
 20
98.066709
 30
0.0
 11
380.0790139999999
 21
98.066709
 31
0.0
  0
LINE
  5
968E
330
966A
100
AcDbEntity
  8
1
  6
Continuous
100
AcDbLine
 10
347.582014
 20
148.066709
 30
0.0
 11
381.5790139999998
 21
148.066709
 31
0.0
  0
LINE
  5
968F
330
966A
100
AcDbEntity
  8
1
  6
Continuous
100
AcDbLine
 10
384.0790139999999
 20
75.566709
 30
0.0
 11
384.0790139999999
 21
145.566709
 31
0.0
  0
LINE
  5
9690
330
966A
100
AcDbEntity
  8
1
  6
Continuous
100
AcDbLine
 10
345.082014
 20
75.566709
 30
0.0
 11
345.082014
 21
145.566709
 31
0.0
  0
LINE
  5
9691
330
966A
100
AcDbEntity
  8
1
  6
Continuous
100
AcDbLine
 10
380.0790139999999
 20
73.066709
 30
0.0
 11
380.0790139999999
 21
148.066709
 31
0.0
  0
LINE
  5
9692
330
966A
100
AcDbEntity
  8
1
  6
Continuous
100
AcDbLine
 10
349.082014
 20
73.066709
 30
0.0
 11
349.082014
 21
148.066709
 31
0.0
  0
LINE
  5
9693
330
966A
100
AcDbEntity
  8
1
  6
Continuous
100
AcDbLine
 10
377.5790139999998
 20
73.066709
 30
0.0
 11
377.5790139999998
 21
98.066709
 31
0.0
  0
LINE
  5
9694
330
966A
100
AcDbEntity
  8
1
  6
Continuous
100
AcDbLine
 10
351.582014
 20
73.066709
 30
0.0
 11
351.582014
 21
98.066709
 31
0.0
  0
LINE
  5
9695
330
966A
100
AcDbEntity
  8
1
  6
Continuous
100
AcDbLine
 10
377.5790139999998
 20
73.066709
 30
0.0
 11
381.5790139999998
 21
73.066709
 31
0.0
  0
LINE
  5
9696
330
966A
100
AcDbEntity
  8
1
  6
Continuous
100
AcDbLine
 10
364.649014
 20
155.567709
 30
0.0
 11
371.5790139999999
 21
162.495709
 31
0.0
  0
LINE
  5
9697
330
966A
100
AcDbEntity
  8
1
  6
Continuous
100
AcDbLine
 10
357.582014
 20
162.638709
 30
0.0
 11
364.5090139999999
 21
169.566709
 31
0.0
  0
LINE
  5
9698
330
966A
100
AcDbEntity
  8
1
  6
Continuous
100
AcDbLine
 10
364.5090139999999
 20
155.567709
 30
0.0
 11
357.582014
 21
162.495709
 31
0.0
  0
LINE
  5
9699
330
966A
100
AcDbEntity
  8
1
  6
Continuous
100
AcDbLine
 10
371.5790139999999
 20
162.638709
 30
0.0
 11
364.649014
 21
169.566709
 31
0.0
  0
LINE
  5
969A
330
966A
100
AcDbEntity
  8
5
  6
PHANTOM
100
AcDbLine
 10
35.51101400000001
 20
152.066709
 30
0.0
 11
114.4810139999999
 21
152.066709
 31
0.0
  0
LINE
  5
969B
330
966A
100
AcDbEntity
  8
5
  6
PHANTOM
100
AcDbLine
 10
35.51101400000001
 20
173.066709
 30
0.0
 11
114.4810139999999
 21
173.066709
 31
0.0
  0
LINE
  5
969C
330
966A
100
AcDbEntity
  8
5
  6
PHANTOM
100
AcDbLine
 10
116.4810139999999
 20
154.066709
 30
0.0
 11
116.4810139999999
 21
171.066709
 31
0.0
  0
LINE
  5
969D
330
966A
100
AcDbEntity
  8
1
  6
Continuous
100
AcDbLine
 10
18.98101399999999
 20
181.5667089999998
 30
0.0
 11
18.98101399999999
 21
53.56670900000001
 31
0.0
  0
LINE
  5
969E
330
966A
100
AcDbEntity
  8
1
  6
Continuous
100
AcDbLine
 10
23.98101399999999
 20
186.566709
 30
0.0
 11
45.981014
 21
186.566709
 31
0.0
  0
LINE
  5
969F
330
966A
100
AcDbEntity
  8
1
  6
Continuous
100
AcDbLine
 10
23.98101399999999
 20
48.56670900000001
 30
0.0
 11
45.981014
 21
48.56670900000001
 31
0.0
  0
LINE
  5
96A0
330
966A
100
AcDbEntity
  8
1
  6
Continuous
100
AcDbLine
 10
50.981014
 20
181.5667089999998
 30
0.0
 11
50.981014
 21
53.56670900000001
 31
0.0
  0
LINE
  5
96A1
330
966A
100
AcDbEntity
  8
1
  6
Continuous
100
AcDbLine
 10
23.98101399999999
 20
51.566709
 30
0.0
 11
45.981014
 21
51.566709
 31
0.0
  0
LINE
  5
96A2
330
966A
100
AcDbEntity
  8
1
  6
Continuous
100
AcDbLine
 10
47.981014
 20
181.5667089999998
 30
0.0
 11
47.981014
 21
53.56670900000001
 31
0.0
  0
LINE
  5
96A3
330
966A
100
AcDbEntity
  8
1
  6
Continuous
100
AcDbLine
 10
21.981014
 20
181.5667089999998
 30
0.0
 11
21.981014
 21
53.56670900000001
 31
0.0
  0
LINE
  5
96A4
330
966A
100
AcDbEntity
  8
1
  6
Continuous
100
AcDbLine
 10
23.98101399999999
 20
183.566709
 30
0.0
 11
45.981014
 21
183.566709
 31
0.0
  0
LINE
  5
96A5
330
966A
100
AcDbEntity
  8
4
  6
CENTER
100
AcDbLine
 10
34.981014
 20
192.589772
 30
0.0
 11
34.981014
 21
41.12990299999998
 31
0.0
  0
LINE
  5
96A6
330
966A
100
AcDbEntity
  8
4
  6
CENTER
100
AcDbLine
 10
10.29272399999999
 20
162.566709
 30
0.0
 11
124.7160139999997
 21
162.566709
 31
0.0
  0
LINE
  5
96A7
330
966A
100
AcDbEntity
  8
4
  6
CENTER
100
AcDbLine
 10
282.820849
 20
139.0667089999998
 30
0.0
 11
292.0268490000001
 21
139.0667089999998
 31
0.0
  0
LINE
  5
96A8
330
966A
100
AcDbEntity
  8
4
  6
CENTER
100
AcDbLine
 10
282.330849
 20
107.066709
 30
0.0
 11
292.418849
 21
107.066709
 31
0.0
  0
LINE
  5
96A9
330
966A
100
AcDbEntity
  8
1
  6
Continuous
100
AcDbLine
 10
24.33101399999999
 20
162.566709
 30
0.0
 11
24.33101399999999
 21
81.06670900000002
 31
0.0
  0
LINE
  5
96AA
330
966A
100
AcDbEntity
  8
1
  6
Continuous
100
AcDbLine
 10
45.63101399999999
 20
162.566709
 30
0.0
 11
45.63101399999999
 21
81.06670900000002
 31
0.0
  0
LINE
  5
96AB
330
966A
100
AcDbEntity
  8
1
  6
Continuous
100
AcDbLine
 10
25.331014
 20
81.43070899999996
 30
0.0
 11
25.331014
 21
71.566709
 31
0.0
  0
LINE
  5
96AC
330
966A
100
AcDbEntity
  8
1
  6
Continuous
100
AcDbLine
 10
44.631014
 20
81.43070899999996
 30
0.0
 11
44.631014
 21
71.566709
 31
0.0
  0
LINE
  5
96AD
330
966A
100
AcDbEntity
  8
1
  6
Continuous
100
AcDbLine
 10
375.5790139999998
 20
186.566709
 30
0.0
 11
353.582014
 21
186.566709
 31
0.0
  0
LINE
  5
96AE
330
966A
100
AcDbEntity
  8
1
  6
Continuous
100
AcDbLine
 10
348.582014
 20
181.5667089999998
 30
0.0
 11
348.582014
 21
148.066709
 31
0.0
  0
LINE
  5
96AF
330
966A
100
AcDbEntity
  8
1
  6
Continuous
100
AcDbLine
 10
380.5790139999999
 20
181.5667089999998
 30
0.0
 11
380.5790139999999
 21
148.066709
 31
0.0
  0
LINE
  5
96B0
330
966A
100
AcDbEntity
  8
1
  6
Continuous
100
AcDbLine
 10
375.5790139999998
 20
48.56670900000001
 30
0.0
 11
353.582014
 21
48.56670900000001
 31
0.0
  0
LINE
  5
96B1
330
966A
100
AcDbEntity
  8
4
  6
CENTER
100
AcDbLine
 10
383.519014
 20
162.566709
 30
0.0
 11
344.9370139999999
 21
162.566709
 31
0.0
  0
LINE
  5
96B2
330
966A
100
AcDbEntity
  8
4
  6
CENTER
100
AcDbLine
 10
364.5790139999999
 20
192.589772
 30
0.0
 11
364.5790139999999
 21
41.12990299999998
 31
0.0
  0
LINE
  5
96B3
330
966A
100
AcDbEntity
  8
1
  6
Continuous
100
AcDbLine
 10
377.279014
 20
172.5667089999998
 30
0.0
 11
377.279014
 21
165.6787089999999
 31
0.0
  0
LINE
  5
96B4
330
966A
100
AcDbEntity
  8
1
  6
Continuous
100
AcDbLine
 10
351.882014
 20
172.5667089999998
 30
0.0
 11
351.882014
 21
148.066709
 31
0.0
  0
LINE
  5
96B5
330
966A
100
AcDbEntity
  8
1
  6
Continuous
100
AcDbLine
 10
374.279014
 20
175.566709
 30
0.0
 11
354.8820140000001
 21
175.566709
 31
0.0
  0
LINE
  5
96B6
330
966A
100
AcDbEntity
  8
1
  6
Continuous
100
AcDbLine
 10
45.63101399999999
 20
81.06670900000002
 30
0.0
 11
44.631014
 21
80.06670900000001
 31
0.0
  0
LINE
  5
96B7
330
966A
100
AcDbEntity
  8
1
  6
Continuous
100
AcDbLine
 10
25.331014
 20
80.06670900000001
 30
0.0
 11
24.33101399999999
 21
81.06670900000002
 31
0.0
  0
LINE
  5
96B8
330
966A
100
AcDbEntity
  8
1
  6
Continuous
100
AcDbLine
 10
354.8820140000001
 20
59.56670899999998
 30
0.0
 11
374.279014
 21
59.56670899999998
 31
0.0
  0
LINE
  5
96B9
330
966A
100
AcDbEntity
  8
1
  6
Continuous
100
AcDbLine
 10
352.931014
 20
96.898709
 30
0.0
 11
352.931014
 21
71.685709
 31
0.0
  0
LINE
  5
96BA
330
966A
100
AcDbEntity
  8
1
  6
Continuous
100
AcDbLine
 10
376.229014
 20
96.898709
 30
0.0
 11
376.229014
 21
71.685709
 31
0.0
  0
LINE
  5
96BB
330
966A
100
AcDbEntity
  8
1
  6
Continuous
100
AcDbLine
 10
354.8820140000001
 20
149.8667089999998
 30
0.0
 11
361.8290139999999
 21
149.8667089999998
 31
0.0
  0
LINE
  5
96BC
330
966A
100
AcDbEntity
  8
4
  6
CENTER
100
AcDbLine
 10
371.0790139999998
 20
86.56670899999998
 30
0.0
 11
371.0790139999998
 21
78.56670900000001
 31
0.0
  0
LINE
  5
96BD
330
966A
100
AcDbEntity
  8
4
  6
CENTER
100
AcDbLine
 10
367.0790139999998
 20
82.56670900000001
 30
0.0
 11
375.0790139999998
 21
82.56670900000001
 31
0.0
  0
LINE
  5
96BE
330
966A
100
AcDbEntity
  8
4
  6
CENTER
100
AcDbLine
 10
358.082014
 20
86.56670899999998
 30
0.0
 11
358.082014
 21
78.56670900000001
 31
0.0
  0
LINE
  5
96BF
330
966A
100
AcDbEntity
  8
4
  6
CENTER
100
AcDbLine
 10
354.082014
 20
82.56670900000001
 30
0.0
 11
362.0790139999999
 21
82.56670900000001
 31
0.0
  0
LINE
  5
96C0
330
966A
100
AcDbEntity
  8
4
  6
CENTER
100
AcDbLine
 10
358.582014
 20
107.066709
 30
0.0
 11
370.5790139999999
 21
107.066709
 31
0.0
  0
LINE
  5
96C1
330
966A
100
AcDbEntity
  8
4
  6
CENTER
100
AcDbLine
 10
358.582014
 20
139.0667089999998
 30
0.0
 11
370.5790139999999
 21
139.0667089999998
 31
0.0
  0
LINE
  5
96C2
330
966A
100
AcDbEntity
  8
1
  6
Continuous
100
AcDbLine
 10
369.929014
 20
171.823709
 30
0.0
 11
370.929014
 21
173.565709
 31
0.0
  0
LINE
  5
96C3
330
966A
100
AcDbEntity
  8
1
  6
Continuous
100
AcDbLine
 10
359.238014
 20
171.823709
 30
0.0
 11
358.232014
 21
173.565709
 31
0.0
  0
LINE
  5
96C4
330
966A
100
AcDbEntity
  8
1
  6
Continuous
100
AcDbLine
 10
358.232014
 20
175.566709
 30
0.0
 11
358.232014
 21
173.565709
 31
0.0
  0
LINE
  5
96C5
330
966A
100
AcDbEntity
  8
1
  6
Continuous
100
AcDbLine
 10
370.929014
 20
175.566709
 30
0.0
 11
370.929014
 21
173.565709
 31
0.0
  0
LINE
  5
96C6
330
966A
100
AcDbEntity
  8
1
  6
Continuous
100
AcDbLine
 10
369.659014
 20
171.214709
 30
0.0
 11
371.159014
 21
173.812709
 31
0.0
  0
LINE
  5
96C7
330
966A
100
AcDbEntity
  8
1
  6
Continuous
100
AcDbLine
 10
356.003014
 20
157.554709
 30
0.0
 11
353.405014
 21
156.054709
 31
0.0
  0
LINE
  5
96C8
330
966A
100
AcDbEntity
  8
1
  6
Continuous
100
AcDbLine
 10
187.781014
 20
48.56670900000001
 30
0.0
 11
190.2810139999999
 21
48.56670900000001
 31
0.0
  0
LINE
  5
96C9
330
966A
100
AcDbEntity
  8
1
  6
Continuous
100
AcDbLine
 10
187.781014
 20
186.566709
 30
0.0
 11
190.2810139999999
 21
186.566709
 31
0.0
  0
LINE
  5
96CA
330
966A
100
AcDbEntity
  8
1
  6
Continuous
100
AcDbLine
 10
186.281014
 20
183.566709
 30
0.0
 11
186.281014
 21
51.566709
 31
0.0
  0
LINE
  5
96CB
330
966A
100
AcDbEntity
  8
1
  6
Continuous
100
AcDbLine
 10
189.2810139999999
 20
186.566709
 30
0.0
 11
189.2810139999999
 21
48.56670900000001
 31
0.0
  0
LINE
  5
96CC
330
966A
100
AcDbEntity
  8
1
  6
Continuous
100
AcDbLine
 10
187.781014
 20
186.566709
 30
0.0
 11
187.781014
 21
48.56670900000001
 31
0.0
  0
LINE
  5
96CD
330
966A
100
AcDbEntity
  8
1
  6
Continuous
100
AcDbLine
 10
186.281014
 20
51.566709
 30
0.0
 11
187.781014
 21
48.56670900000001
 31
0.0
  0
LINE
  5
96CE
330
966A
100
AcDbEntity
  8
1
  6
Continuous
100
AcDbLine
 10
186.281014
 20
183.566709
 30
0.0
 11
187.781014
 21
186.566709
 31
0.0
  0
LINE
  5
96CF
330
966A
100
AcDbEntity
  8
1
  6
Continuous
100
AcDbLine
 10
191.2810139999999
 20
77.066709
 30
0.0
 11
191.2810139999999
 21
60.566709
 31
0.0
  0
LINE
  5
96D0
330
966A
100
AcDbEntity
  8
1
  6
Continuous
100
AcDbLine
 10
201.281014
 20
162.566709
 30
0.0
 11
201.281014
 21
151.168709
 31
0.0
  0
LINE
  5
96D1
330
966A
100
AcDbEntity
  8
1
  6
Continuous
100
AcDbLine
 10
192.2810139999999
 20
78.066709
 30
0.0
 11
198.2810139999999
 21
78.066709
 31
0.0
  0
LINE
  5
96D2
330
966A
100
AcDbEntity
  8
4
  6
CENTER
100
AcDbLine
 10
181.1810139999998
 20
162.566709
 30
0.0
 11
223.3620139999999
 21
162.566709
 31
0.0
  0
LINE
  5
96D3
330
966A
100
AcDbEntity
  8
1
  6
Continuous
100
AcDbLine
 10
199.2810139999999
 20
149.168709
 30
0.0
 11
199.2810139999999
 21
79.066709
 31
0.0
  0
LINE
  5
96D4
330
966A
100
AcDbEntity
  8
1
  6
Continuous
100
AcDbLine
 10
191.1280139999998
 20
60.03570899999999
 30
0.0
 11
213.8060139999998
 21
60.59170899999998
 31
0.0
  0
LINE
  5
96D5
330
966A
100
AcDbEntity
  8
1
  6
Continuous
100
AcDbLine
 10
200.2570139999999
 20
97.874709
 30
0.0
 11
213.8060139999998
 21
97.54270900000001
 31
0.0
  0
LINE
  5
96D6
330
966A
100
AcDbEntity
  8
4
  6
CENTER
100
AcDbLine
 10
196.0580139999999
 20
139.0667089999998
 30
0.0
 11
203.5030139999999
 21
139.0667089999998
 31
0.0
  0
LINE
  5
96D7
330
966A
100
AcDbEntity
  8
4
  6
CENTER
100
AcDbLine
 10
196.3680139999999
 20
107.066709
 30
0.0
 11
203.8130139999999
 21
107.066709
 31
0.0
  0
LINE
  5
96D8
330
966A
100
AcDbEntity
  8
1
  6
Continuous
100
AcDbLine
 10
199.2810139999999
 20
111.566709
 30
0.0
 11
200.281014
 21
111.566709
 31
0.0
  0
LINE
  5
96D9
330
966A
100
AcDbEntity
  8
1
  6
Continuous
100
AcDbLine
 10
199.2810139999999
 20
102.566709
 30
0.0
 11
200.281014
 21
102.566709
 31
0.0
  0
LINE
  5
96DA
330
966A
100
AcDbEntity
  8
1
  6
Continuous
100
AcDbLine
 10
199.2810139999999
 20
143.566709
 30
0.0
 11
200.281014
 21
143.566709
 31
0.0
  0
LINE
  5
96DB
330
966A
100
AcDbEntity
  8
1
  6
Continuous
100
AcDbLine
 10
199.2810139999999
 20
134.566709
 30
0.0
 11
200.281014
 21
134.566709
 31
0.0
  0
LINE
  5
96DC
330
966A
100
AcDbEntity
  8
1
  6
Continuous
100
AcDbLine
 10
200.281014
 20
143.566709
 30
0.0
 11
200.281014
 21
134.566709
 31
0.0
  0
LINE
  5
96DD
330
966A
100
AcDbEntity
  8
1
  6
Continuous
100
AcDbLine
 10
200.281014
 20
111.566709
 30
0.0
 11
200.281014
 21
102.566709
 31
0.0
  0
LINE
  5
96DE
330
966A
100
AcDbEntity
  8
1
  6
Continuous
100
AcDbLine
 10
191.2810139999999
 20
174.5667089999997
 30
0.0
 11
191.2810139999999
 21
162.566709
 31
0.0
  0
LINE
  5
96DF
330
966A
100
AcDbEntity
  8
1
  6
Continuous
100
AcDbLine
 10
216.6810139999999
 20
171.400709
 30
0.0
 11
216.6810139999999
 21
149.554709
 31
0.0
  0
LINE
  5
96E0
330
966A
100
AcDbEntity
  8
1
  6
Continuous
100
AcDbLine
 10
200.2630139999999
 20
150.168709
 30
0.0
 11
215.2990139999999
 21
150.4387089999999
 31
0.0
  0
LINE
  5
96E1
330
966A
100
AcDbEntity
  8
1
  6
Continuous
100
AcDbLine
 10
190.2810139999999
 20
175.548709
 30
0.0
 11
218.181014
 21
175.0467089999999
 31
0.0
  0
LINE
  5
96E2
330
966A
100
AcDbEntity
  8
1
  6
Continuous
100
AcDbLine
 10
216.2810139999999
 20
171.400709
 30
0.0
 11
218.181014
 21
171.400709
 31
0.0
  0
LINE
  5
96E3
330
966A
100
AcDbEntity
  8
1
  6
Continuous
100
AcDbLine
 10
191.2810139999999
 20
173.565709
 30
0.0
 11
218.181014
 21
173.565709
 31
0.0
  0
LINE
  5
96E4
330
966A
100
AcDbEntity
  8
1
  6
Continuous
100
AcDbLine
 10
218.181014
 20
175.0467089999999
 30
0.0
 11
218.181014
 21
171.400709
 31
0.0
  0
LINE
  5
96E5
330
966A
100
AcDbEntity
  8
1
  6
Continuous
100
AcDbLine
 10
184.9730139999999
 20
155.939709
 30
0.0
 11
184.9730139999999
 21
82.56670900000001
 31
0.0
  0
LINE
  5
96E6
330
966A
100
AcDbEntity
  8
1
  6
Continuous
100
AcDbLine
 10
180.7200139999999
 20
164.3347089999998
 30
0.0
 11
182.0450139999999
 21
163.0107089999999
 31
0.0
  0
LINE
  5
96E7
330
966A
100
AcDbEntity
  8
1
  6
Continuous
100
AcDbLine
 10
183.9020139999998
 20
169.637709
 30
0.0
 11
180.7200139999999
 21
166.455709
 31
0.0
  0
LINE
  5
96E8
330
966A
100
AcDbEntity
  8
1
  6
Continuous
100
AcDbLine
 10
358.546014
 20
82.10270899999997
 30
0.0
 11
359.060014
 21
82.33170900000002
 31
0.0
  0
LINE
  5
96E9
330
966A
100
AcDbEntity
  8
1
  6
Continuous
100
AcDbLine
 10
359.060014
 20
82.33170900000002
 30
0.0
 11
359.362014
 21
82.33670899999998
 31
0.0
  0
LINE
  5
96EA
330
966A
100
AcDbEntity
  8
1
  6
Continuous
100
AcDbLine
 10
358.546014
 20
83.03070899999999
 30
0.0
 11
359.060014
 21
82.80170899999998
 31
0.0
  0
LINE
  5
96EB
330
966A
100
AcDbEntity
  8
1
  6
Continuous
100
AcDbLine
 10
359.060014
 20
82.80170899999998
 30
0.0
 11
359.362014
 21
82.79670899999997
 31
0.0
  0
LINE
  5
96EC
330
966A
100
AcDbEntity
  8
1
  6
Continuous
100
AcDbLine
 10
357.847014
 20
83.54470899999999
 30
0.0
 11
357.852014
 21
83.84670899999997
 31
0.0
  0
LINE
  5
96ED
330
966A
100
AcDbEntity
  8
1
  6
Continuous
100
AcDbLine
 10
357.618014
 20
83.03070899999999
 30
0.0
 11
357.847014
 21
83.54470899999999
 31
0.0
  0
LINE
  5
96EE
330
966A
100
AcDbEntity
  8
1
  6
Continuous
100
AcDbLine
 10
358.317014
 20
83.54470899999999
 30
0.0
 11
358.3120139999999
 21
83.84670899999997
 31
0.0
  0
LINE
  5
96EF
330
966A
100
AcDbEntity
  8
1
  6
Continuous
100
AcDbLine
 10
358.546014
 20
83.03070899999999
 30
0.0
 11
358.317014
 21
83.54470899999999
 31
0.0
  0
LINE
  5
96F0
330
966A
100
AcDbEntity
  8
1
  6
Continuous
100
AcDbLine
 10
357.104014
 20
82.33170900000002
 30
0.0
 11
356.8020139999999
 21
82.33670899999998
 31
0.0
  0
LINE
  5
96F1
330
966A
100
AcDbEntity
  8
1
  6
Continuous
100
AcDbLine
 10
357.618014
 20
82.10270899999997
 30
0.0
 11
357.104014
 21
82.33170900000002
 31
0.0
  0
LINE
  5
96F2
330
966A
100
AcDbEntity
  8
1
  6
Continuous
100
AcDbLine
 10
357.104014
 20
82.80170899999998
 30
0.0
 11
356.803014
 21
82.79670899999997
 31
0.0
  0
LINE
  5
96F3
330
966A
100
AcDbEntity
  8
1
  6
Continuous
100
AcDbLine
 10
357.618014
 20
83.03070899999999
 30
0.0
 11
357.104014
 21
82.80270899999996
 31
0.0
  0
LINE
  5
96F4
330
966A
100
AcDbEntity
  8
1
  6
Continuous
100
AcDbLine
 10
358.317014
 20
81.58870899999998
 30
0.0
 11
358.3120139999999
 21
81.28770899999997
 31
0.0
  0
LINE
  5
96F5
330
966A
100
AcDbEntity
  8
1
  6
Continuous
100
AcDbLine
 10
358.546014
 20
82.10270899999997
 30
0.0
 11
358.317014
 21
81.58870899999998
 31
0.0
  0
LINE
  5
96F6
330
966A
100
AcDbEntity
  8
1
  6
Continuous
100
AcDbLine
 10
357.847014
 20
81.58870899999998
 30
0.0
 11
357.852014
 21
81.28770899999997
 31
0.0
  0
LINE
  5
96F7
330
966A
100
AcDbEntity
  8
1
  6
Continuous
100
AcDbLine
 10
357.618014
 20
82.10270899999997
 30
0.0
 11
357.847014
 21
81.58870899999998
 31
0.0
  0
LINE
  5
96F8
330
966A
100
AcDbEntity
  8
1
  6
Continuous
100
AcDbLine
 10
371.5490139999998
 20
82.10270899999997
 30
0.0
 11
372.059014
 21
82.33170900000002
 31
0.0
  0
LINE
  5
96F9
330
966A
100
AcDbEntity
  8
1
  6
Continuous
100
AcDbLine
 10
372.059014
 20
82.33170900000002
 30
0.0
 11
372.359014
 21
82.33670899999998
 31
0.0
  0
LINE
  5
96FA
330
966A
100
AcDbEntity
  8
1
  6
Continuous
100
AcDbLine
 10
371.5490139999998
 20
83.03070899999999
 30
0.0
 11
372.059014
 21
82.80170899999998
 31
0.0
  0
LINE
  5
96FB
330
966A
100
AcDbEntity
  8
1
  6
Continuous
100
AcDbLine
 10
372.059014
 20
82.80270899999996
 30
0.0
 11
372.359014
 21
82.79670899999997
 31
0.0
  0
LINE
  5
96FC
330
966A
100
AcDbEntity
  8
1
  6
Continuous
100
AcDbLine
 10
370.849014
 20
83.54470899999999
 30
0.0
 11
370.849014
 21
83.84670899999997
 31
0.0
  0
LINE
  5
96FD
330
966A
100
AcDbEntity
  8
1
  6
Continuous
100
AcDbLine
 10
370.6190139999998
 20
83.03070899999999
 30
0.0
 11
370.849014
 21
83.54470899999999
 31
0.0
  0
LINE
  5
96FE
330
966A
100
AcDbEntity
  8
1
  6
Continuous
100
AcDbLine
 10
371.319014
 20
83.54470899999999
 30
0.0
 11
371.3090139999998
 21
83.84670899999997
 31
0.0
  0
LINE
  5
96FF
330
966A
100
AcDbEntity
  8
1
  6
Continuous
100
AcDbLine
 10
371.5490139999998
 20
83.03070899999999
 30
0.0
 11
371.319014
 21
83.54470899999999
 31
0.0
  0
LINE
  5
9700
330
966A
100
AcDbEntity
  8
1
  6
Continuous
100
AcDbLine
 10
370.109014
 20
82.33170900000002
 30
0.0
 11
369.7990139999998
 21
82.33670899999998
 31
0.0
  0
LINE
  5
9701
330
966A
100
AcDbEntity
  8
1
  6
Continuous
100
AcDbLine
 10
370.6190139999998
 20
82.10270899999997
 30
0.0
 11
370.109014
 21
82.33170900000002
 31
0.0
  0
LINE
  5
9702
330
966A
100
AcDbEntity
  8
1
  6
Continuous
100
AcDbLine
 10
370.109014
 20
82.80170899999998
 30
0.0
 11
369.7990139999998
 21
82.79670899999997
 31
0.0
  0
LINE
  5
9703
330
966A
100
AcDbEntity
  8
1
  6
Continuous
100
AcDbLine
 10
370.6190139999998
 20
83.03070899999999
 30
0.0
 11
370.109014
 21
82.80170899999998
 31
0.0
  0
LINE
  5
9704
330
966A
100
AcDbEntity
  8
1
  6
Continuous
100
AcDbLine
 10
371.319014
 20
81.58870899999998
 30
0.0
 11
371.3090139999998
 21
81.28770899999997
 31
0.0
  0
LINE
  5
9705
330
966A
100
AcDbEntity
  8
1
  6
Continuous
100
AcDbLine
 10
371.5490139999998
 20
82.10270899999997
 30
0.0
 11
371.319014
 21
81.58870899999998
 31
0.0
  0
LINE
  5
9706
330
966A
100
AcDbEntity
  8
1
  6
Continuous
100
AcDbLine
 10
370.849014
 20
81.58870899999998
 30
0.0
 11
370.849014
 21
81.28770899999997
 31
0.0
  0
LINE
  5
9707
330
966A
100
AcDbEntity
  8
1
  6
Continuous
100
AcDbLine
 10
370.6190139999998
 20
82.10270899999997
 30
0.0
 11
370.849014
 21
81.58870899999998
 31
0.0
  0
LINE
  5
9708
330
966A
100
AcDbEntity
  8
1
  6
Continuous
100
AcDbLine
 10
365.2990139999998
 20
138.345709
 30
0.0
 11
365.9090139999997
 21
138.627709
 31
0.0
  0
LINE
  5
9709
330
966A
100
AcDbEntity
  8
1
  6
Continuous
100
AcDbLine
 10
365.9090139999997
 20
138.627709
 30
0.0
 11
366.9990139999999
 21
138.6467089999999
 31
0.0
  0
LINE
  5
970A
330
966A
100
AcDbEntity
  8
1
  6
Continuous
100
AcDbLine
 10
365.9090139999997
 20
139.5057089999999
 30
0.0
 11
366.9990139999999
 21
139.4867089999999
 31
0.0
  0
LINE
  5
970B
330
966A
100
AcDbEntity
  8
1
  6
Continuous
100
AcDbLine
 10
365.2990139999998
 20
139.788709
 30
0.0
 11
365.9090139999997
 21
139.5057089999999
 31
0.0
  0
LINE
  5
970C
330
966A
100
AcDbEntity
  8
1
  6
Continuous
100
AcDbLine
 10
365.019014
 20
140.394709
 30
0.0
 11
364.9990139999999
 21
141.4807089999999
 31
0.0
  0
LINE
  5
970D
330
966A
100
AcDbEntity
  8
1
  6
Continuous
100
AcDbLine
 10
365.2990139999998
 20
139.788709
 30
0.0
 11
365.019014
 21
140.394709
 31
0.0
  0
LINE
  5
970E
330
966A
100
AcDbEntity
  8
1
  6
Continuous
100
AcDbLine
 10
363.859014
 20
139.788709
 30
0.0
 11
364.1390139999999
 21
140.394709
 31
0.0
  0
LINE
  5
970F
330
966A
100
AcDbEntity
  8
1
  6
Continuous
100
AcDbLine
 10
364.1390139999999
 20
140.394709
 30
0.0
 11
364.159014
 21
141.4807089999999
 31
0.0
  0
LINE
  5
9710
330
966A
100
AcDbEntity
  8
1
  6
Continuous
100
AcDbLine
 10
363.259014
 20
139.5057089999999
 30
0.0
 11
362.169014
 21
139.4867089999999
 31
0.0
  0
LINE
  5
9711
330
966A
100
AcDbEntity
  8
1
  6
Continuous
100
AcDbLine
 10
363.859014
 20
139.788709
 30
0.0
 11
363.259014
 21
139.5057089999999
 31
0.0
  0
LINE
  5
9712
330
966A
100
AcDbEntity
  8
1
  6
Continuous
100
AcDbLine
 10
363.859014
 20
138.345709
 30
0.0
 11
363.259014
 21
138.627709
 31
0.0
  0
LINE
  5
9713
330
966A
100
AcDbEntity
  8
1
  6
Continuous
100
AcDbLine
 10
363.259014
 20
138.627709
 30
0.0
 11
362.169014
 21
138.6467089999999
 31
0.0
  0
LINE
  5
9714
330
966A
100
AcDbEntity
  8
1
  6
Continuous
100
AcDbLine
 10
364.1390139999999
 20
137.738709
 30
0.0
 11
364.159014
 21
136.6527089999999
 31
0.0
  0
LINE
  5
9715
330
966A
100
AcDbEntity
  8
1
  6
Continuous
100
AcDbLine
 10
363.859014
 20
138.345709
 30
0.0
 11
364.1390139999999
 21
137.738709
 31
0.0
  0
LINE
  5
9716
330
966A
100
AcDbEntity
  8
1
  6
Continuous
100
AcDbLine
 10
365.2990139999998
 20
138.345709
 30
0.0
 11
365.019014
 21
137.738709
 31
0.0
  0
LINE
  5
9717
330
966A
100
AcDbEntity
  8
1
  6
Continuous
100
AcDbLine
 10
365.019014
 20
137.738709
 30
0.0
 11
364.9990139999999
 21
136.6527089999999
 31
0.0
  0
LINE
  5
9718
330
966A
100
AcDbEntity
  8
1
  6
Continuous
100
AcDbLine
 10
365.2990139999998
 20
106.345709
 30
0.0
 11
365.9090139999997
 21
106.627709
 31
0.0
  0
LINE
  5
9719
330
966A
100
AcDbEntity
  8
1
  6
Continuous
100
AcDbLine
 10
365.9090139999997
 20
106.627709
 30
0.0
 11
366.9990139999999
 21
106.6467089999999
 31
0.0
  0
LINE
  5
971A
330
966A
100
AcDbEntity
  8
1
  6
Continuous
100
AcDbLine
 10
365.9090139999997
 20
107.505709
 30
0.0
 11
366.9990139999999
 21
107.486709
 31
0.0
  0
LINE
  5
971B
330
966A
100
AcDbEntity
  8
1
  6
Continuous
100
AcDbLine
 10
365.2990139999998
 20
107.788709
 30
0.0
 11
365.9090139999997
 21
107.505709
 31
0.0
  0
LINE
  5
971C
330
966A
100
AcDbEntity
  8
1
  6
Continuous
100
AcDbLine
 10
365.019014
 20
108.394709
 30
0.0
 11
364.9990139999999
 21
109.4807089999999
 31
0.0
  0
LINE
  5
971D
330
966A
100
AcDbEntity
  8
1
  6
Continuous
100
AcDbLine
 10
365.2990139999998
 20
107.788709
 30
0.0
 11
365.019014
 21
108.394709
 31
0.0
  0
LINE
  5
971E
330
966A
100
AcDbEntity
  8
1
  6
Continuous
100
AcDbLine
 10
363.859014
 20
107.788709
 30
0.0
 11
364.1390139999999
 21
108.394709
 31
0.0
  0
LINE
  5
971F
330
966A
100
AcDbEntity
  8
1
  6
Continuous
100
AcDbLine
 10
364.1390139999999
 20
108.394709
 30
0.0
 11
364.159014
 21
109.4807089999999
 31
0.0
  0
LINE
  5
9720
330
966A
100
AcDbEntity
  8
1
  6
Continuous
100
AcDbLine
 10
363.259014
 20
107.505709
 30
0.0
 11
362.169014
 21
107.486709
 31
0.0
  0
LINE
  5
9721
330
966A
100
AcDbEntity
  8
1
  6
Continuous
100
AcDbLine
 10
363.859014
 20
107.788709
 30
0.0
 11
363.259014
 21
107.505709
 31
0.0
  0
LINE
  5
9722
330
966A
100
AcDbEntity
  8
1
  6
Continuous
100
AcDbLine
 10
363.859014
 20
106.345709
 30
0.0
 11
363.259014
 21
106.627709
 31
0.0
  0
LINE
  5
9723
330
966A
100
AcDbEntity
  8
1
  6
Continuous
100
AcDbLine
 10
363.259014
 20
106.627709
 30
0.0
 11
362.169014
 21
106.6467089999999
 31
0.0
  0
LINE
  5
9724
330
966A
100
AcDbEntity
  8
1
  6
Continuous
100
AcDbLine
 10
364.1390139999999
 20
105.738709
 30
0.0
 11
364.159014
 21
104.652709
 31
0.0
  0
LINE
  5
9725
330
966A
100
AcDbEntity
  8
1
  6
Continuous
100
AcDbLine
 10
363.859014
 20
106.345709
 30
0.0
 11
364.1390139999999
 21
105.738709
 31
0.0
  0
LINE
  5
9726
330
966A
100
AcDbEntity
  8
1
  6
Continuous
100
AcDbLine
 10
365.2990139999998
 20
106.345709
 30
0.0
 11
365.019014
 21
105.738709
 31
0.0
  0
LINE
  5
9727
330
966A
100
AcDbEntity
  8
1
  6
Continuous
100
AcDbLine
 10
365.019014
 20
105.738709
 30
0.0
 11
364.9990139999999
 21
104.6537089999999
 31
0.0
  0
LINE
  5
9728
330
966A
100
AcDbEntity
  8
1
  6
Continuous
100
AcDbLine
 10
274.9858489999999
 20
265.383709
 30
0.0
 11
272.4858489999999
 21
265.383709
 31
0.0
  0
LINE
  5
9729
330
966A
100
AcDbEntity
  8
1
  6
Continuous
100
AcDbLine
 10
274.9858489999999
 20
226.3837089999999
 30
0.0
 11
272.4858489999999
 21
226.3837089999999
 31
0.0
  0
LINE
  5
972A
330
966A
100
AcDbEntity
  8
1
  6
Continuous
100
AcDbLine
 10
284.685849
 20
258.883709
 30
0.0
 11
284.685849
 21
232.8837089999999
 31
0.0
  0
LINE
  5
972B
330
966A
100
AcDbEntity
  8
1
  6
Continuous
100
AcDbLine
 10
282.185849
 20
258.883709
 30
0.0
 11
282.185849
 21
232.8837089999999
 31
0.0
  0
LINE
  5
972C
330
966A
100
AcDbEntity
  8
1
  6
Continuous
100
AcDbLine
 10
272.4858489999999
 20
265.383709
 30
0.0
 11
272.4858489999999
 21
261.383709
 31
0.0
  0
LINE
  5
972D
330
966A
100
AcDbEntity
  8
4
  6
CENTER
100
AcDbLine
 10
292.4968489999999
 20
245.8837089999999
 30
0.0
 11
276.130849
 21
245.8837089999999
 31
0.0
  0
LINE
  5
972E
330
966A
100
AcDbEntity
  8
1
  6
Continuous
100
AcDbLine
 10
274.9858489999999
 20
230.383709
 30
0.0
 11
274.9858489999999
 21
226.3837089999999
 31
0.0
  0
LINE
  5
972F
330
966A
100
AcDbEntity
  8
1
  6
Continuous
100
AcDbLine
 10
282.185849
 20
258.883709
 30
0.0
 11
274.9858489999999
 21
258.883709
 31
0.0
  0
LINE
  5
9730
330
966A
100
AcDbEntity
  8
1
  6
Continuous
100
AcDbLine
 10
282.185849
 20
232.8837089999999
 30
0.0
 11
274.9858489999999
 21
232.8837089999999
 31
0.0
  0
LINE
  5
9731
330
966A
100
AcDbEntity
  8
1
  6
Continuous
100
AcDbLine
 10
274.9858489999999
 20
265.383709
 30
0.0
 11
274.9858489999999
 21
261.383709
 31
0.0
  0
LINE
  5
9732
330
966A
100
AcDbEntity
  8
1
  6
Continuous
100
AcDbLine
 10
282.185849
 20
261.383709
 30
0.0
 11
274.9858489999999
 21
261.383709
 31
0.0
  0
LINE
  5
9733
330
966A
100
AcDbEntity
  8
1
  6
Continuous
100
AcDbLine
 10
282.185849
 20
230.383709
 30
0.0
 11
274.9858489999999
 21
230.383709
 31
0.0
  0
LINE
  5
9734
330
966A
100
AcDbEntity
  8
1
  6
Continuous
100
AcDbLine
 10
272.4858489999999
 20
230.383709
 30
0.0
 11
272.4858489999999
 21
226.3837089999999
 31
0.0
  0
LINE
  5
9735
330
966A
100
AcDbEntity
  8
1
  6
Continuous
100
AcDbLine
 10
284.685849
 20
148.066709
 30
0.0
 11
272.4858489999999
 21
148.066709
 31
0.0
  0
LINE
  5
9736
330
966A
100
AcDbEntity
  8
1
  6
Continuous
100
AcDbLine
 10
279.685849
 20
73.066709
 30
0.0
 11
272.4858489999999
 21
73.066709
 31
0.0
  0
LINE
  5
9737
330
966A
100
AcDbEntity
  8
1
  6
Continuous
100
AcDbLine
 10
272.4858489999999
 20
73.066709
 30
0.0
 11
272.4858489999999
 21
148.066709
 31
0.0
  0
LINE
  5
9738
330
966A
100
AcDbEntity
  8
1
  6
Continuous
100
AcDbLine
 10
282.185849
 20
75.566709
 30
0.0
 11
282.185849
 21
98.066709
 31
0.0
  0
LINE
  5
9739
330
966A
100
AcDbEntity
  8
1
  6
Continuous
100
AcDbLine
 10
284.685849
 20
98.066709
 30
0.0
 11
284.685849
 21
148.066709
 31
0.0
  0
LINE
  5
973A
330
966A
100
AcDbEntity
  8
1
  6
Continuous
100
AcDbLine
 10
274.9858489999999
 20
73.066709
 30
0.0
 11
274.9858489999999
 21
148.066709
 31
0.0
  0
LINE
  5
973B
330
966A
100
AcDbEntity
  8
1
  6
Continuous
100
AcDbLine
 10
284.685849
 20
98.066709
 30
0.0
 11
282.185849
 21
98.066709
 31
0.0
  0
LINE
  5
973C
330
966A
100
AcDbEntity
  8
1
  6
Continuous
100
AcDbLine
 10
287.462849
 20
241.5117089999998
 30
0.0
 11
286.0018489999998
 21
241.3837089999999
 31
0.0
  0
LINE
  5
973D
330
966A
100
AcDbEntity
  8
1
  6
Continuous
100
AcDbLine
 10
287.462849
 20
250.2557089999999
 30
0.0
 11
286.0018489999998
 21
250.3837089999999
 31
0.0
  0
LINE
  5
973E
330
966A
100
AcDbEntity
  8
1
  6
Continuous
100
AcDbLine
 10
284.7018489999999
 20
246.0597089999999
 30
0.0
 11
286.0018489999998
 21
246.4077089999999
 31
0.0
  0
LINE
  5
973F
330
966A
100
AcDbEntity
  8
1
  6
Continuous
100
AcDbLine
 10
284.7018489999999
 20
245.3597089999999
 30
0.0
 11
286.0018489999998
 21
245.7077089999999
 31
0.0
  0
LINE
  5
9740
330
966A
100
AcDbEntity
  8
1
  6
Continuous
100
AcDbLine
 10
284.7018489999999
 20
241.283709
 30
0.0
 11
286.0018489999998
 21
241.283709
 31
0.0
  0
LINE
  5
9741
330
966A
100
AcDbEntity
  8
1
  6
Continuous
100
AcDbLine
 10
286.0018489999998
 20
250.4837089999998
 30
0.0
 11
286.0018489999998
 21
241.283709
 31
0.0
  0
LINE
  5
9742
330
966A
100
AcDbEntity
  8
1
  6
Continuous
100
AcDbLine
 10
284.7018489999999
 20
250.4837089999998
 30
0.0
 11
286.0018489999998
 21
250.4837089999998
 31
0.0
  0
LINE
  5
9743
330
966A
100
AcDbEntity
  8
1
  6
Continuous
100
AcDbLine
 10
287.462849
 20
102.6947089999999
 30
0.0
 11
286.0018489999998
 21
102.566709
 31
0.0
  0
LINE
  5
9744
330
966A
100
AcDbEntity
  8
1
  6
Continuous
100
AcDbLine
 10
287.462849
 20
111.438709
 30
0.0
 11
286.0018489999998
 21
111.566709
 31
0.0
  0
LINE
  5
9745
330
966A
100
AcDbEntity
  8
1
  6
Continuous
100
AcDbLine
 10
284.7018489999999
 20
107.242709
 30
0.0
 11
286.0018489999998
 21
107.590709
 31
0.0
  0
LINE
  5
9746
330
966A
100
AcDbEntity
  8
1
  6
Continuous
100
AcDbLine
 10
284.7018489999999
 20
106.542709
 30
0.0
 11
286.0018489999998
 21
106.890709
 31
0.0
  0
LINE
  5
9747
330
966A
100
AcDbEntity
  8
1
  6
Continuous
100
AcDbLine
 10
284.7018489999999
 20
102.4667089999999
 30
0.0
 11
286.0018489999998
 21
102.4667089999999
 31
0.0
  0
LINE
  5
9748
330
966A
100
AcDbEntity
  8
1
  6
Continuous
100
AcDbLine
 10
286.0018489999998
 20
111.666709
 30
0.0
 11
286.0018489999998
 21
102.4667089999999
 31
0.0
  0
LINE
  5
9749
330
966A
100
AcDbEntity
  8
1
  6
Continuous
100
AcDbLine
 10
284.7018489999999
 20
111.666709
 30
0.0
 11
286.0018489999998
 21
111.666709
 31
0.0
  0
LINE
  5
974A
330
966A
100
AcDbEntity
  8
1
  6
Continuous
100
AcDbLine
 10
353.9310139999997
 20
97.898709
 30
0.0
 11
375.2290139999999
 21
97.898709
 31
0.0
  0
LINE
  5
974B
330
966A
100
AcDbEntity
  8
1
  6
Continuous
100
AcDbLine
 10
218.6810139999999
 20
238.8837089999999
 30
0.0
 11
221.681014
 21
238.8837089999999
 31
0.0
  0
LINE
  5
974C
330
966A
100
AcDbEntity
  8
1
  6
Continuous
100
AcDbLine
 10
218.6810139999999
 20
252.8837089999999
 30
0.0
 11
221.681014
 21
252.8837089999999
 31
0.0
  0
LINE
  5
974D
330
966A
100
AcDbEntity
  8
1
  6
Continuous
100
AcDbLine
 10
221.681014
 20
238.8837089999999
 30
0.0
 11
221.681014
 21
252.8837089999999
 31
0.0
  0
LINE
  5
974E
330
966A
100
AcDbEntity
  8
1
  6
Continuous
100
AcDbLine
 10
218.6810139999999
 20
245.8837089999999
 30
0.0
 11
221.681014
 21
245.8837089999999
 31
0.0
  0
LINE
  5
974F
330
966A
100
AcDbEntity
  8
2
  6
Continuous
100
AcDbLine
 10
221.681014
 20
238.8837089999999
 30
0.0
 11
218.6810139999999
 21
243.083709
 31
0.0
  0
LINE
  5
9750
330
966A
100
AcDbEntity
  8
2
  6
Continuous
100
AcDbLine
 10
221.681014
 20
245.8837089999999
 30
0.0
 11
218.6810139999999
 21
241.683709
 31
0.0
  0
LINE
  5
9751
330
966A
100
AcDbEntity
  8
2
  6
Continuous
100
AcDbLine
 10
221.682014
 20
245.8837089999999
 30
0.0
 11
218.6810139999999
 21
250.083709
 31
0.0
  0
LINE
  5
9752
330
966A
100
AcDbEntity
  8
2
  6
Continuous
100
AcDbLine
 10
221.681014
 20
252.8837089999999
 30
0.0
 11
218.6810139999999
 21
248.6837089999999
 31
0.0
  0
LINE
  5
9753
330
966A
100
AcDbEntity
  8
1
  6
Continuous
100
AcDbLine
 10
214.781014
 20
96.542709
 30
0.0
 11
214.781014
 21
61.59070899999999
 31
0.0
  0
LINE
  5
9754
330
966A
100
AcDbEntity
  8
1
  6
Continuous
100
AcDbLine
 10
348.582014
 20
73.066709
 30
0.0
 11
348.582014
 21
53.56670900000001
 31
0.0
  0
LINE
  5
9755
330
966A
100
AcDbEntity
  8
1
  6
Continuous
100
AcDbLine
 10
380.5790139999999
 20
73.066709
 30
0.0
 11
380.5790139999999
 21
53.56670900000001
 31
0.0
  0
LINE
  5
9756
330
966A
100
AcDbEntity
  8
1
  6
Continuous
100
AcDbLine
 10
351.882014
 20
98.066709
 30
0.0
 11
351.882014
 21
62.56670899999999
 31
0.0
  0
LINE
  5
9757
330
966A
100
AcDbEntity
  8
1
  6
Continuous
100
AcDbLine
 10
377.279014
 20
98.066709
 30
0.0
 11
377.279014
 21
62.56670899999999
 31
0.0
  0
LINE
  5
9758
330
966A
100
AcDbEntity
  8
1
  6
Continuous
100
AcDbLine
 10
367.4990139999999
 20
149.8667089999998
 30
0.0
 11
374.279014
 21
149.8667089999998
 31
0.0
  0
LINE
  5
9759
330
966A
100
AcDbEntity
  8
1
  6
Continuous
100
AcDbLine
 10
377.279014
 20
159.4297089999997
 30
0.0
 11
377.279014
 21
148.066709
 31
0.0
  0
LINE
  5
975A
330
966A
100
AcDbEntity
  8
1
  6
Continuous
100
AcDbLine
 10
218.6810139999999
 20
173.812709
 30
0.0
 11
218.6810139999999
 21
149.554709
 31
0.0
  0
LINE
  5
975B
330
966A
100
AcDbEntity
  8
1
  6
Continuous
100
AcDbLine
 10
216.6810139999999
 20
149.554709
 30
0.0
 11
218.6810139999999
 21
149.554709
 31
0.0
  0
LINE
  5
975C
330
966A
100
AcDbEntity
  8
1
  6
Continuous
100
AcDbLine
 10
247.323573
 20
252.1337089999999
 30
0.0
 11
247.323573
 21
239.6337089999999
 31
0.0
  0
LINE
  5
975D
330
966A
100
AcDbEntity
  8
1
  6
Continuous
100
AcDbLine
 10
359.582014
 20
218.0517089999999
 30
0.0
 11
364.5790139999999
 21
220.9387089999999
 31
0.0
  0
LINE
  5
975E
330
966A
100
AcDbEntity
  8
1
  6
Continuous
100
AcDbLine
 10
364.5790139999999
 20
209.391709
 30
0.0
 11
369.5790139999999
 21
212.277709
 31
0.0
  0
LINE
  5
975F
330
966A
100
AcDbEntity
  8
1
  6
Continuous
100
AcDbLine
 10
359.582014
 20
218.0517089999999
 30
0.0
 11
359.582014
 21
212.277709
 31
0.0
  0
LINE
  5
9760
330
966A
100
AcDbEntity
  8
1
  6
Continuous
100
AcDbLine
 10
369.5790139999999
 20
218.0517089999999
 30
0.0
 11
369.5790139999999
 21
212.277709
 31
0.0
  0
LINE
  5
9761
330
966A
100
AcDbEntity
  8
1
  6
Continuous
100
AcDbLine
 10
359.582014
 20
212.277709
 30
0.0
 11
364.5790139999999
 21
209.391709
 31
0.0
  0
LINE
  5
9762
330
966A
100
AcDbEntity
  8
1
  6
Continuous
100
AcDbLine
 10
364.5790139999999
 20
220.9387089999999
 30
0.0
 11
369.5790139999999
 21
218.0517089999999
 31
0.0
  0
LINE
  5
9763
330
966A
100
AcDbEntity
  8
4
  6
CENTER
100
AcDbLine
 10
351.0740139999999
 20
215.1647089999999
 30
0.0
 11
378.5790139999999
 21
215.1647089999999
 31
0.0
  0
LINE
  5
9764
330
966A
100
AcDbEntity
  8
4
  6
CENTER
100
AcDbLine
 10
364.5790139999999
 20
228.634709
 30
0.0
 11
364.5790139999999
 21
201.2747089999999
 31
0.0
  0
LINE
  5
9765
330
966A
100
AcDbEntity
  8
1
  6
Continuous
100
AcDbLine
 10
365.6390139999999
 20
214.1087089999998
 30
0.0
 11
365.649014
 21
214.1167089999999
 31
0.0
  0
LINE
  5
9766
330
966A
100
AcDbEntity
  8
1
  6
Continuous
100
AcDbLine
 10
365.649014
 20
214.1167089999999
 30
0.0
 11
367.5690139999999
 21
214.1497089999997
 31
0.0
  0
LINE
  5
9767
330
966A
100
AcDbEntity
  8
1
  6
Continuous
100
AcDbLine
 10
365.6390139999999
 20
216.2207089999998
 30
0.0
 11
365.649014
 21
216.2137089999999
 31
0.0
  0
LINE
  5
9768
330
966A
100
AcDbEntity
  8
1
  6
Continuous
100
AcDbLine
 10
365.649014
 20
216.2127089999999
 30
0.0
 11
367.5690139999999
 21
216.1797089999998
 31
0.0
  0
LINE
  5
9769
330
966A
100
AcDbEntity
  8
1
  6
Continuous
100
AcDbLine
 10
363.529014
 20
216.2207089999998
 30
0.0
 11
363.529014
 21
216.236709
 31
0.0
  0
LINE
  5
976A
330
966A
100
AcDbEntity
  8
1
  6
Continuous
100
AcDbLine
 10
363.529014
 20
216.236709
 30
0.0
 11
363.5690139999999
 21
218.1467089999999
 31
0.0
  0
LINE
  5
976B
330
966A
100
AcDbEntity
  8
1
  6
Continuous
100
AcDbLine
 10
365.6290139999999
 20
216.236709
 30
0.0
 11
365.599014
 21
218.1467089999999
 31
0.0
  0
LINE
  5
976C
330
966A
100
AcDbEntity
  8
1
  6
Continuous
100
AcDbLine
 10
365.6390139999999
 20
216.2217089999999
 30
0.0
 11
365.6290139999999
 21
216.236709
 31
0.0
  0
LINE
  5
976D
330
966A
100
AcDbEntity
  8
1
  6
Continuous
100
AcDbLine
 10
363.529014
 20
214.1087089999998
 30
0.0
 11
363.5090139999999
 21
214.1167089999999
 31
0.0
  0
LINE
  5
976E
330
966A
100
AcDbEntity
  8
1
  6
Continuous
100
AcDbLine
 10
363.5090139999999
 20
214.1167089999999
 30
0.0
 11
361.599014
 21
214.1497089999997
 31
0.0
  0
LINE
  5
976F
330
966A
100
AcDbEntity
  8
1
  6
Continuous
100
AcDbLine
 10
363.5090139999999
 20
216.2127089999999
 30
0.0
 11
361.599014
 21
216.1797089999998
 31
0.0
  0
LINE
  5
9770
330
966A
100
AcDbEntity
  8
1
  6
Continuous
100
AcDbLine
 10
363.529014
 20
216.2207089999998
 30
0.0
 11
363.5090139999999
 21
216.2127089999999
 31
0.0
  0
LINE
  5
9771
330
966A
100
AcDbEntity
  8
1
  6
Continuous
100
AcDbLine
 10
365.6390139999999
 20
214.1087089999998
 30
0.0
 11
365.6290139999999
 21
214.0937089999999
 31
0.0
  0
LINE
  5
9772
330
966A
100
AcDbEntity
  8
1
  6
Continuous
100
AcDbLine
 10
365.6290139999999
 20
214.0937089999999
 30
0.0
 11
365.599014
 21
212.182709
 31
0.0
  0
LINE
  5
9773
330
966A
100
AcDbEntity
  8
1
  6
Continuous
100
AcDbLine
 10
363.529014
 20
214.0937089999999
 30
0.0
 11
363.5690139999999
 21
212.182709
 31
0.0
  0
LINE
  5
9774
330
966A
100
AcDbEntity
  8
1
  6
Continuous
100
AcDbLine
 10
363.529014
 20
214.1087089999998
 30
0.0
 11
363.529014
 21
214.0937089999999
 31
0.0
  0
LINE
  5
9775
330
966A
100
AcDbEntity
  8
4
  6
CENTER
100
AcDbLine
 10
257.731395
 20
245.8837089999999
 30
0.0
 11
231.9707619999999
 21
245.8837089999999
 31
0.0
  0
LINE
  5
9776
330
966A
100
AcDbEntity
  8
1
  6
Continuous
100
AcDbLine
 10
235.4795729999999
 20
256.883709
 30
0.0
 11
235.4795729999999
 21
234.8837089999999
 31
0.0
  0
LINE
  5
9777
330
966A
100
AcDbEntity
  8
1
  6
Continuous
100
AcDbLine
 10
237.4795729999999
 20
256.883709
 30
0.0
 11
237.4795729999999
 21
234.8837089999999
 31
0.0
  0
LINE
  5
9778
330
966A
100
AcDbEntity
  8
1
  6
Continuous
100
AcDbLine
 10
237.4795729999999
 20
256.883709
 30
0.0
 11
235.4795729999999
 21
256.883709
 31
0.0
  0
LINE
  5
9779
330
966A
100
AcDbEntity
  8
1
  6
Continuous
100
AcDbLine
 10
237.4795729999999
 20
234.8837089999999
 30
0.0
 11
235.4795729999999
 21
234.8837089999999
 31
0.0
  0
LINE
  5
977A
330
966A
100
AcDbEntity
  8
1
  6
Continuous
100
AcDbLine
 10
284.7018489999999
 20
143.666709
 30
0.0
 11
286.0018489999998
 21
143.666709
 31
0.0
  0
LINE
  5
977B
330
966A
100
AcDbEntity
  8
1
  6
Continuous
100
AcDbLine
 10
286.0018489999998
 20
143.666709
 30
0.0
 11
286.0018489999998
 21
134.466709
 31
0.0
  0
LINE
  5
977C
330
966A
100
AcDbEntity
  8
1
  6
Continuous
100
AcDbLine
 10
287.462849
 20
143.4387089999999
 30
0.0
 11
286.0018489999998
 21
143.566709
 31
0.0
  0
LINE
  5
977D
330
966A
100
AcDbEntity
  8
1
  6
Continuous
100
AcDbLine
 10
287.462849
 20
134.694709
 30
0.0
 11
286.0018489999998
 21
134.566709
 31
0.0
  0
LINE
  5
977E
330
966A
100
AcDbEntity
  8
1
  6
Continuous
100
AcDbLine
 10
284.7018489999999
 20
134.466709
 30
0.0
 11
286.0018489999998
 21
134.466709
 31
0.0
  0
LINE
  5
977F
330
966A
100
AcDbEntity
  8
1
  6
Continuous
100
AcDbLine
 10
284.7018489999999
 20
138.542709
 30
0.0
 11
286.0018489999998
 21
138.8907089999999
 31
0.0
  0
LINE
  5
9780
330
966A
100
AcDbEntity
  8
1
  6
Continuous
100
AcDbLine
 10
284.7018489999999
 20
139.2427089999999
 30
0.0
 11
286.0018489999998
 21
139.590709
 31
0.0
  0
LINE
  5
9781
330
966A
100
AcDbEntity
  8
1
  6
Continuous
100
AcDbLine
 10
250.4235729999999
 20
168.666709
 30
0.0
 11
250.4235729999999
 21
156.466709
 31
0.0
  0
LINE
  5
9782
330
966A
100
AcDbEntity
  8
1
  6
Continuous
100
AcDbLine
 10
248.923573
 20
168.816709
 30
0.0
 11
248.923573
 21
156.316709
 31
0.0
  0
LINE
  5
9783
330
966A
100
AcDbEntity
  8
1
  6
Continuous
100
AcDbLine
 10
248.923573
 20
168.816709
 30
0.0
 11
247.323573
 21
168.816709
 31
0.0
  0
LINE
  5
9784
330
966A
100
AcDbEntity
  8
1
  6
Continuous
100
AcDbLine
 10
250.4235729999999
 20
168.666709
 30
0.0
 11
248.923573
 21
168.666709
 31
0.0
  0
LINE
  5
9785
330
966A
100
AcDbEntity
  8
1
  6
Continuous
100
AcDbLine
 10
250.4235729999999
 20
164.0667089999998
 30
0.0
 11
248.923573
 21
162.566709
 31
0.0
  0
LINE
  5
9786
330
966A
100
AcDbEntity
  8
1
  6
Continuous
100
AcDbLine
 10
250.4235729999999
 20
162.6527089999999
 30
0.0
 11
248.923573
 21
161.1527089999999
 31
0.0
  0
LINE
  5
9787
330
966A
100
AcDbEntity
  8
1
  6
Continuous
100
AcDbLine
 10
250.4235729999999
 20
156.466709
 30
0.0
 11
248.923573
 21
156.466709
 31
0.0
  0
LINE
  5
9788
330
966A
100
AcDbEntity
  8
1
  6
Continuous
100
AcDbLine
 10
248.923573
 20
156.316709
 30
0.0
 11
247.323573
 21
156.316709
 31
0.0
  0
LINE
  5
9789
330
966A
100
AcDbEntity
  8
1
  6
Continuous
100
AcDbLine
 10
253.977573
 20
156.793709
 30
0.0
 11
250.4235729999999
 21
156.793709
 31
0.0
  0
LINE
  5
978A
330
966A
100
AcDbEntity
  8
1
  6
Continuous
100
AcDbLine
 10
253.977573
 20
159.679709
 30
0.0
 11
250.4235729999999
 21
159.679709
 31
0.0
  0
LINE
  5
978B
330
966A
100
AcDbEntity
  8
1
  6
Continuous
100
AcDbLine
 10
254.423573
 20
166.8967089999999
 30
0.0
 11
254.423573
 21
158.2367089999999
 31
0.0
  0
LINE
  5
978C
330
966A
100
AcDbEntity
  8
1
  6
Continuous
100
AcDbLine
 10
253.977573
 20
165.4537089999998
 30
0.0
 11
250.4235729999999
 21
165.4537089999998
 31
0.0
  0
LINE
  5
978D
330
966A
100
AcDbEntity
  8
1
  6
Continuous
100
AcDbLine
 10
253.977573
 20
168.340709
 30
0.0
 11
250.4235729999999
 21
168.340709
 31
0.0
  0
LINE
  5
978E
330
966A
100
AcDbEntity
  8
1
  6
Continuous
100
AcDbLine
 10
247.323573
 20
168.816709
 30
0.0
 11
247.323573
 21
156.316709
 31
0.0
  0
LINE
  5
978F
330
966A
100
AcDbEntity
  8
4
  6
CENTER
100
AcDbLine
 10
257.7070959999999
 20
162.566709
 30
0.0
 11
231.520135
 21
162.566709
 31
0.0
  0
LINE
  5
9790
330
966A
100
AcDbEntity
  8
1
  6
Continuous
100
AcDbLine
 10
235.4795729999999
 20
173.5667089999997
 30
0.0
 11
235.4795729999999
 21
151.5667089999998
 31
0.0
  0
LINE
  5
9791
330
966A
100
AcDbEntity
  8
1
  6
Continuous
100
AcDbLine
 10
237.4795729999999
 20
173.5667089999997
 30
0.0
 11
237.4795729999999
 21
151.5667089999998
 31
0.0
  0
LINE
  5
9792
330
966A
100
AcDbEntity
  8
1
  6
Continuous
100
AcDbLine
 10
237.4795729999999
 20
173.5667089999997
 30
0.0
 11
235.4795729999999
 21
173.5667089999997
 31
0.0
  0
LINE
  5
9793
330
966A
100
AcDbEntity
  8
1
  6
Continuous
100
AcDbLine
 10
237.4795729999999
 20
151.5667089999998
 30
0.0
 11
235.4795729999999
 21
151.5667089999998
 31
0.0
  0
LINE
  5
9794
330
966A
100
AcDbEntity
  8
1
  6
Continuous
100
AcDbLine
 10
250.4235729999999
 20
251.9837089999998
 30
0.0
 11
250.4235729999999
 21
239.7837089999999
 31
0.0
  0
LINE
  5
9795
330
966A
100
AcDbEntity
  8
1
  6
Continuous
100
AcDbLine
 10
250.4235729999999
 20
247.3837089999999
 30
0.0
 11
248.923573
 21
245.8837089999999
 31
0.0
  0
LINE
  5
9796
330
966A
100
AcDbEntity
  8
1
  6
Continuous
100
AcDbLine
 10
250.4235729999999
 20
245.969709
 30
0.0
 11
248.923573
 21
244.469709
 31
0.0
  0
LINE
  5
9797
330
966A
100
AcDbEntity
  8
1
  6
Continuous
100
AcDbLine
 10
248.923573
 20
252.1337089999999
 30
0.0
 11
248.923573
 21
239.6337089999999
 31
0.0
  0
LINE
  5
9798
330
966A
100
AcDbEntity
  8
1
  6
Continuous
100
AcDbLine
 10
248.923573
 20
252.1337089999999
 30
0.0
 11
247.323573
 21
252.1337089999999
 31
0.0
  0
LINE
  5
9799
330
966A
100
AcDbEntity
  8
1
  6
Continuous
100
AcDbLine
 10
248.923573
 20
239.6337089999999
 30
0.0
 11
247.323573
 21
239.6337089999999
 31
0.0
  0
LINE
  5
979A
330
966A
100
AcDbEntity
  8
1
  6
Continuous
100
AcDbLine
 10
250.4235729999999
 20
239.7837089999999
 30
0.0
 11
248.923573
 21
239.7837089999999
 31
0.0
  0
LINE
  5
979B
330
966A
100
AcDbEntity
  8
1
  6
Continuous
100
AcDbLine
 10
250.4235729999999
 20
251.9837089999998
 30
0.0
 11
248.923573
 21
251.9837089999998
 31
0.0
  0
LINE
  5
979C
330
966A
100
AcDbEntity
  8
1
  6
Continuous
100
AcDbLine
 10
253.8785729999999
 20
245.8837089999999
 30
0.0
 11
250.4235729999999
 21
245.8837089999999
 31
0.0
  0
LINE
  5
979D
330
966A
100
AcDbEntity
  8
1
  6
Continuous
100
AcDbLine
 10
254.423573
 20
240.883709
 30
0.0
 11
250.4235729999999
 21
240.883709
 31
0.0
  0
LINE
  5
979E
330
966A
100
AcDbEntity
  8
1
  6
Continuous
100
AcDbLine
 10
254.423573
 20
250.8837089999999
 30
0.0
 11
250.4235729999999
 21
250.8837089999999
 31
0.0
  0
LINE
  5
979F
330
966A
100
AcDbEntity
  8
1
  6
Continuous
100
AcDbLine
 10
254.423573
 20
250.8837089999999
 30
0.0
 11
254.423573
 21
240.883709
 31
0.0
  0
LINE
  5
97A0
330
966A
100
AcDbEntity
  8
1
  6
Continuous
100
AcDbLine
 10
186.281014
 20
258.883709
 30
0.0
 11
186.281014
 21
232.8837089999999
 31
0.0
  0
LINE
  5
97A1
330
966A
100
AcDbEntity
  8
1
  6
Continuous
100
AcDbLine
 10
187.781014
 20
261.8837089999999
 30
0.0
 11
187.781014
 21
229.8837089999999
 31
0.0
  0
LINE
  5
97A2
330
966A
100
AcDbEntity
  8
1
  6
Continuous
100
AcDbLine
 10
189.2810139999999
 20
261.8837089999999
 30
0.0
 11
189.2810139999999
 21
229.8837089999999
 31
0.0
  0
LINE
  5
97A3
330
966A
100
AcDbEntity
  8
4
  6
CENTER
100
AcDbLine
 10
176.883014
 20
245.8837089999999
 30
0.0
 11
224.864014
 21
245.8837089999999
 31
0.0
  0
LINE
  5
97A4
330
966A
100
AcDbEntity
  8
1
  6
Continuous
100
AcDbLine
 10
187.781014
 20
229.8837089999999
 30
0.0
 11
190.2810139999999
 21
229.8837089999999
 31
0.0
  0
LINE
  5
97A5
330
966A
100
AcDbEntity
  8
1
  6
Continuous
100
AcDbLine
 10
187.781014
 20
261.8837089999999
 30
0.0
 11
190.2810139999999
 21
261.8837089999999
 31
0.0
  0
LINE
  5
97A6
330
966A
100
AcDbEntity
  8
1
  6
Continuous
100
AcDbLine
 10
187.781014
 20
261.8837089999999
 30
0.0
 11
186.281014
 21
258.883709
 31
0.0
  0
LINE
  5
97A7
330
966A
100
AcDbEntity
  8
1
  6
Continuous
100
AcDbLine
 10
186.281014
 20
232.8837089999999
 30
0.0
 11
187.781014
 21
229.8837089999999
 31
0.0
  0
LINE
  5
97A8
330
966A
100
AcDbEntity
  8
1
  6
Continuous
100
AcDbLine
 10
216.6810139999999
 20
258.883709
 30
0.0
 11
216.6810139999999
 21
252.2337089999997
 31
0.0
  0
LINE
  5
97A9
330
966A
100
AcDbEntity
  8
1
  6
Continuous
100
AcDbLine
 10
218.181014
 20
252.2337089999997
 30
0.0
 11
218.181014
 21
239.5337089999999
 31
0.0
  0
LINE
  5
97AA
330
966A
100
AcDbEntity
  8
1
  6
Continuous
100
AcDbLine
 10
190.2810139999999
 20
186.566709
 30
0.0
 11
190.2810139999999
 21
48.56670900000001
 31
0.0
  0
LINE
  5
97AB
330
966A
100
AcDbEntity
  8
5
  6
PHANTOM
100
AcDbLine
 10
130.162014
 20
108.119709
 30
0.0
 11
131.763014
 21
106.518709
 31
0.0
  0
LINE
  5
97AC
330
966A
100
AcDbEntity
  8
5
  6
PHANTOM
100
AcDbLine
 10
182.0450139999999
 20
162.1237089999999
 30
0.0
 11
130.162014
 21
110.240709
 31
0.0
  0
LINE
  5
97AD
330
966A
100
AcDbEntity
  8
5
  6
PHANTOM
100
AcDbLine
 10
186.281014
 20
157.874709
 30
0.0
 11
142.8900139999998
 21
114.483709
 31
0.0
  0
LINE
  5
97AE
330
966A
100
AcDbEntity
  8
5
  6
PHANTOM
100
AcDbLine
 10
148.1940139999998
 20
100.694709
 30
0.0
 11
146.072014
 21
98.57370899999999
 31
0.0
  0
LINE
  5
97AF
330
966A
100
AcDbEntity
  8
5
  6
PHANTOM
100
AcDbLine
 10
132.1540139999999
 20
106.2777089999999
 30
0.0
 11
144.6580139999998
 21
102.109709
 31
0.0
  0
LINE
  5
97B0
330
966A
100
AcDbEntity
  8
5
  6
PHANTOM
100
AcDbLine
 10
144.6580139999998
 20
102.109709
 30
0.0
 11
144.6580139999998
 21
98.57370899999999
 31
0.0
  0
LINE
  5
97B1
330
966A
100
AcDbEntity
  8
5
  6
PHANTOM
100
AcDbLine
 10
142.8900139999998
 20
108.8267089999998
 30
0.0
 11
148.1940139999998
 21
103.523709
 31
0.0
  0
LINE
  5
97B2
330
966A
100
AcDbEntity
  8
5
  6
PHANTOM
100
AcDbLine
 10
184.9730139999999
 20
171.066709
 30
0.0
 11
184.9730139999999
 21
169.194709
 31
0.0
  0
LINE
  5
97B3
330
966A
100
AcDbEntity
  8
1
  6
Continuous
100
AcDbLine
 10
24.481014
 20
162.036709
 30
0.0
 11
24.481014
 21
83.066709
 31
0.0
  0
LINE
  5
97B4
330
966A
100
AcDbEntity
  8
1
  6
Continuous
100
AcDbLine
 10
45.481014
 20
162.036709
 30
0.0
 11
45.481014
 21
83.066709
 31
0.0
  0
LINE
  5
97B5
330
966A
100
AcDbEntity
  8
1
  6
Continuous
100
AcDbLine
 10
26.48101399999999
 20
81.06670900000002
 30
0.0
 11
43.481014
 21
81.06670900000002
 31
0.0
  0
LINE
  5
97B6
330
966A
100
AcDbEntity
  8
1
  6
Continuous
100
AcDbLine
 10
218.181014
 20
173.812709
 30
0.0
 11
218.6810139999999
 21
173.812709
 31
0.0
  0
LINE
  5
97B7
330
966A
100
AcDbEntity
  8
1
  6
Continuous
100
AcDbLine
 10
190.2810139999999
 20
233.2047089999999
 30
0.0
 11
215.302014
 21
233.7157089999998
 31
0.0
  0
LINE
  5
97B8
330
966A
100
AcDbEntity
  8
1
  6
Continuous
100
AcDbLine
 10
190.2810139999999
 20
258.5637089999999
 30
0.0
 11
215.302014
 21
258.0517089999997
 31
0.0
  0
LINE
  5
97B9
330
966A
100
AcDbEntity
  8
1
  6
Continuous
100
AcDbLine
 10
191.2810139999999
 20
252.2337089999997
 30
0.0
 11
218.181014
 21
252.2337089999997
 31
0.0
  0
LINE
  5
97BA
330
966A
100
AcDbEntity
  8
1
  6
Continuous
100
AcDbLine
 10
191.2810139999999
 20
239.5337089999999
 30
0.0
 11
218.181014
 21
239.5337089999999
 31
0.0
  0
LINE
  5
97BB
330
966A
100
AcDbEntity
  8
1
  6
Continuous
100
AcDbLine
 10
216.2810139999999
 20
239.5337089999999
 30
0.0
 11
216.2810139999999
 21
234.7067089999999
 31
0.0
  0
LINE
  5
97BC
330
966A
100
AcDbEntity
  8
1
  6
Continuous
100
AcDbLine
 10
218.6810139999999
 20
169.566709
 30
0.0
 11
221.681014
 21
169.566709
 31
0.0
  0
LINE
  5
97BD
330
966A
100
AcDbEntity
  8
1
  6
Continuous
100
AcDbLine
 10
221.681014
 20
155.566709
 30
0.0
 11
221.681014
 21
169.566709
 31
0.0
  0
LINE
  5
97BE
330
966A
100
AcDbEntity
  8
2
  6
Continuous
100
AcDbLine
 10
221.681014
 20
169.566709
 30
0.0
 11
218.6810139999999
 21
165.3667089999999
 31
0.0
  0
LINE
  5
97BF
330
966A
100
AcDbEntity
  8
2
  6
Continuous
100
AcDbLine
 10
221.681014
 20
162.566709
 30
0.0
 11
218.6810139999999
 21
166.7667089999999
 31
0.0
  0
LINE
  5
97C0
330
966A
100
AcDbEntity
  8
1
  6
Continuous
100
AcDbLine
 10
218.6810139999999
 20
162.566709
 30
0.0
 11
221.681014
 21
162.566709
 31
0.0
  0
LINE
  5
97C1
330
966A
100
AcDbEntity
  8
2
  6
Continuous
100
AcDbLine
 10
221.681014
 20
162.566709
 30
0.0
 11
218.6810139999999
 21
158.3667089999998
 31
0.0
  0
LINE
  5
97C2
330
966A
100
AcDbEntity
  8
2
  6
Continuous
100
AcDbLine
 10
221.681014
 20
155.566709
 30
0.0
 11
218.6810139999999
 21
159.7667089999999
 31
0.0
  0
LINE
  5
97C3
330
966A
100
AcDbEntity
  8
1
  6
Continuous
100
AcDbLine
 10
218.6810139999999
 20
155.566709
 30
0.0
 11
221.681014
 21
155.566709
 31
0.0
  0
LINE
  5
97C4
330
966A
100
AcDbEntity
  8
1
  6
Continuous
100
AcDbLine
 10
218.6810139999999
 20
258.883709
 30
0.0
 11
218.6810139999999
 21
234.7067089999999
 31
0.0
  0
LINE
  5
97C5
330
966A
100
AcDbEntity
  8
1
  6
Continuous
100
AcDbLine
 10
190.2810139999999
 20
261.8837089999999
 30
0.0
 11
190.2810139999999
 21
229.8837089999999
 31
0.0
  0
LINE
  5
97C6
330
966A
100
AcDbEntity
  8
1
  6
Continuous
100
AcDbLine
 10
216.6810139999999
 20
157.554709
 30
0.0
 11
218.6810139999999
 21
157.554709
 31
0.0
  0
LINE
  5
97C7
330
966A
100
AcDbEntity
  8
1
  6
Continuous
100
AcDbLine
 10
216.6810139999999
 20
156.054709
 30
0.0
 11
218.6810139999999
 21
156.054709
 31
0.0
  0
LINE
  5
97C8
330
966A
100
AcDbEntity
  8
1
  6
Continuous
100
AcDbLine
 10
216.6810139999999
 20
258.883709
 30
0.0
 11
218.6810139999999
 21
258.883709
 31
0.0
  0
LINE
  5
97C9
330
966A
100
AcDbEntity
  8
1
  6
Continuous
100
AcDbLine
 10
216.6810139999999
 20
235.964709
 30
0.0
 11
218.6810139999999
 21
235.964709
 31
0.0
  0
LINE
  5
97CA
330
966A
100
AcDbEntity
  8
1
  6
Continuous
100
AcDbLine
 10
216.6810139999999
 20
234.7067089999999
 30
0.0
 11
218.6810139999999
 21
234.7067089999999
 31
0.0
  0
LINE
  5
97CB
330
966A
100
AcDbEntity
  8
1
  6
Continuous
100
AcDbLine
 10
191.2810139999999
 20
258.542709
 30
0.0
 11
191.2810139999999
 21
252.2337089999997
 31
0.0
  0
LINE
  5
97CC
330
966A
100
AcDbEntity
  8
1
  6
Continuous
100
AcDbLine
 10
191.2810139999999
 20
239.5337089999999
 30
0.0
 11
191.2810139999999
 21
233.224709
 31
0.0
  0
ARC
  5
97CD
330
966A
100
AcDbEntity
  8
1
  6
Continuous
100
AcDbCircle
 10
347.582014
 20
75.566709
 30
0.0
 40
2.5
100
AcDbArc
 50
180.0
 51
270.0
  0
ARC
  5
97CE
330
966A
100
AcDbEntity
  8
1
  6
Continuous
100
AcDbCircle
 10
347.582014
 20
145.566709
 30
0.0
 40
2.5
100
AcDbArc
 50
90.0
 51
180.0
  0
ARC
  5
97CF
330
966A
100
AcDbEntity
  8
1
  6
Continuous
100
AcDbCircle
 10
381.5790139999998
 20
145.566709
 30
0.0
 40
2.5
100
AcDbArc
 50
0.0
 51
90.0
  0
ARC
  5
97D0
330
966A
100
AcDbEntity
  8
1
  6
Continuous
100
AcDbCircle
 10
381.5790139999998
 20
75.566709
 30
0.0
 40
2.5
100
AcDbArc
 50
270.0
 51
0.0
  0
CIRCLE
  5
97D1
330
966A
100
AcDbEntity
  8
2
  6
Continuous
100
AcDbCircle
 10
364.5790139999999
 20
162.566709
 30
0.0
 40
3.0
  0
CIRCLE
  5
97D2
330
966A
100
AcDbEntity
  8
1
  6
Continuous
100
AcDbCircle
 10
364.5790139999999
 20
162.566709
 30
0.0
 40
2.458499999999999
  0
ARC
  5
97D3
330
966A
100
AcDbEntity
  8
5
  6
PHANTOM
100
AcDbCircle
 10
114.4810139999999
 20
171.066709
 30
0.0
 40
2.0
100
AcDbArc
 50
0.0
 51
90.0
  0
ARC
  5
97D4
330
966A
100
AcDbEntity
  8
5
  6
PHANTOM
100
AcDbCircle
 10
114.4810139999999
 20
154.066709
 30
0.0
 40
2.0
100
AcDbArc
 50
270.0
 51
0.000001
  0
ARC
  5
97D5
330
966A
100
AcDbEntity
  8
5
  6
PHANTOM
100
AcDbCircle
 10
35.51101400000001
 20
162.566709
 30
0.0
 40
10.5
100
AcDbArc
 50
90.0
 51
270.0
  0
ARC
  5
97D6
330
966A
100
AcDbEntity
  8
1
  6
Continuous
100
AcDbCircle
 10
34.981014
 20
153.1177089999999
 30
0.0
 40
12.2778
100
AcDbArc
 50
39.3076
 51
73.64279999999998
  0
ARC
  5
97D7
330
966A
100
AcDbEntity
  8
1
  6
Continuous
100
AcDbCircle
 10
23.98101399999999
 20
181.5667089999998
 30
0.0
 40
5.0
100
AcDbArc
 50
90.0
 51
180.0
  0
ARC
  5
97D8
330
966A
100
AcDbEntity
  8
1
  6
Continuous
100
AcDbCircle
 10
23.98101399999999
 20
53.56670900000001
 30
0.0
 40
5.0
100
AcDbArc
 50
180.0
 51
270.0
  0
ARC
  5
97D9
330
966A
100
AcDbEntity
  8
1
  6
Continuous
100
AcDbCircle
 10
45.981014
 20
53.56670900000001
 30
0.0
 40
5.0
100
AcDbArc
 50
270.0
 51
0.0
  0
ARC
  5
97DA
330
966A
100
AcDbEntity
  8
1
  6
Continuous
100
AcDbCircle
 10
45.981014
 20
181.5667089999998
 30
0.0
 40
5.0
100
AcDbArc
 50
0.0
 51
90.0
  0
ARC
  5
97DB
330
966A
100
AcDbEntity
  8
1
  6
Continuous
100
AcDbCircle
 10
45.981014
 20
53.56670900000001
 30
0.0
 40
2.0
100
AcDbArc
 50
270.0
 51
0.0
  0
ARC
  5
97DC
330
966A
100
AcDbEntity
  8
1
  6
Continuous
100
AcDbCircle
 10
23.98101399999999
 20
53.56670900000001
 30
0.0
 40
2.0
100
AcDbArc
 50
180.0
 51
270.0
  0
ARC
  5
97DD
330
966A
100
AcDbEntity
  8
1
  6
Continuous
100
AcDbCircle
 10
45.981014
 20
181.5667089999998
 30
0.0
 40
2.0
100
AcDbArc
 50
0.0
 51
90.0
  0
ARC
  5
97DE
330
966A
100
AcDbEntity
  8
1
  6
Continuous
100
AcDbCircle
 10
23.98101399999999
 20
181.5667089999998
 30
0.0
 40
2.0
100
AcDbArc
 50
90.0
 51
180.0
  0
ARC
  5
97DF
330
966A
100
AcDbEntity
  8
1
  6
Continuous
100
AcDbCircle
 10
34.981014
 20
162.566709
 30
0.0
 40
10.65
100
AcDbArc
 50
0.0
 51
180.0
  0
ARC
  5
97E0
330
966A
100
AcDbEntity
  8
1
  6
Continuous
100
AcDbCircle
 10
34.981014
 20
153.1177089999999
 30
0.0
 40
12.2778
100
AcDbArc
 50
113.4779999999998
 51
140.692
  0
ARC
  5
97E1
330
966A
100
AcDbEntity
  8
1
  6
Continuous
100
AcDbCircle
 10
34.981014
 20
153.1177089999999
 30
0.0
 40
12.2778
100
AcDbArc
 50
78.35169999999997
 51
108.769
  0
ARC
  5
97E2
330
966A
100
AcDbEntity
  8
1
  6
Continuous
100
AcDbCircle
 10
375.5790139999998
 20
181.5667089999998
 30
0.0
 40
5.0
100
AcDbArc
 50
0.0
 51
90.0
  0
ARC
  5
97E3
330
966A
100
AcDbEntity
  8
1
  6
Continuous
100
AcDbCircle
 10
353.582014
 20
181.5667089999998
 30
0.0
 40
5.0
100
AcDbArc
 50
90.0
 51
180.0
  0
ARC
  5
97E4
330
966A
100
AcDbEntity
  8
1
  6
Continuous
100
AcDbCircle
 10
353.582014
 20
53.56670900000001
 30
0.0
 40
5.0
100
AcDbArc
 50
180.0
 51
270.0
  0
ARC
  5
97E5
330
966A
100
AcDbEntity
  8
1
  6
Continuous
100
AcDbCircle
 10
375.5790139999998
 20
53.56670900000001
 30
0.0
 40
5.0
100
AcDbArc
 50
270.0
 51
0.0
  0
ARC
  5
97E6
330
966A
100
AcDbEntity
  8
1
  6
Continuous
100
AcDbCircle
 10
364.5790139999999
 20
162.566709
 30
0.0
 40
12.7
100
AcDbArc
 50
119.9999999999999
 51
210.2309999999999
  0
ARC
  5
97E7
330
966A
100
AcDbEntity
  8
1
  6
Continuous
100
AcDbCircle
 10
34.981014
 20
71.566709
 30
0.0
 40
9.65
100
AcDbArc
 50
180.0
 51
0.0
  0
ARC
  5
97E8
330
966A
100
AcDbEntity
  8
1
  6
Continuous
100
AcDbCircle
 10
354.8820140000001
 20
172.5667089999998
 30
0.0
 40
3.0
100
AcDbArc
 50
90.0
 51
180.0
  0
ARC
  5
97E9
330
966A
100
AcDbEntity
  8
1
  6
Continuous
100
AcDbCircle
 10
374.279014
 20
172.5667089999998
 30
0.0
 40
3.0
100
AcDbArc
 50
0.0
 51
90.0
  0
ARC
  5
97EA
330
966A
100
AcDbEntity
  8
1
  6
Continuous
100
AcDbCircle
 10
354.8820140000001
 20
62.56670899999999
 30
0.0
 40
3.0
100
AcDbArc
 50
180.0
 51
270.0
  0
ARC
  5
97EB
330
966A
100
AcDbEntity
  8
1
  6
Continuous
100
AcDbCircle
 10
374.279014
 20
62.56670899999999
 30
0.0
 40
3.0
100
AcDbArc
 50
270.0
 51
0.0
  0
ARC
  5
97EC
330
966A
100
AcDbEntity
  8
1
  6
Continuous
100
AcDbCircle
 10
364.5790139999999
 20
71.685709
 30
0.0
 40
11.6506
100
AcDbArc
 50
180.0
 51
0.0
  0
ARC
  5
97ED
330
966A
100
AcDbEntity
  8
1
  6
Continuous
100
AcDbCircle
 10
353.9310139999997
 20
96.898709
 30
0.0
 40
1.0
100
AcDbArc
 50
90.0
 51
180.0
  0
ARC
  5
97EE
330
966A
100
AcDbEntity
  8
1
  6
Continuous
100
AcDbCircle
 10
375.2290139999999
 20
96.898709
 30
0.0
 40
1.0
100
AcDbArc
 50
0.0
 51
90.0
  0
ARC
  5
97EF
330
966A
100
AcDbEntity
  8
1
  6
Continuous
100
AcDbCircle
 10
354.8820140000001
 20
152.8667089999999
 30
0.0
 40
3.0
100
AcDbArc
 50
180.0
 51
270.0
  0
ARC
  5
97F0
330
966A
100
AcDbEntity
  8
1
  6
Continuous
100
AcDbCircle
 10
374.279014
 20
152.8667089999999
 30
0.0
 40
3.0
100
AcDbArc
 50
270.0
 51
0.0
  0
ARC
  5
97F1
330
966A
100
AcDbEntity
  8
1
  6
Continuous
100
AcDbCircle
 10
364.5790139999999
 20
162.566709
 30
0.0
 40
10.2
100
AcDbArc
 50
62.6784
 51
117.322
  0
ARC
  5
97F2
330
966A
100
AcDbEntity
  8
1
  6
Continuous
100
AcDbCircle
 10
369.489014
 20
172.073709
 30
0.0
 40
0.5
100
AcDbArc
 50
242.6779999999999
 51
330.0
  0
ARC
  5
97F3
330
966A
100
AcDbEntity
  8
1
  6
Continuous
100
AcDbCircle
 10
359.671014
 20
172.073709
 30
0.0
 40
0.5
100
AcDbArc
 50
210.0
 51
297.3219999999999
  0
CIRCLE
  5
97F4
330
966A
100
AcDbEntity
  8
1
  6
Continuous
100
AcDbCircle
 10
364.5790139999999
 20
162.566709
 30
0.0
 40
3.458499999999999
  0
ARC
  5
97F5
330
966A
100
AcDbEntity
  8
1
  6
Continuous
100
AcDbCircle
 10
364.659014
 20
162.5547089999997
 30
0.0
 40
13.0
100
AcDbArc
 50
210.0
 51
60.0
  0
ARC
  5
97F6
330
966A
100
AcDbEntity
  8
1
  6
Continuous
100
AcDbCircle
 10
364.659014
 20
162.5547089999997
 30
0.0
 40
10.0
100
AcDbArc
 50
60.0
 51
210.0
  0
ARC
  5
97F7
330
966A
100
AcDbEntity
  8
1
  6
Continuous
100
AcDbCircle
 10
190.2810139999999
 20
60.566709
 30
0.0
 40
1.0
100
AcDbArc
 50
270.0
 51
0.0
  0
ARC
  5
97F8
330
966A
100
AcDbEntity
  8
1
  6
Continuous
100
AcDbCircle
 10
192.2810139999999
 20
77.066709
 30
0.0
 40
1.0
100
AcDbArc
 50
90.0
 51
180.0
  0
ARC
  5
97F9
330
966A
100
AcDbEntity
  8
1
  6
Continuous
100
AcDbCircle
 10
198.2810139999999
 20
79.066709
 30
0.0
 40
1.0
100
AcDbArc
 50
270.0
 51
0.0
  0
ARC
  5
97FA
330
966A
100
AcDbEntity
  8
1
  6
Continuous
100
AcDbCircle
 10
190.2810139999999
 20
174.5667089999997
 30
0.0
 40
1.0
100
AcDbArc
 50
0.0
 51
90.0
  0
ARC
  5
97FB
330
966A
100
AcDbEntity
  8
1
  6
Continuous
100
AcDbCircle
 10
200.281014
 20
149.168709
 30
0.0
 40
1.0
100
AcDbArc
 50
91.0312
 51
180.0
  0
ARC
  5
97FC
330
966A
100
AcDbEntity
  8
1
  6
Continuous
100
AcDbCircle
 10
200.281014
 20
151.168709
 30
0.0
 40
1.0
100
AcDbArc
 50
271.031
 51
0.0
  0
ARC
  5
97FD
330
966A
100
AcDbEntity
  8
1
  6
Continuous
100
AcDbCircle
 10
200.281014
 20
98.874709
 30
0.0
 40
1.0
100
AcDbArc
 50
180.0
 51
268.595
  0
ARC
  5
97FE
330
966A
100
AcDbEntity
  8
1
  6
Continuous
100
AcDbCircle
 10
213.781014
 20
61.59070899999999
 30
0.0
 40
1.0
100
AcDbArc
 50
271.4049999999999
 51
0.0
  0
ARC
  5
97FF
330
966A
100
AcDbEntity
  8
1
  6
Continuous
100
AcDbCircle
 10
213.781014
 20
96.542709
 30
0.0
 40
1.0
100
AcDbArc
 50
0.0
 51
88.59489999999999
  0
ARC
  5
9800
330
966A
100
AcDbEntity
  8
1
  6
Continuous
100
AcDbCircle
 10
215.281014
 20
151.4387089999999
 30
0.0
 40
1.0
100
AcDbArc
 50
271.031
 51
0.0
  0
ARC
  5
9801
330
966A
100
AcDbEntity
  8
1
  6
Continuous
100
AcDbCircle
 10
186.4730139999998
 20
82.56670900000001
 30
0.0
 40
1.5
100
AcDbArc
 50
180.0
 51
262.645965
  0
ARC
  5
9802
330
966A
100
AcDbEntity
  8
1
  6
Continuous
100
AcDbCircle
 10
190.9730139999998
 20
162.566709
 30
0.0
 40
10.0
100
AcDbArc
 50
117.982379
 51
135.0
  0
ARC
  5
9803
330
966A
100
AcDbEntity
  8
1
  6
Continuous
100
AcDbCircle
 10
174.9730139999998
 20
155.939709
 30
0.0
 40
10.0
100
AcDbArc
 50
0.0
 51
45.0
  0
ARC
  5
9804
330
966A
100
AcDbEntity
  8
1
  6
Continuous
100
AcDbCircle
 10
181.7810139999999
 20
165.395709
 30
0.0
 40
1.5
100
AcDbArc
 50
135.0
 51
225.0
  0
ARC
  5
9805
330
966A
100
AcDbEntity
  8
1
  6
Continuous
100
AcDbCircle
 10
358.082014
 20
82.56670900000001
 30
0.0
 40
1.3
100
AcDbArc
 50
349.809
 51
10.1906
  0
ARC
  5
9806
330
966A
100
AcDbEntity
  8
1
  6
Continuous
100
AcDbCircle
 10
358.082014
 20
82.56670900000001
 30
0.0
 40
1.3
100
AcDbArc
 50
79.80940000000003
 51
100.191
  0
ARC
  5
9807
330
966A
100
AcDbEntity
  8
1
  6
Continuous
100
AcDbCircle
 10
358.082014
 20
82.56670900000001
 30
0.0
 40
1.3
100
AcDbArc
 50
169.809
 51
190.1909999999998
  0
ARC
  5
9808
330
966A
100
AcDbEntity
  8
1
  6
Continuous
100
AcDbCircle
 10
358.082014
 20
82.56670900000001
 30
0.0
 40
1.3
100
AcDbArc
 50
259.809
 51
280.1909999999999
  0
CIRCLE
  5
9809
330
966A
100
AcDbEntity
  8
1
  6
Continuous
100
AcDbCircle
 10
358.082014
 20
82.56670900000001
 30
0.0
 40
2.6
  0
ARC
  5
980A
330
966A
100
AcDbEntity
  8
1
  6
Continuous
100
AcDbCircle
 10
371.0790139999998
 20
82.56670900000001
 30
0.0
 40
1.3
100
AcDbArc
 50
349.809
 51
10.1906
  0
ARC
  5
980B
330
966A
100
AcDbEntity
  8
1
  6
Continuous
100
AcDbCircle
 10
371.0790139999998
 20
82.56670900000001
 30
0.0
 40
1.3
100
AcDbArc
 50
79.80940000000003
 51
100.191
  0
ARC
  5
980C
330
966A
100
AcDbEntity
  8
1
  6
Continuous
100
AcDbCircle
 10
371.0790139999998
 20
82.56670900000001
 30
0.0
 40
1.3
100
AcDbArc
 50
169.809
 51
190.1909999999998
  0
ARC
  5
980D
330
966A
100
AcDbEntity
  8
1
  6
Continuous
100
AcDbCircle
 10
371.0790139999998
 20
82.56670900000001
 30
0.0
 40
1.3
100
AcDbArc
 50
259.809
 51
280.1909999999999
  0
CIRCLE
  5
980E
330
966A
100
AcDbEntity
  8
1
  6
Continuous
100
AcDbCircle
 10
371.0790139999998
 20
82.56670900000001
 30
0.0
 40
2.6
  0
ARC
  5
980F
330
966A
100
AcDbEntity
  8
1
  6
Continuous
100
AcDbCircle
 10
364.5790139999999
 20
139.0667089999998
 30
0.0
 40
2.45
100
AcDbArc
 50
350.129
 51
9.870889999999999
  0
ARC
  5
9810
330
966A
100
AcDbEntity
  8
1
  6
Continuous
100
AcDbCircle
 10
364.5790139999999
 20
139.0667089999998
 30
0.0
 40
2.45
100
AcDbArc
 50
80.12909999999996
 51
99.87090000000002
  0
ARC
  5
9811
330
966A
100
AcDbEntity
  8
1
  6
Continuous
100
AcDbCircle
 10
364.5790139999999
 20
139.0667089999998
 30
0.0
 40
2.45
100
AcDbArc
 50
170.129
 51
189.871
  0
ARC
  5
9812
330
966A
100
AcDbEntity
  8
1
  6
Continuous
100
AcDbCircle
 10
364.5790139999999
 20
139.0667089999998
 30
0.0
 40
2.45
100
AcDbArc
 50
260.129
 51
279.8709999999999
  0
CIRCLE
  5
9813
330
966A
100
AcDbEntity
  8
1
  6
Continuous
100
AcDbCircle
 10
364.5790139999999
 20
139.0667089999998
 30
0.0
 40
4.5
  0
ARC
  5
9814
330
966A
100
AcDbEntity
  8
1
  6
Continuous
100
AcDbCircle
 10
364.5790139999999
 20
107.066709
 30
0.0
 40
2.45
100
AcDbArc
 50
350.129
 51
9.870889999999999
  0
ARC
  5
9815
330
966A
100
AcDbEntity
  8
1
  6
Continuous
100
AcDbCircle
 10
364.5790139999999
 20
107.066709
 30
0.0
 40
2.45
100
AcDbArc
 50
80.12909999999996
 51
99.87090000000002
  0
ARC
  5
9816
330
966A
100
AcDbEntity
  8
1
  6
Continuous
100
AcDbCircle
 10
364.5790139999999
 20
107.066709
 30
0.0
 40
2.45
100
AcDbArc
 50
170.129
 51
189.871
  0
ARC
  5
9817
330
966A
100
AcDbEntity
  8
1
  6
Continuous
100
AcDbCircle
 10
364.5790139999999
 20
107.066709
 30
0.0
 40
2.45
100
AcDbArc
 50
260.129
 51
279.8709999999999
  0
CIRCLE
  5
9818
330
966A
100
AcDbEntity
  8
1
  6
Continuous
100
AcDbCircle
 10
364.5790139999999
 20
107.066709
 30
0.0
 40
4.5
  0
ARC
  5
9819
330
966A
100
AcDbEntity
  8
1
  6
Continuous
100
AcDbCircle
 10
282.185849
 20
258.883709
 30
0.0
 40
2.5
100
AcDbArc
 50
0.0
 51
90.0
  0
ARC
  5
981A
330
966A
100
AcDbEntity
  8
1
  6
Continuous
100
AcDbCircle
 10
282.185849
 20
232.8837089999999
 30
0.0
 40
2.5
100
AcDbArc
 50
270.0
 51
0.000005
  0
ARC
  5
981B
330
966A
100
AcDbEntity
  8
1
  6
Continuous
100
AcDbCircle
 10
274.9858489999999
 20
230.383709
 30
0.0
 40
2.5
100
AcDbArc
 50
90.0
 51
180.0
  0
ARC
  5
981C
330
966A
100
AcDbEntity
  8
1
  6
Continuous
100
AcDbCircle
 10
274.9858489999999
 20
261.383709
 30
0.0
 40
2.5
100
AcDbArc
 50
180.0
 51
270.0
  0
ARC
  5
981D
330
966A
100
AcDbEntity
  8
1
  6
Continuous
100
AcDbCircle
 10
279.685849
 20
75.566709
 30
0.0
 40
2.5
100
AcDbArc
 50
270.0
 51
0.0
  0
ARC
  5
981E
330
966A
100
AcDbEntity
  8
1
  6
Continuous
100
AcDbCircle
 10
287.3238489999998
 20
243.1057089999999
 30
0.0
 40
1.6
100
AcDbArc
 50
275.0
 51
344.5059999999998
  0
ARC
  5
981F
330
966A
100
AcDbEntity
  8
1
  6
Continuous
100
AcDbCircle
 10
277.301849
 20
245.8837089999999
 30
0.0
 40
12.0
100
AcDbArc
 50
344.5059999999998
 51
15.494
  0
ARC
  5
9820
330
966A
100
AcDbEntity
  8
1
  6
Continuous
100
AcDbCircle
 10
287.3238489999998
 20
248.6617089999997
 30
0.0
 40
1.6
100
AcDbArc
 50
15.494
 51
84.99990000000002
  0
ARC
  5
9821
330
966A
100
AcDbEntity
  8
1
  6
Continuous
100
AcDbCircle
 10
287.3238489999998
 20
104.288709
 30
0.0
 40
1.6
100
AcDbArc
 50
275.0
 51
344.5059999999998
  0
ARC
  5
9822
330
966A
100
AcDbEntity
  8
1
  6
Continuous
100
AcDbCircle
 10
277.301849
 20
107.066709
 30
0.0
 40
12.0
100
AcDbArc
 50
344.5059999999998
 51
15.494
  0
ARC
  5
9823
330
966A
100
AcDbEntity
  8
1
  6
Continuous
100
AcDbCircle
 10
287.3238489999998
 20
109.844709
 30
0.0
 40
1.6
100
AcDbArc
 50
15.494
 51
84.99990000000002
  0
ARC
  5
9824
330
966A
100
AcDbEntity
  8
1
  6
Continuous
100
AcDbCircle
 10
364.5790139999999
 20
162.566709
 30
0.0
 40
7.0
100
AcDbArc
 50
89.41549999999997
 51
90.58519999999999
  0
ARC
  5
9825
330
966A
100
AcDbEntity
  8
1
  6
Continuous
100
AcDbCircle
 10
364.5790139999999
 20
162.566709
 30
0.0
 40
7.0
100
AcDbArc
 50
179.4149999999999
 51
180.5849999999999
  0
ARC
  5
9826
330
966A
100
AcDbEntity
  8
1
  6
Continuous
100
AcDbCircle
 10
364.5790139999999
 20
162.566709
 30
0.0
 40
7.0
100
AcDbArc
 50
269.415
 51
270.584
  0
ARC
  5
9827
330
966A
100
AcDbEntity
  8
1
  6
Continuous
100
AcDbCircle
 10
364.5790139999999
 20
162.566709
 30
0.0
 40
7.0
100
AcDbArc
 50
359.416
 51
0.5844680000000002
  0
CIRCLE
  5
9828
330
966A
100
AcDbEntity
  8
1
  6
Continuous
100
AcDbCircle
 10
364.5790139999999
 20
215.1647089999999
 30
0.0
 40
11.0
  0
CIRCLE
  5
9829
330
966A
100
AcDbEntity
  8
1
  6
Continuous
100
AcDbCircle
 10
364.5790139999999
 20
215.1647089999999
 30
0.0
 40
5.0
  0
CIRCLE
  5
982A
330
966A
100
AcDbEntity
  8
1
  6
Continuous
100
AcDbCircle
 10
364.5790139999999
 20
215.1647089999999
 30
0.0
 40
6.099999999999997
  0
CIRCLE
  5
982B
330
966A
100
AcDbEntity
  8
1
  6
Continuous
100
AcDbCircle
 10
364.5790139999999
 20
215.1647089999999
 30
0.0
 40
6.25
  0
ARC
  5
982C
330
966A
100
AcDbEntity
  8
1
  6
Continuous
100
AcDbCircle
 10
364.5790139999999
 20
215.1647089999999
 30
0.0
 40
3.149999999999999
100
AcDbArc
 50
341.2029999999999
 51
18.79739999999999
  0
ARC
  5
982D
330
966A
100
AcDbEntity
  8
1
  6
Continuous
100
AcDbCircle
 10
364.5790139999999
 20
215.1647089999999
 30
0.0
 40
3.149999999999999
100
AcDbArc
 50
71.2026
 51
108.797
  0
ARC
  5
982E
330
966A
100
AcDbEntity
  8
1
  6
Continuous
100
AcDbCircle
 10
364.5790139999999
 20
215.1647089999999
 30
0.0
 40
3.149999999999999
100
AcDbArc
 50
161.203
 51
198.7969999999999
  0
ARC
  5
982F
330
966A
100
AcDbEntity
  8
1
  6
Continuous
100
AcDbCircle
 10
364.5790139999999
 20
215.1647089999999
 30
0.0
 40
3.149999999999999
100
AcDbArc
 50
251.203
 51
288.7970000000001
  0
ARC
  5
9830
330
966A
100
AcDbEntity
  8
1
  6
Continuous
100
AcDbCircle
 10
287.3238489999998
 20
141.8447089999999
 30
0.0
 40
1.6
100
AcDbArc
 50
15.494
 51
84.99990000000002
  0
ARC
  5
9831
330
966A
100
AcDbEntity
  8
1
  6
Continuous
100
AcDbCircle
 10
287.3238489999998
 20
136.288709
 30
0.0
 40
1.6
100
AcDbArc
 50
275.0
 51
344.5059999999998
  0
ARC
  5
9832
330
966A
100
AcDbEntity
  8
1
  6
Continuous
100
AcDbCircle
 10
277.301849
 20
139.0667089999998
 30
0.0
 40
12.0
100
AcDbArc
 50
344.5059999999998
 51
15.494
  0
ARC
  5
9833
330
966A
100
AcDbEntity
  8
1
  6
Continuous
100
AcDbCircle
 10
244.8715729999999
 20
162.566709
 30
0.0
 40
9.552699999999999
100
AcDbArc
 50
342.411
 51
17.5893
  0
ARC
  5
9834
330
966A
100
AcDbEntity
  8
1
  6
Continuous
100
AcDbCircle
 10
251.868573
 20
158.2367089999999
 30
0.0
 40
2.55566
100
AcDbArc
 50
325.613
 51
34.3866
  0
ARC
  5
9835
330
966A
100
AcDbEntity
  8
1
  6
Continuous
100
AcDbCircle
 10
251.868573
 20
166.8967089999999
 30
0.0
 40
2.55566
100
AcDbArc
 50
325.613
 51
34.3866
  0
ARC
  5
9836
330
966A
100
AcDbEntity
  8
1
  6
Continuous
100
AcDbCircle
 10
247.2035729999999
 20
243.3837089999999
 30
0.0
 40
7.220389999999997
100
AcDbArc
 50
339.7419999999997
 51
20.2576
  0
ARC
  5
9837
330
966A
100
AcDbEntity
  8
1
  6
Continuous
100
AcDbCircle
 10
247.2035729999999
 20
248.3837089999999
 30
0.0
 40
7.220389999999997
100
AcDbArc
 50
339.7419999999997
 51
20.2576
  0
ARC
  5
9838
330
966A
100
AcDbEntity
  8
5
  6
PHANTOM
100
AcDbCircle
 10
145.365014
 20
99.28070900000001
 30
0.0
 40
1.0
100
AcDbArc
 50
225.0
 51
315.0
  0
ARC
  5
9839
330
966A
100
AcDbEntity
  8
5
  6
PHANTOM
100
AcDbCircle
 10
132.470014
 20
107.2257089999999
 30
0.0
 40
1.0
100
AcDbArc
 50
225.0
 51
251.5649999999999
  0
ARC
  5
983A
330
966A
100
AcDbEntity
  8
5
  6
PHANTOM
100
AcDbCircle
 10
131.2230139999997
 20
109.1807089999998
 30
0.0
 40
1.5
100
AcDbArc
 50
135.0
 51
225.0
  0
ARC
  5
983B
330
966A
100
AcDbEntity
  8
5
  6
PHANTOM
100
AcDbCircle
 10
146.7790139999999
 20
102.109709
 30
0.0
 40
2.0
100
AcDbArc
 50
315.0
 51
45.0
  0
ARC
  5
983C
330
966A
100
AcDbEntity
  8
5
  6
PHANTOM
100
AcDbCircle
 10
145.7190139999999
 20
111.655709
 30
0.0
 40
4.0
100
AcDbArc
 50
135.0
 51
225.0
  0
ARC
  5
983D
330
966A
100
AcDbEntity
  8
5
  6
PHANTOM
100
AcDbCircle
 10
174.9730139999998
 20
169.194709
 30
0.0
 40
10.0
100
AcDbArc
 50
315.0
 51
0.000001
  0
ARC
  5
983E
330
966A
100
AcDbEntity
  8
5
  6
PHANTOM
100
AcDbCircle
 10
186.4730139999998
 20
171.066709
 30
0.0
 40
1.5
100
AcDbArc
 50
97.35403499999998
 51
180.0
  0
ARC
  5
983F
330
966A
100
AcDbEntity
  8
1
  6
Continuous
100
AcDbCircle
 10
34.981014
 20
162.036709
 30
0.0
 40
10.5
100
AcDbArc
 50
0.0
 51
180.0
  0
ARC
  5
9840
330
966A
100
AcDbEntity
  8
1
  6
Continuous
100
AcDbCircle
 10
26.48101399999999
 20
83.066709
 30
0.0
 40
2.0
100
AcDbArc
 50
180.0
 51
270.0
  0
ARC
  5
9841
330
966A
100
AcDbEntity
  8
1
  6
Continuous
100
AcDbCircle
 10
43.481014
 20
83.066709
 30
0.0
 40
2.0
100
AcDbArc
 50
270.0
 51
0.0
  0
ARC
  5
9842
330
966A
100
AcDbEntity
  8
1
  6
Continuous
100
AcDbCircle
 10
215.281014
 20
257.0517089999999
 30
0.0
 40
1.0
100
AcDbArc
 50
0.0
 51
88.82819999999998
  0
ARC
  5
9843
330
966A
100
AcDbEntity
  8
1
  6
Continuous
100
AcDbCircle
 10
215.281014
 20
234.7157089999999
 30
0.0
 40
1.0
100
AcDbArc
 50
271.172
 51
0.0
  0
LINE
  5
9844
330
966A
100
AcDbEntity
  8
1
  6
Continuous
100
AcDbLine
 10
185.3634249999998
 20
256.383709
 30
0.0
 11
186.281014
 21
256.383709
 31
0.0
  0
LINE
  5
9845
330
966A
100
AcDbEntity
  8
1
  6
Continuous
100
AcDbLine
 10
185.3634249999998
 20
235.3837089999999
 30
0.0
 11
186.281014
 21
235.3837089999999
 31
0.0
  0
ARC
  5
9846
330
966A
100
AcDbEntity
  8
1
  6
Continuous
100
AcDbCircle
 10
194.375735
 20
245.8837089999999
 30
0.0
 40
14.094721
100
AcDbArc
 50
133.490942
 51
226.509058
  0
ARC
  5
9847
330
966A
100
AcDbEntity
  8
1
  6
Continuous
100
AcDbCircle
 10
185.3634249999998
 20
255.383709
 30
0.0
 40
1.0
100
AcDbArc
 50
90.0
 51
133.490942
  0
ARC
  5
9848
330
966A
100
AcDbEntity
  8
1
  6
Continuous
100
AcDbCircle
 10
185.3634249999998
 20
236.383709
 30
0.0
 40
1.0
100
AcDbArc
 50
226.509058
 51
270.0
  0
LINE
  5
9849
330
966A
100
AcDbEntity
  8
1
  6
Continuous
100
AcDbLine
 10
216.2810139999999
 20
252.2337089999997
 30
0.0
 11
216.2810139999999
 21
257.0517089999999
 31
0.0
  0
LINE
  5
984A
330
966A
100
AcDbEntity
  8
1
  6
Continuous
100
AcDbLine
 10
216.6810139999999
 20
239.5337089999999
 30
0.0
 11
216.6810139999999
 21
234.7067089999999
 31
0.0
  0
LINE
  5
984B
330
966A
100
AcDbEntity
  8
1
  6
Continuous
100
AcDbLine
 10
216.2810139999999
 20
151.4387089999999
 30
0.0
 11
216.2810139999999
 21
173.565709
 31
0.0
  0
LINE
  5
984C
330
966A
100
AcDbEntity
  8
1
  6
Continuous
100
AcDbLine
 10
216.6810139999999
 20
155.566709
 30
0.0
 11
216.2810139999999
 21
155.566709
 31
0.0
  0
LINE
  5
984D
330
966A
100
AcDbEntity
  8
1
  6
Continuous
100
AcDbLine
 10
216.6810139999999
 20
169.566709
 30
0.0
 11
216.2810139999999
 21
169.566709
 31
0.0
  0
LINE
  5
984E
330
966A
100
AcDbEntity
  8
1
  6
Continuous
100
AcDbLine
 10
216.6810139999999
 20
252.463709
 30
0.0
 11
218.6810139999999
 21
252.463709
 31
0.0
  0
LINE
  5
984F
330
966A
100
AcDbEntity
  8
1
  6
Continuous
100
AcDbLine
 10
216.6810139999999
 20
252.8837089999999
 30
0.0
 11
216.2810139999999
 21
252.8837089999999
 31
0.0
  0
LINE
  5
9850
330
966A
100
AcDbEntity
  8
1
  6
Continuous
100
AcDbLine
 10
216.6810139999999
 20
238.8837089999999
 30
0.0
 11
216.2810139999999
 21
238.8837089999999
 31
0.0
  0
LINE
  5
9851
330
966A
100
AcDbEntity
  8
1
  6
Continuous
100
AcDbLine
 10
25.331014
 20
80.566709
 30
0.0
 11
44.631014
 21
80.566709
 31
0.0
  0
ENDSEC
  0
SECTION
  2
OBJECTS
  0
DICTIONARY
  5
9658
330
0
100
AcDbDictionary
281
     1
  3
ACAD_CIP_PREVIOUS_PRODUCT_INFO
350
98B7
  3
ACAD_COLOR
350
9899
  3
ACAD_DETAILVIEWSTYLE
350
98B2
  3
ACAD_GROUP
350
9659
  3
ACAD_LAYOUT
350
9665
  3
ACAD_MATERIAL
350
9867
  3
ACAD_MLEADERSTYLE
350
98AE
  3
ACAD_MLINESTYLE
350
9662
  3
ACAD_PLOTSETTINGS
350
9664
  3
ACAD_PLOTSTYLENAME
350
9865
  3
ACAD_SCALELIST
350
989C
  3
ACAD_SECTIONVIEWSTYLE
350
98B0
  3
ACAD_TABLESTYLE
350
989A
  3
ACAD_VISUALSTYLE
350
9880
  3
ACDB_RECOMPOSE_DATA
350
98D5
  3
AcDbVariableDictionary
350
98C8
  3
DWGPROPS
350
98D6
  0
DICTIONARY
  5
98B8
330
965C
100
AcDbDictionary
280
     1
281
     1
  3
ADSK_XREC_LAYER_RECONCILED
360
98B9
  0
DICTIONARY
  5
98BA
330
9672
100
AcDbDictionary
280
     1
281
     1
  3
ADSK_XREC_LAYER_RECONCILED
360
98BB
  0
DICTIONARY
  5
98BC
330
9673
100
AcDbDictionary
280
     1
281
     1
  3
ADSK_XREC_LAYER_RECONCILED
360
98BD
  0
DICTIONARY
  5
98BE
330
9674
100
AcDbDictionary
280
     1
281
     1
  3
ADSK_XREC_LAYER_RECONCILED
360
98BF
  0
DICTIONARY
  5
98C0
330
9675
100
AcDbDictionary
280
     1
281
     1
  3
ADSK_XREC_LAYER_RECONCILED
360
98C1
  0
DICTIONARY
  5
98C2
330
9676
100
AcDbDictionary
280
     1
281
     1
  3
ADSK_XREC_LAYER_RECONCILED
360
98C3
  0
DICTIONARY
  5
98C4
330
9677
100
AcDbDictionary
280
     1
281
     1
  3
ADSK_XREC_LAYER_RECONCILED
360
98C5
  0
DICTIONARY
  5
98C6
330
9678
100
AcDbDictionary
280
     1
281
     1
  3
ADSK_XREC_LAYER_RECONCILED
360
98C7
  0
DICTIONARY
  5
9860
330
966A
100
AcDbDictionary
281
     1
  3
ACAD_LAYOUTSELFREF
350
9861
  0
DICTIONARY
  5
985E
330
9666
100
AcDbDictionary
281
     1
  3
ACAD_LAYOUTSELFREF
350
985F
  0
XRECORD
  5
98B7
102
{ACAD_REACTORS
330
9658
102
}
330
9658
100
AcDbXrecord
280
     1
300
ACDLT
300
2014
300
ACDLT_F_S
  0
DICTIONARY
  5
9899
102
{ACAD_REACTORS
330
9658
102
}
330
9658
100
AcDbDictionary
281
     1
  0
DICTIONARY
  5
98B2
102
{ACAD_REACTORS
330
9658
102
}
330
9658
100
AcDbDictionary
281
     1
  3
Imperial24
350
98B3
  0
DICTIONARY
  5
9659
102
{ACAD_REACTORS
330
9658
102
}
330
9658
100
AcDbDictionary
281
     1
  0
DICTIONARY
  5
9665
102
{ACAD_REACTORS
330
9658
102
}
330
9658
100
AcDbDictionary
281
     1
  3
Model
350
98B4
  3
レイアウト1
350
98B5
  0
DICTIONARY
  5
9867
102
{ACAD_REACTORS
330
9658
102
}
330
9658
100
AcDbDictionary
281
     1
  3
ByBlock
350
9870
  3
ByLayer
350
9868
  3
Global
350
9878
  0
DICTIONARY
  5
98AE
102
{ACAD_REACTORS
330
9658
102
}
330
9658
100
AcDbDictionary
281
     1
  3
Standard
350
98AF
  0
DICTIONARY
  5
9662
102
{ACAD_REACTORS
330
9658
102
}
330
9658
100
AcDbDictionary
281
     1
  3
STANDARD
350
9663
  0
DICTIONARY
  5
9664
102
{ACAD_REACTORS
330
9658
102
}
330
9658
100
AcDbDictionary
281
     1
  0
ACDBDICTIONARYWDFLT
  5
9865
102
{ACAD_REACTORS
330
9658
102
}
330
9658
100
AcDbDictionary
281
     1
  3
Normal
350
9866
100
AcDbDictionaryWithDefault
340
9866
  0
DICTIONARY
  5
989C
102
{ACAD_REACTORS
330
9658
102
}
330
9658
100
AcDbDictionary
281
     1
  3
A0
350
989D
  3
A1
350
989E
  3
A2
350
989F
  3
A3
350
98A0
  3
A4
350
98A1
  3
A5
350
98A2
  3
A6
350
98A3
  3
A7
350
98A4
  3
A8
350
98A5
  3
A9
350
98A6
  3
B0
350
98A7
  3
B1
350
98A8
  3
B2
350
98A9
  3
B3
350
98AA
  3
B4
350
98AB
  3
B5
350
98AC
  3
B6
350
98AD
  0
DICTIONARY
  5
98B0
102
{ACAD_REACTORS
330
9658
102
}
330
9658
100
AcDbDictionary
281
     1
  3
Imperial24
350
98B1
  0
DICTIONARY
  5
989A
102
{ACAD_REACTORS
330
9658
102
}
330
9658
100
AcDbDictionary
281
     1
  3
Standard
350
989B
  0
DICTIONARY
  5
9880
102
{ACAD_REACTORS
330
9658
102
}
330
9658
100
AcDbDictionary
281
     1
  3
2dWireframe
350
9886
  3
Basic
350
9885
  3
Brighten
350
988C
  3
ColorChange
350
9890
  3
Conceptual
350
9889
  3
Dim
350
988B
  3
EdgeColorOff
350
9898
  3
Facepattern
350
988F
  3
Flat
350
9881
  3
FlatWithEdges
350
9882
  3
Gouraud
350
9883
  3
GouraudWithEdges
350
9884
  3
Hidden
350
9888
  3
JitterOff
350
9896
  3
Linepattern
350
988E
  3
OverhangOff
350
9897
  3
Realistic
350
988A
  3
Shaded
350
9895
  3
Shaded with edges
350
9894
  3
Shades of Gray
350
9891
  3
Sketchy
350
9892
  3
Thicken
350
988D
  3
Wireframe
350
9887
  3
X-Ray
350
9893
  0
XRECORD
  5
98D5
102
{ACAD_REACTORS
330
9658
102
}
330
9658
100
AcDbXrecord
280
     1
 90
        1
330
989B
  0
DICTIONARY
  5
98C8
102
{ACAD_REACTORS
330
9658
102
}
330
9658
100
AcDbDictionary
281
     1
  3
CANNOSCALE
350
98CD
  3
CMLEADERSTYLE
350
98CA
  3
CTABLESTYLE
350
98C9
  3
CVIEWDETAILSTYLE
350
98CB
  3
CVIEWSECTIONSTYLE
350
98CC
  3
DIMASSOC
350
98D0
  3
INDEXCTL
350
98CF
  3
SORTENTS
350
98CE
  3
XCLIPFRAME
350
98D1
  0
XRECORD
  5
98D6
102
{ACAD_REACTORS
330
9658
102
}
330
9658
100
AcDbXrecord
280
     1
  1
DWGPROPS COOKIE
  2

  3

  4

  6

  7

  8
Yoshitsune
  9

300
=
301
=
302
=
303
=
304
=
305
=
306
=
307
=
308
=
309
=
 40
0.0004752546296296
 41
2450737.557865
 42
2457192.642143033
  1

 90
        0
  0
XRECORD
  5
98B9
102
{ACAD_REACTORS
330
98B8
102
}
330
98B8
100
AcDbXrecord
280
     1
290
     1
  0
XRECORD
  5
98BB
102
{ACAD_REACTORS
330
98BA
102
}
330
98BA
100
AcDbXrecord
280
     1
290
     1
  0
XRECORD
  5
98BD
102
{ACAD_REACTORS
330
98BC
102
}
330
98BC
100
AcDbXrecord
280
     1
290
     1
  0
XRECORD
  5
98BF
102
{ACAD_REACTORS
330
98BE
102
}
330
98BE
100
AcDbXrecord
280
     1
290
     1
  0
XRECORD
  5
98C1
102
{ACAD_REACTORS
330
98C0
102
}
330
98C0
100
AcDbXrecord
280
     1
290
     1
  0
XRECORD
  5
98C3
102
{ACAD_REACTORS
330
98C2
102
}
330
98C2
100
AcDbXrecord
280
     1
290
     1
  0
XRECORD
  5
98C5
102
{ACAD_REACTORS
330
98C4
102
}
330
98C4
100
AcDbXrecord
280
     1
290
     1
  0
XRECORD
  5
98C7
102
{ACAD_REACTORS
330
98C6
102
}
330
98C6
100
AcDbXrecord
280
     1
290
     1
  0
XRECORD
  5
9861
102
{ACAD_REACTORS
330
9860
102
}
330
9860
100
AcDbXrecord
280
     1
340
966A
  0
XRECORD
  5
985F
102
{ACAD_REACTORS
330
985E
102
}
330
985E
100
AcDbXrecord
280
     1
340
9666
  0
ACDBDETAILVIEWSTYLE
  5
98B3
102
{ACAD_XDICTIONARY
360
990E
102
}
102
{ACAD_REACTORS
330
98B2
102
}
330
98B2
100
AcDbModelDocViewStyle
 70
     0
  3
Imperial24
290
     0
100
AcDbDetailViewStyle
 70
     0
 71
     0
 90
        3
 71
     1
340
965D
 40
0.24
340
0
 40
0.24
300

 40
0.36
280
     3
 71
     2
340
9661
 90
       25
 71
     3
340
965D
 40
0.24
 90
        1
 40
0.75
 90
        1
300
%<\AcVar ViewType \f "%tc1">% %<\AcVar ViewDetailId>%\PSCALE %<\AcVar ViewScale \f "%sn">%
 71
     4
340
9661
 90
       25
340
9661
 90
       25
280
     0
  0
LAYOUT
  5
98B4
102
{ACAD_XDICTIONARY
360
9910
102
}
102
{ACAD_REACTORS
330
9665
102
}
330
9665
100
AcDbPlotSettings
  1

  2
Canon LBP9100C
  4

  6

 40
0.0
 41
0.0
 42
0.0
 43
0.0
 44
0.0
 45
0.0
 46
0.0
 47
0.0
 48
0.0
 49
0.0
140
0.0
141
0.0
142
1.0
143
1.0
 70
  1712
 72
     0
 73
     0
 74
     0
  7

 75
     0
147
1.0
148
0.0
149
0.0
100
AcDbLayout
  1
Model
 70
     1
 71
     0
 10
0.0
 20
0.0
 11
12.0
 21
9.0
 12
0.0
 22
0.0
 32
0.0
 14
0.0
 24
0.0
 34
0.0
 15
0.0
 25
0.0
 35
0.0
146
0.0
 13
0.0
 23
0.0
 33
0.0
 16
1.0
 26
0.0
 36
0.0
 17
0.0
 27
1.0
 37
0.0
 76
     0
330
966A
331
985D
  0
LAYOUT
  5
98B5
102
{ACAD_XDICTIONARY
360
9912
102
}
102
{ACAD_REACTORS
330
9665
102
}
330
9665
100
AcDbPlotSettings
  1

  2
Canon LBP9100C
  4

  6

 40
0.0
 41
0.0
 42
0.0
 43
0.0
 44
0.0
 45
0.0
 46
0.0
 47
0.0
 48
0.0
 49
0.0
140
0.0
141
0.0
142
1.0
143
1.0
 70
   688
 72
     0
 73
     0
 74
     5
  7

 75
    16
147
1.0
148
0.0
149
0.0
100
AcDbLayout
  1
レイアウト1
 70
     0
 71
     1
 10
0.0
 20
0.0
 11
420.0
 21
297.0
 12
0.0
 22
0.0
 32
0.0
 14
1.000000000000000E+20
 24
1.000000000000000E+20
 34
1.000000000000000E+20
 15
-1.000000000000000E+20
 25
-1.000000000000000E+20
 35
-1.000000000000000E+20
146
0.0
 13
0.0
 23
0.0
 33
0.0
 16
1.0
 26
0.0
 36
0.0
 17
0.0
 27
1.0
 37
0.0
 76
     0
330
9666
  0
MATERIAL
  5
9870
102
{ACAD_XDICTIONARY
360
9871
102
}
102
{ACAD_REACTORS
330
9867
102
}
330
9867
100
AcDbMaterial
  1
ByBlock
 72
     0
 43
0.0208333333333333
 43
0.0
 43
0.0
 43
0.0
 43
0.0
 43
0.0208333333333333
 43
0.0
 43
0.0
 43
0.0
 43
0.0
 43
1.0
 43
0.0
 43
0.0
 43
0.0
 43
0.0
 43
1.0
 77
     0
 47
0.0208333333333333
 47
0.0
 47
0.0
 47
0.0
 47
0.0
 47
0.0208333333333333
 47
0.0
 47
0.0
 47
0.0
 47
0.0
 47
1.0
 47
0.0
 47
0.0
 47
0.0
 47
0.0
 47
1.0
171
     0
 49
0.0208333333333333
 49
0.0
 49
0.0
 49
0.0
 49
0.0
 49
0.0208333333333333
 49
0.0
 49
0.0
 49
0.0
 49
0.0
 49
1.0
 49
0.0
 49
0.0
 49
0.0
 49
0.0
 49
1.0
175
     0
142
0.0208333333333333
142
0.0
142
0.0
142
0.0
142
0.0
142
0.0208333333333333
142
0.0
142
0.0
142
0.0
142
0.0
142
1.0
142
0.0
142
0.0
142
0.0
142
0.0
142
1.0
179
     0
144
0.0208333333333333
144
0.0
144
0.0
144
0.0
144
0.0
144
0.0208333333333333
144
0.0
144
0.0
144
0.0
144
0.0
144
1.0
144
0.0
144
0.0
144
0.0
144
0.0
144
1.0
147
0.0208333333333333
147
0.0
147
0.0
147
0.0
147
0.0
147
0.0208333333333333
147
0.0
147
0.0
147
0.0
147
0.0
147
1.0
147
0.0
147
0.0
147
0.0
147
0.0
147
1.0
  0
MATERIAL
  5
9868
102
{ACAD_XDICTIONARY
360
9869
102
}
102
{ACAD_REACTORS
330
9867
102
}
330
9867
100
AcDbMaterial
  1
ByLayer
 72
     0
 43
0.0208333333333333
 43
0.0
 43
0.0
 43
0.0
 43
0.0
 43
0.0208333333333333
 43
0.0
 43
0.0
 43
0.0
 43
0.0
 43
1.0
 43
0.0
 43
0.0
 43
0.0
 43
0.0
 43
1.0
 77
     0
 47
0.0208333333333333
 47
0.0
 47
0.0
 47
0.0
 47
0.0
 47
0.0208333333333333
 47
0.0
 47
0.0
 47
0.0
 47
0.0
 47
1.0
 47
0.0
 47
0.0
 47
0.0
 47
0.0
 47
1.0
171
     0
 49
0.0208333333333333
 49
0.0
 49
0.0
 49
0.0
 49
0.0
 49
0.0208333333333333
 49
0.0
 49
0.0
 49
0.0
 49
0.0
 49
1.0
 49
0.0
 49
0.0
 49
0.0
 49
0.0
 49
1.0
175
     0
142
0.0208333333333333
142
0.0
142
0.0
142
0.0
142
0.0
142
0.0208333333333333
142
0.0
142
0.0
142
0.0
142
0.0
142
1.0
142
0.0
142
0.0
142
0.0
142
0.0
142
1.0
179
     0
144
0.0208333333333333
144
0.0
144
0.0
144
0.0
144
0.0
144
0.0208333333333333
144
0.0
144
0.0
144
0.0
144
0.0
144
1.0
144
0.0
144
0.0
144
0.0
144
0.0
144
1.0
147
0.0208333333333333
147
0.0
147
0.0
147
0.0
147
0.0
147
0.0208333333333333
147
0.0
147
0.0
147
0.0
147
0.0
147
1.0
147
0.0
147
0.0
147
0.0
147
0.0
147
1.0
  0
MATERIAL
  5
9878
102
{ACAD_XDICTIONARY
360
9879
102
}
102
{ACAD_REACTORS
330
9867
102
}
330
9867
100
AcDbMaterial
  1
Global
 72
     0
 43
0.0208333333333333
 43
0.0
 43
0.0
 43
0.0
 43
0.0
 43
0.0208333333333333
 43
0.0
 43
0.0
 43
0.0
 43
0.0
 43
1.0
 43
0.0
 43
0.0
 43
0.0
 43
0.0
 43
1.0
 77
     0
 47
0.0208333333333333
 47
0.0
 47
0.0
 47
0.0
 47
0.0
 47
0.0208333333333333
 47
0.0
 47
0.0
 47
0.0
 47
0.0
 47
1.0
 47
0.0
 47
0.0
 47
0.0
 47
0.0
 47
1.0
171
     0
 49
0.0208333333333333
 49
0.0
 49
0.0
 49
0.0
 49
0.0
 49
0.0208333333333333
 49
0.0
 49
0.0
 49
0.0
 49
0.0
 49
1.0
 49
0.0
 49
0.0
 49
0.0
 49
0.0
 49
1.0
175
     0
142
0.0208333333333333
142
0.0
142
0.0
142
0.0
142
0.0
142
0.0208333333333333
142
0.0
142
0.0
142
0.0
142
0.0
142
1.0
142
0.0
142
0.0
142
0.0
142
0.0
142
1.0
179
     0
144
0.0208333333333333
144
0.0
144
0.0
144
0.0
144
0.0
144
0.0208333333333333
144
0.0
144
0.0
144
0.0
144
0.0
144
1.0
144
0.0
144
0.0
144
0.0
144
0.0
144
1.0
147
0.0208333333333333
147
0.0
147
0.0
147
0.0
147
0.0
147
0.0208333333333333
147
0.0
147
0.0
147
0.0
147
0.0
147
1.0
147
0.0
147
0.0
147
0.0
147
0.0
147
1.0
  0
MLEADERSTYLE
  5
98AF
102
{ACAD_REACTORS
330
98AE
102
}
330
98AE
100
AcDbMLeaderStyle
170
     2
171
     1
172
     0
 90
        2
 40
0.0
 41
0.0
173
     1
 91
-1056964608
340
965F
 92
       -2
290
     1
 42
0.09
291
     1
 43
0.36
  3
Standard
 44
0.18
300

342
965D
174
     1
178
     6
175
     1
176
     0
 93
-1056964608
 45
0.18
292
     0
297
     0
 46
0.18
 94
-1056964608
 47
1.0
 49
1.0
140
1.0
293
     1
141
0.0
294
     1
177
     0
142
1.0
295
     0
296
     0
143
0.125
1001
ACAD_MLEADERVER
1070
     2
  0
MLINESTYLE
  5
9663
102
{ACAD_REACTORS
330
9662
102
}
330
9662
100
AcDbMlineStyle
  2
STANDARD
 70
     0
  3

 62
   256
 51
90.0
 52
90.0
 71
     2
 49
0.5
 62
   256
  6
BYLAYER
 49
-0.5
 62
   256
  6
BYLAYER
  0
ACDBPLACEHOLDER
  5
9866
102
{ACAD_REACTORS
330
9865
102
}
330
9865
  0
SCALE
  5
989D
102
{ACAD_REACTORS
330
989C
102
}
330
989C
100
AcDbScale
 70
     0
300
1:1
140
1.0
141
1.0
290
     1
  0
SCALE
  5
989E
102
{ACAD_REACTORS
330
989C
102
}
330
989C
100
AcDbScale
 70
     0
300
1/128" = 1'-0"
140
0.0078125
141
12.0
290
     0
  0
SCALE
  5
989F
102
{ACAD_REACTORS
330
989C
102
}
330
989C
100
AcDbScale
 70
     0
300
1/64" = 1'-0"
140
0.015625
141
12.0
290
     0
  0
SCALE
  5
98A0
102
{ACAD_REACTORS
330
989C
102
}
330
989C
100
AcDbScale
 70
     0
300
1/32" = 1'-0"
140
0.03125
141
12.0
290
     0
  0
SCALE
  5
98A1
102
{ACAD_REACTORS
330
989C
102
}
330
989C
100
AcDbScale
 70
     0
300
1/16" = 1'-0"
140
0.0625
141
12.0
290
     0
  0
SCALE
  5
98A2
102
{ACAD_REACTORS
330
989C
102
}
330
989C
100
AcDbScale
 70
     0
300
3/32" = 1'-0"
140
0.09375
141
12.0
290
     0
  0
SCALE
  5
98A3
102
{ACAD_REACTORS
330
989C
102
}
330
989C
100
AcDbScale
 70
     0
300
1/8" = 1'-0"
140
0.125
141
12.0
290
     0
  0
SCALE
  5
98A4
102
{ACAD_REACTORS
330
989C
102
}
330
989C
100
AcDbScale
 70
     0
300
3/16" = 1'-0"
140
0.1875
141
12.0
290
     0
  0
SCALE
  5
98A5
102
{ACAD_REACTORS
330
989C
102
}
330
989C
100
AcDbScale
 70
     0
300
1/4" = 1'-0"
140
0.25
141
12.0
290
     0
  0
SCALE
  5
98A6
102
{ACAD_REACTORS
330
989C
102
}
330
989C
100
AcDbScale
 70
     0
300
3/8" = 1'-0"
140
0.375
141
12.0
290
     0
  0
SCALE
  5
98A7
102
{ACAD_REACTORS
330
989C
102
}
330
989C
100
AcDbScale
 70
     0
300
1/2" = 1'-0"
140
0.5
141
12.0
290
     0
  0
SCALE
  5
98A8
102
{ACAD_REACTORS
330
989C
102
}
330
989C
100
AcDbScale
 70
     0
300
3/4" = 1'-0"
140
0.75
141
12.0
290
     0
  0
SCALE
  5
98A9
102
{ACAD_REACTORS
330
989C
102
}
330
989C
100
AcDbScale
 70
     0
300
1" = 1'-0"
140
1.0
141
12.0
290
     0
  0
SCALE
  5
98AA
102
{ACAD_REACTORS
330
989C
102
}
330
989C
100
AcDbScale
 70
     0
300
1-1/2" = 1'-0"
140
1.5
141
12.0
290
     0
  0
SCALE
  5
98AB
102
{ACAD_REACTORS
330
989C
102
}
330
989C
100
AcDbScale
 70
     0
300
3" = 1'-0"
140
3.0
141
12.0
290
     0
  0
SCALE
  5
98AC
102
{ACAD_REACTORS
330
989C
102
}
330
989C
100
AcDbScale
 70
     0
300
6" = 1'-0"
140
6.0
141
12.0
290
     0
  0
SCALE
  5
98AD
102
{ACAD_REACTORS
330
989C
102
}
330
989C
100
AcDbScale
 70
     0
300
1'-0" = 1'-0"
140
12.0
141
12.0
290
     0
  0
ACDBSECTIONVIEWSTYLE
  5
98B1
102
{ACAD_XDICTIONARY
360
990C
102
}
102
{ACAD_REACTORS
330
98B0
102
}
330
98B0
100
AcDbModelDocViewStyle
 70
     0
  3
Imperial24
290
     0
100
AcDbSectionViewStyle
 70
     0
 71
     0
 90
       78
 71
     1
340
965D
 40
0.24
340
0
340
0
 40
0.24
300
I, O, Q, S, X, Z
 40
0.48
 90
        3
 40
0.18
 90
        1
 71
     2
340
9661
 90
       25
340
9661
 90
       50
 40
0.24
 40
0.0
 40
0.24
 71
     3
340
965D
 40
0.24
 90
        1
 40
0.75
 90
        1
300
%<\AcVar ViewType \f "%tc1">% %<\AcVar ViewSectionStartId>%-%<\AcVar ViewSectionEndId>%\PSCALE %<\AcVar ViewScale \f "%sn">%
 71
     4
300
ANSI31
 40
1.0
 90
        0
290
     0
290
     0
 90
        6
 40
0.0
 40
1.570796326794896
 40
0.2617993877991494
 40
1.308996938995747
 40
-0.2617993877991494
 40
1.832595714594046
  0
TABLESTYLE
  5
989B
102
{ACAD_XDICTIONARY
360
98D3
102
}
102
{ACAD_REACTORS
330
989A
102
}
330
989A
100
AcDbTableStyle
  3
Standard
 70
     0
 71
     0
 40
0.06
 41
0.06
280
     0
281
     0
  7
STANDARD
140
0.18
170
     2
 62
     0
 63
     7
283
     0
274
    -2
284
     1
 64
     0
275
    -2
285
     1
 65
     0
276
    -2
286
     1
 66
     0
277
    -2
287
     1
 67
     0
278
    -2
288
     1
 68
     0
279
    -2
289
     1
 69
     0
  7
STANDARD
140
0.25
170
     5
 62
     0
 63
     7
283
     0
274
    -2
284
     1
 64
     0
275
    -2
285
     1
 65
     0
276
    -2
286
     1
 66
     0
277
    -2
287
     1
 67
     0
278
    -2
288
     1
 68
     0
279
    -2
289
     1
 69
     0
  7
STANDARD
140
0.18
170
     5
 62
     0
 63
     7
283
     0
274
    -2
284
     1
 64
     0
275
    -2
285
     1
 65
     0
276
    -2
286
     1
 66
     0
277
    -2
287
     1
 67
     0
278
    -2
288
     1
 68
     0
279
    -2
289
     1
 69
     0
  0
VISUALSTYLE
  5
9886
102
{ACAD_XDICTIONARY
360
98E4
102
}
102
{ACAD_REACTORS
330
9880
102
}
330
9880
100
AcDbVisualStyle
  2
2dWireframe
 70
     4
 71
     0
 72
     2
 73
     0
 90
        0
 40
-0.6
 41
-30.0
 62
     5
 63
     7
 74
     1
 91
        4
 64
     7
 65
   257
 75
     1
175
     1
 42
1.0
 92
        0
 66
   257
 43
1.0
 76
     1
 77
     6
 78
     2
 67
     7
 79
     5
170
     0
171
     0
290
     0
174
     0
 93
        1
 44
0.0
173
     0
291
     0
 45
0.0
1001
ACAD
1000
AcDbSavedByObjectVersion
1070
     0
  0
VISUALSTYLE
  5
9885
102
{ACAD_XDICTIONARY
360
98E2
102
}
102
{ACAD_REACTORS
330
9880
102
}
330
9880
100
AcDbVisualStyle
  2
Basic
 70
     7
 71
     1
 72
     0
 73
     1
 90
        0
 40
-0.6
 41
-30.0
 62
     5
 63
     7
 74
     0
 91
        4
 64
     7
 65
   257
 75
     1
175
     1
 42
1.0
 92
        8
 66
     7
 43
1.0
 76
     1
 77
     6
 78
     2
 67
     7
 79
     5
170
     0
171
     0
290
     0
174
     0
 93
        1
 44
0.0
173
     0
291
     1
 45
0.0
1001
ACAD
1000
AcDbSavedByObjectVersion
1070
     0
  0
VISUALSTYLE
  5
988C
102
{ACAD_XDICTIONARY
360
98F0
102
}
102
{ACAD_REACTORS
330
9880
102
}
330
9880
100
AcDbVisualStyle
  2
Brighten
 70
    12
 71
     2
 72
     2
 73
     0
 90
        0
 40
-0.6
 41
-30.0
 62
     5
 63
     7
 74
     1
 91
        4
 64
     7
 65
   257
 75
     1
175
     1
 42
1.0
 92
        8
 66
     7
 43
1.0
 76
     1
 77
     6
 78
     2
 67
     7
 79
     5
170
     0
171
     0
290
     0
174
     0
 93
        1
 44
50.0
173
     0
291
     1
 45
0.0
1001
ACAD
1000
AcDbSavedByObjectVersion
1070
     0
  0
VISUALSTYLE
  5
9890
102
{ACAD_XDICTIONARY
360
98F8
102
}
102
{ACAD_REACTORS
330
9880
102
}
330
9880
100
AcDbVisualStyle
  2
ColorChange
 70
    16
 71
     2
 72
     2
 73
     3
 90
        0
 40
-0.6
 41
-30.0
 62
     5
 63
     8
 74
     1
 91
        4
 64
     7
 65
   257
 75
     1
175
     1
 42
1.0
 92
        8
 66
     8
 43
1.0
 76
     1
 77
     6
 78
     2
 67
     7
 79
     5
170
     0
171
     0
290
     0
174
     0
 93
        1
 44
0.0
173
     0
291
     1
 45
0.0
1001
ACAD
1000
AcDbSavedByObjectVersion
1070
     0
  0
VISUALSTYLE
  5
9889
102
{ACAD_XDICTIONARY
360
98EA
102
}
102
{ACAD_REACTORS
330
9880
102
}
330
9880
100
AcDbVisualStyle
  2
Conceptual
 70
     9
 71
     3
 72
     2
 73
     0
 90
        0
 40
-0.6
 41
-30.0
 62
     5
 63
     7
 74
     2
 91
        2
 64
     7
 65
   257
 75
     1
175
     1
 42
179.0
 92
        8
 66
     7
 43
1.0
 76
     1
 77
     6
 78
     2
 67
     7
 79
     3
170
     0
171
     0
290
     0
174
     0
 93
        1
 44
0.0
173
     0
291
     0
 45
0.0
1001
ACAD
1000
AcDbSavedByObjectVersion
1070
     0
  0
VISUALSTYLE
  5
988B
102
{ACAD_XDICTIONARY
360
98EE
102
}
102
{ACAD_REACTORS
330
9880
102
}
330
9880
100
AcDbVisualStyle
  2
Dim
 70
    11
 71
     2
 72
     2
 73
     0
 90
        0
 40
-0.6
 41
-30.0
 62
     5
 63
     7
 74
     1
 91
        4
 64
     7
 65
   257
 75
     1
175
     1
 42
1.0
 92
        8
 66
     7
 43
1.0
 76
     1
 77
     6
 78
     2
 67
     7
 79
     5
170
     0
171
     0
290
     0
174
     0
 93
        1
 44
-50.0
173
     0
291
     1
 45
0.0
1001
ACAD
1000
AcDbSavedByObjectVersion
1070
     0
  0
VISUALSTYLE
  5
9898
102
{ACAD_XDICTIONARY
360
9908
102
}
102
{ACAD_REACTORS
330
9880
102
}
330
9880
100
AcDbVisualStyle
  2
EdgeColorOff
 70
    22
 71
     2
 72
     2
 73
     0
 90
        0
 40
-0.6
 41
-30.0
 62
     5
 63
     7
 74
     1
 91
        4
 64
     7
 65
   257
 75
     1
175
     1
 42
1.0
 92
        8
 66
     7
 43
1.0
 76
     1
 77
     6
 78
     2
 67
     7
 79
     5
170
     0
171
     0
290
     0
174
     0
 93
        1
 44
0.0
173
     0
291
     1
 45
0.0
1001
ACAD
1000
AcDbSavedByObjectVersion
1070
     0
  0
VISUALSTYLE
  5
988F
102
{ACAD_XDICTIONARY
360
98F6
102
}
102
{ACAD_REACTORS
330
9880
102
}
330
9880
100
AcDbVisualStyle
  2
Facepattern
 70
    15
 71
     2
 72
     2
 73
     0
 90
        0
 40
-0.6
 41
-30.0
 62
     5
 63
     7
 74
     1
 91
        4
 64
     7
 65
   257
 75
     1
175
     1
 42
1.0
 92
        8
 66
     7
 43
1.0
 76
     1
 77
     6
 78
     2
 67
     7
 79
     5
170
     0
171
     0
290
     0
174
     0
 93
        1
 44
0.0
173
     0
291
     1
 45
0.0
1001
ACAD
1000
AcDbSavedByObjectVersion
1070
     0
  0
VISUALSTYLE
  5
9881
102
{ACAD_XDICTIONARY
360
98DA
102
}
102
{ACAD_REACTORS
330
9880
102
}
330
9880
100
AcDbVisualStyle
  2
Flat
 70
     0
 71
     2
 72
     1
 73
     1
 90
        2
 40
-0.6
 41
30.0
 62
     5
 63
     7
 74
     0
 91
        0
 64
     7
 65
   257
 75
     1
175
     1
 42
1.0
 92
        8
 66
     7
 43
1.0
 76
     1
 77
     6
 78
     2
 67
     7
 79
     5
170
     0
171
     0
290
     0
174
     0
 93
       13
 44
0.0
173
     0
291
     1
 45
0.0
1001
ACAD
1000
AcDbSavedByObjectVersion
1070
     0
  0
VISUALSTYLE
  5
9882
102
{ACAD_XDICTIONARY
360
98DC
102
}
102
{ACAD_REACTORS
330
9880
102
}
330
9880
100
AcDbVisualStyle
  2
FlatWithEdges
 70
     1
 71
     2
 72
     1
 73
     1
 90
        2
 40
-0.6
 41
30.0
 62
     5
 63
     7
 74
     1
 91
        0
 64
     7
 65
   257
 75
     1
175
     1
 42
1.0
 92
        0
 66
   257
 43
1.0
 76
     1
 77
     6
 78
     2
 67
     7
 79
     5
170
     0
171
     0
290
     0
174
     0
 93
       13
 44
0.0
173
     0
291
     1
 45
0.0
1001
ACAD
1000
AcDbSavedByObjectVersion
1070
     0
  0
VISUALSTYLE
  5
9883
102
{ACAD_XDICTIONARY
360
98DE
102
}
102
{ACAD_REACTORS
330
9880
102
}
330
9880
100
AcDbVisualStyle
  2
Gouraud
 70
     2
 71
     2
 72
     2
 73
     1
 90
        2
 40
-0.6
 41
30.0
 62
     5
 63
     7
 74
     0
 91
        0
 64
     7
 65
   257
 75
     1
175
     1
 42
1.0
 92
        0
 66
     7
 43
1.0
 76
     1
 77
     6
 78
     2
 67
     7
 79
     5
170
     0
171
     0
290
     0
174
     0
 93
       13
 44
0.0
173
     0
291
     1
 45
0.0
1001
ACAD
1000
AcDbSavedByObjectVersion
1070
     0
  0
VISUALSTYLE
  5
9884
102
{ACAD_XDICTIONARY
360
98E0
102
}
102
{ACAD_REACTORS
330
9880
102
}
330
9880
100
AcDbVisualStyle
  2
GouraudWithEdges
 70
     3
 71
     2
 72
     2
 73
     1
 90
        2
 40
-0.6
 41
30.0
 62
     5
 63
     7
 74
     1
 91
        0
 64
     7
 65
   257
 75
     1
175
     1
 42
1.0
 92
        0
 66
   257
 43
1.0
 76
     1
 77
     6
 78
     2
 67
     7
 79
     5
170
     0
171
     0
290
     0
174
     0
 93
       13
 44
0.0
173
     0
291
     1
 45
0.0
1001
ACAD
1000
AcDbSavedByObjectVersion
1070
     0
  0
VISUALSTYLE
  5
9888
102
{ACAD_XDICTIONARY
360
98E8
102
}
102
{ACAD_REACTORS
330
9880
102
}
330
9880
100
AcDbVisualStyle
  2
Hidden
 70
     6
 71
     1
 72
     2
 73
     2
 90
        0
 40
-0.6
 41
-30.0
 62
     5
 63
     7
 74
     2
 91
        2
 64
     7
 65
   257
 75
     2
175
     1
 42
40.0
 92
        0
 66
   257
 43
1.0
 76
     1
 77
     6
 78
     2
 67
     7
 79
     3
170
     0
171
     0
290
     0
174
     0
 93
        1
 44
0.0
173
     0
291
     0
 45
0.0
1001
ACAD
1000
AcDbSavedByObjectVersion
1070
     0
  0
VISUALSTYLE
  5
9896
102
{ACAD_XDICTIONARY
360
9904
102
}
102
{ACAD_REACTORS
330
9880
102
}
330
9880
100
AcDbVisualStyle
  2
JitterOff
 70
    20
 71
     2
 72
     2
 73
     0
 90
        0
 40
-0.6
 41
-30.0
 62
     5
 63
     7
 74
     1
 91
        4
 64
     7
 65
   257
 75
     1
175
     1
 42
1.0
 92
       10
 66
     7
 43
1.0
 76
     1
 77
     6
 78
     2
 67
     7
 79
     5
170
     0
171
     0
290
     0
174
     0
 93
        1
 44
0.0
173
     0
291
     1
 45
0.0
1001
ACAD
1000
AcDbSavedByObjectVersion
1070
     0
  0
VISUALSTYLE
  5
988E
102
{ACAD_XDICTIONARY
360
98F4
102
}
102
{ACAD_REACTORS
330
9880
102
}
330
9880
100
AcDbVisualStyle
  2
Linepattern
 70
    14
 71
     2
 72
     2
 73
     0
 90
        0
 40
-0.6
 41
-30.0
 62
     5
 63
     7
 74
     1
 91
        4
 64
     7
 65
   257
 75
     7
175
     7
 42
1.0
 92
        8
 66
     7
 43
1.0
 76
     1
 77
     6
 78
     2
 67
     7
 79
     5
170
     0
171
     0
290
     0
174
     0
 93
        1
 44
0.0
173
     0
291
     1
 45
0.0
1001
ACAD
1000
AcDbSavedByObjectVersion
1070
     0
  0
VISUALSTYLE
  5
9897
102
{ACAD_XDICTIONARY
360
9906
102
}
102
{ACAD_REACTORS
330
9880
102
}
330
9880
100
AcDbVisualStyle
  2
OverhangOff
 70
    21
 71
     2
 72
     2
 73
     0
 90
        0
 40
-0.6
 41
-30.0
 62
     5
 63
     7
 74
     1
 91
        4
 64
     7
 65
   257
 75
     1
175
     1
 42
1.0
 92
        9
 66
     7
 43
1.0
 76
     1
 77
     6
 78
     2
 67
     7
 79
     5
170
     0
171
     0
290
     0
174
     0
 93
        1
 44
0.0
173
     0
291
     1
 45
0.0
1001
ACAD
1000
AcDbSavedByObjectVersion
1070
     0
  0
VISUALSTYLE
  5
988A
102
{ACAD_XDICTIONARY
360
98EC
102
}
102
{ACAD_REACTORS
330
9880
102
}
330
9880
100
AcDbVisualStyle
  2
Realistic
 70
     8
 71
     2
 72
     3
 73
     0
 90
        2
 40
-0.6
 41
30.0
 62
     5
 63
     7
 74
     0
 91
        0
 64
     7
 65
   257
 75
     1
175
     1
 42
1.0
 92
        8
 66
   257
 43
1.0
 76
     1
 77
     6
 78
     2
 67
     7
 79
     3
170
     0
171
     0
290
     0
174
     0
 93
       13
 44
0.0
173
     0
291
     0
 45
0.0
1001
ACAD
1000
AcDbSavedByObjectVersion
1070
     0
  0
VISUALSTYLE
  5
9895
102
{ACAD_XDICTIONARY
360
9902
102
}
102
{ACAD_REACTORS
330
9880
102
}
330
9880
100
AcDbVisualStyle
  2
Shaded
 70
    27
 71
     2
 72
     2
 73
     1
 90
        2
 40
-0.6
 41
30.0
 62
     5
 63
     7
 74
     0
 91
        4
 64
     7
 65
   257
 75
     1
175
     1
 42
1.0
 92
        8
 66
   257
 43
1.0
 76
     1
 77
     6
 78
     2
 67
     8
 79
     3
170
     0
171
     0
290
     0
174
     0
 93
        5
 44
0.0
173
     0
291
     0
 45
0.0
1001
ACAD
1000
AcDbSavedByObjectVersion
1070
     0
  0
VISUALSTYLE
  5
9894
102
{ACAD_XDICTIONARY
360
9900
102
}
102
{ACAD_REACTORS
330
9880
102
}
330
9880
100
AcDbVisualStyle
  2
Shaded with edges
 70
    26
 71
     2
 72
     2
 73
     1
 90
        2
 40
-0.6
 41
30.0
 62
     5
 63
     7
 74
     1
 91
       10
 64
     7
 65
   257
 75
     2
175
     1
 42
1.0
 92
        8
 66
   257
 43
1.0
 76
     1
 77
     6
 78
     2
 67
     7
 79
     3
170
     0
171
     0
290
     0
174
     0
 93
        5
 44
0.0
173
     0
291
     0
 45
0.0
1001
ACAD
1000
AcDbSavedByObjectVersion
1070
     0
  0
VISUALSTYLE
  5
9891
102
{ACAD_XDICTIONARY
360
98FA
102
}
102
{ACAD_REACTORS
330
9880
102
}
330
9880
100
AcDbVisualStyle
  2
Shades of Gray
 70
    23
 71
     2
 72
     2
 73
     3
 90
        0
 40
-0.6
 41
-30.0
 62
     5
 63
     7
 74
     2
 91
        2
 64
     7
 65
     7
 75
     1
175
     1
 42
40.0
 92
        8
 66
     7
 43
1.0
 76
     1
 77
     6
 78
     2
 67
     7
 79
     3
170
     0
171
     0
290
     0
174
     0
 93
        1
 44
0.0
173
     0
291
     0
 45
0.0
1001
ACAD
1000
AcDbSavedByObjectVersion
1070
     0
  0
VISUALSTYLE
  5
9892
102
{ACAD_XDICTIONARY
360
98FC
102
}
102
{ACAD_REACTORS
330
9880
102
}
330
9880
100
AcDbVisualStyle
  2
Sketchy
 70
    24
 71
     1
 72
     2
 73
     2
 90
        0
 40
-0.6
 41
-30.0
 62
     5
 63
     7
 74
     2
 91
        2
 64
     7
 65
     7
 75
     1
175
     1
 42
40.0
 92
       11
 66
     7
 43
1.0
 76
     1
 77
     6
 78
     2
 67
     7
 79
     6
170
     0
171
     0
290
     0
174
     0
 93
        1
 44
0.0
173
     0
291
     0
 45
0.0
1001
ACAD
1000
AcDbSavedByObjectVersion
1070
     0
  0
VISUALSTYLE
  5
988D
102
{ACAD_XDICTIONARY
360
98F2
102
}
102
{ACAD_REACTORS
330
9880
102
}
330
9880
100
AcDbVisualStyle
  2
Thicken
 70
    13
 71
     2
 72
     2
 73
     0
 90
        0
 40
-0.6
 41
-30.0
 62
     5
 63
     7
 74
     1
 91
        4
 64
     7
 65
   257
 75
     1
175
     1
 42
1.0
 92
       12
 66
     7
 43
1.0
 76
     1
 77
     6
 78
     2
 67
     7
 79
     5
170
     0
171
     0
290
     0
174
     0
 93
        1
 44
0.0
173
     0
291
     1
 45
0.0
1001
ACAD
1000
AcDbSavedByObjectVersion
1070
     0
  0
VISUALSTYLE
  5
9887
102
{ACAD_XDICTIONARY
360
98E6
102
}
102
{ACAD_REACTORS
330
9880
102
}
330
9880
100
AcDbVisualStyle
  2
Wireframe
 70
     5
 71
     0
 72
     2
 73
     0
 90
        0
 40
-0.6
 41
-30.0
 62
     5
 63
     7
 74
     1
 91
        4
 64
     7
 65
   257
 75
     1
175
     1
 42
1.0
 92
        0
 66
   257
 43
1.0
 76
     1
 77
     6
 78
     2
 67
     7
 79
     3
170
     0
171
     0
290
     0
174
     0
 93
        1
 44
0.0
173
     0
291
     0
 45
0.0
1001
ACAD
1000
AcDbSavedByObjectVersion
1070
     0
  0
VISUALSTYLE
  5
9893
102
{ACAD_XDICTIONARY
360
98FE
102
}
102
{ACAD_REACTORS
330
9880
102
}
330
9880
100
AcDbVisualStyle
  2
X-Ray
 70
    25
 71
     2
 72
     2
 73
     1
 90
        1
 40
0.5
 41
-30.0
 62
     5
 63
     7
 74
     1
 91
        0
 64
     7
 65
   257
 75
     1
175
     1
 42
1.0
 92
        8
 66
     7
 43
1.0
 76
     1
 77
     6
 78
     2
 67
     7
 79
     3
170
     0
171
     0
290
     0
174
     0
 93
       13
 44
0.0
173
     0
291
     0
 45
0.0
1001
ACAD
1000
AcDbSavedByObjectVersion
1070
     0
  0
DICTIONARYVAR
  5
98CD
102
{ACAD_REACTORS
330
98C8
102
}
330
98C8
100
DictionaryVariables
280
     0
  1
1:1
  0
DICTIONARYVAR
  5
98CA
102
{ACAD_REACTORS
330
98C8
102
}
330
98C8
100
DictionaryVariables
280
     0
  1
STANDARD
  0
DICTIONARYVAR
  5
98C9
102
{ACAD_REACTORS
330
98C8
102
}
330
98C8
100
DictionaryVariables
280
     0
  1
STANDARD
  0
DICTIONARYVAR
  5
98CB
102
{ACAD_REACTORS
330
98C8
102
}
330
98C8
100
DictionaryVariables
280
     0
  1
Imperial24
  0
DICTIONARYVAR
  5
98CC
102
{ACAD_REACTORS
330
98C8
102
}
330
98C8
100
DictionaryVariables
280
     0
  1
Imperial24
  0
DICTIONARYVAR
  5
98D0
102
{ACAD_REACTORS
330
98C8
102
}
330
98C8
100
DictionaryVariables
280
     0
  1
1
  0
DICTIONARYVAR
  5
98CF
102
{ACAD_REACTORS
330
98C8
102
}
330
98C8
100
DictionaryVariables
280
     0
  1
0
  0
DICTIONARYVAR
  5
98CE
102
{ACAD_REACTORS
330
98C8
102
}
330
98C8
100
DictionaryVariables
280
     0
  1
127
  0
DICTIONARYVAR
  5
98D1
102
{ACAD_REACTORS
330
98C8
102
}
330
98C8
100
DictionaryVariables
280
     0
  1
2
  0
DICTIONARY
  5
990E
330
98B3
100
AcDbDictionary
280
     1
281
     1
  3
ACAD_XREC_ROUNDTRIP
360
990F
  0
DICTIONARY
  5
9910
330
98B4
100
AcDbDictionary
280
     1
281
     1
  3
ACAD_XREC_ROUNDTRIP
360
9911
  0
DICTIONARY
  5
9912
330
98B5
100
AcDbDictionary
280
     1
281
     1
  3
ACAD_XREC_ROUNDTRIP
360
9913
  0
DICTIONARY
  5
9871
330
9870
100
AcDbDictionary
280
     1
281
     1
  3
ACAD_XREC_ROUNDTRIP
360
98D8
  3
BUMPTILE
360
9873
  3
DIFFUSETILE
360
9872
  3
OPACITYTILE
360
9876
  3
REFLECTIONTILE
360
9875
  3
REFRACTIONTILE
360
9877
  3
SPECULARTILE
360
9874
  0
DICTIONARY
  5
9869
330
9868
100
AcDbDictionary
280
     1
281
     1
  3
ACAD_XREC_ROUNDTRIP
360
98D7
  3
BUMPTILE
360
986B
  3
DIFFUSETILE
360
986A
  3
OPACITYTILE
360
986E
  3
REFLECTIONTILE
360
986D
  3
REFRACTIONTILE
360
986F
  3
SPECULARTILE
360
986C
  0
DICTIONARY
  5
9879
330
9878
100
AcDbDictionary
280
     1
281
     1
  3
ACAD_XREC_ROUNDTRIP
360
98D9
  3
BUMPTILE
360
987B
  3
DIFFUSETILE
360
987A
  3
OPACITYTILE
360
987E
  3
REFLECTIONTILE
360
987D
  3
REFRACTIONTILE
360
987F
  3
SPECULARTILE
360
987C
  0
DICTIONARY
  5
990C
330
98B1
100
AcDbDictionary
280
     1
281
     1
  3
ACAD_XREC_ROUNDTRIP
360
990D
  0
DICTIONARY
  5
98D3
330
989B
100
AcDbDictionary
280
     1
281
     1
  3
ACAD_ROUNDTRIP_2008_TABLESTYLE_CELLSTYLEMAP
360
98D4
  3
ACAD_XREC_ROUNDTRIP
360
990A
  0
DICTIONARY
  5
98E4
330
9886
100
AcDbDictionary
280
     1
281
     1
  3
ACAD_XREC_ROUNDTRIP
360
98E5
  0
DICTIONARY
  5
98E2
330
9885
100
AcDbDictionary
280
     1
281
     1
  3
ACAD_XREC_ROUNDTRIP
360
98E3
  0
DICTIONARY
  5
98F0
330
988C
100
AcDbDictionary
280
     1
281
     1
  3
ACAD_XREC_ROUNDTRIP
360
98F1
  0
DICTIONARY
  5
98F8
330
9890
100
AcDbDictionary
280
     1
281
     1
  3
ACAD_XREC_ROUNDTRIP
360
98F9
  0
DICTIONARY
  5
98EA
330
9889
100
AcDbDictionary
280
     1
281
     1
  3
ACAD_XREC_ROUNDTRIP
360
98EB
  0
DICTIONARY
  5
98EE
330
988B
100
AcDbDictionary
280
     1
281
     1
  3
ACAD_XREC_ROUNDTRIP
360
98EF
  0
DICTIONARY
  5
9908
330
9898
100
AcDbDictionary
280
     1
281
     1
  3
ACAD_XREC_ROUNDTRIP
360
9909
  0
DICTIONARY
  5
98F6
330
988F
100
AcDbDictionary
280
     1
281
     1
  3
ACAD_XREC_ROUNDTRIP
360
98F7
  0
DICTIONARY
  5
98DA
330
9881
100
AcDbDictionary
280
     1
281
     1
  3
ACAD_XREC_ROUNDTRIP
360
98DB
  0
DICTIONARY
  5
98DC
330
9882
100
AcDbDictionary
280
     1
281
     1
  3
ACAD_XREC_ROUNDTRIP
360
98DD
  0
DICTIONARY
  5
98DE
330
9883
100
AcDbDictionary
280
     1
281
     1
  3
ACAD_XREC_ROUNDTRIP
360
98DF
  0
DICTIONARY
  5
98E0
330
9884
100
AcDbDictionary
280
     1
281
     1
  3
ACAD_XREC_ROUNDTRIP
360
98E1
  0
DICTIONARY
  5
98E8
330
9888
100
AcDbDictionary
280
     1
281
     1
  3
ACAD_XREC_ROUNDTRIP
360
98E9
  0
DICTIONARY
  5
9904
330
9896
100
AcDbDictionary
280
     1
281
     1
  3
ACAD_XREC_ROUNDTRIP
360
9905
  0
DICTIONARY
  5
98F4
330
988E
100
AcDbDictionary
280
     1
281
     1
  3
ACAD_XREC_ROUNDTRIP
360
98F5
  0
DICTIONARY
  5
9906
330
9897
100
AcDbDictionary
280
     1
281
     1
  3
ACAD_XREC_ROUNDTRIP
360
9907
  0
DICTIONARY
  5
98EC
330
988A
100
AcDbDictionary
280
     1
281
     1
  3
ACAD_XREC_ROUNDTRIP
360
98ED
  0
DICTIONARY
  5
9902
330
9895
100
AcDbDictionary
280
     1
281
     1
  3
ACAD_XREC_ROUNDTRIP
360
9903
  0
DICTIONARY
  5
9900
330
9894
100
AcDbDictionary
280
     1
281
     1
  3
ACAD_XREC_ROUNDTRIP
360
9901
  0
DICTIONARY
  5
98FA
330
9891
100
AcDbDictionary
280
     1
281
     1
  3
ACAD_XREC_ROUNDTRIP
360
98FB
  0
DICTIONARY
  5
98FC
330
9892
100
AcDbDictionary
280
     1
281
     1
  3
ACAD_XREC_ROUNDTRIP
360
98FD
  0
DICTIONARY
  5
98F2
330
988D
100
AcDbDictionary
280
     1
281
     1
  3
ACAD_XREC_ROUNDTRIP
360
98F3
  0
DICTIONARY
  5
98E6
330
9887
100
AcDbDictionary
280
     1
281
     1
  3
ACAD_XREC_ROUNDTRIP
360
98E7
  0
DICTIONARY
  5
98FE
330
9893
100
AcDbDictionary
280
     1
281
     1
  3
ACAD_XREC_ROUNDTRIP
360
98FF
  0
XRECORD
  5
990F
102
{ACAD_REACTORS
330
990E
102
}
330
990E
100
AcDbXrecord
280
     1
102
DISPLAYNAME
  1
Imperial24
102
FLAGS
 90
        0
  0
XRECORD
  5
9911
102
{ACAD_REACTORS
330
9910
102
}
330
9910
100
AcDbXrecord
280
     1
102
SHADEPLOT
 70
     0
102
SHADEPLOTRESLEVEL
 70
     2
102
SHADEPLOTCUSTOMDPI
 70
   300
  0
XRECORD
  5
9913
102
{ACAD_REACTORS
330
9912
102
}
330
9912
100
AcDbXrecord
280
     1
102
SHADEPLOT
 70
     0
102
SHADEPLOTRESLEVEL
 70
     2
102
SHADEPLOTCUSTOMDPI
 70
   300
  0
XRECORD
  5
98D8
102
{ACAD_REACTORS
330
9871
102
}
330
9871
100
AcDbXrecord
280
     1
102
MATERIAL
148
0.0
149
0.0
149
0.0
 93
        0
 94
      127
282
     0
 72
     0
 77
     0
171
     0
175
     0
179
     0
273
     0
  0
XRECORD
  5
9873
102
{ACAD_REACTORS
330
9871
102
}
330
9871
100
AcDbXrecord
280
     1
270
     1
271
     1
  0
XRECORD
  5
9872
102
{ACAD_REACTORS
330
9871
102
}
330
9871
100
AcDbXrecord
280
     1
270
     1
271
     1
  0
XRECORD
  5
9876
102
{ACAD_REACTORS
330
9871
102
}
330
9871
100
AcDbXrecord
280
     1
270
     1
271
     1
  0
XRECORD
  5
9875
102
{ACAD_REACTORS
330
9871
102
}
330
9871
100
AcDbXrecord
280
     1
270
     1
271
     1
  0
XRECORD
  5
9877
102
{ACAD_REACTORS
330
9871
102
}
330
9871
100
AcDbXrecord
280
     1
270
     1
271
     1
  0
XRECORD
  5
9874
102
{ACAD_REACTORS
330
9871
102
}
330
9871
100
AcDbXrecord
280
     1
270
     1
271
     1
  0
XRECORD
  5
98D7
102
{ACAD_REACTORS
330
9869
102
}
330
9869
100
AcDbXrecord
280
     1
102
MATERIAL
148
0.0
149
0.0
149
0.0
 93
        0
 94
      127
282
     0
 72
     0
 77
     0
171
     0
175
     0
179
     0
273
     0
  0
XRECORD
  5
986B
102
{ACAD_REACTORS
330
9869
102
}
330
9869
100
AcDbXrecord
280
     1
270
     1
271
     1
  0
XRECORD
  5
986A
102
{ACAD_REACTORS
330
9869
102
}
330
9869
100
AcDbXrecord
280
     1
270
     1
271
     1
  0
XRECORD
  5
986E
102
{ACAD_REACTORS
330
9869
102
}
330
9869
100
AcDbXrecord
280
     1
270
     1
271
     1
  0
XRECORD
  5
986D
102
{ACAD_REACTORS
330
9869
102
}
330
9869
100
AcDbXrecord
280
     1
270
     1
271
     1
  0
XRECORD
  5
986F
102
{ACAD_REACTORS
330
9869
102
}
330
9869
100
AcDbXrecord
280
     1
270
     1
271
     1
  0
XRECORD
  5
986C
102
{ACAD_REACTORS
330
9869
102
}
330
9869
100
AcDbXrecord
280
     1
270
     1
271
     1
  0
XRECORD
  5
98D9
102
{ACAD_REACTORS
330
9879
102
}
330
9879
100
AcDbXrecord
280
     1
102
MATERIAL
148
0.0
149
0.0
149
0.0
 93
        0
 94
      127
282
     0
 72
     0
 77
     0
171
     0
175
     0
179
     0
273
     0
  0
XRECORD
  5
987B
102
{ACAD_REACTORS
330
9879
102
}
330
9879
100
AcDbXrecord
280
     1
270
     1
271
     1
  0
XRECORD
  5
987A
102
{ACAD_REACTORS
330
9879
102
}
330
9879
100
AcDbXrecord
280
     1
270
     1
271
     1
  0
XRECORD
  5
987E
102
{ACAD_REACTORS
330
9879
102
}
330
9879
100
AcDbXrecord
280
     1
270
     1
271
     1
  0
XRECORD
  5
987D
102
{ACAD_REACTORS
330
9879
102
}
330
9879
100
AcDbXrecord
280
     1
270
     1
271
     1
  0
XRECORD
  5
987F
102
{ACAD_REACTORS
330
9879
102
}
330
9879
100
AcDbXrecord
280
     1
270
     1
271
     1
  0
XRECORD
  5
987C
102
{ACAD_REACTORS
330
9879
102
}
330
9879
100
AcDbXrecord
280
     1
270
     1
271
     1
  0
XRECORD
  5
990D
102
{ACAD_REACTORS
330
990C
102
}
330
990C
100
AcDbXrecord
280
     1
102
DISPLAYNAME
  1
Imperial24
102
FLAGS
 90
        0
  0
CELLSTYLEMAP
  5
98D4
102
{ACAD_REACTORS
330
98D3
102
}
330
98D3
100
AcDbCellStyleMap
 90
        3
300
CELLSTYLE
  1
TABLEFORMAT_BEGIN
 90
        5
170
     1
 91
        0
 92
    32768
 62
   257
 93
        1
300
CONTENTFORMAT
  1
CONTENTFORMAT_BEGIN
 90
        0
 91
        0
 92
      512
 93
        0
300

 40
0.0
140
1.0
 94
        5
 62
     0
340
965D
144
0.25
309
CONTENTFORMAT_END
171
     0
 94
        0
309
TABLEFORMAT_END
  1
CELLSTYLE_BEGIN
 90
        1
 91
        1
300
_TITLE
309
CELLSTYLE_END
300
CELLSTYLE
  1
TABLEFORMAT_BEGIN
 90
        5
170
     1
 91
        0
 92
        0
 62
   257
 93
        1
300
CONTENTFORMAT
  1
CONTENTFORMAT_BEGIN
 90
        0
 91
        0
 92
      512
 93
        0
300

 40
0.0
140
1.0
 94
        5
 62
     0
340
965D
144
0.18
309
CONTENTFORMAT_END
171
     0
 94
        0
309
TABLEFORMAT_END
  1
CELLSTYLE_BEGIN
 90
        2
 91
        1
300
_HEADER
309
CELLSTYLE_END
300
CELLSTYLE
  1
TABLEFORMAT_BEGIN
 90
        5
170
     1
 91
        0
 92
        0
 62
   257
 93
        1
300
CONTENTFORMAT
  1
CONTENTFORMAT_BEGIN
 90
        0
 91
        0
 92
      512
 93
        0
300

 40
0.0
140
1.0
 94
        2
 62
     0
340
965D
144
0.18
309
CONTENTFORMAT_END
171
     0
 94
        0
309
TABLEFORMAT_END
  1
CELLSTYLE_BEGIN
 90
        3
 91
        2
300
_DATA
309
CELLSTYLE_END
  0
XRECORD
  5
990A
102
{ACAD_REACTORS
330
98D3
102
}
330
98D3
100
AcDbXrecord
280
     1
102
ACAD_ROUNDTRIP_PRE2007_TABLESTYLE
 90
      512
 91
        0
  1

 92
      512
 93
        0
  2

 94
      512
 95
        0
  3

  0
XRECORD
  5
98E5
102
{ACAD_REACTORS
330
98E4
102
}
330
98E4
100
AcDbXrecord
280
     1
102
RTVSPost2010Prop28
280
     1
102
RTVSPost2010PropOp28
 70
     1
102
RTVSPost2010Prop29
280
     1
102
RTVSPost2010PropOp29
 70
     1
102
RTVSPost2010Prop30
280
     0
102
RTVSPost2010PropOp30
 70
     1
102
RTVSPost2010Prop31
280
     0
102
RTVSPost2010PropOp31
 70
     1
102
RTVSPost2010Prop32
280
     0
102
RTVSPost2010PropOp32
 70
     1
102
RTVSPost2010Prop33
280
     0
102
RTVSPost2010PropOp33
 70
     1
102
RTVSPost2010Prop34
280
     0
102
RTVSPost2010PropOp34
 70
     1
102
RTVSPost2010Prop35
280
     0
102
RTVSPost2010PropOp35
 70
     1
102
RTVSPost2010Prop36
280
     0
102
RTVSPost2010PropOp36
 70
     1
102
RTVSPost2010Prop37
 90
       50
102
RTVSPost2010PropOp37
 70
     1
102
RTVSPost2010Prop38
140
0.0
102
RTVSPost2010PropOp38
 70
     1
102
RTVSPost2010Prop39
140
1.0
102
RTVSPost2010PropOp39
 70
     1
102
RTVSPost2010Prop40
 90
        0
102
RTVSPost2010PropOp40
 70
     1
102
RTVSPost2010Prop41ColorIndex
 90
       18
102
RTVSPost2010Prop41ColorRGB
 90
        0
102
RTVSPost2010PropOp41
 70
     1
102
RTVSPost2010Prop42
 90
       50
102
RTVSPost2010PropOp42
 70
     1
102
RTVSPost2010Prop43
 90
        3
102
RTVSPost2010PropOp43
 70
     1
102
RTVSPost2010Prop44ColorIndex
 90
        5
102
RTVSPost2010Prop44ColorRGB
 90
      255
102
RTVSPost2010PropOp44
 70
     1
102
RTVSPost2010Prop45
280
     0
102
RTVSPost2010PropOp45
 70
     1
102
RTVSPost2010Prop46
 90
       50
102
RTVSPost2010PropOp46
 70
     1
102
RTVSPost2010Prop47
 90
       50
102
RTVSPost2010PropOp47
 70
     1
102
RTVSPost2010Prop48
 90
       50
102
RTVSPost2010PropOp48
 70
     1
102
RTVSPost2010Prop49
280
     0
102
RTVSPost2010PropOp49
 70
     1
102
RTVSPost2010Prop50
 90
       50
102
RTVSPost2010PropOp50
 70
     1
102
RTVSPost2010Prop51ColorIndex
 90
      256
102
RTVSPost2010Prop51ColorRGB
 90
-16777216
102
RTVSPost2010PropOp51
 70
     0
102
RTVSPost2010Prop52
140
1.0
102
RTVSPost2010PropOp52
 70
     0
102
RTVSPost2010Prop53
 90
        2
102
RTVSPost2010PropOp53
 70
     1
102
RTVSPost2010Prop54
  1
strokes_ogs.tif
102
RTVSPost2010PropOp54
 70
     1
102
RTVSPost2010Prop55
280
     0
102
RTVSPost2010PropOp55
 70
     1
102
RTVSPost2010Prop56
140
1.0
102
RTVSPost2010PropOp56
 70
     1
102
RTVSPost2010Prop57
140
1.0
102
RTVSPost2010PropOp57
 70
     1
102
RTVSPropertyOp0
 70
     1
102
RTVSPropertyOp1
 70
     1
102
RTVSPropertyOp2
 70
     1
102
RTVSPropertyOp3
 70
     1
102
RTVSPropertyOp4
 70
     1
102
RTVSPropertyOp5
 70
     1
102
RTVSPropertyOp6
 70
     1
102
RTVSPropertyOp7
 70
     1
102
RTVSPropertyOp8
 70
     1
102
RTVSPropertyOp9
 70
     1
102
RTVSPropertyOp10
 70
     1
102
RTVSPropertyOp11
 70
     1
102
RTVSPropertyOp12
 70
     1
102
RTVSPropertyOp13
 70
     1
102
RTVSPropertyOp14
 70
     1
102
RTVSPropertyOp15
 70
     1
102
RTVSPropertyOp16
 70
     1
102
RTVSPropertyOp17
 70
     1
102
RTVSPropertyOp18
 70
     1
102
RTVSPropertyOp19
 70
     1
102
RTVSPropertyOp20
 70
     1
102
RTVSPropertyOp21
 70
     1
102
RTVSPropertyOp22
 70
     1
102
RTVSPropertyOp23
 70
     1
102
RTVSPropertyOp24
 70
     1
102
RTVSPropertyOp25
 70
     1
102
RTVSPropertyOp26
 70
     1
102
RTVSPropertyOp27
 70
     1
102
RTVSPropertyOp28
 70
     1
102
RTVSPropertyOp29
 70
     1
102
RTVSPropertyOp30
 70
     1
102
RTVSPropertyOp31
 70
     1
102
RTVSPropertyOp32
 70
     1
102
RTVSPropertyOp33
 70
     1
102
RTVSPropertyOp34
 70
     1
102
RTVSPropertyOp35
 70
     1
102
RTVSPropertyOp36
 70
     1
102
RTVSPropertyOp37
 70
     1
102
RTVSPropertyOp38
 70
     1
102
RTVSPropertyOp39
 70
     1
102
RTVSPropertyOp40
 70
     1
102
RTVSPropertyOp41
 70
     1
102
RTVSPropertyOp42
 70
     1
102
RTVSPropertyOp43
 70
     1
102
RTVSPropertyOp44
 70
     1
102
RTVSPropertyOp45
 70
     1
102
RTVSPropertyOp46
 70
     1
102
RTVSPropertyOp47
 70
     1
102
RTVSPropertyOp48
 70
     1
102
RTVSPropertyOp49
 70
     1
102
RTVSPropertyOp50
 70
     1
102
RTVSPropertyOp51
 70
     0
102
RTVSPropertyOp52
 70
     0
102
RTVSPropertyOp53
 70
     1
102
RTVSPropertyOp54
 70
     1
102
RTVSPropertyOp55
 70
     1
102
RTVSPropertyOp56
 70
     1
102
RTVSPropertyOp57
 70
     1
102
RTVSPropertyOp58
 70
     1
102
RTVSPropertyOp59
 70
     1
102
RTVSPropertyOp60
 70
     1
102
RTVSPropertyOp61
 70
     1
102
RTVSPropertyOp62
 70
     1
  0
XRECORD
  5
98E3
102
{ACAD_REACTORS
330
98E2
102
}
330
98E2
100
AcDbXrecord
280
     1
102
RTVSPost2010Prop28
280
     0
102
RTVSPost2010PropOp28
 70
     1
102
RTVSPost2010Prop29
280
     1
102
RTVSPost2010PropOp29
 70
     1
102
RTVSPost2010Prop30
280
     1
102
RTVSPost2010PropOp30
 70
     1
102
RTVSPost2010Prop31
280
     0
102
RTVSPost2010PropOp31
 70
     1
102
RTVSPost2010Prop32
280
     0
102
RTVSPost2010PropOp32
 70
     1
102
RTVSPost2010Prop33
280
     0
102
RTVSPost2010PropOp33
 70
     1
102
RTVSPost2010Prop34
280
     0
102
RTVSPost2010PropOp34
 70
     1
102
RTVSPost2010Prop35
280
     0
102
RTVSPost2010PropOp35
 70
     1
102
RTVSPost2010Prop36
280
     0
102
RTVSPost2010PropOp36
 70
     1
102
RTVSPost2010Prop37
 90
       50
102
RTVSPost2010PropOp37
 70
     1
102
RTVSPost2010Prop38
140
0.0
102
RTVSPost2010PropOp38
 70
     1
102
RTVSPost2010Prop39
140
1.0
102
RTVSPost2010PropOp39
 70
     1
102
RTVSPost2010Prop40
 90
        0
102
RTVSPost2010PropOp40
 70
     1
102
RTVSPost2010Prop41ColorIndex
 90
       18
102
RTVSPost2010Prop41ColorRGB
 90
        0
102
RTVSPost2010PropOp41
 70
     1
102
RTVSPost2010Prop42
 90
       50
102
RTVSPost2010PropOp42
 70
     1
102
RTVSPost2010Prop43
 90
        3
102
RTVSPost2010PropOp43
 70
     1
102
RTVSPost2010Prop44ColorIndex
 90
        5
102
RTVSPost2010Prop44ColorRGB
 90
      255
102
RTVSPost2010PropOp44
 70
     1
102
RTVSPost2010Prop45
280
     0
102
RTVSPost2010PropOp45
 70
     1
102
RTVSPost2010Prop46
 90
       50
102
RTVSPost2010PropOp46
 70
     1
102
RTVSPost2010Prop47
 90
       50
102
RTVSPost2010PropOp47
 70
     1
102
RTVSPost2010Prop48
 90
       50
102
RTVSPost2010PropOp48
 70
     1
102
RTVSPost2010Prop49
280
     0
102
RTVSPost2010PropOp49
 70
     1
102
RTVSPost2010Prop50
 90
       50
102
RTVSPost2010PropOp50
 70
     1
102
RTVSPost2010Prop51ColorIndex
 90
      256
102
RTVSPost2010Prop51ColorRGB
 90
-16777216
102
RTVSPost2010PropOp51
 70
     0
102
RTVSPost2010Prop52
140
1.0
102
RTVSPost2010PropOp52
 70
     0
102
RTVSPost2010Prop53
 90
        2
102
RTVSPost2010PropOp53
 70
     1
102
RTVSPost2010Prop54
  1
strokes_ogs.tif
102
RTVSPost2010PropOp54
 70
     1
102
RTVSPost2010Prop55
280
     0
102
RTVSPost2010PropOp55
 70
     1
102
RTVSPost2010Prop56
140
1.0
102
RTVSPost2010PropOp56
 70
     1
102
RTVSPost2010Prop57
140
1.0
102
RTVSPost2010PropOp57
 70
     1
102
RTVSPropertyOp0
 70
     1
102
RTVSPropertyOp1
 70
     1
102
RTVSPropertyOp2
 70
     1
102
RTVSPropertyOp3
 70
     1
102
RTVSPropertyOp4
 70
     1
102
RTVSPropertyOp5
 70
     1
102
RTVSPropertyOp6
 70
     1
102
RTVSPropertyOp7
 70
     1
102
RTVSPropertyOp8
 70
     1
102
RTVSPropertyOp9
 70
     1
102
RTVSPropertyOp10
 70
     1
102
RTVSPropertyOp11
 70
     1
102
RTVSPropertyOp12
 70
     1
102
RTVSPropertyOp13
 70
     1
102
RTVSPropertyOp14
 70
     1
102
RTVSPropertyOp15
 70
     1
102
RTVSPropertyOp16
 70
     1
102
RTVSPropertyOp17
 70
     1
102
RTVSPropertyOp18
 70
     1
102
RTVSPropertyOp19
 70
     1
102
RTVSPropertyOp20
 70
     1
102
RTVSPropertyOp21
 70
     1
102
RTVSPropertyOp22
 70
     1
102
RTVSPropertyOp23
 70
     1
102
RTVSPropertyOp24
 70
     1
102
RTVSPropertyOp25
 70
     1
102
RTVSPropertyOp26
 70
     1
102
RTVSPropertyOp27
 70
     1
102
RTVSPropertyOp28
 70
     1
102
RTVSPropertyOp29
 70
     1
102
RTVSPropertyOp30
 70
     1
102
RTVSPropertyOp31
 70
     1
102
RTVSPropertyOp32
 70
     1
102
RTVSPropertyOp33
 70
     1
102
RTVSPropertyOp34
 70
     1
102
RTVSPropertyOp35
 70
     1
102
RTVSPropertyOp36
 70
     1
102
RTVSPropertyOp37
 70
     1
102
RTVSPropertyOp38
 70
     1
102
RTVSPropertyOp39
 70
     1
102
RTVSPropertyOp40
 70
     1
102
RTVSPropertyOp41
 70
     1
102
RTVSPropertyOp42
 70
     1
102
RTVSPropertyOp43
 70
     1
102
RTVSPropertyOp44
 70
     1
102
RTVSPropertyOp45
 70
     1
102
RTVSPropertyOp46
 70
     1
102
RTVSPropertyOp47
 70
     1
102
RTVSPropertyOp48
 70
     1
102
RTVSPropertyOp49
 70
     1
102
RTVSPropertyOp50
 70
     1
102
RTVSPropertyOp51
 70
     0
102
RTVSPropertyOp52
 70
     0
102
RTVSPropertyOp53
 70
     1
102
RTVSPropertyOp54
 70
     1
102
RTVSPropertyOp55
 70
     1
102
RTVSPropertyOp56
 70
     1
102
RTVSPropertyOp57
 70
     1
102
RTVSPropertyOp58
 70
     1
102
RTVSPropertyOp59
 70
     1
102
RTVSPropertyOp60
 70
     1
102
RTVSPropertyOp61
 70
     1
102
RTVSPropertyOp62
 70
     1
  0
XRECORD
  5
98F1
102
{ACAD_REACTORS
330
98F0
102
}
330
98F0
100
AcDbXrecord
280
     1
102
RTVSPost2010Prop28
280
     0
102
RTVSPost2010PropOp28
 70
     1
102
RTVSPost2010Prop29
280
     1
102
RTVSPost2010PropOp29
 70
     1
102
RTVSPost2010Prop30
280
     1
102
RTVSPost2010PropOp30
 70
     1
102
RTVSPost2010Prop31
280
     0
102
RTVSPost2010PropOp31
 70
     1
102
RTVSPost2010Prop32
280
     0
102
RTVSPost2010PropOp32
 70
     1
102
RTVSPost2010Prop33
280
     0
102
RTVSPost2010PropOp33
 70
     1
102
RTVSPost2010Prop34
280
     0
102
RTVSPost2010PropOp34
 70
     1
102
RTVSPost2010Prop35
280
     0
102
RTVSPost2010PropOp35
 70
     1
102
RTVSPost2010Prop36
280
     0
102
RTVSPost2010PropOp36
 70
     1
102
RTVSPost2010Prop37
 90
       50
102
RTVSPost2010PropOp37
 70
     1
102
RTVSPost2010Prop38
140
0.0
102
RTVSPost2010PropOp38
 70
     1
102
RTVSPost2010Prop39
140
1.0
102
RTVSPost2010PropOp39
 70
     1
102
RTVSPost2010Prop40
 90
        0
102
RTVSPost2010PropOp40
 70
     1
102
RTVSPost2010Prop41ColorIndex
 90
       18
102
RTVSPost2010Prop41ColorRGB
 90
        0
102
RTVSPost2010PropOp41
 70
     1
102
RTVSPost2010Prop42
 90
       50
102
RTVSPost2010PropOp42
 70
     1
102
RTVSPost2010Prop43
 90
        3
102
RTVSPost2010PropOp43
 70
     1
102
RTVSPost2010Prop44ColorIndex
 90
        5
102
RTVSPost2010Prop44ColorRGB
 90
      255
102
RTVSPost2010PropOp44
 70
     1
102
RTVSPost2010Prop45
280
     0
102
RTVSPost2010PropOp45
 70
     1
102
RTVSPost2010Prop46
 90
       50
102
RTVSPost2010PropOp46
 70
     1
102
RTVSPost2010Prop47
 90
       50
102
RTVSPost2010PropOp47
 70
     1
102
RTVSPost2010Prop48
 90
       50
102
RTVSPost2010PropOp48
 70
     1
102
RTVSPost2010Prop49
280
     0
102
RTVSPost2010PropOp49
 70
     1
102
RTVSPost2010Prop50
 90
       50
102
RTVSPost2010PropOp50
 70
     1
102
RTVSPost2010Prop51ColorIndex
 90
      256
102
RTVSPost2010Prop51ColorRGB
 90
-16777216
102
RTVSPost2010PropOp51
 70
     0
102
RTVSPost2010Prop52
140
1.0
102
RTVSPost2010PropOp52
 70
     0
102
RTVSPost2010Prop53
 90
        2
102
RTVSPost2010PropOp53
 70
     1
102
RTVSPost2010Prop54
  1
strokes_ogs.tif
102
RTVSPost2010PropOp54
 70
     1
102
RTVSPost2010Prop55
280
     0
102
RTVSPost2010PropOp55
 70
     1
102
RTVSPost2010Prop56
140
1.0
102
RTVSPost2010PropOp56
 70
     1
102
RTVSPost2010Prop57
140
1.0
102
RTVSPost2010PropOp57
 70
     1
102
RTVSPropertyOp0
 70
     1
102
RTVSPropertyOp1
 70
     1
102
RTVSPropertyOp2
 70
     1
102
RTVSPropertyOp3
 70
     1
102
RTVSPropertyOp4
 70
     1
102
RTVSPropertyOp5
 70
     1
102
RTVSPropertyOp6
 70
     1
102
RTVSPropertyOp7
 70
     1
102
RTVSPropertyOp8
 70
     1
102
RTVSPropertyOp9
 70
     1
102
RTVSPropertyOp10
 70
     1
102
RTVSPropertyOp11
 70
     1
102
RTVSPropertyOp12
 70
     1
102
RTVSPropertyOp13
 70
     1
102
RTVSPropertyOp14
 70
     1
102
RTVSPropertyOp15
 70
     1
102
RTVSPropertyOp16
 70
     1
102
RTVSPropertyOp17
 70
     1
102
RTVSPropertyOp18
 70
     1
102
RTVSPropertyOp19
 70
     1
102
RTVSPropertyOp20
 70
     1
102
RTVSPropertyOp21
 70
     1
102
RTVSPropertyOp22
 70
     1
102
RTVSPropertyOp23
 70
     1
102
RTVSPropertyOp24
 70
     1
102
RTVSPropertyOp25
 70
     1
102
RTVSPropertyOp26
 70
     1
102
RTVSPropertyOp27
 70
     1
102
RTVSPropertyOp28
 70
     1
102
RTVSPropertyOp29
 70
     1
102
RTVSPropertyOp30
 70
     1
102
RTVSPropertyOp31
 70
     1
102
RTVSPropertyOp32
 70
     1
102
RTVSPropertyOp33
 70
     1
102
RTVSPropertyOp34
 70
     1
102
RTVSPropertyOp35
 70
     1
102
RTVSPropertyOp36
 70
     1
102
RTVSPropertyOp37
 70
     1
102
RTVSPropertyOp38
 70
     1
102
RTVSPropertyOp39
 70
     1
102
RTVSPropertyOp40
 70
     1
102
RTVSPropertyOp41
 70
     1
102
RTVSPropertyOp42
 70
     1
102
RTVSPropertyOp43
 70
     1
102
RTVSPropertyOp44
 70
     1
102
RTVSPropertyOp45
 70
     1
102
RTVSPropertyOp46
 70
     1
102
RTVSPropertyOp47
 70
     1
102
RTVSPropertyOp48
 70
     1
102
RTVSPropertyOp49
 70
     1
102
RTVSPropertyOp50
 70
     1
102
RTVSPropertyOp51
 70
     0
102
RTVSPropertyOp52
 70
     0
102
RTVSPropertyOp53
 70
     1
102
RTVSPropertyOp54
 70
     1
102
RTVSPropertyOp55
 70
     1
102
RTVSPropertyOp56
 70
     1
102
RTVSPropertyOp57
 70
     1
102
RTVSPropertyOp58
 70
     1
102
RTVSPropertyOp59
 70
     1
102
RTVSPropertyOp60
 70
     1
102
RTVSPropertyOp61
 70
     1
102
RTVSPropertyOp62
 70
     1
  0
XRECORD
  5
98F9
102
{ACAD_REACTORS
330
98F8
102
}
330
98F8
100
AcDbXrecord
280
     1
102
RTVSPost2010Prop28
280
     0
102
RTVSPost2010PropOp28
 70
     1
102
RTVSPost2010Prop29
280
     1
102
RTVSPost2010PropOp29
 70
     1
102
RTVSPost2010Prop30
280
     1
102
RTVSPost2010PropOp30
 70
     1
102
RTVSPost2010Prop31
280
     0
102
RTVSPost2010PropOp31
 70
     1
102
RTVSPost2010Prop32
280
     0
102
RTVSPost2010PropOp32
 70
     1
102
RTVSPost2010Prop33
280
     0
102
RTVSPost2010PropOp33
 70
     1
102
RTVSPost2010Prop34
280
     0
102
RTVSPost2010PropOp34
 70
     1
102
RTVSPost2010Prop35
280
     0
102
RTVSPost2010PropOp35
 70
     1
102
RTVSPost2010Prop36
280
     0
102
RTVSPost2010PropOp36
 70
     1
102
RTVSPost2010Prop37
 90
       50
102
RTVSPost2010PropOp37
 70
     1
102
RTVSPost2010Prop38
140
0.0
102
RTVSPost2010PropOp38
 70
     1
102
RTVSPost2010Prop39
140
1.0
102
RTVSPost2010PropOp39
 70
     1
102
RTVSPost2010Prop40
 90
        0
102
RTVSPost2010PropOp40
 70
     1
102
RTVSPost2010Prop41ColorIndex
 90
       18
102
RTVSPost2010Prop41ColorRGB
 90
        0
102
RTVSPost2010PropOp41
 70
     1
102
RTVSPost2010Prop42
 90
       50
102
RTVSPost2010PropOp42
 70
     1
102
RTVSPost2010Prop43
 90
        3
102
RTVSPost2010PropOp43
 70
     1
102
RTVSPost2010Prop44ColorIndex
 90
        5
102
RTVSPost2010Prop44ColorRGB
 90
      255
102
RTVSPost2010PropOp44
 70
     1
102
RTVSPost2010Prop45
280
     0
102
RTVSPost2010PropOp45
 70
     1
102
RTVSPost2010Prop46
 90
       50
102
RTVSPost2010PropOp46
 70
     1
102
RTVSPost2010Prop47
 90
       50
102
RTVSPost2010PropOp47
 70
     1
102
RTVSPost2010Prop48
 90
       50
102
RTVSPost2010PropOp48
 70
     1
102
RTVSPost2010Prop49
280
     0
102
RTVSPost2010PropOp49
 70
     1
102
RTVSPost2010Prop50
 90
       50
102
RTVSPost2010PropOp50
 70
     1
102
RTVSPost2010Prop51ColorIndex
 90
      256
102
RTVSPost2010Prop51ColorRGB
 90
-16777216
102
RTVSPost2010PropOp51
 70
     0
102
RTVSPost2010Prop52
140
1.0
102
RTVSPost2010PropOp52
 70
     0
102
RTVSPost2010Prop53
 90
        2
102
RTVSPost2010PropOp53
 70
     1
102
RTVSPost2010Prop54
  1
strokes_ogs.tif
102
RTVSPost2010PropOp54
 70
     1
102
RTVSPost2010Prop55
280
     0
102
RTVSPost2010PropOp55
 70
     1
102
RTVSPost2010Prop56
140
1.0
102
RTVSPost2010PropOp56
 70
     1
102
RTVSPost2010Prop57
140
1.0
102
RTVSPost2010PropOp57
 70
     1
102
RTVSPropertyOp0
 70
     1
102
RTVSPropertyOp1
 70
     1
102
RTVSPropertyOp2
 70
     1
102
RTVSPropertyOp3
 70
     1
102
RTVSPropertyOp4
 70
     1
102
RTVSPropertyOp5
 70
     1
102
RTVSPropertyOp6
 70
     1
102
RTVSPropertyOp7
 70
     1
102
RTVSPropertyOp8
 70
     1
102
RTVSPropertyOp9
 70
     1
102
RTVSPropertyOp10
 70
     1
102
RTVSPropertyOp11
 70
     1
102
RTVSPropertyOp12
 70
     1
102
RTVSPropertyOp13
 70
     1
102
RTVSPropertyOp14
 70
     1
102
RTVSPropertyOp15
 70
     1
102
RTVSPropertyOp16
 70
     1
102
RTVSPropertyOp17
 70
     1
102
RTVSPropertyOp18
 70
     1
102
RTVSPropertyOp19
 70
     1
102
RTVSPropertyOp20
 70
     1
102
RTVSPropertyOp21
 70
     1
102
RTVSPropertyOp22
 70
     1
102
RTVSPropertyOp23
 70
     1
102
RTVSPropertyOp24
 70
     1
102
RTVSPropertyOp25
 70
     1
102
RTVSPropertyOp26
 70
     1
102
RTVSPropertyOp27
 70
     1
102
RTVSPropertyOp28
 70
     1
102
RTVSPropertyOp29
 70
     1
102
RTVSPropertyOp30
 70
     1
102
RTVSPropertyOp31
 70
     1
102
RTVSPropertyOp32
 70
     1
102
RTVSPropertyOp33
 70
     1
102
RTVSPropertyOp34
 70
     1
102
RTVSPropertyOp35
 70
     1
102
RTVSPropertyOp36
 70
     1
102
RTVSPropertyOp37
 70
     1
102
RTVSPropertyOp38
 70
     1
102
RTVSPropertyOp39
 70
     1
102
RTVSPropertyOp40
 70
     1
102
RTVSPropertyOp41
 70
     1
102
RTVSPropertyOp42
 70
     1
102
RTVSPropertyOp43
 70
     1
102
RTVSPropertyOp44
 70
     1
102
RTVSPropertyOp45
 70
     1
102
RTVSPropertyOp46
 70
     1
102
RTVSPropertyOp47
 70
     1
102
RTVSPropertyOp48
 70
     1
102
RTVSPropertyOp49
 70
     1
102
RTVSPropertyOp50
 70
     1
102
RTVSPropertyOp51
 70
     0
102
RTVSPropertyOp52
 70
     0
102
RTVSPropertyOp53
 70
     1
102
RTVSPropertyOp54
 70
     1
102
RTVSPropertyOp55
 70
     1
102
RTVSPropertyOp56
 70
     1
102
RTVSPropertyOp57
 70
     1
102
RTVSPropertyOp58
 70
     1
102
RTVSPropertyOp59
 70
     1
102
RTVSPropertyOp60
 70
     1
102
RTVSPropertyOp61
 70
     1
102
RTVSPropertyOp62
 70
     1
  0
XRECORD
  5
98EB
102
{ACAD_REACTORS
330
98EA
102
}
330
98EA
100
AcDbXrecord
280
     1
102
RTVSPost2010Prop28
280
     0
102
RTVSPost2010PropOp28
 70
     1
102
RTVSPost2010Prop29
280
     1
102
RTVSPost2010PropOp29
 70
     1
102
RTVSPost2010Prop30
280
     1
102
RTVSPost2010PropOp30
 70
     1
102
RTVSPost2010Prop31
280
     0
102
RTVSPost2010PropOp31
 70
     1
102
RTVSPost2010Prop32
280
     0
102
RTVSPost2010PropOp32
 70
     1
102
RTVSPost2010Prop33
280
     0
102
RTVSPost2010PropOp33
 70
     1
102
RTVSPost2010Prop34
280
     0
102
RTVSPost2010PropOp34
 70
     1
102
RTVSPost2010Prop35
280
     0
102
RTVSPost2010PropOp35
 70
     1
102
RTVSPost2010Prop36
280
     0
102
RTVSPost2010PropOp36
 70
     1
102
RTVSPost2010Prop37
 90
       50
102
RTVSPost2010PropOp37
 70
     1
102
RTVSPost2010Prop38
140
0.0
102
RTVSPost2010PropOp38
 70
     1
102
RTVSPost2010Prop39
140
1.0
102
RTVSPost2010PropOp39
 70
     1
102
RTVSPost2010Prop40
 90
        0
102
RTVSPost2010PropOp40
 70
     1
102
RTVSPost2010Prop41ColorIndex
 90
       18
102
RTVSPost2010Prop41ColorRGB
 90
        0
102
RTVSPost2010PropOp41
 70
     1
102
RTVSPost2010Prop42
 90
       50
102
RTVSPost2010PropOp42
 70
     1
102
RTVSPost2010Prop43
 90
        3
102
RTVSPost2010PropOp43
 70
     1
102
RTVSPost2010Prop44ColorIndex
 90
        5
102
RTVSPost2010Prop44ColorRGB
 90
      255
102
RTVSPost2010PropOp44
 70
     1
102
RTVSPost2010Prop45
280
     0
102
RTVSPost2010PropOp45
 70
     1
102
RTVSPost2010Prop46
 90
       50
102
RTVSPost2010PropOp46
 70
     1
102
RTVSPost2010Prop47
 90
       50
102
RTVSPost2010PropOp47
 70
     1
102
RTVSPost2010Prop48
 90
       50
102
RTVSPost2010PropOp48
 70
     1
102
RTVSPost2010Prop49
280
     0
102
RTVSPost2010PropOp49
 70
     1
102
RTVSPost2010Prop50
 90
       50
102
RTVSPost2010PropOp50
 70
     1
102
RTVSPost2010Prop51ColorIndex
 90
      256
102
RTVSPost2010Prop51ColorRGB
 90
-16777216
102
RTVSPost2010PropOp51
 70
     0
102
RTVSPost2010Prop52
140
1.0
102
RTVSPost2010PropOp52
 70
     0
102
RTVSPost2010Prop53
 90
        2
102
RTVSPost2010PropOp53
 70
     1
102
RTVSPost2010Prop54
  1
strokes_ogs.tif
102
RTVSPost2010PropOp54
 70
     1
102
RTVSPost2010Prop55
280
     0
102
RTVSPost2010PropOp55
 70
     1
102
RTVSPost2010Prop56
140
1.0
102
RTVSPost2010PropOp56
 70
     1
102
RTVSPost2010Prop57
140
1.0
102
RTVSPost2010PropOp57
 70
     1
102
RTVSPropertyOp0
 70
     1
102
RTVSPropertyOp1
 70
     1
102
RTVSPropertyOp2
 70
     1
102
RTVSPropertyOp3
 70
     1
102
RTVSPropertyOp4
 70
     1
102
RTVSPropertyOp5
 70
     1
102
RTVSPropertyOp6
 70
     1
102
RTVSPropertyOp7
 70
     1
102
RTVSPropertyOp8
 70
     1
102
RTVSPropertyOp9
 70
     1
102
RTVSPropertyOp10
 70
     1
102
RTVSPropertyOp11
 70
     1
102
RTVSPropertyOp12
 70
     1
102
RTVSPropertyOp13
 70
     1
102
RTVSPropertyOp14
 70
     1
102
RTVSPropertyOp15
 70
     1
102
RTVSPropertyOp16
 70
     1
102
RTVSPropertyOp17
 70
     1
102
RTVSPropertyOp18
 70
     1
102
RTVSPropertyOp19
 70
     1
102
RTVSPropertyOp20
 70
     1
102
RTVSPropertyOp21
 70
     1
102
RTVSPropertyOp22
 70
     1
102
RTVSPropertyOp23
 70
     1
102
RTVSPropertyOp24
 70
     1
102
RTVSPropertyOp25
 70
     1
102
RTVSPropertyOp26
 70
     1
102
RTVSPropertyOp27
 70
     1
102
RTVSPropertyOp28
 70
     1
102
RTVSPropertyOp29
 70
     1
102
RTVSPropertyOp30
 70
     1
102
RTVSPropertyOp31
 70
     1
102
RTVSPropertyOp32
 70
     1
102
RTVSPropertyOp33
 70
     1
102
RTVSPropertyOp34
 70
     1
102
RTVSPropertyOp35
 70
     1
102
RTVSPropertyOp36
 70
     1
102
RTVSPropertyOp37
 70
     1
102
RTVSPropertyOp38
 70
     1
102
RTVSPropertyOp39
 70
     1
102
RTVSPropertyOp40
 70
     1
102
RTVSPropertyOp41
 70
     1
102
RTVSPropertyOp42
 70
     1
102
RTVSPropertyOp43
 70
     1
102
RTVSPropertyOp44
 70
     1
102
RTVSPropertyOp45
 70
     1
102
RTVSPropertyOp46
 70
     1
102
RTVSPropertyOp47
 70
     1
102
RTVSPropertyOp48
 70
     1
102
RTVSPropertyOp49
 70
     1
102
RTVSPropertyOp50
 70
     1
102
RTVSPropertyOp51
 70
     0
102
RTVSPropertyOp52
 70
     0
102
RTVSPropertyOp53
 70
     1
102
RTVSPropertyOp54
 70
     1
102
RTVSPropertyOp55
 70
     1
102
RTVSPropertyOp56
 70
     1
102
RTVSPropertyOp57
 70
     1
102
RTVSPropertyOp58
 70
     1
102
RTVSPropertyOp59
 70
     1
102
RTVSPropertyOp60
 70
     1
102
RTVSPropertyOp61
 70
     1
102
RTVSPropertyOp62
 70
     1
  0
XRECORD
  5
98EF
102
{ACAD_REACTORS
330
98EE
102
}
330
98EE
100
AcDbXrecord
280
     1
102
RTVSPost2010Prop28
280
     0
102
RTVSPost2010PropOp28
 70
     1
102
RTVSPost2010Prop29
280
     1
102
RTVSPost2010PropOp29
 70
     1
102
RTVSPost2010Prop30
280
     1
102
RTVSPost2010PropOp30
 70
     1
102
RTVSPost2010Prop31
280
     0
102
RTVSPost2010PropOp31
 70
     1
102
RTVSPost2010Prop32
280
     0
102
RTVSPost2010PropOp32
 70
     1
102
RTVSPost2010Prop33
280
     0
102
RTVSPost2010PropOp33
 70
     1
102
RTVSPost2010Prop34
280
     0
102
RTVSPost2010PropOp34
 70
     1
102
RTVSPost2010Prop35
280
     0
102
RTVSPost2010PropOp35
 70
     1
102
RTVSPost2010Prop36
280
     0
102
RTVSPost2010PropOp36
 70
     1
102
RTVSPost2010Prop37
 90
       50
102
RTVSPost2010PropOp37
 70
     1
102
RTVSPost2010Prop38
140
0.0
102
RTVSPost2010PropOp38
 70
     1
102
RTVSPost2010Prop39
140
1.0
102
RTVSPost2010PropOp39
 70
     1
102
RTVSPost2010Prop40
 90
        0
102
RTVSPost2010PropOp40
 70
     1
102
RTVSPost2010Prop41ColorIndex
 90
       18
102
RTVSPost2010Prop41ColorRGB
 90
        0
102
RTVSPost2010PropOp41
 70
     1
102
RTVSPost2010Prop42
 90
       50
102
RTVSPost2010PropOp42
 70
     1
102
RTVSPost2010Prop43
 90
        3
102
RTVSPost2010PropOp43
 70
     1
102
RTVSPost2010Prop44ColorIndex
 90
        5
102
RTVSPost2010Prop44ColorRGB
 90
      255
102
RTVSPost2010PropOp44
 70
     1
102
RTVSPost2010Prop45
280
     0
102
RTVSPost2010PropOp45
 70
     1
102
RTVSPost2010Prop46
 90
       50
102
RTVSPost2010PropOp46
 70
     1
102
RTVSPost2010Prop47
 90
       50
102
RTVSPost2010PropOp47
 70
     1
102
RTVSPost2010Prop48
 90
       50
102
RTVSPost2010PropOp48
 70
     1
102
RTVSPost2010Prop49
280
     0
102
RTVSPost2010PropOp49
 70
     1
102
RTVSPost2010Prop50
 90
       50
102
RTVSPost2010PropOp50
 70
     1
102
RTVSPost2010Prop51ColorIndex
 90
      256
102
RTVSPost2010Prop51ColorRGB
 90
-16777216
102
RTVSPost2010PropOp51
 70
     0
102
RTVSPost2010Prop52
140
1.0
102
RTVSPost2010PropOp52
 70
     0
102
RTVSPost2010Prop53
 90
        2
102
RTVSPost2010PropOp53
 70
     1
102
RTVSPost2010Prop54
  1
strokes_ogs.tif
102
RTVSPost2010PropOp54
 70
     1
102
RTVSPost2010Prop55
280
     0
102
RTVSPost2010PropOp55
 70
     1
102
RTVSPost2010Prop56
140
1.0
102
RTVSPost2010PropOp56
 70
     1
102
RTVSPost2010Prop57
140
1.0
102
RTVSPost2010PropOp57
 70
     1
102
RTVSPropertyOp0
 70
     1
102
RTVSPropertyOp1
 70
     1
102
RTVSPropertyOp2
 70
     1
102
RTVSPropertyOp3
 70
     1
102
RTVSPropertyOp4
 70
     1
102
RTVSPropertyOp5
 70
     1
102
RTVSPropertyOp6
 70
     1
102
RTVSPropertyOp7
 70
     1
102
RTVSPropertyOp8
 70
     1
102
RTVSPropertyOp9
 70
     1
102
RTVSPropertyOp10
 70
     1
102
RTVSPropertyOp11
 70
     1
102
RTVSPropertyOp12
 70
     1
102
RTVSPropertyOp13
 70
     1
102
RTVSPropertyOp14
 70
     1
102
RTVSPropertyOp15
 70
     1
102
RTVSPropertyOp16
 70
     1
102
RTVSPropertyOp17
 70
     1
102
RTVSPropertyOp18
 70
     1
102
RTVSPropertyOp19
 70
     1
102
RTVSPropertyOp20
 70
     1
102
RTVSPropertyOp21
 70
     1
102
RTVSPropertyOp22
 70
     1
102
RTVSPropertyOp23
 70
     1
102
RTVSPropertyOp24
 70
     1
102
RTVSPropertyOp25
 70
     1
102
RTVSPropertyOp26
 70
     1
102
RTVSPropertyOp27
 70
     1
102
RTVSPropertyOp28
 70
     1
102
RTVSPropertyOp29
 70
     1
102
RTVSPropertyOp30
 70
     1
102
RTVSPropertyOp31
 70
     1
102
RTVSPropertyOp32
 70
     1
102
RTVSPropertyOp33
 70
     1
102
RTVSPropertyOp34
 70
     1
102
RTVSPropertyOp35
 70
     1
102
RTVSPropertyOp36
 70
     1
102
RTVSPropertyOp37
 70
     1
102
RTVSPropertyOp38
 70
     1
102
RTVSPropertyOp39
 70
     1
102
RTVSPropertyOp40
 70
     1
102
RTVSPropertyOp41
 70
     1
102
RTVSPropertyOp42
 70
     1
102
RTVSPropertyOp43
 70
     1
102
RTVSPropertyOp44
 70
     1
102
RTVSPropertyOp45
 70
     1
102
RTVSPropertyOp46
 70
     1
102
RTVSPropertyOp47
 70
     1
102
RTVSPropertyOp48
 70
     1
102
RTVSPropertyOp49
 70
     1
102
RTVSPropertyOp50
 70
     1
102
RTVSPropertyOp51
 70
     0
102
RTVSPropertyOp52
 70
     0
102
RTVSPropertyOp53
 70
     1
102
RTVSPropertyOp54
 70
     1
102
RTVSPropertyOp55
 70
     1
102
RTVSPropertyOp56
 70
     1
102
RTVSPropertyOp57
 70
     1
102
RTVSPropertyOp58
 70
     1
102
RTVSPropertyOp59
 70
     1
102
RTVSPropertyOp60
 70
     1
102
RTVSPropertyOp61
 70
     1
102
RTVSPropertyOp62
 70
     1
  0
XRECORD
  5
9909
102
{ACAD_REACTORS
330
9908
102
}
330
9908
100
AcDbXrecord
280
     1
102
RTVSPost2010Prop28
280
     0
102
RTVSPost2010PropOp28
 70
     1
102
RTVSPost2010Prop29
280
     1
102
RTVSPost2010PropOp29
 70
     1
102
RTVSPost2010Prop30
280
     1
102
RTVSPost2010PropOp30
 70
     1
102
RTVSPost2010Prop31
280
     0
102
RTVSPost2010PropOp31
 70
     1
102
RTVSPost2010Prop32
280
     0
102
RTVSPost2010PropOp32
 70
     1
102
RTVSPost2010Prop33
280
     0
102
RTVSPost2010PropOp33
 70
     1
102
RTVSPost2010Prop34
280
     0
102
RTVSPost2010PropOp34
 70
     1
102
RTVSPost2010Prop35
280
     0
102
RTVSPost2010PropOp35
 70
     1
102
RTVSPost2010Prop36
280
     0
102
RTVSPost2010PropOp36
 70
     1
102
RTVSPost2010Prop37
 90
       50
102
RTVSPost2010PropOp37
 70
     0
102
RTVSPost2010Prop38
140
0.0
102
RTVSPost2010PropOp38
 70
     0
102
RTVSPost2010Prop39
140
1.0
102
RTVSPost2010PropOp39
 70
     0
102
RTVSPost2010Prop40
 90
        0
102
RTVSPost2010PropOp40
 70
     0
102
RTVSPost2010Prop41ColorIndex
 90
       18
102
RTVSPost2010Prop41ColorRGB
 90
        0
102
RTVSPost2010PropOp41
 70
     0
102
RTVSPost2010Prop42
 90
       50
102
RTVSPost2010PropOp42
 70
     0
102
RTVSPost2010Prop43
 90
        3
102
RTVSPost2010PropOp43
 70
     0
102
RTVSPost2010Prop44ColorIndex
 90
        5
102
RTVSPost2010Prop44ColorRGB
 90
      255
102
RTVSPost2010PropOp44
 70
     0
102
RTVSPost2010Prop45
280
     0
102
RTVSPost2010PropOp45
 70
     1
102
RTVSPost2010Prop46
 90
       50
102
RTVSPost2010PropOp46
 70
     0
102
RTVSPost2010Prop47
 90
       50
102
RTVSPost2010PropOp47
 70
     0
102
RTVSPost2010Prop48
 90
       50
102
RTVSPost2010PropOp48
 70
     0
102
RTVSPost2010Prop49
280
     0
102
RTVSPost2010PropOp49
 70
     1
102
RTVSPost2010Prop50
 90
       50
102
RTVSPost2010PropOp50
 70
     0
102
RTVSPost2010Prop51ColorIndex
 90
      256
102
RTVSPost2010Prop51ColorRGB
 90
-16777216
102
RTVSPost2010PropOp51
 70
     0
102
RTVSPost2010Prop52
140
1.0
102
RTVSPost2010PropOp52
 70
     0
102
RTVSPost2010Prop53
 90
        2
102
RTVSPost2010PropOp53
 70
     0
102
RTVSPost2010Prop54
  1
strokes_ogs.tif
102
RTVSPost2010PropOp54
 70
     0
102
RTVSPost2010Prop55
280
     0
102
RTVSPost2010PropOp55
 70
     1
102
RTVSPost2010Prop56
140
1.0
102
RTVSPost2010PropOp56
 70
     0
102
RTVSPost2010Prop57
140
1.0
102
RTVSPost2010PropOp57
 70
     0
102
RTVSPropertyOp0
 70
     0
102
RTVSPropertyOp1
 70
     0
102
RTVSPropertyOp2
 70
     0
102
RTVSPropertyOp3
 70
     0
102
RTVSPropertyOp4
 70
     0
102
RTVSPropertyOp5
 70
     0
102
RTVSPropertyOp6
 70
     0
102
RTVSPropertyOp7
 70
     0
102
RTVSPropertyOp8
 70
     0
102
RTVSPropertyOp9
 70
     0
102
RTVSPropertyOp10
 70
     0
102
RTVSPropertyOp11
 70
     0
102
RTVSPropertyOp12
 70
     0
102
RTVSPropertyOp13
 70
     0
102
RTVSPropertyOp14
 70
     2
102
RTVSPropertyOp15
 70
     0
102
RTVSPropertyOp16
 70
     0
102
RTVSPropertyOp17
 70
     0
102
RTVSPropertyOp18
 70
     0
102
RTVSPropertyOp19
 70
     0
102
RTVSPropertyOp20
 70
     0
102
RTVSPropertyOp21
 70
     0
102
RTVSPropertyOp22
 70
     0
102
RTVSPropertyOp23
 70
     0
102
RTVSPropertyOp24
 70
     0
102
RTVSPropertyOp25
 70
     0
102
RTVSPropertyOp26
 70
     0
102
RTVSPropertyOp27
 70
     0
102
RTVSPropertyOp28
 70
     1
102
RTVSPropertyOp29
 70
     1
102
RTVSPropertyOp30
 70
     1
102
RTVSPropertyOp31
 70
     1
102
RTVSPropertyOp32
 70
     1
102
RTVSPropertyOp33
 70
     1
102
RTVSPropertyOp34
 70
     1
102
RTVSPropertyOp35
 70
     1
102
RTVSPropertyOp36
 70
     1
102
RTVSPropertyOp37
 70
     0
102
RTVSPropertyOp38
 70
     0
102
RTVSPropertyOp39
 70
     0
102
RTVSPropertyOp40
 70
     0
102
RTVSPropertyOp41
 70
     0
102
RTVSPropertyOp42
 70
     0
102
RTVSPropertyOp43
 70
     0
102
RTVSPropertyOp44
 70
     0
102
RTVSPropertyOp45
 70
     1
102
RTVSPropertyOp46
 70
     0
102
RTVSPropertyOp47
 70
     0
102
RTVSPropertyOp48
 70
     0
102
RTVSPropertyOp49
 70
     1
102
RTVSPropertyOp50
 70
     0
102
RTVSPropertyOp51
 70
     0
102
RTVSPropertyOp52
 70
     0
102
RTVSPropertyOp53
 70
     0
102
RTVSPropertyOp54
 70
     0
102
RTVSPropertyOp55
 70
     1
102
RTVSPropertyOp56
 70
     0
102
RTVSPropertyOp57
 70
     0
102
RTVSPropertyOp58
 70
     0
102
RTVSPropertyOp59
 70
     0
102
RTVSPropertyOp60
 70
     0
102
RTVSPropertyOp61
 70
     0
102
RTVSPropertyOp62
 70
     0
  0
XRECORD
  5
98F7
102
{ACAD_REACTORS
330
98F6
102
}
330
98F6
100
AcDbXrecord
280
     1
102
RTVSPost2010Prop28
280
     0
102
RTVSPost2010PropOp28
 70
     1
102
RTVSPost2010Prop29
280
     1
102
RTVSPost2010PropOp29
 70
     1
102
RTVSPost2010Prop30
280
     1
102
RTVSPost2010PropOp30
 70
     1
102
RTVSPost2010Prop31
280
     0
102
RTVSPost2010PropOp31
 70
     1
102
RTVSPost2010Prop32
280
     0
102
RTVSPost2010PropOp32
 70
     1
102
RTVSPost2010Prop33
280
     0
102
RTVSPost2010PropOp33
 70
     1
102
RTVSPost2010Prop34
280
     0
102
RTVSPost2010PropOp34
 70
     1
102
RTVSPost2010Prop35
280
     0
102
RTVSPost2010PropOp35
 70
     1
102
RTVSPost2010Prop36
280
     0
102
RTVSPost2010PropOp36
 70
     1
102
RTVSPost2010Prop37
 90
       50
102
RTVSPost2010PropOp37
 70
     1
102
RTVSPost2010Prop38
140
0.0
102
RTVSPost2010PropOp38
 70
     1
102
RTVSPost2010Prop39
140
1.0
102
RTVSPost2010PropOp39
 70
     1
102
RTVSPost2010Prop40
 90
        0
102
RTVSPost2010PropOp40
 70
     1
102
RTVSPost2010Prop41ColorIndex
 90
       18
102
RTVSPost2010Prop41ColorRGB
 90
        0
102
RTVSPost2010PropOp41
 70
     1
102
RTVSPost2010Prop42
 90
       50
102
RTVSPost2010PropOp42
 70
     1
102
RTVSPost2010Prop43
 90
        3
102
RTVSPost2010PropOp43
 70
     1
102
RTVSPost2010Prop44ColorIndex
 90
        5
102
RTVSPost2010Prop44ColorRGB
 90
      255
102
RTVSPost2010PropOp44
 70
     1
102
RTVSPost2010Prop45
280
     0
102
RTVSPost2010PropOp45
 70
     1
102
RTVSPost2010Prop46
 90
       50
102
RTVSPost2010PropOp46
 70
     1
102
RTVSPost2010Prop47
 90
       50
102
RTVSPost2010PropOp47
 70
     1
102
RTVSPost2010Prop48
 90
       50
102
RTVSPost2010PropOp48
 70
     1
102
RTVSPost2010Prop49
280
     0
102
RTVSPost2010PropOp49
 70
     1
102
RTVSPost2010Prop50
 90
       50
102
RTVSPost2010PropOp50
 70
     1
102
RTVSPost2010Prop51ColorIndex
 90
      256
102
RTVSPost2010Prop51ColorRGB
 90
-16777216
102
RTVSPost2010PropOp51
 70
     0
102
RTVSPost2010Prop52
140
1.0
102
RTVSPost2010PropOp52
 70
     0
102
RTVSPost2010Prop53
 90
        2
102
RTVSPost2010PropOp53
 70
     1
102
RTVSPost2010Prop54
  1
strokes_ogs.tif
102
RTVSPost2010PropOp54
 70
     1
102
RTVSPost2010Prop55
280
     0
102
RTVSPost2010PropOp55
 70
     1
102
RTVSPost2010Prop56
140
1.0
102
RTVSPost2010PropOp56
 70
     1
102
RTVSPost2010Prop57
140
1.0
102
RTVSPost2010PropOp57
 70
     1
102
RTVSPropertyOp0
 70
     1
102
RTVSPropertyOp1
 70
     1
102
RTVSPropertyOp2
 70
     1
102
RTVSPropertyOp3
 70
     1
102
RTVSPropertyOp4
 70
     1
102
RTVSPropertyOp5
 70
     1
102
RTVSPropertyOp6
 70
     1
102
RTVSPropertyOp7
 70
     1
102
RTVSPropertyOp8
 70
     1
102
RTVSPropertyOp9
 70
     1
102
RTVSPropertyOp10
 70
     1
102
RTVSPropertyOp11
 70
     1
102
RTVSPropertyOp12
 70
     1
102
RTVSPropertyOp13
 70
     1
102
RTVSPropertyOp14
 70
     1
102
RTVSPropertyOp15
 70
     1
102
RTVSPropertyOp16
 70
     1
102
RTVSPropertyOp17
 70
     1
102
RTVSPropertyOp18
 70
     1
102
RTVSPropertyOp19
 70
     1
102
RTVSPropertyOp20
 70
     1
102
RTVSPropertyOp21
 70
     1
102
RTVSPropertyOp22
 70
     1
102
RTVSPropertyOp23
 70
     1
102
RTVSPropertyOp24
 70
     1
102
RTVSPropertyOp25
 70
     1
102
RTVSPropertyOp26
 70
     1
102
RTVSPropertyOp27
 70
     1
102
RTVSPropertyOp28
 70
     1
102
RTVSPropertyOp29
 70
     1
102
RTVSPropertyOp30
 70
     1
102
RTVSPropertyOp31
 70
     1
102
RTVSPropertyOp32
 70
     1
102
RTVSPropertyOp33
 70
     1
102
RTVSPropertyOp34
 70
     1
102
RTVSPropertyOp35
 70
     1
102
RTVSPropertyOp36
 70
     1
102
RTVSPropertyOp37
 70
     1
102
RTVSPropertyOp38
 70
     1
102
RTVSPropertyOp39
 70
     1
102
RTVSPropertyOp40
 70
     1
102
RTVSPropertyOp41
 70
     1
102
RTVSPropertyOp42
 70
     1
102
RTVSPropertyOp43
 70
     1
102
RTVSPropertyOp44
 70
     1
102
RTVSPropertyOp45
 70
     1
102
RTVSPropertyOp46
 70
     1
102
RTVSPropertyOp47
 70
     1
102
RTVSPropertyOp48
 70
     1
102
RTVSPropertyOp49
 70
     1
102
RTVSPropertyOp50
 70
     1
102
RTVSPropertyOp51
 70
     0
102
RTVSPropertyOp52
 70
     0
102
RTVSPropertyOp53
 70
     1
102
RTVSPropertyOp54
 70
     1
102
RTVSPropertyOp55
 70
     1
102
RTVSPropertyOp56
 70
     1
102
RTVSPropertyOp57
 70
     1
102
RTVSPropertyOp58
 70
     1
102
RTVSPropertyOp59
 70
     1
102
RTVSPropertyOp60
 70
     1
102
RTVSPropertyOp61
 70
     1
102
RTVSPropertyOp62
 70
     1
  0
XRECORD
  5
98DB
102
{ACAD_REACTORS
330
98DA
102
}
330
98DA
100
AcDbXrecord
280
     1
102
RTVSPost2010Prop28
280
     0
102
RTVSPost2010PropOp28
 70
     1
102
RTVSPost2010Prop29
280
     1
102
RTVSPost2010PropOp29
 70
     1
102
RTVSPost2010Prop30
280
     1
102
RTVSPost2010PropOp30
 70
     1
102
RTVSPost2010Prop31
280
     0
102
RTVSPost2010PropOp31
 70
     1
102
RTVSPost2010Prop32
280
     0
102
RTVSPost2010PropOp32
 70
     1
102
RTVSPost2010Prop33
280
     0
102
RTVSPost2010PropOp33
 70
     1
102
RTVSPost2010Prop34
280
     0
102
RTVSPost2010PropOp34
 70
     1
102
RTVSPost2010Prop35
280
     0
102
RTVSPost2010PropOp35
 70
     1
102
RTVSPost2010Prop36
280
     0
102
RTVSPost2010PropOp36
 70
     1
102
RTVSPost2010Prop37
 90
       50
102
RTVSPost2010PropOp37
 70
     1
102
RTVSPost2010Prop38
140
0.0
102
RTVSPost2010PropOp38
 70
     1
102
RTVSPost2010Prop39
140
1.0
102
RTVSPost2010PropOp39
 70
     1
102
RTVSPost2010Prop40
 90
        0
102
RTVSPost2010PropOp40
 70
     1
102
RTVSPost2010Prop41ColorIndex
 90
       18
102
RTVSPost2010Prop41ColorRGB
 90
        0
102
RTVSPost2010PropOp41
 70
     1
102
RTVSPost2010Prop42
 90
       50
102
RTVSPost2010PropOp42
 70
     1
102
RTVSPost2010Prop43
 90
        3
102
RTVSPost2010PropOp43
 70
     1
102
RTVSPost2010Prop44ColorIndex
 90
        5
102
RTVSPost2010Prop44ColorRGB
 90
      255
102
RTVSPost2010PropOp44
 70
     1
102
RTVSPost2010Prop45
280
     0
102
RTVSPost2010PropOp45
 70
     1
102
RTVSPost2010Prop46
 90
       50
102
RTVSPost2010PropOp46
 70
     1
102
RTVSPost2010Prop47
 90
       50
102
RTVSPost2010PropOp47
 70
     1
102
RTVSPost2010Prop48
 90
       50
102
RTVSPost2010PropOp48
 70
     1
102
RTVSPost2010Prop49
280
     0
102
RTVSPost2010PropOp49
 70
     1
102
RTVSPost2010Prop50
 90
       50
102
RTVSPost2010PropOp50
 70
     1
102
RTVSPost2010Prop51ColorIndex
 90
      256
102
RTVSPost2010Prop51ColorRGB
 90
-16777216
102
RTVSPost2010PropOp51
 70
     0
102
RTVSPost2010Prop52
140
1.0
102
RTVSPost2010PropOp52
 70
     0
102
RTVSPost2010Prop53
 90
        2
102
RTVSPost2010PropOp53
 70
     1
102
RTVSPost2010Prop54
  1
strokes_ogs.tif
102
RTVSPost2010PropOp54
 70
     1
102
RTVSPost2010Prop55
280
     0
102
RTVSPost2010PropOp55
 70
     1
102
RTVSPost2010Prop56
140
1.0
102
RTVSPost2010PropOp56
 70
     1
102
RTVSPost2010Prop57
140
1.0
102
RTVSPost2010PropOp57
 70
     1
102
RTVSPropertyOp0
 70
     1
102
RTVSPropertyOp1
 70
     1
102
RTVSPropertyOp2
 70
     1
102
RTVSPropertyOp3
 70
     1
102
RTVSPropertyOp4
 70
     1
102
RTVSPropertyOp5
 70
     1
102
RTVSPropertyOp6
 70
     1
102
RTVSPropertyOp7
 70
     1
102
RTVSPropertyOp8
 70
     1
102
RTVSPropertyOp9
 70
     1
102
RTVSPropertyOp10
 70
     1
102
RTVSPropertyOp11
 70
     1
102
RTVSPropertyOp12
 70
     1
102
RTVSPropertyOp13
 70
     1
102
RTVSPropertyOp14
 70
     1
102
RTVSPropertyOp15
 70
     1
102
RTVSPropertyOp16
 70
     1
102
RTVSPropertyOp17
 70
     1
102
RTVSPropertyOp18
 70
     1
102
RTVSPropertyOp19
 70
     1
102
RTVSPropertyOp20
 70
     1
102
RTVSPropertyOp21
 70
     1
102
RTVSPropertyOp22
 70
     1
102
RTVSPropertyOp23
 70
     1
102
RTVSPropertyOp24
 70
     1
102
RTVSPropertyOp25
 70
     1
102
RTVSPropertyOp26
 70
     1
102
RTVSPropertyOp27
 70
     1
102
RTVSPropertyOp28
 70
     1
102
RTVSPropertyOp29
 70
     1
102
RTVSPropertyOp30
 70
     1
102
RTVSPropertyOp31
 70
     1
102
RTVSPropertyOp32
 70
     1
102
RTVSPropertyOp33
 70
     1
102
RTVSPropertyOp34
 70
     1
102
RTVSPropertyOp35
 70
     1
102
RTVSPropertyOp36
 70
     1
102
RTVSPropertyOp37
 70
     1
102
RTVSPropertyOp38
 70
     1
102
RTVSPropertyOp39
 70
     1
102
RTVSPropertyOp40
 70
     1
102
RTVSPropertyOp41
 70
     1
102
RTVSPropertyOp42
 70
     1
102
RTVSPropertyOp43
 70
     1
102
RTVSPropertyOp44
 70
     1
102
RTVSPropertyOp45
 70
     1
102
RTVSPropertyOp46
 70
     1
102
RTVSPropertyOp47
 70
     1
102
RTVSPropertyOp48
 70
     1
102
RTVSPropertyOp49
 70
     1
102
RTVSPropertyOp50
 70
     1
102
RTVSPropertyOp51
 70
     0
102
RTVSPropertyOp52
 70
     0
102
RTVSPropertyOp53
 70
     1
102
RTVSPropertyOp54
 70
     1
102
RTVSPropertyOp55
 70
     1
102
RTVSPropertyOp56
 70
     1
102
RTVSPropertyOp57
 70
     1
102
RTVSPropertyOp58
 70
     1
102
RTVSPropertyOp59
 70
     1
102
RTVSPropertyOp60
 70
     1
102
RTVSPropertyOp61
 70
     1
102
RTVSPropertyOp62
 70
     1
  0
XRECORD
  5
98DD
102
{ACAD_REACTORS
330
98DC
102
}
330
98DC
100
AcDbXrecord
280
     1
102
RTVSPost2010Prop28
280
     0
102
RTVSPost2010PropOp28
 70
     1
102
RTVSPost2010Prop29
280
     1
102
RTVSPost2010PropOp29
 70
     1
102
RTVSPost2010Prop30
280
     1
102
RTVSPost2010PropOp30
 70
     1
102
RTVSPost2010Prop31
280
     0
102
RTVSPost2010PropOp31
 70
     1
102
RTVSPost2010Prop32
280
     0
102
RTVSPost2010PropOp32
 70
     1
102
RTVSPost2010Prop33
280
     0
102
RTVSPost2010PropOp33
 70
     1
102
RTVSPost2010Prop34
280
     0
102
RTVSPost2010PropOp34
 70
     1
102
RTVSPost2010Prop35
280
     0
102
RTVSPost2010PropOp35
 70
     1
102
RTVSPost2010Prop36
280
     0
102
RTVSPost2010PropOp36
 70
     1
102
RTVSPost2010Prop37
 90
       50
102
RTVSPost2010PropOp37
 70
     1
102
RTVSPost2010Prop38
140
0.0
102
RTVSPost2010PropOp38
 70
     1
102
RTVSPost2010Prop39
140
1.0
102
RTVSPost2010PropOp39
 70
     1
102
RTVSPost2010Prop40
 90
        0
102
RTVSPost2010PropOp40
 70
     1
102
RTVSPost2010Prop41ColorIndex
 90
       18
102
RTVSPost2010Prop41ColorRGB
 90
        0
102
RTVSPost2010PropOp41
 70
     1
102
RTVSPost2010Prop42
 90
       50
102
RTVSPost2010PropOp42
 70
     1
102
RTVSPost2010Prop43
 90
        3
102
RTVSPost2010PropOp43
 70
     1
102
RTVSPost2010Prop44ColorIndex
 90
        5
102
RTVSPost2010Prop44ColorRGB
 90
      255
102
RTVSPost2010PropOp44
 70
     1
102
RTVSPost2010Prop45
280
     0
102
RTVSPost2010PropOp45
 70
     1
102
RTVSPost2010Prop46
 90
       50
102
RTVSPost2010PropOp46
 70
     1
102
RTVSPost2010Prop47
 90
       50
102
RTVSPost2010PropOp47
 70
     1
102
RTVSPost2010Prop48
 90
       50
102
RTVSPost2010PropOp48
 70
     1
102
RTVSPost2010Prop49
280
     0
102
RTVSPost2010PropOp49
 70
     1
102
RTVSPost2010Prop50
 90
       50
102
RTVSPost2010PropOp50
 70
     1
102
RTVSPost2010Prop51ColorIndex
 90
      256
102
RTVSPost2010Prop51ColorRGB
 90
-16777216
102
RTVSPost2010PropOp51
 70
     0
102
RTVSPost2010Prop52
140
1.0
102
RTVSPost2010PropOp52
 70
     0
102
RTVSPost2010Prop53
 90
        2
102
RTVSPost2010PropOp53
 70
     1
102
RTVSPost2010Prop54
  1
strokes_ogs.tif
102
RTVSPost2010PropOp54
 70
     1
102
RTVSPost2010Prop55
280
     0
102
RTVSPost2010PropOp55
 70
     1
102
RTVSPost2010Prop56
140
1.0
102
RTVSPost2010PropOp56
 70
     1
102
RTVSPost2010Prop57
140
1.0
102
RTVSPost2010PropOp57
 70
     1
102
RTVSPropertyOp0
 70
     1
102
RTVSPropertyOp1
 70
     1
102
RTVSPropertyOp2
 70
     1
102
RTVSPropertyOp3
 70
     1
102
RTVSPropertyOp4
 70
     1
102
RTVSPropertyOp5
 70
     1
102
RTVSPropertyOp6
 70
     1
102
RTVSPropertyOp7
 70
     1
102
RTVSPropertyOp8
 70
     1
102
RTVSPropertyOp9
 70
     1
102
RTVSPropertyOp10
 70
     1
102
RTVSPropertyOp11
 70
     1
102
RTVSPropertyOp12
 70
     1
102
RTVSPropertyOp13
 70
     1
102
RTVSPropertyOp14
 70
     1
102
RTVSPropertyOp15
 70
     1
102
RTVSPropertyOp16
 70
     1
102
RTVSPropertyOp17
 70
     1
102
RTVSPropertyOp18
 70
     1
102
RTVSPropertyOp19
 70
     1
102
RTVSPropertyOp20
 70
     1
102
RTVSPropertyOp21
 70
     1
102
RTVSPropertyOp22
 70
     1
102
RTVSPropertyOp23
 70
     1
102
RTVSPropertyOp24
 70
     1
102
RTVSPropertyOp25
 70
     1
102
RTVSPropertyOp26
 70
     1
102
RTVSPropertyOp27
 70
     1
102
RTVSPropertyOp28
 70
     1
102
RTVSPropertyOp29
 70
     1
102
RTVSPropertyOp30
 70
     1
102
RTVSPropertyOp31
 70
     1
102
RTVSPropertyOp32
 70
     1
102
RTVSPropertyOp33
 70
     1
102
RTVSPropertyOp34
 70
     1
102
RTVSPropertyOp35
 70
     1
102
RTVSPropertyOp36
 70
     1
102
RTVSPropertyOp37
 70
     1
102
RTVSPropertyOp38
 70
     1
102
RTVSPropertyOp39
 70
     1
102
RTVSPropertyOp40
 70
     1
102
RTVSPropertyOp41
 70
     1
102
RTVSPropertyOp42
 70
     1
102
RTVSPropertyOp43
 70
     1
102
RTVSPropertyOp44
 70
     1
102
RTVSPropertyOp45
 70
     1
102
RTVSPropertyOp46
 70
     1
102
RTVSPropertyOp47
 70
     1
102
RTVSPropertyOp48
 70
     1
102
RTVSPropertyOp49
 70
     1
102
RTVSPropertyOp50
 70
     1
102
RTVSPropertyOp51
 70
     0
102
RTVSPropertyOp52
 70
     0
102
RTVSPropertyOp53
 70
     1
102
RTVSPropertyOp54
 70
     1
102
RTVSPropertyOp55
 70
     1
102
RTVSPropertyOp56
 70
     1
102
RTVSPropertyOp57
 70
     1
102
RTVSPropertyOp58
 70
     1
102
RTVSPropertyOp59
 70
     1
102
RTVSPropertyOp60
 70
     1
102
RTVSPropertyOp61
 70
     1
102
RTVSPropertyOp62
 70
     1
  0
XRECORD
  5
98DF
102
{ACAD_REACTORS
330
98DE
102
}
330
98DE
100
AcDbXrecord
280
     1
102
RTVSPost2010Prop28
280
     0
102
RTVSPost2010PropOp28
 70
     1
102
RTVSPost2010Prop29
280
     1
102
RTVSPost2010PropOp29
 70
     1
102
RTVSPost2010Prop30
280
     1
102
RTVSPost2010PropOp30
 70
     1
102
RTVSPost2010Prop31
280
     0
102
RTVSPost2010PropOp31
 70
     1
102
RTVSPost2010Prop32
280
     0
102
RTVSPost2010PropOp32
 70
     1
102
RTVSPost2010Prop33
280
     0
102
RTVSPost2010PropOp33
 70
     1
102
RTVSPost2010Prop34
280
     0
102
RTVSPost2010PropOp34
 70
     1
102
RTVSPost2010Prop35
280
     0
102
RTVSPost2010PropOp35
 70
     1
102
RTVSPost2010Prop36
280
     0
102
RTVSPost2010PropOp36
 70
     1
102
RTVSPost2010Prop37
 90
       50
102
RTVSPost2010PropOp37
 70
     1
102
RTVSPost2010Prop38
140
0.0
102
RTVSPost2010PropOp38
 70
     1
102
RTVSPost2010Prop39
140
1.0
102
RTVSPost2010PropOp39
 70
     1
102
RTVSPost2010Prop40
 90
        0
102
RTVSPost2010PropOp40
 70
     1
102
RTVSPost2010Prop41ColorIndex
 90
       18
102
RTVSPost2010Prop41ColorRGB
 90
        0
102
RTVSPost2010PropOp41
 70
     1
102
RTVSPost2010Prop42
 90
       50
102
RTVSPost2010PropOp42
 70
     1
102
RTVSPost2010Prop43
 90
        3
102
RTVSPost2010PropOp43
 70
     1
102
RTVSPost2010Prop44ColorIndex
 90
        5
102
RTVSPost2010Prop44ColorRGB
 90
      255
102
RTVSPost2010PropOp44
 70
     1
102
RTVSPost2010Prop45
280
     0
102
RTVSPost2010PropOp45
 70
     1
102
RTVSPost2010Prop46
 90
       50
102
RTVSPost2010PropOp46
 70
     1
102
RTVSPost2010Prop47
 90
       50
102
RTVSPost2010PropOp47
 70
     1
102
RTVSPost2010Prop48
 90
       50
102
RTVSPost2010PropOp48
 70
     1
102
RTVSPost2010Prop49
280
     0
102
RTVSPost2010PropOp49
 70
     1
102
RTVSPost2010Prop50
 90
       50
102
RTVSPost2010PropOp50
 70
     1
102
RTVSPost2010Prop51ColorIndex
 90
      256
102
RTVSPost2010Prop51ColorRGB
 90
-16777216
102
RTVSPost2010PropOp51
 70
     0
102
RTVSPost2010Prop52
140
1.0
102
RTVSPost2010PropOp52
 70
     0
102
RTVSPost2010Prop53
 90
        2
102
RTVSPost2010PropOp53
 70
     1
102
RTVSPost2010Prop54
  1
strokes_ogs.tif
102
RTVSPost2010PropOp54
 70
     1
102
RTVSPost2010Prop55
280
     0
102
RTVSPost2010PropOp55
 70
     1
102
RTVSPost2010Prop56
140
1.0
102
RTVSPost2010PropOp56
 70
     1
102
RTVSPost2010Prop57
140
1.0
102
RTVSPost2010PropOp57
 70
     1
102
RTVSPropertyOp0
 70
     1
102
RTVSPropertyOp1
 70
     1
102
RTVSPropertyOp2
 70
     1
102
RTVSPropertyOp3
 70
     1
102
RTVSPropertyOp4
 70
     1
102
RTVSPropertyOp5
 70
     1
102
RTVSPropertyOp6
 70
     1
102
RTVSPropertyOp7
 70
     1
102
RTVSPropertyOp8
 70
     1
102
RTVSPropertyOp9
 70
     1
102
RTVSPropertyOp10
 70
     1
102
RTVSPropertyOp11
 70
     1
102
RTVSPropertyOp12
 70
     1
102
RTVSPropertyOp13
 70
     1
102
RTVSPropertyOp14
 70
     1
102
RTVSPropertyOp15
 70
     1
102
RTVSPropertyOp16
 70
     1
102
RTVSPropertyOp17
 70
     1
102
RTVSPropertyOp18
 70
     1
102
RTVSPropertyOp19
 70
     1
102
RTVSPropertyOp20
 70
     1
102
RTVSPropertyOp21
 70
     1
102
RTVSPropertyOp22
 70
     1
102
RTVSPropertyOp23
 70
     1
102
RTVSPropertyOp24
 70
     1
102
RTVSPropertyOp25
 70
     1
102
RTVSPropertyOp26
 70
     1
102
RTVSPropertyOp27
 70
     1
102
RTVSPropertyOp28
 70
     1
102
RTVSPropertyOp29
 70
     1
102
RTVSPropertyOp30
 70
     1
102
RTVSPropertyOp31
 70
     1
102
RTVSPropertyOp32
 70
     1
102
RTVSPropertyOp33
 70
     1
102
RTVSPropertyOp34
 70
     1
102
RTVSPropertyOp35
 70
     1
102
RTVSPropertyOp36
 70
     1
102
RTVSPropertyOp37
 70
     1
102
RTVSPropertyOp38
 70
     1
102
RTVSPropertyOp39
 70
     1
102
RTVSPropertyOp40
 70
     1
102
RTVSPropertyOp41
 70
     1
102
RTVSPropertyOp42
 70
     1
102
RTVSPropertyOp43
 70
     1
102
RTVSPropertyOp44
 70
     1
102
RTVSPropertyOp45
 70
     1
102
RTVSPropertyOp46
 70
     1
102
RTVSPropertyOp47
 70
     1
102
RTVSPropertyOp48
 70
     1
102
RTVSPropertyOp49
 70
     1
102
RTVSPropertyOp50
 70
     1
102
RTVSPropertyOp51
 70
     0
102
RTVSPropertyOp52
 70
     0
102
RTVSPropertyOp53
 70
     1
102
RTVSPropertyOp54
 70
     1
102
RTVSPropertyOp55
 70
     1
102
RTVSPropertyOp56
 70
     1
102
RTVSPropertyOp57
 70
     1
102
RTVSPropertyOp58
 70
     1
102
RTVSPropertyOp59
 70
     1
102
RTVSPropertyOp60
 70
     1
102
RTVSPropertyOp61
 70
     1
102
RTVSPropertyOp62
 70
     1
  0
XRECORD
  5
98E1
102
{ACAD_REACTORS
330
98E0
102
}
330
98E0
100
AcDbXrecord
280
     1
102
RTVSPost2010Prop28
280
     0
102
RTVSPost2010PropOp28
 70
     1
102
RTVSPost2010Prop29
280
     1
102
RTVSPost2010PropOp29
 70
     1
102
RTVSPost2010Prop30
280
     1
102
RTVSPost2010PropOp30
 70
     1
102
RTVSPost2010Prop31
280
     0
102
RTVSPost2010PropOp31
 70
     1
102
RTVSPost2010Prop32
280
     0
102
RTVSPost2010PropOp32
 70
     1
102
RTVSPost2010Prop33
280
     0
102
RTVSPost2010PropOp33
 70
     1
102
RTVSPost2010Prop34
280
     0
102
RTVSPost2010PropOp34
 70
     1
102
RTVSPost2010Prop35
280
     0
102
RTVSPost2010PropOp35
 70
     1
102
RTVSPost2010Prop36
280
     0
102
RTVSPost2010PropOp36
 70
     1
102
RTVSPost2010Prop37
 90
       50
102
RTVSPost2010PropOp37
 70
     1
102
RTVSPost2010Prop38
140
0.0
102
RTVSPost2010PropOp38
 70
     1
102
RTVSPost2010Prop39
140
1.0
102
RTVSPost2010PropOp39
 70
     1
102
RTVSPost2010Prop40
 90
        0
102
RTVSPost2010PropOp40
 70
     1
102
RTVSPost2010Prop41ColorIndex
 90
       18
102
RTVSPost2010Prop41ColorRGB
 90
        0
102
RTVSPost2010PropOp41
 70
     1
102
RTVSPost2010Prop42
 90
       50
102
RTVSPost2010PropOp42
 70
     1
102
RTVSPost2010Prop43
 90
        3
102
RTVSPost2010PropOp43
 70
     1
102
RTVSPost2010Prop44ColorIndex
 90
        5
102
RTVSPost2010Prop44ColorRGB
 90
      255
102
RTVSPost2010PropOp44
 70
     1
102
RTVSPost2010Prop45
280
     0
102
RTVSPost2010PropOp45
 70
     1
102
RTVSPost2010Prop46
 90
       50
102
RTVSPost2010PropOp46
 70
     1
102
RTVSPost2010Prop47
 90
       50
102
RTVSPost2010PropOp47
 70
     1
102
RTVSPost2010Prop48
 90
       50
102
RTVSPost2010PropOp48
 70
     1
102
RTVSPost2010Prop49
280
     0
102
RTVSPost2010PropOp49
 70
     1
102
RTVSPost2010Prop50
 90
       50
102
RTVSPost2010PropOp50
 70
     1
102
RTVSPost2010Prop51ColorIndex
 90
      256
102
RTVSPost2010Prop51ColorRGB
 90
-16777216
102
RTVSPost2010PropOp51
 70
     0
102
RTVSPost2010Prop52
140
1.0
102
RTVSPost2010PropOp52
 70
     0
102
RTVSPost2010Prop53
 90
        2
102
RTVSPost2010PropOp53
 70
     1
102
RTVSPost2010Prop54
  1
strokes_ogs.tif
102
RTVSPost2010PropOp54
 70
     1
102
RTVSPost2010Prop55
280
     0
102
RTVSPost2010PropOp55
 70
     1
102
RTVSPost2010Prop56
140
1.0
102
RTVSPost2010PropOp56
 70
     1
102
RTVSPost2010Prop57
140
1.0
102
RTVSPost2010PropOp57
 70
     1
102
RTVSPropertyOp0
 70
     1
102
RTVSPropertyOp1
 70
     1
102
RTVSPropertyOp2
 70
     1
102
RTVSPropertyOp3
 70
     1
102
RTVSPropertyOp4
 70
     1
102
RTVSPropertyOp5
 70
     1
102
RTVSPropertyOp6
 70
     1
102
RTVSPropertyOp7
 70
     1
102
RTVSPropertyOp8
 70
     1
102
RTVSPropertyOp9
 70
     1
102
RTVSPropertyOp10
 70
     1
102
RTVSPropertyOp11
 70
     1
102
RTVSPropertyOp12
 70
     1
102
RTVSPropertyOp13
 70
     1
102
RTVSPropertyOp14
 70
     1
102
RTVSPropertyOp15
 70
     1
102
RTVSPropertyOp16
 70
     1
102
RTVSPropertyOp17
 70
     1
102
RTVSPropertyOp18
 70
     1
102
RTVSPropertyOp19
 70
     1
102
RTVSPropertyOp20
 70
     1
102
RTVSPropertyOp21
 70
     1
102
RTVSPropertyOp22
 70
     1
102
RTVSPropertyOp23
 70
     1
102
RTVSPropertyOp24
 70
     1
102
RTVSPropertyOp25
 70
     1
102
RTVSPropertyOp26
 70
     1
102
RTVSPropertyOp27
 70
     1
102
RTVSPropertyOp28
 70
     1
102
RTVSPropertyOp29
 70
     1
102
RTVSPropertyOp30
 70
     1
102
RTVSPropertyOp31
 70
     1
102
RTVSPropertyOp32
 70
     1
102
RTVSPropertyOp33
 70
     1
102
RTVSPropertyOp34
 70
     1
102
RTVSPropertyOp35
 70
     1
102
RTVSPropertyOp36
 70
     1
102
RTVSPropertyOp37
 70
     1
102
RTVSPropertyOp38
 70
     1
102
RTVSPropertyOp39
 70
     1
102
RTVSPropertyOp40
 70
     1
102
RTVSPropertyOp41
 70
     1
102
RTVSPropertyOp42
 70
     1
102
RTVSPropertyOp43
 70
     1
102
RTVSPropertyOp44
 70
     1
102
RTVSPropertyOp45
 70
     1
102
RTVSPropertyOp46
 70
     1
102
RTVSPropertyOp47
 70
     1
102
RTVSPropertyOp48
 70
     1
102
RTVSPropertyOp49
 70
     1
102
RTVSPropertyOp50
 70
     1
102
RTVSPropertyOp51
 70
     0
102
RTVSPropertyOp52
 70
     0
102
RTVSPropertyOp53
 70
     1
102
RTVSPropertyOp54
 70
     1
102
RTVSPropertyOp55
 70
     1
102
RTVSPropertyOp56
 70
     1
102
RTVSPropertyOp57
 70
     1
102
RTVSPropertyOp58
 70
     1
102
RTVSPropertyOp59
 70
     1
102
RTVSPropertyOp60
 70
     1
102
RTVSPropertyOp61
 70
     1
102
RTVSPropertyOp62
 70
     1
  0
XRECORD
  5
98E9
102
{ACAD_REACTORS
330
98E8
102
}
330
98E8
100
AcDbXrecord
280
     1
102
RTVSPost2010Prop28
280
     0
102
RTVSPost2010PropOp28
 70
     1
102
RTVSPost2010Prop29
280
     1
102
RTVSPost2010PropOp29
 70
     1
102
RTVSPost2010Prop30
280
     1
102
RTVSPost2010PropOp30
 70
     1
102
RTVSPost2010Prop31
280
     0
102
RTVSPost2010PropOp31
 70
     1
102
RTVSPost2010Prop32
280
     0
102
RTVSPost2010PropOp32
 70
     1
102
RTVSPost2010Prop33
280
     0
102
RTVSPost2010PropOp33
 70
     1
102
RTVSPost2010Prop34
280
     0
102
RTVSPost2010PropOp34
 70
     1
102
RTVSPost2010Prop35
280
     0
102
RTVSPost2010PropOp35
 70
     1
102
RTVSPost2010Prop36
280
     0
102
RTVSPost2010PropOp36
 70
     1
102
RTVSPost2010Prop37
 90
       50
102
RTVSPost2010PropOp37
 70
     1
102
RTVSPost2010Prop38
140
0.0
102
RTVSPost2010PropOp38
 70
     1
102
RTVSPost2010Prop39
140
1.0
102
RTVSPost2010PropOp39
 70
     1
102
RTVSPost2010Prop40
 90
        0
102
RTVSPost2010PropOp40
 70
     1
102
RTVSPost2010Prop41ColorIndex
 90
       18
102
RTVSPost2010Prop41ColorRGB
 90
        0
102
RTVSPost2010PropOp41
 70
     1
102
RTVSPost2010Prop42
 90
       50
102
RTVSPost2010PropOp42
 70
     1
102
RTVSPost2010Prop43
 90
        3
102
RTVSPost2010PropOp43
 70
     1
102
RTVSPost2010Prop44ColorIndex
 90
        5
102
RTVSPost2010Prop44ColorRGB
 90
      255
102
RTVSPost2010PropOp44
 70
     1
102
RTVSPost2010Prop45
280
     0
102
RTVSPost2010PropOp45
 70
     1
102
RTVSPost2010Prop46
 90
       50
102
RTVSPost2010PropOp46
 70
     1
102
RTVSPost2010Prop47
 90
       50
102
RTVSPost2010PropOp47
 70
     1
102
RTVSPost2010Prop48
 90
       50
102
RTVSPost2010PropOp48
 70
     1
102
RTVSPost2010Prop49
280
     0
102
RTVSPost2010PropOp49
 70
     1
102
RTVSPost2010Prop50
 90
       50
102
RTVSPost2010PropOp50
 70
     1
102
RTVSPost2010Prop51ColorIndex
 90
      256
102
RTVSPost2010Prop51ColorRGB
 90
-16777216
102
RTVSPost2010PropOp51
 70
     0
102
RTVSPost2010Prop52
140
1.0
102
RTVSPost2010PropOp52
 70
     0
102
RTVSPost2010Prop53
 90
        2
102
RTVSPost2010PropOp53
 70
     1
102
RTVSPost2010Prop54
  1
strokes_ogs.tif
102
RTVSPost2010PropOp54
 70
     1
102
RTVSPost2010Prop55
280
     0
102
RTVSPost2010PropOp55
 70
     1
102
RTVSPost2010Prop56
140
1.0
102
RTVSPost2010PropOp56
 70
     1
102
RTVSPost2010Prop57
140
1.0
102
RTVSPost2010PropOp57
 70
     1
102
RTVSPropertyOp0
 70
     1
102
RTVSPropertyOp1
 70
     1
102
RTVSPropertyOp2
 70
     1
102
RTVSPropertyOp3
 70
     1
102
RTVSPropertyOp4
 70
     1
102
RTVSPropertyOp5
 70
     1
102
RTVSPropertyOp6
 70
     1
102
RTVSPropertyOp7
 70
     1
102
RTVSPropertyOp8
 70
     1
102
RTVSPropertyOp9
 70
     1
102
RTVSPropertyOp10
 70
     1
102
RTVSPropertyOp11
 70
     1
102
RTVSPropertyOp12
 70
     1
102
RTVSPropertyOp13
 70
     1
102
RTVSPropertyOp14
 70
     1
102
RTVSPropertyOp15
 70
     1
102
RTVSPropertyOp16
 70
     1
102
RTVSPropertyOp17
 70
     1
102
RTVSPropertyOp18
 70
     1
102
RTVSPropertyOp19
 70
     1
102
RTVSPropertyOp20
 70
     1
102
RTVSPropertyOp21
 70
     1
102
RTVSPropertyOp22
 70
     1
102
RTVSPropertyOp23
 70
     1
102
RTVSPropertyOp24
 70
     1
102
RTVSPropertyOp25
 70
     1
102
RTVSPropertyOp26
 70
     1
102
RTVSPropertyOp27
 70
     1
102
RTVSPropertyOp28
 70
     1
102
RTVSPropertyOp29
 70
     1
102
RTVSPropertyOp30
 70
     1
102
RTVSPropertyOp31
 70
     1
102
RTVSPropertyOp32
 70
     1
102
RTVSPropertyOp33
 70
     1
102
RTVSPropertyOp34
 70
     1
102
RTVSPropertyOp35
 70
     1
102
RTVSPropertyOp36
 70
     1
102
RTVSPropertyOp37
 70
     1
102
RTVSPropertyOp38
 70
     1
102
RTVSPropertyOp39
 70
     1
102
RTVSPropertyOp40
 70
     1
102
RTVSPropertyOp41
 70
     1
102
RTVSPropertyOp42
 70
     1
102
RTVSPropertyOp43
 70
     1
102
RTVSPropertyOp44
 70
     1
102
RTVSPropertyOp45
 70
     1
102
RTVSPropertyOp46
 70
     1
102
RTVSPropertyOp47
 70
     1
102
RTVSPropertyOp48
 70
     1
102
RTVSPropertyOp49
 70
     1
102
RTVSPropertyOp50
 70
     1
102
RTVSPropertyOp51
 70
     0
102
RTVSPropertyOp52
 70
     0
102
RTVSPropertyOp53
 70
     1
102
RTVSPropertyOp54
 70
     1
102
RTVSPropertyOp55
 70
     1
102
RTVSPropertyOp56
 70
     1
102
RTVSPropertyOp57
 70
     1
102
RTVSPropertyOp58
 70
     1
102
RTVSPropertyOp59
 70
     1
102
RTVSPropertyOp60
 70
     1
102
RTVSPropertyOp61
 70
     1
102
RTVSPropertyOp62
 70
     1
  0
XRECORD
  5
9905
102
{ACAD_REACTORS
330
9904
102
}
330
9904
100
AcDbXrecord
280
     1
102
RTVSPost2010Prop28
280
     0
102
RTVSPost2010PropOp28
 70
     1
102
RTVSPost2010Prop29
280
     1
102
RTVSPost2010PropOp29
 70
     1
102
RTVSPost2010Prop30
280
     1
102
RTVSPost2010PropOp30
 70
     1
102
RTVSPost2010Prop31
280
     0
102
RTVSPost2010PropOp31
 70
     1
102
RTVSPost2010Prop32
280
     0
102
RTVSPost2010PropOp32
 70
     1
102
RTVSPost2010Prop33
280
     0
102
RTVSPost2010PropOp33
 70
     1
102
RTVSPost2010Prop34
280
     0
102
RTVSPost2010PropOp34
 70
     1
102
RTVSPost2010Prop35
280
     0
102
RTVSPost2010PropOp35
 70
     1
102
RTVSPost2010Prop36
280
     0
102
RTVSPost2010PropOp36
 70
     1
102
RTVSPost2010Prop37
 90
       50
102
RTVSPost2010PropOp37
 70
     0
102
RTVSPost2010Prop38
140
0.0
102
RTVSPost2010PropOp38
 70
     0
102
RTVSPost2010Prop39
140
1.0
102
RTVSPost2010PropOp39
 70
     0
102
RTVSPost2010Prop40
 90
        0
102
RTVSPost2010PropOp40
 70
     0
102
RTVSPost2010Prop41ColorIndex
 90
       18
102
RTVSPost2010Prop41ColorRGB
 90
        0
102
RTVSPost2010PropOp41
 70
     0
102
RTVSPost2010Prop42
 90
       50
102
RTVSPost2010PropOp42
 70
     0
102
RTVSPost2010Prop43
 90
        3
102
RTVSPost2010PropOp43
 70
     0
102
RTVSPost2010Prop44ColorIndex
 90
        5
102
RTVSPost2010Prop44ColorRGB
 90
      255
102
RTVSPost2010PropOp44
 70
     0
102
RTVSPost2010Prop45
280
     0
102
RTVSPost2010PropOp45
 70
     1
102
RTVSPost2010Prop46
 90
       50
102
RTVSPost2010PropOp46
 70
     0
102
RTVSPost2010Prop47
 90
       50
102
RTVSPost2010PropOp47
 70
     0
102
RTVSPost2010Prop48
 90
       50
102
RTVSPost2010PropOp48
 70
     0
102
RTVSPost2010Prop49
280
     0
102
RTVSPost2010PropOp49
 70
     1
102
RTVSPost2010Prop50
 90
       50
102
RTVSPost2010PropOp50
 70
     0
102
RTVSPost2010Prop51ColorIndex
 90
      256
102
RTVSPost2010Prop51ColorRGB
 90
-16777216
102
RTVSPost2010PropOp51
 70
     0
102
RTVSPost2010Prop52
140
1.0
102
RTVSPost2010PropOp52
 70
     0
102
RTVSPost2010Prop53
 90
        2
102
RTVSPost2010PropOp53
 70
     0
102
RTVSPost2010Prop54
  1
strokes_ogs.tif
102
RTVSPost2010PropOp54
 70
     0
102
RTVSPost2010Prop55
280
     0
102
RTVSPost2010PropOp55
 70
     1
102
RTVSPost2010Prop56
140
1.0
102
RTVSPost2010PropOp56
 70
     0
102
RTVSPost2010Prop57
140
1.0
102
RTVSPost2010PropOp57
 70
     0
102
RTVSPropertyOp0
 70
     0
102
RTVSPropertyOp1
 70
     0
102
RTVSPropertyOp2
 70
     0
102
RTVSPropertyOp3
 70
     0
102
RTVSPropertyOp4
 70
     0
102
RTVSPropertyOp5
 70
     0
102
RTVSPropertyOp6
 70
     0
102
RTVSPropertyOp7
 70
     0
102
RTVSPropertyOp8
 70
     0
102
RTVSPropertyOp9
 70
     0
102
RTVSPropertyOp10
 70
     0
102
RTVSPropertyOp11
 70
     0
102
RTVSPropertyOp12
 70
     0
102
RTVSPropertyOp13
 70
     0
102
RTVSPropertyOp14
 70
     2
102
RTVSPropertyOp15
 70
     0
102
RTVSPropertyOp16
 70
     0
102
RTVSPropertyOp17
 70
     0
102
RTVSPropertyOp18
 70
     0
102
RTVSPropertyOp19
 70
     0
102
RTVSPropertyOp20
 70
     0
102
RTVSPropertyOp21
 70
     0
102
RTVSPropertyOp22
 70
     0
102
RTVSPropertyOp23
 70
     0
102
RTVSPropertyOp24
 70
     0
102
RTVSPropertyOp25
 70
     0
102
RTVSPropertyOp26
 70
     0
102
RTVSPropertyOp27
 70
     0
102
RTVSPropertyOp28
 70
     1
102
RTVSPropertyOp29
 70
     1
102
RTVSPropertyOp30
 70
     1
102
RTVSPropertyOp31
 70
     1
102
RTVSPropertyOp32
 70
     1
102
RTVSPropertyOp33
 70
     1
102
RTVSPropertyOp34
 70
     1
102
RTVSPropertyOp35
 70
     1
102
RTVSPropertyOp36
 70
     1
102
RTVSPropertyOp37
 70
     0
102
RTVSPropertyOp38
 70
     0
102
RTVSPropertyOp39
 70
     0
102
RTVSPropertyOp40
 70
     0
102
RTVSPropertyOp41
 70
     0
102
RTVSPropertyOp42
 70
     0
102
RTVSPropertyOp43
 70
     0
102
RTVSPropertyOp44
 70
     0
102
RTVSPropertyOp45
 70
     1
102
RTVSPropertyOp46
 70
     0
102
RTVSPropertyOp47
 70
     0
102
RTVSPropertyOp48
 70
     0
102
RTVSPropertyOp49
 70
     1
102
RTVSPropertyOp50
 70
     0
102
RTVSPropertyOp51
 70
     0
102
RTVSPropertyOp52
 70
     0
102
RTVSPropertyOp53
 70
     0
102
RTVSPropertyOp54
 70
     0
102
RTVSPropertyOp55
 70
     1
102
RTVSPropertyOp56
 70
     0
102
RTVSPropertyOp57
 70
     0
102
RTVSPropertyOp58
 70
     0
102
RTVSPropertyOp59
 70
     0
102
RTVSPropertyOp60
 70
     0
102
RTVSPropertyOp61
 70
     0
102
RTVSPropertyOp62
 70
     0
  0
XRECORD
  5
98F5
102
{ACAD_REACTORS
330
98F4
102
}
330
98F4
100
AcDbXrecord
280
     1
102
RTVSPost2010Prop28
280
     0
102
RTVSPost2010PropOp28
 70
     1
102
RTVSPost2010Prop29
280
     1
102
RTVSPost2010PropOp29
 70
     1
102
RTVSPost2010Prop30
280
     1
102
RTVSPost2010PropOp30
 70
     1
102
RTVSPost2010Prop31
280
     0
102
RTVSPost2010PropOp31
 70
     1
102
RTVSPost2010Prop32
280
     0
102
RTVSPost2010PropOp32
 70
     1
102
RTVSPost2010Prop33
280
     0
102
RTVSPost2010PropOp33
 70
     1
102
RTVSPost2010Prop34
280
     0
102
RTVSPost2010PropOp34
 70
     1
102
RTVSPost2010Prop35
280
     0
102
RTVSPost2010PropOp35
 70
     1
102
RTVSPost2010Prop36
280
     0
102
RTVSPost2010PropOp36
 70
     1
102
RTVSPost2010Prop37
 90
       50
102
RTVSPost2010PropOp37
 70
     1
102
RTVSPost2010Prop38
140
0.0
102
RTVSPost2010PropOp38
 70
     1
102
RTVSPost2010Prop39
140
1.0
102
RTVSPost2010PropOp39
 70
     1
102
RTVSPost2010Prop40
 90
        0
102
RTVSPost2010PropOp40
 70
     1
102
RTVSPost2010Prop41ColorIndex
 90
       18
102
RTVSPost2010Prop41ColorRGB
 90
        0
102
RTVSPost2010PropOp41
 70
     1
102
RTVSPost2010Prop42
 90
       50
102
RTVSPost2010PropOp42
 70
     1
102
RTVSPost2010Prop43
 90
        3
102
RTVSPost2010PropOp43
 70
     1
102
RTVSPost2010Prop44ColorIndex
 90
        5
102
RTVSPost2010Prop44ColorRGB
 90
      255
102
RTVSPost2010PropOp44
 70
     1
102
RTVSPost2010Prop45
280
     0
102
RTVSPost2010PropOp45
 70
     1
102
RTVSPost2010Prop46
 90
       50
102
RTVSPost2010PropOp46
 70
     1
102
RTVSPost2010Prop47
 90
       50
102
RTVSPost2010PropOp47
 70
     1
102
RTVSPost2010Prop48
 90
       50
102
RTVSPost2010PropOp48
 70
     1
102
RTVSPost2010Prop49
280
     0
102
RTVSPost2010PropOp49
 70
     1
102
RTVSPost2010Prop50
 90
       50
102
RTVSPost2010PropOp50
 70
     1
102
RTVSPost2010Prop51ColorIndex
 90
      256
102
RTVSPost2010Prop51ColorRGB
 90
-16777216
102
RTVSPost2010PropOp51
 70
     0
102
RTVSPost2010Prop52
140
1.0
102
RTVSPost2010PropOp52
 70
     0
102
RTVSPost2010Prop53
 90
        2
102
RTVSPost2010PropOp53
 70
     1
102
RTVSPost2010Prop54
  1
strokes_ogs.tif
102
RTVSPost2010PropOp54
 70
     1
102
RTVSPost2010Prop55
280
     0
102
RTVSPost2010PropOp55
 70
     1
102
RTVSPost2010Prop56
140
1.0
102
RTVSPost2010PropOp56
 70
     1
102
RTVSPost2010Prop57
140
1.0
102
RTVSPost2010PropOp57
 70
     1
102
RTVSPropertyOp0
 70
     1
102
RTVSPropertyOp1
 70
     1
102
RTVSPropertyOp2
 70
     1
102
RTVSPropertyOp3
 70
     1
102
RTVSPropertyOp4
 70
     1
102
RTVSPropertyOp5
 70
     1
102
RTVSPropertyOp6
 70
     1
102
RTVSPropertyOp7
 70
     1
102
RTVSPropertyOp8
 70
     1
102
RTVSPropertyOp9
 70
     1
102
RTVSPropertyOp10
 70
     1
102
RTVSPropertyOp11
 70
     1
102
RTVSPropertyOp12
 70
     1
102
RTVSPropertyOp13
 70
     1
102
RTVSPropertyOp14
 70
     1
102
RTVSPropertyOp15
 70
     1
102
RTVSPropertyOp16
 70
     1
102
RTVSPropertyOp17
 70
     1
102
RTVSPropertyOp18
 70
     1
102
RTVSPropertyOp19
 70
     1
102
RTVSPropertyOp20
 70
     1
102
RTVSPropertyOp21
 70
     1
102
RTVSPropertyOp22
 70
     1
102
RTVSPropertyOp23
 70
     1
102
RTVSPropertyOp24
 70
     1
102
RTVSPropertyOp25
 70
     1
102
RTVSPropertyOp26
 70
     1
102
RTVSPropertyOp27
 70
     1
102
RTVSPropertyOp28
 70
     1
102
RTVSPropertyOp29
 70
     1
102
RTVSPropertyOp30
 70
     1
102
RTVSPropertyOp31
 70
     1
102
RTVSPropertyOp32
 70
     1
102
RTVSPropertyOp33
 70
     1
102
RTVSPropertyOp34
 70
     1
102
RTVSPropertyOp35
 70
     1
102
RTVSPropertyOp36
 70
     1
102
RTVSPropertyOp37
 70
     1
102
RTVSPropertyOp38
 70
     1
102
RTVSPropertyOp39
 70
     1
102
RTVSPropertyOp40
 70
     1
102
RTVSPropertyOp41
 70
     1
102
RTVSPropertyOp42
 70
     1
102
RTVSPropertyOp43
 70
     1
102
RTVSPropertyOp44
 70
     1
102
RTVSPropertyOp45
 70
     1
102
RTVSPropertyOp46
 70
     1
102
RTVSPropertyOp47
 70
     1
102
RTVSPropertyOp48
 70
     1
102
RTVSPropertyOp49
 70
     1
102
RTVSPropertyOp50
 70
     1
102
RTVSPropertyOp51
 70
     0
102
RTVSPropertyOp52
 70
     0
102
RTVSPropertyOp53
 70
     1
102
RTVSPropertyOp54
 70
     1
102
RTVSPropertyOp55
 70
     1
102
RTVSPropertyOp56
 70
     1
102
RTVSPropertyOp57
 70
     1
102
RTVSPropertyOp58
 70
     1
102
RTVSPropertyOp59
 70
     1
102
RTVSPropertyOp60
 70
     1
102
RTVSPropertyOp61
 70
     1
102
RTVSPropertyOp62
 70
     1
  0
XRECORD
  5
9907
102
{ACAD_REACTORS
330
9906
102
}
330
9906
100
AcDbXrecord
280
     1
102
RTVSPost2010Prop28
280
     0
102
RTVSPost2010PropOp28
 70
     1
102
RTVSPost2010Prop29
280
     1
102
RTVSPost2010PropOp29
 70
     1
102
RTVSPost2010Prop30
280
     1
102
RTVSPost2010PropOp30
 70
     1
102
RTVSPost2010Prop31
280
     0
102
RTVSPost2010PropOp31
 70
     1
102
RTVSPost2010Prop32
280
     0
102
RTVSPost2010PropOp32
 70
     1
102
RTVSPost2010Prop33
280
     0
102
RTVSPost2010PropOp33
 70
     1
102
RTVSPost2010Prop34
280
     0
102
RTVSPost2010PropOp34
 70
     1
102
RTVSPost2010Prop35
280
     0
102
RTVSPost2010PropOp35
 70
     1
102
RTVSPost2010Prop36
280
     0
102
RTVSPost2010PropOp36
 70
     1
102
RTVSPost2010Prop37
 90
       50
102
RTVSPost2010PropOp37
 70
     0
102
RTVSPost2010Prop38
140
0.0
102
RTVSPost2010PropOp38
 70
     0
102
RTVSPost2010Prop39
140
1.0
102
RTVSPost2010PropOp39
 70
     0
102
RTVSPost2010Prop40
 90
        0
102
RTVSPost2010PropOp40
 70
     0
102
RTVSPost2010Prop41ColorIndex
 90
       18
102
RTVSPost2010Prop41ColorRGB
 90
        0
102
RTVSPost2010PropOp41
 70
     0
102
RTVSPost2010Prop42
 90
       50
102
RTVSPost2010PropOp42
 70
     0
102
RTVSPost2010Prop43
 90
        3
102
RTVSPost2010PropOp43
 70
     0
102
RTVSPost2010Prop44ColorIndex
 90
        5
102
RTVSPost2010Prop44ColorRGB
 90
      255
102
RTVSPost2010PropOp44
 70
     0
102
RTVSPost2010Prop45
280
     0
102
RTVSPost2010PropOp45
 70
     1
102
RTVSPost2010Prop46
 90
       50
102
RTVSPost2010PropOp46
 70
     0
102
RTVSPost2010Prop47
 90
       50
102
RTVSPost2010PropOp47
 70
     0
102
RTVSPost2010Prop48
 90
       50
102
RTVSPost2010PropOp48
 70
     0
102
RTVSPost2010Prop49
280
     0
102
RTVSPost2010PropOp49
 70
     1
102
RTVSPost2010Prop50
 90
       50
102
RTVSPost2010PropOp50
 70
     0
102
RTVSPost2010Prop51ColorIndex
 90
      256
102
RTVSPost2010Prop51ColorRGB
 90
-16777216
102
RTVSPost2010PropOp51
 70
     0
102
RTVSPost2010Prop52
140
1.0
102
RTVSPost2010PropOp52
 70
     0
102
RTVSPost2010Prop53
 90
        2
102
RTVSPost2010PropOp53
 70
     0
102
RTVSPost2010Prop54
  1
strokes_ogs.tif
102
RTVSPost2010PropOp54
 70
     0
102
RTVSPost2010Prop55
280
     0
102
RTVSPost2010PropOp55
 70
     1
102
RTVSPost2010Prop56
140
1.0
102
RTVSPost2010PropOp56
 70
     0
102
RTVSPost2010Prop57
140
1.0
102
RTVSPost2010PropOp57
 70
     0
102
RTVSPropertyOp0
 70
     0
102
RTVSPropertyOp1
 70
     0
102
RTVSPropertyOp2
 70
     0
102
RTVSPropertyOp3
 70
     0
102
RTVSPropertyOp4
 70
     0
102
RTVSPropertyOp5
 70
     0
102
RTVSPropertyOp6
 70
     0
102
RTVSPropertyOp7
 70
     0
102
RTVSPropertyOp8
 70
     0
102
RTVSPropertyOp9
 70
     0
102
RTVSPropertyOp10
 70
     0
102
RTVSPropertyOp11
 70
     0
102
RTVSPropertyOp12
 70
     0
102
RTVSPropertyOp13
 70
     0
102
RTVSPropertyOp14
 70
     2
102
RTVSPropertyOp15
 70
     0
102
RTVSPropertyOp16
 70
     0
102
RTVSPropertyOp17
 70
     0
102
RTVSPropertyOp18
 70
     0
102
RTVSPropertyOp19
 70
     0
102
RTVSPropertyOp20
 70
     0
102
RTVSPropertyOp21
 70
     0
102
RTVSPropertyOp22
 70
     0
102
RTVSPropertyOp23
 70
     0
102
RTVSPropertyOp24
 70
     0
102
RTVSPropertyOp25
 70
     0
102
RTVSPropertyOp26
 70
     0
102
RTVSPropertyOp27
 70
     0
102
RTVSPropertyOp28
 70
     1
102
RTVSPropertyOp29
 70
     1
102
RTVSPropertyOp30
 70
     1
102
RTVSPropertyOp31
 70
     1
102
RTVSPropertyOp32
 70
     1
102
RTVSPropertyOp33
 70
     1
102
RTVSPropertyOp34
 70
     1
102
RTVSPropertyOp35
 70
     1
102
RTVSPropertyOp36
 70
     1
102
RTVSPropertyOp37
 70
     0
102
RTVSPropertyOp38
 70
     0
102
RTVSPropertyOp39
 70
     0
102
RTVSPropertyOp40
 70
     0
102
RTVSPropertyOp41
 70
     0
102
RTVSPropertyOp42
 70
     0
102
RTVSPropertyOp43
 70
     0
102
RTVSPropertyOp44
 70
     0
102
RTVSPropertyOp45
 70
     1
102
RTVSPropertyOp46
 70
     0
102
RTVSPropertyOp47
 70
     0
102
RTVSPropertyOp48
 70
     0
102
RTVSPropertyOp49
 70
     1
102
RTVSPropertyOp50
 70
     0
102
RTVSPropertyOp51
 70
     0
102
RTVSPropertyOp52
 70
     0
102
RTVSPropertyOp53
 70
     0
102
RTVSPropertyOp54
 70
     0
102
RTVSPropertyOp55
 70
     1
102
RTVSPropertyOp56
 70
     0
102
RTVSPropertyOp57
 70
     0
102
RTVSPropertyOp58
 70
     0
102
RTVSPropertyOp59
 70
     0
102
RTVSPropertyOp60
 70
     0
102
RTVSPropertyOp61
 70
     0
102
RTVSPropertyOp62
 70
     0
  0
XRECORD
  5
98ED
102
{ACAD_REACTORS
330
98EC
102
}
330
98EC
100
AcDbXrecord
280
     1
102
RTVSPost2010Prop28
280
     0
102
RTVSPost2010PropOp28
 70
     1
102
RTVSPost2010Prop29
280
     1
102
RTVSPost2010PropOp29
 70
     1
102
RTVSPost2010Prop30
280
     1
102
RTVSPost2010PropOp30
 70
     1
102
RTVSPost2010Prop31
280
     0
102
RTVSPost2010PropOp31
 70
     1
102
RTVSPost2010Prop32
280
     0
102
RTVSPost2010PropOp32
 70
     1
102
RTVSPost2010Prop33
280
     0
102
RTVSPost2010PropOp33
 70
     1
102
RTVSPost2010Prop34
280
     0
102
RTVSPost2010PropOp34
 70
     1
102
RTVSPost2010Prop35
280
     0
102
RTVSPost2010PropOp35
 70
     1
102
RTVSPost2010Prop36
280
     0
102
RTVSPost2010PropOp36
 70
     1
102
RTVSPost2010Prop37
 90
       50
102
RTVSPost2010PropOp37
 70
     1
102
RTVSPost2010Prop38
140
0.0
102
RTVSPost2010PropOp38
 70
     1
102
RTVSPost2010Prop39
140
1.0
102
RTVSPost2010PropOp39
 70
     1
102
RTVSPost2010Prop40
 90
        0
102
RTVSPost2010PropOp40
 70
     1
102
RTVSPost2010Prop41ColorIndex
 90
       18
102
RTVSPost2010Prop41ColorRGB
 90
        0
102
RTVSPost2010PropOp41
 70
     1
102
RTVSPost2010Prop42
 90
       50
102
RTVSPost2010PropOp42
 70
     1
102
RTVSPost2010Prop43
 90
        3
102
RTVSPost2010PropOp43
 70
     1
102
RTVSPost2010Prop44ColorIndex
 90
        5
102
RTVSPost2010Prop44ColorRGB
 90
      255
102
RTVSPost2010PropOp44
 70
     1
102
RTVSPost2010Prop45
280
     0
102
RTVSPost2010PropOp45
 70
     1
102
RTVSPost2010Prop46
 90
       50
102
RTVSPost2010PropOp46
 70
     1
102
RTVSPost2010Prop47
 90
       50
102
RTVSPost2010PropOp47
 70
     1
102
RTVSPost2010Prop48
 90
       50
102
RTVSPost2010PropOp48
 70
     1
102
RTVSPost2010Prop49
280
     0
102
RTVSPost2010PropOp49
 70
     1
102
RTVSPost2010Prop50
 90
       50
102
RTVSPost2010PropOp50
 70
     1
102
RTVSPost2010Prop51ColorIndex
 90
      256
102
RTVSPost2010Prop51ColorRGB
 90
-16777216
102
RTVSPost2010PropOp51
 70
     0
102
RTVSPost2010Prop52
140
1.0
102
RTVSPost2010PropOp52
 70
     0
102
RTVSPost2010Prop53
 90
        2
102
RTVSPost2010PropOp53
 70
     1
102
RTVSPost2010Prop54
  1
strokes_ogs.tif
102
RTVSPost2010PropOp54
 70
     1
102
RTVSPost2010Prop55
280
     0
102
RTVSPost2010PropOp55
 70
     1
102
RTVSPost2010Prop56
140
1.0
102
RTVSPost2010PropOp56
 70
     1
102
RTVSPost2010Prop57
140
1.0
102
RTVSPost2010PropOp57
 70
     1
102
RTVSPropertyOp0
 70
     1
102
RTVSPropertyOp1
 70
     1
102
RTVSPropertyOp2
 70
     1
102
RTVSPropertyOp3
 70
     1
102
RTVSPropertyOp4
 70
     1
102
RTVSPropertyOp5
 70
     1
102
RTVSPropertyOp6
 70
     1
102
RTVSPropertyOp7
 70
     1
102
RTVSPropertyOp8
 70
     1
102
RTVSPropertyOp9
 70
     1
102
RTVSPropertyOp10
 70
     1
102
RTVSPropertyOp11
 70
     1
102
RTVSPropertyOp12
 70
     1
102
RTVSPropertyOp13
 70
     1
102
RTVSPropertyOp14
 70
     1
102
RTVSPropertyOp15
 70
     1
102
RTVSPropertyOp16
 70
     1
102
RTVSPropertyOp17
 70
     1
102
RTVSPropertyOp18
 70
     1
102
RTVSPropertyOp19
 70
     1
102
RTVSPropertyOp20
 70
     1
102
RTVSPropertyOp21
 70
     1
102
RTVSPropertyOp22
 70
     1
102
RTVSPropertyOp23
 70
     1
102
RTVSPropertyOp24
 70
     1
102
RTVSPropertyOp25
 70
     1
102
RTVSPropertyOp26
 70
     1
102
RTVSPropertyOp27
 70
     1
102
RTVSPropertyOp28
 70
     1
102
RTVSPropertyOp29
 70
     1
102
RTVSPropertyOp30
 70
     1
102
RTVSPropertyOp31
 70
     1
102
RTVSPropertyOp32
 70
     1
102
RTVSPropertyOp33
 70
     1
102
RTVSPropertyOp34
 70
     1
102
RTVSPropertyOp35
 70
     1
102
RTVSPropertyOp36
 70
     1
102
RTVSPropertyOp37
 70
     1
102
RTVSPropertyOp38
 70
     1
102
RTVSPropertyOp39
 70
     1
102
RTVSPropertyOp40
 70
     1
102
RTVSPropertyOp41
 70
     1
102
RTVSPropertyOp42
 70
     1
102
RTVSPropertyOp43
 70
     1
102
RTVSPropertyOp44
 70
     1
102
RTVSPropertyOp45
 70
     1
102
RTVSPropertyOp46
 70
     1
102
RTVSPropertyOp47
 70
     1
102
RTVSPropertyOp48
 70
     1
102
RTVSPropertyOp49
 70
     1
102
RTVSPropertyOp50
 70
     1
102
RTVSPropertyOp51
 70
     0
102
RTVSPropertyOp52
 70
     0
102
RTVSPropertyOp53
 70
     1
102
RTVSPropertyOp54
 70
     1
102
RTVSPropertyOp55
 70
     1
102
RTVSPropertyOp56
 70
     1
102
RTVSPropertyOp57
 70
     1
102
RTVSPropertyOp58
 70
     1
102
RTVSPropertyOp59
 70
     1
102
RTVSPropertyOp60
 70
     1
102
RTVSPropertyOp61
 70
     1
102
RTVSPropertyOp62
 70
     1
  0
XRECORD
  5
9903
102
{ACAD_REACTORS
330
9902
102
}
330
9902
100
AcDbXrecord
280
     1
102
RTVSPost2010Prop28
280
     0
102
RTVSPost2010PropOp28
 70
     1
102
RTVSPost2010Prop29
280
     1
102
RTVSPost2010PropOp29
 70
     1
102
RTVSPost2010Prop30
280
     1
102
RTVSPost2010PropOp30
 70
     1
102
RTVSPost2010Prop31
280
     0
102
RTVSPost2010PropOp31
 70
     1
102
RTVSPost2010Prop32
280
     0
102
RTVSPost2010PropOp32
 70
     1
102
RTVSPost2010Prop33
280
     0
102
RTVSPost2010PropOp33
 70
     1
102
RTVSPost2010Prop34
280
     0
102
RTVSPost2010PropOp34
 70
     1
102
RTVSPost2010Prop35
280
     0
102
RTVSPost2010PropOp35
 70
     1
102
RTVSPost2010Prop36
280
     0
102
RTVSPost2010PropOp36
 70
     1
102
RTVSPost2010Prop37
 90
       50
102
RTVSPost2010PropOp37
 70
     1
102
RTVSPost2010Prop38
140
0.0
102
RTVSPost2010PropOp38
 70
     1
102
RTVSPost2010Prop39
140
1.0
102
RTVSPost2010PropOp39
 70
     1
102
RTVSPost2010Prop40
 90
        0
102
RTVSPost2010PropOp40
 70
     1
102
RTVSPost2010Prop41ColorIndex
 90
       18
102
RTVSPost2010Prop41ColorRGB
 90
        0
102
RTVSPost2010PropOp41
 70
     1
102
RTVSPost2010Prop42
 90
       50
102
RTVSPost2010PropOp42
 70
     1
102
RTVSPost2010Prop43
 90
        3
102
RTVSPost2010PropOp43
 70
     1
102
RTVSPost2010Prop44ColorIndex
 90
        5
102
RTVSPost2010Prop44ColorRGB
 90
      255
102
RTVSPost2010PropOp44
 70
     1
102
RTVSPost2010Prop45
280
     0
102
RTVSPost2010PropOp45
 70
     1
102
RTVSPost2010Prop46
 90
       50
102
RTVSPost2010PropOp46
 70
     1
102
RTVSPost2010Prop47
 90
       50
102
RTVSPost2010PropOp47
 70
     1
102
RTVSPost2010Prop48
 90
       50
102
RTVSPost2010PropOp48
 70
     1
102
RTVSPost2010Prop49
280
     0
102
RTVSPost2010PropOp49
 70
     1
102
RTVSPost2010Prop50
 90
       50
102
RTVSPost2010PropOp50
 70
     1
102
RTVSPost2010Prop51ColorIndex
 90
      256
102
RTVSPost2010Prop51ColorRGB
 90
-16777216
102
RTVSPost2010PropOp51
 70
     0
102
RTVSPost2010Prop52
140
1.0
102
RTVSPost2010PropOp52
 70
     0
102
RTVSPost2010Prop53
 90
        2
102
RTVSPost2010PropOp53
 70
     1
102
RTVSPost2010Prop54
  1
strokes_ogs.tif
102
RTVSPost2010PropOp54
 70
     1
102
RTVSPost2010Prop55
280
     0
102
RTVSPost2010PropOp55
 70
     1
102
RTVSPost2010Prop56
140
1.0
102
RTVSPost2010PropOp56
 70
     1
102
RTVSPost2010Prop57
140
1.0
102
RTVSPost2010PropOp57
 70
     1
102
RTVSPropertyOp0
 70
     1
102
RTVSPropertyOp1
 70
     1
102
RTVSPropertyOp2
 70
     1
102
RTVSPropertyOp3
 70
     1
102
RTVSPropertyOp4
 70
     1
102
RTVSPropertyOp5
 70
     1
102
RTVSPropertyOp6
 70
     1
102
RTVSPropertyOp7
 70
     1
102
RTVSPropertyOp8
 70
     1
102
RTVSPropertyOp9
 70
     1
102
RTVSPropertyOp10
 70
     1
102
RTVSPropertyOp11
 70
     1
102
RTVSPropertyOp12
 70
     1
102
RTVSPropertyOp13
 70
     1
102
RTVSPropertyOp14
 70
     1
102
RTVSPropertyOp15
 70
     1
102
RTVSPropertyOp16
 70
     1
102
RTVSPropertyOp17
 70
     1
102
RTVSPropertyOp18
 70
     1
102
RTVSPropertyOp19
 70
     1
102
RTVSPropertyOp20
 70
     1
102
RTVSPropertyOp21
 70
     1
102
RTVSPropertyOp22
 70
     1
102
RTVSPropertyOp23
 70
     1
102
RTVSPropertyOp24
 70
     1
102
RTVSPropertyOp25
 70
     1
102
RTVSPropertyOp26
 70
     1
102
RTVSPropertyOp27
 70
     1
102
RTVSPropertyOp28
 70
     1
102
RTVSPropertyOp29
 70
     1
102
RTVSPropertyOp30
 70
     1
102
RTVSPropertyOp31
 70
     1
102
RTVSPropertyOp32
 70
     1
102
RTVSPropertyOp33
 70
     1
102
RTVSPropertyOp34
 70
     1
102
RTVSPropertyOp35
 70
     1
102
RTVSPropertyOp36
 70
     1
102
RTVSPropertyOp37
 70
     1
102
RTVSPropertyOp38
 70
     1
102
RTVSPropertyOp39
 70
     1
102
RTVSPropertyOp40
 70
     1
102
RTVSPropertyOp41
 70
     1
102
RTVSPropertyOp42
 70
     1
102
RTVSPropertyOp43
 70
     1
102
RTVSPropertyOp44
 70
     1
102
RTVSPropertyOp45
 70
     1
102
RTVSPropertyOp46
 70
     1
102
RTVSPropertyOp47
 70
     1
102
RTVSPropertyOp48
 70
     1
102
RTVSPropertyOp49
 70
     1
102
RTVSPropertyOp50
 70
     1
102
RTVSPropertyOp51
 70
     0
102
RTVSPropertyOp52
 70
     0
102
RTVSPropertyOp53
 70
     1
102
RTVSPropertyOp54
 70
     1
102
RTVSPropertyOp55
 70
     1
102
RTVSPropertyOp56
 70
     1
102
RTVSPropertyOp57
 70
     1
102
RTVSPropertyOp58
 70
     1
102
RTVSPropertyOp59
 70
     1
102
RTVSPropertyOp60
 70
     1
102
RTVSPropertyOp61
 70
     1
102
RTVSPropertyOp62
 70
     1
  0
XRECORD
  5
9901
102
{ACAD_REACTORS
330
9900
102
}
330
9900
100
AcDbXrecord
280
     1
102
RTVSPost2010Prop28
280
     0
102
RTVSPost2010PropOp28
 70
     1
102
RTVSPost2010Prop29
280
     1
102
RTVSPost2010PropOp29
 70
     1
102
RTVSPost2010Prop30
280
     1
102
RTVSPost2010PropOp30
 70
     1
102
RTVSPost2010Prop31
280
     0
102
RTVSPost2010PropOp31
 70
     1
102
RTVSPost2010Prop32
280
     0
102
RTVSPost2010PropOp32
 70
     1
102
RTVSPost2010Prop33
280
     0
102
RTVSPost2010PropOp33
 70
     1
102
RTVSPost2010Prop34
280
     0
102
RTVSPost2010PropOp34
 70
     1
102
RTVSPost2010Prop35
280
     0
102
RTVSPost2010PropOp35
 70
     1
102
RTVSPost2010Prop36
280
     0
102
RTVSPost2010PropOp36
 70
     1
102
RTVSPost2010Prop37
 90
       50
102
RTVSPost2010PropOp37
 70
     1
102
RTVSPost2010Prop38
140
0.0
102
RTVSPost2010PropOp38
 70
     1
102
RTVSPost2010Prop39
140
1.0
102
RTVSPost2010PropOp39
 70
     1
102
RTVSPost2010Prop40
 90
        0
102
RTVSPost2010PropOp40
 70
     1
102
RTVSPost2010Prop41ColorIndex
 90
       18
102
RTVSPost2010Prop41ColorRGB
 90
        0
102
RTVSPost2010PropOp41
 70
     1
102
RTVSPost2010Prop42
 90
       50
102
RTVSPost2010PropOp42
 70
     1
102
RTVSPost2010Prop43
 90
        3
102
RTVSPost2010PropOp43
 70
     1
102
RTVSPost2010Prop44ColorIndex
 90
        5
102
RTVSPost2010Prop44ColorRGB
 90
      255
102
RTVSPost2010PropOp44
 70
     1
102
RTVSPost2010Prop45
280
     0
102
RTVSPost2010PropOp45
 70
     1
102
RTVSPost2010Prop46
 90
       50
102
RTVSPost2010PropOp46
 70
     1
102
RTVSPost2010Prop47
 90
       50
102
RTVSPost2010PropOp47
 70
     1
102
RTVSPost2010Prop48
 90
       50
102
RTVSPost2010PropOp48
 70
     1
102
RTVSPost2010Prop49
280
     0
102
RTVSPost2010PropOp49
 70
     1
102
RTVSPost2010Prop50
 90
       50
102
RTVSPost2010PropOp50
 70
     1
102
RTVSPost2010Prop51ColorIndex
 90
      256
102
RTVSPost2010Prop51ColorRGB
 90
-16777216
102
RTVSPost2010PropOp51
 70
     0
102
RTVSPost2010Prop52
140
1.0
102
RTVSPost2010PropOp52
 70
     0
102
RTVSPost2010Prop53
 90
        2
102
RTVSPost2010PropOp53
 70
     1
102
RTVSPost2010Prop54
  1
strokes_ogs.tif
102
RTVSPost2010PropOp54
 70
     1
102
RTVSPost2010Prop55
280
     0
102
RTVSPost2010PropOp55
 70
     1
102
RTVSPost2010Prop56
140
1.0
102
RTVSPost2010PropOp56
 70
     1
102
RTVSPost2010Prop57
140
1.0
102
RTVSPost2010PropOp57
 70
     1
102
RTVSPropertyOp0
 70
     1
102
RTVSPropertyOp1
 70
     1
102
RTVSPropertyOp2
 70
     1
102
RTVSPropertyOp3
 70
     1
102
RTVSPropertyOp4
 70
     1
102
RTVSPropertyOp5
 70
     1
102
RTVSPropertyOp6
 70
     1
102
RTVSPropertyOp7
 70
     1
102
RTVSPropertyOp8
 70
     1
102
RTVSPropertyOp9
 70
     1
102
RTVSPropertyOp10
 70
     1
102
RTVSPropertyOp11
 70
     1
102
RTVSPropertyOp12
 70
     1
102
RTVSPropertyOp13
 70
     1
102
RTVSPropertyOp14
 70
     1
102
RTVSPropertyOp15
 70
     1
102
RTVSPropertyOp16
 70
     1
102
RTVSPropertyOp17
 70
     1
102
RTVSPropertyOp18
 70
     1
102
RTVSPropertyOp19
 70
     1
102
RTVSPropertyOp20
 70
     1
102
RTVSPropertyOp21
 70
     1
102
RTVSPropertyOp22
 70
     1
102
RTVSPropertyOp23
 70
     1
102
RTVSPropertyOp24
 70
     1
102
RTVSPropertyOp25
 70
     1
102
RTVSPropertyOp26
 70
     1
102
RTVSPropertyOp27
 70
     1
102
RTVSPropertyOp28
 70
     1
102
RTVSPropertyOp29
 70
     1
102
RTVSPropertyOp30
 70
     1
102
RTVSPropertyOp31
 70
     1
102
RTVSPropertyOp32
 70
     1
102
RTVSPropertyOp33
 70
     1
102
RTVSPropertyOp34
 70
     1
102
RTVSPropertyOp35
 70
     1
102
RTVSPropertyOp36
 70
     1
102
RTVSPropertyOp37
 70
     1
102
RTVSPropertyOp38
 70
     1
102
RTVSPropertyOp39
 70
     1
102
RTVSPropertyOp40
 70
     1
102
RTVSPropertyOp41
 70
     1
102
RTVSPropertyOp42
 70
     1
102
RTVSPropertyOp43
 70
     1
102
RTVSPropertyOp44
 70
     1
102
RTVSPropertyOp45
 70
     1
102
RTVSPropertyOp46
 70
     1
102
RTVSPropertyOp47
 70
     1
102
RTVSPropertyOp48
 70
     1
102
RTVSPropertyOp49
 70
     1
102
RTVSPropertyOp50
 70
     1
102
RTVSPropertyOp51
 70
     0
102
RTVSPropertyOp52
 70
     0
102
RTVSPropertyOp53
 70
     1
102
RTVSPropertyOp54
 70
     1
102
RTVSPropertyOp55
 70
     1
102
RTVSPropertyOp56
 70
     1
102
RTVSPropertyOp57
 70
     1
102
RTVSPropertyOp58
 70
     1
102
RTVSPropertyOp59
 70
     1
102
RTVSPropertyOp60
 70
     1
102
RTVSPropertyOp61
 70
     1
102
RTVSPropertyOp62
 70
     1
  0
XRECORD
  5
98FB
102
{ACAD_REACTORS
330
98FA
102
}
330
98FA
100
AcDbXrecord
280
     1
102
RTVSPost2010Prop28
280
     0
102
RTVSPost2010PropOp28
 70
     1
102
RTVSPost2010Prop29
280
     1
102
RTVSPost2010PropOp29
 70
     1
102
RTVSPost2010Prop30
280
     1
102
RTVSPost2010PropOp30
 70
     1
102
RTVSPost2010Prop31
280
     0
102
RTVSPost2010PropOp31
 70
     1
102
RTVSPost2010Prop32
280
     0
102
RTVSPost2010PropOp32
 70
     1
102
RTVSPost2010Prop33
280
     0
102
RTVSPost2010PropOp33
 70
     1
102
RTVSPost2010Prop34
280
     0
102
RTVSPost2010PropOp34
 70
     1
102
RTVSPost2010Prop35
280
     0
102
RTVSPost2010PropOp35
 70
     1
102
RTVSPost2010Prop36
280
     0
102
RTVSPost2010PropOp36
 70
     1
102
RTVSPost2010Prop37
 90
       50
102
RTVSPost2010PropOp37
 70
     1
102
RTVSPost2010Prop38
140
0.0
102
RTVSPost2010PropOp38
 70
     1
102
RTVSPost2010Prop39
140
1.0
102
RTVSPost2010PropOp39
 70
     1
102
RTVSPost2010Prop40
 90
        0
102
RTVSPost2010PropOp40
 70
     1
102
RTVSPost2010Prop41ColorIndex
 90
       18
102
RTVSPost2010Prop41ColorRGB
 90
        0
102
RTVSPost2010PropOp41
 70
     1
102
RTVSPost2010Prop42
 90
       50
102
RTVSPost2010PropOp42
 70
     1
102
RTVSPost2010Prop43
 90
        3
102
RTVSPost2010PropOp43
 70
     1
102
RTVSPost2010Prop44ColorIndex
 90
        5
102
RTVSPost2010Prop44ColorRGB
 90
      255
102
RTVSPost2010PropOp44
 70
     1
102
RTVSPost2010Prop45
280
     0
102
RTVSPost2010PropOp45
 70
     1
102
RTVSPost2010Prop46
 90
       50
102
RTVSPost2010PropOp46
 70
     1
102
RTVSPost2010Prop47
 90
       50
102
RTVSPost2010PropOp47
 70
     1
102
RTVSPost2010Prop48
 90
       50
102
RTVSPost2010PropOp48
 70
     1
102
RTVSPost2010Prop49
280
     0
102
RTVSPost2010PropOp49
 70
     1
102
RTVSPost2010Prop50
 90
       50
102
RTVSPost2010PropOp50
 70
     1
102
RTVSPost2010Prop51ColorIndex
 90
      256
102
RTVSPost2010Prop51ColorRGB
 90
-16777216
102
RTVSPost2010PropOp51
 70
     0
102
RTVSPost2010Prop52
140
1.0
102
RTVSPost2010PropOp52
 70
     0
102
RTVSPost2010Prop53
 90
        2
102
RTVSPost2010PropOp53
 70
     1
102
RTVSPost2010Prop54
  1
strokes_ogs.tif
102
RTVSPost2010PropOp54
 70
     1
102
RTVSPost2010Prop55
280
     0
102
RTVSPost2010PropOp55
 70
     1
102
RTVSPost2010Prop56
140
1.0
102
RTVSPost2010PropOp56
 70
     1
102
RTVSPost2010Prop57
140
1.0
102
RTVSPost2010PropOp57
 70
     1
102
RTVSPropertyOp0
 70
     1
102
RTVSPropertyOp1
 70
     1
102
RTVSPropertyOp2
 70
     1
102
RTVSPropertyOp3
 70
     1
102
RTVSPropertyOp4
 70
     1
102
RTVSPropertyOp5
 70
     1
102
RTVSPropertyOp6
 70
     1
102
RTVSPropertyOp7
 70
     1
102
RTVSPropertyOp8
 70
     1
102
RTVSPropertyOp9
 70
     1
102
RTVSPropertyOp10
 70
     1
102
RTVSPropertyOp11
 70
     1
102
RTVSPropertyOp12
 70
     1
102
RTVSPropertyOp13
 70
     1
102
RTVSPropertyOp14
 70
     1
102
RTVSPropertyOp15
 70
     1
102
RTVSPropertyOp16
 70
     1
102
RTVSPropertyOp17
 70
     1
102
RTVSPropertyOp18
 70
     1
102
RTVSPropertyOp19
 70
     1
102
RTVSPropertyOp20
 70
     1
102
RTVSPropertyOp21
 70
     1
102
RTVSPropertyOp22
 70
     1
102
RTVSPropertyOp23
 70
     1
102
RTVSPropertyOp24
 70
     1
102
RTVSPropertyOp25
 70
     1
102
RTVSPropertyOp26
 70
     1
102
RTVSPropertyOp27
 70
     1
102
RTVSPropertyOp28
 70
     1
102
RTVSPropertyOp29
 70
     1
102
RTVSPropertyOp30
 70
     1
102
RTVSPropertyOp31
 70
     1
102
RTVSPropertyOp32
 70
     1
102
RTVSPropertyOp33
 70
     1
102
RTVSPropertyOp34
 70
     1
102
RTVSPropertyOp35
 70
     1
102
RTVSPropertyOp36
 70
     1
102
RTVSPropertyOp37
 70
     1
102
RTVSPropertyOp38
 70
     1
102
RTVSPropertyOp39
 70
     1
102
RTVSPropertyOp40
 70
     1
102
RTVSPropertyOp41
 70
     1
102
RTVSPropertyOp42
 70
     1
102
RTVSPropertyOp43
 70
     1
102
RTVSPropertyOp44
 70
     1
102
RTVSPropertyOp45
 70
     1
102
RTVSPropertyOp46
 70
     1
102
RTVSPropertyOp47
 70
     1
102
RTVSPropertyOp48
 70
     1
102
RTVSPropertyOp49
 70
     1
102
RTVSPropertyOp50
 70
     1
102
RTVSPropertyOp51
 70
     0
102
RTVSPropertyOp52
 70
     0
102
RTVSPropertyOp53
 70
     1
102
RTVSPropertyOp54
 70
     1
102
RTVSPropertyOp55
 70
     1
102
RTVSPropertyOp56
 70
     1
102
RTVSPropertyOp57
 70
     1
102
RTVSPropertyOp58
 70
     1
102
RTVSPropertyOp59
 70
     1
102
RTVSPropertyOp60
 70
     1
102
RTVSPropertyOp61
 70
     1
102
RTVSPropertyOp62
 70
     1
  0
XRECORD
  5
98FD
102
{ACAD_REACTORS
330
98FC
102
}
330
98FC
100
AcDbXrecord
280
     1
102
RTVSPost2010Prop28
280
     0
102
RTVSPost2010PropOp28
 70
     1
102
RTVSPost2010Prop29
280
     1
102
RTVSPost2010PropOp29
 70
     1
102
RTVSPost2010Prop30
280
     1
102
RTVSPost2010PropOp30
 70
     1
102
RTVSPost2010Prop31
280
     0
102
RTVSPost2010PropOp31
 70
     1
102
RTVSPost2010Prop32
280
     0
102
RTVSPost2010PropOp32
 70
     1
102
RTVSPost2010Prop33
280
     0
102
RTVSPost2010PropOp33
 70
     1
102
RTVSPost2010Prop34
280
     0
102
RTVSPost2010PropOp34
 70
     1
102
RTVSPost2010Prop35
280
     0
102
RTVSPost2010PropOp35
 70
     1
102
RTVSPost2010Prop36
280
     0
102
RTVSPost2010PropOp36
 70
     1
102
RTVSPost2010Prop37
 90
       50
102
RTVSPost2010PropOp37
 70
     1
102
RTVSPost2010Prop38
140
0.0
102
RTVSPost2010PropOp38
 70
     1
102
RTVSPost2010Prop39
140
1.0
102
RTVSPost2010PropOp39
 70
     1
102
RTVSPost2010Prop40
 90
        0
102
RTVSPost2010PropOp40
 70
     1
102
RTVSPost2010Prop41ColorIndex
 90
       18
102
RTVSPost2010Prop41ColorRGB
 90
        0
102
RTVSPost2010PropOp41
 70
     1
102
RTVSPost2010Prop42
 90
       50
102
RTVSPost2010PropOp42
 70
     1
102
RTVSPost2010Prop43
 90
        3
102
RTVSPost2010PropOp43
 70
     1
102
RTVSPost2010Prop44ColorIndex
 90
        5
102
RTVSPost2010Prop44ColorRGB
 90
      255
102
RTVSPost2010PropOp44
 70
     1
102
RTVSPost2010Prop45
280
     0
102
RTVSPost2010PropOp45
 70
     1
102
RTVSPost2010Prop46
 90
       50
102
RTVSPost2010PropOp46
 70
     1
102
RTVSPost2010Prop47
 90
       50
102
RTVSPost2010PropOp47
 70
     1
102
RTVSPost2010Prop48
 90
       50
102
RTVSPost2010PropOp48
 70
     1
102
RTVSPost2010Prop49
280
     0
102
RTVSPost2010PropOp49
 70
     1
102
RTVSPost2010Prop50
 90
       50
102
RTVSPost2010PropOp50
 70
     1
102
RTVSPost2010Prop51ColorIndex
 90
      256
102
RTVSPost2010Prop51ColorRGB
 90
-16777216
102
RTVSPost2010PropOp51
 70
     0
102
RTVSPost2010Prop52
140
1.0
102
RTVSPost2010PropOp52
 70
     0
102
RTVSPost2010Prop53
 90
        2
102
RTVSPost2010PropOp53
 70
     1
102
RTVSPost2010Prop54
  1
strokes_ogs.tif
102
RTVSPost2010PropOp54
 70
     1
102
RTVSPost2010Prop55
280
     0
102
RTVSPost2010PropOp55
 70
     1
102
RTVSPost2010Prop56
140
1.0
102
RTVSPost2010PropOp56
 70
     1
102
RTVSPost2010Prop57
140
1.0
102
RTVSPost2010PropOp57
 70
     1
102
RTVSPropertyOp0
 70
     1
102
RTVSPropertyOp1
 70
     1
102
RTVSPropertyOp2
 70
     1
102
RTVSPropertyOp3
 70
     1
102
RTVSPropertyOp4
 70
     1
102
RTVSPropertyOp5
 70
     1
102
RTVSPropertyOp6
 70
     1
102
RTVSPropertyOp7
 70
     1
102
RTVSPropertyOp8
 70
     1
102
RTVSPropertyOp9
 70
     1
102
RTVSPropertyOp10
 70
     1
102
RTVSPropertyOp11
 70
     1
102
RTVSPropertyOp12
 70
     1
102
RTVSPropertyOp13
 70
     1
102
RTVSPropertyOp14
 70
     1
102
RTVSPropertyOp15
 70
     1
102
RTVSPropertyOp16
 70
     1
102
RTVSPropertyOp17
 70
     1
102
RTVSPropertyOp18
 70
     1
102
RTVSPropertyOp19
 70
     1
102
RTVSPropertyOp20
 70
     1
102
RTVSPropertyOp21
 70
     1
102
RTVSPropertyOp22
 70
     1
102
RTVSPropertyOp23
 70
     1
102
RTVSPropertyOp24
 70
     1
102
RTVSPropertyOp25
 70
     1
102
RTVSPropertyOp26
 70
     1
102
RTVSPropertyOp27
 70
     1
102
RTVSPropertyOp28
 70
     1
102
RTVSPropertyOp29
 70
     1
102
RTVSPropertyOp30
 70
     1
102
RTVSPropertyOp31
 70
     1
102
RTVSPropertyOp32
 70
     1
102
RTVSPropertyOp33
 70
     1
102
RTVSPropertyOp34
 70
     1
102
RTVSPropertyOp35
 70
     1
102
RTVSPropertyOp36
 70
     1
102
RTVSPropertyOp37
 70
     1
102
RTVSPropertyOp38
 70
     1
102
RTVSPropertyOp39
 70
     1
102
RTVSPropertyOp40
 70
     1
102
RTVSPropertyOp41
 70
     1
102
RTVSPropertyOp42
 70
     1
102
RTVSPropertyOp43
 70
     1
102
RTVSPropertyOp44
 70
     1
102
RTVSPropertyOp45
 70
     1
102
RTVSPropertyOp46
 70
     1
102
RTVSPropertyOp47
 70
     1
102
RTVSPropertyOp48
 70
     1
102
RTVSPropertyOp49
 70
     1
102
RTVSPropertyOp50
 70
     1
102
RTVSPropertyOp51
 70
     0
102
RTVSPropertyOp52
 70
     0
102
RTVSPropertyOp53
 70
     1
102
RTVSPropertyOp54
 70
     1
102
RTVSPropertyOp55
 70
     1
102
RTVSPropertyOp56
 70
     1
102
RTVSPropertyOp57
 70
     1
102
RTVSPropertyOp58
 70
     1
102
RTVSPropertyOp59
 70
     1
102
RTVSPropertyOp60
 70
     1
102
RTVSPropertyOp61
 70
     1
102
RTVSPropertyOp62
 70
     1
  0
XRECORD
  5
98F3
102
{ACAD_REACTORS
330
98F2
102
}
330
98F2
100
AcDbXrecord
280
     1
102
RTVSPost2010Prop28
280
     0
102
RTVSPost2010PropOp28
 70
     1
102
RTVSPost2010Prop29
280
     1
102
RTVSPost2010PropOp29
 70
     1
102
RTVSPost2010Prop30
280
     1
102
RTVSPost2010PropOp30
 70
     1
102
RTVSPost2010Prop31
280
     0
102
RTVSPost2010PropOp31
 70
     1
102
RTVSPost2010Prop32
280
     0
102
RTVSPost2010PropOp32
 70
     1
102
RTVSPost2010Prop33
280
     0
102
RTVSPost2010PropOp33
 70
     1
102
RTVSPost2010Prop34
280
     0
102
RTVSPost2010PropOp34
 70
     1
102
RTVSPost2010Prop35
280
     0
102
RTVSPost2010PropOp35
 70
     1
102
RTVSPost2010Prop36
280
     0
102
RTVSPost2010PropOp36
 70
     1
102
RTVSPost2010Prop37
 90
       50
102
RTVSPost2010PropOp37
 70
     1
102
RTVSPost2010Prop38
140
0.0
102
RTVSPost2010PropOp38
 70
     1
102
RTVSPost2010Prop39
140
1.0
102
RTVSPost2010PropOp39
 70
     1
102
RTVSPost2010Prop40
 90
        0
102
RTVSPost2010PropOp40
 70
     1
102
RTVSPost2010Prop41ColorIndex
 90
       18
102
RTVSPost2010Prop41ColorRGB
 90
        0
102
RTVSPost2010PropOp41
 70
     1
102
RTVSPost2010Prop42
 90
       50
102
RTVSPost2010PropOp42
 70
     1
102
RTVSPost2010Prop43
 90
        3
102
RTVSPost2010PropOp43
 70
     1
102
RTVSPost2010Prop44ColorIndex
 90
        5
102
RTVSPost2010Prop44ColorRGB
 90
      255
102
RTVSPost2010PropOp44
 70
     1
102
RTVSPost2010Prop45
280
     0
102
RTVSPost2010PropOp45
 70
     1
102
RTVSPost2010Prop46
 90
       50
102
RTVSPost2010PropOp46
 70
     1
102
RTVSPost2010Prop47
 90
       50
102
RTVSPost2010PropOp47
 70
     1
102
RTVSPost2010Prop48
 90
       50
102
RTVSPost2010PropOp48
 70
     1
102
RTVSPost2010Prop49
280
     0
102
RTVSPost2010PropOp49
 70
     1
102
RTVSPost2010Prop50
 90
       50
102
RTVSPost2010PropOp50
 70
     1
102
RTVSPost2010Prop51ColorIndex
 90
      256
102
RTVSPost2010Prop51ColorRGB
 90
-16777216
102
RTVSPost2010PropOp51
 70
     0
102
RTVSPost2010Prop52
140
1.0
102
RTVSPost2010PropOp52
 70
     0
102
RTVSPost2010Prop53
 90
        2
102
RTVSPost2010PropOp53
 70
     1
102
RTVSPost2010Prop54
  1
strokes_ogs.tif
102
RTVSPost2010PropOp54
 70
     1
102
RTVSPost2010Prop55
280
     0
102
RTVSPost2010PropOp55
 70
     1
102
RTVSPost2010Prop56
140
1.0
102
RTVSPost2010PropOp56
 70
     1
102
RTVSPost2010Prop57
140
1.0
102
RTVSPost2010PropOp57
 70
     1
102
RTVSPropertyOp0
 70
     1
102
RTVSPropertyOp1
 70
     1
102
RTVSPropertyOp2
 70
     1
102
RTVSPropertyOp3
 70
     1
102
RTVSPropertyOp4
 70
     1
102
RTVSPropertyOp5
 70
     1
102
RTVSPropertyOp6
 70
     1
102
RTVSPropertyOp7
 70
     1
102
RTVSPropertyOp8
 70
     1
102
RTVSPropertyOp9
 70
     1
102
RTVSPropertyOp10
 70
     1
102
RTVSPropertyOp11
 70
     1
102
RTVSPropertyOp12
 70
     1
102
RTVSPropertyOp13
 70
     1
102
RTVSPropertyOp14
 70
     1
102
RTVSPropertyOp15
 70
     1
102
RTVSPropertyOp16
 70
     1
102
RTVSPropertyOp17
 70
     1
102
RTVSPropertyOp18
 70
     1
102
RTVSPropertyOp19
 70
     1
102
RTVSPropertyOp20
 70
     1
102
RTVSPropertyOp21
 70
     1
102
RTVSPropertyOp22
 70
     1
102
RTVSPropertyOp23
 70
     1
102
RTVSPropertyOp24
 70
     1
102
RTVSPropertyOp25
 70
     1
102
RTVSPropertyOp26
 70
     1
102
RTVSPropertyOp27
 70
     1
102
RTVSPropertyOp28
 70
     1
102
RTVSPropertyOp29
 70
     1
102
RTVSPropertyOp30
 70
     1
102
RTVSPropertyOp31
 70
     1
102
RTVSPropertyOp32
 70
     1
102
RTVSPropertyOp33
 70
     1
102
RTVSPropertyOp34
 70
     1
102
RTVSPropertyOp35
 70
     1
102
RTVSPropertyOp36
 70
     1
102
RTVSPropertyOp37
 70
     1
102
RTVSPropertyOp38
 70
     1
102
RTVSPropertyOp39
 70
     1
102
RTVSPropertyOp40
 70
     1
102
RTVSPropertyOp41
 70
     1
102
RTVSPropertyOp42
 70
     1
102
RTVSPropertyOp43
 70
     1
102
RTVSPropertyOp44
 70
     1
102
RTVSPropertyOp45
 70
     1
102
RTVSPropertyOp46
 70
     1
102
RTVSPropertyOp47
 70
     1
102
RTVSPropertyOp48
 70
     1
102
RTVSPropertyOp49
 70
     1
102
RTVSPropertyOp50
 70
     1
102
RTVSPropertyOp51
 70
     0
102
RTVSPropertyOp52
 70
     0
102
RTVSPropertyOp53
 70
     1
102
RTVSPropertyOp54
 70
     1
102
RTVSPropertyOp55
 70
     1
102
RTVSPropertyOp56
 70
     1
102
RTVSPropertyOp57
 70
     1
102
RTVSPropertyOp58
 70
     1
102
RTVSPropertyOp59
 70
     1
102
RTVSPropertyOp60
 70
     1
102
RTVSPropertyOp61
 70
     1
102
RTVSPropertyOp62
 70
     1
  0
XRECORD
  5
98E7
102
{ACAD_REACTORS
330
98E6
102
}
330
98E6
100
AcDbXrecord
280
     1
102
RTVSPost2010Prop28
280
     0
102
RTVSPost2010PropOp28
 70
     1
102
RTVSPost2010Prop29
280
     1
102
RTVSPost2010PropOp29
 70
     1
102
RTVSPost2010Prop30
280
     1
102
RTVSPost2010PropOp30
 70
     1
102
RTVSPost2010Prop31
280
     0
102
RTVSPost2010PropOp31
 70
     1
102
RTVSPost2010Prop32
280
     0
102
RTVSPost2010PropOp32
 70
     1
102
RTVSPost2010Prop33
280
     0
102
RTVSPost2010PropOp33
 70
     1
102
RTVSPost2010Prop34
280
     0
102
RTVSPost2010PropOp34
 70
     1
102
RTVSPost2010Prop35
280
     0
102
RTVSPost2010PropOp35
 70
     1
102
RTVSPost2010Prop36
280
     0
102
RTVSPost2010PropOp36
 70
     1
102
RTVSPost2010Prop37
 90
       50
102
RTVSPost2010PropOp37
 70
     1
102
RTVSPost2010Prop38
140
0.0
102
RTVSPost2010PropOp38
 70
     1
102
RTVSPost2010Prop39
140
1.0
102
RTVSPost2010PropOp39
 70
     1
102
RTVSPost2010Prop40
 90
        0
102
RTVSPost2010PropOp40
 70
     1
102
RTVSPost2010Prop41ColorIndex
 90
       18
102
RTVSPost2010Prop41ColorRGB
 90
        0
102
RTVSPost2010PropOp41
 70
     1
102
RTVSPost2010Prop42
 90
       50
102
RTVSPost2010PropOp42
 70
     1
102
RTVSPost2010Prop43
 90
        3
102
RTVSPost2010PropOp43
 70
     1
102
RTVSPost2010Prop44ColorIndex
 90
        5
102
RTVSPost2010Prop44ColorRGB
 90
      255
102
RTVSPost2010PropOp44
 70
     1
102
RTVSPost2010Prop45
280
     0
102
RTVSPost2010PropOp45
 70
     1
102
RTVSPost2010Prop46
 90
       50
102
RTVSPost2010PropOp46
 70
     1
102
RTVSPost2010Prop47
 90
       50
102
RTVSPost2010PropOp47
 70
     1
102
RTVSPost2010Prop48
 90
       50
102
RTVSPost2010PropOp48
 70
     1
102
RTVSPost2010Prop49
280
     0
102
RTVSPost2010PropOp49
 70
     1
102
RTVSPost2010Prop50
 90
       50
102
RTVSPost2010PropOp50
 70
     1
102
RTVSPost2010Prop51ColorIndex
 90
      256
102
RTVSPost2010Prop51ColorRGB
 90
-16777216
102
RTVSPost2010PropOp51
 70
     0
102
RTVSPost2010Prop52
140
1.0
102
RTVSPost2010PropOp52
 70
     0
102
RTVSPost2010Prop53
 90
        2
102
RTVSPost2010PropOp53
 70
     1
102
RTVSPost2010Prop54
  1
strokes_ogs.tif
102
RTVSPost2010PropOp54
 70
     1
102
RTVSPost2010Prop55
280
     0
102
RTVSPost2010PropOp55
 70
     1
102
RTVSPost2010Prop56
140
1.0
102
RTVSPost2010PropOp56
 70
     1
102
RTVSPost2010Prop57
140
1.0
102
RTVSPost2010PropOp57
 70
     1
102
RTVSPropertyOp0
 70
     1
102
RTVSPropertyOp1
 70
     1
102
RTVSPropertyOp2
 70
     1
102
RTVSPropertyOp3
 70
     1
102
RTVSPropertyOp4
 70
     1
102
RTVSPropertyOp5
 70
     1
102
RTVSPropertyOp6
 70
     1
102
RTVSPropertyOp7
 70
     1
102
RTVSPropertyOp8
 70
     1
102
RTVSPropertyOp9
 70
     1
102
RTVSPropertyOp10
 70
     1
102
RTVSPropertyOp11
 70
     1
102
RTVSPropertyOp12
 70
     1
102
RTVSPropertyOp13
 70
     1
102
RTVSPropertyOp14
 70
     1
102
RTVSPropertyOp15
 70
     1
102
RTVSPropertyOp16
 70
     1
102
RTVSPropertyOp17
 70
     1
102
RTVSPropertyOp18
 70
     1
102
RTVSPropertyOp19
 70
     1
102
RTVSPropertyOp20
 70
     1
102
RTVSPropertyOp21
 70
     1
102
RTVSPropertyOp22
 70
     1
102
RTVSPropertyOp23
 70
     1
102
RTVSPropertyOp24
 70
     1
102
RTVSPropertyOp25
 70
     1
102
RTVSPropertyOp26
 70
     1
102
RTVSPropertyOp27
 70
     1
102
RTVSPropertyOp28
 70
     1
102
RTVSPropertyOp29
 70
     1
102
RTVSPropertyOp30
 70
     1
102
RTVSPropertyOp31
 70
     1
102
RTVSPropertyOp32
 70
     1
102
RTVSPropertyOp33
 70
     1
102
RTVSPropertyOp34
 70
     1
102
RTVSPropertyOp35
 70
     1
102
RTVSPropertyOp36
 70
     1
102
RTVSPropertyOp37
 70
     1
102
RTVSPropertyOp38
 70
     1
102
RTVSPropertyOp39
 70
     1
102
RTVSPropertyOp40
 70
     1
102
RTVSPropertyOp41
 70
     1
102
RTVSPropertyOp42
 70
     1
102
RTVSPropertyOp43
 70
     1
102
RTVSPropertyOp44
 70
     1
102
RTVSPropertyOp45
 70
     1
102
RTVSPropertyOp46
 70
     1
102
RTVSPropertyOp47
 70
     1
102
RTVSPropertyOp48
 70
     1
102
RTVSPropertyOp49
 70
     1
102
RTVSPropertyOp50
 70
     1
102
RTVSPropertyOp51
 70
     0
102
RTVSPropertyOp52
 70
     0
102
RTVSPropertyOp53
 70
     1
102
RTVSPropertyOp54
 70
     1
102
RTVSPropertyOp55
 70
     1
102
RTVSPropertyOp56
 70
     1
102
RTVSPropertyOp57
 70
     1
102
RTVSPropertyOp58
 70
     1
102
RTVSPropertyOp59
 70
     1
102
RTVSPropertyOp60
 70
     1
102
RTVSPropertyOp61
 70
     1
102
RTVSPropertyOp62
 70
     1
  0
XRECORD
  5
98FF
102
{ACAD_REACTORS
330
98FE
102
}
330
98FE
100
AcDbXrecord
280
     1
102
RTVSPost2010Prop28
280
     0
102
RTVSPost2010PropOp28
 70
     1
102
RTVSPost2010Prop29
280
     1
102
RTVSPost2010PropOp29
 70
     1
102
RTVSPost2010Prop30
280
     1
102
RTVSPost2010PropOp30
 70
     1
102
RTVSPost2010Prop31
280
     0
102
RTVSPost2010PropOp31
 70
     1
102
RTVSPost2010Prop32
280
     0
102
RTVSPost2010PropOp32
 70
     1
102
RTVSPost2010Prop33
280
     0
102
RTVSPost2010PropOp33
 70
     1
102
RTVSPost2010Prop34
280
     0
102
RTVSPost2010PropOp34
 70
     1
102
RTVSPost2010Prop35
280
     0
102
RTVSPost2010PropOp35
 70
     1
102
RTVSPost2010Prop36
280
     0
102
RTVSPost2010PropOp36
 70
     1
102
RTVSPost2010Prop37
 90
       50
102
RTVSPost2010PropOp37
 70
     1
102
RTVSPost2010Prop38
140
0.0
102
RTVSPost2010PropOp38
 70
     1
102
RTVSPost2010Prop39
140
1.0
102
RTVSPost2010PropOp39
 70
     1
102
RTVSPost2010Prop40
 90
        0
102
RTVSPost2010PropOp40
 70
     1
102
RTVSPost2010Prop41ColorIndex
 90
       18
102
RTVSPost2010Prop41ColorRGB
 90
        0
102
RTVSPost2010PropOp41
 70
     1
102
RTVSPost2010Prop42
 90
       50
102
RTVSPost2010PropOp42
 70
     1
102
RTVSPost2010Prop43
 90
        3
102
RTVSPost2010PropOp43
 70
     1
102
RTVSPost2010Prop44ColorIndex
 90
        5
102
RTVSPost2010Prop44ColorRGB
 90
      255
102
RTVSPost2010PropOp44
 70
     1
102
RTVSPost2010Prop45
280
     0
102
RTVSPost2010PropOp45
 70
     1
102
RTVSPost2010Prop46
 90
       50
102
RTVSPost2010PropOp46
 70
     1
102
RTVSPost2010Prop47
 90
       50
102
RTVSPost2010PropOp47
 70
     1
102
RTVSPost2010Prop48
 90
       50
102
RTVSPost2010PropOp48
 70
     1
102
RTVSPost2010Prop49
280
     0
102
RTVSPost2010PropOp49
 70
     1
102
RTVSPost2010Prop50
 90
       50
102
RTVSPost2010PropOp50
 70
     1
102
RTVSPost2010Prop51ColorIndex
 90
      256
102
RTVSPost2010Prop51ColorRGB
 90
-16777216
102
RTVSPost2010PropOp51
 70
     0
102
RTVSPost2010Prop52
140
1.0
102
RTVSPost2010PropOp52
 70
     0
102
RTVSPost2010Prop53
 90
        2
102
RTVSPost2010PropOp53
 70
     1
102
RTVSPost2010Prop54
  1
strokes_ogs.tif
102
RTVSPost2010PropOp54
 70
     1
102
RTVSPost2010Prop55
280
     0
102
RTVSPost2010PropOp55
 70
     1
102
RTVSPost2010Prop56
140
1.0
102
RTVSPost2010PropOp56
 70
     1
102
RTVSPost2010Prop57
140
1.0
102
RTVSPost2010PropOp57
 70
     1
102
RTVSPropertyOp0
 70
     1
102
RTVSPropertyOp1
 70
     1
102
RTVSPropertyOp2
 70
     1
102
RTVSPropertyOp3
 70
     1
102
RTVSPropertyOp4
 70
     1
102
RTVSPropertyOp5
 70
     1
102
RTVSPropertyOp6
 70
     1
102
RTVSPropertyOp7
 70
     1
102
RTVSPropertyOp8
 70
     1
102
RTVSPropertyOp9
 70
     1
102
RTVSPropertyOp10
 70
     1
102
RTVSPropertyOp11
 70
     1
102
RTVSPropertyOp12
 70
     1
102
RTVSPropertyOp13
 70
     1
102
RTVSPropertyOp14
 70
     1
102
RTVSPropertyOp15
 70
     1
102
RTVSPropertyOp16
 70
     1
102
RTVSPropertyOp17
 70
     1
102
RTVSPropertyOp18
 70
     1
102
RTVSPropertyOp19
 70
     1
102
RTVSPropertyOp20
 70
     1
102
RTVSPropertyOp21
 70
     1
102
RTVSPropertyOp22
 70
     1
102
RTVSPropertyOp23
 70
     1
102
RTVSPropertyOp24
 70
     1
102
RTVSPropertyOp25
 70
     1
102
RTVSPropertyOp26
 70
     1
102
RTVSPropertyOp27
 70
     1
102
RTVSPropertyOp28
 70
     1
102
RTVSPropertyOp29
 70
     1
102
RTVSPropertyOp30
 70
     1
102
RTVSPropertyOp31
 70
     1
102
RTVSPropertyOp32
 70
     1
102
RTVSPropertyOp33
 70
     1
102
RTVSPropertyOp34
 70
     1
102
RTVSPropertyOp35
 70
     1
102
RTVSPropertyOp36
 70
     1
102
RTVSPropertyOp37
 70
     1
102
RTVSPropertyOp38
 70
     1
102
RTVSPropertyOp39
 70
     1
102
RTVSPropertyOp40
 70
     1
102
RTVSPropertyOp41
 70
     1
102
RTVSPropertyOp42
 70
     1
102
RTVSPropertyOp43
 70
     1
102
RTVSPropertyOp44
 70
     1
102
RTVSPropertyOp45
 70
     1
102
RTVSPropertyOp46
 70
     1
102
RTVSPropertyOp47
 70
     1
102
RTVSPropertyOp48
 70
     1
102
RTVSPropertyOp49
 70
     1
102
RTVSPropertyOp50
 70
     1
102
RTVSPropertyOp51
 70
     0
102
RTVSPropertyOp52
 70
     0
102
RTVSPropertyOp53
 70
     1
102
RTVSPropertyOp54
 70
     1
102
RTVSPropertyOp55
 70
     1
102
RTVSPropertyOp56
 70
     1
102
RTVSPropertyOp57
 70
     1
102
RTVSPropertyOp58
 70
     1
102
RTVSPropertyOp59
 70
     1
102
RTVSPropertyOp60
 70
     1
102
RTVSPropertyOp61
 70
     1
102
RTVSPropertyOp62
 70
     1
  0
ENDSEC
  0
EOF
