  0
SECTION
  2
HEADER
  9
$ACADVER
  1
AC1027
  9
$DWGCODEPAGE
  3
ANSI_932
  9
$LTSCALE
 40
20.0
  9
$FILLMODE
 70
     1
  9
$CLAYER
  8
0
  9
$PDMODE
 70
     0
  9
$SPLFRAME
 70
     0
  9
$SPLINETYPE
 70
     6
  9
$SPLINESEGS
 70
     8
  9
$DIMASZ
 40
2.000000
  9
$DIMEXE
 40
1.500000
  9
$DIMEXO
 40
0.800000
  9
$DIMTAD
 70
     1
  9
$DIMTIH
 70
     0
  9
$DIMTOH
 70
     0
  9
$DIMTVP
 40
0.500000
  9
$DIMTXT
 40
3.100000
  9
$EXTMIN
 10
0.000000
 20
0.000000
 30
0.000000
  9
$EXTMAX
 10
297.000000
 20
420.000000
 30
0.000000
  9
$MEASUREMENT
 70
  1
  9
$LIMMIN
 10
0.000000
 20
0.000000
  9
$LIMMAX
 10
297.000000
 20
420.000000
  9
$HANDSEED
  5
38A
  9
$LWDISPLAY
290
     0
  9
$DIMBLK
  1
_OPEN
  9
$DIMDEC
 70
     2
  9
$DIMADEC
 70
     2
  9
$DIMAUNIT
 70
     0
  9
$DIMZIN
 70
     8
  9
$DIMAZIN
 70
     2
  9
$DIMTOFL
 70
     1
  0
ENDSEC
  0
SECTION
  2
CLASSES
  0
ENDSEC
  0
SECTION
  2
TABLES
  0
TABLE
  2
VPORT
  5
359
100
AcDbSymbolTable
 70
     1
  0
VPORT
  5
35A
100
AcDbSymbolTableRecord
100
AcDbViewportTableRecord
  2
*ACTIVE
 70
     0
 12
309.770342
 22
169.590290
 40
319.180579
 41
1.878375
  0
ENDTAB
  0
TABLE
  2
LTYPE
  5
35B
100
AcDbSymbolTable
 70
     3
  0
LTYPE
  5
35C
100
AcDbSymbolTableRecord
100
AcDbLinetypeTableRecord
  2
BYBLOCK
 70
     0
  3

 72
    65
 73
     0
 40
0.0
  0
LTYPE
  5
35D
100
AcDbSymbolTableRecord
100
AcDbLinetypeTableRecord
  2
BYLAYER
 70
     0
  3

 72
    65
 73
     0
 40
0.0
  0
LTYPE
  5
35E
100
AcDbSymbolTableRecord
100
AcDbLinetypeTableRecord
  2
CONTINUOUS
 70
     0
  3
Solid line (NEC CAE2D for Win R17.0 : 2022.11.25)
 72
    65
 73
     0
 40
0.0
  0
LTYPE
  5
35F
100
AcDbSymbolTableRecord
100
AcDbLinetypeTableRecord
  2
CENTER
 70
     0
  3
____ _ ____ _ ____ _ ____ _ ____ _ ____
 72
    65
 73
     4
 40
2.0
 49
1.25
 74
     0
 49
-0.25
 74
     0
 49
0.25
 74
     0
 49
-0.25
 74
     0
  0
LTYPE
  5
360
100
AcDbSymbolTableRecord
100
AcDbLinetypeTableRecord
  2
PHANTOM
 70
     0
  3
______  __  __  ______  __  __  ______ 
 72
    65
 73
     6
 40
2.5
 49
1.25
 74
     0
 49
-0.25
 74
     0
 49
0.25
 74
     0
 49
-0.25
 74
     0
 49
0.25
 74
     0
 49
-0.25
 74
     0
  0
ENDTAB
  0
TABLE
  2
LAYER
  5
361
100
AcDbSymbolTable
 70
    10
  0
LAYER
  5
362
100
AcDbSymbolTableRecord
100
AcDbLayerTableRecord
  2
0
 70
     0
 62
     7
  6
CONTINUOUS
370
    -3
390

  0
LAYER
  5
363
100
AcDbSymbolTableRecord
100
AcDbLayerTableRecord
  2
DXF0
 70
     0
 62
     7
  6
CONTINUOUS
370
    -3
390

  0
LAYER
  5
364
100
AcDbSymbolTableRecord
100
AcDbLayerTableRecord
  2
4
 70
     0
 62
     1
  6
CONTINUOUS
370
    -3
390

  0
LAYER
  5
365
100
AcDbSymbolTableRecord
100
AcDbLayerTableRecord
  2
5
 70
     0
 62
     6
  6
CONTINUOUS
370
    -3
390

  0
LAYER
  5
366
100
AcDbSymbolTableRecord
100
AcDbLayerTableRecord
  2
1
 70
     0
 62
     7
  6
CONTINUOUS
370
    -3
390

  0
LAYER
  5
367
100
AcDbSymbolTableRecord
100
AcDbLayerTableRecord
  2
2
 70
     0
 62
     4
  6
CONTINUOUS
370
    -3
390

  0
LAYER
  5
368
100
AcDbSymbolTableRecord
100
AcDbLayerTableRecord
  2
3
 70
     0
 62
     2
  6
CONTINUOUS
370
    -3
390

  0
LAYER
  5
369
100
AcDbSymbolTableRecord
100
AcDbLayerTableRecord
  2
6
 70
     0
 62
     5
  6
CONTINUOUS
370
    -3
390

  0
LAYER
  5
36A
100
AcDbSymbolTableRecord
100
AcDbLayerTableRecord
  2
7
 70
     0
 62
     3
  6
CONTINUOUS
370
    -3
390

  0
LAYER
  5
36B
100
AcDbSymbolTableRecord
100
AcDbLayerTableRecord
  2
DXF1023
 70
     0
 62
    16
  6
CONTINUOUS
370
    -3
390

  0
ENDTAB
  0
TABLE
  2
STYLE
  5
36C
100
AcDbSymbolTable
 70
     4
  0
STYLE
  5
36D
100
AcDbSymbolTableRecord
100
AcDbTextStyleTableRecord
  2
STANDARD
 70
    64
 40
0.0
 41
1.0
 50
0.0
 71
     0
 42
3.000000000000000
  3
TXT
  4

  0
STYLE
  5
36E
100
AcDbSymbolTableRecord
100
AcDbTextStyleTableRecord
  2
ANKTATE
 70
    68
 40
0.0
 41
1.0
 50
0.0
 71
     0
 42
3.000000000000000
  3
TXT
  4

  0
STYLE
  5
36F
100
AcDbSymbolTableRecord
100
AcDbTextStyleTableRecord
  2
KNJYOKO
 70
    64
 40
0.0
 41
1.0
 50
0.0
 71
     0
 42
3.000000000000000
  3
TXT
  4
BIGFONT
  0
STYLE
  5
370
100
AcDbSymbolTableRecord
100
AcDbTextStyleTableRecord
  2
KNJTATE
 70
    68
 40
0.0
 41
1.0
 50
0.0
 71
     0
 42
3.000000000000000
  3
TXT
  4
BIGFONT
  0
ENDTAB
  0
TABLE
  2
VIEW
  5
371
100
AcDbSymbolTable
 70
     0
  0
ENDTAB
  0
TABLE
  2
UCS
  5
372
100
AcDbSymbolTable
 70
     0
  0
ENDTAB
  0
TABLE
  2
APPID
  5
373
100
AcDbSymbolTable
 70
     1
  0
APPID
  5
374
100
AcDbSymbolTableRecord
100
AcDbRegAppTableRecord
  2
ACAD
 70
     0
  0
ENDTAB
  0
TABLE
  2
DIMSTYLE
  5
375
100
AcDbSymbolTable
 70
     2
100
AcDbDimStyleTable
  0
DIMSTYLE
105
376
100
AcDbSymbolTableRecord
100
AcDbDimStyleTableRecord
  2
STANDARD
 70
     0
 41
2.000000
 44
1.500000
 42
0.800000
145
0.661290
140
3.100000
144
1.000000
146
0.645161
340
36D
  0
DIMSTYLE
105
377
100
AcDbSymbolTableRecord
100
AcDbDimStyleTableRecord
  2
DXF001
 70
     0
 41
2.000000
 44
1.500000
 42
0.800000
145
0.661290
140
3.100000
144
1.000000
146
0.645161
 77
     1
 73
     0
 74
     0
271
     2
179
     2
275
     0
 78
     8
 79
     2
172
     1
340
36D
  0
ENDTAB
  0
TABLE
  2
BLOCK_RECORD
  5
378
100
AcDbSymbolTable
 70
    12
  0
BLOCK_RECORD
  5
379
100
AcDbSymbolTableRecord
100
AcDbBlockTableRecord
  2
*MODEL_SPACE
  0
BLOCK_RECORD
  5
37A
100
AcDbSymbolTableRecord
100
AcDbBlockTableRecord
  2
*PAPER_SPACE
  0
BLOCK_RECORD
  5
37B
100
AcDbSymbolTableRecord
100
AcDbBlockTableRecord
  2
*PAPER_SPACE0
  0
BLOCK_RECORD
  5
1
100
AcDbSymbolTableRecord
100
AcDbBlockTableRecord
  2
_NONE
  0
BLOCK_RECORD
  5
4
100
AcDbSymbolTableRecord
100
AcDbBlockTableRecord
  2
_CLOSED
  0
BLOCK_RECORD
  5
B
100
AcDbSymbolTableRecord
100
AcDbBlockTableRecord
  2
_DOT
  0
BLOCK_RECORD
  5
13
100
AcDbSymbolTableRecord
100
AcDbBlockTableRecord
  2
_OPEN
  0
BLOCK_RECORD
  5
19
100
AcDbSymbolTableRecord
100
AcDbBlockTableRecord
  2
_ORIGIN
  0
BLOCK_RECORD
  5
1E
100
AcDbSymbolTableRecord
100
AcDbBlockTableRecord
  2
_OPEN30
  0
BLOCK_RECORD
  5
24
100
AcDbSymbolTableRecord
100
AcDbBlockTableRecord
  2
_BOXFILLED
  0
BLOCK_RECORD
  5
29
100
AcDbSymbolTableRecord
100
AcDbBlockTableRecord
  2
_BOXBLANK
  0
BLOCK_RECORD
  5
31
100
AcDbSymbolTableRecord
100
AcDbBlockTableRecord
  2
_OBLIQUE
  0
BLOCK_RECORD
  5
35
100
AcDbSymbolTableRecord
100
AcDbBlockTableRecord
  2
_OPEN90
  0
BLOCK_RECORD
  5
3B
100
AcDbSymbolTableRecord
100
AcDbBlockTableRecord
  2
_CLOSEDBLANK
  0
BLOCK_RECORD
  5
41
100
AcDbSymbolTableRecord
100
AcDbBlockTableRecord
  2
_DOTBLANK
  0
ENDTAB
  0
ENDSEC
  0
SECTION
  2
BLOCKS
  0
BLOCK
  5
37C
100
AcDbEntity
  8
0
100
AcDbBlockBegin
  2
*MODEL_SPACE
 70
     0
 10
0.0
 20
0.0
 30
0.0
  3
*MODEL_SPACE
  1

  0
ENDBLK
  5
37D
100
AcDbEntity
  8
0
100
AcDbBlockEnd
  0
BLOCK
  5
37E
100
AcDbEntity
  8
0
100
AcDbBlockBegin
  2
*PAPER_SPACE
 70
     0
 10
0.0
 20
0.0
 30
0.0
  3
*PAPER_SPACE
  1

  0
ENDBLK
  5
37F
100
AcDbEntity
  8
0
100
AcDbBlockEnd
  0
BLOCK
  5
380
100
AcDbEntity
  8
0
100
AcDbBlockBegin
  2
*PAPER_SPACE0
 70
     0
 10
0.0
 20
0.0
 30
0.0
  3
*PAPER_SPACE0
  1

  0
ENDBLK
  5
381
100
AcDbEntity
  8
0
100
AcDbBlockEnd
  0
BLOCK
  5
2
330
1
100
AcDbEntity
  8
0
100
AcDbBlockBegin
  2
_NONE
 70
     0
 10
0.0
 20
0.0
 30
0.0
  3
_NONE
  1

  0
ENDBLK
  5
3
330
1
100
AcDbEntity
  8
0
100
AcDbBlockEnd
  0
BLOCK
  5
5
330
4
100
AcDbEntity
  8
0
100
AcDbBlockBegin
  2
_CLOSED
 70
     0
 10
0.0
 20
0.0
 30
0.0
  3
_CLOSED
  1

  0
LINE
  5
6
330
4
100
AcDbEntity
  8
0
  6
BYBLOCK
 62
     0
370
    -2
100
AcDbLine
 10
-1.0
 20
0.166667
 30
0.0
 11
0.0
 21
0.0
 31
0.0
  0
LINE
  5
7
330
4
100
AcDbEntity
  8
0
  6
BYBLOCK
 62
     0
370
    -2
100
AcDbLine
 10
0.0
 20
0.0
 30
0.0
 11
-1.0
 21
-0.166667
 31
0.0
  0
LINE
  5
8
330
4
100
AcDbEntity
  8
0
  6
BYBLOCK
 62
     0
370
    -2
100
AcDbLine
 10
-1.0
 20
0.166667
 30
0.0
 11
-1.0
 21
-0.166667
 31
0.0
  0
LINE
  5
9
330
4
100
AcDbEntity
  8
0
  6
BYBLOCK
 62
     0
370
    -2
100
AcDbLine
 10
0.0
 20
0.0
 30
0.0
 11
-1.0
 21
0.0
 31
0.0
  0
ENDBLK
  5
A
330
4
100
AcDbEntity
  8
0
100
AcDbBlockEnd
  0
BLOCK
  5
C
330
B
100
AcDbEntity
  8
0
100
AcDbBlockBegin
  2
_DOT
 70
     0
 10
0.0
 20
0.0
 30
0.0
  3
_DOT
  1

  0
POLYLINE
  5
D
330
B
100
AcDbEntity
  8
0
  6
BYBLOCK
 62
     0
370
    -2
100
AcDb2dPolyline
 66
     1
 10
0.0
 20
0.0
 30
0.0
 70
     1
 40
0.5
 41
0.5
  0
VERTEX
  5
E
330
B
100
AcDbEntity
  8
0
  6
BYBLOCK
 62
     0
370
    -2
100
AcDbVertex
100
AcDb2dVertex
 10
-0.25
 20
0.0
 30
0.0
 42
1.0
  0
VERTEX
  5
F
330
B
100
AcDbEntity
  8
0
  6
BYBLOCK
 62
     0
370
    -2
100
AcDbVertex
100
AcDb2dVertex
 10
0.25
 20
0.0
 30
0.0
 42
1.0
  0
SEQEND
  5
10
330
B
100
AcDbEntity
  8
0
  6
BYBLOCK
 62
     0
370
    -2
  0
LINE
  5
11
330
B
100
AcDbEntity
  8
0
  6
BYBLOCK
 62
     0
370
    -2
100
AcDbLine
 10
-0.5
 20
0.0
 30
0.0
 11
-1.0
 21
0.0
 31
0.0
  0
ENDBLK
  5
12
330
B
100
AcDbEntity
  8
0
100
AcDbBlockEnd
  0
BLOCK
  5
14
330
13
100
AcDbEntity
  8
0
100
AcDbBlockBegin
  2
_OPEN
 70
     0
 10
0.0
 20
0.0
 30
0.0
  3
_OPEN
  1

  0
LINE
  5
15
330
13
100
AcDbEntity
  8
0
  6
BYBLOCK
 62
     0
370
    -2
100
AcDbLine
 10
-1.0
 20
0.166667
 30
0.0
 11
0.0
 21
0.0
 31
0.0
  0
LINE
  5
16
330
13
100
AcDbEntity
  8
0
  6
BYBLOCK
 62
     0
370
    -2
100
AcDbLine
 10
0.0
 20
0.0
 30
0.0
 11
-1.0
 21
-0.166667
 31
0.0
  0
LINE
  5
17
330
13
100
AcDbEntity
  8
0
  6
BYBLOCK
 62
     0
370
    -2
100
AcDbLine
 10
0.0
 20
0.0
 30
0.0
 11
-1.0
 21
0.0
 31
0.0
  0
ENDBLK
  5
18
330
13
100
AcDbEntity
  8
0
100
AcDbBlockEnd
  0
BLOCK
  5
1A
330
19
100
AcDbEntity
  8
0
100
AcDbBlockBegin
  2
_ORIGIN
 70
     0
 10
0.0
 20
0.0
 30
0.0
  3
_ORIGIN
  1

  0
CIRCLE
  5
1B
330
19
100
AcDbEntity
  8
0
  6
BYBLOCK
 62
     0
370
    -2
100
AcDbCircle
 10
0.0
 20
0.0
 30
0.0
 40
0.5
  0
LINE
  5
1C
330
19
100
AcDbEntity
  8
0
  6
BYBLOCK
 62
     0
370
    -2
100
AcDbLine
 10
0.0
 20
0.0
 30
0.0
 11
-1.0
 21
0.0
 31
0.0
  0
ENDBLK
  5
1D
330
19
100
AcDbEntity
  8
0
100
AcDbBlockEnd
  0
BLOCK
  5
1F
330
1E
100
AcDbEntity
  8
0
100
AcDbBlockBegin
  2
_OPEN30
 70
     0
 10
0.0
 20
0.0
 30
0.0
  3
_OPEN30
  1

  0
LINE
  5
20
330
1E
100
AcDbEntity
  8
0
  6
BYBLOCK
 62
     0
370
    -2
100
AcDbLine
 10
-1.0
 20
0.267949
 30
0.0
 11
0.0
 21
0.0
 31
0.0
  0
LINE
  5
21
330
1E
100
AcDbEntity
  8
0
  6
BYBLOCK
 62
     0
370
    -2
100
AcDbLine
 10
0.0
 20
0.0
 30
0.0
 11
-1.0
 21
-0.267949
 31
0.0
  0
LINE
  5
22
330
1E
100
AcDbEntity
  8
0
  6
BYBLOCK
 62
     0
370
    -2
100
AcDbLine
 10
0.0
 20
0.0
 30
0.0
 11
-1.0
 21
0.0
 31
0.0
  0
ENDBLK
  5
23
330
1E
100
AcDbEntity
  8
0
100
AcDbBlockEnd
  0
BLOCK
  5
25
330
24
100
AcDbEntity
  8
0
100
AcDbBlockBegin
  2
_BOXFILLED
 70
     0
 10
0.0
 20
0.0
 30
0.0
  3
_BOXFILLED
  1

  0
SOLID
  5
26
330
24
100
AcDbEntity
  8
0
  6
BYBLOCK
 62
     0
370
    -2
100
AcDbTrace
 10
-0.5
 20
0.5
 30
0.0
 11
0.5
 21
0.5
 31
0.0
 12
-0.5
 22
-0.5
 32
0.0
 13
0.5
 23
-0.5
 33
0.0
  0
LINE
  5
27
330
24
100
AcDbEntity
  8
0
  6
BYBLOCK
 62
     0
370
    -2
100
AcDbLine
 10
-0.5
 20
0.0
 30
0.0
 11
-1.0
 21
0.0
 31
0.0
  0
ENDBLK
  5
28
330
24
100
AcDbEntity
  8
0
100
AcDbBlockEnd
  0
BLOCK
  5
2A
330
29
100
AcDbEntity
  8
0
100
AcDbBlockBegin
  2
_BOXBLANK
 70
     0
 10
0.0
 20
0.0
 30
0.0
  3
_BOXBLANK
  1

  0
LINE
  5
2B
330
29
100
AcDbEntity
  8
0
  6
BYBLOCK
 62
     0
370
    -2
100
AcDbLine
 10
-0.5
 20
-0.5
 30
0.0
 11
0.5
 21
-0.5
 31
0.0
  0
LINE
  5
2C
330
29
100
AcDbEntity
  8
0
  6
BYBLOCK
 62
     0
370
    -2
100
AcDbLine
 10
0.5
 20
-0.5
 30
0.0
 11
0.5
 21
0.5
 31
0.0
  0
LINE
  5
2D
330
29
100
AcDbEntity
  8
0
  6
BYBLOCK
 62
     0
370
    -2
100
AcDbLine
 10
0.5
 20
0.5
 30
0.0
 11
-0.5
 21
0.5
 31
0.0
  0
LINE
  5
2E
330
29
100
AcDbEntity
  8
0
  6
BYBLOCK
 62
     0
370
    -2
100
AcDbLine
 10
-0.5
 20
0.5
 30
0.0
 11
-0.5
 21
-0.5
 31
0.0
  0
LINE
  5
2F
330
29
100
AcDbEntity
  8
0
  6
BYBLOCK
 62
     0
370
    -2
100
AcDbLine
 10
-0.5
 20
0.0
 30
0.0
 11
-1.0
 21
0.0
 31
0.0
  0
ENDBLK
  5
30
330
29
100
AcDbEntity
  8
0
100
AcDbBlockEnd
  0
BLOCK
  5
32
330
31
100
AcDbEntity
  8
0
100
AcDbBlockBegin
  2
_OBLIQUE
 70
     0
 10
0.0
 20
0.0
 30
0.0
  3
_OBLIQUE
  1

  0
LINE
  5
33
330
31
100
AcDbEntity
  8
0
  6
BYBLOCK
 62
     0
370
    -2
100
AcDbLine
 10
-0.5
 20
-0.5
 30
0.0
 11
0.5
 21
0.5
 31
0.0
  0
ENDBLK
  5
34
330
31
100
AcDbEntity
  8
0
100
AcDbBlockEnd
  0
BLOCK
  5
36
330
35
100
AcDbEntity
  8
0
100
AcDbBlockBegin
  2
_OPEN90
 70
     0
 10
0.0
 20
0.0
 30
0.0
  3
_OPEN90
  1

  0
LINE
  5
37
330
35
100
AcDbEntity
  8
0
  6
BYBLOCK
 62
     0
370
    -2
100
AcDbLine
 10
-0.5
 20
0.5
 30
0.0
 11
0.0
 21
0.0
 31
0.0
  0
LINE
  5
38
330
35
100
AcDbEntity
  8
0
  6
BYBLOCK
 62
     0
370
    -2
100
AcDbLine
 10
0.0
 20
0.0
 30
0.0
 11
-0.5
 21
-0.5
 31
0.0
  0
LINE
  5
39
330
35
100
AcDbEntity
  8
0
  6
BYBLOCK
 62
     0
370
    -2
100
AcDbLine
 10
0.0
 20
0.0
 30
0.0
 11
-1.0
 21
0.0
 31
0.0
  0
ENDBLK
  5
3A
330
35
100
AcDbEntity
  8
0
100
AcDbBlockEnd
  0
BLOCK
  5
3C
330
3B
100
AcDbEntity
  8
0
100
AcDbBlockBegin
  2
_CLOSEDBLANK
 70
     0
 10
0.0
 20
0.0
 30
0.0
  3
_CLOSEDBLANK
  1

  0
LINE
  5
3D
330
3B
100
AcDbEntity
  8
0
  6
BYBLOCK
 62
     0
370
    -2
100
AcDbLine
 10
-1.0
 20
0.1666666666666666
 30
0.0
 11
0.0
 21
0.0
 31
0.0
  0
LINE
  5
3E
330
3B
100
AcDbEntity
  8
0
  6
BYBLOCK
 62
     0
370
    -2
100
AcDbLine
 10
0.0
 20
0.0
 30
0.0
 11
-1.0
 21
-0.1666666666666666
 31
0.0
  0
LINE
  5
3F
330
3B
100
AcDbEntity
  8
0
  6
BYBLOCK
 62
     0
370
    -2
100
AcDbLine
 10
-1.0
 20
0.1666666666666666
 30
0.0
 11
-1.0
 21
-0.1666666666666666
 31
0.0
  0
ENDBLK
  5
40
330
3B
100
AcDbEntity
  8
0
100
AcDbBlockEnd
  0
BLOCK
  5
42
330
41
100
AcDbEntity
  8
0
100
AcDbBlockBegin
  2
_DOTBLANK
 70
     0
 10
0.0
 20
0.0
 30
0.0
  3
_DOTBLANK
  1

  0
CIRCLE
  5
43
330
41
100
AcDbEntity
  8
0
  6
BYBLOCK
 62
     0
370
    -2
100
AcDbCircle
 10
0.0
 20
0.0
 30
0.0
 40
0.5
  0
LINE
  5
44
330
41
100
AcDbEntity
  8
0
  6
BYBLOCK
 62
     0
370
    -2
100
AcDbLine
 10
-0.5
 20
0.0
 30
0.0
 11
-1.0
 21
0.0
 31
0.0
  0
ENDBLK
  5
45
330
41
100
AcDbEntity
  8
0
100
AcDbBlockEnd
  0
ENDSEC
  0
SECTION
  2
ENTITIES
  0
LINE
  5
46
100
AcDbEntity
  8
1
  6
CONTINUOUS
 62
7
100
AcDbLine
 10
509.8253970000002
 20
219.1244830000001
 30
0.000000000000000
 11
510.9608780000002
 21
219.0248900000000
 31
0.000000000000000
  0
LINE
  5
47
100
AcDbEntity
  8
1
  6
CONTINUOUS
 62
7
100
AcDbLine
 10
509.8418500000000
 20
225.9272100000000
 30
0.000000000000000
 11
510.9618779999998
 21
226.0248900000000
 31
0.000000000000000
  0
LINE
  5
48
100
AcDbEntity
  8
4
  6
CENTER
 62
1
100
AcDbLine
 10
505.3608780000000
 20
222.5248899999999
 30
0.000000000000000
 11
519.9608780000000
 21
222.5248899999999
 31
0.000000000000000
  0
LINE
  5
49
100
AcDbEntity
  8
1
  6
CONTINUOUS
 62
7
100
AcDbLine
 10
509.8253670000000
 20
147.1244830000000
 30
0.000000000000000
 11
510.9608479999999
 21
147.0248900000000
 31
0.000000000000000
  0
LINE
  5
4A
100
AcDbEntity
  8
1
  6
CONTINUOUS
 62
7
100
AcDbLine
 10
509.8418199999999
 20
153.9272099999998
 30
0.000000000000000
 11
510.9618479999997
 21
154.0248899999999
 31
0.000000000000000
  0
LINE
  5
4B
100
AcDbEntity
  8
4
  6
CENTER
 62
1
100
AcDbLine
 10
505.3608480000000
 20
150.5248899999999
 30
0.000000000000000
 11
519.9608480000001
 21
150.5248899999999
 31
0.000000000000000
  0
LINE
  5
4C
100
AcDbEntity
  8
4
  6
CENTER
 62
1
100
AcDbLine
 10
257.3188040000000
 20
58.64536000000000
 30
0.000000000000000
 11
244.1188040000000
 21
58.64536000000000
 31
0.000000000000000
  0
LINE
  5
4D
100
AcDbEntity
  8
4
  6
CENTER
 62
1
100
AcDbLine
 10
257.3188040000000
 20
315.1805790000000
 30
0.000000000000000
 11
244.1188040000000
 21
315.1805790000000
 31
0.000000000000000
  0
LINE
  5
4E
100
AcDbEntity
  8
4
  6
CENTER
 62
1
100
AcDbLine
 10
257.3188040000000
 20
205.5248900000000
 30
0.000000000000000
 11
244.1188040000000
 21
205.5248900000000
 31
0.000000000000000
  0
LINE
  5
4F
100
AcDbEntity
  8
1
  6
CONTINUOUS
 62
7
100
AcDbLine
 10
162.6797770000000
 20
144.5248899999999
 30
0.000000000000000
 11
162.6797770000000
 21
228.5248900000000
 31
0.000000000000000
  0
LINE
  5
50
100
AcDbEntity
  8
1
  6
CONTINUOUS
 62
7
100
AcDbLine
 10
183.1797770000000
 20
163.1220599999998
 30
0.000000000000000
 11
183.1797770000000
 21
183.0248899999999
 31
0.000000000000000
  0
LINE
  5
51
100
AcDbEntity
  8
1
  6
CONTINUOUS
 62
7
100
AcDbLine
 10
160.1797770000000
 20
144.5248899999999
 30
0.000000000000000
 11
160.1797770000000
 21
228.5248900000000
 31
0.000000000000000
  0
LINE
  5
52
100
AcDbEntity
  8
1
  6
CONTINUOUS
 62
7
100
AcDbLine
 10
161.6797769999998
 20
144.5248899999999
 30
0.000000000000000
 11
161.6797769999998
 21
228.5248900000000
 31
0.000000000000000
  0
LINE
  5
53
100
AcDbEntity
  8
1
  6
CONTINUOUS
 62
7
100
AcDbLine
 10
158.6797769999998
 20
225.5248900000000
 30
0.000000000000000
 11
158.6797769999998
 21
147.5248899999999
 31
0.000000000000000
  0
ARC
  5
54
100
AcDbEntity
  8
5
  6
PHANTOM
 62
6
100
AcDbCircle
 10
155.6087090000000
 20
175.1192990000000
 30
0.000000000000000
 40
2.000000000000000
100
AcDbArc
 50
315.0000000000000
 51
404.9999999999999
  0
ARC
  5
55
100
AcDbEntity
  8
5
  6
PHANTOM
 62
6
100
AcDbCircle
 10
128.3850979999999
 20
175.4728520000000
 30
0.000000000000000
 40
1.500000000000000
100
AcDbArc
 50
135.0000000000000
 51
230.5232859999999
  0
CIRCLE
  5
56
100
AcDbEntity
  8
1
  6
CONTINUOUS
 62
7
100
AcDbCircle
 10
39.00000000000000
 20
169.0248900000000
 30
0.000000000000000
 40
7.650000000000000
  0
CIRCLE
  5
57
100
AcDbEntity
  8
1
  6
CONTINUOUS
 62
7
100
AcDbCircle
 10
39.00000000000000
 20
169.0248900000000
 30
0.000000000000000
 40
7.799999999999998
  0
LINE
  5
58
100
AcDbEntity
  8
1
  6
CONTINUOUS
 62
7
100
AcDbLine
 10
48.50000000000000
 20
205.4248900000000
 30
0.000000000000000
 11
48.50000000000000
 21
160.5248900000000
 31
0.000000000000000
  0
LINE
  5
59
100
AcDbEntity
  8
1
  6
CONTINUOUS
 62
7
100
AcDbLine
 10
29.50000000000000
 20
205.4248900000000
 30
0.000000000000000
 11
29.50000000000000
 21
160.5248900000000
 31
0.000000000000000
  0
LINE
  5
5A
100
AcDbEntity
  8
4
  6
CENTER
 62
1
100
AcDbLine
 10
39.00000000000000
 20
231.5248899999999
 30
0.000000000000000
 11
39.00000000000000
 21
141.5248899999999
 31
0.000000000000000
  0
LINE
  5
5B
100
AcDbEntity
  8
1
  6
CONTINUOUS
 62
7
100
AcDbLine
 10
48.75000000000000
 20
160.0248899999999
 30
0.000000000000000
 11
48.75000000000000
 21
205.5248900000000
 31
0.000000000000000
  0
LINE
  5
5C
100
AcDbEntity
  8
1
  6
CONTINUOUS
 62
7
100
AcDbLine
 10
29.25000000000000
 20
160.0248899999999
 30
0.000000000000000
 11
29.25000000000000
 21
205.5248900000000
 31
0.000000000000000
  0
LINE
  5
5D
100
AcDbEntity
  8
1
  6
CONTINUOUS
 62
7
100
AcDbLine
 10
28.00000000000000
 20
223.5248900000000
 30
0.000000000000000
 11
28.00000000000000
 21
149.5248899999999
 31
0.000000000000000
  0
LINE
  5
5E
100
AcDbEntity
  8
1
  6
CONTINUOUS
 62
7
100
AcDbLine
 10
50.00000000000000
 20
149.5248899999999
 30
0.000000000000000
 11
50.00000000000000
 21
223.5248900000000
 31
0.000000000000000
  0
LINE
  5
5F
100
AcDbEntity
  8
1
  6
CONTINUOUS
 62
7
100
AcDbLine
 10
53.00000000000000
 20
223.5248900000000
 30
0.000000000000000
 11
53.00000000000000
 21
149.5248899999999
 31
0.000000000000000
  0
LINE
  5
60
100
AcDbEntity
  8
1
  6
CONTINUOUS
 62
7
100
AcDbLine
 10
25.00000000000000
 20
223.5248900000000
 30
0.000000000000000
 11
25.00000000000000
 21
149.5248899999999
 31
0.000000000000000
  0
LINE
  5
61
100
AcDbEntity
  8
1
  6
CONTINUOUS
 62
7
100
AcDbLine
 10
158.1797770000000
 20
199.0945289999999
 30
0.000000000000000
 11
158.1797770000000
 21
160.0248899999999
 31
0.000000000000000
  0
LINE
  5
62
100
AcDbEntity
  8
5
  6
PHANTOM
 62
6
100
AcDbLine
 10
127.4314509999999
 20
174.3150269999999
 30
0.000000000000000
 11
133.1167250000000
 21
169.6323290000000
 31
0.000000000000000
  0
MTEXT
  5
63
100
AcDbEntity
  8
7
  6
CONTINUOUS
 62
3
100
AcDbMText
 10
10.00000000000000
 20
18.00000000000000
 30
0.000000000000000
 40
3.000000000000000
 41
0.000000000000000
 44
0.6739999771118164
 71
     7
 72
     1
  1
{\H0.94x;{TYPE No.THA-405D-3K(No.200)}}
 11
1.000000000000000
 21
0.000000000000000
 31
0.000000000000000
  7
STANDARD
  0
LINE
  5
64
100
AcDbEntity
  8
1
  6
CONTINUOUS
 62
7
100
AcDbLine
 10
31.50000000000000
 20
158.5248900000000
 30
0.000000000000000
 11
46.50000000000000
 21
158.5248900000000
 31
0.000000000000000
  0
LINE
  5
65
100
AcDbEntity
  8
1
  6
CONTINUOUS
 62
7
100
AcDbLine
 10
46.74999999999999
 20
158.0248899999999
 30
0.000000000000000
 11
31.25000000000000
 21
158.0248899999999
 31
0.000000000000000
  0
LINE
  5
66
100
AcDbEntity
  8
1
  6
CONTINUOUS
 62
7
100
AcDbLine
 10
30.00000000000000
 20
147.5248899999999
 30
0.000000000000000
 11
48.00000000000000
 21
147.5248899999999
 31
0.000000000000000
  0
LINE
  5
67
100
AcDbEntity
  8
1
  6
CONTINUOUS
 62
7
100
AcDbLine
 10
48.00000000000000
 20
144.5248899999999
 30
0.000000000000000
 11
30.00000000000000
 21
144.5248899999999
 31
0.000000000000000
  0
ARC
  5
68
100
AcDbEntity
  8
1
  6
CONTINUOUS
 62
7
100
AcDbCircle
 10
30.00000000000000
 20
149.5248899999999
 30
0.000000000000000
 40
2.000000000000000
100
AcDbArc
 50
180.0000000000000
 51
270.0000000000000
  0
ARC
  5
69
100
AcDbEntity
  8
1
  6
CONTINUOUS
 62
7
100
AcDbCircle
 10
30.00000000000000
 20
149.5248899999999
 30
0.000000000000000
 40
5.000000000000000
100
AcDbArc
 50
180.0000000000000
 51
270.0000000000000
  0
LINE
  5
6A
100
AcDbEntity
  8
1
  6
CONTINUOUS
 62
7
100
AcDbLine
 10
31.73621999999999
 20
166.6248900000000
 30
0.000000000000000
 11
31.57840999999999
 21
166.6248900000000
 31
0.000000000000000
  0
LINE
  5
6B
100
AcDbEntity
  8
1
  6
CONTINUOUS
 62
7
100
AcDbLine
 10
31.73621999999999
 20
171.4248900000000
 30
0.000000000000000
 11
31.57840999999999
 21
171.4248900000000
 31
0.000000000000000
  0
ARC
  5
6C
100
AcDbEntity
  8
1
  6
CONTINUOUS
 62
7
100
AcDbCircle
 10
31.50000000000000
 20
160.5248900000000
 30
0.000000000000000
 40
2.000000000000000
100
AcDbArc
 50
180.0000000000000
 51
270.0000000000000
  0
ARC
  5
6D
100
AcDbEntity
  8
1
  6
CONTINUOUS
 62
7
100
AcDbCircle
 10
31.25000000000000
 20
160.0248899999999
 30
0.000000000000000
 40
2.000000000000000
100
AcDbArc
 50
180.0000000000000
 51
270.0000000000000
  0
ARC
  5
6E
100
AcDbEntity
  8
1
  6
CONTINUOUS
 62
7
100
AcDbCircle
 10
48.00000000000000
 20
149.5248899999999
 30
0.000000000000000
 40
2.000000000000000
100
AcDbArc
 50
270.0000000000000
 51
360.0000000000000
  0
ARC
  5
6F
100
AcDbEntity
  8
1
  6
CONTINUOUS
 62
7
100
AcDbCircle
 10
48.00000000000000
 20
149.5248899999999
 30
0.000000000000000
 40
5.000000000000000
100
AcDbArc
 50
270.0000000000000
 51
360.0000000000000
  0
ARC
  5
70
100
AcDbEntity
  8
1
  6
CONTINUOUS
 62
7
100
AcDbCircle
 10
46.50000000000000
 20
160.5248900000000
 30
0.000000000000000
 40
2.000000000000000
100
AcDbArc
 50
270.0000000000000
 51
360.0000000000000
  0
ARC
  5
71
100
AcDbEntity
  8
1
  6
CONTINUOUS
 62
7
100
AcDbCircle
 10
46.74999999999999
 20
160.0248899999999
 30
0.000000000000000
 40
2.000000000000000
100
AcDbArc
 50
270.0000000000000
 51
360.0000000000000
  0
CIRCLE
  5
72
100
AcDbEntity
  8
1
  6
CONTINUOUS
 62
7
100
AcDbCircle
 10
39.00000000000000
 20
163.8748899999999
 30
0.000000000000000
 40
0.7500000000000000
  0
LINE
  5
73
100
AcDbEntity
  8
1
  6
CONTINUOUS
 62
7
100
AcDbLine
 10
38.00000000000000
 20
165.3748900000000
 30
0.000000000000000
 11
40.00000000000000
 21
165.3748900000000
 31
0.000000000000000
  0
LINE
  5
74
100
AcDbEntity
  8
1
  6
CONTINUOUS
 62
7
100
AcDbLine
 10
38.00000000000000
 20
172.3748899999999
 30
0.000000000000000
 11
40.00000000000000
 21
172.3748899999999
 31
0.000000000000000
  0
LINE
  5
75
100
AcDbEntity
  8
1
  6
CONTINUOUS
 62
7
100
AcDbLine
 10
40.00000000000000
 20
165.3748900000000
 30
0.000000000000000
 11
40.00000000000000
 21
172.3748899999999
 31
0.000000000000000
  0
LINE
  5
76
100
AcDbEntity
  8
1
  6
CONTINUOUS
 62
7
100
AcDbLine
 10
38.00000000000000
 20
165.3748900000000
 30
0.000000000000000
 11
38.00000000000000
 21
172.3748899999999
 31
0.000000000000000
  0
LINE
  5
77
100
AcDbEntity
  8
1
  6
CONTINUOUS
 62
7
100
AcDbLine
 10
41.39999999999999
 20
161.7611099999998
 30
0.000000000000000
 11
41.39999999999999
 21
161.6032999999999
 31
0.000000000000000
  0
LINE
  5
78
100
AcDbEntity
  8
1
  6
CONTINUOUS
 62
7
100
AcDbLine
 10
36.60000000000000
 20
161.7611099999998
 30
0.000000000000000
 11
36.60000000000000
 21
161.6032999999999
 31
0.000000000000000
  0
LINE
  5
79
100
AcDbEntity
  8
1
  6
CONTINUOUS
 62
7
100
AcDbLine
 10
46.42159099999999
 20
166.6248900000000
 30
0.000000000000000
 11
46.26377999999998
 21
166.6248900000000
 31
0.000000000000000
  0
LINE
  5
7A
100
AcDbEntity
  8
1
  6
CONTINUOUS
 62
7
100
AcDbLine
 10
46.42159099999999
 20
171.4248900000000
 30
0.000000000000000
 11
46.26377999999998
 21
171.4248900000000
 31
0.000000000000000
  0
LINE
  5
7B
100
AcDbEntity
  8
4
  6
CENTER
 62
1
100
AcDbLine
 10
194.3797769999999
 20
58.64536000000000
 30
0.000000000000000
 11
149.9823639999999
 21
58.64536000000000
 31
0.000000000000000
  0
LINE
  5
7C
100
AcDbEntity
  8
1
  6
CONTINUOUS
 62
7
100
AcDbLine
 10
158.6797769999998
 20
69.64536000000001
 30
0.000000000000000
 11
160.1797770000000
 21
72.64535999999998
 31
0.000000000000000
  0
LINE
  5
7D
100
AcDbEntity
  8
1
  6
CONTINUOUS
 62
7
100
AcDbLine
 10
158.6797769999998
 20
47.64535999999998
 30
0.000000000000000
 11
160.1797770000000
 21
44.64535999999999
 31
0.000000000000000
  0
ARC
  5
7E
100
AcDbEntity
  8
1
  6
CONTINUOUS
 62
7
100
AcDbCircle
 10
164.9374220000000
 20
58.64536000000000
 30
0.000000000000000
 40
11.95505800000000
100
AcDbArc
 50
127.3784749999999
 51
232.6215250000000
  0
LINE
  5
7F
100
AcDbEntity
  8
1
  6
CONTINUOUS
 62
7
100
AcDbLine
 10
158.1797770000000
 20
49.14536000000000
 30
0.000000000000000
 11
158.1797770000000
 21
68.14536000000000
 31
0.000000000000000
  0
LINE
  5
80
100
AcDbEntity
  8
1
  6
CONTINUOUS
 62
7
100
AcDbLine
 10
158.6797769999998
 20
47.64535999999998
 30
0.000000000000000
 11
158.6797769999998
 21
69.64536000000000
 31
0.000000000000000
  0
LINE
  5
81
100
AcDbEntity
  8
1
  6
CONTINUOUS
 62
7
100
AcDbLine
 10
158.6797769999998
 20
49.14536000000000
 30
0.000000000000000
 11
157.6797769999998
 21
49.14536000000000
 31
0.000000000000000
  0
LINE
  5
82
100
AcDbEntity
  8
1
  6
CONTINUOUS
 62
7
100
AcDbLine
 10
158.6797769999998
 20
68.14536000000000
 30
0.000000000000000
 11
157.6797769999998
 21
68.14536000000000
 31
0.000000000000000
  0
LINE
  5
83
100
AcDbEntity
  8
1
  6
CONTINUOUS
 62
7
100
AcDbLine
 10
183.1797770000000
 20
70.14536000000000
 30
0.000000000000000
 11
183.1797770000000
 21
47.14535999999998
 31
0.000000000000000
  0
LINE
  5
84
100
AcDbEntity
  8
1
  6
CONTINUOUS
 62
7
100
AcDbLine
 10
186.3797769999999
 20
68.38885999999999
 30
0.000000000000000
 11
186.3797769999999
 21
47.39536000000000
 31
0.000000000000000
  0
LINE
  5
85
100
AcDbEntity
  8
1
  6
CONTINUOUS
 62
7
100
AcDbLine
 10
186.2797770000000
 20
67.30561400000001
 30
0.000000000000000
 11
186.2797770000000
 21
48.89535999999999
 31
0.000000000000000
  0
LINE
  5
86
100
AcDbEntity
  8
1
  6
CONTINUOUS
 62
7
100
AcDbLine
 10
185.8797769999999
 20
48.14536000000000
 30
0.000000000000000
 11
185.8797769999999
 21
69.14536000000000
 31
0.000000000000000
  0
LINE
  5
87
100
AcDbEntity
  8
1
  6
CONTINUOUS
 62
7
100
AcDbLine
 10
188.3797769999999
 20
68.38885999999999
 30
0.000000000000000
 11
188.3797769999999
 21
47.39536000000000
 31
0.000000000000000
  0
LINE
  5
88
100
AcDbEntity
  8
1
  6
CONTINUOUS
 62
7
100
AcDbLine
 10
162.6797770000000
 20
44.64535999999998
 30
0.000000000000000
 11
162.6797770000000
 21
72.64535999999998
 31
0.000000000000000
  0
LINE
  5
89
100
AcDbEntity
  8
1
  6
CONTINUOUS
 62
7
100
AcDbLine
 10
161.6797769999998
 20
44.64535999999998
 30
0.000000000000000
 11
161.6797769999998
 21
72.64535999999998
 31
0.000000000000000
  0
LINE
  5
8A
100
AcDbEntity
  8
1
  6
CONTINUOUS
 62
7
100
AcDbLine
 10
160.1797770000000
 20
44.64535999999998
 30
0.000000000000000
 11
160.1797770000000
 21
72.64535999999998
 31
0.000000000000000
  0
LINE
  5
8B
100
AcDbEntity
  8
1
  6
CONTINUOUS
 62
7
100
AcDbLine
 10
184.8797770000000
 20
47.14535999999998
 30
0.000000000000000
 11
162.6797770000000
 21
47.14535999999998
 31
0.000000000000000
  0
LINE
  5
8C
100
AcDbEntity
  8
1
  6
CONTINUOUS
 62
7
100
AcDbLine
 10
166.1797769999998
 20
62.14536000000000
 30
0.000000000000000
 11
166.6797770000000
 21
61.64536000000001
 31
0.000000000000000
  0
LINE
  5
8D
100
AcDbEntity
  8
1
  6
CONTINUOUS
 62
7
100
AcDbLine
 10
162.6797770000000
 20
62.14535999999998
 30
0.000000000000000
 11
166.1797769999998
 21
62.14535999999998
 31
0.000000000000000
  0
LINE
  5
8E
100
AcDbEntity
  8
1
  6
CONTINUOUS
 62
7
100
AcDbLine
 10
166.1797769999998
 20
55.14536000000001
 30
0.000000000000000
 11
166.6797770000000
 21
55.64536000000000
 31
0.000000000000000
  0
LINE
  5
8F
100
AcDbEntity
  8
1
  6
CONTINUOUS
 62
7
100
AcDbLine
 10
162.6797770000000
 20
44.64535999999998
 30
0.000000000000000
 11
160.1797770000000
 21
44.64535999999998
 31
0.000000000000000
  0
LINE
  5
90
100
AcDbEntity
  8
1
  6
CONTINUOUS
 62
7
100
AcDbLine
 10
162.6797770000000
 20
55.14535999999999
 30
0.000000000000000
 11
166.1797769999998
 21
55.14535999999999
 31
0.000000000000000
  0
LINE
  5
91
100
AcDbEntity
  8
1
  6
CONTINUOUS
 62
7
100
AcDbLine
 10
166.1797769999998
 20
62.14535999999998
 30
0.000000000000000
 11
166.1797769999998
 21
55.14535999999999
 31
0.000000000000000
  0
LINE
  5
92
100
AcDbEntity
  8
1
  6
CONTINUOUS
 62
7
100
AcDbLine
 10
166.6797770000000
 20
61.64536000000000
 30
0.000000000000000
 11
166.6797770000000
 21
55.64536000000000
 31
0.000000000000000
  0
LINE
  5
93
100
AcDbEntity
  8
1
  6
CONTINUOUS
 62
7
100
AcDbLine
 10
191.3797770000000
 20
63.64536000000000
 30
0.000000000000000
 11
188.3797769999999
 21
63.64536000000000
 31
0.000000000000000
  0
LINE
  5
94
100
AcDbEntity
  8
1
  6
CONTINUOUS
 62
7
100
AcDbLine
 10
191.3797770000000
 20
59.30221400000000
 30
0.000000000000000
 11
188.3797769999999
 21
59.30221400000000
 31
0.000000000000000
  0
LINE
  5
95
100
AcDbEntity
  8
1
  6
CONTINUOUS
 62
7
100
AcDbLine
 10
191.3797770000000
 20
57.98850600000001
 30
0.000000000000000
 11
188.3797769999999
 21
57.98850600000001
 31
0.000000000000000
  0
LINE
  5
96
100
AcDbEntity
  8
1
  6
CONTINUOUS
 62
7
100
AcDbLine
 10
186.2797770000000
 20
64.54536000000000
 30
0.000000000000000
 11
186.3797769999999
 21
64.54536000000000
 31
0.000000000000000
  0
LINE
  5
97
100
AcDbEntity
  8
1
  6
CONTINUOUS
 62
7
100
AcDbLine
 10
191.3797770000000
 20
53.64536000000000
 30
0.000000000000000
 11
188.3797769999999
 21
53.64536000000000
 31
0.000000000000000
  0
LINE
  5
98
100
AcDbEntity
  8
1
  6
CONTINUOUS
 62
7
100
AcDbLine
 10
188.3797769999999
 20
47.39536000000000
 30
0.000000000000000
 11
186.3797769999999
 21
47.39536000000000
 31
0.000000000000000
  0
ARC
  5
99
100
AcDbEntity
  8
1
  6
CONTINUOUS
 62
7
100
AcDbCircle
 10
186.0235270000000
 20
48.89535999999999
 30
0.000000000000000
 40
0.2562500000000000
100
AcDbArc
 50
282.6803829999999
 51
360.0000000000000
  0
LINE
  5
9A
100
AcDbEntity
  8
1
  6
CONTINUOUS
 62
7
100
AcDbLine
 10
186.2797770000000
 20
52.74536000000000
 30
0.000000000000000
 11
186.3797769999999
 21
52.74536000000000
 31
0.000000000000000
  0
LINE
  5
9B
100
AcDbEntity
  8
1
  6
CONTINUOUS
 62
7
100
AcDbLine
 10
186.0797769999998
 20
48.64536000000000
 30
0.000000000000000
 11
185.8797769999999
 21
48.64536000000000
 31
0.000000000000000
  0
ARC
  5
9C
100
AcDbEntity
  8
1
  6
CONTINUOUS
 62
7
100
AcDbCircle
 10
184.8797770000000
 20
48.14536000000000
 30
0.000000000000000
 40
1.000000000000000
100
AcDbArc
 50
270.0000000000000
 51
360.0000000000000
  0
LINE
  5
9D
100
AcDbEntity
  8
1
  6
CONTINUOUS
 62
7
100
AcDbLine
 10
191.3797770000000
 20
63.64536000000000
 30
0.000000000000000
 11
191.3797770000000
 21
53.64536000000000
 31
0.000000000000000
  0
LINE
  5
9E
100
AcDbEntity
  8
1
  6
CONTINUOUS
 62
7
100
AcDbLine
 10
184.8797770000000
 20
70.14536000000000
 30
0.000000000000000
 11
162.6797770000000
 21
70.14536000000000
 31
0.000000000000000
  0
LINE
  5
9F
100
AcDbEntity
  8
1
  6
CONTINUOUS
 62
7
100
AcDbLine
 10
162.6797770000000
 20
72.64535999999998
 30
0.000000000000000
 11
160.1797770000000
 21
72.64535999999998
 31
0.000000000000000
  0
LINE
  5
A0
100
AcDbEntity
  8
1
  6
CONTINUOUS
 62
7
100
AcDbLine
 10
186.2797770000000
 20
67.30561400000001
 30
0.000000000000000
 11
185.8797769999999
 21
67.30561400000001
 31
0.000000000000000
  0
ARC
  5
A1
100
AcDbEntity
  8
1
  6
CONTINUOUS
 62
7
100
AcDbCircle
 10
184.8797770000000
 20
69.14536000000000
 30
0.000000000000000
 40
1.000000000000000
100
AcDbArc
 50
0.000000000000000
 51
90.00000000000000
  0
LINE
  5
A2
100
AcDbEntity
  8
1
  6
CONTINUOUS
 62
7
100
AcDbLine
 10
188.3797769999999
 20
68.38885999999999
 30
0.000000000000000
 11
186.3797769999999
 21
68.38885999999999
 31
0.000000000000000
  0
LINE
  5
A3
100
AcDbEntity
  8
1
  6
CONTINUOUS
 62
7
100
AcDbLine
 10
223.9649039999999
 20
65.64536000000000
 30
0.000000000000000
 11
219.4649039999999
 21
65.64536000000000
 31
0.000000000000000
  0
LINE
  5
A4
100
AcDbEntity
  8
4
  6
CENTER
 62
1
100
AcDbLine
 10
231.0649040000000
 20
58.64536000000000
 30
0.000000000000000
 11
216.4649040000000
 21
58.64536000000000
 31
0.000000000000000
  0
LINE
  5
A5
100
AcDbEntity
  8
1
  6
CONTINUOUS
 62
7
100
AcDbLine
 10
223.9649039999999
 20
51.64536000000000
 30
0.000000000000000
 11
219.4649039999999
 21
51.64536000000000
 31
0.000000000000000
  0
LINE
  5
A6
100
AcDbEntity
  8
1
  6
CONTINUOUS
 62
7
100
AcDbLine
 10
219.4649039999999
 20
65.64536000000000
 30
0.000000000000000
 11
219.4649039999999
 21
51.64536000000000
 31
0.000000000000000
  0
LINE
  5
A7
100
AcDbEntity
  8
1
  6
CONTINUOUS
 62
7
100
AcDbLine
 10
247.1188040000000
 20
67.64536000000000
 30
0.000000000000000
 11
247.1188040000000
 21
49.64535999999998
 31
0.000000000000000
  0
LINE
  5
A8
100
AcDbEntity
  8
1
  6
CONTINUOUS
 62
7
100
AcDbLine
 10
248.7188039999999
 20
67.64536000000000
 30
0.000000000000000
 11
248.7188039999999
 21
49.64535999999998
 31
0.000000000000000
  0
ARC
  5
A9
100
AcDbEntity
  8
1
  6
CONTINUOUS
 62
7
100
AcDbCircle
 10
223.9649039999999
 20
65.14536000000000
 30
0.000000000000000
 40
0.5000000000000000
100
AcDbArc
 50
0.000000000000000
 51
90.00000000000000
  0
LINE
  5
AA
100
AcDbEntity
  8
1
  6
CONTINUOUS
 62
7
100
AcDbLine
 10
225.4649039999999
 20
62.44536000000000
 30
0.000000000000000
 11
224.4649040000000
 21
62.44536000000000
 31
0.000000000000000
  0
LINE
  5
AB
100
AcDbEntity
  8
1
  6
CONTINUOUS
 62
7
100
AcDbLine
 10
225.4649039999999
 20
58.64536000000000
 30
0.000000000000000
 11
224.4649039999999
 21
57.64536000000000
 31
0.000000000000000
  0
LINE
  5
AC
100
AcDbEntity
  8
1
  6
CONTINUOUS
 62
7
100
AcDbLine
 10
225.4649039999999
 20
59.64535999999997
 30
0.000000000000000
 11
224.4649040000000
 21
58.64536000000003
 31
0.000000000000000
  0
LINE
  5
AD
100
AcDbEntity
  8
1
  6
CONTINUOUS
 62
7
100
AcDbLine
 10
226.5839319999999
 20
62.04768000000000
 30
0.000000000000000
 11
225.4639040000000
 21
62.14535999999998
 31
0.000000000000000
  0
ARC
  5
AE
100
AcDbEntity
  8
1
  6
CONTINUOUS
 62
7
100
AcDbCircle
 10
226.4713020000000
 20
60.75264699999999
 30
0.000000000000000
 40
1.300000000000000
100
AcDbArc
 50
15.89737000000000
 51
85.01636999999998
  0
ARC
  5
AF
100
AcDbEntity
  8
1
  6
CONTINUOUS
 62
7
100
AcDbCircle
 10
223.9649039999999
 20
52.14535999999998
 30
0.000000000000000
 40
0.5000000000000000
100
AcDbArc
 50
270.0000000000000
 51
360.0000000000000
  0
LINE
  5
B0
100
AcDbEntity
  8
1
  6
CONTINUOUS
 62
7
100
AcDbLine
 10
225.4649039999999
 20
54.84536000000000
 30
0.000000000000000
 11
224.4649040000000
 21
54.84536000000000
 31
0.000000000000000
  0
LINE
  5
B1
100
AcDbEntity
  8
1
  6
CONTINUOUS
 62
7
100
AcDbLine
 10
226.6003860000000
 20
55.24495200000000
 30
0.000000000000000
 11
225.4649039999999
 21
55.14536000000000
 31
0.000000000000000
  0
ARC
  5
B2
100
AcDbEntity
  8
1
  6
CONTINUOUS
 62
7
100
AcDbCircle
 10
226.4725059999999
 20
56.53864800000000
 30
0.000000000000000
 40
1.300000000000000
100
AcDbArc
 50
275.0163699999998
 51
344.1353700000000
  0
LINE
  5
B3
100
AcDbEntity
  8
1
  6
CONTINUOUS
 62
7
100
AcDbLine
 10
224.4649040000000
 20
65.14536000000000
 30
0.000000000000000
 11
224.4649040000000
 21
52.14535999999998
 31
0.000000000000000
  0
LINE
  5
B4
100
AcDbEntity
  8
1
  6
CONTINUOUS
 62
7
100
AcDbLine
 10
225.4649039999999
 20
62.44536000000000
 30
0.000000000000000
 11
225.4649039999999
 21
54.84536000000000
 31
0.000000000000000
  0
ARC
  5
B5
100
AcDbEntity
  8
1
  6
CONTINUOUS
 62
7
100
AcDbCircle
 10
219.0649049999999
 20
58.64353100000000
 30
0.000000000000000
 40
9.000000000000000
100
AcDbArc
 50
344.1353700000000
 51
375.8973700000000
  0
ARC
  5
B6
100
AcDbEntity
  8
1
  6
CONTINUOUS
 62
7
100
AcDbCircle
 10
248.5438279999999
 20
60.64536000000000
 30
0.000000000000000
 40
5.774976999999998
100
AcDbArc
 50
339.7375000000001
 51
380.2625000000000
  0
LINE
  5
B7
100
AcDbEntity
  8
1
  6
CONTINUOUS
 62
7
100
AcDbLine
 10
254.3188039999999
 20
62.64535999999999
 30
0.000000000000000
 11
254.3188039999999
 21
54.64535999999998
 31
0.000000000000000
  0
ARC
  5
B8
100
AcDbEntity
  8
1
  6
CONTINUOUS
 62
7
100
AcDbCircle
 10
248.5438279999999
 20
56.64536000000000
 30
0.000000000000000
 40
5.774976999999998
100
AcDbArc
 50
339.7375000000001
 51
380.2625000000000
  0
ARC
  5
B9
100
AcDbEntity
  8
1
  6
CONTINUOUS
 62
7
100
AcDbCircle
 10
256.5937809999999
 20
60.64536000000000
 30
0.000000000000000
 40
5.774976999999998
100
AcDbArc
 50
159.7375000000000
 51
200.2625000000000
  0
ARC
  5
BA
100
AcDbEntity
  8
1
  6
CONTINUOUS
 62
7
100
AcDbCircle
 10
256.5937809999999
 20
56.64536000000000
 30
0.000000000000000
 40
5.774976999999998
100
AcDbArc
 50
159.7375000000000
 51
200.2625000000000
  0
LINE
  5
BB
100
AcDbEntity
  8
1
  6
CONTINUOUS
 62
7
100
AcDbLine
 10
251.1761839999998
 20
58.64536000000000
 30
0.000000000000000
 11
253.9614250000000
 21
58.64536000000000
 31
0.000000000000000
  0
LINE
  5
BC
100
AcDbEntity
  8
1
  6
CONTINUOUS
 62
7
100
AcDbLine
 10
254.3188039999999
 20
54.64535999999998
 30
0.000000000000000
 11
250.8188039999998
 21
54.64535999999998
 31
0.000000000000000
  0
LINE
  5
BD
100
AcDbEntity
  8
1
  6
CONTINUOUS
 62
7
100
AcDbLine
 10
254.3188039999999
 20
62.64535999999999
 30
0.000000000000000
 11
250.8188039999998
 21
62.64535999999999
 31
0.000000000000000
  0
LINE
  5
BE
100
AcDbEntity
  8
1
  6
CONTINUOUS
 62
7
100
AcDbLine
 10
249.5188039999999
 20
64.64536000000000
 30
0.000000000000000
 11
248.7188039999999
 21
64.64536000000000
 31
0.000000000000000
  0
LINE
  5
BF
100
AcDbEntity
  8
1
  6
CONTINUOUS
 62
7
100
AcDbLine
 10
250.8188039999998
 20
63.24536000000000
 30
0.000000000000000
 11
249.5188039999999
 21
63.24536000000000
 31
0.000000000000000
  0
LINE
  5
C0
100
AcDbEntity
  8
1
  6
CONTINUOUS
 62
7
100
AcDbLine
 10
250.8188039999998
 20
58.64536000000003
 30
0.000000000000000
 11
249.5188039999999
 21
57.34536000000001
 31
0.000000000000000
  0
LINE
  5
C1
100
AcDbEntity
  8
1
  6
CONTINUOUS
 62
7
100
AcDbLine
 10
250.8188039999998
 20
59.94535999999997
 30
0.000000000000000
 11
249.5188040000000
 21
58.64535999999998
 31
0.000000000000000
  0
LINE
  5
C2
100
AcDbEntity
  8
1
  6
CONTINUOUS
 62
7
100
AcDbLine
 10
249.5188039999999
 20
52.64535999999999
 30
0.000000000000000
 11
248.7188039999999
 21
52.64535999999999
 31
0.000000000000000
  0
LINE
  5
C3
100
AcDbEntity
  8
1
  6
CONTINUOUS
 62
7
100
AcDbLine
 10
250.8188039999998
 20
54.04536000000000
 30
0.000000000000000
 11
249.5188039999999
 21
54.04536000000000
 31
0.000000000000000
  0
LINE
  5
C4
100
AcDbEntity
  8
1
  6
CONTINUOUS
 62
7
100
AcDbLine
 10
247.1188040000000
 20
49.64535999999998
 30
0.000000000000000
 11
248.7188039999999
 21
49.64535999999998
 31
0.000000000000000
  0
LINE
  5
C5
100
AcDbEntity
  8
1
  6
CONTINUOUS
 62
7
100
AcDbLine
 10
249.5188039999999
 20
64.64536000000000
 30
0.000000000000000
 11
249.5188039999999
 21
52.64535999999999
 31
0.000000000000000
  0
LINE
  5
C6
100
AcDbEntity
  8
1
  6
CONTINUOUS
 62
7
100
AcDbLine
 10
250.8188039999998
 20
63.26416200000000
 30
0.000000000000000
 11
250.8188039999998
 21
54.02655799999998
 31
0.000000000000000
  0
LINE
  5
C7
100
AcDbEntity
  8
1
  6
CONTINUOUS
 62
7
100
AcDbLine
 10
250.8188039999998
 20
63.24536000000000
 30
0.000000000000000
 11
250.8188039999998
 21
54.04536000000000
 31
0.000000000000000
  0
LINE
  5
C8
100
AcDbEntity
  8
1
  6
CONTINUOUS
 62
7
100
AcDbLine
 10
247.1188040000000
 20
67.64536000000000
 30
0.000000000000000
 11
248.7188039999999
 21
67.64536000000000
 31
0.000000000000000
  0
LINE
  5
C9
100
AcDbEntity
  8
1
  6
CONTINUOUS
 62
7
100
AcDbLine
 10
158.6797769999998
 20
147.5248899999999
 30
0.000000000000000
 11
160.1797770000000
 21
144.5248899999999
 31
0.000000000000000
  0
ARC
  5
CA
100
AcDbEntity
  8
5
  6
PHANTOM
 62
6
100
AcDbCircle
 10
162.6797770000000
 20
205.5248900000000
 30
0.000000000000000
 40
46.50000000000000
100
AcDbArc
 50
230.5232859999999
 51
246.7641319999999
  0
LINE
  5
CB
100
AcDbEntity
  8
5
  6
PHANTOM
 62
6
100
AcDbLine
 10
157.0229229999999
 20
173.7050849999999
 30
0.000000000000000
 11
146.5379739999999
 21
163.2201360000000
 31
0.000000000000000
  0
ARC
  5
CC
100
AcDbEntity
  8
5
  6
PHANTOM
 62
6
100
AcDbCircle
 10
145.1237599999998
 20
164.6343500000000
 30
0.000000000000000
 40
2.000000000000000
100
AcDbArc
 50
246.7641319999999
 51
315.0000000000000
  0
ARC
  5
CD
100
AcDbEntity
  8
1
  6
CONTINUOUS
 62
7
100
AcDbCircle
 10
159.6797770000000
 20
160.0248899999999
 30
0.000000000000000
 40
1.500000000000000
100
AcDbArc
 50
180.0000000000000
 51
228.1896849999998
  0
LINE
  5
CE
100
AcDbEntity
  8
1
  6
CONTINUOUS
 62
7
100
AcDbLine
 10
166.1797769999998
 20
154.0248899999999
 30
0.000000000000000
 11
166.6797770000000
 21
153.5248900000000
 31
0.000000000000000
  0
LINE
  5
CF
100
AcDbEntity
  8
1
  6
CONTINUOUS
 62
7
100
AcDbLine
 10
166.1797769999998
 20
154.0248899999999
 30
0.000000000000000
 11
166.1797769999998
 21
147.0248900000000
 31
0.000000000000000
  0
LINE
  5
D0
100
AcDbEntity
  8
1
  6
CONTINUOUS
 62
7
100
AcDbLine
 10
166.1797769999997
 20
147.0248899999999
 30
0.000000000000000
 11
166.6797770000000
 21
147.5248899999999
 31
0.000000000000000
  0
LINE
  5
D1
100
AcDbEntity
  8
1
  6
CONTINUOUS
 62
7
100
AcDbLine
 10
162.6797770000000
 20
147.0248900000000
 30
0.000000000000000
 11
166.1797769999998
 21
147.0248900000000
 31
0.000000000000000
  0
LINE
  5
D2
100
AcDbEntity
  8
4
  6
CENTER
 62
1
100
AcDbLine
 10
160.7931950000000
 20
150.5248899999999
 30
0.000000000000000
 11
169.6797770000000
 21
150.5248899999999
 31
0.000000000000000
  0
LINE
  5
D3
100
AcDbEntity
  8
1
  6
CONTINUOUS
 62
7
100
AcDbLine
 10
166.6797770000000
 20
153.5248900000000
 30
0.000000000000000
 11
166.6797770000000
 21
147.5248899999999
 31
0.000000000000000
  0
LINE
  5
D4
100
AcDbEntity
  8
1
  6
CONTINUOUS
 62
7
100
AcDbLine
 10
160.1797770000000
 20
144.5248899999999
 30
0.000000000000000
 11
162.6797770000000
 21
144.5248899999999
 31
0.000000000000000
  0
ARC
  5
D5
100
AcDbEntity
  8
1
  6
CONTINUOUS
 62
7
100
AcDbCircle
 10
162.6797770000000
 20
205.5248900000000
 30
0.000000000000000
 40
49.50000000000000
100
AcDbArc
 50
270.0000000000000
 51
291.2622540000000
  0
LINE
  5
D6
100
AcDbEntity
  8
1
  6
CONTINUOUS
 62
7
100
AcDbLine
 10
162.6797770000000
 20
154.0248899999999
 30
0.000000000000000
 11
166.1797769999998
 21
154.0248899999999
 31
0.000000000000000
  0
ARC
  5
D7
100
AcDbEntity
  8
1
  6
CONTINUOUS
 62
7
100
AcDbCircle
 10
179.1797770000000
 20
163.1220599999998
 30
0.000000000000000
 40
4.000000000000000
100
AcDbArc
 50
291.2622540000000
 51
360.0000000000000
  0
LINE
  5
D8
100
AcDbEntity
  8
1
  6
CONTINUOUS
 62
7
100
AcDbLine
 10
223.9649339999998
 20
154.5248899999999
 30
0.000000000000000
 11
219.4649339999998
 21
154.5248899999999
 31
0.000000000000000
  0
LINE
  5
D9
100
AcDbEntity
  8
1
  6
CONTINUOUS
 62
7
100
AcDbLine
 10
223.9649339999998
 20
145.5248899999999
 30
0.000000000000000
 11
219.4649339999998
 21
145.5248899999999
 31
0.000000000000000
  0
LINE
  5
DA
100
AcDbEntity
  8
4
  6
CENTER
 62
1
100
AcDbLine
 10
231.0649339999999
 20
150.5248899999999
 30
0.000000000000000
 11
216.4649339999999
 21
150.5248899999999
 31
0.000000000000000
  0
LINE
  5
DB
100
AcDbEntity
  8
1
  6
CONTINUOUS
 62
7
100
AcDbLine
 10
219.4649339999998
 20
145.5248899999999
 30
0.000000000000000
 11
219.4649339999998
 21
154.5248899999999
 31
0.000000000000000
  0
ARC
  5
DC
100
AcDbEntity
  8
1
  6
CONTINUOUS
 62
7
100
AcDbCircle
 10
226.4713319999999
 20
152.6321780000000
 30
0.000000000000000
 40
1.300000000000000
100
AcDbArc
 50
15.89737000000000
 51
85.01636999999998
  0
LINE
  5
DD
100
AcDbEntity
  8
1
  6
CONTINUOUS
 62
7
100
AcDbLine
 10
226.5839620000000
 20
153.9272099999998
 30
0.000000000000000
 11
225.4639340000000
 21
154.0248899999999
 31
0.000000000000000
  0
LINE
  5
DE
100
AcDbEntity
  8
1
  6
CONTINUOUS
 62
7
100
AcDbLine
 10
225.4649339999998
 20
154.3248899999998
 30
0.000000000000000
 11
225.4649339999998
 21
146.7248899999999
 31
0.000000000000000
  0
LINE
  5
DF
100
AcDbEntity
  8
1
  6
CONTINUOUS
 62
7
100
AcDbLine
 10
224.4649339999998
 20
146.0248900000000
 30
0.000000000000000
 11
224.4649339999998
 21
154.3248899999998
 31
0.000000000000000
  0
ARC
  5
E0
100
AcDbEntity
  8
1
  6
CONTINUOUS
 62
7
100
AcDbCircle
 10
226.4725359999999
 20
148.4181780000000
 30
0.000000000000000
 40
1.300000000000000
100
AcDbArc
 50
275.0163699999998
 51
344.1353700000000
  0
LINE
  5
E1
100
AcDbEntity
  8
1
  6
CONTINUOUS
 62
7
100
AcDbLine
 10
226.6004150000000
 20
147.1244830000000
 30
0.000000000000000
 11
225.4649339999998
 21
147.0248900000000
 31
0.000000000000000
  0
ARC
  5
E2
100
AcDbEntity
  8
1
  6
CONTINUOUS
 62
7
100
AcDbCircle
 10
219.0649339999999
 20
150.5230620000000
 30
0.000000000000000
 40
9.000000000000000
100
AcDbArc
 50
344.1353700000000
 51
375.8973700000000
  0
LINE
  5
E3
100
AcDbEntity
  8
1
  6
CONTINUOUS
 62
7
100
AcDbLine
 10
225.4649339999998
 20
146.7248899999999
 30
0.000000000000000
 11
224.4649339999998
 21
146.7248899999999
 31
0.000000000000000
  0
LINE
  5
E4
100
AcDbEntity
  8
1
  6
CONTINUOUS
 62
7
100
AcDbLine
 10
225.4649339999998
 20
151.5248900000000
 30
0.000000000000000
 11
224.4649339999998
 21
150.5248899999999
 31
0.000000000000000
  0
LINE
  5
E5
100
AcDbEntity
  8
1
  6
CONTINUOUS
 62
7
100
AcDbLine
 10
225.4649339999998
 20
150.5248899999999
 30
0.000000000000000
 11
224.4649339999998
 21
149.5248899999999
 31
0.000000000000000
  0
ARC
  5
E6
100
AcDbEntity
  8
1
  6
CONTINUOUS
 62
7
100
AcDbCircle
 10
223.9649339999998
 20
146.0248900000000
 30
0.000000000000000
 40
0.5000000000000000
100
AcDbArc
 50
270.0000000000000
 51
360.0000000000000
  0
LINE
  5
E7
100
AcDbEntity
  8
1
  6
CONTINUOUS
 62
7
100
AcDbLine
 10
225.4649339999998
 20
154.3248899999998
 30
0.000000000000000
 11
224.4649339999998
 21
154.3248899999998
 31
0.000000000000000
  0
ARC
  5
E8
100
AcDbEntity
  8
1
  6
CONTINUOUS
 62
7
100
AcDbCircle
 10
223.9649339999998
 20
154.0248899999999
 30
0.000000000000000
 40
0.5000000000000000
100
AcDbArc
 50
0.000000000000000
 51
90.00000000000000
  0
LINE
  5
E9
100
AcDbEntity
  8
5
  6
PHANTOM
 62
6
100
AcDbLine
 10
154.9508449999998
 20
204.1599189999998
 30
0.000000000000000
 11
127.3244379999999
 21
176.5335120000000
 31
0.000000000000000
  0
LINE
  5
EA
100
AcDbEntity
  8
5
  6
PHANTOM
 62
6
100
AcDbLine
 10
45.68456099999997
 20
215.0248900000000
 30
0.000000000000000
 11
79.89054100000000
 21
215.0248900000000
 31
0.000000000000000
  0
LINE
  5
EB
100
AcDbEntity
  8
5
  6
PHANTOM
 62
6
100
AcDbLine
 10
45.68456099999997
 20
196.0248900000000
 30
0.000000000000000
 11
79.89054100000000
 21
196.0248900000000
 31
0.000000000000000
  0
LINE
  5
EC
100
AcDbEntity
  8
4
  6
CENTER
 62
1
100
AcDbLine
 10
84.89054100000000
 20
205.5248900000000
 30
0.000000000000000
 11
26.29852400000000
 21
205.5248900000000
 31
0.000000000000000
  0
ARC
  5
ED
100
AcDbEntity
  8
1
  6
CONTINUOUS
 62
7
100
AcDbCircle
 10
39.00000000000000
 20
205.4248900000000
 30
0.000000000000000
 40
9.500000000000000
100
AcDbArc
 50
0.000000000000000
 51
180.0000000000000
  0
ARC
  5
EE
100
AcDbEntity
  8
1
  6
CONTINUOUS
 62
7
100
AcDbCircle
 10
39.00000000000000
 20
199.3482919999999
 30
0.000000000000000
 40
9.500000000000000
100
AcDbArc
 50
0.000000000000000
 51
180.0000000000000
  0
ARC
  5
EF
100
AcDbEntity
  8
1
  6
CONTINUOUS
 62
7
100
AcDbCircle
 10
39.00000000000000
 20
205.5248900000000
 30
0.000000000000000
 40
9.750000000000000
100
AcDbArc
 50
346.9971760000000
 51
553.0028240000001
  0
ARC
  5
F0
100
AcDbEntity
  8
1
  6
CONTINUOUS
 62
7
100
AcDbCircle
 10
30.25000000000000
 20
181.0248899999999
 30
0.000000000000000
 40
1.000000000000000
100
AcDbArc
 50
138.5903779999999
 51
180.0000000000000
  0
LINE
  5
F1
100
AcDbEntity
  8
1
  6
CONTINUOUS
 62
7
100
AcDbLine
 10
41.39999999999999
 20
176.4464800000000
 30
0.000000000000000
 11
41.39999999999999
 21
176.2886699999999
 31
0.000000000000000
  0
LINE
  5
F2
100
AcDbEntity
  8
1
  6
CONTINUOUS
 62
7
100
AcDbLine
 10
36.60000000000000
 20
176.4464800000000
 30
0.000000000000000
 11
36.60000000000000
 21
176.2886699999999
 31
0.000000000000000
  0
ARC
  5
F3
100
AcDbEntity
  8
1
  6
CONTINUOUS
 62
7
100
AcDbCircle
 10
47.75000000000000
 20
181.0248899999999
 30
0.000000000000000
 40
1.000000000000000
100
AcDbArc
 50
0.000000000000000
 51
41.40962199999999
  0
LINE
  5
F4
100
AcDbEntity
  8
1
  6
CONTINUOUS
 62
7
100
AcDbLine
 10
48.00000000000000
 20
225.5248900000000
 30
0.000000000000000
 11
30.00000000000000
 21
225.5248900000000
 31
0.000000000000000
  0
LINE
  5
F5
100
AcDbEntity
  8
1
  6
CONTINUOUS
 62
7
100
AcDbLine
 10
48.00000000000000
 20
228.5248900000000
 30
0.000000000000000
 11
30.00000000000000
 21
228.5248900000000
 31
0.000000000000000
  0
ARC
  5
F6
100
AcDbEntity
  8
1
  6
CONTINUOUS
 62
7
100
AcDbCircle
 10
30.00000000000000
 20
223.5248900000000
 30
0.000000000000000
 40
2.000000000000000
100
AcDbArc
 50
90.00000000000000
 51
180.0000000000000
  0
ARC
  5
F7
100
AcDbEntity
  8
1
  6
CONTINUOUS
 62
7
100
AcDbCircle
 10
30.00000000000000
 20
223.5248900000000
 30
0.000000000000000
 40
5.000000000000000
100
AcDbArc
 50
90.00000000000000
 51
180.0000000000000
  0
ARC
  5
F8
100
AcDbEntity
  8
1
  6
CONTINUOUS
 62
7
100
AcDbCircle
 10
48.00000000000000
 20
223.5248900000000
 30
0.000000000000000
 40
2.000000000000000
100
AcDbArc
 50
0.000000000000000
 51
90.00000000000000
  0
ARC
  5
F9
100
AcDbEntity
  8
1
  6
CONTINUOUS
 62
7
100
AcDbCircle
 10
48.00000000000000
 20
223.5248900000000
 30
0.000000000000000
 40
5.000000000000000
100
AcDbArc
 50
0.000000000000000
 51
90.00000000000000
  0
ARC
  5
FA
100
AcDbEntity
  8
5
  6
PHANTOM
 62
6
100
AcDbCircle
 10
79.89054100000000
 20
198.0248900000000
 30
0.000000000000000
 40
2.000000000000000
100
AcDbArc
 50
270.0000000000000
 51
360.0000000000000
  0
ARC
  5
FB
100
AcDbEntity
  8
5
  6
PHANTOM
 62
6
100
AcDbCircle
 10
79.89054100000000
 20
213.0248900000000
 30
0.000000000000000
 40
2.000000000000000
100
AcDbArc
 50
0.000000000000000
 51
90.00000000000000
  0
LINE
  5
FC
100
AcDbEntity
  8
5
  6
PHANTOM
 62
6
100
AcDbLine
 10
81.89054099999998
 20
213.0248900000000
 30
0.000000000000000
 11
81.89054099999998
 21
198.0248900000000
 31
0.000000000000000
  0
LINE
  5
FD
100
AcDbEntity
  8
1
  6
CONTINUOUS
 62
7
100
AcDbLine
 10
49.50000000000000
 20
314.6806230000001
 30
0.000000000000000
 11
72.27144599999998
 21
314.6806230000001
 31
0.000000000000000
  0
LINE
  5
FE
100
AcDbEntity
  8
1
  6
CONTINUOUS
 62
7
100
AcDbLine
 10
49.50000000000000
 20
315.8806230000000
 30
0.000000000000000
 11
72.90726999999998
 21
315.8806230000000
 31
0.000000000000000
  0
LINE
  5
FF
100
AcDbEntity
  8
1
  6
CONTINUOUS
 62
7
100
AcDbLine
 10
53.00000000000000
 20
318.2806230000000
 30
0.000000000000000
 11
70.50000000000000
 21
318.2806230000000
 31
0.000000000000000
  0
LINE
  5
100
100
AcDbEntity
  8
1
  6
CONTINUOUS
 62
7
100
AcDbLine
 10
53.00000000000000
 20
312.0806229999999
 30
0.000000000000000
 11
69.50000000000000
 21
312.0806229999999
 31
0.000000000000000
  0
LINE
  5
101
100
AcDbEntity
  8
4
  6
CENTER
 62
1
100
AcDbLine
 10
23.25448700000000
 20
315.1806230000000
 30
0.000000000000000
 11
74.28890799999996
 21
315.1806230000000
 31
0.000000000000000
  0
LINE
  5
102
100
AcDbEntity
  8
1
  6
CONTINUOUS
 62
7
100
AcDbLine
 10
45.99999999999997
 20
311.9306230000000
 30
0.000000000000000
 11
35.93333299999998
 21
304.3806229999999
 31
0.000000000000000
  0
LINE
  5
103
100
AcDbEntity
  8
1
  6
CONTINUOUS
 62
7
100
AcDbLine
 10
36.53333300000000
 20
303.5806229999999
 30
0.000000000000000
 11
46.00000000000000
 21
310.6806230000001
 31
0.000000000000000
  0
LINE
  5
104
100
AcDbEntity
  8
1
  6
CONTINUOUS
 62
7
100
AcDbLine
 10
30.23831699999997
 20
304.6259229999999
 30
0.000000000000000
 11
26.16794999999999
 21
310.7314740000000
 31
0.000000000000000
  0
LINE
  5
105
100
AcDbEntity
  8
1
  6
CONTINUOUS
 62
7
100
AcDbLine
 10
25.33589899999998
 20
310.1767740000000
 30
0.000000000000000
 11
29.40626699999999
 21
304.0712229999999
 31
0.000000000000000
  0
LINE
  5
106
100
AcDbEntity
  8
1
  6
CONTINUOUS
 62
7
100
AcDbLine
 10
35.33333300000001
 20
304.1806230000001
 30
0.000000000000000
 11
31.07036700000000
 21
304.1806230000001
 31
0.000000000000000
  0
LINE
  5
107
100
AcDbEntity
  8
1
  6
CONTINUOUS
 62
7
100
AcDbLine
 10
31.07036700000000
 20
303.1806230000000
 30
0.000000000000000
 11
35.33333300000001
 21
303.1806230000000
 31
0.000000000000000
  0
ARC
  5
108
100
AcDbEntity
  8
1
  6
CONTINUOUS
 62
7
100
AcDbCircle
 10
31.07036700000000
 20
305.1806230000000
 30
0.000000000000000
 40
1.000000000000000
100
AcDbArc
 50
213.6900680000000
 51
270.0000000000000
  0
ARC
  5
109
100
AcDbEntity
  8
1
  6
CONTINUOUS
 62
7
100
AcDbCircle
 10
31.07036700000000
 20
305.1806230000000
 30
0.000000000000000
 40
2.000000000000000
100
AcDbArc
 50
213.6900680000000
 51
270.0000000000000
  0
ARC
  5
10A
100
AcDbEntity
  8
1
  6
CONTINUOUS
 62
7
100
AcDbCircle
 10
35.33333300000001
 20
305.1806230000000
 30
0.000000000000000
 40
1.000000000000000
100
AcDbArc
 50
270.0000000000000
 51
306.8698979999999
  0
ARC
  5
10B
100
AcDbEntity
  8
1
  6
CONTINUOUS
 62
7
100
AcDbCircle
 10
35.33333300000001
 20
305.1806230000000
 30
0.000000000000000
 40
2.000000000000000
100
AcDbArc
 50
270.0000000000000
 51
306.8698979999999
  0
LINE
  5
10C
100
AcDbEntity
  8
1
  6
CONTINUOUS
 62
7
100
AcDbLine
 10
31.07036700000000
 20
326.1806230000000
 30
0.000000000000000
 11
35.33333300000001
 21
326.1806230000000
 31
0.000000000000000
  0
LINE
  5
10D
100
AcDbEntity
  8
1
  6
CONTINUOUS
 62
7
100
AcDbLine
 10
31.07036700000000
 20
327.1806230000001
 30
0.000000000000000
 11
35.33333300000001
 21
327.1806230000001
 31
0.000000000000000
  0
ARC
  5
10E
100
AcDbEntity
  8
1
  6
CONTINUOUS
 62
7
100
AcDbCircle
 10
31.07036700000000
 20
325.1806230000001
 30
0.000000000000000
 40
1.000000000000000
100
AcDbArc
 50
90.00000000000000
 51
146.3099319999998
  0
ARC
  5
10F
100
AcDbEntity
  8
1
  6
CONTINUOUS
 62
7
100
AcDbCircle
 10
31.07036700000000
 20
325.1806230000001
 30
0.000000000000000
 40
2.000000000000000
100
AcDbArc
 50
90.00000000000000
 51
146.3099319999998
  0
ARC
  5
110
100
AcDbEntity
  8
1
  6
CONTINUOUS
 62
7
100
AcDbCircle
 10
27.00000000000000
 20
319.0750720000000
 30
0.000000000000000
 40
1.000000000000000
100
AcDbArc
 50
146.3099319999998
 51
180.0000000000000
  0
LINE
  5
111
100
AcDbEntity
  8
1
  6
CONTINUOUS
 62
7
100
AcDbLine
 10
26.00000000000000
 20
311.2861740000000
 30
0.000000000000000
 11
26.00000000000000
 21
319.0750720000000
 31
0.000000000000000
  0
ARC
  5
112
100
AcDbEntity
  8
1
  6
CONTINUOUS
 62
7
100
AcDbCircle
 10
27.00000000000000
 20
311.2861740000000
 30
0.000000000000000
 40
1.000000000000000
100
AcDbArc
 50
180.0000000000000
 51
213.6900680000000
  0
ARC
  5
113
100
AcDbEntity
  8
1
  6
CONTINUOUS
 62
7
100
AcDbCircle
 10
27.50000000000000
 20
318.6806230000001
 30
0.000000000000000
 40
0.5000000000000000
100
AcDbArc
 50
90.00000000000000
 51
180.0000000000000
  0
ARC
  5
114
100
AcDbEntity
  8
1
  6
CONTINUOUS
 62
7
100
AcDbCircle
 10
27.00000000000000
 20
311.2861740000000
 30
0.000000000000000
 40
2.000000000000000
100
AcDbArc
 50
180.0000000000000
 51
213.6900680000000
  0
ARC
  5
115
100
AcDbEntity
  8
1
  6
CONTINUOUS
 62
7
100
AcDbCircle
 10
27.00000000000000
 20
319.0750720000000
 30
0.000000000000000
 40
2.000000000000000
100
AcDbArc
 50
146.3099319999998
 51
180.0000000000000
  0
ARC
  5
116
100
AcDbEntity
  8
1
  6
CONTINUOUS
 62
7
100
AcDbCircle
 10
30.50000000000000
 20
318.6806230000001
 30
0.000000000000000
 40
0.5000000000000000
100
AcDbArc
 50
0.000000000000000
 51
90.00000000000000
  0
ARC
  5
117
100
AcDbEntity
  8
1
  6
CONTINUOUS
 62
7
100
AcDbCircle
 10
30.50000000000000
 20
311.6806230000000
 30
0.000000000000000
 40
0.5000000000000000
100
AcDbArc
 50
270.0000000000000
 51
360.0000000000000
  0
ARC
  5
118
100
AcDbEntity
  8
1
  6
CONTINUOUS
 62
7
100
AcDbCircle
 10
27.50000000000000
 20
311.6806230000000
 30
0.000000000000000
 40
0.5000000000000000
100
AcDbArc
 50
180.0000000000000
 51
270.0000000000000
  0
LINE
  5
119
100
AcDbEntity
  8
1
  6
CONTINUOUS
 62
7
100
AcDbLine
 10
27.50000000000000
 20
319.1806230000000
 30
0.000000000000000
 11
30.50000000000000
 21
319.1806230000000
 31
0.000000000000000
  0
LINE
  5
11A
100
AcDbEntity
  8
1
  6
CONTINUOUS
 62
7
100
AcDbLine
 10
27.50000000000000
 20
311.1806230000000
 30
0.000000000000000
 11
30.50000000000000
 21
311.1806230000000
 31
0.000000000000000
  0
LINE
  5
11B
100
AcDbEntity
  8
1
  6
CONTINUOUS
 62
7
100
AcDbLine
 10
31.00000000000000
 20
318.6806230000001
 30
0.000000000000000
 11
31.00000000000000
 21
311.6806230000000
 31
0.000000000000000
  0
LINE
  5
11C
100
AcDbEntity
  8
1
  6
CONTINUOUS
 62
7
100
AcDbLine
 10
27.00000000000000
 20
318.6806230000001
 30
0.000000000000000
 11
27.00000000000000
 21
311.6806230000000
 31
0.000000000000000
  0
LINE
  5
11D
100
AcDbEntity
  8
1
  6
CONTINUOUS
 62
7
100
AcDbLine
 10
30.23831699999997
 20
325.7353229999999
 30
0.000000000000000
 11
26.16794999999999
 21
319.6297719999999
 31
0.000000000000000
  0
LINE
  5
11E
100
AcDbEntity
  8
1
  6
CONTINUOUS
 62
7
100
AcDbLine
 10
25.33589899999996
 20
320.1844720000000
 30
0.000000000000000
 11
29.40626700000001
 21
326.2900230000000
 31
0.000000000000000
  0
LINE
  5
11F
100
AcDbEntity
  8
1
  6
CONTINUOUS
 62
7
100
AcDbLine
 10
25.00000000000000
 20
319.0750720000000
 30
0.000000000000000
 11
25.00000000000000
 21
311.2861740000000
 31
0.000000000000000
  0
LINE
  5
120
100
AcDbEntity
  8
1
  6
CONTINUOUS
 62
7
100
AcDbLine
 10
46.00000000000000
 20
319.6806230000000
 30
0.000000000000000
 11
52.70000000000000
 21
319.6806230000000
 31
0.000000000000000
  0
LINE
  5
121
100
AcDbEntity
  8
1
  6
CONTINUOUS
 62
7
100
AcDbLine
 10
46.00000000000000
 20
310.6806230000001
 30
0.000000000000000
 11
52.70000000000000
 21
310.6806230000001
 31
0.000000000000000
  0
ARC
  5
122
100
AcDbEntity
  8
1
  6
CONTINUOUS
 62
7
100
AcDbCircle
 10
35.33333300000001
 20
325.1806230000001
 30
0.000000000000000
 40
1.000000000000000
100
AcDbArc
 50
53.13010200000000
 51
90.00000000000000
  0
ARC
  5
123
100
AcDbEntity
  8
1
  6
CONTINUOUS
 62
7
100
AcDbCircle
 10
35.33333300000001
 20
325.1806230000001
 30
0.000000000000000
 40
2.000000000000000
100
AcDbArc
 50
53.13010200000000
 51
90.00000000000000
  0
LINE
  5
124
100
AcDbEntity
  8
1
  6
CONTINUOUS
 62
7
100
AcDbLine
 10
46.00000000000000
 20
311.9306230000000
 30
0.000000000000000
 11
46.00000000000000
 21
318.4306230000000
 31
0.000000000000000
  0
ARC
  5
125
100
AcDbEntity
  8
1
  6
CONTINUOUS
 62
7
100
AcDbCircle
 10
35.99921099999999
 20
310.5150339999998
 30
0.000000000000000
 40
2.004309000000000
100
AcDbArc
 50
270.0000000000000
 51
324.4619999999998
  0
ARC
  5
126
100
AcDbEntity
  8
1
  6
CONTINUOUS
 62
7
100
AcDbCircle
 10
29.46738500000000
 20
315.1806230000000
 30
0.000000000000000
 40
10.03262800000000
100
AcDbArc
 50
324.4619999999998
 51
395.5380000000000
  0
ARC
  5
127
100
AcDbEntity
  8
1
  6
CONTINUOUS
 62
7
100
AcDbCircle
 10
42.53261499999999
 20
315.1806230000000
 30
0.000000000000000
 40
10.03262800000000
100
AcDbArc
 50
144.4620000000000
 51
215.5377000000000
  0
LINE
  5
128
100
AcDbEntity
  8
1
  6
CONTINUOUS
 62
7
100
AcDbLine
 10
33.28669500000000
 20
315.5706059999999
 30
0.000000000000000
 11
38.71330500000000
 21
315.5706059999999
 31
0.000000000000000
  0
LINE
  5
129
100
AcDbEntity
  8
1
  6
CONTINUOUS
 62
7
100
AcDbLine
 10
33.86614400000000
 20
310.1266289999998
 30
0.000000000000000
 11
37.21968500000000
 21
310.1266289999998
 31
0.000000000000000
  0
LINE
  5
12A
100
AcDbEntity
  8
1
  6
CONTINUOUS
 62
7
100
AcDbLine
 10
37.43441200000000
 20
310.9034380000000
 30
0.000000000000000
 11
34.56558799999999
 21
310.9034380000000
 31
0.000000000000000
  0
LINE
  5
12B
100
AcDbEntity
  8
1
  6
CONTINUOUS
 62
7
100
AcDbLine
 10
34.08087200000000
 20
311.6818260000000
 30
0.000000000000000
 11
37.91754900000000
 21
311.6818260000000
 31
0.000000000000000
  0
LINE
  5
12C
100
AcDbEntity
  8
1
  6
CONTINUOUS
 62
7
100
AcDbLine
 10
35.06609300000000
 20
313.2370220000000
 30
0.000000000000000
 11
33.58194600000000
 21
313.2370220000000
 31
0.000000000000000
  0
LINE
  5
12D
100
AcDbEntity
  8
1
  6
CONTINUOUS
 62
7
100
AcDbLine
 10
35.99921099999999
 20
314.7922190000000
 30
0.000000000000000
 11
35.99921099999999
 21
314.0154099999999
 31
0.000000000000000
  0
ARC
  5
12E
100
AcDbEntity
  8
1
  6
CONTINUOUS
 62
7
100
AcDbCircle
 10
34.56558799999999
 20
311.2934210000000
 30
0.000000000000000
 40
0.3889570000000000
100
AcDbArc
 50
206.0144000000000
 51
270.0000000000000
  0
ARC
  5
12F
100
AcDbEntity
  8
1
  6
CONTINUOUS
 62
7
100
AcDbCircle
 10
42.53261499999999
 20
315.1806230000000
 30
0.000000000000000
 40
9.254918999999999
100
AcDbArc
 50
202.9440000000000
 51
206.0144000000000
  0
ARC
  5
130
100
AcDbEntity
  8
1
  6
CONTINUOUS
 62
7
100
AcDbCircle
 10
34.08087200000000
 20
311.6044610000000
 30
0.000000000000000
 40
0.07779100000000000
100
AcDbArc
 50
90.00000000000000
 51
202.9440000000000
  0
ARC
  5
131
100
AcDbEntity
  8
1
  6
CONTINUOUS
 62
7
100
AcDbCircle
 10
37.43441200000000
 20
311.2934210000000
 30
0.000000000000000
 40
0.3889570000000000
100
AcDbArc
 50
270.0000000000000
 51
333.9859999999998
  0
ARC
  5
132
100
AcDbEntity
  8
1
  6
CONTINUOUS
 62
7
100
AcDbCircle
 10
33.58194600000000
 20
313.1596569999999
 30
0.000000000000000
 40
0.07779100000000000
100
AcDbArc
 50
90.00000000000000
 51
192.7289000000000
  0
ARC
  5
133
100
AcDbEntity
  8
1
  6
CONTINUOUS
 62
7
100
AcDbCircle
 10
42.53261499999999
 20
315.1806230000000
 30
0.000000000000000
 40
9.254918999999999
100
AcDbArc
 50
192.7289000000000
 51
193.2680999999999
  0
ARC
  5
134
100
AcDbEntity
  8
1
  6
CONTINUOUS
 62
7
100
AcDbCircle
 10
42.53261499999999
 20
315.1806230000000
 30
0.000000000000000
 40
9.254918999999999
100
AcDbArc
 50
193.2680999999999
 51
195.2574999999999
  0
ARC
  5
135
100
AcDbEntity
  8
1
  6
CONTINUOUS
 62
7
100
AcDbCircle
 10
33.97982299999998
 20
312.8486179999999
 30
0.000000000000000
 40
0.3889570000000000
100
AcDbArc
 50
195.2574999999999
 51
270.0000000000000
  0
ARC
  5
136
100
AcDbEntity
  8
1
  6
CONTINUOUS
 62
7
100
AcDbCircle
 10
38.02017700000000
 20
312.8486179999999
 30
0.000000000000000
 40
0.3889570000000000
100
AcDbArc
 50
270.0000000000000
 51
344.7419999999998
  0
ARC
  5
137
100
AcDbEntity
  8
1
  6
CONTINUOUS
 62
7
100
AcDbCircle
 10
29.46738500000000
 20
315.1806230000000
 30
0.000000000000000
 40
9.254918999999999
100
AcDbArc
 50
344.7419999999998
 51
344.7940000000000
  0
ARC
  5
138
100
AcDbEntity
  8
1
  6
CONTINUOUS
 62
7
100
AcDbCircle
 10
29.46738500000000
 20
315.1806230000000
 30
0.000000000000000
 40
9.254918999999999
100
AcDbArc
 50
344.7940000000000
 51
347.2709999999998
  0
ARC
  5
139
100
AcDbEntity
  8
1
  6
CONTINUOUS
 62
7
100
AcDbCircle
 10
38.41805400000000
 20
313.1596569999999
 30
0.000000000000000
 40
0.07779100000000000
100
AcDbArc
 50
347.2709999999998
 51
450.0000000000000
  0
LINE
  5
13A
100
AcDbEntity
  8
1
  6
CONTINUOUS
 62
7
100
AcDbLine
 10
33.97982299999998
 20
312.4586350000000
 30
0.000000000000000
 11
38.02017700000000
 21
312.4586350000000
 31
0.000000000000000
  0
LINE
  5
13B
100
AcDbEntity
  8
1
  6
CONTINUOUS
 62
7
100
AcDbLine
 10
38.41805400000000
 20
313.2370220000000
 30
0.000000000000000
 11
36.93232800000000
 21
313.2370220000000
 31
0.000000000000000
  0
LINE
  5
13C
100
AcDbEntity
  8
1
  6
CONTINUOUS
 62
7
100
AcDbLine
 10
33.35142899999999
 20
314.0154099999999
 30
0.000000000000000
 11
38.64857100000000
 21
314.0154099999999
 31
0.000000000000000
  0
LINE
  5
13D
100
AcDbEntity
  8
1
  6
CONTINUOUS
 62
7
100
AcDbLine
 10
33.28669500000000
 20
314.7922190000000
 30
0.000000000000000
 11
38.71330500000000
 21
314.7922190000000
 31
0.000000000000000
  0
ARC
  5
13E
100
AcDbEntity
  8
1
  6
CONTINUOUS
 62
7
100
AcDbCircle
 10
37.91754900000000
 20
311.6044610000000
 30
0.000000000000000
 40
0.07779100000000000
100
AcDbArc
 50
337.0559999999999
 51
450.0000000000000
  0
ARC
  5
13F
100
AcDbEntity
  8
1
  6
CONTINUOUS
 62
7
100
AcDbCircle
 10
29.46738500000000
 20
315.1806230000000
 30
0.000000000000000
 40
9.254918999999999
100
AcDbArc
 50
333.9859999999998
 51
337.0559999999999
  0
LINE
  5
140
100
AcDbEntity
  8
1
  6
CONTINUOUS
 62
7
100
AcDbLine
 10
35.06609300000000
 20
317.1258029999999
 30
0.000000000000000
 11
33.80456799999999
 21
317.1258029999999
 31
0.000000000000000
  0
LINE
  5
141
100
AcDbEntity
  8
1
  6
CONTINUOUS
 62
7
100
AcDbLine
 10
35.99921099999999
 20
317.1258029999999
 30
0.000000000000000
 11
35.99921099999999
 21
316.7373989999999
 31
0.000000000000000
  0
LINE
  5
142
100
AcDbEntity
  8
1
  6
CONTINUOUS
 62
7
100
AcDbLine
 10
33.80930400000000
 20
318.6809999999999
 30
0.000000000000000
 11
35.61080599999999
 21
318.6809999999999
 31
0.000000000000000
  0
LINE
  5
143
100
AcDbEntity
  8
1
  6
CONTINUOUS
 62
7
100
AcDbLine
 10
35.61080599999999
 20
319.4593869999998
 30
0.000000000000000
 11
33.94982499999999
 21
319.4593869999998
 31
0.000000000000000
  0
LINE
  5
144
100
AcDbEntity
  8
1
  6
CONTINUOUS
 62
7
100
AcDbLine
 10
35.99921099999999
 20
319.0694040000000
 30
0.000000000000000
 11
37.86544600000000
 21
319.0694040000000
 31
0.000000000000000
  0
LINE
  5
145
100
AcDbEntity
  8
1
  6
CONTINUOUS
 62
7
100
AcDbLine
 10
37.45493800000000
 20
319.8541070000000
 30
0.000000000000000
 11
34.17718300000000
 21
320.7335430000000
 31
0.000000000000000
  0
LINE
  5
146
100
AcDbEntity
  8
1
  6
CONTINUOUS
 62
7
100
AcDbLine
 10
35.99921099999999
 20
321.8513900000000
 30
0.000000000000000
 11
35.99921099999999
 21
320.2440910000000
 31
0.000000000000000
  0
ARC
  5
147
100
AcDbEntity
  8
1
  6
CONTINUOUS
 62
7
100
AcDbCircle
 10
35.61080599999999
 20
319.0694040000000
 30
0.000000000000000
 40
0.3889570000000000
100
AcDbArc
 50
270.0000000000000
 51
450.0000000000000
  0
ARC
  5
148
100
AcDbEntity
  8
1
  6
CONTINUOUS
 62
7
100
AcDbCircle
 10
35.99921099999999
 20
319.8477919999999
 30
0.000000000000000
 40
2.004309000000000
100
AcDbArc
 50
62.25000000000000
 51
144.4620000000000
  0
ARC
  5
149
100
AcDbEntity
  8
1
  6
CONTINUOUS
 62
7
100
AcDbCircle
 10
35.99921099999999
 20
319.8477919999999
 30
0.000000000000000
 40
2.004309000000000
100
AcDbArc
 50
35.53799999999999
 51
45.69899999999998
  0
ARC
  5
14A
100
AcDbEntity
  8
1
  6
CONTINUOUS
 62
7
100
AcDbCircle
 10
33.80456799999999
 20
316.7373989999999
 30
0.000000000000000
 40
0.3889570000000000
100
AcDbArc
 50
90.00000000000000
 51
169.8960000000000
  0
ARC
  5
14B
100
AcDbEntity
  8
1
  6
CONTINUOUS
 62
7
100
AcDbCircle
 10
42.53261499999999
 20
315.1806230000000
 30
0.000000000000000
 40
9.254918999999999
100
AcDbArc
 50
169.8960000000000
 51
172.2069999999999
  0
ARC
  5
14C
100
AcDbEntity
  8
1
  6
CONTINUOUS
 62
7
100
AcDbCircle
 10
33.43984600000001
 20
316.4263590000000
 30
0.000000000000000
 40
0.07779100000000000
100
AcDbArc
 50
172.2069999999999
 51
270.0000000000000
  0
ARC
  5
14D
100
AcDbEntity
  8
1
  6
CONTINUOUS
 62
7
100
AcDbCircle
 10
38.19543200000000
 20
316.7373989999999
 30
0.000000000000000
 40
0.3889570000000000
100
AcDbArc
 50
10.10399999999999
 51
90.00000000000000
  0
ARC
  5
14E
100
AcDbEntity
  8
1
  6
CONTINUOUS
 62
7
100
AcDbCircle
 10
38.56015400000000
 20
316.4263590000000
 30
0.000000000000000
 40
0.07779100000000000
100
AcDbArc
 50
270.0000000000000
 51
367.7930000000000
  0
ARC
  5
14F
100
AcDbEntity
  8
1
  6
CONTINUOUS
 62
7
100
AcDbCircle
 10
29.46738500000000
 20
315.1806230000000
 30
0.000000000000000
 40
9.254918999999999
100
AcDbArc
 50
7.792999999999998
 51
10.10399999999999
  0
LINE
  5
150
100
AcDbEntity
  8
1
  6
CONTINUOUS
 62
7
100
AcDbLine
 10
33.43984600000001
 20
316.3474150000000
 30
0.000000000000000
 11
38.56015400000000
 21
316.3474150000000
 31
0.000000000000000
  0
LINE
  5
151
100
AcDbEntity
  8
1
  6
CONTINUOUS
 62
7
100
AcDbLine
 10
38.19543200000000
 20
317.1258029999999
 30
0.000000000000000
 11
35.99921099999999
 21
317.1258029999999
 31
0.000000000000000
  0
LINE
  5
152
100
AcDbEntity
  8
1
  6
CONTINUOUS
 62
7
100
AcDbLine
 10
33.44300399999998
 20
317.9026119999999
 30
0.000000000000000
 11
38.31226900000000
 21
317.9026119999999
 31
0.000000000000000
  0
ARC
  5
153
100
AcDbEntity
  8
1
  6
CONTINUOUS
 62
7
100
AcDbCircle
 10
35.99921099999999
 20
310.5150339999998
 30
0.000000000000000
 40
2.004309000000000
100
AcDbArc
 50
215.5377000000000
 51
256.5374000000000
  0
LINE
  5
154
100
AcDbEntity
  8
1
  6
CONTINUOUS
 62
7
100
AcDbLine
 10
35.93333300000000
 20
325.9806229999999
 30
0.000000000000000
 11
46.00000000000003
 21
318.4306230000000
 31
0.000000000000000
  0
LINE
  5
155
100
AcDbEntity
  8
1
  6
CONTINUOUS
 62
7
100
AcDbLine
 10
36.53333300000000
 20
326.7806230000000
 30
0.000000000000000
 11
46.00000000000001
 21
319.6806230000001
 31
0.000000000000000
  0
ARC
  5
156
100
AcDbEntity
  8
1
  6
CONTINUOUS
 62
7
100
AcDbCircle
 10
52.70000000000000
 20
310.9806229999999
 30
0.000000000000000
 40
0.3000000000000000
100
AcDbArc
 50
270.0000000000000
 51
360.0000000000000
  0
ARC
  5
157
100
AcDbEntity
  8
1
  6
CONTINUOUS
 62
7
100
AcDbCircle
 10
52.70000000000000
 20
319.3806230000000
 30
0.000000000000000
 40
0.3000000000000000
100
AcDbArc
 50
0.000000000000000
 51
90.00000000000000
  0
LINE
  5
158
100
AcDbEntity
  8
1
  6
CONTINUOUS
 62
7
100
AcDbLine
 10
53.00000000000000
 20
312.0806229999999
 30
0.000000000000000
 11
53.00000000000000
 21
310.9806229999999
 31
0.000000000000000
  0
LINE
  5
159
100
AcDbEntity
  8
1
  6
CONTINUOUS
 62
7
100
AcDbLine
 10
53.00000000000000
 20
319.3806230000000
 30
0.000000000000000
 11
53.00000000000000
 21
318.2806230000000
 31
0.000000000000000
  0
LINE
  5
15A
100
AcDbEntity
  8
1
  6
CONTINUOUS
 62
7
100
AcDbLine
 10
49.50000000000000
 20
315.8806230000000
 30
0.000000000000000
 11
49.50000000000000
 21
314.6806230000001
 31
0.000000000000000
  0
LINE
  5
15B
100
AcDbEntity
  8
1
  6
CONTINUOUS
 62
7
100
AcDbLine
 10
69.50000000000000
 20
312.0806229999999
 30
0.000000000000000
 11
72.84209400000000
 21
315.2159700000001
 31
0.000000000000000
  0
LINE
  5
15C
100
AcDbEntity
  8
1
  6
CONTINUOUS
 62
7
100
AcDbLine
 10
70.50000000000000
 20
318.2806230000000
 30
0.000000000000000
 11
72.85301800000001
 21
315.9347110000000
 31
0.000000000000000
  0
ARC
  5
15D
100
AcDbEntity
  8
1
  6
CONTINUOUS
 62
7
100
AcDbCircle
 10
72.50000000000000
 20
315.5806230000000
 30
0.000000000000000
 40
0.5000000000000000
100
AcDbArc
 50
313.1718549999998
 51
405.0866460000000
  0
LINE
  5
15E
100
AcDbEntity
  8
4
  6
CENTER
 62
1
100
AcDbLine
 10
156.4241899999998
 20
205.5248900000000
 30
0.000000000000000
 11
194.3797769999999
 21
205.5248900000000
 31
0.000000000000000
  0
LINE
  5
15F
100
AcDbEntity
  8
1
  6
CONTINUOUS
 62
7
100
AcDbLine
 10
166.6797770000000
 20
225.5248900000000
 30
0.000000000000000
 11
166.6797770000000
 21
219.5248900000000
 31
0.000000000000000
  0
LINE
  5
160
100
AcDbEntity
  8
1
  6
CONTINUOUS
 62
7
100
AcDbLine
 10
166.1797769999998
 20
226.0248900000000
 30
0.000000000000000
 11
166.1797769999998
 21
219.0248899999999
 31
0.000000000000000
  0
LINE
  5
161
100
AcDbEntity
  8
5
  6
PHANTOM
 62
6
100
AcDbLine
 10
156.9403100000000
 20
195.9749280000000
 30
0.000000000000000
 11
153.7554129999998
 21
195.8934200000000
 31
0.000000000000000
  0
ARC
  5
162
100
AcDbEntity
  8
5
  6
PHANTOM
 62
6
100
AcDbCircle
 10
154.1944959999999
 20
187.8472209999999
 30
0.000000000000000
 40
6.000000000000000
100
AcDbArc
 50
135.0000000000000
 51
225.0000000000000
  0
LINE
  5
163
100
AcDbEntity
  8
5
  6
PHANTOM
 62
6
100
AcDbLine
 10
149.9518549999999
 20
183.6045799999999
 30
0.000000000000000
 11
157.0229229999999
 21
176.5335120000000
 31
0.000000000000000
  0
LINE
  5
164
100
AcDbEntity
  8
5
  6
PHANTOM
 62
6
100
AcDbLine
 10
153.7554129999998
 20
195.8934200000000
 30
0.000000000000000
 11
149.9518549999999
 21
192.0898610000000
 31
0.000000000000000
  0
ARC
  5
165
100
AcDbEntity
  8
5
  6
PHANTOM
 62
6
100
AcDbCircle
 10
147.8797769999999
 20
211.2309869999999
 30
0.000000000000000
 40
10.00000000000000
100
AcDbArc
 50
315.0000000000000
 51
319.2061049999999
  0
LINE
  5
166
100
AcDbEntity
  8
1
  6
CONTINUOUS
 62
7
100
AcDbLine
 10
153.2752570000000
 20
208.1411850000000
 30
0.000000000000000
 11
155.2508449999999
 21
206.1655969999999
 31
0.000000000000000
  0
ARC
  5
167
100
AcDbEntity
  8
1
  6
CONTINUOUS
 62
7
100
AcDbCircle
 10
153.9823639999999
 20
208.8482919999999
 30
0.000000000000000
 40
1.000000000000000
100
AcDbArc
 50
133.5340060000000
 51
225.0000000000000
  0
ARC
  5
168
100
AcDbEntity
  8
1
  6
CONTINUOUS
 62
7
100
AcDbCircle
 10
162.6797770000000
 20
205.5248900000000
 30
0.000000000000000
 40
9.400000000000000
100
AcDbArc
 50
115.1843370000000
 51
133.5340060000000
  0
LINE
  5
169
100
AcDbEntity
  8
1
  6
CONTINUOUS
 62
7
100
AcDbLine
 10
156.2051979999999
 20
212.3395680000000
 30
0.000000000000000
 11
153.2935789999999
 21
209.5732579999999
 31
0.000000000000000
  0
ARC
  5
16A
100
AcDbEntity
  8
1
  6
CONTINUOUS
 62
7
100
AcDbCircle
 10
148.1797770000000
 20
199.0945289999999
 30
0.000000000000000
 40
10.00000000000000
100
AcDbArc
 50
0.000000000000000
 51
45.00000000000000
  0
LINE
  5
16B
100
AcDbEntity
  8
1
  6
CONTINUOUS
 62
7
100
AcDbLine
 10
185.8797769999999
 20
214.4841819999999
 30
0.000000000000000
 11
185.8797769999999
 21
195.0248900000000
 31
0.000000000000000
  0
LINE
  5
16C
100
AcDbEntity
  8
1
  6
CONTINUOUS
 62
7
100
AcDbLine
 10
174.6797770000000
 20
195.0248900000000
 30
0.000000000000000
 11
174.6797770000000
 21
205.5248900000000
 31
0.000000000000000
  0
LINE
  5
16D
100
AcDbEntity
  8
1
  6
CONTINUOUS
 62
7
100
AcDbLine
 10
186.2797770000000
 20
214.1851439999999
 30
0.000000000000000
 11
186.2797770000000
 21
195.7748900000000
 31
0.000000000000000
  0
LINE
  5
16E
100
AcDbEntity
  8
1
  6
CONTINUOUS
 62
7
100
AcDbLine
 10
188.3797769999999
 20
215.2676759999999
 30
0.000000000000000
 11
188.3797769999999
 21
194.2748899999999
 31
0.000000000000000
  0
LINE
  5
16F
100
AcDbEntity
  8
1
  6
CONTINUOUS
 62
7
100
AcDbLine
 10
186.3797769999999
 20
213.1438160000000
 30
0.000000000000000
 11
186.3797769999999
 21
194.2748899999999
 31
0.000000000000000
  0
LINE
  5
170
100
AcDbEntity
  8
1
  6
CONTINUOUS
 62
7
100
AcDbLine
 10
172.1797770000000
 20
184.0248899999999
 30
0.000000000000000
 11
182.1797770000000
 21
184.0248899999999
 31
0.000000000000000
  0
LINE
  5
171
100
AcDbEntity
  8
1
  6
CONTINUOUS
 62
7
100
AcDbLine
 10
172.1797770000000
 20
194.0248900000000
 30
0.000000000000000
 11
184.9797770000000
 21
194.0248900000000
 31
0.000000000000000
  0
ARC
  5
172
100
AcDbEntity
  8
1
  6
CONTINUOUS
 62
7
100
AcDbCircle
 10
172.1797770000000
 20
184.5248899999999
 30
0.000000000000000
 40
0.5000000000000000
100
AcDbArc
 50
180.0000000000000
 51
270.0000000000000
  0
ARC
  5
173
100
AcDbEntity
  8
1
  6
CONTINUOUS
 62
7
100
AcDbCircle
 10
173.6797770000000
 20
195.0248900000000
 30
0.000000000000000
 40
1.000000000000000
100
AcDbArc
 50
270.0000000000000
 51
360.0000000000000
  0
LINE
  5
174
100
AcDbEntity
  8
1
  6
CONTINUOUS
 62
7
100
AcDbLine
 10
171.6797770000000
 20
181.0248899999999
 30
0.000000000000000
 11
171.6797770000000
 21
197.0248899999999
 31
0.000000000000000
  0
ARC
  5
175
100
AcDbEntity
  8
1
  6
CONTINUOUS
 62
7
100
AcDbCircle
 10
172.1797770000000
 20
193.5248899999999
 30
0.000000000000000
 40
0.5000000000000000
100
AcDbArc
 50
90.00000000000000
 51
180.0000000000000
  0
LINE
  5
176
100
AcDbEntity
  8
1
  6
CONTINUOUS
 62
7
100
AcDbLine
 10
186.0797769999998
 20
195.5248899999999
 30
0.000000000000000
 11
185.8797769999999
 21
195.5248899999999
 31
0.000000000000000
  0
ARC
  5
177
100
AcDbEntity
  8
1
  6
CONTINUOUS
 62
7
100
AcDbCircle
 10
182.1797770000000
 20
183.0248899999999
 30
0.000000000000000
 40
1.000000000000000
100
AcDbArc
 50
0.000000000000000
 51
90.00000000000000
  0
ARC
  5
178
100
AcDbEntity
  8
1
  6
CONTINUOUS
 62
7
100
AcDbCircle
 10
186.0235270000000
 20
195.7748900000000
 30
0.000000000000000
 40
0.2562500000000000
100
AcDbArc
 50
282.6803829999999
 51
360.0000000000000
  0
ARC
  5
179
100
AcDbEntity
  8
1
  6
CONTINUOUS
 62
7
100
AcDbCircle
 10
184.8797770000000
 20
195.0248900000000
 30
0.000000000000000
 40
1.000000000000000
100
AcDbArc
 50
270.0000000000000
 51
360.0000000000000
  0
LINE
  5
17A
100
AcDbEntity
  8
1
  6
CONTINUOUS
 62
7
100
AcDbLine
 10
188.3797769999999
 20
194.2748899999999
 30
0.000000000000000
 11
186.3797769999999
 21
194.2748899999999
 31
0.000000000000000
  0
LINE
  5
17B
100
AcDbEntity
  8
1
  6
CONTINUOUS
 62
7
100
AcDbLine
 10
184.8797770000000
 20
215.4841819999998
 30
0.000000000000000
 11
163.6797770000000
 21
215.4841819999998
 31
0.000000000000000
  0
LINE
  5
17C
100
AcDbEntity
  8
1
  6
CONTINUOUS
 62
7
100
AcDbLine
 10
162.6797770000000
 20
217.0248900000000
 30
0.000000000000000
 11
187.7797769999999
 21
217.0248900000000
 31
0.000000000000000
  0
LINE
  5
17D
100
AcDbEntity
  8
1
  6
CONTINUOUS
 62
7
100
AcDbLine
 10
166.1797769999998
 20
219.0248899999999
 30
0.000000000000000
 11
166.6797770000000
 21
219.5248899999999
 31
0.000000000000000
  0
LINE
  5
17E
100
AcDbEntity
  8
1
  6
CONTINUOUS
 62
7
100
AcDbLine
 10
162.6797770000000
 20
219.0248899999999
 30
0.000000000000000
 11
166.1797769999998
 21
219.0248899999999
 31
0.000000000000000
  0
ARC
  5
17F
100
AcDbEntity
  8
1
  6
CONTINUOUS
 62
7
100
AcDbCircle
 10
162.6797770000000
 20
216.0248900000000
 30
0.000000000000000
 40
1.000000000000000
100
AcDbArc
 50
0.000000000000000
 51
90.00000000000000
  0
LINE
  5
180
100
AcDbEntity
  8
1
  6
CONTINUOUS
 62
7
100
AcDbLine
 10
163.6797770000000
 20
205.5248900000000
 30
0.000000000000000
 11
163.6797770000000
 21
216.0248900000000
 31
0.000000000000000
  0
LINE
  5
181
100
AcDbEntity
  8
1
  6
CONTINUOUS
 62
7
100
AcDbLine
 10
186.2797770000000
 20
211.4248900000000
 30
0.000000000000000
 11
186.3797769999999
 21
211.4248900000000
 31
0.000000000000000
  0
LINE
  5
182
100
AcDbEntity
  8
1
  6
CONTINUOUS
 62
7
100
AcDbLine
 10
186.2797770000000
 20
199.6248899999999
 30
0.000000000000000
 11
186.3797769999999
 21
199.6248899999999
 31
0.000000000000000
  0
LINE
  5
183
100
AcDbEntity
  8
1
  6
CONTINUOUS
 62
7
100
AcDbLine
 10
188.3797769999999
 20
201.3748899999999
 30
0.000000000000000
 11
186.3797769999999
 21
201.3748899999999
 31
0.000000000000000
  0
LINE
  5
184
100
AcDbEntity
  8
1
  6
CONTINUOUS
 62
7
100
AcDbLine
 10
188.3797769999999
 20
199.8998900000000
 30
0.000000000000000
 11
186.3797769999999
 21
199.8998900000000
 31
0.000000000000000
  0
LINE
  5
185
100
AcDbEntity
  8
1
  6
CONTINUOUS
 62
7
100
AcDbLine
 10
186.2797770000000
 20
214.1851439999999
 30
0.000000000000000
 11
185.8797769999999
 21
214.1851439999999
 31
0.000000000000000
  0
ARC
  5
186
100
AcDbEntity
  8
1
  6
CONTINUOUS
 62
7
100
AcDbCircle
 10
187.7797769999999
 20
213.3438160000000
 30
0.000000000000000
 40
0.2000000000000000
100
AcDbArc
 50
270.0000000000000
 51
360.0000000000000
  0
ARC
  5
187
100
AcDbEntity
  8
1
  6
CONTINUOUS
 62
7
100
AcDbCircle
 10
184.8797770000000
 20
214.4841819999999
 30
0.000000000000000
 40
1.000000000000000
100
AcDbArc
 50
0.000000000000000
 51
90.00000000000000
  0
ARC
  5
188
100
AcDbEntity
  8
1
  6
CONTINUOUS
 62
7
100
AcDbCircle
 10
187.7797769999999
 20
216.8248900000000
 30
0.000000000000000
 40
0.2000000000000000
100
AcDbArc
 50
0.000000000000000
 51
90.00000000000000
  0
LINE
  5
189
100
AcDbEntity
  8
1
  6
CONTINUOUS
 62
7
100
AcDbLine
 10
187.7797769999999
 20
213.1438160000000
 30
0.000000000000000
 11
186.2797770000000
 21
213.1438160000000
 31
0.000000000000000
  0
LINE
  5
18A
100
AcDbEntity
  8
1
  6
CONTINUOUS
 62
7
100
AcDbLine
 10
187.9797770000000
 20
216.8248900000000
 30
0.000000000000000
 11
187.9797770000000
 21
213.3438160000000
 31
0.000000000000000
  0
LINE
  5
18B
100
AcDbEntity
  8
1
  6
CONTINUOUS
 62
7
100
AcDbLine
 10
188.3797769999999
 20
215.2676759999999
 30
0.000000000000000
 11
187.9797770000000
 21
215.2676759999999
 31
0.000000000000000
  0
LINE
  5
18C
100
AcDbEntity
  8
1
  6
CONTINUOUS
 62
7
100
AcDbLine
 10
188.3797769999999
 20
213.8248899999999
 30
0.000000000000000
 11
187.9797770000000
 21
213.8248899999999
 31
0.000000000000000
  0
LINE
  5
18D
100
AcDbEntity
  8
1
  6
CONTINUOUS
 62
7
100
AcDbLine
 10
191.3797770000000
 20
200.5248900000000
 30
0.000000000000000
 11
188.3797769999999
 21
200.5248900000000
 31
0.000000000000000
  0
LINE
  5
18E
100
AcDbEntity
  8
1
  6
CONTINUOUS
 62
7
100
AcDbLine
 10
191.3797770000000
 20
204.8680360000000
 30
0.000000000000000
 11
188.3797769999999
 21
204.8680360000000
 31
0.000000000000000
  0
LINE
  5
18F
100
AcDbEntity
  8
1
  6
CONTINUOUS
 62
7
100
AcDbLine
 10
191.3797770000000
 20
206.1817440000000
 30
0.000000000000000
 11
188.3797769999999
 21
206.1817440000000
 31
0.000000000000000
  0
LINE
  5
190
100
AcDbEntity
  8
1
  6
CONTINUOUS
 62
7
100
AcDbLine
 10
191.3797770000000
 20
210.5248899999998
 30
0.000000000000000
 11
188.3797769999999
 21
210.5248899999998
 31
0.000000000000000
  0
LINE
  5
191
100
AcDbEntity
  8
1
  6
CONTINUOUS
 62
7
100
AcDbLine
 10
191.3797770000000
 20
210.5248899999998
 30
0.000000000000000
 11
191.3797770000000
 21
200.5248900000000
 31
0.000000000000000
  0
LINE
  5
192
100
AcDbEntity
  8
1
  6
CONTINUOUS
 62
7
100
AcDbLine
 10
160.1797770000000
 20
228.5248900000000
 30
0.000000000000000
 11
158.6797769999998
 21
225.5248900000000
 31
0.000000000000000
  0
LINE
  5
193
100
AcDbEntity
  8
1
  6
CONTINUOUS
 62
7
100
AcDbLine
 10
166.1797769999998
 20
226.0248900000000
 30
0.000000000000000
 11
166.6797770000000
 21
225.5248900000000
 31
0.000000000000000
  0
LINE
  5
194
100
AcDbEntity
  8
1
  6
CONTINUOUS
 62
7
100
AcDbLine
 10
162.6797770000000
 20
226.0248900000000
 30
0.000000000000000
 11
166.1797769999998
 21
226.0248900000000
 31
0.000000000000000
  0
LINE
  5
195
100
AcDbEntity
  8
4
  6
CENTER
 62
1
100
AcDbLine
 10
160.7931950000000
 20
222.5248899999999
 30
0.000000000000000
 11
169.6797770000000
 21
222.5248899999999
 31
0.000000000000000
  0
LINE
  5
196
100
AcDbEntity
  8
1
  6
CONTINUOUS
 62
7
100
AcDbLine
 10
160.1797770000000
 20
228.5248900000000
 30
0.000000000000000
 11
162.6797770000000
 21
228.5248900000000
 31
0.000000000000000
  0
ARC
  5
197
100
AcDbEntity
  8
1
  6
CONTINUOUS
 62
7
100
AcDbCircle
 10
226.4725059999999
 20
220.4181779999999
 30
0.000000000000000
 40
1.300000000000000
100
AcDbArc
 50
275.0163699999998
 51
344.1353700000000
  0
LINE
  5
198
100
AcDbEntity
  8
1
  6
CONTINUOUS
 62
7
100
AcDbLine
 10
224.4649040000000
 20
227.0248899999999
 30
0.000000000000000
 11
224.4649040000000
 21
218.7248899999999
 31
0.000000000000000
  0
LINE
  5
199
100
AcDbEntity
  8
1
  6
CONTINUOUS
 62
7
100
AcDbLine
 10
225.4649039999999
 20
226.3248899999999
 30
0.000000000000000
 11
225.4649039999999
 21
218.7248899999999
 31
0.000000000000000
  0
LINE
  5
19A
100
AcDbEntity
  8
1
  6
CONTINUOUS
 62
7
100
AcDbLine
 10
219.4649039999999
 20
227.5248900000000
 30
0.000000000000000
 11
219.4649039999999
 21
218.5248899999999
 31
0.000000000000000
  0
LINE
  5
19B
100
AcDbEntity
  8
1
  6
CONTINUOUS
 62
7
100
AcDbLine
 10
223.9649039999999
 20
218.5248899999999
 30
0.000000000000000
 11
219.4649039999999
 21
218.5248899999999
 31
0.000000000000000
  0
LINE
  5
19C
100
AcDbEntity
  8
1
  6
CONTINUOUS
 62
7
100
AcDbLine
 10
247.1188040000000
 20
214.5248899999999
 30
0.000000000000000
 11
247.1188040000000
 21
196.5248899999999
 31
0.000000000000000
  0
LINE
  5
19D
100
AcDbEntity
  8
1
  6
CONTINUOUS
 62
7
100
AcDbLine
 10
248.7188039999999
 20
214.5248899999999
 30
0.000000000000000
 11
248.7188039999999
 21
196.5248899999999
 31
0.000000000000000
  0
LINE
  5
19E
100
AcDbEntity
  8
1
  6
CONTINUOUS
 62
7
100
AcDbLine
 10
247.1188040000000
 20
196.5248899999999
 30
0.000000000000000
 11
248.7188039999999
 21
196.5248899999999
 31
0.000000000000000
  0
LINE
  5
19F
100
AcDbEntity
  8
1
  6
CONTINUOUS
 62
7
100
AcDbLine
 10
226.6003860000000
 20
219.1244830000000
 30
0.000000000000000
 11
225.4649039999999
 21
219.0248899999999
 31
0.000000000000000
  0
LINE
  5
1A0
100
AcDbEntity
  8
1
  6
CONTINUOUS
 62
7
100
AcDbLine
 10
225.4649039999999
 20
218.7248899999999
 30
0.000000000000000
 11
224.4649040000000
 21
218.7248899999999
 31
0.000000000000000
  0
ARC
  5
1A1
100
AcDbEntity
  8
1
  6
CONTINUOUS
 62
7
100
AcDbCircle
 10
223.9649039999999
 20
219.0248899999999
 30
0.000000000000000
 40
0.5000000000000000
100
AcDbArc
 50
270.0000000000000
 51
360.0000000000000
  0
ARC
  5
1A2
100
AcDbEntity
  8
1
  6
CONTINUOUS
 62
7
100
AcDbCircle
 10
246.6777589999999
 20
205.5248900000000
 30
0.000000000000000
 40
7.641045000000000
100
AcDbArc
 50
342.4072529999999
 51
377.5927470000000
  0
ARC
  5
1A3
100
AcDbEntity
  8
1
  6
CONTINUOUS
 62
7
100
AcDbCircle
 10
258.4598500000000
 20
205.5248900000000
 30
0.000000000000000
 40
7.641045000000000
100
AcDbArc
 50
162.4072530000000
 51
197.5927470000000
  0
ARC
  5
1A4
100
AcDbEntity
  8
1
  6
CONTINUOUS
 62
7
100
AcDbCircle
 10
252.2737180000000
 20
202.0613899999999
 30
0.000000000000000
 40
2.045087000000000
100
AcDbArc
 50
334.3862009999999
 51
394.3862010000001
  0
LINE
  5
1A5
100
AcDbEntity
  8
1
  6
CONTINUOUS
 62
7
100
AcDbLine
 10
254.3188039999999
 20
201.5253899999999
 30
0.000000000000000
 11
253.9614250000000
 21
200.9063900000000
 31
0.000000000000000
  0
LINE
  5
1A6
100
AcDbEntity
  8
1
  6
CONTINUOUS
 62
7
100
AcDbLine
 10
250.8188039999998
 20
201.5253899999999
 30
0.000000000000000
 11
251.1761839999998
 21
200.9063900000000
 31
0.000000000000000
  0
LINE
  5
1A7
100
AcDbEntity
  8
1
  6
CONTINUOUS
 62
7
100
AcDbLine
 10
251.1761839999998
 20
200.9063900000000
 30
0.000000000000000
 11
253.9614250000000
 21
200.9063900000000
 31
0.000000000000000
  0
LINE
  5
1A8
100
AcDbEntity
  8
1
  6
CONTINUOUS
 62
7
100
AcDbLine
 10
251.1761839999998
 20
203.2153899999999
 30
0.000000000000000
 11
253.9614250000000
 21
203.2153899999999
 31
0.000000000000000
  0
ARC
  5
1A9
100
AcDbEntity
  8
1
  6
CONTINUOUS
 62
7
100
AcDbCircle
 10
252.8638910000000
 20
202.0613899999999
 30
0.000000000000000
 40
2.045087000000000
100
AcDbArc
 50
145.6137990000000
 51
205.6137990000000
  0
ARC
  5
1AA
100
AcDbEntity
  8
1
  6
CONTINUOUS
 62
7
100
AcDbCircle
 10
252.2737180000000
 20
208.9893899999999
 30
0.000000000000000
 40
2.045087000000000
100
AcDbArc
 50
325.6137989999999
 51
385.6137990000000
  0
LINE
  5
1AB
100
AcDbEntity
  8
1
  6
CONTINUOUS
 62
7
100
AcDbLine
 10
254.3188039999999
 20
209.5253900000000
 30
0.000000000000000
 11
253.9614250000000
 21
210.1443900000000
 31
0.000000000000000
  0
LINE
  5
1AC
100
AcDbEntity
  8
1
  6
CONTINUOUS
 62
7
100
AcDbLine
 10
251.1761839999998
 20
207.8343899999999
 30
0.000000000000000
 11
253.9614250000000
 21
207.8343899999999
 31
0.000000000000000
  0
LINE
  5
1AD
100
AcDbEntity
  8
1
  6
CONTINUOUS
 62
7
100
AcDbLine
 10
251.1761839999998
 20
210.1443900000000
 30
0.000000000000000
 11
253.9614250000000
 21
210.1443900000000
 31
0.000000000000000
  0
ARC
  5
1AE
100
AcDbEntity
  8
1
  6
CONTINUOUS
 62
7
100
AcDbCircle
 10
252.8638910000000
 20
208.9893899999999
 30
0.000000000000000
 40
2.045087000000000
100
AcDbArc
 50
154.3862009999998
 51
214.3862009999998
  0
LINE
  5
1AF
100
AcDbEntity
  8
1
  6
CONTINUOUS
 62
7
100
AcDbLine
 10
250.8188039999998
 20
209.5253900000000
 30
0.000000000000000
 11
251.1761839999998
 21
210.1443900000000
 31
0.000000000000000
  0
LINE
  5
1B0
100
AcDbEntity
  8
1
  6
CONTINUOUS
 62
7
100
AcDbLine
 10
254.3188039999999
 20
209.5253899999999
 30
0.000000000000000
 11
254.3188039999999
 21
201.5253899999999
 31
0.000000000000000
  0
LINE
  5
1B1
100
AcDbEntity
  8
1
  6
CONTINUOUS
 62
7
100
AcDbLine
 10
250.8188039999998
 20
205.5248900000000
 30
0.000000000000000
 11
249.5188039999999
 21
204.2248899999999
 31
0.000000000000000
  0
LINE
  5
1B2
100
AcDbEntity
  8
1
  6
CONTINUOUS
 62
7
100
AcDbLine
 10
250.8188039999998
 20
206.8248899999999
 30
0.000000000000000
 11
249.5188039999999
 21
205.5248900000000
 31
0.000000000000000
  0
LINE
  5
1B3
100
AcDbEntity
  8
1
  6
CONTINUOUS
 62
7
100
AcDbLine
 10
247.1188040000000
 20
214.5248899999999
 30
0.000000000000000
 11
248.7188039999999
 21
214.5248899999999
 31
0.000000000000000
  0
LINE
  5
1B4
100
AcDbEntity
  8
1
  6
CONTINUOUS
 62
7
100
AcDbLine
 10
249.5188039999999
 20
211.5248900000000
 30
0.000000000000000
 11
248.7188039999999
 21
211.5248900000000
 31
0.000000000000000
  0
LINE
  5
1B5
100
AcDbEntity
  8
1
  6
CONTINUOUS
 62
7
100
AcDbLine
 10
249.5188039999999
 20
199.5248899999999
 30
0.000000000000000
 11
248.7188039999999
 21
199.5248899999999
 31
0.000000000000000
  0
LINE
  5
1B6
100
AcDbEntity
  8
1
  6
CONTINUOUS
 62
7
100
AcDbLine
 10
249.5188039999999
 20
211.5248900000000
 30
0.000000000000000
 11
249.5188039999999
 21
199.5248899999999
 31
0.000000000000000
  0
LINE
  5
1B7
100
AcDbEntity
  8
1
  6
CONTINUOUS
 62
7
100
AcDbLine
 10
250.8188039999998
 20
210.1436919999999
 30
0.000000000000000
 11
250.8188039999998
 21
200.9060879999999
 31
0.000000000000000
  0
LINE
  5
1B8
100
AcDbEntity
  8
1
  6
CONTINUOUS
 62
7
100
AcDbLine
 10
250.8188039999998
 20
210.1248899999999
 30
0.000000000000000
 11
250.8188039999998
 21
200.9248900000000
 31
0.000000000000000
  0
LINE
  5
1B9
100
AcDbEntity
  8
1
  6
CONTINUOUS
 62
7
100
AcDbLine
 10
250.8188039999998
 20
210.1248899999999
 30
0.000000000000000
 11
249.5188039999999
 21
210.1248899999999
 31
0.000000000000000
  0
LINE
  5
1BA
100
AcDbEntity
  8
1
  6
CONTINUOUS
 62
7
100
AcDbLine
 10
250.8188039999998
 20
200.9248900000000
 30
0.000000000000000
 11
249.5188039999999
 21
200.9248900000000
 31
0.000000000000000
  0
LINE
  5
1BB
100
AcDbEntity
  8
4
  6
CENTER
 62
1
100
AcDbLine
 10
231.0649040000000
 20
222.5248899999999
 30
0.000000000000000
 11
216.4649040000000
 21
222.5248899999999
 31
0.000000000000000
  0
LINE
  5
1BC
100
AcDbEntity
  8
1
  6
CONTINUOUS
 62
7
100
AcDbLine
 10
223.9649039999999
 20
227.5248900000000
 30
0.000000000000000
 11
219.4649039999999
 21
227.5248900000000
 31
0.000000000000000
  0
ARC
  5
1BD
100
AcDbEntity
  8
1
  6
CONTINUOUS
 62
7
100
AcDbCircle
 10
226.4713020000000
 20
224.6321779999999
 30
0.000000000000000
 40
1.300000000000000
100
AcDbArc
 50
15.89737000000000
 51
85.01636999999998
  0
ARC
  5
1BE
100
AcDbEntity
  8
1
  6
CONTINUOUS
 62
7
100
AcDbCircle
 10
219.0649049999999
 20
222.5230620000000
 30
0.000000000000000
 40
9.000000000000000
100
AcDbArc
 50
344.1353700000000
 51
375.8973700000000
  0
LINE
  5
1BF
100
AcDbEntity
  8
1
  6
CONTINUOUS
 62
7
100
AcDbLine
 10
226.5839319999999
 20
225.9272100000000
 30
0.000000000000000
 11
225.4639040000000
 21
226.0248900000000
 31
0.000000000000000
  0
LINE
  5
1C0
100
AcDbEntity
  8
1
  6
CONTINUOUS
 62
7
100
AcDbLine
 10
225.4649039999999
 20
223.5248899999999
 30
0.000000000000000
 11
224.4649040000000
 21
222.5248899999998
 31
0.000000000000000
  0
LINE
  5
1C1
100
AcDbEntity
  8
1
  6
CONTINUOUS
 62
7
100
AcDbLine
 10
225.4649039999998
 20
222.5248899999999
 30
0.000000000000000
 11
224.4649040000000
 21
221.5248900000000
 31
0.000000000000000
  0
LINE
  5
1C2
100
AcDbEntity
  8
1
  6
CONTINUOUS
 62
7
100
AcDbLine
 10
225.4649039999999
 20
226.3248899999999
 30
0.000000000000000
 11
224.4649040000000
 21
226.3248899999999
 31
0.000000000000000
  0
ARC
  5
1C3
100
AcDbEntity
  8
1
  6
CONTINUOUS
 62
7
100
AcDbCircle
 10
223.9649039999999
 20
227.0248899999999
 30
0.000000000000000
 40
0.5000000000000000
100
AcDbArc
 50
0.000000000000000
 51
90.00000000000000
  0
LINE
  5
1C4
100
AcDbEntity
  8
4
  6
CENTER
 62
1
100
AcDbLine
 10
194.3797769999999
 20
315.1805790000000
 30
0.000000000000000
 11
149.9823639999999
 21
315.1805790000000
 31
0.000000000000000
  0
LINE
  5
1C5
100
AcDbEntity
  8
1
  6
CONTINUOUS
 62
7
100
AcDbLine
 10
186.3797769999999
 20
309.4305790000000
 30
0.000000000000000
 11
186.3797769999999
 21
305.4370790000000
 31
0.000000000000000
  0
LINE
  5
1C6
100
AcDbEntity
  8
1
  6
CONTINUOUS
 62
7
100
AcDbLine
 10
186.2797770000000
 20
309.4305790000000
 30
0.000000000000000
 11
186.2797770000000
 21
305.4305790000000
 31
0.000000000000000
  0
LINE
  5
1C7
100
AcDbEntity
  8
1
  6
CONTINUOUS
 62
7
100
AcDbLine
 10
188.3797769999999
 20
326.4305790000000
 30
0.000000000000000
 11
188.3797769999999
 21
305.4370790000000
 31
0.000000000000000
  0
LINE
  5
1C8
100
AcDbEntity
  8
1
  6
CONTINUOUS
 62
7
100
AcDbLine
 10
185.8797769999999
 20
304.6805790000000
 30
0.000000000000000
 11
185.8797769999999
 21
309.4305790000000
 31
0.000000000000000
  0
ARC
  5
1C9
100
AcDbEntity
  8
1
  6
CONTINUOUS
 62
7
100
AcDbCircle
 10
164.9374220000000
 20
315.1805790000000
 30
0.000000000000000
 40
11.95505800000000
100
AcDbArc
 50
127.3784749999999
 51
232.6215250000000
  0
LINE
  5
1CA
100
AcDbEntity
  8
1
  6
CONTINUOUS
 62
7
100
AcDbLine
 10
162.6797770000000
 20
301.1805790000000
 30
0.000000000000000
 11
162.6797770000000
 21
329.1805790000000
 31
0.000000000000000
  0
LINE
  5
1CB
100
AcDbEntity
  8
1
  6
CONTINUOUS
 62
7
100
AcDbLine
 10
161.6797769999998
 20
301.1805790000000
 30
0.000000000000000
 11
161.6797769999998
 21
329.1805790000000
 31
0.000000000000000
  0
LINE
  5
1CC
100
AcDbEntity
  8
1
  6
CONTINUOUS
 62
7
100
AcDbLine
 10
160.1797770000000
 20
301.1805790000000
 30
0.000000000000000
 11
160.1797770000000
 21
329.1805790000000
 31
0.000000000000000
  0
LINE
  5
1CD
100
AcDbEntity
  8
1
  6
CONTINUOUS
 62
7
100
AcDbLine
 10
158.6797769999998
 20
304.1805790000000
 30
0.000000000000000
 11
158.6797769999998
 21
326.1805790000000
 31
0.000000000000000
  0
LINE
  5
1CE
100
AcDbEntity
  8
1
  6
CONTINUOUS
 62
7
100
AcDbLine
 10
158.6797769999998
 20
304.1805790000000
 30
0.000000000000000
 11
160.1797770000000
 21
301.1805790000000
 31
0.000000000000000
  0
LINE
  5
1CF
100
AcDbEntity
  8
1
  6
CONTINUOUS
 62
7
100
AcDbLine
 10
158.6797769999998
 20
305.6805790000000
 30
0.000000000000000
 11
157.6797769999998
 21
305.6805790000000
 31
0.000000000000000
  0
LINE
  5
1D0
100
AcDbEntity
  8
1
  6
CONTINUOUS
 62
7
100
AcDbLine
 10
184.8797770000000
 20
303.6805790000000
 30
0.000000000000000
 11
162.6797770000000
 21
303.6805790000000
 31
0.000000000000000
  0
LINE
  5
1D1
100
AcDbEntity
  8
1
  6
CONTINUOUS
 62
7
100
AcDbLine
 10
162.6797770000000
 20
301.1805790000000
 30
0.000000000000000
 11
160.1797770000000
 21
301.1805790000000
 31
0.000000000000000
  0
LINE
  5
1D2
100
AcDbEntity
  8
1
  6
CONTINUOUS
 62
7
100
AcDbLine
 10
188.3797769999999
 20
305.4370790000000
 30
0.000000000000000
 11
186.3797769999999
 21
305.4370790000000
 31
0.000000000000000
  0
LINE
  5
1D3
100
AcDbEntity
  8
1
  6
CONTINUOUS
 62
7
100
AcDbLine
 10
188.3797769999999
 20
307.3863789999998
 30
0.000000000000000
 11
186.3797769999999
 21
307.3863789999998
 31
0.000000000000000
  0
ARC
  5
1D4
100
AcDbEntity
  8
1
  6
CONTINUOUS
 62
7
100
AcDbCircle
 10
186.0235270000000
 20
305.4305790000000
 30
0.000000000000000
 40
0.2562500000000000
100
AcDbArc
 50
282.6803829999999
 51
360.0000000000000
  0
LINE
  5
1D5
100
AcDbEntity
  8
1
  6
CONTINUOUS
 62
7
100
AcDbLine
 10
186.0797769999998
 20
305.1805790000000
 30
0.000000000000000
 11
185.8797769999999
 21
305.1805790000000
 31
0.000000000000000
  0
ARC
  5
1D6
100
AcDbEntity
  8
1
  6
CONTINUOUS
 62
7
100
AcDbCircle
 10
184.8797770000000
 20
304.6805790000000
 30
0.000000000000000
 40
1.000000000000000
100
AcDbArc
 50
270.0000000000000
 51
360.0000000000000
  0
LINE
  5
1D7
100
AcDbEntity
  8
1
  6
CONTINUOUS
 62
7
100
AcDbLine
 10
158.6797769999998
 20
326.1805790000000
 30
0.000000000000000
 11
160.1797770000000
 21
329.1805790000000
 31
0.000000000000000
  0
LINE
  5
1D8
100
AcDbEntity
  8
1
  6
CONTINUOUS
 62
7
100
AcDbLine
 10
158.6797769999998
 20
324.6805790000000
 30
0.000000000000000
 11
157.6797769999998
 21
324.6805790000000
 31
0.000000000000000
  0
LINE
  5
1D9
100
AcDbEntity
  8
1
  6
CONTINUOUS
 62
7
100
AcDbLine
 10
184.8797770000000
 20
326.6805790000000
 30
0.000000000000000
 11
162.6797770000000
 21
326.6805790000000
 31
0.000000000000000
  0
LINE
  5
1DA
100
AcDbEntity
  8
1
  6
CONTINUOUS
 62
7
100
AcDbLine
 10
187.9797770000000
 20
309.4305790000000
 30
0.000000000000000
 11
162.6797770000000
 21
309.4305790000000
 31
0.000000000000000
  0
LINE
  5
1DB
100
AcDbEntity
  8
1
  6
CONTINUOUS
 62
7
100
AcDbLine
 10
187.9797770000000
 20
320.9305790000000
 30
0.000000000000000
 11
162.6797770000000
 21
320.9305790000000
 31
0.000000000000000
  0
LINE
  5
1DC
100
AcDbEntity
  8
1
  6
CONTINUOUS
 62
7
100
AcDbLine
 10
166.1797769999998
 20
318.6805790000000
 30
0.000000000000000
 11
166.1797769999998
 21
311.6805790000000
 31
0.000000000000000
  0
LINE
  5
1DD
100
AcDbEntity
  8
1
  6
CONTINUOUS
 62
7
100
AcDbLine
 10
166.6797770000000
 20
318.1805790000000
 30
0.000000000000000
 11
166.6797770000000
 21
312.1805790000000
 31
0.000000000000000
  0
LINE
  5
1DE
100
AcDbEntity
  8
1
  6
CONTINUOUS
 62
7
100
AcDbLine
 10
166.1797769999997
 20
318.6805789999999
 30
0.000000000000000
 11
166.6797769999999
 21
318.1805789999999
 31
0.000000000000000
  0
LINE
  5
1DF
100
AcDbEntity
  8
1
  6
CONTINUOUS
 62
7
100
AcDbLine
 10
166.1797769999998
 20
311.6805790000000
 30
0.000000000000000
 11
166.6797769999999
 21
312.1805790000000
 31
0.000000000000000
  0
LINE
  5
1E0
100
AcDbEntity
  8
1
  6
CONTINUOUS
 62
7
100
AcDbLine
 10
162.6797770000000
 20
311.6805790000000
 30
0.000000000000000
 11
166.1797769999998
 21
311.6805790000000
 31
0.000000000000000
  0
LINE
  5
1E1
100
AcDbEntity
  8
1
  6
CONTINUOUS
 62
7
100
AcDbLine
 10
162.6797770000000
 20
318.6805790000000
 30
0.000000000000000
 11
166.1797769999998
 21
318.6805790000000
 31
0.000000000000000
  0
LINE
  5
1E2
100
AcDbEntity
  8
1
  6
CONTINUOUS
 62
7
100
AcDbLine
 10
162.6797770000000
 20
329.1805790000000
 30
0.000000000000000
 11
160.1797770000000
 21
329.1805790000000
 31
0.000000000000000
  0
LINE
  5
1E3
100
AcDbEntity
  8
1
  6
CONTINUOUS
 62
7
100
AcDbLine
 10
188.3797769999999
 20
326.4305790000000
 30
0.000000000000000
 11
186.3797769999999
 21
326.4305790000000
 31
0.000000000000000
  0
LINE
  5
1E4
100
AcDbEntity
  8
1
  6
CONTINUOUS
 62
7
100
AcDbLine
 10
191.3797770000000
 20
320.1805790000000
 30
0.000000000000000
 11
191.3797770000000
 21
310.1805790000000
 31
0.000000000000000
  0
LINE
  5
1E5
100
AcDbEntity
  8
1
  6
CONTINUOUS
 62
7
100
AcDbLine
 10
191.3797770000000
 20
320.1805790000000
 30
0.000000000000000
 11
188.3797769999999
 21
320.1805790000000
 31
0.000000000000000
  0
LINE
  5
1E6
100
AcDbEntity
  8
1
  6
CONTINUOUS
 62
7
100
AcDbLine
 10
191.3797770000000
 20
315.8374330000000
 30
0.000000000000000
 11
188.3797769999999
 21
315.8374330000000
 31
0.000000000000000
  0
LINE
  5
1E7
100
AcDbEntity
  8
1
  6
CONTINUOUS
 62
7
100
AcDbLine
 10
191.3797770000000
 20
314.5237250000000
 30
0.000000000000000
 11
188.3797769999999
 21
314.5237250000000
 31
0.000000000000000
  0
LINE
  5
1E8
100
AcDbEntity
  8
1
  6
CONTINUOUS
 62
7
100
AcDbLine
 10
191.3797770000000
 20
310.1805790000000
 30
0.000000000000000
 11
188.3797769999999
 21
310.1805790000000
 31
0.000000000000000
  0
LINE
  5
1E9
100
AcDbEntity
  8
1
  6
CONTINUOUS
 62
7
100
AcDbLine
 10
186.3797769999999
 20
326.4305790000000
 30
0.000000000000000
 11
186.3797769999999
 21
320.9305790000000
 31
0.000000000000000
  0
LINE
  5
1EA
100
AcDbEntity
  8
1
  6
CONTINUOUS
 62
7
100
AcDbLine
 10
186.2797770000000
 20
323.8408329999999
 30
0.000000000000000
 11
186.2797770000000
 21
320.9305790000000
 31
0.000000000000000
  0
LINE
  5
1EB
100
AcDbEntity
  8
1
  6
CONTINUOUS
 62
7
100
AcDbLine
 10
186.2797770000000
 20
323.8408329999999
 30
0.000000000000000
 11
185.8797769999999
 21
323.8408329999999
 31
0.000000000000000
  0
LINE
  5
1EC
100
AcDbEntity
  8
1
  6
CONTINUOUS
 62
7
100
AcDbLine
 10
186.2797770000000
 20
309.2805789999998
 30
0.000000000000000
 11
186.3797769999999
 21
309.2805789999998
 31
0.000000000000000
  0
LINE
  5
1ED
100
AcDbEntity
  8
1
  6
CONTINUOUS
 62
7
100
AcDbLine
 10
186.2797770000000
 20
321.0805790000000
 30
0.000000000000000
 11
186.3797769999999
 21
321.0805790000000
 31
0.000000000000000
  0
ARC
  5
1EE
100
AcDbEntity
  8
1
  6
CONTINUOUS
 62
7
100
AcDbCircle
 10
184.8797770000000
 20
325.6805790000000
 30
0.000000000000000
 40
1.000000000000000
100
AcDbArc
 50
0.000000000000000
 51
90.00000000000000
  0
LINE
  5
1EF
100
AcDbEntity
  8
1
  6
CONTINUOUS
 62
7
100
AcDbLine
 10
185.8797769999999
 20
320.9305790000000
 30
0.000000000000000
 11
185.8797769999999
 21
325.6805790000000
 31
0.000000000000000
  0
LINE
  5
1F0
100
AcDbEntity
  8
1
  6
CONTINUOUS
 62
7
100
AcDbLine
 10
187.9797770000000
 20
309.4305790000000
 30
0.000000000000000
 11
187.9797770000000
 21
320.9305790000000
 31
0.000000000000000
  0
LINE
  5
1F1
100
AcDbEntity
  8
1
  6
CONTINUOUS
 62
7
100
AcDbLine
 10
248.7188039999999
 20
324.1805790000000
 30
0.000000000000000
 11
248.7188039999999
 21
306.1805790000000
 31
0.000000000000000
  0
LINE
  5
1F2
100
AcDbEntity
  8
1
  6
CONTINUOUS
 62
7
100
AcDbLine
 10
247.1188040000000
 20
324.1805790000000
 30
0.000000000000000
 11
247.1188040000000
 21
306.1805790000000
 31
0.000000000000000
  0
LINE
  5
1F3
100
AcDbEntity
  8
1
  6
CONTINUOUS
 62
7
100
AcDbLine
 10
247.1188040000000
 20
306.1805790000000
 30
0.000000000000000
 11
248.7188039999999
 21
306.1805790000000
 31
0.000000000000000
  0
LINE
  5
1F4
100
AcDbEntity
  8
1
  6
CONTINUOUS
 62
7
100
AcDbLine
 10
223.9649039999999
 20
322.1805790000000
 30
0.000000000000000
 11
219.4649039999999
 21
322.1805790000000
 31
0.000000000000000
  0
LINE
  5
1F5
100
AcDbEntity
  8
1
  6
CONTINUOUS
 62
7
100
AcDbLine
 10
223.9649039999999
 20
308.1805790000000
 30
0.000000000000000
 11
219.4649039999999
 21
308.1805790000000
 31
0.000000000000000
  0
LINE
  5
1F6
100
AcDbEntity
  8
4
  6
CENTER
 62
1
100
AcDbLine
 10
231.0649040000000
 20
315.1805790000000
 30
0.000000000000000
 11
216.4649040000000
 21
315.1805790000000
 31
0.000000000000000
  0
LINE
  5
1F7
100
AcDbEntity
  8
1
  6
CONTINUOUS
 62
7
100
AcDbLine
 10
219.4649039999999
 20
322.1805790000000
 30
0.000000000000000
 11
219.4649039999999
 21
308.1805790000000
 31
0.000000000000000
  0
ARC
  5
1F8
100
AcDbEntity
  8
1
  6
CONTINUOUS
 62
7
100
AcDbCircle
 10
223.9649039999999
 20
308.6805790000000
 30
0.000000000000000
 40
0.5000000000000000
100
AcDbArc
 50
270.0000000000000
 51
360.0000000000000
  0
ARC
  5
1F9
100
AcDbEntity
  8
1
  6
CONTINUOUS
 62
7
100
AcDbCircle
 10
223.9649039999999
 20
321.6805790000000
 30
0.000000000000000
 40
0.5000000000000000
100
AcDbArc
 50
0.000000000000000
 51
90.00000000000000
  0
LINE
  5
1FA
100
AcDbEntity
  8
1
  6
CONTINUOUS
 62
7
100
AcDbLine
 10
225.4649039999999
 20
318.9805789999998
 30
0.000000000000000
 11
225.4649039999999
 21
311.3805790000000
 31
0.000000000000000
  0
LINE
  5
1FB
100
AcDbEntity
  8
1
  6
CONTINUOUS
 62
7
100
AcDbLine
 10
225.4649039999999
 20
318.9805789999998
 30
0.000000000000000
 11
224.4649040000000
 21
318.9805789999998
 31
0.000000000000000
  0
LINE
  5
1FC
100
AcDbEntity
  8
1
  6
CONTINUOUS
 62
7
100
AcDbLine
 10
225.4649039999999
 20
311.3805790000000
 30
0.000000000000000
 11
224.4649040000000
 21
311.3805790000000
 31
0.000000000000000
  0
LINE
  5
1FD
100
AcDbEntity
  8
1
  6
CONTINUOUS
 62
7
100
AcDbLine
 10
224.4649040000000
 20
321.6805790000000
 30
0.000000000000000
 11
224.4649040000000
 21
308.6805790000000
 31
0.000000000000000
  0
LINE
  5
1FE
100
AcDbEntity
  8
1
  6
CONTINUOUS
 62
7
100
AcDbLine
 10
225.4649039999999
 20
315.1805790000000
 30
0.000000000000000
 11
224.4649040000000
 21
314.1805790000000
 31
0.000000000000000
  0
LINE
  5
1FF
100
AcDbEntity
  8
1
  6
CONTINUOUS
 62
7
100
AcDbLine
 10
225.4649039999999
 20
316.1805790000000
 30
0.000000000000000
 11
224.4649040000000
 21
315.1805790000000
 31
0.000000000000000
  0
LINE
  5
200
100
AcDbEntity
  8
1
  6
CONTINUOUS
 62
7
100
AcDbLine
 10
226.5839319999999
 20
318.5828990000001
 30
0.000000000000000
 11
225.4639040000000
 21
318.6805790000001
 31
0.000000000000000
  0
LINE
  5
201
100
AcDbEntity
  8
1
  6
CONTINUOUS
 62
7
100
AcDbLine
 10
226.6003860000000
 20
311.7801720000001
 30
0.000000000000000
 11
225.4649040000000
 21
311.6805790000001
 31
0.000000000000000
  0
ARC
  5
202
100
AcDbEntity
  8
1
  6
CONTINUOUS
 62
7
100
AcDbCircle
 10
226.4725059999999
 20
313.0738669999999
 30
0.000000000000000
 40
1.300000000000000
100
AcDbArc
 50
275.0163699999998
 51
344.1353700000000
  0
ARC
  5
203
100
AcDbEntity
  8
1
  6
CONTINUOUS
 62
7
100
AcDbCircle
 10
219.0649049999999
 20
315.1787499999999
 30
0.000000000000000
 40
9.000000000000000
100
AcDbArc
 50
344.1353700000000
 51
375.8973700000000
  0
ARC
  5
204
100
AcDbEntity
  8
1
  6
CONTINUOUS
 62
7
100
AcDbCircle
 10
226.4713020000000
 20
317.2878660000000
 30
0.000000000000000
 40
1.300000000000000
100
AcDbArc
 50
15.89737000000000
 51
85.01636999999998
  0
LINE
  5
205
100
AcDbEntity
  8
1
  6
CONTINUOUS
 62
7
100
AcDbLine
 10
254.3188039999999
 20
319.1805790000000
 30
0.000000000000000
 11
250.8188039999998
 21
319.1805790000000
 31
0.000000000000000
  0
ARC
  5
206
100
AcDbEntity
  8
1
  6
CONTINUOUS
 62
7
100
AcDbCircle
 10
248.5438279999999
 20
313.1805790000000
 30
0.000000000000000
 40
5.774976999999998
100
AcDbArc
 50
339.7375000000001
 51
380.2625000000000
  0
ARC
  5
207
100
AcDbEntity
  8
1
  6
CONTINUOUS
 62
7
100
AcDbCircle
 10
256.5937809999999
 20
313.1805790000000
 30
0.000000000000000
 40
5.774976999999998
100
AcDbArc
 50
159.7375000000000
 51
200.2625000000000
  0
LINE
  5
208
100
AcDbEntity
  8
1
  6
CONTINUOUS
 62
7
100
AcDbLine
 10
254.3188039999999
 20
311.1805790000000
 30
0.000000000000000
 11
250.8188039999998
 21
311.1805790000000
 31
0.000000000000000
  0
LINE
  5
209
100
AcDbEntity
  8
1
  6
CONTINUOUS
 62
7
100
AcDbLine
 10
251.1761839999998
 20
315.1805790000000
 30
0.000000000000000
 11
253.9614250000000
 21
315.1805790000000
 31
0.000000000000000
  0
LINE
  5
20A
100
AcDbEntity
  8
1
  6
CONTINUOUS
 62
7
100
AcDbLine
 10
254.3188039999999
 20
319.1805790000000
 30
0.000000000000000
 11
254.3188039999999
 21
311.1805790000000
 31
0.000000000000000
  0
ARC
  5
20B
100
AcDbEntity
  8
1
  6
CONTINUOUS
 62
7
100
AcDbCircle
 10
256.5937809999999
 20
317.1805790000000
 30
0.000000000000000
 40
5.774976999999998
100
AcDbArc
 50
159.7375000000000
 51
200.2625000000000
  0
ARC
  5
20C
100
AcDbEntity
  8
1
  6
CONTINUOUS
 62
7
100
AcDbCircle
 10
248.5438279999999
 20
317.1805790000000
 30
0.000000000000000
 40
5.774976999999998
100
AcDbArc
 50
339.7375000000001
 51
380.2625000000000
  0
LINE
  5
20D
100
AcDbEntity
  8
1
  6
CONTINUOUS
 62
7
100
AcDbLine
 10
250.8188039999998
 20
310.5805790000000
 30
0.000000000000000
 11
249.5188039999999
 21
310.5805790000000
 31
0.000000000000000
  0
LINE
  5
20E
100
AcDbEntity
  8
1
  6
CONTINUOUS
 62
7
100
AcDbLine
 10
250.8188039999998
 20
319.7805789999998
 30
0.000000000000000
 11
249.5188039999999
 21
319.7805789999998
 31
0.000000000000000
  0
LINE
  5
20F
100
AcDbEntity
  8
1
  6
CONTINUOUS
 62
7
100
AcDbLine
 10
250.8188039999998
 20
319.7805789999998
 30
0.000000000000000
 11
250.8188039999998
 21
310.5805790000000
 31
0.000000000000000
  0
LINE
  5
210
100
AcDbEntity
  8
1
  6
CONTINUOUS
 62
7
100
AcDbLine
 10
250.8188039999998
 20
319.7805789999998
 30
0.000000000000000
 11
250.8188039999998
 21
310.5617770000000
 31
0.000000000000000
  0
LINE
  5
211
100
AcDbEntity
  8
1
  6
CONTINUOUS
 62
7
100
AcDbLine
 10
249.5188039999999
 20
321.1805790000000
 30
0.000000000000000
 11
249.5188039999999
 21
309.1805790000000
 31
0.000000000000000
  0
LINE
  5
212
100
AcDbEntity
  8
1
  6
CONTINUOUS
 62
7
100
AcDbLine
 10
249.5188039999999
 20
309.1805790000000
 30
0.000000000000000
 11
248.7188039999999
 21
309.1805790000000
 31
0.000000000000000
  0
LINE
  5
213
100
AcDbEntity
  8
1
  6
CONTINUOUS
 62
7
100
AcDbLine
 10
249.5188039999999
 20
321.1805790000000
 30
0.000000000000000
 11
248.7188039999999
 21
321.1805790000000
 31
0.000000000000000
  0
LINE
  5
214
100
AcDbEntity
  8
1
  6
CONTINUOUS
 62
7
100
AcDbLine
 10
250.8188039999997
 20
316.4805789999998
 30
0.000000000000000
 11
249.5188039999999
 21
315.1805790000000
 31
0.000000000000000
  0
LINE
  5
215
100
AcDbEntity
  8
1
  6
CONTINUOUS
 62
7
100
AcDbLine
 10
250.8188039999998
 20
315.1805790000000
 30
0.000000000000000
 11
249.5188039999999
 21
313.8805790000000
 31
0.000000000000000
  0
LINE
  5
216
100
AcDbEntity
  8
1
  6
CONTINUOUS
 62
7
100
AcDbLine
 10
247.1188040000000
 20
324.1805790000000
 30
0.000000000000000
 11
248.7188039999999
 21
324.1805790000000
 31
0.000000000000000
  0
LINE
  5
217
100
AcDbEntity
  8
1
  6
CONTINUOUS
 62
7
100
AcDbLine
 10
382.2128909999999
 20
223.5248900000000
 30
0.000000000000000
 11
382.2128909999999
 21
149.5248899999999
 31
0.000000000000000
  0
LINE
  5
218
100
AcDbEntity
  8
1
  6
CONTINUOUS
 62
7
100
AcDbLine
 10
354.2128910000000
 20
223.5248900000000
 30
0.000000000000000
 11
354.2128910000000
 21
149.5248899999999
 31
0.000000000000000
  0
LINE
  5
219
100
AcDbEntity
  8
1
  6
CONTINUOUS
 62
7
100
AcDbLine
 10
379.7128910000000
 20
214.0248900000000
 30
0.000000000000000
 11
379.7128910000000
 21
159.0248899999999
 31
0.000000000000000
  0
LINE
  5
21A
100
AcDbEntity
  8
1
  6
CONTINUOUS
 62
7
100
AcDbLine
 10
356.7128910000000
 20
214.0248900000000
 30
0.000000000000000
 11
356.7128910000000
 21
159.0248899999999
 31
0.000000000000000
  0
LINE
  5
21B
100
AcDbEntity
  8
4
  6
CENTER
 62
1
100
AcDbLine
 10
368.2128910000000
 20
231.5248899999999
 30
0.000000000000000
 11
368.2128910000000
 21
141.5248899999999
 31
0.000000000000000
  0
ARC
  5
21C
100
AcDbEntity
  8
1
  6
CONTINUOUS
 62
7
100
AcDbCircle
 10
377.2128910000000
 20
149.5248899999999
 30
0.000000000000000
 40
5.000000000000000
100
AcDbArc
 50
270.0000000000000
 51
360.0000000000000
  0
LINE
  5
21D
100
AcDbEntity
  8
1
  6
CONTINUOUS
 62
7
100
AcDbLine
 10
372.4128909999999
 20
154.5248899999999
 30
0.000000000000000
 11
373.4050759999997
 21
153.8783239999998
 31
0.000000000000000
  0
LINE
  5
21E
100
AcDbEntity
  8
1
  6
CONTINUOUS
 62
7
100
AcDbLine
 10
373.4050759999998
 20
153.8783239999998
 30
0.000000000000000
 11
374.2061239999999
 21
153.1083109999999
 31
0.000000000000000
  0
LINE
  5
21F
100
AcDbEntity
  8
1
  6
CONTINUOUS
 62
7
100
AcDbLine
 10
374.2061239999999
 20
153.1083109999999
 30
0.000000000000000
 11
374.7865479999999
 21
152.2431949999998
 31
0.000000000000000
  0
LINE
  5
220
100
AcDbEntity
  8
1
  6
CONTINUOUS
 62
7
100
AcDbLine
 10
374.7865480000000
 20
152.2431949999998
 30
0.000000000000000
 11
375.1249800000001
 21
151.3148250000000
 31
0.000000000000000
  0
LINE
  5
221
100
AcDbEntity
  8
1
  6
CONTINUOUS
 62
7
100
AcDbLine
 10
375.1249799999999
 20
151.3148250000000
 30
0.000000000000000
 11
375.2089609999999
 21
150.3573759999999
 31
0.000000000000000
  0
LINE
  5
222
100
AcDbEntity
  8
1
  6
CONTINUOUS
 62
7
100
AcDbLine
 10
375.2089610000000
 20
150.3573759999999
 30
0.000000000000000
 11
375.0354019999999
 21
149.4060930000000
 31
0.000000000000000
  0
LINE
  5
223
100
AcDbEntity
  8
1
  6
CONTINUOUS
 62
7
100
AcDbLine
 10
375.0354019999999
 20
149.4060929999999
 30
0.000000000000000
 11
374.6106899999999
 21
148.4959949999999
 31
0.000000000000000
  0
LINE
  5
224
100
AcDbEntity
  8
1
  6
CONTINUOUS
 62
7
100
AcDbLine
 10
374.6106900000001
 20
148.4959950000000
 30
0.000000000000000
 11
373.9504600000001
 21
147.6605860000001
 31
0.000000000000000
  0
LINE
  5
225
100
AcDbEntity
  8
1
  6
CONTINUOUS
 62
7
100
AcDbLine
 10
373.9504600000000
 20
147.6605860000000
 30
0.000000000000000
 11
373.0790169999999
 21
146.9306190000000
 31
0.000000000000000
  0
LINE
  5
226
100
AcDbEntity
  8
1
  6
CONTINUOUS
 62
7
100
AcDbLine
 10
373.0790169999998
 20
146.9306190000000
 30
0.000000000000000
 11
372.0284399999999
 21
146.3329650000000
 31
0.000000000000000
  0
LINE
  5
227
100
AcDbEntity
  8
1
  6
CONTINUOUS
 62
7
100
AcDbLine
 10
372.0284399999999
 20
146.3329650000000
 30
0.000000000000000
 11
370.8374039999998
 21
145.8896259999999
 31
0.000000000000000
  0
LINE
  5
228
100
AcDbEntity
  8
1
  6
CONTINUOUS
 62
7
100
AcDbLine
 10
370.8374039999998
 20
145.8896259999999
 30
0.000000000000000
 11
369.5497540000001
 21
145.6169209999998
 31
0.000000000000000
  0
LINE
  5
229
100
AcDbEntity
  8
1
  6
CONTINUOUS
 62
7
100
AcDbLine
 10
369.5497540000000
 20
145.6169209999998
 30
0.000000000000000
 11
368.2128910000000
 21
145.5248899999999
 31
0.000000000000000
  0
LINE
  5
22A
100
AcDbEntity
  8
1
  6
CONTINUOUS
 62
7
100
AcDbLine
 10
368.2128910000001
 20
145.5248899999999
 30
0.000000000000000
 11
366.8760279999999
 21
145.6169209999998
 31
0.000000000000000
  0
LINE
  5
22B
100
AcDbEntity
  8
1
  6
CONTINUOUS
 62
7
100
AcDbLine
 10
366.8760279999998
 20
145.6169209999998
 30
0.000000000000000
 11
365.5883779999999
 21
145.8896259999999
 31
0.000000000000000
  0
LINE
  5
22C
100
AcDbEntity
  8
1
  6
CONTINUOUS
 62
7
100
AcDbLine
 10
365.5883780000000
 20
145.8896259999999
 30
0.000000000000000
 11
364.3973420000001
 21
146.3329650000000
 31
0.000000000000000
  0
LINE
  5
22D
100
AcDbEntity
  8
1
  6
CONTINUOUS
 62
7
100
AcDbLine
 10
364.3973420000000
 20
146.3329650000000
 30
0.000000000000000
 11
363.3467659999999
 21
146.9306190000000
 31
0.000000000000000
  0
LINE
  5
22E
100
AcDbEntity
  8
1
  6
CONTINUOUS
 62
7
100
AcDbLine
 10
363.3467659999997
 20
146.9306190000000
 30
0.000000000000000
 11
362.4753220000000
 21
147.6605860000000
 31
0.000000000000000
  0
LINE
  5
22F
100
AcDbEntity
  8
1
  6
CONTINUOUS
 62
7
100
AcDbLine
 10
362.4753220000000
 20
147.6605860000000
 30
0.000000000000000
 11
361.8150929999999
 21
148.4959949999999
 31
0.000000000000000
  0
LINE
  5
230
100
AcDbEntity
  8
1
  6
CONTINUOUS
 62
7
100
AcDbLine
 10
361.8150930000001
 20
148.4959949999999
 30
0.000000000000000
 11
361.3903800000001
 21
149.4060930000000
 31
0.000000000000000
  0
LINE
  5
231
100
AcDbEntity
  8
1
  6
CONTINUOUS
 62
7
100
AcDbLine
 10
361.3903800000000
 20
149.4060930000000
 30
0.000000000000000
 11
361.2168210000000
 21
150.3573759999999
 31
0.000000000000000
  0
LINE
  5
232
100
AcDbEntity
  8
1
  6
CONTINUOUS
 62
7
100
AcDbLine
 10
361.2168210000000
 20
150.3573759999999
 30
0.000000000000000
 11
361.3008029999999
 21
151.3148250000000
 31
0.000000000000000
  0
LINE
  5
233
100
AcDbEntity
  8
1
  6
CONTINUOUS
 62
7
100
AcDbLine
 10
361.3008029999999
 20
151.3148250000000
 30
0.000000000000000
 11
361.6392349999999
 21
152.2431949999997
 31
0.000000000000000
  0
LINE
  5
234
100
AcDbEntity
  8
1
  6
CONTINUOUS
 62
7
100
AcDbLine
 10
361.6392350000000
 20
152.2431949999998
 30
0.000000000000000
 11
362.2196580000000
 21
153.1083109999999
 31
0.000000000000000
  0
LINE
  5
235
100
AcDbEntity
  8
1
  6
CONTINUOUS
 62
7
100
AcDbLine
 10
362.2196580000000
 20
153.1083110000000
 30
0.000000000000000
 11
363.0207060000000
 21
153.8783239999998
 31
0.000000000000000
  0
LINE
  5
236
100
AcDbEntity
  8
1
  6
CONTINUOUS
 62
7
100
AcDbLine
 10
363.0207060000000
 20
153.8783239999998
 30
0.000000000000000
 11
364.0128910000000
 21
154.5248899999999
 31
0.000000000000000
  0
CIRCLE
  5
237
100
AcDbEntity
  8
1
  6
CONTINUOUS
 62
7
100
AcDbCircle
 10
368.2128910000000
 20
150.5248899999999
 30
0.000000000000000
 40
3.799999999999998
  0
CIRCLE
  5
238
100
AcDbEntity
  8
1
  6
CONTINUOUS
 62
7
100
AcDbCircle
 10
368.2128910000000
 20
150.5248899999999
 30
0.000000000000000
 40
3.500000000000000
  0
ARC
  5
239
100
AcDbEntity
  8
1
  6
CONTINUOUS
 62
7
100
AcDbCircle
 10
368.2118909999999
 20
150.5248899999999
 30
0.000000000000000
 40
2.100000000000000
100
AcDbArc
 50
213.4630000000000
 51
236.5369999999999
  0
ARC
  5
23A
100
AcDbEntity
  8
1
  6
CONTINUOUS
 62
7
100
AcDbCircle
 10
368.2118909999999
 20
150.5248899999999
 30
0.000000000000000
 40
2.100000000000000
100
AcDbArc
 50
123.4629999999998
 51
146.5370000000000
  0
LINE
  5
23B
100
AcDbEntity
  8
1
  6
CONTINUOUS
 62
7
100
AcDbLine
 10
367.0713279999999
 20
149.9995099999999
 30
0.000000000000000
 11
366.4603879999999
 21
149.3673570000000
 31
0.000000000000000
  0
LINE
  5
23C
100
AcDbEntity
  8
1
  6
CONTINUOUS
 62
7
100
AcDbLine
 10
367.0713280000000
 20
151.0502710000000
 30
0.000000000000000
 11
366.4603879999999
 21
151.6824240000000
 31
0.000000000000000
  0
LINE
  5
23D
100
AcDbEntity
  8
4
  6
CENTER
 62
1
100
AcDbLine
 10
361.2128910000000
 20
150.5248899999999
 30
0.000000000000000
 11
375.2128910000000
 21
150.5248899999999
 31
0.000000000000000
  0
LINE
  5
23E
100
AcDbEntity
  8
1
  6
CONTINUOUS
 62
7
100
AcDbLine
 10
377.2128910000000
 20
144.5248899999999
 30
0.000000000000000
 11
359.2128910000000
 21
144.5248899999999
 31
0.000000000000000
  0
ARC
  5
23F
100
AcDbEntity
  8
1
  6
CONTINUOUS
 62
7
100
AcDbCircle
 10
359.2128910000000
 20
149.5248899999999
 30
0.000000000000000
 40
5.000000000000000
100
AcDbArc
 50
180.0000000000000
 51
270.0000000000000
  0
ARC
  5
240
100
AcDbEntity
  8
1
  6
CONTINUOUS
 62
7
100
AcDbCircle
 10
368.2118909999999
 20
150.5248899999999
 30
0.000000000000000
 40
2.100000000000000
100
AcDbArc
 50
303.4629999999999
 51
326.5369999999998
  0
ARC
  5
241
100
AcDbEntity
  8
1
  6
CONTINUOUS
 62
7
100
AcDbCircle
 10
368.2118909999999
 20
150.5248899999999
 30
0.000000000000000
 40
2.100000000000000
100
AcDbArc
 50
33.46300000000000
 51
56.53700000000001
  0
LINE
  5
242
100
AcDbEntity
  8
1
  6
CONTINUOUS
 62
7
100
AcDbLine
 10
368.2125980000000
 20
149.5752460000000
 30
0.000000000000000
 11
368.7372710000000
 21
149.3843270000000
 31
0.000000000000000
  0
LINE
  5
243
100
AcDbEntity
  8
1
  6
CONTINUOUS
 62
7
100
AcDbLine
 10
368.7372710000001
 20
149.3843270000000
 30
0.000000000000000
 11
369.3708389999999
 21
148.7733870000000
 31
0.000000000000000
  0
LINE
  5
244
100
AcDbEntity
  8
1
  6
CONTINUOUS
 62
7
100
AcDbLine
 10
369.3531609999997
 20
150.0002169999999
 30
0.000000000000000
 11
369.9641020000000
 21
149.3666490000000
 31
0.000000000000000
  0
LINE
  5
245
100
AcDbEntity
  8
1
  6
CONTINUOUS
 62
7
100
AcDbLine
 10
369.1622429999998
 20
150.5248899999999
 30
0.000000000000000
 11
369.3531609999997
 21
150.0002169999999
 31
0.000000000000000
  0
LINE
  5
246
100
AcDbEntity
  8
1
  6
CONTINUOUS
 62
7
100
AcDbLine
 10
367.2622470000000
 20
150.5255970000000
 30
0.000000000000000
 11
367.0713280000000
 21
149.9995099999999
 31
0.000000000000000
  0
LINE
  5
247
100
AcDbEntity
  8
1
  6
CONTINUOUS
 62
7
100
AcDbLine
 10
367.6865110000000
 20
149.3843270000000
 30
0.000000000000000
 11
367.0543570000000
 21
148.7733870000000
 31
0.000000000000000
  0
LINE
  5
248
100
AcDbEntity
  8
1
  6
CONTINUOUS
 62
7
100
AcDbLine
 10
368.2125980000001
 20
149.5752460000000
 30
0.000000000000000
 11
367.6865110000001
 21
149.3843270000000
 31
0.000000000000000
  0
LINE
  5
249
100
AcDbEntity
  8
1
  6
CONTINUOUS
 62
7
100
AcDbLine
 10
368.2118909999999
 20
151.4752419999998
 30
0.000000000000000
 11
367.6872179999999
 21
151.6661609999999
 31
0.000000000000000
  0
LINE
  5
24A
100
AcDbEntity
  8
1
  6
CONTINUOUS
 62
7
100
AcDbLine
 10
367.6872179999999
 20
151.6661609999999
 30
0.000000000000000
 11
367.0543570000000
 21
152.2763939999999
 31
0.000000000000000
  0
LINE
  5
24B
100
AcDbEntity
  8
1
  6
CONTINUOUS
 62
7
100
AcDbLine
 10
367.2622470000001
 20
150.5255970000000
 30
0.000000000000000
 11
367.0713280000001
 21
151.0502710000001
 31
0.000000000000000
  0
LINE
  5
24C
100
AcDbEntity
  8
1
  6
CONTINUOUS
 62
7
100
AcDbLine
 10
368.2118910000000
 20
151.4752419999998
 30
0.000000000000000
 11
368.7379790000001
 21
151.6661609999999
 31
0.000000000000000
  0
LINE
  5
24D
100
AcDbEntity
  8
1
  6
CONTINUOUS
 62
7
100
AcDbLine
 10
368.7379790000001
 20
151.6661609999999
 30
0.000000000000000
 11
369.3701319999998
 21
152.2771009999999
 31
0.000000000000000
  0
LINE
  5
24E
100
AcDbEntity
  8
1
  6
CONTINUOUS
 62
7
100
AcDbLine
 10
369.3531609999997
 20
151.0509779999999
 30
0.000000000000000
 11
369.9641020000000
 21
151.6831310000000
 31
0.000000000000000
  0
LINE
  5
24F
100
AcDbEntity
  8
1
  6
CONTINUOUS
 62
7
100
AcDbLine
 10
369.1622429999998
 20
150.5248899999999
 30
0.000000000000000
 11
369.3531609999997
 21
151.0509779999999
 31
0.000000000000000
  0
LINE
  5
250
100
AcDbEntity
  8
1
  6
CONTINUOUS
 62
7
100
AcDbLine
 10
372.4128910000000
 20
154.5248899999999
 30
0.000000000000000
 11
364.0128910000000
 21
154.5248899999999
 31
0.000000000000000
  0
LINE
  5
251
100
AcDbEntity
  8
1
  6
CONTINUOUS
 62
7
100
AcDbLine
 10
359.7128910000000
 20
160.4693689999998
 30
0.000000000000000
 11
376.7128910000000
 21
160.4693689999998
 31
0.000000000000000
  0
LINE
  5
252
100
AcDbEntity
  8
1
  6
CONTINUOUS
 62
7
100
AcDbLine
 10
359.7128910000000
 20
156.0248899999999
 30
0.000000000000000
 11
376.7128910000000
 21
156.0248899999999
 31
0.000000000000000
  0
ARC
  5
253
100
AcDbEntity
  8
1
  6
CONTINUOUS
 62
7
100
AcDbCircle
 10
359.7128910000000
 20
163.4693689999998
 30
0.000000000000000
 40
3.000000000000000
100
AcDbArc
 50
180.0000000000000
 51
270.0000000000000
  0
ARC
  5
254
100
AcDbEntity
  8
1
  6
CONTINUOUS
 62
7
100
AcDbCircle
 10
359.7128910000000
 20
159.0248899999999
 30
0.000000000000000
 40
3.000000000000000
100
AcDbArc
 50
180.0000000000000
 51
270.0000000000000
  0
ARC
  5
255
100
AcDbEntity
  8
1
  6
CONTINUOUS
 62
7
100
AcDbCircle
 10
376.7128910000000
 20
163.4693689999998
 30
0.000000000000000
 40
3.000000000000000
100
AcDbArc
 50
270.0000000000000
 51
360.0000000000000
  0
ARC
  5
256
100
AcDbEntity
  8
1
  6
CONTINUOUS
 62
7
100
AcDbCircle
 10
376.7128910000000
 20
159.0248899999999
 30
0.000000000000000
 40
3.000000000000000
100
AcDbArc
 50
270.0000000000000
 51
360.0000000000000
  0
ARC
  5
257
100
AcDbEntity
  8
1
  6
CONTINUOUS
 62
7
100
AcDbCircle
 10
509.9544500000000
 20
152.6321780000000
 30
0.000000000000000
 40
1.300000000000000
100
AcDbArc
 50
94.98363000000002
 51
164.1026300000000
  0
ARC
  5
258
100
AcDbEntity
  8
1
  6
CONTINUOUS
 62
7
100
AcDbCircle
 10
509.9532459999998
 20
148.4181780000000
 30
0.000000000000000
 40
1.300000000000000
100
AcDbArc
 50
195.8646300000000
 51
264.9836300000000
  0
ARC
  5
259
100
AcDbEntity
  8
1
  6
CONTINUOUS
 62
7
100
AcDbCircle
 10
517.3608480000000
 20
150.5230620000000
 30
0.000000000000000
 40
9.000000000000000
100
AcDbArc
 50
164.1026300000000
 51
195.8646300000000
  0
ARC
  5
25A
100
AcDbEntity
  8
1
  6
CONTINUOUS
 62
7
100
AcDbCircle
 10
377.2128910000000
 20
223.5248900000000
 30
0.000000000000000
 40
5.000000000000000
100
AcDbArc
 50
0.000000000000000
 51
90.00000000000000
  0
CIRCLE
  5
25B
100
AcDbEntity
  8
1
  6
CONTINUOUS
 62
7
100
AcDbCircle
 10
368.2128910000000
 20
222.5248899999999
 30
0.000000000000000
 40
3.799999999999998
  0
LINE
  5
25C
100
AcDbEntity
  8
1
  6
CONTINUOUS
 62
7
100
AcDbLine
 10
372.4128910000001
 20
218.5248899999999
 30
0.000000000000000
 11
373.4050759999999
 21
219.1714560000000
 31
0.000000000000000
  0
LINE
  5
25D
100
AcDbEntity
  8
1
  6
CONTINUOUS
 62
7
100
AcDbLine
 10
373.4050759999998
 20
219.1714560000000
 30
0.000000000000000
 11
374.2061240000000
 21
219.9414700000001
 31
0.000000000000000
  0
LINE
  5
25E
100
AcDbEntity
  8
1
  6
CONTINUOUS
 62
7
100
AcDbLine
 10
374.2061239999998
 20
219.9414700000000
 30
0.000000000000000
 11
374.7865479999999
 21
220.8065850000000
 31
0.000000000000000
  0
LINE
  5
25F
100
AcDbEntity
  8
1
  6
CONTINUOUS
 62
7
100
AcDbLine
 10
374.7865479999998
 20
220.8065850000000
 30
0.000000000000000
 11
375.1249799999999
 21
221.7349560000000
 31
0.000000000000000
  0
LINE
  5
260
100
AcDbEntity
  8
1
  6
CONTINUOUS
 62
7
100
AcDbLine
 10
375.1249799999999
 20
221.7349560000000
 30
0.000000000000000
 11
375.2089609999999
 21
222.6924050000000
 31
0.000000000000000
  0
LINE
  5
261
100
AcDbEntity
  8
1
  6
CONTINUOUS
 62
7
100
AcDbLine
 10
375.2089609999999
 20
222.6924050000000
 30
0.000000000000000
 11
375.0354019999999
 21
223.6436879999998
 31
0.000000000000000
  0
LINE
  5
262
100
AcDbEntity
  8
1
  6
CONTINUOUS
 62
7
100
AcDbLine
 10
375.0354019999999
 20
223.6436879999998
 30
0.000000000000000
 11
374.6106900000000
 21
224.5537850000000
 31
0.000000000000000
  0
LINE
  5
263
100
AcDbEntity
  8
1
  6
CONTINUOUS
 62
7
100
AcDbLine
 10
374.6106900000000
 20
224.5537850000001
 30
0.000000000000000
 11
373.9504600000001
 21
225.3891939999999
 31
0.000000000000000
  0
LINE
  5
264
100
AcDbEntity
  8
1
  6
CONTINUOUS
 62
7
100
AcDbLine
 10
373.9504600000000
 20
225.3891939999999
 30
0.000000000000000
 11
373.0790169999999
 21
226.1191619999999
 31
0.000000000000000
  0
LINE
  5
265
100
AcDbEntity
  8
1
  6
CONTINUOUS
 62
7
100
AcDbLine
 10
373.0790170000000
 20
226.1191620000000
 30
0.000000000000000
 11
372.0284400000001
 21
226.7168160000001
 31
0.000000000000000
  0
LINE
  5
266
100
AcDbEntity
  8
1
  6
CONTINUOUS
 62
7
100
AcDbLine
 10
372.0284399999999
 20
226.7168160000000
 30
0.000000000000000
 11
370.8374039999999
 21
227.1601549999998
 31
0.000000000000000
  0
LINE
  5
267
100
AcDbEntity
  8
1
  6
CONTINUOUS
 62
7
100
AcDbLine
 10
370.8374039999999
 20
227.1601549999998
 30
0.000000000000000
 11
369.5497540000001
 21
227.4328600000000
 31
0.000000000000000
  0
LINE
  5
268
100
AcDbEntity
  8
1
  6
CONTINUOUS
 62
7
100
AcDbLine
 10
369.5497539999999
 20
227.4328600000000
 30
0.000000000000000
 11
368.2128910000000
 21
227.5248900000000
 31
0.000000000000000
  0
LINE
  5
269
100
AcDbEntity
  8
1
  6
CONTINUOUS
 62
7
100
AcDbLine
 10
368.2128910000001
 20
227.5248900000000
 30
0.000000000000000
 11
366.8760279999998
 21
227.4328600000000
 31
0.000000000000000
  0
LINE
  5
26A
100
AcDbEntity
  8
1
  6
CONTINUOUS
 62
7
100
AcDbLine
 10
366.8760279999998
 20
227.4328600000000
 30
0.000000000000000
 11
365.5883779999999
 21
227.1601549999998
 31
0.000000000000000
  0
LINE
  5
26B
100
AcDbEntity
  8
1
  6
CONTINUOUS
 62
7
100
AcDbLine
 10
365.5883779999998
 20
227.1601549999997
 30
0.000000000000000
 11
364.3973419999999
 21
226.7168159999999
 31
0.000000000000000
  0
LINE
  5
26C
100
AcDbEntity
  8
1
  6
CONTINUOUS
 62
7
100
AcDbLine
 10
364.3973420000000
 20
226.7168160000000
 30
0.000000000000000
 11
363.3467659999997
 21
226.1191619999998
 31
0.000000000000000
  0
LINE
  5
26D
100
AcDbEntity
  8
1
  6
CONTINUOUS
 62
7
100
AcDbLine
 10
363.3467659999998
 20
226.1191619999999
 30
0.000000000000000
 11
362.4753220000000
 21
225.3891939999999
 31
0.000000000000000
  0
LINE
  5
26E
100
AcDbEntity
  8
1
  6
CONTINUOUS
 62
7
100
AcDbLine
 10
362.4753220000000
 20
225.3891939999999
 30
0.000000000000000
 11
361.8150930000000
 21
224.5537850000001
 31
0.000000000000000
  0
LINE
  5
26F
100
AcDbEntity
  8
1
  6
CONTINUOUS
 62
7
100
AcDbLine
 10
361.8150929999999
 20
224.5537850000000
 30
0.000000000000000
 11
361.3903799999999
 21
223.6436879999998
 31
0.000000000000000
  0
LINE
  5
270
100
AcDbEntity
  8
1
  6
CONTINUOUS
 62
7
100
AcDbLine
 10
361.3903800000001
 20
223.6436879999998
 30
0.000000000000000
 11
361.2168210000000
 21
222.6924050000000
 31
0.000000000000000
  0
LINE
  5
271
100
AcDbEntity
  8
1
  6
CONTINUOUS
 62
7
100
AcDbLine
 10
361.2168210000000
 20
222.6924050000000
 30
0.000000000000000
 11
361.3008029999999
 21
221.7349560000000
 31
0.000000000000000
  0
LINE
  5
272
100
AcDbEntity
  8
1
  6
CONTINUOUS
 62
7
100
AcDbLine
 10
361.3008029999999
 20
221.7349560000000
 30
0.000000000000000
 11
361.6392349999999
 21
220.8065850000000
 31
0.000000000000000
  0
LINE
  5
273
100
AcDbEntity
  8
1
  6
CONTINUOUS
 62
7
100
AcDbLine
 10
361.6392349999999
 20
220.8065850000000
 30
0.000000000000000
 11
362.2196579999999
 21
219.9414700000000
 31
0.000000000000000
  0
LINE
  5
274
100
AcDbEntity
  8
1
  6
CONTINUOUS
 62
7
100
AcDbLine
 10
362.2196580000000
 20
219.9414700000001
 30
0.000000000000000
 11
363.0207060000001
 21
219.1714560000001
 31
0.000000000000000
  0
LINE
  5
275
100
AcDbEntity
  8
1
  6
CONTINUOUS
 62
7
100
AcDbLine
 10
363.0207060000000
 20
219.1714560000000
 30
0.000000000000000
 11
364.0128910000001
 21
218.5248899999999
 31
0.000000000000000
  0
CIRCLE
  5
276
100
AcDbEntity
  8
1
  6
CONTINUOUS
 62
7
100
AcDbCircle
 10
368.2128910000000
 20
222.5248899999999
 30
0.000000000000000
 40
3.500000000000000
  0
LINE
  5
277
100
AcDbEntity
  8
5
  6
PHANTOM
 62
6
100
AcDbLine
 10
354.2128910000000
 20
196.0248900000000
 30
0.000000000000000
 11
327.3223499999998
 21
196.0248900000000
 31
0.000000000000000
  0
LINE
  5
278
100
AcDbEntity
  8
5
  6
PHANTOM
 62
6
100
AcDbLine
 10
354.2128910000000
 20
215.0248900000000
 30
0.000000000000000
 11
327.3223499999998
 21
215.0248900000000
 31
0.000000000000000
  0
LINE
  5
279
100
AcDbEntity
  8
4
  6
CENTER
 62
1
100
AcDbLine
 10
381.2128910000000
 20
205.5248900000000
 30
0.000000000000000
 11
322.3223499999999
 21
205.5248900000000
 31
0.000000000000000
  0
ARC
  5
27A
100
AcDbEntity
  8
5
  6
PHANTOM
 62
6
100
AcDbCircle
 10
327.3223499999998
 20
198.0248900000000
 30
0.000000000000000
 40
2.000000000000000
100
AcDbArc
 50
180.0000000000000
 51
270.0000000000000
  0
LINE
  5
27B
100
AcDbEntity
  8
5
  6
PHANTOM
 62
6
100
AcDbLine
 10
325.3223499999998
 20
213.0248900000000
 30
0.000000000000000
 11
325.3223499999998
 21
198.0248900000000
 31
0.000000000000000
  0
ARC
  5
27C
100
AcDbEntity
  8
5
  6
PHANTOM
 62
6
100
AcDbCircle
 10
327.3223499999998
 20
213.0248900000000
 30
0.000000000000000
 40
2.000000000000000
100
AcDbArc
 50
90.00000000000000
 51
180.0000000000000
  0
CIRCLE
  5
27D
100
AcDbEntity
  8
1
  6
CONTINUOUS
 62
7
100
AcDbCircle
 10
368.2128910000000
 20
205.5248900000000
 30
0.000000000000000
 40
9.000000000000000
  0
ARC
  5
27E
100
AcDbEntity
  8
1
  6
CONTINUOUS
 62
7
100
AcDbCircle
 10
368.2128910000000
 20
205.5248900000000
 30
0.000000000000000
 40
11.25000000000000
100
AcDbArc
 50
210.0000000000000
 51
420.0000000000000
  0
ARC
  5
27F
100
AcDbEntity
  8
1
  6
CONTINUOUS
 62
7
100
AcDbCircle
 10
368.2128910000000
 20
205.5248900000000
 30
0.000000000000000
 40
11.50000000000000
100
AcDbArc
 50
119.9999999999999
 51
420.0000000000000
  0
LINE
  5
280
100
AcDbEntity
  8
1
  6
CONTINUOUS
 62
7
100
AcDbLine
 10
359.7128910000000
 20
184.0248899999999
 30
0.000000000000000
 11
376.7128910000000
 21
184.0248899999999
 31
0.000000000000000
  0
LINE
  5
281
100
AcDbEntity
  8
1
  6
CONTINUOUS
 62
7
100
AcDbLine
 10
376.7128910000000
 20
194.0248900000000
 30
0.000000000000000
 11
359.7128910000000
 21
194.0248900000000
 31
0.000000000000000
  0
ARC
  5
282
100
AcDbEntity
  8
1
  6
CONTINUOUS
 62
7
100
AcDbCircle
 10
359.7128910000000
 20
181.0248899999999
 30
0.000000000000000
 40
3.000000000000000
100
AcDbArc
 50
90.00000000000000
 51
180.0000000000000
  0
ARC
  5
283
100
AcDbEntity
  8
1
  6
CONTINUOUS
 62
7
100
AcDbCircle
 10
359.7128910000000
 20
197.0248899999999
 30
0.000000000000000
 40
3.000000000000000
100
AcDbArc
 50
180.0000000000000
 51
270.0000000000000
  0
ARC
  5
284
100
AcDbEntity
  8
1
  6
CONTINUOUS
 62
7
100
AcDbCircle
 10
376.7128910000000
 20
181.0248899999999
 30
0.000000000000000
 40
3.000000000000000
100
AcDbArc
 50
0.000000000000000
 51
90.00000000000000
  0
ARC
  5
285
100
AcDbEntity
  8
1
  6
CONTINUOUS
 62
7
100
AcDbCircle
 10
376.7128910000000
 20
197.0248899999999
 30
0.000000000000000
 40
3.000000000000000
100
AcDbArc
 50
270.0000000000000
 51
360.0000000000000
  0
LINE
  5
286
100
AcDbEntity
  8
1
  6
CONTINUOUS
 62
7
100
AcDbLine
 10
368.2128910000001
 20
210.1438900000000
 30
0.000000000000000
 11
364.2128910000001
 21
207.8338899999998
 31
0.000000000000000
  0
LINE
  5
287
100
AcDbEntity
  8
1
  6
CONTINUOUS
 62
7
100
AcDbLine
 10
366.8390079999999
 20
203.5570370000000
 30
0.000000000000000
 11
367.6231700000000
 21
204.3142940000000
 31
0.000000000000000
  0
LINE
  5
288
100
AcDbEntity
  8
1
  6
CONTINUOUS
 62
7
100
AcDbLine
 10
367.2169359999998
 20
205.5248900000000
 30
0.000000000000000
 11
367.0022949999999
 21
206.1146110000000
 31
0.000000000000000
  0
LINE
  5
289
100
AcDbEntity
  8
1
  6
CONTINUOUS
 62
7
100
AcDbLine
 10
367.2169359999998
 20
205.5248900000000
 30
0.000000000000000
 11
367.0022949999999
 21
204.9351689999999
 31
0.000000000000000
  0
LINE
  5
28A
100
AcDbEntity
  8
1
  6
CONTINUOUS
 62
7
100
AcDbLine
 10
364.2128910000000
 20
203.2148900000000
 30
0.000000000000000
 11
368.2128910000000
 21
200.9058899999998
 31
0.000000000000000
  0
CIRCLE
  5
28B
100
AcDbEntity
  8
1
  6
CONTINUOUS
 62
7
100
AcDbCircle
 10
368.2128910000000
 20
205.5248900000000
 30
0.000000000000000
 40
4.000000000000000
  0
CIRCLE
  5
28C
100
AcDbEntity
  8
1
  6
CONTINUOUS
 62
7
100
AcDbCircle
 10
368.2128910000000
 20
205.5248900000000
 30
0.000000000000000
 40
3.100000000000000
  0
LINE
  5
28D
100
AcDbEntity
  8
1
  6
CONTINUOUS
 62
7
100
AcDbLine
 10
366.8390080000000
 20
207.4927429999999
 30
0.000000000000000
 11
367.6231700000001
 21
206.7354869999999
 31
0.000000000000000
  0
LINE
  5
28E
100
AcDbEntity
  8
1
  6
CONTINUOUS
 62
7
100
AcDbLine
 10
372.4128910000000
 20
218.5248899999999
 30
0.000000000000000
 11
364.0128910000000
 21
218.5248899999999
 31
0.000000000000000
  0
CIRCLE
  5
28F
100
AcDbEntity
  8
1
  6
CONTINUOUS
 62
7
100
AcDbCircle
 10
368.2128910000000
 20
205.5248900000000
 30
0.000000000000000
 40
6.000000000000000
  0
LINE
  5
290
100
AcDbEntity
  8
1
  6
CONTINUOUS
 62
7
100
AcDbLine
 10
376.7128910000000
 20
217.0248900000000
 30
0.000000000000000
 11
359.7128910000000
 21
217.0248900000000
 31
0.000000000000000
  0
ARC
  5
291
100
AcDbEntity
  8
1
  6
CONTINUOUS
 62
7
100
AcDbCircle
 10
368.2128910000000
 20
205.5248900000000
 30
0.000000000000000
 40
2.399999999999999
100
AcDbArc
 50
124.9213420000000
 51
145.0786579999999
  0
LINE
  5
292
100
AcDbEntity
  8
1
  6
CONTINUOUS
 62
7
100
AcDbLine
 10
366.2450379999999
 20
204.1510069999999
 30
0.000000000000000
 11
367.0022949999999
 21
204.9351689999999
 31
0.000000000000000
  0
ARC
  5
293
100
AcDbEntity
  8
1
  6
CONTINUOUS
 62
7
100
AcDbCircle
 10
368.2128910000000
 20
205.5248900000000
 30
0.000000000000000
 40
2.399999999999999
100
AcDbArc
 50
214.9213420000000
 51
235.0786579999999
  0
LINE
  5
294
100
AcDbEntity
  8
1
  6
CONTINUOUS
 62
7
100
AcDbLine
 10
364.2128910000000
 20
203.2148900000000
 30
0.000000000000000
 11
364.2128910000000
 21
207.8338899999998
 31
0.000000000000000
  0
LINE
  5
295
100
AcDbEntity
  8
1
  6
CONTINUOUS
 62
7
100
AcDbLine
 10
366.2450379999999
 20
206.8987739999998
 30
0.000000000000000
 11
367.0022949999999
 21
206.1146110000000
 31
0.000000000000000
  0
LINE
  5
296
100
AcDbEntity
  8
1
  6
CONTINUOUS
 62
7
100
AcDbLine
 10
360.4186620000000
 20
201.0248900000000
 30
0.000000000000000
 11
358.4701050000000
 21
199.8998900000000
 31
0.000000000000000
  0
LINE
  5
297
100
AcDbEntity
  8
1
  6
CONTINUOUS
 62
7
100
AcDbLine
 10
363.6697639999999
 20
213.3938160000000
 30
0.000000000000000
 11
362.4628910000000
 21
215.4841819999998
 31
0.000000000000000
  0
ARC
  5
298
100
AcDbEntity
  8
1
  6
CONTINUOUS
 62
7
100
AcDbCircle
 10
368.2128910000000
 20
205.5248900000000
 30
0.000000000000000
 40
9.500000000000000
100
AcDbArc
 50
119.9999999999999
 51
210.0000000000000
  0
ARC
  5
299
100
AcDbEntity
  8
1
  6
CONTINUOUS
 62
7
100
AcDbCircle
 10
368.2128910000000
 20
205.5248900000000
 30
0.000000000000000
 40
10.00000000000000
100
AcDbArc
 50
119.9999999999999
 51
210.0000000000000
  0
LINE
  5
29A
100
AcDbEntity
  8
1
  6
CONTINUOUS
 62
7
100
AcDbLine
 10
362.4628910000000
 20
215.4841819999998
 30
0.000000000000000
 11
362.4628910000000
 21
217.0248900000000
 31
0.000000000000000
  0
ARC
  5
29B
100
AcDbEntity
  8
1
  6
CONTINUOUS
 62
7
100
AcDbCircle
 10
364.1027769999998
 20
213.6438159999999
 30
0.000000000000000
 40
0.5000000000000000
100
AcDbArc
 50
210.0000000000000
 51
219.9339380000000
  0
ARC
  5
29C
100
AcDbEntity
  8
1
  6
CONTINUOUS
 62
7
100
AcDbCircle
 10
359.7128910000000
 20
214.0248900000000
 30
0.000000000000000
 40
3.000000000000000
100
AcDbArc
 50
90.00000000000000
 51
180.0000000000000
  0
LINE
  5
29D
100
AcDbEntity
  8
1
  6
CONTINUOUS
 62
7
100
AcDbLine
 10
368.2128910000000
 20
210.1438900000000
 30
0.000000000000000
 11
372.2128910000001
 21
207.8338899999998
 31
0.000000000000000
  0
ARC
  5
29E
100
AcDbEntity
  8
1
  6
CONTINUOUS
 62
7
100
AcDbCircle
 10
368.2128910000000
 20
205.5248900000000
 30
0.000000000000000
 40
2.399999999999999
100
AcDbArc
 50
34.92134199999999
 51
55.07865800000000
  0
LINE
  5
29F
100
AcDbEntity
  8
1
  6
CONTINUOUS
 62
7
100
AcDbLine
 10
369.2088459999998
 20
205.5248900000000
 30
0.000000000000000
 11
369.4234870000000
 21
206.1146110000000
 31
0.000000000000000
  0
LINE
  5
2A0
100
AcDbEntity
  8
1
  6
CONTINUOUS
 62
7
100
AcDbLine
 10
369.5867740000002
 20
203.5570370000000
 30
0.000000000000000
 11
368.8026120000000
 21
204.3142940000000
 31
0.000000000000000
  0
LINE
  5
2A1
100
AcDbEntity
  8
1
  6
CONTINUOUS
 62
7
100
AcDbLine
 10
369.2088459999998
 20
205.5248900000000
 30
0.000000000000000
 11
369.4234870000000
 21
204.9351689999999
 31
0.000000000000000
  0
LINE
  5
2A2
100
AcDbEntity
  8
1
  6
CONTINUOUS
 62
7
100
AcDbLine
 10
368.2128910000000
 20
206.5208459999999
 30
0.000000000000000
 11
368.8026119999998
 21
206.7354869999999
 31
0.000000000000000
  0
LINE
  5
2A3
100
AcDbEntity
  8
1
  6
CONTINUOUS
 62
7
100
AcDbLine
 10
368.2128910000000
 20
204.5289350000000
 30
0.000000000000000
 11
368.8026119999999
 21
204.3142940000000
 31
0.000000000000000
  0
LINE
  5
2A4
100
AcDbEntity
  8
1
  6
CONTINUOUS
 62
7
100
AcDbLine
 10
368.2128910000000
 20
204.5289350000000
 30
0.000000000000000
 11
367.6231700000000
 21
204.3142940000000
 31
0.000000000000000
  0
LINE
  5
2A5
100
AcDbEntity
  8
1
  6
CONTINUOUS
 62
7
100
AcDbLine
 10
368.2128910000001
 20
206.5208460000001
 30
0.000000000000000
 11
367.6231700000001
 21
206.7354870000000
 31
0.000000000000000
  0
LINE
  5
2A6
100
AcDbEntity
  8
1
  6
CONTINUOUS
 62
7
100
AcDbLine
 10
372.2128910000001
 20
203.2158900000000
 30
0.000000000000000
 11
368.2128910000001
 21
200.9058899999998
 31
0.000000000000000
  0
LINE
  5
2A7
100
AcDbEntity
  8
1
  6
CONTINUOUS
 62
7
100
AcDbLine
 10
370.1807440000000
 20
204.1510069999999
 30
0.000000000000000
 11
369.4234870000000
 21
204.9351689999999
 31
0.000000000000000
  0
ARC
  5
2A8
100
AcDbEntity
  8
1
  6
CONTINUOUS
 62
7
100
AcDbCircle
 10
368.2128910000000
 20
205.5248900000000
 30
0.000000000000000
 40
2.399999999999999
100
AcDbArc
 50
304.9213420000000
 51
325.0786580000000
  0
LINE
  5
2A9
100
AcDbEntity
  8
1
  6
CONTINUOUS
 62
7
100
AcDbLine
 10
372.2128910000000
 20
203.2148900000000
 30
0.000000000000000
 11
372.2128910000000
 21
207.8338899999998
 31
0.000000000000000
  0
LINE
  5
2AA
100
AcDbEntity
  8
1
  6
CONTINUOUS
 62
7
100
AcDbLine
 10
369.5867740000001
 20
207.4927429999999
 30
0.000000000000000
 11
368.8026119999999
 21
206.7354869999999
 31
0.000000000000000
  0
LINE
  5
2AB
100
AcDbEntity
  8
1
  6
CONTINUOUS
 62
7
100
AcDbLine
 10
370.1807440000000
 20
206.8987739999998
 30
0.000000000000000
 11
369.4234870000000
 21
206.1146110000000
 31
0.000000000000000
  0
LINE
  5
2AC
100
AcDbEntity
  8
1
  6
CONTINUOUS
 62
7
100
AcDbLine
 10
372.7128910000000
 20
213.3191190000000
 30
0.000000000000000
 11
373.9628910000000
 21
215.4841819999998
 31
0.000000000000000
  0
LINE
  5
2AD
100
AcDbEntity
  8
1
  6
CONTINUOUS
 62
7
100
AcDbLine
 10
373.9628910000000
 20
215.4841819999998
 30
0.000000000000000
 11
373.9628910000000
 21
217.0248900000000
 31
0.000000000000000
  0
ARC
  5
2AE
100
AcDbEntity
  8
1
  6
CONTINUOUS
 62
7
100
AcDbCircle
 10
372.3230049999998
 20
213.6438159999999
 30
0.000000000000000
 40
0.5000000000000000
100
AcDbArc
 50
320.0660619999998
 51
329.9999999999999
  0
ARC
  5
2AF
100
AcDbEntity
  8
1
  6
CONTINUOUS
 62
7
100
AcDbCircle
 10
376.7128910000000
 20
214.0248900000000
 30
0.000000000000000
 40
3.000000000000000
100
AcDbArc
 50
0.000000000000000
 51
90.00000000000000
  0
ARC
  5
2B0
100
AcDbEntity
  8
1
  6
CONTINUOUS
 62
7
100
AcDbCircle
 10
368.2118909999999
 20
222.5248899999999
 30
0.000000000000000
 40
2.100000000000000
100
AcDbArc
 50
213.4630000000000
 51
236.5369999999999
  0
ARC
  5
2B1
100
AcDbEntity
  8
1
  6
CONTINUOUS
 62
7
100
AcDbCircle
 10
368.2118909999999
 20
222.5248899999999
 30
0.000000000000000
 40
2.100000000000000
100
AcDbArc
 50
123.4629999999998
 51
146.5370000000000
  0
LINE
  5
2B2
100
AcDbEntity
  8
1
  6
CONTINUOUS
 62
7
100
AcDbLine
 10
367.0713280000000
 20
221.9995099999999
 30
0.000000000000000
 11
366.4603879999999
 21
221.3673569999999
 31
0.000000000000000
  0
LINE
  5
2B3
100
AcDbEntity
  8
1
  6
CONTINUOUS
 62
7
100
AcDbLine
 10
367.0713280000000
 20
223.0502710000000
 30
0.000000000000000
 11
366.4603879999999
 21
223.6824240000000
 31
0.000000000000000
  0
LINE
  5
2B4
100
AcDbEntity
  8
4
  6
CENTER
 62
1
100
AcDbLine
 10
361.2128910000000
 20
222.5248899999999
 30
0.000000000000000
 11
375.2128910000000
 21
222.5248899999999
 31
0.000000000000000
  0
LINE
  5
2B5
100
AcDbEntity
  8
1
  6
CONTINUOUS
 62
7
100
AcDbLine
 10
377.2128910000000
 20
228.5248900000000
 30
0.000000000000000
 11
359.2128910000000
 21
228.5248900000000
 31
0.000000000000000
  0
ARC
  5
2B6
100
AcDbEntity
  8
1
  6
CONTINUOUS
 62
7
100
AcDbCircle
 10
359.2128910000000
 20
223.5248900000000
 30
0.000000000000000
 40
5.000000000000000
100
AcDbArc
 50
90.00000000000000
 51
180.0000000000000
  0
ARC
  5
2B7
100
AcDbEntity
  8
1
  6
CONTINUOUS
 62
7
100
AcDbCircle
 10
368.2118909999999
 20
222.5248899999999
 30
0.000000000000000
 40
2.100000000000000
100
AcDbArc
 50
303.4629999999999
 51
326.5369999999998
  0
ARC
  5
2B8
100
AcDbEntity
  8
1
  6
CONTINUOUS
 62
7
100
AcDbCircle
 10
368.2118909999999
 20
222.5248899999999
 30
0.000000000000000
 40
2.100000000000000
100
AcDbArc
 50
33.46300000000000
 51
56.53700000000001
  0
LINE
  5
2B9
100
AcDbEntity
  8
1
  6
CONTINUOUS
 62
7
100
AcDbLine
 10
368.2125979999999
 20
221.5752460000000
 30
0.000000000000000
 11
368.7372710000000
 21
221.3843270000000
 31
0.000000000000000
  0
LINE
  5
2BA
100
AcDbEntity
  8
1
  6
CONTINUOUS
 62
7
100
AcDbLine
 10
368.7372710000001
 20
221.3843270000000
 30
0.000000000000000
 11
369.3708389999999
 21
220.7733870000001
 31
0.000000000000000
  0
LINE
  5
2BB
100
AcDbEntity
  8
1
  6
CONTINUOUS
 62
7
100
AcDbLine
 10
369.3531609999998
 20
222.0002169999999
 30
0.000000000000000
 11
369.9641020000000
 21
221.3666490000000
 31
0.000000000000000
  0
LINE
  5
2BC
100
AcDbEntity
  8
1
  6
CONTINUOUS
 62
7
100
AcDbLine
 10
369.1622429999998
 20
222.5248899999999
 30
0.000000000000000
 11
369.3531609999997
 21
222.0002169999999
 31
0.000000000000000
  0
LINE
  5
2BD
100
AcDbEntity
  8
1
  6
CONTINUOUS
 62
7
100
AcDbLine
 10
367.2622470000001
 20
222.5255970000000
 30
0.000000000000000
 11
367.0713280000001
 21
221.9995100000000
 31
0.000000000000000
  0
LINE
  5
2BE
100
AcDbEntity
  8
1
  6
CONTINUOUS
 62
7
100
AcDbLine
 10
367.6865110000000
 20
221.3843270000000
 30
0.000000000000000
 11
367.0543569999999
 21
220.7733870000000
 31
0.000000000000000
  0
LINE
  5
2BF
100
AcDbEntity
  8
1
  6
CONTINUOUS
 62
7
100
AcDbLine
 10
368.2125980000000
 20
221.5752460000000
 30
0.000000000000000
 11
367.6865110000000
 21
221.3843270000000
 31
0.000000000000000
  0
LINE
  5
2C0
100
AcDbEntity
  8
1
  6
CONTINUOUS
 62
7
100
AcDbLine
 10
368.2118909999999
 20
223.4752419999999
 30
0.000000000000000
 11
367.6872179999999
 21
223.6661610000000
 31
0.000000000000000
  0
LINE
  5
2C1
100
AcDbEntity
  8
1
  6
CONTINUOUS
 62
7
100
AcDbLine
 10
367.6872179999999
 20
223.6661609999999
 30
0.000000000000000
 11
367.0543569999999
 21
224.2763939999998
 31
0.000000000000000
  0
LINE
  5
2C2
100
AcDbEntity
  8
1
  6
CONTINUOUS
 62
7
100
AcDbLine
 10
367.2622470000001
 20
222.5255970000001
 30
0.000000000000000
 11
367.0713280000001
 21
223.0502710000001
 31
0.000000000000000
  0
LINE
  5
2C3
100
AcDbEntity
  8
1
  6
CONTINUOUS
 62
7
100
AcDbLine
 10
368.2118910000000
 20
223.4752419999999
 30
0.000000000000000
 11
368.7379790000001
 21
223.6661610000000
 31
0.000000000000000
  0
LINE
  5
2C4
100
AcDbEntity
  8
1
  6
CONTINUOUS
 62
7
100
AcDbLine
 10
368.7379790000000
 20
223.6661610000000
 30
0.000000000000000
 11
369.3701319999998
 21
224.2771009999999
 31
0.000000000000000
  0
LINE
  5
2C5
100
AcDbEntity
  8
1
  6
CONTINUOUS
 62
7
100
AcDbLine
 10
369.3531609999998
 20
223.0509779999999
 30
0.000000000000000
 11
369.9641020000000
 21
223.6831309999999
 31
0.000000000000000
  0
LINE
  5
2C6
100
AcDbEntity
  8
1
  6
CONTINUOUS
 62
7
100
AcDbLine
 10
369.1622429999998
 20
222.5248899999999
 30
0.000000000000000
 11
369.3531609999997
 21
223.0509779999999
 31
0.000000000000000
  0
ARC
  5
2C7
100
AcDbEntity
  8
1
  6
CONTINUOUS
 62
7
100
AcDbCircle
 10
509.9532759999998
 20
220.4181779999999
 30
0.000000000000000
 40
1.300000000000000
100
AcDbArc
 50
195.8646300000000
 51
264.9836300000000
  0
LINE
  5
2C8
100
AcDbEntity
  8
1
  6
CONTINUOUS
 62
7
100
AcDbLine
 10
487.7069780000000
 20
214.5248899999999
 30
0.000000000000000
 11
487.7069780000000
 21
196.5248899999999
 31
0.000000000000000
  0
LINE
  5
2C9
100
AcDbEntity
  8
1
  6
CONTINUOUS
 62
7
100
AcDbLine
 10
489.3069780000000
 20
214.5248899999999
 30
0.000000000000000
 11
489.3069780000000
 21
196.5248899999999
 31
0.000000000000000
  0
LINE
  5
2CA
100
AcDbEntity
  8
1
  6
CONTINUOUS
 62
7
100
AcDbLine
 10
489.3069780000000
 20
196.5248899999999
 30
0.000000000000000
 11
487.7069780000000
 21
196.5248899999999
 31
0.000000000000000
  0
LINE
  5
2CB
100
AcDbEntity
  8
1
  6
CONTINUOUS
 62
7
100
AcDbLine
 10
482.1069779999999
 20
209.5248900000000
 30
0.000000000000000
 11
482.4643579999999
 21
210.1438900000000
 31
0.000000000000000
  0
ARC
  5
2CC
100
AcDbEntity
  8
1
  6
CONTINUOUS
 62
7
100
AcDbCircle
 10
484.1520639999997
 20
208.9888900000000
 30
0.000000000000000
 40
2.045087000000000
100
AcDbArc
 50
154.3862009999998
 51
214.3862009999998
  0
LINE
  5
2CD
100
AcDbEntity
  8
1
  6
CONTINUOUS
 62
7
100
AcDbLine
 10
482.4643580000000
 20
210.1438900000000
 30
0.000000000000000
 11
485.2495979999998
 21
210.1438900000000
 31
0.000000000000000
  0
LINE
  5
2CE
100
AcDbEntity
  8
1
  6
CONTINUOUS
 62
7
100
AcDbLine
 10
482.4643580000000
 20
207.8338899999998
 30
0.000000000000000
 11
485.2495979999998
 21
207.8338899999998
 31
0.000000000000000
  0
LINE
  5
2CF
100
AcDbEntity
  8
1
  6
CONTINUOUS
 62
7
100
AcDbLine
 10
485.6069780000000
 20
209.5248900000000
 30
0.000000000000000
 11
485.2495979999998
 21
210.1438900000000
 31
0.000000000000000
  0
ARC
  5
2D0
100
AcDbEntity
  8
1
  6
CONTINUOUS
 62
7
100
AcDbCircle
 10
483.5618909999998
 20
208.9888900000000
 30
0.000000000000000
 40
2.045087000000000
100
AcDbArc
 50
325.6137989999999
 51
385.6137990000000
  0
ARC
  5
2D1
100
AcDbEntity
  8
1
  6
CONTINUOUS
 62
7
100
AcDbCircle
 10
484.1520639999997
 20
202.0608900000000
 30
0.000000000000000
 40
2.045087000000000
100
AcDbArc
 50
145.6137990000000
 51
205.6137990000000
  0
LINE
  5
2D2
100
AcDbEntity
  8
1
  6
CONTINUOUS
 62
7
100
AcDbLine
 10
482.4643580000000
 20
203.2148900000000
 30
0.000000000000000
 11
485.2495979999998
 21
203.2148900000000
 31
0.000000000000000
  0
LINE
  5
2D3
100
AcDbEntity
  8
1
  6
CONTINUOUS
 62
7
100
AcDbLine
 10
482.4643580000000
 20
200.9058899999998
 30
0.000000000000000
 11
485.2495979999998
 21
200.9058899999998
 31
0.000000000000000
  0
LINE
  5
2D4
100
AcDbEntity
  8
1
  6
CONTINUOUS
 62
7
100
AcDbLine
 10
482.1069780000000
 20
201.5248900000000
 30
0.000000000000000
 11
482.4643579999999
 21
200.9058899999998
 31
0.000000000000000
  0
LINE
  5
2D5
100
AcDbEntity
  8
1
  6
CONTINUOUS
 62
7
100
AcDbLine
 10
485.6069780000000
 20
201.5248900000000
 30
0.000000000000000
 11
485.2495979999998
 21
200.9058899999998
 31
0.000000000000000
  0
ARC
  5
2D6
100
AcDbEntity
  8
1
  6
CONTINUOUS
 62
7
100
AcDbCircle
 10
483.5618909999998
 20
202.0608900000000
 30
0.000000000000000
 40
2.045087000000000
100
AcDbArc
 50
334.3862009999999
 51
394.3862010000001
  0
LINE
  5
2D7
100
AcDbEntity
  8
1
  6
CONTINUOUS
 62
7
100
AcDbLine
 10
482.1069780000000
 20
209.5248900000000
 30
0.000000000000000
 11
482.1069780000000
 21
201.5248900000000
 31
0.000000000000000
  0
ARC
  5
2D8
100
AcDbEntity
  8
1
  6
CONTINUOUS
 62
7
100
AcDbCircle
 10
489.7480230000000
 20
205.5243899999999
 30
0.000000000000000
 40
7.641045000000000
100
AcDbArc
 50
162.4072530000000
 51
197.5927470000000
  0
ARC
  5
2D9
100
AcDbEntity
  8
1
  6
CONTINUOUS
 62
7
100
AcDbCircle
 10
477.9659330000000
 20
205.5243899999999
 30
0.000000000000000
 40
7.641045000000000
100
AcDbArc
 50
342.4072529999999
 51
377.5927470000000
  0
LINE
  5
2DA
100
AcDbEntity
  8
1
  6
CONTINUOUS
 62
7
100
AcDbLine
 10
486.9069780000000
 20
211.5248900000000
 30
0.000000000000000
 11
487.7069780000000
 21
211.5248900000000
 31
0.000000000000000
  0
LINE
  5
2DB
100
AcDbEntity
  8
1
  6
CONTINUOUS
 62
7
100
AcDbLine
 10
485.6069780000000
 20
210.1248899999999
 30
0.000000000000000
 11
486.9069780000000
 21
210.1248899999999
 31
0.000000000000000
  0
LINE
  5
2DC
100
AcDbEntity
  8
1
  6
CONTINUOUS
 62
7
100
AcDbLine
 10
485.6069780000000
 20
205.5248900000000
 30
0.000000000000000
 11
486.9069780000000
 21
206.8248899999999
 31
0.000000000000000
  0
LINE
  5
2DD
100
AcDbEntity
  8
1
  6
CONTINUOUS
 62
7
100
AcDbLine
 10
485.6069780000000
 20
204.2248899999999
 30
0.000000000000000
 11
486.9069780000000
 21
205.5248900000001
 31
0.000000000000000
  0
LINE
  5
2DE
100
AcDbEntity
  8
1
  6
CONTINUOUS
 62
7
100
AcDbLine
 10
486.9069780000000
 20
199.5248899999999
 30
0.000000000000000
 11
487.7069780000000
 21
199.5248899999999
 31
0.000000000000000
  0
LINE
  5
2DF
100
AcDbEntity
  8
1
  6
CONTINUOUS
 62
7
100
AcDbLine
 10
485.6069780000000
 20
200.9248900000000
 30
0.000000000000000
 11
486.9069780000000
 21
200.9248900000000
 31
0.000000000000000
  0
LINE
  5
2E0
100
AcDbEntity
  8
1
  6
CONTINUOUS
 62
7
100
AcDbLine
 10
486.9069780000000
 20
211.5248900000000
 30
0.000000000000000
 11
486.9069780000000
 21
199.5248899999999
 31
0.000000000000000
  0
LINE
  5
2E1
100
AcDbEntity
  8
1
  6
CONTINUOUS
 62
7
100
AcDbLine
 10
485.6069780000000
 20
210.1436919999999
 30
0.000000000000000
 11
485.6069780000000
 21
200.9060879999999
 31
0.000000000000000
  0
LINE
  5
2E2
100
AcDbEntity
  8
1
  6
CONTINUOUS
 62
7
100
AcDbLine
 10
485.6069780000000
 20
210.1248899999999
 30
0.000000000000000
 11
485.6069780000000
 21
200.9248900000000
 31
0.000000000000000
  0
LINE
  5
2E3
100
AcDbEntity
  8
1
  6
CONTINUOUS
 62
7
100
AcDbLine
 10
489.3069780000000
 20
214.5248899999999
 30
0.000000000000000
 11
487.7069780000000
 21
214.5248899999999
 31
0.000000000000000
  0
LINE
  5
2E4
100
AcDbEntity
  8
4
  6
CENTER
 62
1
100
AcDbLine
 10
479.1069779999999
 20
205.5248900000000
 30
0.000000000000000
 11
492.3069780000000
 21
205.5248900000000
 31
0.000000000000000
  0
ARC
  5
2E5
100
AcDbEntity
  8
1
  6
CONTINUOUS
 62
7
100
AcDbCircle
 10
509.9544800000000
 20
224.6321779999999
 30
0.000000000000000
 40
1.300000000000000
100
AcDbArc
 50
94.98363000000002
 51
164.1026300000000
  0
ARC
  5
2E6
100
AcDbEntity
  8
1
  6
CONTINUOUS
 62
7
100
AcDbCircle
 10
517.3608769999998
 20
222.5230620000000
 30
0.000000000000000
 40
9.000000000000000
100
AcDbArc
 50
164.1026300000000
 51
195.8646300000000
  0
LINE
  5
2E7
100
AcDbEntity
  8
1
  6
CONTINUOUS
 62
7
100
AcDbLine
 10
553.2460050000000
 20
163.1220599999998
 30
0.000000000000000
 11
553.2460050000000
 21
183.0248899999999
 31
0.000000000000000
  0
ARC
  5
2E8
100
AcDbEntity
  8
5
  6
PHANTOM
 62
6
100
AcDbCircle
 10
580.8170730000001
 20
175.1192990000000
 30
0.000000000000000
 40
2.000000000000000
100
AcDbArc
 50
135.0000000000000
 51
225.0000000000000
  0
ARC
  5
2E9
100
AcDbEntity
  8
5
  6
PHANTOM
 62
6
100
AcDbCircle
 10
608.0406840000001
 20
175.4728520000000
 30
0.000000000000000
 40
1.500000000000000
100
AcDbArc
 50
309.4767140000000
 51
404.9999999999999
  0
LINE
  5
2EA
100
AcDbEntity
  8
1
  6
CONTINUOUS
 62
7
100
AcDbLine
 10
573.7460050000000
 20
144.5248899999999
 30
0.000000000000000
 11
573.7460050000000
 21
228.5248900000000
 31
0.000000000000000
  0
LINE
  5
2EB
100
AcDbEntity
  8
1
  6
CONTINUOUS
 62
7
100
AcDbLine
 10
576.2460049999997
 20
144.5248899999999
 30
0.000000000000000
 11
576.2460049999997
 21
228.5248900000000
 31
0.000000000000000
  0
LINE
  5
2EC
100
AcDbEntity
  8
1
  6
CONTINUOUS
 62
7
100
AcDbLine
 10
574.7460049999999
 20
144.5248899999999
 30
0.000000000000000
 11
574.7460049999999
 21
228.5248900000000
 31
0.000000000000000
  0
LINE
  5
2ED
100
AcDbEntity
  8
1
  6
CONTINUOUS
 62
7
100
AcDbLine
 10
577.7460050000000
 20
225.5248900000000
 30
0.000000000000000
 11
577.7460050000000
 21
147.5248899999999
 31
0.000000000000000
  0
LINE
  5
2EE
100
AcDbEntity
  8
1
  6
CONTINUOUS
 62
7
100
AcDbLine
 10
578.2460050000000
 20
199.0945289999999
 30
0.000000000000000
 11
578.2460050000000
 21
160.0248899999999
 31
0.000000000000000
  0
LINE
  5
2EF
100
AcDbEntity
  8
1
  6
CONTINUOUS
 62
7
100
AcDbLine
 10
576.2460049999997
 20
144.5248899999999
 30
0.000000000000000
 11
573.7460050000000
 21
144.5248899999999
 31
0.000000000000000
  0
LINE
  5
2F0
100
AcDbEntity
  8
4
  6
CENTER
 62
1
100
AcDbLine
 10
575.6325869999998
 20
150.5248899999999
 30
0.000000000000000
 11
566.7460049999997
 21
150.5248899999999
 31
0.000000000000000
  0
LINE
  5
2F1
100
AcDbEntity
  8
1
  6
CONTINUOUS
 62
7
100
AcDbLine
 10
510.9608480000000
 20
154.3248899999998
 30
0.000000000000000
 11
510.9608480000000
 21
146.7248899999999
 31
0.000000000000000
  0
LINE
  5
2F2
100
AcDbEntity
  8
1
  6
CONTINUOUS
 62
7
100
AcDbLine
 10
516.9608480000001
 20
145.5248899999999
 30
0.000000000000000
 11
516.9608480000001
 21
154.5248899999999
 31
0.000000000000000
  0
LINE
  5
2F3
100
AcDbEntity
  8
1
  6
CONTINUOUS
 62
7
100
AcDbLine
 10
511.9608480000001
 20
146.0248900000000
 30
0.000000000000000
 11
511.9608480000001
 21
154.3248899999998
 31
0.000000000000000
  0
LINE
  5
2F4
100
AcDbEntity
  8
1
  6
CONTINUOUS
 62
7
100
AcDbLine
 10
510.9608480000000
 20
146.7248899999999
 30
0.000000000000000
 11
511.9608480000001
 21
146.7248899999999
 31
0.000000000000000
  0
LINE
  5
2F5
100
AcDbEntity
  8
1
  6
CONTINUOUS
 62
7
100
AcDbLine
 10
512.4608480000001
 20
145.5248899999999
 30
0.000000000000000
 11
516.9608480000001
 21
145.5248899999999
 31
0.000000000000000
  0
ARC
  5
2F6
100
AcDbEntity
  8
1
  6
CONTINUOUS
 62
7
100
AcDbCircle
 10
512.4608480000001
 20
146.0248900000000
 30
0.000000000000000
 40
0.5000000000000000
100
AcDbArc
 50
180.0000000000000
 51
270.0000000000000
  0
LINE
  5
2F7
100
AcDbEntity
  8
1
  6
CONTINUOUS
 62
7
100
AcDbLine
 10
510.9608479999998
 20
149.5248899999999
 30
0.000000000000000
 11
511.9608479999999
 21
150.5248899999999
 31
0.000000000000000
  0
LINE
  5
2F8
100
AcDbEntity
  8
1
  6
CONTINUOUS
 62
7
100
AcDbLine
 10
510.9608479999999
 20
150.5248899999999
 30
0.000000000000000
 11
511.9608480000001
 21
151.5248900000000
 31
0.000000000000000
  0
LINE
  5
2F9
100
AcDbEntity
  8
1
  6
CONTINUOUS
 62
7
100
AcDbLine
 10
510.9608480000000
 20
154.3248899999998
 30
0.000000000000000
 11
511.9608480000001
 21
154.3248899999998
 31
0.000000000000000
  0
LINE
  5
2FA
100
AcDbEntity
  8
1
  6
CONTINUOUS
 62
7
100
AcDbLine
 10
512.4608480000001
 20
154.5248899999999
 30
0.000000000000000
 11
516.9608480000001
 21
154.5248899999999
 31
0.000000000000000
  0
ARC
  5
2FB
100
AcDbEntity
  8
1
  6
CONTINUOUS
 62
7
100
AcDbCircle
 10
512.4608480000001
 20
154.0248899999999
 30
0.000000000000000
 40
0.5000000000000000
100
AcDbArc
 50
90.00000000000000
 51
180.0000000000000
  0
LINE
  5
2FC
100
AcDbEntity
  8
1
  6
CONTINUOUS
 62
7
100
AcDbLine
 10
570.2460050000000
 20
154.0248899999999
 30
0.000000000000000
 11
570.2460050000000
 21
147.0248900000000
 31
0.000000000000000
  0
LINE
  5
2FD
100
AcDbEntity
  8
1
  6
CONTINUOUS
 62
7
100
AcDbLine
 10
570.2460050000000
 20
154.0248900000000
 30
0.000000000000000
 11
569.7460049999999
 21
153.5248900000000
 31
0.000000000000000
  0
LINE
  5
2FE
100
AcDbEntity
  8
1
  6
CONTINUOUS
 62
7
100
AcDbLine
 10
570.2460049999999
 20
147.0248899999999
 30
0.000000000000000
 11
569.7460049999999
 21
147.5248899999999
 31
0.000000000000000
  0
LINE
  5
2FF
100
AcDbEntity
  8
1
  6
CONTINUOUS
 62
7
100
AcDbLine
 10
569.7460050000000
 20
153.5248900000000
 30
0.000000000000000
 11
569.7460050000000
 21
147.5248899999999
 31
0.000000000000000
  0
LINE
  5
300
100
AcDbEntity
  8
1
  6
CONTINUOUS
 62
7
100
AcDbLine
 10
573.7460050000000
 20
147.0248900000000
 30
0.000000000000000
 11
570.2460050000000
 21
147.0248900000000
 31
0.000000000000000
  0
ARC
  5
301
100
AcDbEntity
  8
1
  6
CONTINUOUS
 62
7
100
AcDbCircle
 10
573.7460050000000
 20
205.5248900000000
 30
0.000000000000000
 40
49.50000000000000
100
AcDbArc
 50
248.7377459999999
 51
270.0000000000000
  0
ARC
  5
302
100
AcDbEntity
  8
1
  6
CONTINUOUS
 62
7
100
AcDbCircle
 10
557.2460050000000
 20
163.1220599999998
 30
0.000000000000000
 40
4.000000000000000
100
AcDbArc
 50
180.0000000000000
 51
248.7377459999999
  0
LINE
  5
303
100
AcDbEntity
  8
1
  6
CONTINUOUS
 62
7
100
AcDbLine
 10
573.7460050000000
 20
154.0248899999999
 30
0.000000000000000
 11
570.2460050000000
 21
154.0248899999999
 31
0.000000000000000
  0
LINE
  5
304
100
AcDbEntity
  8
5
  6
PHANTOM
 62
6
100
AcDbLine
 10
608.9943309999999
 20
174.3150269999999
 30
0.000000000000000
 11
603.3090570000001
 21
169.6323290000000
 31
0.000000000000000
  0
LINE
  5
305
100
AcDbEntity
  8
1
  6
CONTINUOUS
 62
7
100
AcDbLine
 10
577.7460050000000
 20
147.5248899999999
 30
0.000000000000000
 11
576.2460049999999
 21
144.5248899999999
 31
0.000000000000000
  0
ARC
  5
306
100
AcDbEntity
  8
5
  6
PHANTOM
 62
6
100
AcDbCircle
 10
591.3020219999999
 20
164.6343500000000
 30
0.000000000000000
 40
2.000000000000000
100
AcDbArc
 50
225.0000000000000
 51
293.2358679999999
  0
LINE
  5
307
100
AcDbEntity
  8
5
  6
PHANTOM
 62
6
100
AcDbLine
 10
579.4028590000001
 20
173.7050849999999
 30
0.000000000000000
 11
589.8878080000002
 21
163.2201360000000
 31
0.000000000000000
  0
ARC
  5
308
100
AcDbEntity
  8
1
  6
CONTINUOUS
 62
7
100
AcDbCircle
 10
576.7460049999997
 20
160.0248899999999
 30
0.000000000000000
 40
1.500000000000000
100
AcDbArc
 50
311.8103150000000
 51
360.0000000000000
  0
ARC
  5
309
100
AcDbEntity
  8
5
  6
PHANTOM
 62
6
100
AcDbCircle
 10
573.7460050000000
 20
205.5248900000000
 30
0.000000000000000
 40
46.50000000000000
100
AcDbArc
 50
293.2358679999999
 51
309.4767140000000
  0
LINE
  5
30A
100
AcDbEntity
  8
1
  6
CONTINUOUS
 62
7
100
AcDbLine
 10
576.2460049999997
 20
228.5248900000000
 30
0.000000000000000
 11
573.7460050000000
 21
228.5248900000000
 31
0.000000000000000
  0
LINE
  5
30B
100
AcDbEntity
  8
4
  6
CENTER
 62
1
100
AcDbLine
 10
575.6325869999998
 20
222.5248899999999
 30
0.000000000000000
 11
566.7460049999997
 21
222.5248899999999
 31
0.000000000000000
  0
LINE
  5
30C
100
AcDbEntity
  8
4
  6
CENTER
 62
1
100
AcDbLine
 10
580.0015919999997
 20
205.5248900000000
 30
0.000000000000000
 11
542.0460050000000
 21
205.5248900000000
 31
0.000000000000000
  0
LINE
  5
30D
100
AcDbEntity
  8
1
  6
CONTINUOUS
 62
7
100
AcDbLine
 10
511.9608780000000
 20
227.0248899999999
 30
0.000000000000000
 11
511.9608780000000
 21
218.7248899999999
 31
0.000000000000000
  0
LINE
  5
30E
100
AcDbEntity
  8
1
  6
CONTINUOUS
 62
7
100
AcDbLine
 10
510.9608780000000
 20
226.3248899999999
 30
0.000000000000000
 11
510.9608780000000
 21
218.7248899999999
 31
0.000000000000000
  0
LINE
  5
30F
100
AcDbEntity
  8
1
  6
CONTINUOUS
 62
7
100
AcDbLine
 10
516.9608779999999
 20
227.5248900000000
 30
0.000000000000000
 11
516.9608779999999
 21
218.5248899999999
 31
0.000000000000000
  0
LINE
  5
310
100
AcDbEntity
  8
1
  6
CONTINUOUS
 62
7
100
AcDbLine
 10
569.7460050000000
 20
225.5248900000000
 30
0.000000000000000
 11
569.7460050000000
 21
219.5248900000000
 31
0.000000000000000
  0
LINE
  5
311
100
AcDbEntity
  8
1
  6
CONTINUOUS
 62
7
100
AcDbLine
 10
570.2460050000000
 20
226.0248900000000
 30
0.000000000000000
 11
570.2460050000000
 21
219.0248899999999
 31
0.000000000000000
  0
LINE
  5
312
100
AcDbEntity
  8
1
  6
CONTINUOUS
 62
7
100
AcDbLine
 10
510.9608780000000
 20
218.7248899999999
 30
0.000000000000000
 11
511.9608780000000
 21
218.7248899999999
 31
0.000000000000000
  0
ARC
  5
313
100
AcDbEntity
  8
1
  6
CONTINUOUS
 62
7
100
AcDbCircle
 10
512.4608779999999
 20
219.0248899999999
 30
0.000000000000000
 40
0.5000000000000000
100
AcDbArc
 50
180.0000000000000
 51
270.0000000000000
  0
LINE
  5
314
100
AcDbEntity
  8
1
  6
CONTINUOUS
 62
7
100
AcDbLine
 10
512.4608779999999
 20
218.5248899999999
 30
0.000000000000000
 11
516.9608779999999
 21
218.5248899999999
 31
0.000000000000000
  0
LINE
  5
315
100
AcDbEntity
  8
1
  6
CONTINUOUS
 62
7
100
AcDbLine
 10
548.0460050000000
 20
215.2676759999999
 30
0.000000000000000
 11
548.0460050000000
 21
194.2748899999999
 31
0.000000000000000
  0
LINE
  5
316
100
AcDbEntity
  8
1
  6
CONTINUOUS
 62
7
100
AcDbLine
 10
550.0460050000000
 20
215.2676759999999
 30
0.000000000000000
 11
550.0460050000000
 21
194.2748899999999
 31
0.000000000000000
  0
LINE
  5
317
100
AcDbEntity
  8
1
  6
CONTINUOUS
 62
7
100
AcDbLine
 10
550.5460050000000
 20
214.4841819999999
 30
0.000000000000000
 11
550.5460050000000
 21
195.0248900000000
 31
0.000000000000000
  0
LINE
  5
318
100
AcDbEntity
  8
1
  6
CONTINUOUS
 62
7
100
AcDbLine
 10
550.1460049999998
 20
214.1851439999999
 30
0.000000000000000
 11
550.1460049999998
 21
195.7748900000000
 31
0.000000000000000
  0
LINE
  5
319
100
AcDbEntity
  8
1
  6
CONTINUOUS
 62
7
100
AcDbLine
 10
561.7460050000000
 20
195.0248900000000
 30
0.000000000000000
 11
561.7460050000000
 21
205.5248900000000
 31
0.000000000000000
  0
LINE
  5
31A
100
AcDbEntity
  8
1
  6
CONTINUOUS
 62
7
100
AcDbLine
 10
564.2460049999997
 20
184.0248899999999
 30
0.000000000000000
 11
554.2460049999999
 21
184.0248899999999
 31
0.000000000000000
  0
LINE
  5
31B
100
AcDbEntity
  8
1
  6
CONTINUOUS
 62
7
100
AcDbLine
 10
564.2460049999997
 20
194.0248900000000
 30
0.000000000000000
 11
551.4460050000000
 21
194.0248900000000
 31
0.000000000000000
  0
ARC
  5
31C
100
AcDbEntity
  8
1
  6
CONTINUOUS
 62
7
100
AcDbCircle
 10
551.5460050000000
 20
195.0248900000000
 30
0.000000000000000
 40
1.000000000000000
100
AcDbArc
 50
180.0000000000000
 51
270.0000000000000
  0
LINE
  5
31D
100
AcDbEntity
  8
1
  6
CONTINUOUS
 62
7
100
AcDbLine
 10
548.0460050000000
 20
194.2748899999999
 30
0.000000000000000
 11
550.0460050000000
 21
194.2748899999999
 31
0.000000000000000
  0
LINE
  5
31E
100
AcDbEntity
  8
1
  6
CONTINUOUS
 62
7
100
AcDbLine
 10
550.3460050000000
 20
195.5248899999999
 30
0.000000000000000
 11
550.5460050000000
 21
195.5248899999999
 31
0.000000000000000
  0
ARC
  5
31F
100
AcDbEntity
  8
1
  6
CONTINUOUS
 62
7
100
AcDbCircle
 10
550.4022550000000
 20
195.7748900000000
 30
0.000000000000000
 40
0.2562500000000000
100
AcDbArc
 50
180.0000000000000
 51
257.3196170000000
  0
ARC
  5
320
100
AcDbEntity
  8
1
  6
CONTINUOUS
 62
7
100
AcDbCircle
 10
554.2460049999999
 20
183.0248899999999
 30
0.000000000000000
 40
1.000000000000000
100
AcDbArc
 50
90.00000000000000
 51
180.0000000000000
  0
ARC
  5
321
100
AcDbEntity
  8
1
  6
CONTINUOUS
 62
7
100
AcDbCircle
 10
562.7460049999999
 20
195.0248900000000
 30
0.000000000000000
 40
1.000000000000000
100
AcDbArc
 50
180.0000000000000
 51
270.0000000000000
  0
ARC
  5
322
100
AcDbEntity
  8
1
  6
CONTINUOUS
 62
7
100
AcDbCircle
 10
564.2460049999997
 20
193.5248899999999
 30
0.000000000000000
 40
0.5000000000000000
100
AcDbArc
 50
0.000000000000000
 51
90.00000000000000
  0
LINE
  5
323
100
AcDbEntity
  8
1
  6
CONTINUOUS
 62
7
100
AcDbLine
 10
564.7460049999997
 20
181.0248899999999
 30
0.000000000000000
 11
564.7460049999997
 21
197.0248899999999
 31
0.000000000000000
  0
ARC
  5
324
100
AcDbEntity
  8
1
  6
CONTINUOUS
 62
7
100
AcDbCircle
 10
564.2460049999997
 20
184.5248899999999
 30
0.000000000000000
 40
0.5000000000000000
100
AcDbArc
 50
270.0000000000000
 51
360.0000000000000
  0
LINE
  5
325
100
AcDbEntity
  8
1
  6
CONTINUOUS
 62
7
100
AcDbLine
 10
551.5460050000000
 20
215.4841819999998
 30
0.000000000000000
 11
572.7460049999997
 21
215.4841819999998
 31
0.000000000000000
  0
LINE
  5
326
100
AcDbEntity
  8
1
  6
CONTINUOUS
 62
7
100
AcDbLine
 10
573.7460050000000
 20
217.0248900000000
 30
0.000000000000000
 11
548.6460049999998
 21
217.0248900000000
 31
0.000000000000000
  0
LINE
  5
327
100
AcDbEntity
  8
1
  6
CONTINUOUS
 62
7
100
AcDbLine
 10
550.1460049999998
 20
211.4248900000000
 30
0.000000000000000
 11
550.0460050000000
 21
211.4248900000000
 31
0.000000000000000
  0
LINE
  5
328
100
AcDbEntity
  8
1
  6
CONTINUOUS
 62
7
100
AcDbLine
 10
550.1460049999998
 20
214.1851439999999
 30
0.000000000000000
 11
550.5460050000000
 21
214.1851439999999
 31
0.000000000000000
  0
ARC
  5
329
100
AcDbEntity
  8
1
  6
CONTINUOUS
 62
7
100
AcDbCircle
 10
551.5460050000000
 20
214.4841819999999
 30
0.000000000000000
 40
1.000000000000000
100
AcDbArc
 50
90.00000000000000
 51
180.0000000000000
  0
ARC
  5
32A
100
AcDbEntity
  8
1
  6
CONTINUOUS
 62
7
100
AcDbCircle
 10
548.6460049999998
 20
216.8248900000000
 30
0.000000000000000
 40
0.2000000000000000
100
AcDbArc
 50
90.00000000000000
 51
180.0000000000000
  0
LINE
  5
32B
100
AcDbEntity
  8
1
  6
CONTINUOUS
 62
7
100
AcDbLine
 10
550.0460050000000
 20
213.1438160000000
 30
0.000000000000000
 11
550.1460049999998
 21
213.1438160000000
 31
0.000000000000000
  0
LINE
  5
32C
100
AcDbEntity
  8
1
  6
CONTINUOUS
 62
7
100
AcDbLine
 10
548.4460050000000
 20
216.8248900000000
 30
0.000000000000000
 11
548.4460050000000
 21
215.2676759999999
 31
0.000000000000000
  0
LINE
  5
32D
100
AcDbEntity
  8
1
  6
CONTINUOUS
 62
7
100
AcDbLine
 10
548.0460050000000
 20
215.2676759999999
 30
0.000000000000000
 11
550.0460050000000
 21
215.2676759999999
 31
0.000000000000000
  0
LINE
  5
32E
100
AcDbEntity
  8
1
  6
CONTINUOUS
 62
7
100
AcDbLine
 10
545.0460050000000
 20
210.5248899999998
 30
0.000000000000000
 11
548.0460050000000
 21
210.5248899999998
 31
0.000000000000000
  0
LINE
  5
32F
100
AcDbEntity
  8
1
  6
CONTINUOUS
 62
7
100
AcDbLine
 10
550.1460049999998
 20
199.6248899999999
 30
0.000000000000000
 11
550.0460050000000
 21
199.6248899999999
 31
0.000000000000000
  0
LINE
  5
330
100
AcDbEntity
  8
1
  6
CONTINUOUS
 62
7
100
AcDbLine
 10
545.0460050000000
 20
200.5248900000000
 30
0.000000000000000
 11
548.0460050000000
 21
200.5248900000000
 31
0.000000000000000
  0
LINE
  5
331
100
AcDbEntity
  8
1
  6
CONTINUOUS
 62
7
100
AcDbLine
 10
545.0460050000000
 20
204.8680360000000
 30
0.000000000000000
 11
548.0460050000000
 21
204.8680360000000
 31
0.000000000000000
  0
LINE
  5
332
100
AcDbEntity
  8
1
  6
CONTINUOUS
 62
7
100
AcDbLine
 10
545.0460050000000
 20
206.1817440000000
 30
0.000000000000000
 11
548.0460050000000
 21
206.1817440000000
 31
0.000000000000000
  0
LINE
  5
333
100
AcDbEntity
  8
1
  6
CONTINUOUS
 62
7
100
AcDbLine
 10
545.0460050000000
 20
210.5248899999998
 30
0.000000000000000
 11
545.0460050000000
 21
200.5248900000000
 31
0.000000000000000
  0
LINE
  5
334
100
AcDbEntity
  8
1
  6
CONTINUOUS
 62
7
100
AcDbLine
 10
570.2460050000000
 20
219.0248899999999
 30
0.000000000000000
 11
569.7460050000000
 21
219.5248900000000
 31
0.000000000000000
  0
ARC
  5
335
100
AcDbEntity
  8
1
  6
CONTINUOUS
 62
7
100
AcDbCircle
 10
573.7460050000000
 20
216.0248900000000
 30
0.000000000000000
 40
1.000000000000000
100
AcDbArc
 50
90.00000000000000
 51
180.0000000000000
  0
LINE
  5
336
100
AcDbEntity
  8
1
  6
CONTINUOUS
 62
7
100
AcDbLine
 10
573.7460050000000
 20
219.0248899999999
 30
0.000000000000000
 11
570.2460050000000
 21
219.0248899999999
 31
0.000000000000000
  0
LINE
  5
337
100
AcDbEntity
  8
1
  6
CONTINUOUS
 62
7
100
AcDbLine
 10
572.7460049999997
 20
205.5248900000000
 30
0.000000000000000
 11
572.7460049999997
 21
216.0248900000000
 31
0.000000000000000
  0
LINE
  5
338
100
AcDbEntity
  8
1
  6
CONTINUOUS
 62
7
100
AcDbLine
 10
510.9608779999999
 20
221.5248900000000
 30
0.000000000000000
 11
511.9608780000000
 21
222.5248899999999
 31
0.000000000000000
  0
LINE
  5
339
100
AcDbEntity
  8
1
  6
CONTINUOUS
 62
7
100
AcDbLine
 10
510.9608780000000
 20
222.5248899999999
 30
0.000000000000000
 11
511.9608780000000
 21
223.5248900000000
 31
0.000000000000000
  0
LINE
  5
33A
100
AcDbEntity
  8
1
  6
CONTINUOUS
 62
7
100
AcDbLine
 10
510.9608780000000
 20
226.3248899999999
 30
0.000000000000000
 11
511.9608780000000
 21
226.3248899999999
 31
0.000000000000000
  0
ARC
  5
33B
100
AcDbEntity
  8
1
  6
CONTINUOUS
 62
7
100
AcDbCircle
 10
512.4608779999999
 20
227.0248899999999
 30
0.000000000000000
 40
0.5000000000000000
100
AcDbArc
 50
90.00000000000000
 51
180.0000000000000
  0
LINE
  5
33C
100
AcDbEntity
  8
1
  6
CONTINUOUS
 62
7
100
AcDbLine
 10
512.4608779999999
 20
227.5248900000000
 30
0.000000000000000
 11
516.9608779999999
 21
227.5248900000000
 31
0.000000000000000
  0
LINE
  5
33D
100
AcDbEntity
  8
1
  6
CONTINUOUS
 62
7
100
AcDbLine
 10
570.2460049999999
 20
226.0248900000000
 30
0.000000000000000
 11
569.7460049999999
 21
225.5248900000000
 31
0.000000000000000
  0
LINE
  5
33E
100
AcDbEntity
  8
1
  6
CONTINUOUS
 62
7
100
AcDbLine
 10
573.7460050000000
 20
226.0248900000000
 30
0.000000000000000
 11
570.2460050000000
 21
226.0248900000000
 31
0.000000000000000
  0
LINE
  5
33F
100
AcDbEntity
  8
5
  6
PHANTOM
 62
6
100
AcDbLine
 10
581.4749369999997
 20
204.1599189999999
 30
0.000000000000000
 11
609.1013439999999
 21
176.5335120000000
 31
0.000000000000000
  0
LINE
  5
340
100
AcDbEntity
  8
5
  6
PHANTOM
 62
6
100
AcDbLine
 10
582.6703690000002
 20
195.8934200000000
 30
0.000000000000000
 11
586.4739270000001
 21
192.0898610000000
 31
0.000000000000000
  0
LINE
  5
341
100
AcDbEntity
  8
5
  6
PHANTOM
 62
6
100
AcDbLine
 10
579.4854720000000
 20
195.9749280000000
 30
0.000000000000000
 11
582.6703690000002
 21
195.8934200000000
 31
0.000000000000000
  0
LINE
  5
342
100
AcDbEntity
  8
5
  6
PHANTOM
 62
6
100
AcDbLine
 10
586.4739270000000
 20
183.6045799999999
 30
0.000000000000000
 11
579.4028590000000
 21
176.5335119999999
 31
0.000000000000000
  0
ARC
  5
343
100
AcDbEntity
  8
5
  6
PHANTOM
 62
6
100
AcDbCircle
 10
582.2312860000002
 20
187.8472209999999
 30
0.000000000000000
 40
6.000000000000000
100
AcDbArc
 50
315.0000000000000
 51
404.9999999999999
  0
ARC
  5
344
100
AcDbEntity
  8
1
  6
CONTINUOUS
 62
7
100
AcDbCircle
 10
582.4434179999998
 20
208.8482919999999
 30
0.000000000000000
 40
1.000000000000000
100
AcDbArc
 50
315.0000000000000
 51
406.4659940000000
  0
ARC
  5
345
100
AcDbEntity
  8
1
  6
CONTINUOUS
 62
7
100
AcDbCircle
 10
573.7460050000000
 20
205.5248900000000
 30
0.000000000000000
 40
9.400000000000000
100
AcDbArc
 50
46.46599400000000
 51
64.81566300000000
  0
LINE
  5
346
100
AcDbEntity
  8
1
  6
CONTINUOUS
 62
7
100
AcDbLine
 10
580.2205840000000
 20
212.3395680000000
 30
0.000000000000000
 11
583.1322029999999
 21
209.5732579999999
 31
0.000000000000000
  0
ARC
  5
347
100
AcDbEntity
  8
5
  6
PHANTOM
 62
6
100
AcDbCircle
 10
588.5460050000000
 20
211.2309869999999
 30
0.000000000000000
 40
10.00000000000000
100
AcDbArc
 50
220.7938950000000
 51
225.0000000000000
  0
ARC
  5
348
100
AcDbEntity
  8
1
  6
CONTINUOUS
 62
7
100
AcDbCircle
 10
588.2460049999997
 20
199.0945289999999
 30
0.000000000000000
 40
10.00000000000000
100
AcDbArc
 50
135.0000000000000
 51
180.0000000000000
  0
LINE
  5
349
100
AcDbEntity
  8
1
  6
CONTINUOUS
 62
7
100
AcDbLine
 10
583.1505250000000
 20
208.1411850000000
 30
0.000000000000000
 11
581.1749369999999
 21
206.1655969999998
 31
0.000000000000000
  0
LINE
  5
34A
100
AcDbEntity
  8
1
  6
CONTINUOUS
 62
7
100
AcDbLine
 10
576.2460049999997
 20
228.5248900000000
 30
0.000000000000000
 11
577.7460050000000
 21
225.5248900000000
 31
0.000000000000000
  0
LINE
  5
34B
100
AcDbEntity
  8
1
  6
CONTINUOUS
 62
7
100
AcDbLine
 10
38.50000000000000
 20
267.7042480000000
 30
0.000000000000000
 11
25.50000000000000
 21
267.7042480000000
 31
0.000000000000000
  0
LINE
  5
34C
100
AcDbEntity
  8
1
  6
CONTINUOUS
 62
7
100
AcDbLine
 10
38.50000000000000
 20
279.7042479999999
 30
0.000000000000000
 11
25.50000000000000
 21
279.7042479999999
 31
0.000000000000000
  0
LINE
  5
34D
100
AcDbEntity
  8
1
  6
CONTINUOUS
 62
7
100
AcDbLine
 10
27.09230800000002
 20
268.9927089999999
 30
0.000000000000000
 11
37.29230799999999
 21
273.2427089999999
 31
0.000000000000000
  0
LINE
  5
34E
100
AcDbEntity
  8
1
  6
CONTINUOUS
 62
7
100
AcDbLine
 10
27.09230800000002
 20
278.4157859999999
 30
0.000000000000000
 11
37.29230799999999
 21
274.1657860000000
 31
0.000000000000000
  0
ARC
  5
34F
100
AcDbEntity
  8
1
  6
CONTINUOUS
 62
7
100
AcDbCircle
 10
25.50000000000000
 20
268.2042480000000
 30
0.000000000000000
 40
0.5000000000000000
100
AcDbArc
 50
180.0000000000000
 51
270.0000000000000
  0
LINE
  5
350
100
AcDbEntity
  8
1
  6
CONTINUOUS
 62
7
100
AcDbLine
 10
25.00000000000000
 20
279.2042480000000
 30
0.000000000000000
 11
25.00000000000000
 21
268.2042480000000
 31
0.000000000000000
  0
ARC
  5
351
100
AcDbEntity
  8
1
  6
CONTINUOUS
 62
7
100
AcDbCircle
 10
25.50000000000000
 20
279.2042480000000
 30
0.000000000000000
 40
0.5000000000000000
100
AcDbArc
 50
90.00000000000000
 51
180.0000000000000
  0
LINE
  5
352
100
AcDbEntity
  8
1
  6
CONTINUOUS
 62
7
100
AcDbLine
 10
26.40000000000000
 20
269.4542479999999
 30
0.000000000000000
 11
26.40000000000000
 21
277.9542479999999
 31
0.000000000000000
  0
ARC
  5
353
100
AcDbEntity
  8
1
  6
CONTINUOUS
 62
7
100
AcDbCircle
 10
26.89999999999999
 20
277.9542479999999
 30
0.000000000000000
 40
0.5000000000000000
100
AcDbArc
 50
67.38013500000000
 51
180.0000000000000
  0
ARC
  5
354
100
AcDbEntity
  8
1
  6
CONTINUOUS
 62
7
100
AcDbCircle
 10
26.89999999999999
 20
269.4542479999999
 30
0.000000000000000
 40
0.5000000000000000
100
AcDbArc
 50
180.0000000000000
 51
292.6198649999999
  0
ARC
  5
355
100
AcDbEntity
  8
1
  6
CONTINUOUS
 62
7
100
AcDbCircle
 10
38.50000000000000
 20
268.2042480000000
 30
0.000000000000000
 40
0.5000000000000000
100
AcDbArc
 50
270.0000000000000
 51
360.0000000000000
  0
LINE
  5
356
100
AcDbEntity
  8
1
  6
CONTINUOUS
 62
7
100
AcDbLine
 10
39.00000000000000
 20
279.2042480000000
 30
0.000000000000000
 11
39.00000000000000
 21
268.2042480000000
 31
0.000000000000000
  0
ARC
  5
357
100
AcDbEntity
  8
1
  6
CONTINUOUS
 62
7
100
AcDbCircle
 10
38.50000000000000
 20
279.2042480000000
 30
0.000000000000000
 40
0.5000000000000000
100
AcDbArc
 50
0.000000000000000
 51
90.00000000000000
  0
ARC
  5
358
100
AcDbEntity
  8
1
  6
CONTINUOUS
 62
7
100
AcDbCircle
 10
37.10000000000000
 20
273.7042479999999
 30
0.000000000000000
 40
0.5000000000000000
100
AcDbArc
 50
292.6198649999999
 51
427.3801350000000
  0
ENDSEC
  0
SECTION
  2
OBJECTS
  0
DICTIONARY
  5
382
100
AcDbDictionary
  3
ACAD_GROUP
350
383
  3
ACAD_LAYOUT
350
384
  3
ACAD_MLINESTYLE
350
385
  0
DICTIONARY
  5
383
102
{ACAD_REACTORS
330
382
102
}
330
382
100
AcDbDictionary
  0
DICTIONARY
  5
384
102
{ACAD_REACTORS
330
382
102
}
330
382
100
AcDbDictionary
  3
Model
350
386
  3
ﾚｲｱｳﾄ1
350
387
  3
ﾚｲｱｳﾄ2
350
388
  0
DICTIONARY
  5
385
102
{ACAD_REACTORS
330
382
102
}
330
382
100
AcDbDictionary
  3
STANDARD
350
389
  0
LAYOUT
  5
386
102
{ACAD_REACTORS
330
384
102
}
330
384
100
AcDbPlotSettings
 70
11952
  4
A3
 44
297.000000
 45
420.000000
 73
  1
 72
  1
100
AcDbLayout
  1
Model
 71
0
330
379
  0
LAYOUT
  5
387
102
{ACAD_REACTORS
330
384
102
}
330
384
100
AcDbPlotSettings
100
AcDbLayout
  1
ﾚｲｱｳﾄ1
 71
1
330
37A
  0
LAYOUT
  5
388
102
{ACAD_REACTORS
330
384
102
}
330
384
100
AcDbPlotSettings
100
AcDbLayout
  1
ﾚｲｱｳﾄ2
 71
2
330
37B
  0
MLINESTYLE
  5
389
102
{ACAD_REACTORS
330
385
102
}
330
385
100
AcDbMlineStyle
  2
STANDARD
 70
     0
  3

 62
   256
 51
90.00
 52
90.00
 71
     2
 49
0.50
 62
   256
  6
BYLAYER
 49
-0.50
 62
   256
  6
BYLAYER
  0
ENDSEC
  0
EOF
